  0
SECTION
  2
HEADER
  9
$ACADVER
  1
AC1018
  9
$ACADMAINTVER
 70
     0
  9
$DWGCODEPAGE
  3
ANSI_932
  9
$INSBASE
 10
0.0
 20
0.0
 30
0.0
  9
$EXTMIN
 10
-630.0
 20
-445.5
 30
0.0
  9
$EXTMAX
 10
630.0
 20
445.5
 30
0.0
  9
$LIMMIN
 10
-630.0
 20
-445.5
  9
$LIMMAX
 10
630.0
 20
445.5
  9
$ORTHOMODE
 70
     0
  9
$REGENMODE
 70
     1
  9
$FILLMODE
 70
     1
  9
$QTEXTMODE
 70
     0
  9
$MIRRTEXT
 70
     1
  9
$LTSCALE
 40
3.0
  9
$ATTMODE
 70
     1
  9
$TEXTSIZE
 40
2.5
  9
$TRACEWID
 40
1.0
  9
$TEXTSTYLE
  7
Standard
  9
$CLAYER
  8
0
  9
$CELTYPE
  6
ByLayer
  9
$CECOLOR
 62
   256
  9
$CELTSCALE
 40
1.0
  9
$DISPSILH
 70
     0
  9
$DIMSCALE
 40
1.0
  9
$DIMASZ
 40
2.5
  9
$DIMEXO
 40
0.625
  9
$DIMDLI
 40
3.75
  9
$DIMRND
 40
0.0
  9
$DIMDLE
 40
0.0
  9
$DIMEXE
 40
1.25
  9
$DIMTP
 40
0.0
  9
$DIMTM
 40
0.0
  9
$DIMTXT
 40
2.5
  9
$DIMCEN
 40
2.5
  9
$DIMTSZ
 40
0.0
  9
$DIMTOL
 70
     0
  9
$DIMLIM
 70
     0
  9
$DIMTIH
 70
     0
  9
$DIMTOH
 70
     0
  9
$DIMSE1
 70
     0
  9
$DIMSE2
 70
     0
  9
$DIMTAD
 70
     1
  9
$DIMZIN
 70
     8
  9
$DIMBLK
  1

  9
$DIMASO
 70
     1
  9
$DIMSHO
 70
     1
  9
$DIMPOST
  1

  9
$DIMAPOST
  1

  9
$DIMALT
 70
     0
  9
$DIMALTD
 70
     3
  9
$DIMALTF
 40
0.03937007874016
  9
$DIMLFAC
 40
1.0
  9
$DIMTOFL
 70
     1
  9
$DIMTVP
 40
0.0
  9
$DIMTIX
 70
     0
  9
$DIMSOXD
 70
     0
  9
$DIMSAH
 70
     0
  9
$DIMBLK1
  1

  9
$DIMBLK2
  1

  9
$DIMSTYLE
  2
ISO-25
  9
$DIMCLRD
 70
     0
  9
$DIMCLRE
 70
     0
  9
$DIMCLRT
 70
     0
  9
$DIMTFAC
 40
1.0
  9
$DIMGAP
 40
0.625
  9
$DIMJUST
 70
     0
  9
$DIMSD1
 70
     0
  9
$DIMSD2
 70
     0
  9
$DIMTOLJ
 70
     0
  9
$DIMTZIN
 70
     8
  9
$DIMALTZ
 70
     0
  9
$DIMALTTZ
 70
     0
  9
$DIMUPT
 70
     0
  9
$DIMDEC
 70
     2
  9
$DIMTDEC
 70
     2
  9
$DIMALTU
 70
     2
  9
$DIMALTTD
 70
     3
  9
$DIMTXSTY
  7
Standard
  9
$DIMAUNIT
 70
     0
  9
$DIMADEC
 70
     0
  9
$DIMALTRND
 40
0.0
  9
$DIMAZIN
 70
     0
  9
$DIMDSEP
 70
    44
  9
$DIMATFIT
 70
     3
  9
$DIMFRAC
 70
     0
  9
$DIMLDRBLK
  1

  9
$DIMLUNIT
 70
     2
  9
$DIMLWD
 70
    -2
  9
$DIMLWE
 70
    -2
  9
$DIMTMOVE
 70
     0
  9
$LUNITS
 70
     2
  9
$LUPREC
 70
     4
  9
$SKETCHINC
 40
1.0
  9
$FILLETRAD
 40
10.0
  9
$AUNITS
 70
     0
  9
$AUPREC
 70
     0
  9
$MENU
  1
.
  9
$ELEVATION
 40
0.0
  9
$PELEVATION
 40
0.0
  9
$THICKNESS
 40
0.0
  9
$LIMCHECK
 70
     0
  9
$CHAMFERA
 40
0.0
  9
$CHAMFERB
 40
0.0
  9
$CHAMFERC
 40
0.0
  9
$CHAMFERD
 40
0.0
  9
$SKPOLY
 70
     0
  9
$TDCREATE
 40
2460018.62303934
  9
$TDUCREATE
 40
2460018.24803934
  9
$TDUPDATE
 40
2460018.623039491
  9
$TDUUPDATE
 40
2460018.248039491
  9
$TDINDWG
 40
0.0000000116
  9
$TDUSRTIMER
 40
0.0000000116
  9
$USRTIMER
 70
     1
  9
$ANGBASE
 50
0.0
  9
$ANGDIR
 70
     0
  9
$PDMODE
 70
     0
  9
$PDSIZE
 40
0.0
  9
$PLINEWID
 40
0.0
  9
$SPLFRAME
 70
     0
  9
$SPLINETYPE
 70
     6
  9
$SPLINESEGS
 70
     8
  9
$HANDSEED
  5
423
  9
$SURFTAB1
 70
     6
  9
$SURFTAB2
 70
     6
  9
$SURFTYPE
 70
     6
  9
$SURFU
 70
     6
  9
$SURFV
 70
     6
  9
$UCSBASE
  2

  9
$UCSNAME
  2

  9
$UCSORG
 10
0.0
 20
0.0
 30
0.0
  9
$UCSXDIR
 10
1.0
 20
0.0
 30
0.0
  9
$UCSYDIR
 10
0.0
 20
1.0
 30
0.0
  9
$UCSORTHOREF
  2

  9
$UCSORTHOVIEW
 70
     0
  9
$UCSORGTOP
 10
0.0
 20
0.0
 30
0.0
  9
$UCSORGBOTTOM
 10
0.0
 20
0.0
 30
0.0
  9
$UCSORGLEFT
 10
0.0
 20
0.0
 30
0.0
  9
$UCSORGRIGHT
 10
0.0
 20
0.0
 30
0.0
  9
$UCSORGFRONT
 10
0.0
 20
0.0
 30
0.0
  9
$UCSORGBACK
 10
0.0
 20
0.0
 30
0.0
  9
$PUCSBASE
  2

  9
$PUCSNAME
  2

  9
$PUCSORG
 10
0.0
 20
0.0
 30
0.0
  9
$PUCSXDIR
 10
1.0
 20
0.0
 30
0.0
  9
$PUCSYDIR
 10
0.0
 20
1.0
 30
0.0
  9
$PUCSORTHOREF
  2

  9
$PUCSORTHOVIEW
 70
     0
  9
$PUCSORGTOP
 10
0.0
 20
0.0
 30
0.0
  9
$PUCSORGBOTTOM
 10
0.0
 20
0.0
 30
0.0
  9
$PUCSORGLEFT
 10
0.0
 20
0.0
 30
0.0
  9
$PUCSORGRIGHT
 10
0.0
 20
0.0
 30
0.0
  9
$PUCSORGFRONT
 10
0.0
 20
0.0
 30
0.0
  9
$PUCSORGBACK
 10
0.0
 20
0.0
 30
0.0
  9
$USERI1
 70
     0
  9
$USERI2
 70
     0
  9
$USERI3
 70
     0
  9
$USERI4
 70
     0
  9
$USERI5
 70
     0
  9
$USERR1
 40
0.0
  9
$USERR2
 40
0.0
  9
$USERR3
 40
0.0
  9
$USERR4
 40
0.0
  9
$USERR5
 40
0.0
  9
$WORLDVIEW
 70
     1
  9
$SHADEDGE
 70
     3
  9
$SHADEDIF
 70
    70
  9
$TILEMODE
 70
     1
  9
$MAXACTVP
 70
    64
  9
$PINSBASE
 10
0.0
 20
0.0
 30
0.0
  9
$PLIMCHECK
 70
     0
  9
$PEXTMIN
 10
1.000000000000000E+20
 20
1.000000000000000E+20
 30
1.000000000000000E+20
  9
$PEXTMAX
 10
-1.000000000000000E+20
 20
-1.000000000000000E+20
 30
-1.000000000000000E+20
  9
$PLIMMIN
 10
0.0
 20
0.0
  9
$PLIMMAX
 10
420.0
 20
297.0
  9
$UNITMODE
 70
     0
  9
$VISRETAIN
 70
     1
  9
$PLINEGEN
 70
     0
  9
$PSLTSCALE
 70
     1
  9
$TREEDEPTH
 70
  3020
  9
$CMLSTYLE
  2
Standard
  9
$CMLJUST
 70
     0
  9
$CMLSCALE
 40
20.0
  9
$PROXYGRAPHICS
 70
     1
  9
$MEASUREMENT
 70
     1
  9
$CELWEIGHT
370
    -1
  9
$ENDCAPS
280
     0
  9
$JOINSTYLE
280
     0
  9
$LWDISPLAY
290
     0
  9
$INSUNITS
 70
     4
  9
$HYPERLINKBASE
  1

  9
$STYLESHEET
  1

  9
$XEDIT
290
     1
  9
$CEPSNTYPE
380
     0
  9
$PSTYLEMODE
290
     1
  9
$FINGERPRINTGUID
  2
{922FC6BA-F754-451A-8B9C-0BE0231F0FEA}
  9
$VERSIONGUID
  2
{FAEB1C32-E019-11D5-929B-00C0DF256EC4}
  9
$EXTNAMES
290
     1
  9
$PSVPSCALE
 40
0.0
  9
$OLESTARTUP
290
     0
  9
$SORTENTS
280
   127
  9
$INDEXCTL
280
     0
  9
$HIDETEXT
280
     1
  9
$XCLIPFRAME
290
     0
  9
$HALOGAP
280
     0
  9
$OBSCOLOR
 70
   257
  9
$OBSLTYPE
280
     0
  9
$INTERSECTIONDISPLAY
280
     0
  9
$INTERSECTIONCOLOR
 70
   257
  9
$DIMASSOC
280
     2
  9
$PROJECTNAME
  1

  0
ENDSEC
  0
SECTION
  2
CLASSES
  0
CLASS
  1
ACDBDICTIONARYWDFLT
  2
AcDbDictionaryWithDefault
  3
ObjectDBX Classes
 90
        0
 91
        4
280
     0
281
     0
  0
CLASS
  1
VISUALSTYLE
  2
AcDbVisualStyle
  3
ObjectDBX Classes
 90
     4095
 91
        4
280
     0
281
     0
  0
CLASS
  1
MATERIAL
  2
AcDbMaterial
  3
ObjectDBX Classes
 90
     1153
 91
        4
280
     0
281
     0
  0
CLASS
  1
SCALE
  2
AcDbScale
  3
ObjectDBX Classes
 90
     1153
 91
        4
280
     0
281
     0
  0
CLASS
  1
TABLESTYLE
  2
AcDbTableStyle
  3
ObjectDBX Classes
 90
     4095
 91
        4
280
     0
281
     0
  0
CLASS
  1
MLEADERSTYLE
  2
AcDbMLeaderStyle
  3
ACDB_MLEADERSTYLE_CLASS
 90
     4095
 91
        4
280
     0
281
     0
  0
CLASS
  1
SUN
  2
AcDbSun
  3
SCENEOE
 90
     1153
 91
        4
280
     0
281
     0
  0
CLASS
  1
DICTIONARYVAR
  2
AcDbDictionaryVar
  3
ObjectDBX Classes
 90
        0
 91
        4
280
     0
281
     0
  0
CLASS
  1
CELLSTYLEMAP
  2
AcDbCellStyleMap
  3
ObjectDBX Classes
 90
     1152
 91
        4
280
     0
281
     0
  0
ENDSEC
  0
SECTION
  2
TABLES
  0
TABLE
  2
VPORT
  5
8
102
{ACAD_XDICTIONARY
360
3DA
102
}
330
0
100
AcDbSymbolTable
 70
     1
  0
VPORT
  5
29
330
8
100
AcDbSymbolTableRecord
100
AcDbViewportTableRecord
  2
*Active
 70
     0
 10
0.0
 20
0.0
 11
1.0
 21
1.0
 12
0.0
 22
0.0
 13
0.0
 23
0.0
 14
10.0
 24
10.0
 15
10.0
 25
10.0
 16
0.0
 26
0.0
 36
1.0
 17
0.0
 27
0.0
 37
0.0
 40
980.1
 41
1.414141414141414
 42
50.0
 43
0.0
 44
0.0
 50
0.0
 51
0.0
 71
     0
 72
 10000
 73
     1
 74
     3
 75
     0
 76
     0
 77
     0
 78
     0
281
     0
 65
     1
110
0.0
120
0.0
130
0.0
111
1.0
121
0.0
131
0.0
112
0.0
122
1.0
132
0.0
 79
     0
146
0.0
  0
ENDTAB
  0
TABLE
  2
LTYPE
  5
5
330
0
100
AcDbSymbolTable
 70
     4
  0
LTYPE
  5
14
330
5
100
AcDbSymbolTableRecord
100
AcDbLinetypeTableRecord
  2
ByBlock
 70
     0
  3

 72
    65
 73
     0
 40
0.0
  0
LTYPE
  5
15
330
5
100
AcDbSymbolTableRecord
100
AcDbLinetypeTableRecord
  2
ByLayer
 70
     0
  3

 72
    65
 73
     0
 40
0.0
  0
LTYPE
  5
16
330
5
100
AcDbSymbolTableRecord
100
AcDbLinetypeTableRecord
  2
Continuous
 70
     0
  3
Solid line
 72
    65
 73
     0
 40
0.0
  0
LTYPE
  5
6F
330
5
100
AcDbSymbolTableRecord
100
AcDbLinetypeTableRecord
  2
JWW_DASHED1
 70
     0
  3
-  --  --  --  --  --  --  --  -
 72
    65
 73
     2
 40
1.693333333333333
 49
0.8466666666666667
 74
     0
 49
-0.8466666666666667
 74
     0
  0
LTYPE
  5
70
330
5
100
AcDbSymbolTableRecord
100
AcDbLinetypeTableRecord
  2
JWW_CENTER1
 70
     0
  3
-----  --  ----------  --  -----
 72
    65
 73
     4
 40
6.773333333333333
 49
4.233333333333333
 74
     0
 49
-0.8466666666666667
 74
     0
 49
0.8466666666666667
 74
     0
 49
-0.8466666666666667
 74
     0
  0
LTYPE
  5
71
330
5
100
AcDbSymbolTableRecord
100
AcDbLinetypeTableRecord
  2
JWW_PHANTOM1
 70
     0
  3
----  -  -  --------  -  -  ----
 72
    65
 73
     6
 40
6.773333333333333
 49
3.386666666666667
 74
     0
 49
-0.8466666666666667
 74
     0
 49
0.4233333333333333
 74
     0
 49
-0.8466666666666667
 74
     0
 49
0.4233333333333333
 74
     0
 49
-0.8466666666666667
 74
     0
  0
ENDTAB
  0
TABLE
  2
LAYER
  5
2
330
0
100
AcDbSymbolTable
 70
    12
  0
LAYER
  5
10
330
2
100
AcDbSymbolTableRecord
100
AcDbLayerTableRecord
  2
0
 70
     0
 62
     7
  6
Continuous
370
    -3
390
F
  0
LAYER
  5
72
330
2
100
AcDbSymbolTableRecord
100
AcDbLayerTableRecord
  2
0-A
 70
     0
 62
     7
  6
Continuous
370
    -3
390
F
  0
LAYER
  5
73
330
2
100
AcDbSymbolTableRecord
100
AcDbLayerTableRecord
  2
躯体
 70
     0
 62
     7
  6
Continuous
370
    -3
390
F
  0
LAYER
  5
74
330
2
100
AcDbSymbolTableRecord
100
AcDbLayerTableRecord
  2
仕上
 70
     0
 62
     7
  6
Continuous
370
    -3
390
F
  0
LAYER
  5
75
330
2
100
AcDbSymbolTableRecord
100
AcDbLayerTableRecord
  2
通り芯
 70
     0
 62
     7
  6
Continuous
370
    -3
390
F
  0
LAYER
  5
76
330
2
100
AcDbSymbolTableRecord
100
AcDbLayerTableRecord
  2
ハッチ
 70
     0
 62
     7
  6
Continuous
370
    -3
390
F
  0
LAYER
  5
77
330
2
100
AcDbSymbolTableRecord
100
AcDbLayerTableRecord
  2
その他
 70
     0
 62
     7
  6
Continuous
370
    -3
390
F
  0
LAYER
  5
78
330
2
100
AcDbSymbolTableRecord
100
AcDbLayerTableRecord
  2
建具
 70
     0
 62
     7
  6
Continuous
370
    -3
390
F
  0
LAYER
  5
79
330
2
100
AcDbSymbolTableRecord
100
AcDbLayerTableRecord
  2
寸法
 70
     0
 62
     7
  6
Continuous
370
    -3
390
F
  0
LAYER
  5
7A
330
2
100
AcDbSymbolTableRecord
100
AcDbLayerTableRecord
  2
0-B
 70
     0
 62
     7
  6
Continuous
370
    -3
390
F
  0
LAYER
  5
7B
330
2
100
AcDbSymbolTableRecord
100
AcDbLayerTableRecord
  2
F-5ﾚｲﾔ
 70
     0
 62
     7
  6
Continuous
370
    -3
390
F
  0
LAYER
  5
7C
330
2
100
AcDbSymbolTableRecord
100
AcDbLayerTableRecord
  2
F-4ﾚｲﾔ
 70
     0
 62
     7
  6
Continuous
370
    -3
390
F
  0
ENDTAB
  0
TABLE
  2
STYLE
  5
3
330
0
100
AcDbSymbolTable
 70
     2
  0
STYLE
  5
11
330
3
100
AcDbSymbolTableRecord
100
AcDbTextStyleTableRecord
  2
Standard
 70
     0
 40
0.0
 41
1.0
 50
0.0
 71
     0
 42
2.5
  3
txt
  4

  0
STYLE
  5
6E
330
3
100
AcDbSymbolTableRecord
100
AcDbTextStyleTableRecord
  2
ＭＳ ゴシック
 70
     0
 40
1.0
 41
1.0
 50
0.0
 71
     0
 42
2.5
  3

  4

1001
ACAD
1000
MS Gothic
1071
    32817
  0
ENDTAB
  0
TABLE
  2
VIEW
  5
6
330
0
100
AcDbSymbolTable
 70
     0
  0
ENDTAB
  0
TABLE
  2
UCS
  5
7
330
0
100
AcDbSymbolTable
 70
     0
  0
ENDTAB
  0
TABLE
  2
APPID
  5
9
330
0
100
AcDbSymbolTable
 70
     2
  0
APPID
  5
12
330
9
100
AcDbSymbolTableRecord
100
AcDbRegAppTableRecord
  2
ACAD
 70
     0
  0
APPID
  5
419
330
9
100
AcDbSymbolTableRecord
100
AcDbRegAppTableRecord
  2
ACAD_MLEADERVER
 70
     0
  0
ENDTAB
  0
TABLE
  2
DIMSTYLE
  5
A
330
0
100
AcDbSymbolTable
 70
     1
100
AcDbDimStyleTable
  0
DIMSTYLE
105
27
330
A
100
AcDbSymbolTableRecord
100
AcDbDimStyleTableRecord
  2
ISO-25
 70
     0
 41
2.5
 42
0.625
 43
3.75
 44
1.25
 73
     0
 74
     0
 77
     1
 78
     8
140
2.5
141
2.5
143
0.03937007874016
147
0.625
171
     3
172
     1
178
     0
271
     2
272
     2
274
     3
278
    44
283
     0
284
     8
340
11
  0
ENDTAB
  0
TABLE
  2
BLOCK_RECORD
  5
1
330
0
100
AcDbSymbolTable
 70
     1
  0
BLOCK_RECORD
  5
1F
330
1
100
AcDbSymbolTableRecord
100
AcDbBlockTableRecord
  2
*Model_Space
340
22
  0
BLOCK_RECORD
  5
1B
330
1
100
AcDbSymbolTableRecord
100
AcDbBlockTableRecord
  2
*Paper_Space
340
1E
  0
BLOCK_RECORD
  5
23
330
1
100
AcDbSymbolTableRecord
100
AcDbBlockTableRecord
  2
*Paper_Space0
340
26
  0
ENDTAB
  0
ENDSEC
  0
SECTION
  2
BLOCKS
  0
BLOCK
  5
20
330
1F
100
AcDbEntity
  8
0
100
AcDbBlockBegin
  2
*Model_Space
 70
     0
 10
0.0
 20
0.0
 30
0.0
  3
*Model_Space
  1

  0
ENDBLK
  5
21
330
1F
100
AcDbEntity
  8
0
100
AcDbBlockEnd
  0
BLOCK
  5
1C
330
1B
100
AcDbEntity
 67
     1
  8
0
100
AcDbBlockBegin
  2
*Paper_Space
 70
     0
 10
0.0
 20
0.0
 30
0.0
  3
*Paper_Space
  1

  0
ENDBLK
  5
1D
330
1B
100
AcDbEntity
 67
     1
  8
0
100
AcDbBlockEnd
  0
BLOCK
  5
24
330
23
100
AcDbEntity
  8
0
100
AcDbBlockBegin
  2
*Paper_Space0
 70
     0
 10
0.0
 20
0.0
 30
0.0
  3
*Paper_Space0
  1

  0
ENDBLK
  5
25
330
23
100
AcDbEntity
  8
0
100
AcDbBlockEnd
  0
ENDSEC
  0
SECTION
  2
ENTITIES
  0
LINE
  5
7D
330
1F
100
AcDbEntity
  8
0-A
  6
Continuous
 62
     4
370
     9
100
AcDbLine
 10
-45.25185504186404
 20
302.7610147036237
 30
0.0
 11
-44.25190617942737
 21
302.7610147036237
 31
0.0
  0
LINE
  5
7E
330
1F
100
AcDbEntity
  8
躯体
  6
Continuous
 62
     2
370
     9
100
AcDbLine
 10
-98.34018440123526
 20
291.3639633379444
 30
0.0
 11
-100.4676741171649
 21
293.4915405415256
 31
0.0
  0
LINE
  5
7F
330
1F
100
AcDbEntity
  8
躯体
  6
Continuous
 62
     2
370
     9
100
AcDbLine
 10
-96.2887039569936
 20
291.4338834690828
 30
0.0
 11
-100.183864175457
 21
295.3290786826068
 31
0.0
  0
LINE
  5
80
330
1F
100
AcDbEntity
  8
躯体
  6
Continuous
 62
     2
370
     9
100
AcDbLine
 10
-111.2186466734964
 20
269.0577967369475
 30
0.0
 11
-114.1248814736215
 21
269.836489328552
 31
0.0
  0
LINE
  5
81
330
1F
100
AcDbEntity
  8
躯体
  6
Continuous
 62
     2
370
     9
100
AcDbLine
 10
-110.2534479062651
 20
267.2462424283839
 30
0.0
 11
-115.5743418898483
 21
268.671941198443
 31
0.0
  0
LINE
  5
82
330
1F
100
AcDbEntity
  8
躯体
  6
Continuous
 62
     2
370
     9
100
AcDbLine
 10
-115.5743418898483
 20
268.671941198443
 30
0.0
 11
-114.1248814736215
 21
269.836489328552
 31
0.0
  0
LINE
  5
83
330
1F
100
AcDbEntity
  8
躯体
  6
Continuous
 62
     2
370
     9
100
AcDbLine
 10
-111.2186466734964
 20
269.0577967369475
 30
0.0
 11
-110.2534479062651
 21
267.2462424283839
 31
0.0
  0
LINE
  5
84
330
1F
100
AcDbEntity
  8
躯体
  6
Continuous
 62
     2
370
     9
100
AcDbLine
 10
-98.34018440123526
 20
291.3639633379444
 30
0.0
 11
-96.2887039569936
 21
291.4338834690828
 31
0.0
  0
LINE
  5
85
330
1F
100
AcDbEntity
  8
躯体
  6
Continuous
 62
     2
370
     9
100
AcDbLine
 10
-100.183864175457
 20
295.3290786826068
 30
0.0
 11
-100.4676741171649
 21
293.4915405415256
 31
0.0
  0
LINE
  5
86
330
1F
100
AcDbEntity
  8
躯体
  6
Continuous
 62
     2
370
     9
100
AcDbLine
 10
-68.25570066910748
 20
312.0206902487454
 30
0.0
 11
-69.03437576318177
 21
314.9269775414615
 31
0.0
  0
LINE
  5
87
330
1F
100
AcDbEntity
  8
躯体
  6
Continuous
 62
     2
370
     9
100
AcDbLine
 10
-66.44414636054388
 20
311.0555264765748
 30
0.0
 11
-67.86984513060303
 21
316.3764029626277
 31
0.0
  0
LINE
  5
88
330
1F
100
AcDbEntity
  8
躯体
  6
Continuous
 62
     2
370
     9
100
AcDbLine
 10
-90.56197225528629
 20
299.1422104789539
 30
0.0
 11
-92.68946197121593
 21
301.2696826973533
 31
0.0
  0
LINE
  5
89
330
1F
100
AcDbEntity
  8
躯体
  6
Continuous
 62
     2
370
     9
100
AcDbLine
 10
-90.63182239630345
 20
297.0907475322426
 30
0.0
 11
-94.5269826147669
 21
300.9859252482364
 31
0.0
  0
LINE
  5
8A
330
1F
100
AcDbEntity
  8
躯体
  6
Continuous
 62
     2
370
     9
100
AcDbLine
 10
-94.5269826147669
 20
300.9859252482364
 30
0.0
 11
-92.68946197121593
 21
301.2696826973533
 31
0.0
  0
LINE
  5
8B
330
1F
100
AcDbEntity
  8
躯体
  6
Continuous
 62
     2
370
     9
100
AcDbLine
 10
-90.56197225528629
 20
299.1422104789539
 30
0.0
 11
-90.63182239630345
 21
297.0907475322426
 31
0.0
  0
LINE
  5
8C
330
1F
100
AcDbEntity
  8
躯体
  6
Continuous
 62
     2
370
     9
100
AcDbLine
 10
-68.25570066910748
 20
312.0206902487454
 30
0.0
 11
-66.44414636054388
 21
311.0555264765748
 31
0.0
  0
LINE
  5
8D
330
1F
100
AcDbEntity
  8
躯体
  6
Continuous
 62
     2
370
     9
100
AcDbLine
 10
-67.86984513060303
 20
316.3764029626277
 30
0.0
 11
-69.03437576318177
 21
314.9269775414615
 31
0.0
  0
LINE
  5
8E
330
1F
100
AcDbEntity
  8
躯体
  6
Continuous
 62
     2
370
     9
100
AcDbLine
 10
-31.8734358359149
 20
314.8677309038152
 30
0.0
 11
-31.09472574678005
 21
317.7740706891223
 31
0.0
  0
LINE
  5
8F
330
1F
100
AcDbEntity
  8
躯体
  6
Continuous
 62
     2
370
     9
100
AcDbLine
 10
-30.78711916384383
 20
313.12609672639
 30
0.0
 11
-29.36142039378472
 21
318.4469907099732
 31
0.0
  0
LINE
  5
90
330
1F
100
AcDbEntity
  8
躯体
  6
Continuous
 62
     2
370
     9
100
AcDbLine
 10
-57.63043037055839
 20
314.8677309038152
 30
0.0
 11
-58.40921044981453
 21
317.774000699001
 31
0.0
  0
LINE
  5
91
330
1F
100
AcDbEntity
  8
躯体
  6
Continuous
 62
     2
370
     9
100
AcDbLine
 10
-58.71674704262946
 20
313.12609672639
 30
0.0
 11
-60.14244581268857
 21
318.4469907099732
 31
0.0
  0
LINE
  5
92
330
1F
100
AcDbEntity
  8
躯体
  6
Continuous
 62
     2
370
     9
100
AcDbLine
 10
-60.14244581268857
 20
318.4469907099732
 30
0.0
 11
-58.40921044981453
 21
317.774000699001
 31
0.0
  0
LINE
  5
93
330
1F
100
AcDbEntity
  8
躯体
  6
Continuous
 62
     2
370
     9
100
AcDbLine
 10
-57.63043037055839
 20
314.8677309038152
 30
0.0
 11
-58.71674704262946
 21
313.12609672639
 31
0.0
  0
LINE
  5
94
330
1F
100
AcDbEntity
  8
躯体
  6
Continuous
 62
     2
370
     9
100
AcDbLine
 10
-31.8734358359149
 20
314.8677309038152
 30
0.0
 11
-30.78711916384383
 21
313.12609672639
 31
0.0
  0
LINE
  5
95
330
1F
100
AcDbEntity
  8
躯体
  6
Continuous
 62
     2
370
     9
100
AcDbLine
 10
-29.36142039378472
 20
318.4469907099732
 30
0.0
 11
-31.09472574678005
 21
317.7740706891223
 31
0.0
  0
LINE
  5
96
330
1F
100
AcDbEntity
  8
躯体
  6
Continuous
 62
     2
370
     9
100
AcDbLine
 10
1.058036058691761
 20
299.1422104789539
 30
0.0
 11
3.185595764742632
 21
301.2697701850049
 31
0.0
  0
LINE
  5
97
330
1F
100
AcDbEntity
  8
躯体
  6
Continuous
 62
     2
370
     9
100
AcDbLine
 10
1.12795618983012
 20
297.0907475322426
 30
0.0
 11
5.023116408293567
 21
300.9859952383576
 31
0.0
  0
LINE
  5
98
330
1F
100
AcDbEntity
  8
躯体
  6
Continuous
 62
     2
370
     9
100
AcDbLine
 10
-21.24816553736581
 20
312.0206902487454
 30
0.0
 11
-20.46949044329153
 21
314.9270475315828
 31
0.0
  0
LINE
  5
99
330
1F
100
AcDbEntity
  8
躯体
  6
Continuous
 62
     2
370
     9
100
AcDbLine
 10
-23.0597198459294
 20
311.0555264765748
 30
0.0
 11
-21.63402107587029
 21
316.3764029626277
 31
0.0
  0
LINE
  5
9A
330
1F
100
AcDbEntity
  8
躯体
  6
Continuous
 62
     2
370
     9
100
AcDbLine
 10
-21.63402107587029
 20
316.3764029626277
 30
0.0
 11
-20.46949044329153
 21
314.9270475315828
 31
0.0
  0
LINE
  5
9B
330
1F
100
AcDbEntity
  8
躯体
  6
Continuous
 62
     2
370
     9
100
AcDbLine
 10
-21.24816553736581
 20
312.0206902487454
 30
0.0
 11
-23.0597198459294
 21
311.0555264765748
 31
0.0
  0
LINE
  5
9C
330
1F
100
AcDbEntity
  8
躯体
  6
Continuous
 62
     2
370
     9
100
AcDbLine
 10
1.058036058691761
 20
299.1422104789539
 30
0.0
 11
1.12795618983012
 21
297.0907475322426
 31
0.0
  0
LINE
  5
9D
330
1F
100
AcDbEntity
  8
躯体
  6
Continuous
 62
     2
370
     9
100
AcDbLine
 10
5.023116408293567
 20
300.9859952383576
 30
0.0
 11
3.185595764742632
 21
301.2697701850049
 31
0.0
  0
LINE
  5
9E
330
1F
100
AcDbEntity
  8
躯体
  6
Continuous
 62
     2
370
     9
100
AcDbLine
 10
21.71478046702304
 20
269.0577967369475
 30
0.0
 11
24.62105026220887
 21
269.836489328552
 31
0.0
  0
LINE
  5
9F
330
1F
100
AcDbEntity
  8
躯体
  6
Continuous
 62
     2
370
     9
100
AcDbLine
 10
20.74961669485241
 20
267.2462424283839
 30
0.0
 11
26.07047568337498
 21
268.671941198443
 31
0.0
  0
LINE
  5
A0
330
1F
100
AcDbEntity
  8
躯体
  6
Continuous
 62
     2
370
     9
100
AcDbLine
 10
8.8362482046407
 20
291.3640508255959
 30
0.0
 11
10.96373792057034
 21
293.4915405415256
 31
0.0
  0
LINE
  5
A1
330
1F
100
AcDbEntity
  8
躯体
  6
Continuous
 62
     2
370
     9
100
AcDbLine
 10
6.784767760399013
 20
291.4338834690828
 30
0.0
 11
10.67992797886246
 21
295.3290786826068
 31
0.0
  0
LINE
  5
A2
330
1F
100
AcDbEntity
  8
躯体
  6
Continuous
 62
     2
370
     9
100
AcDbLine
 10
10.67992797886246
 20
295.3290786826068
 30
0.0
 11
10.96373792057034
 21
293.4915405415256
 31
0.0
  0
LINE
  5
A3
330
1F
100
AcDbEntity
  8
躯体
  6
Continuous
 62
     2
370
     9
100
AcDbLine
 10
8.8362482046407
 20
291.3640508255959
 30
0.0
 11
6.784767760399013
 21
291.4338834690828
 31
0.0
  0
LINE
  5
A4
330
1F
100
AcDbEntity
  8
躯体
  6
Continuous
 62
     2
370
     9
100
AcDbLine
 10
21.71478046702304
 20
269.0577967369475
 30
0.0
 11
20.74961669485241
 21
267.2462424283839
 31
0.0
  0
LINE
  5
A5
330
1F
100
AcDbEntity
  8
躯体
  6
Continuous
 62
     2
370
     9
100
AcDbLine
 10
26.07047568337498
 20
268.671941198443
 30
0.0
 11
24.62105026220887
 21
269.836489328552
 31
0.0
  0
LINE
  5
A6
330
1F
100
AcDbEntity
  8
躯体
  6
Continuous
 62
     2
370
     9
100
AcDbLine
 10
24.56176862950194
 20
258.4325264383984
 30
0.0
 11
27.46803842468772
 21
259.2112715225939
 31
0.0
  0
LINE
  5
A7
330
1F
100
AcDbEntity
  8
躯体
  6
Continuous
 62
     2
370
     9
100
AcDbLine
 10
22.82013445207672
 20
259.5188431104694
 30
0.0
 11
28.14099344059928
 21
260.9445418805286
 31
0.0
  0
LINE
  5
A8
330
1F
100
AcDbEntity
  8
躯体
  6
Continuous
 62
     2
370
     9
100
AcDbLine
 10
28.14099344059928
 20
260.9445418805286
 30
0.0
 11
27.46803842468772
 21
259.2112715225939
 31
0.0
  0
LINE
  5
A9
330
1F
100
AcDbEntity
  8
躯体
  6
Continuous
 62
     2
370
     9
100
AcDbLine
 10
24.56176862950194
 20
258.4325264383984
 30
0.0
 11
22.82013445207672
 21
259.5188431104694
 31
0.0
  0
LINE
  5
AA
330
1F
100
AcDbEntity
  8
躯体
  6
Continuous
 62
     2
370
     9
100
AcDbLine
 10
-114.0656348359753
 20
258.4325264383984
 30
0.0
 11
-116.9719046311611
 21
259.2112715225939
 31
0.0
  0
LINE
  5
AB
330
1F
100
AcDbEntity
  8
躯体
  6
Continuous
 62
     2
370
     9
100
AcDbLine
 10
-112.3240006585501
 20
259.5188431104694
 30
0.0
 11
-117.6448946421332
 21
260.9445418805286
 31
0.0
  0
LINE
  5
AC
330
1F
100
AcDbEntity
  8
躯体
  6
Continuous
 62
     2
370
     9
100
AcDbLine
 10
-117.6448946421332
 20
260.9445418805286
 30
0.0
 11
-116.9719046311611
 21
259.2112715225939
 31
0.0
  0
LINE
  5
AD
330
1F
100
AcDbEntity
  8
躯体
  6
Continuous
 62
     2
370
     9
100
AcDbLine
 10
-114.0656348359753
 20
258.4325264383984
 30
0.0
 11
-112.3240006585501
 21
259.5188431104694
 31
0.0
  0
LINE
  5
AE
330
1F
100
AcDbEntity
  8
躯体
  6
JWW_DASHED1
 62
     4
370
     9
100
AcDbLine
 10
-26.34740080691972
 20
281.5833338227567
 30
0.0
 11
-20.65639906211544
 21
284.8689675727002
 31
0.0
  0
LINE
  5
AF
330
1F
100
AcDbEntity
  8
躯体
  6
JWW_DASHED1
 62
     4
370
     9
100
AcDbLine
 10
-25.8473563855801
 20
280.7173285548807
 30
0.0
 11
-20.1564246308971
 21
284.0029798023545
 31
0.0
  0
LINE
  5
B0
330
1F
100
AcDbEntity
  8
躯体
  6
JWW_DASHED1
 62
     4
370
     9
100
AcDbLine
 10
-86.75199001439586
 20
245.5540291710766
 30
0.0
 11
-90.34741753856486
 21
247.6298486799863
 31
0.0
  0
LINE
  5
B1
330
1F
100
AcDbEntity
  8
躯体
  6
JWW_DASHED1
 62
     4
370
     9
100
AcDbLine
 10
-88.75192273432981
 20
245.5540291710766
 30
0.0
 11
-90.84739196978317
 21
246.7638609096407
 31
0.0
  0
LINE
  5
B2
330
1F
100
AcDbEntity
  8
躯体
  6
JWW_DASHED1
 62
     2
370
     9
100
AcDbLine
 10
-87.75197387189314
 20
257.5540454314079
 30
0.0
 11
-89.6768421867761
 21
257.5540454314079
 31
0.0
  0
LINE
  5
B3
330
1F
100
AcDbEntity
  8
躯体
  6
JWW_DASHED1
 62
     2
370
     9
100
AcDbLine
 10
-87.75193887683254
 20
258.5540292889052
 30
0.0
 11
-89.39775657825327
 21
258.5540292889052
 31
0.0
  0
LINE
  5
B4
330
1F
100
AcDbEntity
  8
躯体
  6
JWW_DASHED1
 62
     2
370
     9
100
AcDbLine
 10
-34.51020866919043
 20
289.2932006152957
 30
0.0
 11
-33.68736980860132
 21
290.7184444495666
 31
0.0
  0
LINE
  5
B5
330
1F
100
AcDbEntity
  8
躯体
  6
JWW_DASHED1
 62
     2
370
     9
100
AcDbLine
 10
-12.85956954391145
 20
276.7931399336248
 30
0.0
 11
-11.89710039140931
 21
278.4601646417872
 31
0.0
  0
LINE
  5
B6
330
1F
100
AcDbEntity
  8
躯体
  6
JWW_DASHED1
 62
     2
370
     9
100
AcDbLine
 10
-11.99351178344449
 20
276.2930955122853
 30
0.0
 11
-11.17067292285537
 21
277.7184443317381
 31
0.0
  0
LINE
  5
B7
330
1F
100
AcDbEntity
  8
躯体
  6
JWW_DASHED1
 62
     4
370
     9
100
AcDbLine
 10
-16.104871486479
 20
282.1818543447087
 30
0.0
 11
-19.50467662172724
 21
276.2931829999369
 31
0.0
  0
LINE
  5
B8
330
1F
100
AcDbEntity
  8
躯体
  6
JWW_DASHED1
 62
     4
370
     9
100
AcDbLine
 10
-30.75187913778962
 20
282.7931480637905
 30
0.0
 11
-27.35487360739177
 21
288.6770075877257
 31
0.0
  0
LINE
  5
B9
330
1F
100
AcDbEntity
  8
躯体
  6
JWW_DASHED1
 62
     4
370
     9
100
AcDbLine
 10
-90.79608921089985
 20
252.0492524042149
 30
0.0
 11
-83.99644394534272
 21
252.0491824140937
 31
0.0
  0
LINE
  5
BA
330
1F
100
AcDbEntity
  8
0-A
  6
Continuous
 62
     4
370
     9
100
AcDbLine
 10
-41.75189404309322
 20
297.7007639316114
 30
0.0
 11
-41.7518940430932
 21
301.7609783535354
 31
0.0
  0
LINE
  5
BB
330
1F
100
AcDbEntity
  8
0-A
  6
Continuous
 62
     4
370
     9
100
AcDbLine
 10
-47.25189274697988
 20
297.5529622930413
 30
0.0
 11
-47.25189274697988
 21
301.7609783535354
 31
0.0
  0
LINE
  5
BC
330
1F
100
AcDbEntity
  8
0-A
  6
Continuous
 62
     4
370
     9
100
AcDbLine
 10
-47.75193716831946
 20
297.7007114390205
 30
0.0
 11
-47.75193716831946
 21
301.7609783535354
 31
0.0
  0
LINE
  5
BD
330
1F
100
AcDbEntity
  8
0-A
  6
Continuous
 62
     4
370
     9
100
AcDbLine
 10
-42.25186847431155
 20
297.5530322831626
 30
0.0
 11
-42.25186847431155
 21
301.7609783535354
 31
0.0
  0
LINE
  5
BE
330
1F
100
AcDbEntity
  8
躯体
  6
JWW_CENTER1
 62
     4
370
     9
100
AcDbLine
 10
-30.11503902444804
 20
286.7556562764361
 30
0.0
 11
-16.27727465267185
 21
278.7663364272377
 31
0.0
  0
LINE
  5
BF
330
1F
100
AcDbEntity
  8
躯体
  6
JWW_CENTER1
 62
     4
370
     9
100
AcDbLine
 10
-21.5019147219927
 20
285.8242102451823
 30
0.0
 11
-27.46722524954384
 21
275.491971086817
 31
0.0
  0
LINE
  5
C0
330
1F
100
AcDbEntity
  8
躯体
  6
JWW_CENTER1
 62
     4
370
     9
100
AcDbLine
 10
-87.75197387189314
 20
245.5540291710766
 30
0.0
 11
-87.75193887683254
 21
253.4901040355267
 31
0.0
  0
LINE
  5
C1
330
1F
100
AcDbEntity
  8
0-A
  6
Continuous
 62
     4
370
     9
100
AcDbLine
 10
-41.75189404309322
 20
290.2769467646607
 30
0.0
 11
-41.75189404309322
 21
291.9571646106805
 31
0.0
  0
LINE
  5
C2
330
1F
100
AcDbEntity
  8
0-A
  6
Continuous
 62
     4
370
     9
100
AcDbLine
 10
-42.25186847431155
 20
290.153781648774
 30
0.0
 11
-42.25186847431155
 21
291.9867704319734
 31
0.0
  0
LINE
  5
C3
330
1F
100
AcDbEntity
  8
0-A
  6
Continuous
 62
     4
370
     9
100
AcDbLine
 10
-47.75193716831946
 20
290.2769292671304
 30
0.0
 11
-47.75193716831946
 21
291.9571646106805
 31
0.0
  0
LINE
  5
C4
330
1F
100
AcDbEntity
  8
0-A
  6
Continuous
 62
     4
370
     9
100
AcDbLine
 10
-47.25189274697988
 20
290.1537291561831
 30
0.0
 11
-47.25189274697988
 21
291.9867704319734
 31
0.0
  0
LINE
  5
C5
330
1F
100
AcDbEntity
  8
0-A
  6
Continuous
 62
     4
370
     9
100
AcDbLine
 10
-44.25190617942737
 20
302.7610147036237
 30
0.0
 11
-44.25190617942737
 21
306.1185458056311
 31
0.0
  0
LINE
  5
C6
330
1F
100
AcDbEntity
  8
0-A
  6
Continuous
 62
     4
370
     9
100
AcDbLine
 10
-45.25185504186404
 20
302.7610147036237
 30
0.0
 11
-45.25185504186404
 21
306.1185458056311
 31
0.0
  0
LINE
  5
C7
330
1F
100
AcDbEntity
  8
0-A
  6
JWW_CENTER1
 62
     4
370
     9
100
AcDbLine
 10
-108.2519754036635
 20
245.5540116735463
 30
0.0
 11
-108.2519754036635
 21
252.8634999774194
 31
0.0
  0
LINE
  5
C8
330
1F
100
AcDbEntity
  8
0-A
  6
JWW_CENTER1
 62
     4
370
     9
100
AcDbLine
 10
18.74800421200825
 20
245.5540116735463
 30
0.0
 11
18.74800421200825
 21
252.8634999774194
 31
0.0
  0
LINE
  5
C9
330
1F
100
AcDbEntity
  8
0-A
  6
Continuous
 62
     4
370
     9
100
AcDbLine
 10
19.34809951168853
 20
247.1541433233148
 30
0.0
 11
19.34809951168853
 21
248.3040110254896
 31
0.0
  0
LINE
  5
CA
330
1F
100
AcDbEntity
  8
0-A
  6
Continuous
 62
     4
370
     9
100
AcDbLine
 10
18.14790891232803
 20
248.3040110254896
 30
0.0
 11
19.34809951168853
 21
248.3040110254896
 31
0.0
  0
LINE
  5
CB
330
1F
100
AcDbEntity
  8
0-A
  6
Continuous
 62
     4
370
     9
100
AcDbLine
 10
18.14790891232803
 20
247.1541433233148
 30
0.0
 11
18.14790891232803
 21
248.3040110254896
 31
0.0
  0
LINE
  5
CC
330
1F
100
AcDbEntity
  8
0-A
  6
Continuous
 62
     4
370
     9
100
AcDbLine
 10
23.71184359198536
 20
246.1541244707569
 30
0.0
 11
13.78416483203118
 21
246.1541244707569
 31
0.0
  0
LINE
  5
CD
330
1F
100
AcDbEntity
  8
0-A
  6
Continuous
 62
     4
370
     9
100
AcDbLine
 10
-108.852140693465
 20
247.1541433233148
 30
0.0
 11
-108.852140693465
 21
248.3040110254896
 31
0.0
  0
LINE
  5
CE
330
1F
100
AcDbEntity
  8
0-A
  6
Continuous
 62
     4
370
     9
100
AcDbLine
 10
-107.6519500941045
 20
248.3040110254896
 30
0.0
 11
-108.852140693465
 21
248.3040110254896
 31
0.0
  0
LINE
  5
CF
330
1F
100
AcDbEntity
  8
0-A
  6
Continuous
 62
     4
370
     9
100
AcDbLine
 10
-107.6519500941045
 20
247.1541433233148
 30
0.0
 11
-107.6519500941045
 21
248.3040110254896
 31
0.0
  0
LINE
  5
D0
330
1F
100
AcDbEntity
  8
0-A
  6
Continuous
 62
     4
370
     9
100
AcDbLine
 10
-113.2158847737618
 20
246.1541244707569
 30
0.0
 11
-103.2882060138077
 21
246.1541244707569
 31
0.0
  0
LINE
  5
D1
330
1F
100
AcDbEntity
  8
仕上
  6
Continuous
 62
     6
370
     9
100
AcDbLine
 10
11.43134192070607
 20
256.5540090813196
 30
0.0
 11
22.8590489594971
 21
256.5540090813196
 31
0.0
  0
LINE
  5
D2
330
1F
100
AcDbEntity
  8
仕上
  6
Continuous
 62
     6
370
     9
100
AcDbLine
 10
11.52771831768063
 20
255.554007726292
 30
0.0
 11
22.00320975673407
 21
255.554007726292
 31
0.0
  0
LINE
  5
D3
330
1F
100
AcDbEntity
  8
仕上
  6
Continuous
 62
     6
370
     9
100
AcDbLine
 10
22.00320975673407
 20
255.554007726292
 30
0.0
 11
22.8590489594971
 21
256.5540090813196
 31
0.0
  0
LINE
  5
D4
330
1F
100
AcDbEntity
  8
仕上
  6
Continuous
 62
     6
370
     9
100
AcDbLine
 10
11.52771831768063
 20
255.554007726292
 30
0.0
 11
11.43134192070607
 21
256.5540090813196
 31
0.0
  0
LINE
  5
D5
330
1F
100
AcDbEntity
  8
仕上
  6
Continuous
 62
     6
370
     9
100
AcDbLine
 10
18.24802978078991
 20
250.5540359462147
 30
0.0
 11
21.47681405474025
 21
250.5540359462147
 31
0.0
  0
LINE
  5
D6
330
1F
100
AcDbEntity
  8
仕上
  6
Continuous
 62
     6
370
     9
100
AcDbLine
 10
22.21492987354451
 20
250.8793675273598
 30
0.0
 11
23.29277774094316
 21
249.8707048948264
 31
0.0
  0
LINE
  5
D7
330
1F
100
AcDbEntity
  8
仕上
  6
Continuous
 62
     6
370
     9
100
AcDbLine
 10
-2.362381167267473
 20
262.0885479100479
 30
0.0
 11
-1.764595541588791
 21
263.2840141762234
 31
0.0
  0
LINE
  5
D8
330
1F
100
AcDbEntity
  8
仕上
  6
Continuous
 62
     6
370
     9
100
AcDbLine
 10
0.2258535169144604
 20
252.4292812651245
 30
0.0
 11
1.341286079429543
 21
251.6928802042911
 31
0.0
  0
LINE
  5
D9
330
1F
100
AcDbEntity
  8
仕上
  6
Continuous
 62
     6
370
     9
100
AcDbLine
 10
-1.417094589534602
 20
281.1107780215419
 30
0.0
 11
-0.5682543988975812
 21
281.9595832171183
 31
0.0
  0
LINE
  5
DA
330
1F
100
AcDbEntity
  8
仕上
  6
Continuous
 62
     6
370
     9
100
AcDbLine
 10
4.681704596788957
 20
271.98333131301
 30
0.0
 11
5.790768058269403
 21
272.4427114738977
 31
0.0
  0
LINE
  5
DB
330
1F
100
AcDbEntity
  8
仕上
  6
Continuous
 62
     6
370
     9
100
AcDbLine
 10
-18.32271844895484
 20
294.9877018661629
 30
0.0
 11
-17.86333828806715
 21
296.0967128350524
 31
0.0
  0
LINE
  5
DC
330
1F
100
AcDbEntity
  8
仕上
  6
Continuous
 62
     6
370
     9
100
AcDbLine
 10
-9.195271740422983
 20
288.8889376748999
 30
0.0
 11
-8.346431549785907
 21
289.7377603680066
 31
0.0
  0
LINE
  5
DD
330
1F
100
AcDbEntity
  8
仕上
  6
Continuous
 62
     6
370
     9
100
AcDbLine
 10
-39.25196939441064
 20
301.3388154396275
 30
0.0
 11
-39.25196939441064
 21
302.5391810142912
 31
0.0
  0
LINE
  5
DE
330
1F
100
AcDbEntity
  8
仕上
  6
Continuous
 62
     6
370
     9
100
AcDbLine
 10
-28.48538904103827
 20
299.1971877192034
 30
0.0
 11
-28.02600888015058
 21
300.3062511806839
 31
0.0
  0
LINE
  5
DF
330
1F
100
AcDbEntity
  8
仕上
  6
Continuous
 62
     6
370
     9
100
AcDbLine
 10
8.89126043995076
 20
261.8207307110478
 30
0.0
 11
10.00025391130998
 21
262.2800933744052
 31
0.0
  0
LINE
  5
E0
330
1F
100
AcDbEntity
  8
仕上
  6
Continuous
 62
     6
370
     9
100
AcDbLine
 10
10.90711591247127
 20
252.0545716534306
 30
0.0
 11
12.03836624239107
 21
252.0545891509609
 31
0.0
  0
LINE
  5
E1
330
1F
100
AcDbEntity
  8
仕上
  6
Continuous
 62
     6
370
     9
100
AcDbLine
 10
-100.93524312224
 20
256.5540090813196
 30
0.0
 11
-112.3629501610311
 21
256.5540090813196
 31
0.0
  0
LINE
  5
E2
330
1F
100
AcDbEntity
  8
仕上
  6
Continuous
 62
     6
370
     9
100
AcDbLine
 10
-101.0316195192146
 20
255.554007726292
 30
0.0
 11
-111.507110958268
 21
255.554007726292
 31
0.0
  0
LINE
  5
E3
330
1F
100
AcDbEntity
  8
仕上
  6
Continuous
 62
     6
370
     9
100
AcDbLine
 10
-111.507110958268
 20
255.554007726292
 30
0.0
 11
-112.3629501610311
 21
256.5540090813196
 31
0.0
  0
LINE
  5
E4
330
1F
100
AcDbEntity
  8
仕上
  6
Continuous
 62
     6
370
     9
100
AcDbLine
 10
-101.0316195192146
 20
255.554007726292
 30
0.0
 11
-100.93524312224
 21
256.5540090813196
 31
0.0
  0
LINE
  5
E5
330
1F
100
AcDbEntity
  8
仕上
  6
Continuous
 62
     6
370
     9
100
AcDbLine
 10
-107.7519309823239
 20
250.5540359462147
 30
0.0
 11
-110.9807152562742
 21
250.5540359462147
 31
0.0
  0
LINE
  5
E6
330
1F
100
AcDbEntity
  8
仕上
  6
Continuous
 62
     6
370
     9
100
AcDbLine
 10
-111.7188310750785
 20
250.8793675273598
 30
0.0
 11
-112.7966789424771
 21
249.8707048948264
 31
0.0
  0
LINE
  5
E7
330
1F
100
AcDbEntity
  8
仕上
  6
Continuous
 62
     6
370
     9
100
AcDbLine
 10
-88.08680661199934
 20
281.1107780215419
 30
0.0
 11
-88.93561180757575
 21
281.9595832171183
 31
0.0
  0
LINE
  5
E8
330
1F
100
AcDbEntity
  8
仕上
  6
Continuous
 62
     6
370
     9
100
AcDbLine
 10
-94.1855708032623
 20
271.98333131301
 30
0.0
 11
-95.29463426474274
 21
272.4427114738977
 31
0.0
  0
LINE
  5
E9
330
1F
100
AcDbEntity
  8
仕上
  6
Continuous
 62
     6
370
     9
100
AcDbLine
 10
-71.18114775751846
 20
294.9877018661629
 30
0.0
 11
-71.64052791840618
 21
296.0967128350524
 31
0.0
  0
LINE
  5
EA
330
1F
100
AcDbEntity
  8
仕上
  6
Continuous
 62
     6
370
     9
100
AcDbLine
 10
-80.30859446605035
 20
288.8889376748999
 30
0.0
 11
-81.15743465668743
 21
289.7377603680066
 31
0.0
  0
LINE
  5
EB
330
1F
100
AcDbEntity
  8
仕上
  6
Continuous
 62
     6
370
     9
100
AcDbLine
 10
-50.25189681206267
 20
301.3388154396275
 30
0.0
 11
-50.25189681206267
 21
302.5391810142912
 31
0.0
  0
LINE
  5
EC
330
1F
100
AcDbEntity
  8
仕上
  6
Continuous
 62
     6
370
     9
100
AcDbLine
 10
-61.01847716543502
 20
299.1971877192034
 30
0.0
 11
-61.47785732632273
 21
300.3062511806839
 31
0.0
  0
LINE
  5
ED
330
1F
100
AcDbEntity
  8
仕上
  6
Continuous
 62
     6
370
     9
100
AcDbLine
 10
-98.3951266464241
 20
261.8207307110478
 30
0.0
 11
-99.50415511284393
 21
262.2800933744052
 31
0.0
  0
LINE
  5
EE
330
1F
100
AcDbEntity
  8
仕上
  6
Continuous
 62
     6
370
     9
100
AcDbLine
 10
-100.4110171140052
 20
252.0545716534306
 30
0.0
 11
-101.542267443925
 21
252.0545891509609
 31
0.0
  0
LINE
  5
EF
330
1F
100
AcDbEntity
  8
仕上
  6
Continuous
 62
     6
370
     9
100
AcDbLine
 10
-61.28643434467759
 20
287.9436335996368
 30
0.0
 11
-62.4819006108531
 21
288.5414192253154
 31
0.0
  0
LINE
  5
F0
330
1F
100
AcDbEntity
  8
仕上
  6
Continuous
 62
     6
370
     9
100
AcDbLine
 10
-51.62716769975421
 20
290.531833288758
 30
0.0
 11
-50.89076663892078
 21
291.6472658512731
 31
0.0
  0
LINE
  5
F1
330
1F
100
AcDbEntity
  8
仕上
  6
Continuous
 62
     6
370
     9
100
AcDbLine
 10
21.74802577462139
 20
249.554034591187
 30
0.0
 11
22.56264079596246
 21
249.554034591187
 31
0.0
  0
LINE
  5
F2
330
1F
100
AcDbEntity
  8
仕上
  6
Continuous
 62
     6
370
     9
100
AcDbLine
 10
-111.2519269761553
 20
249.554034591187
 30
0.0
 11
-112.0665419974964
 21
249.554034591187
 31
0.0
  0
LINE
  5
F3
330
1F
100
AcDbEntity
  8
仕上
  6
Continuous
 62
     6
370
     9
100
AcDbLine
 10
-43.25190482439979
 20
297.0518855174132
 30
0.0
 11
-43.25190482439979
 21
297.476323110262
 31
0.0
  0
LINE
  5
F4
330
1F
100
AcDbEntity
  8
仕上
  6
Continuous
 62
     6
370
     9
100
AcDbLine
 10
-46.25196138207352
 20
297.0518855174132
 30
0.0
 11
-46.25196138207352
 21
297.4774779472629
 31
0.0
  0
LINE
  5
F5
330
1F
100
AcDbEntity
  8
躯体
  6
JWW_DASHED1
 62
     4
370
     9
100
AcDbLine
 10
-26.78273936115471
 20
276.2931829999369
 30
0.0
 11
-19.50467662172724
 21
276.2931829999369
 31
0.0
  0
LINE
  5
F6
330
1F
100
AcDbEntity
  8
躯体
  6
JWW_DASHED1
 62
     4
370
     9
100
AcDbLine
 10
-30.75187913778962
 20
282.7931480637905
 30
0.0
 11
-27.10751102132986
 21
276.4807390273824
 31
0.0
  0
LINE
  5
F7
330
1F
100
AcDbEntity
  8
躯体
  6
Continuous
 62
     4
370
     9
100
AcDbLine
 10
-27.10751102132986
 20
276.4807390273824
 30
0.0
 11
-26.99921880621082
 21
276.2931829999369
 31
0.0
  0
LINE
  5
F8
330
1F
100
AcDbEntity
  8
躯体
  6
Continuous
 62
     4
370
     9
100
AcDbLine
 10
-26.99921880621082
 20
276.2931829999369
 30
0.0
 11
-26.78273936115471
 21
276.2931829999369
 31
0.0
  0
LINE
  5
F9
330
1F
100
AcDbEntity
  8
躯体
  6
JWW_DASHED1
 62
     4
370
     9
100
AcDbLine
 10
-80.35741257562898
 20
245.7462045465253
 30
0.0
 11
-83.99644394534272
 21
252.0491824140937
 31
0.0
  0
ARC
  5
FA
330
1F
100
AcDbEntity
  8
躯体
  6
Continuous
 62
     2
370
     9
100
AcDbCircle
 10
-44.75193310323667
 20
245.5540291710766
 30
0.0
 40
89.99999946977181
100
AcDbArc
 50
0.0
 51
180.0
  0
ARC
  5
FB
330
1F
100
AcDbEntity
  8
躯体
  6
Continuous
 62
     2
370
     9
100
AcDbCircle
 10
-44.75193310323667
 20
245.5540291710766
 30
0.0
 40
83.94104215997524
100
AcDbArc
 50
0.0
 51
180.0
  0
ARC
  5
FC
330
1F
100
AcDbEntity
  8
躯体
  6
Continuous
 62
     2
370
     9
100
AcDbCircle
 10
-44.75193310323667
 20
245.5540291710766
 30
0.0
 40
89.499998792258
100
AcDbArc
 50
0.0
 51
180.0
  0
ARC
  5
FD
330
1F
100
AcDbEntity
  8
躯体
  6
Continuous
 62
     2
370
     9
100
AcDbCircle
 10
-44.75193310323667
 20
245.5540291710766
 30
0.0
 40
73.49999460934671
100
AcDbArc
 50
139.2914886474609
 51
160.7085418701172
  0
ARC
  5
FE
330
1F
100
AcDbEntity
  8
躯体
  6
Continuous
 62
     2
370
     9
100
AcDbCircle
 10
-44.75193310323667
 20
245.5540291710766
 30
0.0
 40
74.49998721560915
100
AcDbArc
 50
138.0777740478516
 51
161.9222412109375
  0
ARC
  5
FF
330
1F
100
AcDbEntity
  8
躯体
  6
Continuous
 62
     2
370
     9
100
AcDbCircle
 10
-44.75193310323667
 20
245.5540291710766
 30
0.0
 40
70.49999054426392
100
AcDbArc
 50
139.4744873046875
 51
160.5255737304688
  0
ARC
  5
100
330
1F
100
AcDbEntity
  8
躯体
  6
Continuous
 62
     2
370
     9
100
AcDbCircle
 10
-44.75193310323667
 20
245.5540291710766
 30
0.0
 40
68.99999288610509
100
AcDbArc
 50
138.3233795166016
 51
161.6766510009765
  0
ARC
  5
101
330
1F
100
AcDbEntity
  8
躯体
  6
Continuous
 62
     2
370
     9
100
AcDbCircle
 10
-44.75193310323667
 20
245.5540291710766
 30
0.0
 40
73.49999460934671
100
AcDbArc
 50
109.2914886474609
 51
130.7085418701172
  0
ARC
  5
102
330
1F
100
AcDbEntity
  8
躯体
  6
Continuous
 62
     2
370
     9
100
AcDbCircle
 10
-44.75193310323667
 20
245.5540291710766
 30
0.0
 40
74.49998721560915
100
AcDbArc
 50
108.0777740478516
 51
131.9222412109376
  0
ARC
  5
103
330
1F
100
AcDbEntity
  8
躯体
  6
Continuous
 62
     2
370
     9
100
AcDbCircle
 10
-44.75193310323667
 20
245.5540291710766
 30
0.0
 40
70.49999054426392
100
AcDbArc
 50
109.4744873046875
 51
130.5255737304688
  0
ARC
  5
104
330
1F
100
AcDbEntity
  8
躯体
  6
Continuous
 62
     2
370
     9
100
AcDbCircle
 10
-44.75193310323667
 20
245.5540291710766
 30
0.0
 40
68.99999288610509
100
AcDbArc
 50
108.3233795166016
 51
131.6766510009766
  0
ARC
  5
105
330
1F
100
AcDbEntity
  8
躯体
  6
Continuous
 62
     2
370
     9
100
AcDbCircle
 10
-44.75193310323667
 20
245.5540291710766
 30
0.0
 40
73.49999460934671
100
AcDbArc
 50
79.29148864746095
 51
100.7085418701172
  0
ARC
  5
106
330
1F
100
AcDbEntity
  8
躯体
  6
Continuous
 62
     2
370
     9
100
AcDbCircle
 10
-44.75193310323667
 20
245.5540291710766
 30
0.0
 40
74.49998721560915
100
AcDbArc
 50
78.07777404785155
 51
101.9222412109375
  0
ARC
  5
107
330
1F
100
AcDbEntity
  8
躯体
  6
Continuous
 62
     2
370
     9
100
AcDbCircle
 10
-44.75193310323667
 20
245.5540291710766
 30
0.0
 40
70.49999054426392
100
AcDbArc
 50
79.4744873046875
 51
100.5255737304687
  0
ARC
  5
108
330
1F
100
AcDbEntity
  8
躯体
  6
Continuous
 62
     2
370
     9
100
AcDbCircle
 10
-44.75193310323667
 20
245.5540291710766
 30
0.0
 40
73.49999460934671
100
AcDbArc
 50
49.29148864746096
 51
70.7085418701172
  0
ARC
  5
109
330
1F
100
AcDbEntity
  8
躯体
  6
Continuous
 62
     2
370
     9
100
AcDbCircle
 10
-44.75193310323667
 20
245.5540291710766
 30
0.0
 40
74.49998721560915
100
AcDbArc
 50
48.07777404785156
 51
71.9222412109375
  0
ARC
  5
10A
330
1F
100
AcDbEntity
  8
躯体
  6
Continuous
 62
     2
370
     9
100
AcDbCircle
 10
-44.75193310323667
 20
245.5540291710766
 30
0.0
 40
70.49999054426392
100
AcDbArc
 50
49.47448730468751
 51
70.52557373046875
  0
ARC
  5
10B
330
1F
100
AcDbEntity
  8
躯体
  6
Continuous
 62
     2
370
     9
100
AcDbCircle
 10
-44.75193310323667
 20
245.5540291710766
 30
0.0
 40
68.99999288610509
100
AcDbArc
 50
48.32337951660157
 51
71.67665100097656
  0
ARC
  5
10C
330
1F
100
AcDbEntity
  8
躯体
  6
Continuous
 62
     2
370
     9
100
AcDbCircle
 10
-44.75193310323667
 20
245.5540291710766
 30
0.0
 40
73.49999460934671
100
AcDbArc
 50
19.29148864746094
 51
40.70854187011719
  0
ARC
  5
10D
330
1F
100
AcDbEntity
  8
躯体
  6
Continuous
 62
     2
370
     9
100
AcDbCircle
 10
-44.75193310323667
 20
245.5540291710766
 30
0.0
 40
74.49998721560915
100
AcDbArc
 50
18.07777404785157
 51
41.92224121093751
  0
ARC
  5
10E
330
1F
100
AcDbEntity
  8
躯体
  6
Continuous
 62
     2
370
     9
100
AcDbCircle
 10
-44.75193310323667
 20
245.5540291710766
 30
0.0
 40
70.49999054426392
100
AcDbArc
 50
19.4744873046875
 51
40.52557373046875
  0
ARC
  5
10F
330
1F
100
AcDbEntity
  8
躯体
  6
Continuous
 62
     2
370
     9
100
AcDbCircle
 10
-44.75193310323667
 20
245.5540291710766
 30
0.0
 40
68.99999288610509
100
AcDbArc
 50
18.32337951660156
 51
41.67665100097656
  0
ARC
  5
110
330
1F
100
AcDbEntity
  8
躯体
  6
Continuous
 62
     2
370
     9
100
AcDbCircle
 10
-44.75193310323667
 20
245.5540291710766
 30
0.0
 40
70.49999054426392
100
AcDbArc
 50
0.0
 51
10.52557373046875
  0
ARC
  5
111
330
1F
100
AcDbEntity
  8
躯体
  6
Continuous
 62
     2
370
     9
100
AcDbCircle
 10
-44.75193310323667
 20
245.5540291710766
 30
0.0
 40
73.49999460934671
100
AcDbArc
 50
0.0
 51
10.70854187011719
  0
ARC
  5
112
330
1F
100
AcDbEntity
  8
躯体
  6
Continuous
 62
     2
370
     9
100
AcDbCircle
 10
-44.75193310323667
 20
245.5540291710766
 30
0.0
 40
74.49998721560915
100
AcDbArc
 50
0.0
 51
11.9222412109375
  0
ARC
  5
113
330
1F
100
AcDbEntity
  8
躯体
  6
Continuous
 62
     2
370
     9
100
AcDbCircle
 10
-44.75193310323667
 20
245.5540291710766
 30
0.0
 40
68.99999288610509
100
AcDbArc
 50
8.583679199218743
 51
11.67665100097655
  0
ARC
  5
114
330
1F
100
AcDbEntity
  8
躯体
  6
Continuous
 62
     2
370
     9
100
AcDbCircle
 10
-44.75193310323667
 20
245.5540291710766
 30
0.0
 40
69.3754723891328
100
AcDbArc
 50
0.0
 51
7.676528930664062
  0
ARC
  5
115
330
1F
100
AcDbEntity
  8
躯体
  6
Continuous
 62
     2
370
     9
100
AcDbCircle
 10
-44.75193310323667
 20
245.5540291710766
 30
0.0
 40
70.49999054426392
100
AcDbArc
 50
169.4744110107422
 51
179.9999847412109
  0
ARC
  5
116
330
1F
100
AcDbEntity
  8
躯体
  6
Continuous
 62
     2
370
     9
100
AcDbCircle
 10
-44.75193310323667
 20
245.5540291710766
 30
0.0
 40
73.49999460934671
100
AcDbArc
 50
169.2914428710938
 51
179.9999847412109
  0
ARC
  5
117
330
1F
100
AcDbEntity
  8
躯体
  6
Continuous
 62
     2
370
     9
100
AcDbCircle
 10
-44.75193310323667
 20
245.5540291710766
 30
0.0
 40
74.49998721560915
100
AcDbArc
 50
168.0777740478516
 51
180.0000152587891
  0
ARC
  5
118
330
1F
100
AcDbEntity
  8
躯体
  6
Continuous
 62
     2
370
     9
100
AcDbCircle
 10
-44.75193310323667
 20
245.5540291710766
 30
0.0
 40
68.99999288610509
100
AcDbArc
 50
168.3233489990235
 51
171.4163208007813
  0
ARC
  5
119
330
1F
100
AcDbEntity
  8
躯体
  6
Continuous
 62
     2
370
     9
100
AcDbCircle
 10
-44.75193310323667
 20
245.5540291710766
 30
0.0
 40
69.3754723891328
100
AcDbArc
 50
172.3234710693359
 51
180.0
  0
ARC
  5
11A
330
1F
100
AcDbEntity
  8
躯体
  6
Continuous
 62
     2
370
     9
100
AcDbCircle
 10
-44.75193310323667
 20
245.5540291710766
 30
0.0
 40
68.99999288610509
100
AcDbArc
 50
95.13783264160163
 51
101.6766510009766
  0
ARC
  5
11B
330
1F
100
AcDbEntity
  8
躯体
  6
Continuous
 62
     2
370
     9
100
AcDbCircle
 10
-44.75193310323667
 20
245.5540291710766
 30
0.0
 40
68.99999288610509
100
AcDbArc
 50
78.32337951660159
 51
84.86216735839847
  0
ARC
  5
11C
330
1F
100
AcDbEntity
  8
躯体
  6
Continuous
 62
     2
370
     9
100
AcDbCircle
 10
-44.75193310323667
 20
245.5540291710766
 30
0.0
 40
69.3754723891328
100
AcDbArc
 50
86.59643554687501
 51
93.40356445312501
  0
ARC
  5
11D
330
1F
100
AcDbEntity
  8
躯体
  6
JWW_DASHED1
 62
     2
370
     9
100
AcDbCircle
 10
-37.9096638538324
 20
285.9790458909389
 30
0.0
 40
1.999999976066088
100
AcDbArc
 50
347.7381896972657
 51
80.39346313476562
  0
ARC
  5
11E
330
1F
100
AcDbEntity
  8
躯体
  6
JWW_DASHED1
 62
     2
370
     9
100
AcDbCircle
 10
-44.75193310323667
 20
245.5540291710766
 30
0.0
 40
43.00000139921328
100
AcDbArc
 50
0.0
 51
39.60671997070312
  0
ARC
  5
11F
330
1F
100
AcDbEntity
  8
躯体
  6
JWW_DASHED1
 62
     2
370
     9
100
AcDbCircle
 10
-13.16395658126964
 20
271.6921374135092
 30
0.0
 40
1.999999976066088
100
AcDbArc
 50
39.60639953613281
 51
132.2628936767578
  0
ARC
  5
120
330
1F
100
AcDbEntity
  8
躯体
  6
JWW_DASHED1
 62
     2
370
     9
100
AcDbCircle
 10
-83.18217887460791
 20
259.8409376485064
 30
0.0
 40
1.999999976066088
100
AcDbArc
 50
159.6063995361328
 51
252.2628936767578
  0
ARC
  5
121
330
1F
100
AcDbEntity
  8
躯体
  6
JWW_DASHED1
 62
     2
370
     9
100
AcDbCircle
 10
-44.75193310323667
 20
245.5540291710766
 30
0.0
 40
43.00000139921328
100
AcDbArc
 50
80.39329528808592
 51
159.6068267822266
  0
ARC
  5
122
330
1F
100
AcDbEntity
  8
躯体
  6
JWW_DASHED1
 62
     2
370
     9
100
AcDbCircle
 10
-12.42881534261892
 20
273.9127839808354
 30
0.0
 40
0.999999988033044
100
AcDbArc
 50
41.26124572753908
 51
140.6307678222657
  0
ARC
  5
123
330
1F
100
AcDbEntity
  8
躯体
  6
JWW_DASHED1
 62
     2
370
     9
100
AcDbCircle
 10
-44.75193310323667
 20
245.5540291710766
 30
0.0
 40
43.99999400547572
100
AcDbArc
 50
0.0
 51
41.26216125488281
  0
ARC
  5
124
330
1F
100
AcDbEntity
  8
躯体
  6
JWW_DASHED1
 62
     2
370
     9
100
AcDbCircle
 10
-23.25191271890839
 20
282.7931480637905
 30
0.0
 40
12.99999902423284
100
AcDbArc
 50
320.6310272216797
 51
329.9999084472657
  0
ARC
  5
125
330
1F
100
AcDbEntity
  8
躯体
  6
JWW_DASHED1
 62
     2
370
     9
100
AcDbCircle
 10
-36.35406341871538
 20
287.7260168151102
 30
0.0
 40
0.999999988033044
100
AcDbArc
 50
339.3675384521485
 51
78.73760986328125
  0
ARC
  5
126
330
1F
100
AcDbEntity
  8
躯体
  6
JWW_DASHED1
 62
     2
370
     9
100
AcDbCircle
 10
-23.25191271890839
 20
282.7931480637905
 30
0.0
 40
12.99999902423284
100
AcDbArc
 50
149.9999084472657
 51
159.3691864013672
  0
ARC
  5
127
330
1F
100
AcDbEntity
  8
躯体
  6
JWW_DASHED1
 62
     2
370
     9
100
AcDbCircle
 10
-85.47285055825446
 20
259.3672445078211
 30
0.0
 40
0.999999988033044
100
AcDbArc
 50
161.2641143798828
 51
260.6306762695313
  0
ARC
  5
128
330
1F
100
AcDbEntity
  8
躯体
  6
JWW_DASHED1
 62
     2
370
     9
100
AcDbCircle
 10
-44.75193310323667
 20
245.5540291710766
 30
0.0
 40
43.99999400547572
100
AcDbArc
 50
78.73782348632814
 51
161.2622375488281
  0
ARC
  5
129
330
1F
100
AcDbEntity
  8
躯体
  6
JWW_DASHED1
 62
     2
370
     9
100
AcDbCircle
 10
-87.75197387189314
 20
245.5540291710766
 30
0.0
 40
12.99999902423284
100
AcDbArc
 50
80.63093566894533
 51
89.99990844726565
  0
CIRCLE
  5
12A
330
1F
100
AcDbEntity
  8
躯体
  6
JWW_DASHED1
 62
     4
370
     9
100
AcDbCircle
 10
-23.25191271890839
 20
282.7931480637905
 30
0.0
 40
3.323499772539469
  0
ARC
  5
12B
330
1F
100
AcDbEntity
  8
躯体
  6
JWW_DASHED1
 62
     4
370
     9
100
AcDbCircle
 10
-87.75197387189314
 20
245.5540291710766
 30
0.0
 40
3.323499772539469
100
AcDbArc
 50
0.0
 51
180.0
  0
ARC
  5
12C
330
1F
100
AcDbEntity
  8
躯体
  6
Continuous
 62
     2
370
     9
100
AcDbCircle
 10
-111.5235936318247
 20
254.5540588638553
 30
0.0
 40
1.999999976066088
100
AcDbArc
 50
172.3234252929688
 51
228.8124694824218
  0
ARC
  5
12D
330
1F
100
AcDbEntity
  8
躯体
  6
Continuous
 62
     2
370
     9
100
AcDbCircle
 10
-111.0014673272277
 20
255.5540427213527
 30
0.0
 40
1.999999976066088
100
AcDbArc
 50
171.4168090820313
 51
213.388671875
  0
ARC
  5
12E
330
1F
100
AcDbEntity
  8
躯体
  6
Continuous
 62
     2
370
     9
100
AcDbCircle
 10
-40.75192768312626
 20
312.8106162548121
 30
0.0
 40
1.999999976066088
100
AcDbArc
 50
86.59663391113284
 51
143.0830993652344
  0
ARC
  5
12F
330
1F
100
AcDbEntity
  8
躯体
  6
Continuous
 62
     2
370
     9
100
AcDbCircle
 10
-38.75192497307108
 20
312.2848329663793
 30
0.0
 40
1.999999976066088
100
AcDbArc
 50
84.86212158203125
 51
126.8358764648438
  0
ARC
  5
130
330
1F
100
AcDbEntity
  8
躯体
  6
Continuous
 62
     2
370
     9
100
AcDbCircle
 10
-50.75187124328098
 20
312.2848329663793
 30
0.0
 40
1.999999976066088
100
AcDbArc
 50
53.16412353515626
 51
95.13787841796876
  0
ARC
  5
131
330
1F
100
AcDbEntity
  8
躯体
  6
Continuous
 62
     2
370
     9
100
AcDbCircle
 10
-48.75193852334706
 20
312.8106162548121
 30
0.0
 40
1.999999976066088
100
AcDbArc
 50
36.91690063476564
 51
93.40336608886719
  0
ARC
  5
132
330
1F
100
AcDbEntity
  8
躯体
  6
JWW_DASHED1
 62
     4
370
     9
100
AcDbCircle
 10
-23.25191271890839
 20
282.7931480637905
 30
0.0
 40
3.999999952132176
100
AcDbArc
 50
90.22064208984375
 51
29.77864074707031
  0
ARC
  5
133
330
1F
100
AcDbEntity
  8
躯体
  6
JWW_DASHED1
 62
     4
370
     9
100
AcDbCircle
 10
-87.75197387189314
 20
245.5540291710766
 30
0.0
 40
3.999999952132176
100
AcDbArc
 50
0.0
 51
149.7783508300781
  0
ARC
  5
134
330
1F
100
AcDbEntity
  8
躯体
  6
JWW_DASHED1
 62
     4
370
     9
100
AcDbCircle
 10
-23.2470834005415
 20
282.7904009515311
 30
0.0
 40
6.500000605712065
100
AcDbArc
 50
120.9942779541016
 51
358.990966796875
  0
ARC
  5
135
330
1F
100
AcDbEntity
  8
躯体
  6
JWW_DASHED1
 62
     4
370
     9
100
AcDbCircle
 10
-87.75197387189314
 20
245.5595933857168
 30
0.0
 40
6.500000605712065
100
AcDbArc
 50
359.9509277343751
 51
118.9913635253906
  0
ELLIPSE
  5
136
330
1F
100
AcDbEntity
  8
0-A
  6
Continuous
 62
     4
370
     9
100
AcDbEllipse
 10
-44.75191560570633
 20
297.7007289365508
 30
0.0
 11
-2.999871466487905
 21
-2.716307928146824E-5
 31
0.0
210
0.0
220
0.0
230
1.0
 40
0.0891
 41
0.0
 42
3.141592653589792
  0
ARC
  5
137
330
1F
100
AcDbEntity
  8
躯体
  6
Continuous
 62
     2
370
     9
100
AcDbCircle
 10
22.01979741547261
 20
254.5540588638553
 30
0.0
 40
1.999999976066088
100
AcDbArc
 50
311.1868743896485
 51
7.676574707031258
  0
ARC
  5
138
330
1F
100
AcDbEntity
  8
躯体
  6
Continuous
 62
     2
370
     9
100
AcDbCircle
 10
21.49753113063308
 20
255.5540427213527
 30
0.0
 40
1.999999976066088
100
AcDbArc
 50
326.6148223876953
 51
8.583190917968746
  0
ELLIPSE
  5
139
330
1F
100
AcDbEntity
  8
0-A
  6
Continuous
 62
     4
370
     9
100
AcDbEllipse
 10
-44.75191560570633
 20
290.2769467646607
 30
0.0
 11
-2.999871466527479
 21
-2.236959470239207E-5
 31
0.0
210
0.0
220
0.0
230
1.0
 40
0.0743
 41
0.0
 42
3.141592653589792
  0
ARC
  5
13A
330
1F
100
AcDbEntity
  8
通り芯
  6
JWW_DASHED1
 62
     3
370
     9
100
AcDbCircle
 10
-44.75189810817602
 20
245.5540291710766
 30
0.0
 40
39.50000977976441
100
AcDbArc
 50
77.47343444824222
 51
162.5266265869141
  0
ARC
  5
13B
330
1F
100
AcDbEntity
  8
通り芯
  6
JWW_DASHED1
 62
     3
370
     9
100
AcDbCircle
 10
-44.75191560570633
 20
245.5540291710766
 30
0.0
 40
40.50008112491327
100
AcDbArc
 50
0.0
 51
42.41563415527344
  0
ARC
  5
13C
330
1F
100
AcDbEntity
  8
通り芯
  6
JWW_DASHED1
 62
     3
370
     9
100
AcDbCircle
 10
-44.75191560570633
 20
245.5540291710766
 30
0.0
 40
40.50008112491327
100
AcDbArc
 50
77.58439636230469
 51
162.4156494140625
  0
ELLIPSE
  5
13D
330
1F
100
AcDbEntity
  8
0-A
  6
Continuous
 62
     4
370
     9
100
AcDbEllipse
 10
-44.75191560570632
 20
302.2291247771109
 30
0.0
 11
5.25001148827748
 21
0.0
 31
0.0
210
0.0
220
0.0
230
1.0
 40
0.0891
 41
3.087908386019867
 42
6.283185307179586
  0
ARC
  5
13E
330
1F
100
AcDbEntity
  8
0-A
  6
Continuous
 62
     4
370
     9
100
AcDbCircle
 10
-44.75191560570633
 20
300.6627108682592
 30
0.0
 40
5.478713505056374
100
AcDbArc
 50
16.61329650878907
 51
84.76367187500001
  0
ARC
  5
13F
330
1F
100
AcDbEntity
  8
0-A
  6
Continuous
 62
     4
370
     9
100
AcDbCircle
 10
-44.75191560570633
 20
300.6627108682592
 30
0.0
 40
5.478713505056374
100
AcDbArc
 50
95.23559570312501
 51
163.3867034912109
  0
ARC
  5
140
330
1F
100
AcDbEntity
  8
0-A
  6
Continuous
 62
     4
370
     9
100
AcDbCircle
 10
17.14796004989136
 20
247.1541433233148
 30
0.0
 40
0.999999988033044
100
AcDbArc
 50
270.0
 51
0.0
  0
ARC
  5
141
330
1F
100
AcDbEntity
  8
0-A
  6
Continuous
 62
     4
370
     9
100
AcDbCircle
 10
20.34818835436772
 20
247.1541433233148
 30
0.0
 40
0.999999988033044
100
AcDbArc
 50
180.0
 51
270.0
  0
ARC
  5
142
330
1F
100
AcDbEntity
  8
0-A
  6
Continuous
 62
     4
370
     9
100
AcDbCircle
 10
18.74800421200825
 20
245.5540116735463
 30
0.0
 40
5.000000213564133
100
AcDbArc
 50
0.0
 51
180.0
  0
ARC
  5
143
330
1F
100
AcDbEntity
  8
0-A
  6
Continuous
 62
     4
370
     9
100
AcDbCircle
 10
-106.6519662366072
 20
247.1541433233148
 30
0.0
 40
0.999999988033044
100
AcDbArc
 50
180.0
 51
270.0
  0
ARC
  5
144
330
1F
100
AcDbEntity
  8
0-A
  6
Continuous
 62
     4
370
     9
100
AcDbCircle
 10
-109.8521945410835
 20
247.1541433233148
 30
0.0
 40
0.999999988033044
100
AcDbArc
 50
270.0
 51
0.0
  0
ARC
  5
145
330
1F
100
AcDbEntity
  8
0-A
  6
Continuous
 62
     4
370
     9
100
AcDbCircle
 10
-108.2520453937847
 20
245.5540116735463
 30
0.0
 40
5.000000213564133
100
AcDbArc
 50
0.0
 51
180.0
  0
ARC
  5
146
330
1F
100
AcDbEntity
  8
仕上
  6
Continuous
 62
     6
370
     9
100
AcDbCircle
 10
22.56264079596246
 20
250.5540359462147
 30
0.0
 40
0.999999988033044
100
AcDbArc
 50
270.0
 51
4.247833251953131
  0
ARC
  5
147
330
1F
100
AcDbEntity
  8
仕上
  6
Continuous
 62
     6
370
     9
100
AcDbCircle
 10
-44.75193310323667
 20
245.5540291710766
 30
0.0
 40
68.50000095735643
100
AcDbArc
 50
4.248031616210934
 51
175.7519836425781
  0
ARC
  5
148
330
1F
100
AcDbEntity
  8
仕上
  6
Continuous
 62
     6
370
     9
100
AcDbCircle
 10
21.47681405474025
 20
251.5540373012422
 30
0.0
 40
0.999999988033044
100
AcDbArc
 50
270.0
 51
5.176773071289064
  0
ARC
  5
149
330
1F
100
AcDbEntity
  8
仕上
  6
Continuous
 62
     6
370
     9
100
AcDbCircle
 10
-44.75193310323667
 20
245.5540291710766
 30
0.0
 40
67.50000835109401
100
AcDbArc
 50
5.17658996582032
 51
8.519622802734384
  0
ARC
  5
14A
330
1F
100
AcDbEntity
  8
仕上
  6
Continuous
 62
     6
370
     9
100
AcDbCircle
 10
-44.75172313287288
 20
245.5540291710766
 30
0.0
 40
45.5000004123997
100
AcDbArc
 50
8.69096374511718
 51
21.30889892578124
  0
ARC
  5
14B
330
1F
100
AcDbEntity
  8
仕上
  6
Continuous
 62
     6
370
     9
100
AcDbCircle
 10
4.298998613741214
 20
272.9072184111677
 30
0.0
 40
0.999999988033044
100
AcDbArc
 50
209.1466217041016
 51
292.4991760253906
  0
ARC
  5
14C
330
1F
100
AcDbEntity
  8
仕上
  6
Continuous
 62
     6
370
     9
100
AcDbCircle
 10
-0.7099843944483295
 20
280.4036853239859
 30
0.0
 40
0.999999988033044
100
AcDbArc
 50
135.0007019042969
 51
218.3534088134766
  0
ARC
  5
14D
330
1F
100
AcDbEntity
  8
仕上
  6
Continuous
 62
     6
370
     9
100
AcDbCircle
 10
-44.75193310323667
 20
245.5540291710766
 30
0.0
 40
55.1622241399463
100
AcDbArc
 50
29.14613342285156
 51
38.35397338867187
  0
ARC
  5
14E
330
1F
100
AcDbEntity
  8
仕上
  6
Continuous
 62
     6
370
     9
100
AcDbCircle
 10
-9.902346940448583
 20
289.5960653675165
 30
0.0
 40
0.999999988033044
100
AcDbArc
 50
231.6466217041016
 51
314.9991760253906
  0
ARC
  5
14F
330
1F
100
AcDbEntity
  8
仕上
  6
Continuous
 62
     6
370
     9
100
AcDbCircle
 10
-17.39884884832748
 20
294.6050308781757
 30
0.0
 40
0.999999988033044
100
AcDbArc
 50
157.5007019042969
 51
240.8534088134766
  0
ARC
  5
150
330
1F
100
AcDbEntity
  8
仕上
  6
Continuous
 62
     6
370
     9
100
AcDbCircle
 10
-44.75193310323667
 20
245.5540116735463
 30
0.0
 40
55.1622241399463
100
AcDbArc
 50
51.64613342285156
 51
60.85397338867188
  0
ARC
  5
151
330
1F
100
AcDbEntity
  8
仕上
  6
Continuous
 62
     6
370
     9
100
AcDbCircle
 10
-29.40929363672632
 20
299.5798937022512
 30
0.0
 40
0.999999988033044
100
AcDbArc
 50
254.1466217041016
 51
337.4991760253907
  0
ARC
  5
152
330
1F
100
AcDbEntity
  8
仕上
  6
Continuous
 62
     6
370
     9
100
AcDbCircle
 10
-38.25195054185274
 20
301.3388154396275
 30
0.0
 40
0.999999988033044
100
AcDbArc
 50
180.0007019042969
 51
263.3534088134766
  0
ARC
  5
153
330
1F
100
AcDbEntity
  8
仕上
  6
Continuous
 62
     6
370
     9
100
AcDbCircle
 10
-44.75193310323667
 20
245.553994176016
 30
0.0
 40
55.1622241399463
100
AcDbArc
 50
74.14613342285158
 51
83.3539733886719
  0
ARC
  5
154
330
1F
100
AcDbEntity
  8
仕上
  6
Continuous
 62
     6
370
     9
100
AcDbCircle
 10
9.27389643287728
 20
260.8968611104204
 30
0.0
 40
0.999999988033044
100
AcDbArc
 50
112.5007019042968
 51
195.8534088134766
  0
ARC
  5
155
330
1F
100
AcDbEntity
  8
仕上
  6
Continuous
 62
     6
370
     9
100
AcDbCircle
 10
10.90711591247127
 20
253.0545730084582
 30
0.0
 40
0.999999988033044
100
AcDbArc
 50
187.6742706298828
 51
270.0010070800781
  0
ARC
  5
156
330
1F
100
AcDbEntity
  8
仕上
  6
Continuous
 62
     6
370
     9
100
AcDbCircle
 10
-44.75193310323667
 20
245.5541166587282
 30
0.0
 40
55.1622241399463
100
AcDbArc
 50
7.674774169921874
 51
15.85397338867188
  0
ARC
  5
157
330
1F
100
AcDbEntity
  8
仕上
  6
Continuous
 62
     6
370
     9
100
AcDbCircle
 10
-112.0665419974964
 20
250.5540359462147
 30
0.0
 40
0.999999988033044
100
AcDbArc
 50
175.7521667480468
 51
270.0
  0
ARC
  5
158
330
1F
100
AcDbEntity
  8
仕上
  6
Continuous
 62
     6
370
     9
100
AcDbCircle
 10
-110.9807152562742
 20
251.5540373012422
 30
0.0
 40
0.999999988033044
100
AcDbArc
 50
174.823226928711
 51
270.0
  0
ARC
  5
159
330
1F
100
AcDbEntity
  8
仕上
  6
Continuous
 62
     6
370
     9
100
AcDbCircle
 10
-44.75193310323667
 20
245.5540291710766
 30
0.0
 40
67.50000835109401
100
AcDbArc
 50
171.4803771972657
 51
174.8234100341797
  0
ARC
  5
15A
330
1F
100
AcDbEntity
  8
仕上
  6
Continuous
 62
     6
370
     9
100
AcDbCircle
 10
-93.80289981527514
 20
272.9072184111677
 30
0.0
 40
0.999999988033044
100
AcDbArc
 50
247.5008239746094
 51
330.8533782958984
  0
ARC
  5
15B
330
1F
100
AcDbEntity
  8
仕上
  6
Continuous
 62
     6
370
     9
100
AcDbCircle
 10
-88.79391680708561
 20
280.4036853239859
 30
0.0
 40
0.999999988033044
100
AcDbArc
 50
321.6465911865234
 51
44.99929809570313
  0
ARC
  5
15C
330
1F
100
AcDbEntity
  8
仕上
  6
Continuous
 62
     6
370
     9
100
AcDbCircle
 10
-44.75193310323667
 20
245.5540291710766
 30
0.0
 40
55.1622241399463
100
AcDbArc
 50
141.6460266113282
 51
150.8538665771485
  0
ARC
  5
15D
330
1F
100
AcDbEntity
  8
仕上
  6
Continuous
 62
     6
370
     9
100
AcDbCircle
 10
-79.60151926602471
 20
289.5960653675165
 30
0.0
 40
0.999999988033044
100
AcDbArc
 50
225.0008239746094
 51
308.3533782958984
  0
ARC
  5
15E
330
1F
100
AcDbEntity
  8
仕上
  6
Continuous
 62
     6
370
     9
100
AcDbCircle
 10
-72.10501735814586
 20
294.6050308781757
 30
0.0
 40
0.999999988033044
100
AcDbArc
 50
299.1465911865235
 51
22.49929809570313
  0
ARC
  5
15F
330
1F
100
AcDbEntity
  8
仕上
  6
Continuous
 62
     6
370
     9
100
AcDbCircle
 10
-44.75193310323667
 20
245.5540116735463
 30
0.0
 40
55.1622241399463
100
AcDbArc
 50
119.1460266113281
 51
128.3538665771485
  0
ARC
  5
160
330
1F
100
AcDbEntity
  8
仕上
  6
Continuous
 62
     6
370
     9
100
AcDbCircle
 10
-60.09457256974699
 20
299.5798937022512
 30
0.0
 40
0.999999988033044
100
AcDbArc
 50
202.5008239746094
 51
285.8533782958984
  0
ARC
  5
161
330
1F
100
AcDbEntity
  8
仕上
  6
Continuous
 62
     6
370
     9
100
AcDbCircle
 10
-51.25191566462057
 20
301.3388154396275
 30
0.0
 40
0.999999988033044
100
AcDbArc
 50
276.6465911865234
 51
359.9992980957032
  0
ARC
  5
162
330
1F
100
AcDbEntity
  8
仕上
  6
Continuous
 62
     6
370
     9
100
AcDbCircle
 10
-44.75193310323667
 20
245.553994176016
 30
0.0
 40
55.1622241399463
100
AcDbArc
 50
96.64602661132811
 51
105.8538665771484
  0
ARC
  5
163
330
1F
100
AcDbEntity
  8
仕上
  6
Continuous
 62
     6
370
     9
100
AcDbCircle
 10
-98.77779763441126
 20
260.8968611104204
 30
0.0
 40
0.999999988033044
100
AcDbArc
 50
344.1465911865234
 51
67.49929809570312
  0
ARC
  5
164
330
1F
100
AcDbEntity
  8
仕上
  6
Continuous
 62
     6
370
     9
100
AcDbCircle
 10
-100.4109821189446
 20
253.0545730084582
 30
0.0
 40
0.999999988033044
100
AcDbArc
 50
269.9989929199219
 51
352.3257293701172
  0
ARC
  5
165
330
1F
100
AcDbEntity
  8
仕上
  6
Continuous
 62
     6
370
     9
100
AcDbCircle
 10
-44.75193310323667
 20
245.5541166587282
 30
0.0
 40
55.1622241399463
100
AcDbArc
 50
164.1460266113282
 51
172.3252258300782
  0
ARC
  5
166
330
1F
100
AcDbEntity
  8
仕上
  6
Continuous
 62
     6
370
     9
100
AcDbCircle
 10
-44.75193310323667
 20
245.5540291710766
 30
0.0
 40
46.49999739304472
100
AcDbArc
 50
0.0
 51
7.586196899414062
  0
ARC
  5
167
330
1F
100
AcDbEntity
  8
仕上
  6
Continuous
 62
     6
370
     9
100
AcDbCircle
 10
-44.75193310323667
 20
245.5540291710766
 30
0.0
 40
51.51968888978699
100
AcDbArc
 50
0.0
 51
88.3315887451172
  0
ARC
  5
168
330
1F
100
AcDbEntity
  8
仕上
  6
Continuous
 62
     6
370
     9
100
AcDbCircle
 10
-44.75193310323667
 20
245.5540291710766
 30
0.0
 40
57.16118574694776
100
AcDbArc
 50
169.9246063232422
 51
180.0
  0
ARC
  5
169
330
1F
100
AcDbEntity
  8
仕上
  6
Continuous
 62
     6
370
     9
100
AcDbCircle
 10
-44.75193310323667
 20
245.5542566389707
 30
0.0
 40
45.5000004123997
100
AcDbArc
 50
98.69096374511719
 51
111.3088989257812
  0
ARC
  5
16A
330
1F
100
AcDbEntity
  8
仕上
  6
Continuous
 62
     6
370
     9
100
AcDbCircle
 10
-44.75193310323667
 20
245.5540291710766
 30
0.0
 40
46.49999739304472
100
AcDbArc
 50
22.41331481933594
 51
97.586181640625
  0
ARC
  5
16B
330
1F
100
AcDbEntity
  8
仕上
  6
Continuous
 62
     6
370
     9
100
AcDbCircle
 10
-44.75193310323667
 20
245.5540291710766
 30
0.0
 40
46.49999739304472
100
AcDbArc
 50
112.4134979248047
 51
180.0
  0
ARC
  5
16C
330
1F
100
AcDbEntity
  8
仕上
  6
Continuous
 62
     6
370
     9
100
AcDbCircle
 10
-107.7519309823239
 20
245.5540291710766
 30
0.0
 40
5.000000760361955
100
AcDbArc
 50
0.0
 51
90.00018310546875
  0
ARC
  5
16D
330
1F
100
AcDbEntity
  8
仕上
  6
Continuous
 62
     6
370
     9
100
AcDbCircle
 10
-44.75193310323667
 20
245.5540291710766
 30
0.0
 40
57.16118574694776
100
AcDbArc
 50
0.0
 51
10.07539367675781
  0
ARC
  5
16E
330
1F
100
AcDbEntity
  8
仕上
  6
Continuous
 62
     6
370
     9
100
AcDbCircle
 10
18.24802978078991
 20
245.5540291710766
 30
0.0
 40
5.000000760361955
100
AcDbArc
 50
89.99981689453128
 51
180.0
  0
ARC
  5
16F
330
1F
100
AcDbEntity
  8
仕上
  6
Continuous
 62
     6
370
     9
100
AcDbCircle
 10
-44.75193310323667
 20
245.5540291710766
 30
0.0
 40
51.51968888978699
100
AcDbArc
 50
91.66841125488283
 51
180.0
  0
ARC
  5
170
330
1F
100
AcDbEntity
  8
仕上
  6
Continuous
 62
     6
370
     9
100
AcDbCircle
 10
-44.75193310323667
 20
297.0740198932615
 30
0.0
 40
1.500157869920767
100
AcDbArc
 50
180.7531738281251
 51
359.1654968261719
  0
ARC
  5
171
330
1F
100
AcDbEntity
  8
仕上
  6
Continuous
 62
     6
370
     9
100
AcDbCircle
 10
-44.75193310323667
 20
297.8291608090623
 30
0.0
 40
1.500157869920767
100
AcDbArc
 50
193.4944610595703
 51
345.8015899658204
  0
ARC
  5
172
330
1F
100
AcDbEntity
  8
仕上
  6
Continuous
 62
     6
370
     9
100
AcDbCircle
 10
-44.75193310323667
 20
245.5540291710766
 30
0.0
 40
57.25002508273916
100
AcDbArc
 50
11.07768249511719
 51
84.85414123535158
  0
ARC
  5
173
330
1F
100
AcDbEntity
  8
仕上
  6
Continuous
 62
     6
370
     9
100
AcDbCircle
 10
-44.75193310323667
 20
245.5540291710766
 30
0.0
 40
57.25002508273916
100
AcDbArc
 50
95.1458740234375
 51
168.9223327636719
  0
ARC
  5
174
330
1F
100
AcDbEntity
  8
通り芯
  6
JWW_DASHED1
 62
     3
370
     9
100
AcDbCircle
 10
-44.75189810817602
 20
245.5540291710766
 30
0.0
 40
39.50000977976441
100
AcDbArc
 50
0.0
 51
42.52662658691406
  0
ARC
  5
175
330
1F
100
AcDbEntity
  8
躯体
  6
Continuous
 62
     2
370
     9
100
AcDbCircle
 10
-87.75197387189314
 20
245.5540291710766
 30
0.0
 40
11.99999985639653
100
AcDbArc
 50
0.0
 51
45.35368347167969
  0
ARC
  5
176
330
1F
100
AcDbEntity
  8
躯体
  6
JWW_DASHED1
 62
     2
370
     9
100
AcDbCircle
 10
-87.75197387189314
 20
245.5540291710766
 30
0.0
 40
11.99999985639653
100
AcDbArc
 50
45.35368347167967
 51
89.99992370605467
  0
ARC
  5
177
330
1F
100
AcDbEntity
  8
躯体
  6
JWW_DASHED1
 62
     2
370
     9
100
AcDbCircle
 10
-87.75197387189314
 20
245.5540291710766
 30
0.0
 40
12.99999902423284
100
AcDbArc
 50
47.85313415527344
 51
72.2626953125
  0
ARC
  5
178
330
1F
100
AcDbEntity
  8
躯体
  6
JWW_DASHED1
 62
     2
370
     9
100
AcDbCircle
 10
-23.25191271890839
 20
282.7931480637905
 30
0.0
 40
11.99999985639653
100
AcDbArc
 50
285.3537139892578
 51
329.9999237060547
  0
ARC
  5
179
330
1F
100
AcDbEntity
  8
躯体
  6
JWW_DASHED1
 62
     2
370
     9
100
AcDbCircle
 10
-23.25191271890839
 20
282.7931480637905
 30
0.0
 40
12.99999902423284
100
AcDbArc
 50
287.8531341552734
 51
312.2626953125
  0
ARC
  5
17A
330
1F
100
AcDbEntity
  8
躯体
  6
Continuous
 62
     2
370
     9
100
AcDbCircle
 10
-23.25191271890839
 20
282.7931480637905
 30
0.0
 40
11.99999985639653
100
AcDbArc
 50
194.6462860107422
 51
285.3537139892578
  0
ARC
  5
17B
330
1F
100
AcDbEntity
  8
躯体
  6
Continuous
 62
     2
370
     9
100
AcDbCircle
 10
-23.25191271890839
 20
282.7931480637905
 30
0.0
 40
12.99999902423284
100
AcDbArc
 50
192.1468048095703
 51
287.8531341552734
  0
ARC
  5
17C
330
1F
100
AcDbEntity
  8
躯体
  6
JWW_DASHED1
 62
     2
370
     9
100
AcDbCircle
 10
-23.25191271890839
 20
282.7931480637905
 30
0.0
 40
12.99999902423284
100
AcDbArc
 50
167.737289428711
 51
192.1468048095703
  0
ARC
  5
17D
330
1F
100
AcDbEntity
  8
躯体
  6
JWW_DASHED1
 62
     2
370
     9
100
AcDbCircle
 10
-23.25191271890839
 20
282.7931480637905
 30
0.0
 40
11.99999985639653
100
AcDbArc
 50
140.5608520507812
 51
194.6462860107422
  0
ARC
  5
17E
330
1F
100
AcDbEntity
  8
通り芯
  6
Continuous
 62
     3
370
     9
100
AcDbCircle
 10
-44.75189810817602
 20
245.5540291710766
 30
0.0
 40
98.00000156122745
100
AcDbArc
 50
0.0001525878906262
 51
180.0
  0
LINE
  5
17F
330
1F
100
AcDbEntity
  8
ハッチ
  6
JWW_DASHED1
 62
     2
370
     9
100
AcDbLine
 10
-32.25190741662652
 20
307.3620602900513
 30
0.0
 11
-32.25190741662652
 21
301.4227685900785
 31
0.0
  0
LINE
  5
180
330
1F
100
AcDbEntity
  8
ハッチ
  6
JWW_DASHED1
 62
     2
370
     9
100
AcDbLine
 10
-32.25190741662652
 20
299.2812808498969
 30
0.0
 11
-32.25190741662652
 21
293.4498439267852
 31
0.0
  0
LINE
  5
181
330
1F
100
AcDbEntity
  8
ハッチ
  6
Continuous
 62
     2
370
     9
100
AcDbLine
 10
-32.25190741662652
 20
301.4227685900785
 30
0.0
 11
-32.25190741662652
 21
299.2812808498969
 31
0.0
  0
LINE
  5
182
330
1F
100
AcDbEntity
  8
ハッチ
  6
JWW_DASHED1
 62
     2
370
     9
100
AcDbLine
 10
-57.25188879972553
 20
299.2812983474273
 30
0.0
 11
-57.25188879972553
 21
293.4498439267852
 31
0.0
  0
LINE
  5
183
330
1F
100
AcDbEntity
  8
ハッチ
  6
JWW_DASHED1
 62
     2
370
     9
100
AcDbLine
 10
-57.25188879972553
 20
307.3620602900513
 30
0.0
 11
-57.25188879972553
 21
301.4227685900785
 31
0.0
  0
LINE
  5
184
330
1F
100
AcDbEntity
  8
ハッチ
  6
Continuous
 62
     2
370
     9
100
AcDbLine
 10
-57.25188879972553
 20
301.4227685900785
 30
0.0
 11
-57.25188879972553
 21
299.2812983474273
 31
0.0
  0
ARC
  5
185
330
1F
100
AcDbEntity
  8
ハッチ
  6
JWW_DASHED1
 62
     2
370
     9
100
AcDbCircle
 10
-54.25190223217308
 20
307.3620602900513
 30
0.0
 40
2.999999964099133
100
AcDbArc
 50
98.53640747070312
 51
180.0
  0
ARC
  5
186
330
1F
100
AcDbEntity
  8
ハッチ
  6
JWW_DASHED1
 62
     2
370
     9
100
AcDbCircle
 10
-35.25189398417898
 20
307.3620602900513
 30
0.0
 40
2.999999964099133
100
AcDbArc
 50
0.0
 51
81.46359252929689
  0
ARC
  5
187
330
1F
100
AcDbEntity
  8
ハッチ
  6
JWW_DASHED1
 62
     2
370
     9
100
AcDbCircle
 10
-44.75193310323667
 20
244.0709385015846
 30
0.0
 40
67.00014327944015
100
AcDbArc
 50
81.46362304687501
 51
98.53637695312501
  0
ARC
  5
188
330
1F
100
AcDbEntity
  8
ハッチ
  6
Continuous
 62
     2
370
     9
100
AcDbCircle
 10
-44.75193310323667
 20
245.5540291710766
 30
0.0
 40
35.60600221111047
100
AcDbArc
 50
0.0
 51
180.0
  0
ARC
  5
189
330
1F
100
AcDbEntity
  8
ハッチ
  6
JWW_DASHED1
 62
     2
370
     9
100
AcDbCircle
 10
-44.75193310323667
 20
245.5540291710766
 30
0.0
 40
49.5000889457791
100
AcDbArc
 50
0.0
 51
180.0
  0
ARC
  5
18A
330
1F
100
AcDbEntity
  8
ハッチ
  6
JWW_DASHED1
 62
     2
370
     9
100
AcDbCircle
 10
-44.75193310323667
 20
245.5540291710766
 30
0.0
 40
48.9394024587506
100
AcDbArc
 50
0.0
 51
180.0
  0
ARC
  5
18B
330
1F
100
AcDbEntity
  8
通り芯
  6
Continuous
 62
     3
370
     9
100
AcDbCircle
 10
-44.75189810817602
 20
245.5540291710766
 30
0.0
 40
99.9999955225175
100
AcDbArc
 50
0.0001525878906262
 51
179.9999999999999
  0
ARC
  5
18C
330
1F
100
AcDbEntity
  8
通り芯
  6
Continuous
 62
     3
370
     9
100
AcDbCircle
 10
-44.75189810817602
 20
245.5540291710766
 30
0.0
 40
99.00000291625501
100
AcDbArc
 50
0.0001525878906262
 51
179.9999999999999
  0
ARC
  5
18D
330
1F
100
AcDbEntity
  8
躯体
  6
Continuous
 62
     2
370
     9
100
AcDbCircle
 10
-87.75197387189314
 20
245.5540291710766
 30
0.0
 40
12.99999902423284
100
AcDbArc
 50
0.0
 51
47.85313415527344
  0
LINE
  5
18E
330
1F
100
AcDbEntity
  8
通り芯
  6
JWW_CENTER1
 62
     3
370
     9
100
AcDbLine
 10
-44.75191560570632
 20
353.9237933444297
 30
0.0
 11
-44.75191560570632
 21
242.6009192746288
 31
0.0
  0
LINE
  5
18F
330
1F
100
AcDbEntity
  8
通り芯
  6
JWW_CENTER1
 62
     3
370
     9
100
AcDbLine
 10
-252.503173116669
 20
245.5540291710767
 30
0.0
 11
161.2098490328776
 21
245.5540291710765
 31
0.0
  0
LINE
  5
190
330
1F
100
AcDbEntity
  8
その他
  6
Continuous
 62
     7
370
     9
100
AcDbLine
 10
-229.7519197297034
 20
377.1148724340202
 30
0.0
 11
140.248125634264
 21
377.1148724340202
 31
0.0
  0
LINE
  5
191
330
1F
100
AcDbEntity
  8
その他
  6
Continuous
 62
     7
370
     9
100
AcDbLine
 10
-229.7519197297034
 20
377.1148724340202
 30
0.0
 11
-222.3160832693998
 21
378.0938188756705
 31
0.0
  0
LINE
  5
192
330
1F
100
AcDbEntity
  8
その他
  6
Continuous
 62
     7
370
     9
100
AcDbLine
 10
-229.7519197297034
 20
377.1148724340202
 30
0.0
 11
-222.3160832693998
 21
376.1359259923697
 31
0.0
  0
LINE
  5
193
330
1F
100
AcDbEntity
  8
その他
  6
Continuous
 62
     7
370
     9
100
AcDbLine
 10
140.248125634264
 20
377.1148724340202
 30
0.0
 11
132.8122891739604
 21
378.0938188756705
 31
0.0
  0
LINE
  5
194
330
1F
100
AcDbEntity
  8
その他
  6
Continuous
 62
     7
370
     9
100
AcDbLine
 10
140.248125634264
 20
377.1148724340202
 30
0.0
 11
132.8122891739604
 21
376.1359259923697
 31
0.0
  0
LINE
  5
195
330
1F
100
AcDbEntity
  8
その他
  6
Continuous
 62
     7
370
     9
100
AcDbLine
 10
-229.7519197297034
 20
378.0148724340202
 30
0.0
 11
-229.7519197297034
 21
328.5540110254897
 31
0.0
  0
LINE
  5
196
330
1F
100
AcDbEntity
  8
その他
  6
Continuous
 62
     7
370
     9
100
AcDbLine
 10
140.248125634264
 20
378.0148724340202
 30
0.0
 11
140.248125634264
 21
328.5540110254897
 31
0.0
  0
TEXT
  5
197
330
1F
100
AcDbEntity
  8
その他
  6
Continuous
 62
     2
370
   211
100
AcDbText
 10
-54.50189704771972
 20
380.6068724340201
 30
0.0
 40
9.144
  1
370
 41
1.083333333333333
  7
ＭＳ ゴシック
100
AcDbText
  0
LINE
  5
198
330
1F
100
AcDbEntity
  8
その他
  6
Continuous
 62
     7
370
     9
100
AcDbLine
 10
192.7974809639018
 20
245.5540291710765
 30
0.0
 11
192.7974809639018
 21
322.5540110254897
 31
0.0
  0
LINE
  5
199
330
1F
100
AcDbEntity
  8
その他
  6
Continuous
 62
     7
370
     9
100
AcDbLine
 10
192.7974809639018
 20
322.5540110254897
 30
0.0
 11
191.8185345222514
 21
315.1181745651861
 31
0.0
  0
LINE
  5
19A
330
1F
100
AcDbEntity
  8
その他
  6
Continuous
 62
     7
370
     9
100
AcDbLine
 10
192.7974809639018
 20
322.5540110254897
 30
0.0
 11
193.7764274055522
 21
315.1181745651861
 31
0.0
  0
LINE
  5
19B
330
1F
100
AcDbEntity
  8
その他
  6
Continuous
 62
     7
370
     9
100
AcDbLine
 10
193.6974809639018
 20
322.5540110254897
 30
0.0
 11
146.248125634264
 21
322.5540110254897
 31
0.0
  0
TEXT
  5
19C
330
1F
100
AcDbEntity
  8
その他
  6
Continuous
 62
     2
370
   211
100
AcDbText
 10
189.3054809639018
 20
250.8682543278807
 30
0.0
 40
9.144
  1
154
 50
90.0
 41
1.083333333333333
  7
ＭＳ ゴシック
100
AcDbText
  0
LINE
  5
19D
330
1F
100
AcDbEntity
  8
躯体
  6
Continuous
 62
     2
370
     9
100
AcDbLine
 10
-134.7519150754782
 20
34.7891749389734
 30
0.0
 11
-134.2519056491992
 21
36.78914265396796
 31
0.0
  0
LINE
  5
19E
330
1F
100
AcDbEntity
  8
躯体
  6
Continuous
 62
     2
370
     9
100
AcDbLine
 10
-128.6929402681513
 20
36.78914265396796
 30
0.0
 11
-134.2519056491992
 21
36.78914265396796
 31
0.0
  0
LINE
  5
19F
330
1F
100
AcDbEntity
  8
躯体
  6
Continuous
 62
     2
370
     9
100
AcDbLine
 10
-115.2518624061445
 20
40.78911307901775
 30
0.0
 11
-118.2519189638182
 21
40.78911307901775
 31
0.0
  0
LINE
  5
1A0
330
1F
100
AcDbEntity
  8
躯体
  6
Continuous
 62
     2
370
     9
100
AcDbLine
 10
-118.7448943829106
 20
37.56988245661941
 30
0.0
 11
-118.2519189638182
 21
40.78911307901775
 31
0.0
  0
LINE
  5
1A1
330
1F
100
AcDbEntity
  8
躯体
  6
Continuous
 62
     2
370
     9
100
AcDbLine
 10
45.24811885912602
 20
34.78917493897335
 30
0.0
 11
44.74803944272584
 21
36.78914265396794
 31
0.0
  0
LINE
  5
1A2
330
1F
100
AcDbEntity
  8
躯体
  6
Continuous
 62
     2
370
     9
100
AcDbLine
 10
39.1891440517992
 20
36.78914265396794
 30
0.0
 11
44.74803944272584
 21
36.78914265396794
 31
0.0
  0
LINE
  5
1A3
330
1F
100
AcDbEntity
  8
躯体
  6
Continuous
 62
     2
370
     9
100
AcDbLine
 10
29.24116815667976
 20
37.56988245661939
 30
0.0
 11
28.74808775240546
 21
40.78911307901773
 31
0.0
  0
LINE
  5
1A4
330
1F
100
AcDbEntity
  8
躯体
  6
Continuous
 62
     2
370
     9
100
AcDbLine
 10
-93.75187701687688
 20
29.28914124002611
 30
0.0
 11
-92.75192815444024
 21
24.28911696735784
 31
0.0
  0
LINE
  5
1A5
330
1F
100
AcDbEntity
  8
躯体
  6
Continuous
 62
     2
370
     9
100
AcDbLine
 10
-81.7518607565457
 20
29.28914124002608
 30
0.0
 11
-82.75191460416426
 21
24.28911696735781
 31
0.0
  0
LINE
  5
1A6
330
1F
100
AcDbEntity
  8
躯体
  6
Continuous
 62
     2
370
     9
100
AcDbLine
 10
-75.5107366586406
 20
28.08324644578295
 30
0.0
 11
-74.75186876888282
 21
24.28911696735781
 31
0.0
  0
LINE
  5
1A7
330
1F
100
AcDbEntity
  8
躯体
  6
Continuous
 62
     2
370
     9
100
AcDbLine
 10
-122.4867762358154
 20
35.12614237777799
 30
0.0
 11
-128.6929402681513
 21
36.78914265396796
 31
0.0
  0
LINE
  5
1A8
330
1F
100
AcDbEntity
  8
躯体
  6
Continuous
 62
     2
370
     9
100
AcDbLine
 10
11.52799827816563
 20
33.55188957534523
 30
0.0
 11
10.97087691293877
 21
30.42074152055215
 31
0.0
  0
LINE
  5
1A9
330
1F
100
AcDbEntity
  8
躯体
  6
JWW_DASHED1
 62
     2
370
     9
100
AcDbLine
 10
24.85285754382079
 20
36.01277723389523
 30
0.0
 11
24.48002016787058
 21
34.02316805684711
 31
0.0
  0
LINE
  5
1AA
330
1F
100
AcDbEntity
  8
躯体
  6
Continuous
 62
     2
370
     9
100
AcDbLine
 10
5.600464918564403
 20
27.78907796612862
 30
0.0
 11
9.51942177825612
 21
28.8391747504478
 31
0.0
  0
LINE
  5
1AB
330
1F
100
AcDbEntity
  8
躯体
  6
JWW_DASHED1
 62
     2
370
     9
100
AcDbLine
 10
9.51942177825612
 20
28.8391747504478
 30
0.0
 11
32.98305000958453
 21
35.12628235802049
 31
0.0
  0
LINE
  5
1AC
330
1F
100
AcDbEntity
  8
躯体
  6
Continuous
 62
     2
370
     9
100
AcDbLine
 10
32.98305000958453
 20
35.12628235802049
 30
0.0
 11
39.1891440517992
 21
36.78914265396794
 31
0.0
  0
LINE
  5
1AD
330
1F
100
AcDbEntity
  8
躯体
  6
Continuous
 62
     2
370
     9
100
AcDbLine
 10
25.748101184853
 20
40.78911307901773
 30
0.0
 11
24.85285754382079
 21
36.01277723389523
 31
0.0
  0
LINE
  5
1AE
330
1F
100
AcDbEntity
  8
躯体
  6
Continuous
 62
     2
370
     9
100
AcDbLine
 10
25.748101184853
 20
40.78911307901773
 30
0.0
 11
28.74808775240546
 21
40.78911307901773
 31
0.0
  0
LINE
  5
1AF
330
1F
100
AcDbEntity
  8
躯体
  6
Continuous
 62
     4
370
     9
100
AcDbLine
 10
-95.25201028089566
 20
29.28914124002611
 30
0.0
 11
-80.25190246783009
 21
29.28914124002608
 31
0.0
  0
LINE
  5
1B0
330
1F
100
AcDbEntity
  8
躯体
  6
Continuous
 62
     2
370
     9
100
AcDbLine
 10
-91.75187430682172
 20
24.28911696735784
 30
0.0
 11
-95.56507609329012
 21
24.28911696735784
 31
0.0
  0
LINE
  5
1B1
330
1F
100
AcDbEntity
  8
躯体
  6
Continuous
 62
     2
370
     9
100
AcDbLine
 10
24.74808233229508
 20
28.77852831037632
 30
0.0
 11
26.74805004728966
 21
29.31454765404333
 31
0.0
  0
LINE
  5
1B2
330
1F
100
AcDbEntity
  8
躯体
  6
Continuous
 62
     2
370
     9
100
AcDbLine
 10
24.74808233229508
 20
28.77852831037632
 30
0.0
 11
23.7479934896159
 21
29.0282180679701
 31
0.0
  0
LINE
  5
1B3
330
1F
100
AcDbEntity
  8
躯体
  6
Continuous
 62
     2
370
     9
100
AcDbLine
 10
6.061209886816703
 20
24.28911696735781
 30
0.0
 11
23.7479934896159
 21
29.0282180679701
 31
0.0
  0
LINE
  5
1B4
330
1F
100
AcDbEntity
  8
躯体
  6
Continuous
 62
     2
370
     9
100
AcDbLine
 10
26.74805004728966
 20
29.31454765404333
 30
0.0
 11
27.74820888009009
 21
30.10011677506168
 31
0.0
  0
LINE
  5
1B5
330
1F
100
AcDbEntity
  8
躯体
  6
Continuous
 62
     2
370
     9
100
AcDbLine
 10
27.74820888009009
 20
30.10011677506168
 30
0.0
 11
45.24811885912602
 21
34.78917493897335
 31
0.0
  0
LINE
  5
1B6
330
1F
100
AcDbEntity
  8
躯体
  6
Continuous
 62
     2
370
     9
100
AcDbLine
 10
-114.2518435535866
 20
28.77852831037634
 30
0.0
 11
-116.2519162537631
 21
29.31454765404337
 31
0.0
  0
LINE
  5
1B7
330
1F
100
AcDbEntity
  8
躯体
  6
Continuous
 62
     2
370
     9
100
AcDbLine
 10
-116.2519162537631
 20
29.31454765404337
 30
0.0
 11
-117.2519701013816
 21
30.10004678494047
 31
0.0
  0
LINE
  5
1B8
330
1F
100
AcDbEntity
  8
躯体
  6
Continuous
 62
     2
370
     9
100
AcDbLine
 10
-117.2519701013816
 20
30.10004678494047
 30
0.0
 11
-134.7519150754782
 21
34.7891749389734
 31
0.0
  0
LINE
  5
1B9
330
1F
100
AcDbEntity
  8
躯体
  6
Continuous
 62
     2
370
     9
100
AcDbLine
 10
-114.2518435535866
 20
28.77852831037634
 30
0.0
 11
-113.2519296862106
 21
29.02821806797013
 31
0.0
  0
LINE
  5
1BA
330
1F
100
AcDbEntity
  8
躯体
  6
Continuous
 62
     2
370
     9
100
AcDbLine
 10
-95.56507609329012
 20
24.28911696735784
 30
0.0
 11
-113.2519296862106
 21
29.02821806797013
 31
0.0
  0
LINE
  5
1BB
330
1F
100
AcDbEntity
  8
躯体
  6
Continuous
 62
     2
370
     9
100
AcDbLine
 10
-83.75193345672217
 20
24.28911696735781
 30
0.0
 11
6.061209886816703
 21
24.28911696735781
 31
0.0
  0
LINE
  5
1BC
330
1F
100
AcDbEntity
  8
躯体
  6
Continuous
 62
     2
370
     9
100
AcDbLine
 10
-75.45187496666125
 20
27.78907796612862
 30
0.0
 11
5.600464918564403
 21
27.78907796612862
 31
0.0
  0
LINE
  5
1BD
330
1F
100
AcDbEntity
  8
躯体
  6
Continuous
 62
     2
370
     9
100
AcDbLine
 10
-111.2519269761554
 20
34.7891749389734
 30
0.0
 11
-112.8824168410202
 21
34.7891749389734
 31
0.0
  0
LINE
  5
1BE
330
1F
100
AcDbEntity
  8
躯体
  6
Continuous
 62
     2
370
     9
100
AcDbLine
 10
-101.0317944945178
 20
33.55188957534526
 30
0.0
 11
-100.5668851140505
 21
30.93877340305554
 31
0.0
  0
LINE
  5
1BF
330
1F
100
AcDbEntity
  8
躯体
  6
Continuous
 62
     2
370
     9
100
AcDbLine
 10
-115.2518624061445
 20
40.78911307901775
 30
0.0
 11
-114.1851079729655
 21
35.09727145275841
 31
0.0
  0
LINE
  5
1C0
330
1F
100
AcDbEntity
  8
躯体
  6
JWW_DASHED1
 62
     2
370
     9
100
AcDbLine
 10
-114.1851079729655
 20
35.09727145275841
 30
0.0
 11
-113.9838163842227
 21
34.02316805684714
 31
0.0
  0
LINE
  5
1C1
330
1F
100
AcDbEntity
  8
躯体
  6
JWW_DASHED1
 62
     2
370
     9
100
AcDbLine
 10
-111.2519269761554
 20
32.11586726240037
 30
0.0
 11
-122.4867762358154
 21
35.12614237777799
 31
0.0
  0
LINE
  5
1C2
330
1F
100
AcDbEntity
  8
躯体
  6
Continuous
 62
     2
370
     9
100
AcDbLine
 10
-76.98157905691221
 20
29.28914124002608
 30
0.0
 11
-98.59781803759208
 21
29.28914124002611
 31
0.0
  0
LINE
  5
1C3
330
1F
100
AcDbEntity
  8
躯体
  6
JWW_DASHED1
 62
     2
370
     9
100
AcDbLine
 10
-98.59781803759208
 20
29.28914124002611
 30
0.0
 11
-100.7023859888092
 21
29.28914124002611
 31
0.0
  0
LINE
  5
1C4
330
1F
100
AcDbEntity
  8
躯体
  6
Continuous
 62
     4
370
     9
100
AcDbLine
 10
-94.94195404371541
 20
33.97893430021102
 30
0.0
 11
-94.94195404371541
 21
29.28914124002611
 31
0.0
  0
LINE
  5
1C5
330
1F
100
AcDbEntity
  8
躯体
  6
Continuous
 62
     4
370
     9
100
AcDbLine
 10
-82.1568585932147
 20
34.58903818723138
 30
0.0
 11
-93.34691417526855
 21
34.58903818723141
 31
0.0
  0
LINE
  5
1C6
330
1F
100
AcDbEntity
  8
躯体
  6
Continuous
 62
     4
370
     9
100
AcDbLine
 10
-80.56185371982846
 20
33.97893430021099
 30
0.0
 11
-80.56185371982846
 21
29.28914124002608
 31
0.0
  0
LINE
  5
1C7
330
1F
100
AcDbEntity
  8
躯体
  6
Continuous
 62
     4
370
     9
100
AcDbLine
 10
-91.75190930188234
 20
33.97893430021102
 30
0.0
 11
-91.75190930188234
 21
18.10923422555487
 31
0.0
  0
LINE
  5
1C8
330
1F
100
AcDbEntity
  8
躯体
  6
Continuous
 62
     4
370
     9
100
AcDbLine
 10
-83.75193345672217
 20
18.10923422555487
 30
0.0
 11
-91.75190930188234
 21
18.10923422555487
 31
0.0
  0
LINE
  5
1C9
330
1F
100
AcDbEntity
  8
躯体
  6
Continuous
 62
     4
370
     9
100
AcDbLine
 10
-91.75190930188234
 20
18.10923422555487
 30
0.0
 11
-91.07541978484716
 21
17.43277970358037
 31
0.0
  0
LINE
  5
1CA
330
1F
100
AcDbEntity
  8
躯体
  6
Continuous
 62
     4
370
     9
100
AcDbLine
 10
-91.07541978484716
 20
17.43277970358037
 30
0.0
 11
-84.42838797869672
 21
17.43277970358037
 31
0.0
  0
LINE
  5
1CB
330
1F
100
AcDbEntity
  8
躯体
  6
Continuous
 62
     4
370
     9
100
AcDbLine
 10
-84.42838797869672
 20
17.43277970358037
 30
0.0
 11
-83.75193345672217
 21
18.10923422555487
 31
0.0
  0
LINE
  5
1CC
330
1F
100
AcDbEntity
  8
躯体
  6
Continuous
 62
     4
370
     9
100
AcDbLine
 10
-83.75193345672217
 20
33.97893430021099
 30
0.0
 11
-83.75193345672217
 21
18.10923422555487
 31
0.0
  0
LINE
  5
1CD
330
1F
100
AcDbEntity
  8
躯体
  6
Continuous
 62
     4
370
     9
100
AcDbLine
 10
-91.07541978484716
 20
29.28914124002611
 30
0.0
 11
-91.07541978484716
 21
17.43277970358037
 31
0.0
  0
LINE
  5
1CE
330
1F
100
AcDbEntity
  8
躯体
  6
JWW_DASHED1
 62
     2
370
     9
100
AcDbLine
 10
-100.7023859888092
 20
29.28914124002611
 30
0.0
 11
-105.2518488558685
 21
30.50812418694485
 31
0.0
  0
LINE
  5
1CF
330
1F
100
AcDbEntity
  8
躯体
  6
Continuous
 62
     4
370
     9
100
AcDbLine
 10
-84.42838797869672
 20
29.28914124002608
 30
0.0
 11
-84.42838797869672
 21
17.43277970358037
 31
0.0
  0
LINE
  5
1D0
330
1F
100
AcDbEntity
  8
躯体
  6
Continuous
 62
     2
370
     9
100
AcDbLine
 10
13.00471984662301
 20
34.78917493897335
 30
0.0
 11
16.61809983689512
 21
34.78917493897335
 31
0.0
  0
LINE
  5
1D1
330
1F
100
AcDbEntity
  8
躯体
  6
Continuous
 62
     2
370
     9
100
AcDbLine
 10
20.87811855748511
 20
34.78917493897335
 30
0.0
 11
23.37858562960749
 21
34.78917493897335
 31
0.0
  0
LINE
  5
1D2
330
1F
100
AcDbEntity
  8
躯体
  6
Continuous
 62
     2
370
     9
100
AcDbLine
 10
-106.1218960532473
 20
34.7891749389734
 30
0.0
 11
-102.5085860530965
 21
34.7891749389734
 31
0.0
  0
LINE
  5
1D3
330
1F
100
AcDbEntity
  8
通り芯
  6
JWW_CENTER1
 62
     3
370
     9
100
AcDbLine
 10
-44.75191560570636
 20
108.9738391607774
 30
0.0
 11
-44.75191560570639
 21
-54.24963269800934
 31
0.0
  0
LINE
  5
1D4
330
1F
100
AcDbEntity
  8
躯体
  6
Continuous
 62
     4
370
     9
100
AcDbLine
 10
-91.07541978484716
 20
47.4327853593477
 30
0.0
 11
-84.42838797869672
 21
47.43278535934768
 31
0.0
  0
LINE
  5
1D5
330
1F
100
AcDbEntity
  8
躯体
  6
Continuous
 62
     4
370
     9
100
AcDbLine
 10
-91.75190930188234
 20
46.75678577316138
 30
0.0
 11
-83.75193345672217
 21
46.75678577316138
 31
0.0
  0
LINE
  5
1D6
330
1F
100
AcDbEntity
  8
躯体
  6
Continuous
 62
     4
370
     9
100
AcDbLine
 10
-83.75193345672217
 20
46.75678577316138
 30
0.0
 11
-84.42838797869672
 21
47.43278535934768
 31
0.0
  0
LINE
  5
1D7
330
1F
100
AcDbEntity
  8
躯体
  6
Continuous
 62
     4
370
     9
100
AcDbLine
 10
-91.07541978484716
 20
47.4327853593477
 30
0.0
 11
-91.75190930188234
 21
46.75678577316138
 31
0.0
  0
LINE
  5
1D8
330
1F
100
AcDbEntity
  8
躯体
  6
Continuous
 62
     4
370
     9
100
AcDbLine
 10
-83.75193345672217
 20
46.75678577316138
 30
0.0
 11
-83.75193345672217
 21
34.58903818723138
 31
0.0
  0
LINE
  5
1D9
330
1F
100
AcDbEntity
  8
躯体
  6
Continuous
 62
     4
370
     9
100
AcDbLine
 10
-84.42838797869672
 20
47.43278535934768
 30
0.0
 11
-84.42838797869672
 21
34.58903818723138
 31
0.0
  0
LINE
  5
1DA
330
1F
100
AcDbEntity
  8
躯体
  6
Continuous
 62
     4
370
     9
100
AcDbLine
 10
-91.07541978484716
 20
47.4327853593477
 30
0.0
 11
-91.07541978484716
 21
34.58903818723141
 31
0.0
  0
LINE
  5
1DB
330
1F
100
AcDbEntity
  8
躯体
  6
Continuous
 62
     4
370
     9
100
AcDbLine
 10
-91.75190930188234
 20
46.75678577316138
 30
0.0
 11
-91.75190930188234
 21
34.58903818723141
 31
0.0
  0
LINE
  5
1DC
330
1F
100
AcDbEntity
  8
躯体
  6
JWW_CENTER1
 62
     4
370
     9
100
AcDbLine
 10
-87.75190388177191
 20
48.55696668702024
 30
0.0
 11
-87.75190388177191
 21
14.03923868418485
 31
0.0
  0
LINE
  5
1DD
330
1F
100
AcDbEntity
  8
建具
  6
Continuous
 62
     7
370
     9
100
AcDbLine
 10
17.92096594414351
 20
-25.13941145381591
 30
0.0
 11
0.424065540321739
 21
-28.22464598906265
 31
0.0
  0
LINE
  5
1DE
330
1F
100
AcDbEntity
  8
建具
  6
Continuous
 62
     7
370
     9
100
AcDbLine
 10
18.78912340824826
 20
-30.06346144985685
 30
0.0
 11
1.292292994547711
 21
-33.1487309801642
 31
0.0
  0
LINE
  5
1DF
330
1F
100
AcDbEntity
  8
建具
  6
Continuous
 62
     4
370
     9
100
AcDbLine
 10
8.58932305683657
 20
-31.86199759586617
 30
0.0
 11
8.58932305683657
 21
-43.06724103423335
 31
0.0
  0
LINE
  5
1E0
330
1F
100
AcDbEntity
  8
建具
  6
Continuous
 62
     7
370
     9
100
AcDbLine
 10
-92.57908754998955
 20
-25.13941145381591
 30
0.0
 11
-110.0759879538113
 21
-28.22464598906265
 31
0.0
  0
LINE
  5
1E1
330
1F
100
AcDbEntity
  8
建具
  6
Continuous
 62
     7
370
     9
100
AcDbLine
 10
-91.71086009576356
 20
-30.06346144985685
 30
0.0
 11
-109.207795494646
 21
-33.1487309801642
 31
0.0
  0
LINE
  5
1E2
330
1F
100
AcDbEntity
  8
建具
  6
Continuous
 62
     4
370
     9
100
AcDbLine
 10
-101.9108004274178
 20
-31.86199759586617
 30
0.0
 11
-101.9108004274178
 21
-43.06724103423335
 31
0.0
  0
LINE
  5
1E3
330
1F
100
AcDbEntity
  8
建具
  6
Continuous
 62
     4
370
     9
100
AcDbLine
 10
-98.41073444346506
 20
-31.24482470659854
 30
0.0
 11
-98.41073444346506
 21
-43.06724103423335
 31
0.0
  0
LINE
  5
1E4
330
1F
100
AcDbEntity
  8
建具
  6
Continuous
 62
     4
370
     9
100
AcDbLine
 10
-98.41073444346506
 20
-3.067221828189989
 30
0.0
 11
-98.41073444346506
 21
-26.16770631536269
 31
0.0
  0
LINE
  5
1E5
330
1F
100
AcDbEntity
  8
建具
  6
Continuous
 62
     4
370
     9
100
AcDbLine
 10
-101.9108004274178
 20
-3.067221828189989
 30
0.0
 11
-101.9108004274178
 21
-26.78487920463033
 31
0.0
  0
LINE
  5
1E6
330
1F
100
AcDbEntity
  8
建具
  6
Continuous
 62
     4
370
     9
100
AcDbLine
 10
8.589323056836573
 20
-3.067221828189989
 30
0.0
 11
8.58932305683657
 21
-26.78487920463033
 31
0.0
  0
LINE
  5
1E7
330
1F
100
AcDbEntity
  8
建具
  6
Continuous
 62
     4
370
     9
100
AcDbLine
 10
-101.9108004274178
 20
-43.06724103423335
 30
0.0
 11
12.08931905066799
 21
-43.06724103423335
 31
0.0
  0
LINE
  5
1E8
330
1F
100
AcDbEntity
  8
建具
  6
Continuous
 62
     4
370
     9
100
AcDbLine
 10
12.08931905066799
 20
-31.24482470659854
 30
0.0
 11
12.08931905066799
 21
-43.06724103423335
 31
0.0
  0
LINE
  5
1E9
330
1F
100
AcDbEntity
  8
建具
  6
Continuous
 62
     4
370
     9
100
AcDbLine
 10
12.08931905066799
 20
-3.067116843008076
 30
0.0
 11
12.08931905066799
 21
-26.16770631536269
 31
0.0
  0
LINE
  5
1EA
330
1F
100
AcDbEntity
  8
通り芯
  6
Continuous
 62
     3
370
     9
100
AcDbLine
 10
-117.7372116120748
 20
27.12420680922256
 30
0.0
 11
-112.7666181853962
 21
25.79243478189388
 31
0.0
  0
LINE
  5
1EB
330
1F
100
AcDbEntity
  8
通り芯
  6
Continuous
 62
     3
370
     9
100
AcDbLine
 10
-127.9984282948918
 20
32.97958035380506
 30
0.0
 11
-125.1006972944997
 21
32.20317993867175
 31
0.0
  0
LINE
  5
1EC
330
1F
100
AcDbEntity
  8
通り芯
  6
Continuous
 62
     3
370
     9
100
AcDbLine
 10
-119.9020410576965
 20
30.81016655524089
 30
0.0
 11
-122.202826313865
 21
31.42670953341715
 31
0.0
  0
LINE
  5
1ED
330
1F
100
AcDbEntity
  8
通り芯
  6
Continuous
 62
     3
370
     9
100
AcDbLine
 10
-119.1811428087221
 20
30.04475458914536
 30
0.0
 11
-118.8184540003545
 21
28.27246473860842
 31
0.0
  0
LINE
  5
1EE
330
1F
100
AcDbEntity
  8
通り芯
  6
Continuous
 62
     3
370
     9
100
AcDbLine
 10
-110.0559007890098
 20
27.59964970293939
 30
0.0
 11
-111.2560913883704
 21
26.24611074789894
 31
0.0
  0
LINE
  5
1EF
330
1F
100
AcDbEntity
  8
通り芯
  6
Continuous
 62
     3
370
     9
100
AcDbLine
 10
-142.7518559255777
 20
36.9327623827928
 30
0.0
 11
-130.8962992755264
 21
33.75612074918095
 31
0.0
  0
LINE
  5
1F0
330
1F
100
AcDbEntity
  8
通り芯
  6
JWW_DASHED1
 62
     3
370
     9
100
AcDbLine
 10
20.39959609843288
 20
21.74266638556787
 30
0.0
 11
19.60940762941141
 21
22.633570639082
 31
0.0
  0
LINE
  5
1F1
330
1F
100
AcDbEntity
  8
通り芯
  6
Continuous
 62
     3
370
     9
100
AcDbLine
 10
-122.2416008410429
 20
25.04850978302502
 30
0.0
 11
-122.4804771249021
 21
26.21545507478723
 31
0.0
  0
LINE
  5
1F2
330
1F
100
AcDbEntity
  8
通り芯
  6
Continuous
 62
     3
370
     9
100
AcDbLine
 10
-106.7480276780361
 20
27.2856040288473
 30
0.0
 11
-109.0487429440834
 21
27.90200702678109
 31
0.0
  0
LINE
  5
1F3
330
1F
100
AcDbEntity
  8
通り芯
  6
Continuous
 62
     3
370
     9
100
AcDbLine
 10
-81.61373525223979
 20
22.08582795010392
 30
0.0
 11
-79.75192803661179
 21
3.932770159472909
 31
0.0
  0
LINE
  5
1F4
330
1F
100
AcDbEntity
  8
通り芯
  6
Continuous
 62
     3
370
     9
100
AcDbLine
 10
8.530881305584774
 20
-3.067221828189989
 30
0.0
 11
12.24812663580616
 21
-3.067221828189989
 31
0.0
  0
LINE
  5
1F5
330
1F
100
AcDbEntity
  8
通り芯
  6
Continuous
 62
     3
370
     9
100
AcDbLine
 10
13.55652196263412
 20
5.655297033794227
 30
0.0
 11
12.24812663580616
 21
-3.067221828189989
 31
0.0
  0
LINE
  5
1F6
330
1F
100
AcDbEntity
  8
通り芯
  6
JWW_DASHED1
 62
     3
370
     9
100
AcDbLine
 10
14.74922361901986
 20
22.47588289588396
 30
0.0
 11
17.59537190004363
 21
23.23849525712916
 31
0.0
  0
LINE
  5
1F7
330
1F
100
AcDbEntity
  8
通り芯
  6
Continuous
 62
     3
370
     9
100
AcDbLine
 10
-120.7314939847446
 20
23.78546805477336
 30
0.0
 11
-121.1603234577025
 21
23.90039183388168
 31
0.0
  0
LINE
  5
1F8
330
1F
100
AcDbEntity
  8
通り芯
  6
JWW_DASHED1
 62
     3
370
     9
100
AcDbLine
 10
31.22762777827119
 20
23.78546805477333
 30
0.0
 11
21.9101228954587
 21
21.28892042944153
 31
0.0
  0
LINE
  5
1F9
330
1F
100
AcDbEntity
  8
通り芯
  6
Continuous
 62
     3
370
     9
100
AcDbLine
 10
-98.00703142403935
 20
24.94345461101429
 30
0.0
 11
-103.8502266875227
 21
26.50913362359276
 31
0.0
  0
LINE
  5
1FA
330
1F
100
AcDbEntity
  8
通り芯
  6
JWW_DASHED1
 62
     3
370
     9
100
AcDbLine
 10
-86.00498545019164
 20
10.01519165742172
 30
0.0
 11
-92.03456440658945
 21
10.67449859968764
 31
0.0
  0
LINE
  5
1FB
330
1F
100
AcDbEntity
  8
通り芯
  6
JWW_DASHED1
 62
     3
370
     9
100
AcDbLine
 10
-85.12737931971685
 20
9.185423774827935
 30
0.0
 11
-84.25187289287986
 21
3.932770159472909
 31
0.0
  0
LINE
  5
1FC
330
1F
100
AcDbEntity
  8
通り芯
  6
JWW_DASHED1
 62
     3
370
     9
100
AcDbLine
 10
15.03989259261118
 20
6.932756727025382
 30
0.0
 11
12.27752248673522
 21
6.932756727025382
 31
0.0
  0
LINE
  5
1FD
330
1F
100
AcDbEntity
  8
通り芯
  6
JWW_DASHED1
 62
     3
370
     9
100
AcDbLine
 10
12.54803430540381
 20
19.94378028895227
 30
0.0
 11
9.722673090394153
 21
-3.067221828189989
 31
0.0
  0
LINE
  5
1FE
330
1F
100
AcDbEntity
  8
通り芯
  6
JWW_DASHED1
 62
     3
370
     9
100
AcDbLine
 10
-94.6860701603901
 20
13.29104428791914
 30
0.0
 11
-95.80591210054453
 21
22.41117702877946
 31
0.0
  0
LINE
  5
1FF
330
1F
100
AcDbEntity
  8
通り芯
  6
Continuous
 62
     3
370
     9
100
AcDbLine
 10
-96.54584766250161
 20
-4.384435910296645
 30
0.0
 11
-94.2519214382165
 21
-23.06717893862071
 31
0.0
  0
LINE
  5
200
330
1F
100
AcDbEntity
  8
通り芯
  6
Continuous
 62
     3
370
     9
100
AcDbLine
 10
-89.75190659182717
 20
1.932802444478337
 30
0.0
 11
-89.75190659182717
 21
-8.067176110737023
 31
0.0
  0
LINE
  5
201
330
1F
100
AcDbEntity
  8
通り芯
  6
Continuous
 62
     3
370
     9
100
AcDbLine
 10
-84.40004197958653
 20
1.932802444478337
 30
0.0
 11
-84.25187289287986
 21
3.932770159472909
 31
0.0
  0
LINE
  5
202
330
1F
100
AcDbEntity
  8
通り芯
  6
Continuous
 62
     3
370
     9
100
AcDbLine
 10
-88.69393591886623
 20
-23.06717893862071
 30
0.0
 11
-87.75634825447193
 21
-8.067176110737023
 31
0.0
  0
LINE
  5
203
330
1F
100
AcDbEntity
  8
通り芯
  6
Continuous
 62
     3
370
     9
100
AcDbLine
 10
38.49463207853967
 20
32.97958035380503
 30
0.0
 11
35.59683108802625
 21
32.20317993867172
 31
0.0
  0
LINE
  5
204
330
1F
100
AcDbEntity
  8
通り芯
  6
Continuous
 62
     3
370
     9
100
AcDbLine
 10
53.24805970922559
 20
36.93276238279275
 30
0.0
 11
41.39250305917433
 21
33.75612074918092
 31
0.0
  0
LINE
  5
205
330
1F
100
AcDbEntity
  8
通り芯
  6
Continuous
 62
     3
370
     9
100
AcDbLine
 10
-109.9033223246638
 20
21.7426663855679
 30
0.0
 11
-109.1132738358848
 21
22.63357063908202
 31
0.0
  0
LINE
  5
206
330
1F
100
AcDbEntity
  8
通り芯
  6
Continuous
 62
     3
370
     9
100
AcDbLine
 10
32.73773463456943
 20
25.048509783025
 30
0.0
 11
32.97668090854988
 21
26.2154550747872
 31
0.0
  0
LINE
  5
207
330
1F
100
AcDbEntity
  8
通り芯
  6
Continuous
 62
     3
370
     9
100
AcDbLine
 10
-104.2529498452507
 20
22.47588289588398
 30
0.0
 11
-107.099238106517
 21
23.23849525712919
 31
0.0
  0
LINE
  5
208
330
1F
100
AcDbEntity
  8
通り芯
  6
Continuous
 62
     3
370
     9
100
AcDbLine
 10
31.22762777827119
 20
23.78546805477333
 30
0.0
 11
31.6565272413503
 21
23.90039183388166
 31
0.0
  0
LINE
  5
209
330
1F
100
AcDbEntity
  8
通り芯
  6
Continuous
 62
     3
370
     9
100
AcDbLine
 10
-120.7314939847446
 20
23.78546805477336
 30
0.0
 11
-111.4139541068715
 21
21.28892042944156
 31
0.0
  0
LINE
  5
20A
330
1F
100
AcDbEntity
  8
通り芯
  6
Continuous
 62
     3
370
     9
100
AcDbLine
 10
-102.051830521756
 20
19.94378028895227
 30
0.0
 11
-99.22639931662505
 21
-3.067221828189989
 31
0.0
  0
LINE
  5
20B
330
1F
100
AcDbEntity
  8
通り芯
  6
Continuous
 62
     3
370
     9
100
AcDbLine
 10
0.2481103754749912
 20
1.932802444478337
 30
0.0
 11
0.2481103754749912
 21
-8.067176110737023
 31
0.0
  0
LINE
  5
20C
330
1F
100
AcDbEntity
  8
通り芯
  6
Continuous
 62
     3
370
     9
100
AcDbLine
 10
-5.103684246644378
 20
1.932802444478337
 30
0.0
 11
-5.251853333351051
 21
3.932770159472909
 31
0.0
  0
LINE
  5
20D
330
1F
100
AcDbEntity
  8
通り芯
  6
Continuous
 62
     3
370
     9
100
AcDbLine
 10
-0.8098602974859563
 20
-23.06717893862071
 30
0.0
 11
-1.747377971758967
 21
-8.067176110737023
 31
0.0
  0
LINE
  5
20E
330
1F
100
AcDbEntity
  8
通り芯
  6
Continuous
 62
     3
370
     9
100
AcDbLine
 10
-84.25187289287986
 20
3.932770159472909
 30
0.0
 11
-5.251853333351051
 21
3.932770159472909
 31
0.0
  0
LINE
  5
20F
330
1F
100
AcDbEntity
  8
通り芯
  6
Continuous
 62
     3
370
     9
100
AcDbLine
 10
-94.2519214382165
 20
-23.06717893862071
 30
0.0
 11
4.748195211985602
 21
-23.06717893862071
 31
0.0
  0
LINE
  5
210
330
1F
100
AcDbEntity
  8
通り芯
  6
Continuous
 62
     3
370
     9
100
AcDbLine
 10
30.39831483146552
 20
30.81016655524087
 30
0.0
 11
32.69903009751283
 21
31.42670953341712
 31
0.0
  0
LINE
  5
211
330
1F
100
AcDbEntity
  8
通り芯
  6
Continuous
 62
     3
370
     9
100
AcDbLine
 10
29.67741658249116
 20
30.04475458914532
 30
0.0
 11
29.31472777412364
 21
28.27246473860839
 31
0.0
  0
LINE
  5
212
330
1F
100
AcDbEntity
  8
通り芯
  6
Continuous
 62
     3
370
     9
100
AcDbLine
 10
28.23331041054074
 20
27.12420680922253
 30
0.0
 11
23.26275197892272
 21
25.79243478189386
 31
0.0
  0
LINE
  5
213
330
1F
100
AcDbEntity
  8
通り芯
  6
Continuous
 62
     3
370
     9
100
AcDbLine
 10
17.24423146168397
 20
27.28560402884727
 30
0.0
 11
19.54501671785249
 21
27.90200702678106
 31
0.0
  0
LINE
  5
214
330
1F
100
AcDbEntity
  8
通り芯
  6
Continuous
 62
     3
370
     9
100
AcDbLine
 10
20.55203458253641
 20
27.59964970293936
 30
0.0
 11
21.75222518189689
 21
26.2461807380202
 31
0.0
  0
LINE
  5
215
330
1F
100
AcDbEntity
  8
通り芯
  6
Continuous
 62
     3
370
     9
100
AcDbLine
 10
8.50323520768723
 20
24.94345461101426
 30
0.0
 11
14.34650046129185
 21
26.50913362359273
 31
0.0
  0
LINE
  5
216
330
1F
100
AcDbEntity
  8
通り芯
  6
Continuous
 62
     3
370
     9
100
AcDbLine
 10
5.182343934159237
 20
13.29104428791914
 30
0.0
 11
6.302185874313641
 21
22.41135200408257
 31
0.0
  0
LINE
  5
217
330
1F
100
AcDbEntity
  8
通り芯
  6
Continuous
 62
     3
370
     9
100
AcDbLine
 10
-89.75190659182717
 20
1.932802444478337
 30
0.0
 11
0.2481103754749912
 21
1.932802444478337
 31
0.0
  0
LINE
  5
218
330
1F
100
AcDbEntity
  8
通り芯
  6
Continuous
 62
     3
370
     9
100
AcDbLine
 10
0.2481103754749912
 20
-8.067176110737023
 30
0.0
 11
-89.75190659182717
 21
-8.067176110737023
 31
0.0
  0
LINE
  5
219
330
1F
100
AcDbEntity
  8
通り芯
  6
Continuous
 62
     3
370
     9
100
AcDbLine
 10
-87.1162885955524
 20
-21.48953161530693
 30
0.0
 11
-86.27738700213422
 21
-8.067176110737023
 31
0.0
  0
LINE
  5
21A
330
1F
100
AcDbEntity
  8
通り芯
  6
Continuous
 62
     3
370
     9
100
AcDbLine
 10
-88.69393591886623
 20
-23.06717893862071
 30
0.0
 11
-87.1162885955524
 21
-21.48953161530693
 31
0.0
  0
LINE
  5
21B
330
1F
100
AcDbEntity
  8
通り芯
  6
Continuous
 62
     3
370
     9
100
AcDbLine
 10
-0.8098602974859563
 20
-23.06717893862071
 30
0.0
 11
-2.387437630678506
 21
-21.48953161530693
 31
0.0
  0
LINE
  5
21C
330
1F
100
AcDbEntity
  8
通り芯
  6
Continuous
 62
     3
370
     9
100
AcDbLine
 10
-2.387437630678506
 20
-21.48960160542816
 30
0.0
 11
-3.226339224096708
 21
-8.067176110737023
 31
0.0
  0
LINE
  5
21D
330
1F
100
AcDbEntity
  8
通り芯
  6
Continuous
 62
     3
370
     9
100
AcDbLine
 10
-87.1162885955524
 20
-21.48960160542816
 30
0.0
 11
-2.387437630678506
 21
-21.48960160542816
 31
0.0
  0
LINE
  5
21E
330
1F
100
AcDbEntity
  8
通り芯
  6
Continuous
 62
     3
370
     9
100
AcDbLine
 10
28.40737584211348
 20
8.253190354709998
 30
0.0
 11
30.12668317085682
 21
22.51612721560826
 31
0.0
  0
LINE
  5
21F
330
1F
100
AcDbEntity
  8
通り芯
  6
Continuous
 62
     3
370
     9
100
AcDbLine
 10
34.24798147111022
 20
-8.067211105797728
 30
0.0
 11
34.24798147111022
 21
-14.06718424090266
 31
0.0
  0
LINE
  5
220
330
1F
100
AcDbEntity
  8
通り芯
  6
Continuous
 62
     3
370
     9
100
AcDbLine
 10
20.07309218275656
 20
16.13285318142482
 30
0.0
 11
26.42294593403856
 21
16.13285318142482
 31
0.0
  0
LINE
  5
221
330
1F
100
AcDbEntity
  8
通り芯
  6
Continuous
 62
     3
370
     9
100
AcDbLine
 10
20.07309218275656
 20
16.13285318142482
 30
0.0
 11
20.88812714482526
 21
16.93284026742264
 31
0.0
  0
LINE
  5
222
330
1F
100
AcDbEntity
  8
通り芯
  6
Continuous
 62
     3
370
     9
100
AcDbLine
 10
25.60812094233369
 20
16.93284026742264
 30
0.0
 11
26.42294593403856
 21
16.13285318142482
 31
0.0
  0
LINE
  5
223
330
1F
100
AcDbEntity
  8
通り芯
  6
Continuous
 62
     3
370
     9
100
AcDbLine
 10
20.88812714482526
 20
16.93284026742264
 30
0.0
 11
25.60812094233369
 21
16.93284026742264
 31
0.0
  0
LINE
  5
224
330
1F
100
AcDbEntity
  8
通り芯
  6
Continuous
 62
     3
370
     9
100
AcDbLine
 10
28.24807832612651
 20
-8.067211105797696
 30
0.0
 11
34.24798147111022
 21
-8.067211105797728
 31
0.0
  0
LINE
  5
225
330
1F
100
AcDbEntity
  8
通り芯
  6
Continuous
 62
     3
370
     9
100
AcDbLine
 10
20.24799749578443
 20
-6.067173400681842
 30
0.0
 11
20.24799749578443
 21
6.932721731964762
 31
0.0
  0
LINE
  5
226
330
1F
100
AcDbEntity
  8
通り芯
  6
Continuous
 62
     3
370
     9
100
AcDbLine
 10
28.24807832612651
 20
-14.06718424090263
 30
0.0
 11
34.24798147111022
 21
-14.06718424090266
 31
0.0
  0
LINE
  5
227
330
1F
100
AcDbEntity
  8
通り芯
  6
JWW_CENTER1
 62
     3
370
     9
100
AcDbLine
 10
23.24812404357948
 20
-6.067173400681842
 30
0.0
 11
23.24812404357948
 21
19.93282683497512
 31
0.0
  0
LINE
  5
228
330
1F
100
AcDbEntity
  8
通り芯
  6
Continuous
 62
     3
370
     9
100
AcDbLine
 10
26.24804062101065
 20
-6.067173400681842
 30
0.0
 11
26.24804062101065
 21
6.932721731964762
 31
0.0
  0
LINE
  5
229
330
1F
100
AcDbEntity
  8
通り芯
  6
Continuous
 62
     3
370
     9
100
AcDbLine
 10
25.60812094233369
 20
6.932721731964762
 30
0.0
 11
25.60812094233369
 21
17.93282412491993
 31
0.0
  0
LINE
  5
22A
330
1F
100
AcDbEntity
  8
通り芯
  6
Continuous
 62
     3
370
     9
100
AcDbLine
 10
20.88812714482526
 20
6.932721731964762
 30
0.0
 11
20.88812714482526
 21
17.93282412491993
 31
0.0
  0
LINE
  5
22B
330
1F
100
AcDbEntity
  8
通り芯
  6
Continuous
 62
     3
370
     9
100
AcDbLine
 10
20.07309218275656
 20
6.932721731964762
 30
0.0
 11
20.07309218275656
 21
16.13285318142482
 31
0.0
  0
LINE
  5
22C
330
1F
100
AcDbEntity
  8
通り芯
  6
Continuous
 62
     3
370
     9
100
AcDbLine
 10
26.42294593403856
 20
6.932721731964762
 30
0.0
 11
26.42294593403856
 21
16.13285318142482
 31
0.0
  0
LINE
  5
22D
330
1F
100
AcDbEntity
  8
通り芯
  6
Continuous
 62
     3
370
     9
100
AcDbLine
 10
15.03989259261118
 20
6.932721731964762
 30
0.0
 11
26.91805605182935
 21
6.932721731964762
 31
0.0
  0
LINE
  5
22E
330
1F
100
AcDbEntity
  8
通り芯
  6
JWW_CENTER1
 62
     3
370
     9
100
AcDbLine
 10
28.24807832612651
 20
-11.06719767335017
 30
0.0
 11
35.84872553443971
 21
-11.06719767335019
 31
0.0
  0
LINE
  5
22F
330
1F
100
AcDbEntity
  8
建具
  6
Continuous
 62
     4
370
     9
100
AcDbLine
 10
-98.03471251699756
 20
-3.067151838068749
 30
0.0
 11
-101.9108004274178
 21
-3.067151838068749
 31
0.0
  0
LINE
  5
230
330
1F
100
AcDbEntity
  8
通り芯
  6
Continuous
 62
     3
370
     9
100
AcDbLine
 10
8.589323056836573
 20
-3.067221828189989
 30
0.0
 11
6.747463025767556
 21
-18.06718966101306
 31
0.0
  0
LINE
  5
231
330
1F
100
AcDbEntity
  8
通り芯
  6
Continuous
 62
     3
370
     9
100
AcDbLine
 10
5.362078565553984
 20
-18.06718966101306
 30
0.0
 11
4.748195211985602
 21
-23.06717893862071
 31
0.0
  0
LINE
  5
232
330
1F
100
AcDbEntity
  8
通り芯
  6
Continuous
 62
     3
370
     9
100
AcDbLine
 10
5.362078565553984
 20
-18.06718966101306
 30
0.0
 11
6.747463025767556
 21
-18.06718966101306
 31
0.0
  0
LINE
  5
233
330
1F
100
AcDbEntity
  8
通り芯
  6
JWW_DASHED1
 62
     3
370
     9
100
AcDbLine
 10
7.042191426391978
 20
-4.384435910296645
 30
0.0
 11
5.362078565553984
 21
-18.06718966101306
 31
0.0
  0
LINE
  5
234
330
1F
100
AcDbEntity
  8
通り芯
  6
Continuous
 62
     3
370
     9
100
AcDbLine
 10
-143.7519097731963
 20
27.93283767519594
 30
0.0
 11
-138.7518505054673
 21
27.93283767519594
 31
0.0
  0
LINE
  5
235
330
1F
100
AcDbEntity
  8
通り芯
  6
Continuous
 62
     3
370
     9
100
AcDbLine
 10
-143.7519097731963
 20
27.93283767519594
 30
0.0
 11
-144.7518936306936
 21
28.93282153269323
 31
0.0
  0
LINE
  5
236
330
1F
100
AcDbEntity
  8
通り芯
  6
Continuous
 62
     3
370
     9
100
AcDbLine
 10
-123.9222036327297
 20
27.74627900697837
 30
0.0
 11
-129.8930608773906
 21
29.34618318885273
 31
0.0
  0
LINE
  5
237
330
1F
100
AcDbEntity
  8
通り芯
  6
Continuous
 62
     3
370
     9
100
AcDbLine
 10
54.24807856178346
 20
27.93283767519591
 30
0.0
 11
49.24812427923642
 21
27.93283767519591
 31
0.0
  0
LINE
  5
238
330
1F
100
AcDbEntity
  8
通り芯
  6
Continuous
 62
     3
370
     9
100
AcDbLine
 10
54.24807856178346
 20
27.93283767519591
 30
0.0
 11
55.24809741434142
 21
28.9328215326932
 31
0.0
  0
LINE
  5
239
330
1F
100
AcDbEntity
  8
通り芯
  6
Continuous
 62
     3
370
     9
100
AcDbLine
 10
34.41833742625623
 20
27.74627900697834
 30
0.0
 11
40.38940464128096
 21
29.34618318885271
 31
0.0
  0
LINE
  5
23A
330
1F
100
AcDbEntity
  8
通り芯
  6
Continuous
 62
     3
370
     9
100
AcDbLine
 10
53.36536315245674
 20
36.93276238279275
 30
0.0
 11
29.4120840327958
 21
36.93276238279275
 31
0.0
  0
LINE
  5
23B
330
1F
100
AcDbEntity
  8
通り芯
  6
Continuous
 62
     3
370
     9
100
AcDbLine
 10
54.35768309167612
 20
36.0568010201676
 30
0.0
 11
55.24809741434142
 21
28.9328215326932
 31
0.0
  0
LINE
  5
23C
330
1F
100
AcDbEntity
  8
通り芯
  6
Continuous
 62
     3
370
     9
100
AcDbLine
 10
-142.8690893786876
 20
36.9327623827928
 30
0.0
 11
-118.9158102590267
 21
36.9327623827928
 31
0.0
  0
LINE
  5
23D
330
1F
100
AcDbEntity
  8
通り芯
  6
Continuous
 62
     3
370
     9
100
AcDbLine
 10
-143.8614443129676
 20
36.05680102016763
 30
0.0
 11
-144.7518936306936
 21
28.93282153269323
 31
0.0
  0
LINE
  5
23E
330
1F
100
AcDbEntity
  8
通り芯
  6
Continuous
 62
     3
370
     9
100
AcDbLine
 10
20.88812714482526
 20
17.93282412491993
 30
0.0
 11
25.60812094233369
 21
17.93282412491993
 31
0.0
  0
LINE
  5
23F
330
1F
100
AcDbEntity
  8
通り芯
  6
Continuous
 62
     3
370
     9
100
AcDbLine
 10
25.60812094233369
 20
17.93282412491993
 30
0.0
 11
23.24812404357948
 21
19.29539180560283
 31
0.0
  0
LINE
  5
240
330
1F
100
AcDbEntity
  8
通り芯
  6
Continuous
 62
     3
370
     9
100
AcDbLine
 10
20.88805715470397
 20
17.93282412491993
 30
0.0
 11
23.24812404357948
 21
19.29539180560283
 31
0.0
  0
LINE
  5
241
330
1F
100
AcDbEntity
  8
通り芯
  6
Continuous
 62
     3
370
     9
100
AcDbLine
 10
-83.1058546473743
 20
23.43285782386721
 30
0.0
 11
-84.42838797869672
 21
23.43285782386721
 31
0.0
  0
LINE
  5
242
330
1F
100
AcDbEntity
  8
通り芯
  6
Continuous
 62
     3
370
     9
100
AcDbLine
 10
-91.07541978484716
 20
23.43285782386723
 30
0.0
 11
-96.12352727082086
 21
23.43285782386723
 31
0.0
  0
LINE
  5
243
330
1F
100
AcDbEntity
  8
通り芯
  6
Continuous
 62
     3
370
     9
100
AcDbLine
 10
-91.07541978484716
 20
16.43279584608308
 30
0.0
 11
-84.42838797869672
 21
16.43279584608308
 31
0.0
  0
LINE
  5
244
330
1F
100
AcDbEntity
  8
通り芯
  6
Continuous
 62
     3
370
     9
100
AcDbLine
 10
-84.42838797869672
 20
17.43277970358037
 30
0.0
 11
-84.42838797869672
 21
16.43279584608308
 31
0.0
  0
LINE
  5
245
330
1F
100
AcDbEntity
  8
通り芯
  6
Continuous
 62
     3
370
     9
100
AcDbLine
 10
-91.07541978484716
 20
16.43279584608308
 30
0.0
 11
-91.07541978484716
 21
17.43277970358037
 31
0.0
  0
LINE
  5
246
330
1F
100
AcDbEntity
  8
通り芯
  6
Continuous
 62
     3
370
     9
100
AcDbLine
 10
-84.42838797869672
 20
16.43279584608308
 30
0.0
 11
-87.75186888671132
 21
14.51398167668907
 31
0.0
  0
LINE
  5
247
330
1F
100
AcDbEntity
  8
通り芯
  6
Continuous
 62
     3
370
     9
100
AcDbLine
 10
-91.07541978484716
 20
16.43279584608308
 30
0.0
 11
-87.75186888671132
 21
14.51398167668907
 31
0.0
  0
LINE
  5
248
330
1F
100
AcDbEntity
  8
0-A
  6
JWW_CENTER1
 62
     4
370
     9
100
AcDbLine
 10
18.74803920706888
 20
48.00918900298159
 30
0.0
 11
18.74803920706886
 21
27.72612185205554
 31
0.0
  0
LINE
  5
249
330
1F
100
AcDbEntity
  8
0-A
  6
Continuous
 62
     4
370
     9
100
AcDbLine
 10
20.87797857724256
 20
29.77704237532714
 30
0.0
 11
21.74795578450004
 21
30.64705457764523
 31
0.0
  0
LINE
  5
24A
330
1F
100
AcDbEntity
  8
0-A
  6
Continuous
 62
     4
370
     9
100
AcDbLine
 10
16.61795985665259
 20
29.77704237532714
 30
0.0
 11
15.74798264939512
 21
30.64705457764523
 31
0.0
  0
LINE
  5
24B
330
1F
100
AcDbEntity
  8
0-A
  6
Continuous
 62
     4
370
     9
100
AcDbLine
 10
16.61795985665259
 20
29.77704237532714
 30
0.0
 11
20.87797857724256
 21
29.77704237532714
 31
0.0
  0
LINE
  5
24C
330
1F
100
AcDbEntity
  8
0-A
  6
Continuous
 62
     4
370
     9
100
AcDbLine
 10
15.74798264939512
 20
30.64705457764523
 30
0.0
 11
21.74795578450004
 21
30.64705457764523
 31
0.0
  0
LINE
  5
24D
330
1F
100
AcDbEntity
  8
0-A
  6
Continuous
 62
     4
370
     9
100
AcDbLine
 10
21.74795578450006
 20
41.77705863565836
 30
0.0
 11
21.74795578450004
 21
30.64705457764523
 31
0.0
  0
LINE
  5
24E
330
1F
100
AcDbEntity
  8
0-A
  6
Continuous
 62
     4
370
     9
100
AcDbLine
 10
20.87797857724258
 20
41.77705863565836
 30
0.0
 11
20.87797857724256
 21
29.77704237532714
 31
0.0
  0
LINE
  5
24F
330
1F
100
AcDbEntity
  8
0-A
  6
Continuous
 62
     4
370
     9
100
AcDbLine
 10
16.61795985665259
 20
41.77705863565836
 30
0.0
 11
16.61795985665259
 21
29.77704237532714
 31
0.0
  0
LINE
  5
250
330
1F
100
AcDbEntity
  8
0-A
  6
Continuous
 62
     4
370
     9
100
AcDbLine
 10
15.74798264939512
 20
41.77705863565836
 30
0.0
 11
15.74798264939512
 21
30.64705457764523
 31
0.0
  0
LINE
  5
251
330
1F
100
AcDbEntity
  8
0-A
  6
Continuous
 62
     4
370
     9
100
AcDbLine
 10
23.56643911506838
 20
43.85135585943067
 30
0.0
 11
23.74799348961592
 21
41.77705863565836
 31
0.0
  0
LINE
  5
252
330
1F
100
AcDbEntity
  8
0-A
  6
Continuous
 62
     4
370
     9
100
AcDbLine
 10
15.92197809084661
 20
45.67704817248869
 30
0.0
 11
21.57410032329109
 21
45.67704817248869
 31
0.0
  0
LINE
  5
253
330
1F
100
AcDbEntity
  8
0-A
  6
Continuous
 62
     4
370
     9
100
AcDbLine
 10
13.74794494427926
 20
41.77705863565836
 30
0.0
 11
23.74799348961592
 21
41.77705863565836
 31
0.0
  0
LINE
  5
254
330
1F
100
AcDbEntity
  8
0-A
  6
Continuous
 62
     4
370
     9
100
AcDbLine
 10
13.9294993188268
 20
43.85135585943067
 30
0.0
 11
13.74794494427926
 21
41.77705863565836
 31
0.0
  0
LINE
  5
255
330
1F
100
AcDbEntity
  8
0-A
  6
JWW_CENTER1
 62
     4
370
     9
100
AcDbLine
 10
-108.2519054135422
 20
48.00918900298161
 30
0.0
 11
-108.2519054135422
 21
27.72612185205557
 31
0.0
  0
LINE
  5
256
330
1F
100
AcDbEntity
  8
0-A
  6
Continuous
 62
     4
370
     9
100
AcDbLine
 10
-110.381844783716
 20
29.77704237532717
 30
0.0
 11
-111.2518219909735
 21
30.64705457764526
 31
0.0
  0
LINE
  5
257
330
1F
100
AcDbEntity
  8
0-A
  6
Continuous
 62
     4
370
     9
100
AcDbLine
 10
-106.121826063126
 20
29.77704237532717
 30
0.0
 11
-105.2518488558685
 21
30.64705457764526
 31
0.0
  0
LINE
  5
258
330
1F
100
AcDbEntity
  8
0-A
  6
Continuous
 62
     4
370
     9
100
AcDbLine
 10
-106.121826063126
 20
29.77704237532717
 30
0.0
 11
-110.381844783716
 21
29.77704237532717
 31
0.0
  0
LINE
  5
259
330
1F
100
AcDbEntity
  8
0-A
  6
Continuous
 62
     4
370
     9
100
AcDbLine
 10
-105.2518488558685
 20
30.64705457764526
 30
0.0
 11
-111.2518219909735
 21
30.64705457764526
 31
0.0
  0
LINE
  5
25A
330
1F
100
AcDbEntity
  8
0-A
  6
Continuous
 62
     4
370
     9
100
AcDbLine
 10
-111.2518219909735
 20
41.7770586356584
 30
0.0
 11
-111.2518219909735
 21
30.64705457764526
 31
0.0
  0
LINE
  5
25B
330
1F
100
AcDbEntity
  8
0-A
  6
Continuous
 62
     4
370
     9
100
AcDbLine
 10
-110.381844783716
 20
41.7770586356584
 30
0.0
 11
-110.381844783716
 21
29.77704237532717
 31
0.0
  0
LINE
  5
25C
330
1F
100
AcDbEntity
  8
0-A
  6
Continuous
 62
     4
370
     9
100
AcDbLine
 10
-106.121826063126
 20
41.7770586356584
 30
0.0
 11
-106.121826063126
 21
29.77704237532717
 31
0.0
  0
LINE
  5
25D
330
1F
100
AcDbEntity
  8
0-A
  6
Continuous
 62
     4
370
     9
100
AcDbLine
 10
-105.2518488558685
 20
41.7770586356584
 30
0.0
 11
-105.2518488558685
 21
30.64705457764526
 31
0.0
  0
LINE
  5
25E
330
1F
100
AcDbEntity
  8
0-A
  6
Continuous
 62
     4
370
     9
100
AcDbLine
 10
-113.0703053215418
 20
43.85135585943069
 30
0.0
 11
-113.2518596960893
 21
41.7770586356584
 31
0.0
  0
LINE
  5
25F
330
1F
100
AcDbEntity
  8
0-A
  6
Continuous
 62
     4
370
     9
100
AcDbLine
 10
-105.4257743071988
 20
45.67704817248871
 30
0.0
 11
-111.0779665297645
 21
45.67704817248871
 31
0.0
  0
LINE
  5
260
330
1F
100
AcDbEntity
  8
0-A
  6
Continuous
 62
     4
370
     9
100
AcDbLine
 10
-103.2518111507527
 20
41.7770586356584
 30
0.0
 11
-113.2518596960893
 21
41.7770586356584
 31
0.0
  0
LINE
  5
261
330
1F
100
AcDbEntity
  8
0-A
  6
Continuous
 62
     4
370
     9
100
AcDbLine
 10
-103.4333655253002
 20
43.85135585943069
 30
0.0
 11
-103.2518111507527
 21
41.7770586356584
 31
0.0
  0
LINE
  5
262
330
1F
100
AcDbEntity
  8
躯体
  6
Continuous
 62
     2
370
     9
100
AcDbLine
 10
-105.2519188459898
 20
30.64698458752403
 30
0.0
 11
-105.2519188459898
 21
26.8846656192114
 31
0.0
  0
LINE
  5
263
330
1F
100
AcDbEntity
  8
躯体
  6
Continuous
 62
     2
370
     9
100
AcDbLine
 10
-106.1218960532473
 20
29.77697238520594
 30
0.0
 11
-106.1218960532473
 21
27.11776771806669
 31
0.0
  0
LINE
  5
264
330
1F
100
AcDbEntity
  8
躯体
  6
Continuous
 62
     2
370
     9
100
AcDbLine
 10
-110.3819147738373
 20
29.7771123654484
 30
0.0
 11
-110.3819147738373
 21
28.25920161062973
 31
0.0
  0
LINE
  5
265
330
1F
100
AcDbEntity
  8
躯体
  6
Continuous
 62
     2
370
     9
100
AcDbLine
 10
-111.2519269761554
 20
30.64715956282717
 30
0.0
 11
-111.2519269761554
 21
28.49237369960625
 31
0.0
  0
LINE
  5
266
330
1F
100
AcDbEntity
  8
躯体
  6
Continuous
 62
     2
370
     9
100
AcDbLine
 10
21.74809576474256
 20
30.64719455788775
 30
0.0
 11
21.74809576474256
 21
28.49237369960622
 31
0.0
  0
LINE
  5
267
330
1F
100
AcDbEntity
  8
躯体
  6
Continuous
 62
     2
370
     9
100
AcDbLine
 10
20.87811855748508
 20
29.77718235556966
 30
0.0
 11
20.87811855748508
 21
28.25923660569032
 31
0.0
  0
LINE
  5
268
330
1F
100
AcDbEntity
  8
躯体
  6
Continuous
 62
     2
370
     9
100
AcDbLine
 10
16.61809983689512
 20
29.77690239508462
 30
0.0
 11
16.61809983689512
 21
27.11780271312728
 31
0.0
  0
LINE
  5
269
330
1F
100
AcDbEntity
  8
躯体
  6
Continuous
 62
     2
370
     9
100
AcDbLine
 10
15.74805263951635
 20
30.646984587524
 30
0.0
 11
15.74805263951635
 21
26.88466561921137
 31
0.0
  0
LINE
  5
26A
330
1F
100
AcDbEntity
  8
0-A
  6
JWW_PHANTOM1
 62
     4
370
     9
100
AcDbLine
 10
-107.6343300810774
 20
98.75020717307689
 30
0.0
 11
-87.43206652514561
 21
96.94152245948493
 31
0.0
  0
LINE
  5
26B
330
1F
100
AcDbEntity
  8
0-A
  6
JWW_PHANTOM1
 62
     4
370
     9
100
AcDbLine
 10
-89.66475139332856
 20
95.00297107589574
 30
0.0
 11
-90.60886563653031
 21
94.2140074339963
 31
0.0
  0
LINE
  5
26C
330
1F
100
AcDbEntity
  8
0-A
  6
JWW_PHANTOM1
 62
     4
370
     9
100
AcDbLine
 10
-89.28488001019177
 20
99.24601719208027
 30
0.0
 11
-90.07384365209121
 21
100.1900789426911
 31
0.0
  0
LINE
  5
26D
330
1F
100
AcDbEntity
  8
0-A
  6
JWW_PHANTOM1
 62
     4
370
     9
100
AcDbLine
 10
-89.28488001019177
 20
99.24601719208027
 30
0.0
 11
-89.66475139332856
 21
95.00297107589574
 31
0.0
  0
LINE
  5
26E
330
1F
100
AcDbEntity
  8
0-A
  6
JWW_PHANTOM1
 62
     4
370
     9
100
AcDbLine
 10
-90.07384365209121
 20
100.1900789426911
 30
0.0
 11
-90.60886563653031
 21
94.2140074339963
 31
0.0
  0
LINE
  5
26F
330
1F
100
AcDbEntity
  8
0-A
  6
JWW_PHANTOM1
 62
     4
370
     9
100
AcDbLine
 10
-101.6945309527254
 20
95.20650234851882
 30
0.0
 11
-90.60886563653031
 21
94.2140074339963
 31
0.0
  0
LINE
  5
270
330
1F
100
AcDbEntity
  8
0-A
  6
JWW_PHANTOM1
 62
     4
370
     9
100
AcDbLine
 10
-101.6169644008394
 20
96.07301504477391
 30
0.0
 11
-89.66475139332856
 21
95.00297107589574
 31
0.0
  0
LINE
  5
271
330
1F
100
AcDbEntity
  8
0-A
  6
JWW_PHANTOM1
 62
     4
370
     9
100
AcDbLine
 10
-101.2370755201723
 20
100.3160611609585
 30
0.0
 11
-89.28488001019177
 21
99.24601719208027
 31
0.0
  0
LINE
  5
272
330
1F
100
AcDbEntity
  8
0-A
  6
JWW_PHANTOM1
 62
     4
370
     9
100
AcDbLine
 10
-101.1595089682863
 20
101.1825738572136
 30
0.0
 11
-90.07384365209121
 21
100.1900789426911
 31
0.0
  0
LINE
  5
273
330
1F
100
AcDbEntity
  8
0-A
  6
JWW_PHANTOM1
 62
     4
370
     9
100
AcDbLine
 10
-103.9227364531477
 20
93.58024688599016
 30
0.0
 11
-101.8728832792253
 21
93.21444351722658
 31
0.0
  0
LINE
  5
274
330
1F
100
AcDbEntity
  8
0-A
  6
JWW_PHANTOM1
 62
     4
370
     9
100
AcDbLine
 10
-105.0594460125257
 20
101.3571292196352
 30
0.0
 11
-105.5634798707771
 21
95.72743882105442
 31
0.0
  0
LINE
  5
275
330
1F
100
AcDbEntity
  8
0-A
  6
JWW_PHANTOM1
 62
     4
370
     9
100
AcDbLine
 10
-100.9811566417864
 20
103.1746676835664
 30
0.0
 11
-101.8728832792253
 21
93.21444351722658
 31
0.0
  0
LINE
  5
276
330
1F
100
AcDbEntity
  8
0-A
  6
JWW_PHANTOM1
 62
     4
370
     9
100
AcDbLine
 10
-103.0633802467914
 20
103.1787971007208
 30
0.0
 11
-100.9811566417864
 21
103.1746676835664
 31
0.0
  0
LINE
  5
277
330
1F
100
AcDbEntity
  8
通り芯
  6
Continuous
 62
     3
370
     9
100
AcDbLine
 10
-3.498670785918025
 20
10.01519165742172
 30
0.0
 11
2.530838180358553
 21
10.67449859968764
 31
0.0
  0
LINE
  5
278
330
1F
100
AcDbEntity
  8
通り芯
  6
Continuous
 62
     3
370
     9
100
AcDbLine
 10
-4.376416896635307
 20
9.185458769888555
 30
0.0
 11
-5.251853333351051
 21
3.932770159472909
 31
0.0
  0
LINE
  5
279
330
1F
100
AcDbEntity
  8
躯体
  6
Continuous
 62
     2
370
     9
100
AcDbLine
 10
-0.9590792360115143
 20
27.06380533457548
 30
0.0
 11
-1.75185733951957
 21
24.28911696735781
 31
0.0
  0
LINE
  5
27A
330
1F
100
AcDbEntity
  8
仕上
  6
Continuous
 62
     6
370
     9
100
AcDbLine
 10
22.89736855088672
 20
35.61026404653096
 30
0.0
 11
23.74802848467654
 21
40.28910365273878
 31
0.0
  0
LINE
  5
27B
330
1F
100
AcDbEntity
  8
仕上
  6
Continuous
 62
     6
370
     9
100
AcDbLine
 10
23.74802848467654
 20
40.28910365273878
 30
0.0
 11
22.74807962223987
 21
41.28912250529668
 31
0.0
  0
LINE
  5
27C
330
1F
100
AcDbEntity
  8
仕上
  6
Continuous
 62
     6
370
     9
100
AcDbLine
 10
-94.76570142085329
 20
104.7891998007841
 30
0.0
 11
-95.38759864330594
 21
97.78920781312121
 31
0.0
  0
LINE
  5
27D
330
1F
100
AcDbEntity
  8
仕上
  6
Continuous
 62
     6
370
     9
100
AcDbLine
 10
-95.38759864330594
 20
97.78920781312121
 30
0.0
 11
-97.02676728320696
 21
96.28917953428436
 31
0.0
  0
LINE
  5
27E
330
1F
100
AcDbEntity
  8
仕上
  6
Continuous
 62
     6
370
     9
100
AcDbLine
 10
14.24805935574011
 20
40.70974428150923
 30
0.0
 11
12.74803107690326
 21
34.78913994391274
 31
0.0
  0
LINE
  5
27F
330
1F
100
AcDbEntity
  8
仕上
  6
Continuous
 62
     6
370
     9
100
AcDbLine
 10
13.24811049330345
 20
41.7097631340672
 30
0.0
 11
14.24805935574011
 21
40.70974428150923
 31
0.0
  0
LINE
  5
280
330
1F
100
AcDbEntity
  8
仕上
  6
JWW_PHANTOM1
 62
     6
370
     9
100
AcDbLine
 10
-90.25193351563638
 20
104.7891998007841
 30
0.0
 11
-91.8241566045526
 21
74.78919414501672
 31
0.0
  0
LINE
  5
281
330
1F
100
AcDbEntity
  8
仕上
  6
JWW_PHANTOM1
 62
     6
370
     9
100
AcDbLine
 10
-93.00205535029194
 20
74.78919414501672
 30
0.0
 11
-91.8241566045526
 21
74.78919414501672
 31
0.0
  0
LINE
  5
282
330
1F
100
AcDbEntity
  8
仕上
  6
JWW_DASHED1
 62
     6
370
     9
100
AcDbLine
 10
-94.80559578997129
 20
64.78914559968013
 30
0.0
 11
-99.91410475059206
 21
63.78912674712223
 31
0.0
  0
LINE
  5
283
330
1F
100
AcDbEntity
  8
仕上
  6
JWW_DASHED1
 62
     6
370
     9
100
AcDbLine
 10
5.301782076088798
 20
64.78914559968011
 30
0.0
 11
10.41029103670958
 21
63.78912674712221
 31
0.0
  0
LINE
  5
284
330
1F
100
AcDbEntity
  8
仕上
  6
Continuous
 62
     6
370
     9
100
AcDbLine
 10
-95.35652302946662
 20
104.7891998007841
 30
0.0
 11
5.85267432052355
 21
104.7891998007841
 31
0.0
  0
LINE
  5
285
330
1F
100
AcDbEntity
  8
仕上
  6
Continuous
 62
     6
370
     9
100
AcDbLine
 10
6.848773726290935
 20
103.8776484614984
 30
0.0
 11
12.29099558507773
 21
42.62047459189779
 31
0.0
  0
LINE
  5
286
330
1F
100
AcDbEntity
  8
仕上
  6
Continuous
 62
     6
370
     9
100
AcDbLine
 10
22.74807962223987
 20
41.28912250529668
 30
0.0
 11
21.74806076968197
 21
41.33335626193276
 31
0.0
  0
LINE
  5
287
330
1F
100
AcDbEntity
  8
仕上
  6
Continuous
 62
     6
370
     9
100
AcDbLine
 10
15.74808763457697
 20
41.59903876223444
 30
0.0
 11
13.2427912440877
 21
41.70990311430972
 31
0.0
  0
LINE
  5
288
330
1F
100
AcDbEntity
  8
仕上
  6
Continuous
 62
     6
370
     9
100
AcDbLine
 10
1.748103659251249
 20
104.7891998007841
 30
0.0
 11
7.724140172885373
 21
37.52365398152739
 31
0.0
  0
LINE
  5
289
330
1F
100
AcDbEntity
  8
仕上
  6
Continuous
 62
     6
370
     9
100
AcDbLine
 10
-97.22791889170723
 20
37.52365398152741
 30
0.0
 11
-91.25191737313368
 21
104.7891998007841
 31
0.0
  0
LINE
  5
28A
330
1F
100
AcDbEntity
  8
仕上
  6
Continuous
 62
     6
370
     9
100
AcDbLine
 10
-112.4011997622995
 20
35.61026404653101
 30
0.0
 11
-113.2518596960893
 21
40.2891036527388
 31
0.0
  0
LINE
  5
28B
330
1F
100
AcDbEntity
  8
仕上
  6
Continuous
 62
     6
370
     9
100
AcDbLine
 10
-113.2518596960893
 20
40.2891036527388
 30
0.0
 11
-112.2519108336527
 21
41.28912250529672
 31
0.0
  0
LINE
  5
28C
330
1F
100
AcDbEntity
  8
仕上
  6
Continuous
 62
     6
370
     9
100
AcDbLine
 10
-103.7518905671529
 20
40.70974428150927
 30
0.0
 11
-102.251862288316
 21
34.78913994391277
 31
0.0
  0
LINE
  5
28D
330
1F
100
AcDbEntity
  8
仕上
  6
Continuous
 62
     6
370
     9
100
AcDbLine
 10
-102.7519417047163
 20
41.70976313406724
 30
0.0
 11
-103.7518905671529
 21
40.70974428150927
 31
0.0
  0
LINE
  5
28E
330
1F
100
AcDbEntity
  8
仕上
  6
Continuous
 62
     6
370
     9
100
AcDbLine
 10
-112.2519108336527
 20
41.28912250529672
 30
0.0
 11
-111.2518919810947
 21
41.33335626193278
 31
0.0
  0
LINE
  5
28F
330
1F
100
AcDbEntity
  8
仕上
  6
Continuous
 62
     6
370
     9
100
AcDbLine
 10
-105.2519188459898
 20
41.59903876223446
 30
0.0
 11
-102.7466224555005
 21
41.70990311430976
 31
0.0
  0
LINE
  5
290
330
1F
100
AcDbEntity
  8
仕上
  6
Continuous
 62
     6
370
     9
100
AcDbLine
 10
-96.35255244511274
 20
103.8776484614984
 30
0.0
 11
-101.7947918014299
 21
42.62047459189781
 31
0.0
  0
LINE
  5
291
330
1F
100
AcDbEntity
  8
仕上
  6
JWW_PHANTOM1
 62
     6
370
     9
100
AcDbLine
 10
0.7480848066933481
 20
104.7891998007841
 30
0.0
 11
2.320342890670143
 21
74.7891941450167
 31
0.0
  0
LINE
  5
292
330
1F
100
AcDbEntity
  8
仕上
  6
JWW_PHANTOM1
 62
     6
370
     9
100
AcDbLine
 10
3.498206641348825
 20
74.7891941450167
 30
0.0
 11
2.320342890670143
 21
74.7891941450167
 31
0.0
  0
LINE
  5
293
330
1F
100
AcDbEntity
  8
躯体
  6
JWW_PHANTOM1
 62
     4
370
     9
100
AcDbLine
 10
-91.07541978484716
 20
37.07995160780185
 30
0.0
 11
-84.42838797869672
 21
37.07995160780183
 31
0.0
  0
LINE
  5
294
330
1F
100
AcDbEntity
  8
躯体
  6
JWW_PHANTOM1
 62
     4
370
     9
100
AcDbLine
 10
-91.75190930188234
 20
36.40398701667609
 30
0.0
 11
-83.75193345672217
 21
36.40398701667607
 31
0.0
  0
LINE
  5
295
330
1F
100
AcDbEntity
  8
躯体
  6
JWW_PHANTOM1
 62
     4
370
     9
100
AcDbLine
 10
-83.75193345672217
 20
36.40398701667607
 30
0.0
 11
-84.42838797869672
 21
37.07995160780183
 31
0.0
  0
LINE
  5
296
330
1F
100
AcDbEntity
  8
躯体
  6
JWW_PHANTOM1
 62
     4
370
     9
100
AcDbLine
 10
-91.07541978484716
 20
37.07995160780185
 30
0.0
 11
-91.75190930188234
 21
36.40398701667609
 31
0.0
  0
LINE
  5
297
330
1F
100
AcDbEntity
  8
仕上
  6
Continuous
 62
     6
370
     9
100
AcDbLine
 10
-91.75190930188234
 20
34.78913994391277
 30
0.0
 11
-102.5085860530965
 21
34.78913994391277
 31
0.0
  0
LINE
  5
298
330
1F
100
AcDbEntity
  8
仕上
  6
Continuous
 62
     6
370
     9
100
AcDbLine
 10
13.00471984662301
 20
34.78913994391274
 30
0.0
 11
-83.75193345672217
 21
34.78913994391274
 31
0.0
  0
ARC
  5
299
330
1F
100
AcDbEntity
  8
躯体
  6
JWW_DASHED1
 62
     2
370
     9
100
AcDbCircle
 10
-112.0180388434635
 20
34.39166604527921
 30
0.0
 40
1.999999976066088
100
AcDbArc
 50
190.6148834228515
 51
255.0005035400391
  0
ARC
  5
29A
330
1F
100
AcDbEntity
  8
躯体
  6
JWW_DASHED1
 62
     2
370
     9
100
AcDbCircle
 10
22.51420763205074
 20
34.39166604527918
 30
0.0
 40
1.999999976066088
100
AcDbArc
 50
284.9994964599609
 51
349.3851165771484
  0
ARC
  5
29B
330
1F
100
AcDbEntity
  8
躯体
  6
Continuous
 62
     2
370
     9
100
AcDbCircle
 10
-76.98157905691221
 20
27.78907796612862
 30
0.0
 40
1.499999982049566
100
AcDbArc
 50
11.31021118164063
 51
90.00000000000001
  0
ARC
  5
29C
330
1F
100
AcDbEntity
  8
躯体
  6
Continuous
 62
     2
370
     9
100
AcDbCircle
 10
13.00471984662301
 20
33.28914666013651
 30
0.0
 40
1.499999982049566
100
AcDbArc
 50
90.0
 51
169.91162109375
  0
ARC
  5
29D
330
1F
100
AcDbEntity
  8
躯体
  6
Continuous
 62
     2
370
     9
100
AcDbCircle
 10
9.001844831540954
 20
30.77100708239612
 30
0.0
 40
1.999999976066088
100
AcDbArc
 50
284.9994964599609
 51
349.9115142822266
  0
ARC
  5
29E
330
1F
100
AcDbEntity
  8
躯体
  6
Continuous
 62
     2
370
     9
100
AcDbCircle
 10
23.37858562960749
 20
36.28916822274959
 30
0.0
 40
1.499999982049566
100
AcDbArc
 50
270.0
 51
349.3838348388672
  0
ARC
  5
29F
330
1F
100
AcDbEntity
  8
躯体
  6
Continuous
 62
     2
370
     9
100
AcDbCircle
 10
32.20657960432993
 20
38.02397836335199
 30
0.0
 40
2.999999964099133
100
AcDbArc
 50
188.7071380615235
 51
285.0002746582032
  0
ARC
  5
2A0
330
1F
100
AcDbEntity
  8
躯体
  6
Continuous
 62
     2
370
     9
100
AcDbCircle
 10
-121.7103408256214
 20
38.02397836335204
 30
0.0
 40
2.999999964099133
100
AcDbArc
 50
254.9997253417969
 51
351.2928619384766
  0
ARC
  5
2A1
330
1F
100
AcDbEntity
  8
躯体
  6
Continuous
 62
     2
370
     9
100
AcDbCircle
 10
0.0023750597323486
 20
26.78909410863133
 30
0.0
 40
0.999999988033044
100
AcDbArc
 50
90.0
 51
164.0540161132812
  0
ARC
  5
2A2
330
1F
100
AcDbEntity
  8
躯体
  6
Continuous
 62
     2
370
     9
100
AcDbCircle
 10
-102.5085860530965
 20
33.28914666013654
 30
0.0
 40
1.499999982049566
100
AcDbArc
 50
10.08837890625001
 51
90.00000000000001
  0
ARC
  5
2A3
330
1F
100
AcDbEntity
  8
躯体
  6
Continuous
 62
     2
370
     9
100
AcDbCircle
 10
-112.8824168410202
 20
36.28916822274962
 30
0.0
 40
1.499999982049566
100
AcDbArc
 50
190.6161651611328
 51
270.0
  0
ARC
  5
2A4
330
1F
100
AcDbEntity
  8
躯体
  6
Continuous
 62
     2
370
     9
100
AcDbCircle
 10
-98.59781803759208
 20
31.28914395008135
 30
0.0
 40
1.999999976066088
100
AcDbArc
 50
190.08837890625
 51
270.0
  0
ARC
  5
2A5
330
1F
100
AcDbEntity
  8
躯体
  6
Continuous
 62
     4
370
     9
100
AcDbCircle
 10
-93.34691417526855
 20
32.19912051163871
 30
0.0
 40
2.389999968664986
100
AcDbArc
 50
48.13610839843751
 51
131.8638916015625
  0
ARC
  5
2A6
330
1F
100
AcDbEntity
  8
躯体
  6
Continuous
 62
     4
370
     9
100
AcDbCircle
 10
-82.1568585932147
 20
32.19912051163868
 30
0.0
 40
2.389999968664986
100
AcDbArc
 50
48.13610839843751
 51
131.8638916015625
  0
ARC
  5
2A7
330
1F
100
AcDbEntity
  8
躯体
  6
Continuous
 62
     4
370
     9
100
AcDbCircle
 10
-87.75190388177191
 20
21.17077710475527
 30
0.0
 40
13.41822827460683
100
AcDbArc
 50
72.65640258789062
 51
107.3435974121094
  0
ARC
  5
2A8
330
1F
100
AcDbEntity
  8
通り芯
  6
Continuous
 62
     3
370
     9
100
AcDbCircle
 10
-112.3783829827689
 20
27.24130028208995
 30
0.0
 40
1.499999982049566
100
AcDbArc
 50
254.9999084472656
 51
318.4355773925781
  0
ARC
  5
2A9
330
1F
100
AcDbEntity
  8
通り芯
  6
Continuous
 62
     3
370
     9
100
AcDbCircle
 10
-117.3489414143869
 20
28.57321228966114
 30
0.0
 40
1.499999982049566
100
AcDbArc
 50
191.5648956298828
 51
254.9999084472656
  0
ARC
  5
2AA
330
1F
100
AcDbEntity
  8
通り芯
  6
Continuous
 62
     3
370
     9
100
AcDbCircle
 10
-123.4900146339513
 20
32.41860953190897
 30
0.0
 40
1.625007669898074
100
AcDbArc
 50
187.620590209961
 51
322.37890625
  0
ARC
  5
2AB
330
1F
100
AcDbEntity
  8
通り芯
  6
Continuous
 62
     3
370
     9
100
AcDbCircle
 10
-120.1608645261147
 20
29.84423289173643
 30
0.0
 40
0.999999988033044
100
AcDbArc
 50
11.56642150878907
 51
75.00077819824219
  0
ARC
  5
2AC
330
1F
100
AcDbEntity
  8
通り芯
  6
Continuous
 62
     3
370
     9
100
AcDbCircle
 10
-109.3076364026228
 20
26.93614335339785
 30
0.0
 40
0.999999988033044
100
AcDbArc
 50
75.00022888183594
 51
138.4349822998047
  0
ARC
  5
2AD
330
1F
100
AcDbEntity
  8
通り芯
  6
Continuous
 62
     3
370
     9
100
AcDbCircle
 10
-105.1373450174877
 20
27.50103362208452
 30
0.0
 40
1.625007669898074
100
AcDbArc
 50
187.620590209961
 51
322.37890625
  0
ARC
  5
2AE
330
1F
100
AcDbEntity
  8
通り芯
  6
Continuous
 62
     3
370
     9
100
AcDbCircle
 10
-129.2856166149781
 20
33.97155034241817
 30
0.0
 40
1.625007669898074
100
AcDbArc
 50
187.6179962158203
 51
322.3796997070312
  0
ARC
  5
2AF
330
1F
100
AcDbEntity
  8
通り芯
  6
Continuous
 62
     3
370
     9
100
AcDbCircle
 10
-124.4397805794448
 20
25.81448167009066
 30
0.0
 40
1.999999976066088
100
AcDbArc
 50
11.56620788574219
 51
75.00050354003906
  0
ARC
  5
2B0
330
1F
100
AcDbEntity
  8
通り芯
  6
JWW_DASHED1
 62
     3
370
     9
100
AcDbCircle
 10
18.11308882700127
 20
21.3066979202415
 30
0.0
 40
1.999999976066088
100
AcDbArc
 50
41.56492614746094
 51
105.0005187988281
  0
ARC
  5
2B1
330
1F
100
AcDbEntity
  8
通り芯
  6
JWW_DASHED1
 62
     3
370
     9
100
AcDbCircle
 10
21.52202767307392
 20
22.7377859296376
 30
0.0
 40
1.499999982049566
100
AcDbArc
 50
221.5634918212891
 51
284.9987182617188
  0
ARC
  5
2B2
330
1F
100
AcDbEntity
  8
通り芯
  6
Continuous
 62
     3
370
     9
100
AcDbCircle
 10
-120.7720882550752
 20
25.34925733407774
 30
0.0
 40
1.499999982049566
100
AcDbArc
 50
191.5646057128906
 51
254.9999084472656
  0
ARC
  5
2B3
330
1F
100
AcDbEntity
  8
通り芯
  6
Continuous
 62
     3
370
     9
100
AcDbCircle
 10
-83.1058546473743
 20
21.9328295450303
 30
0.0
 40
1.499999982049566
100
AcDbArc
 50
5.856887817382806
 51
89.99999999999999
  0
ARC
  5
2B4
330
1F
100
AcDbEntity
  8
通り芯
  6
Continuous
 62
     3
370
     9
100
AcDbCircle
 10
-98.03471251699756
 20
-4.5671801169056
 30
0.0
 40
1.499999982049566
100
AcDbArc
 50
7.00033569335938
 51
90.00000000000001
  0
ARC
  5
2B5
330
1F
100
AcDbEntity
  8
通り芯
  6
Continuous
 62
     3
370
     9
100
AcDbCircle
 10
15.03989259261118
 20
5.43279843830976
 30
0.0
 40
1.499999982049566
100
AcDbArc
 50
90.0
 51
171.4692993164062
  0
ARC
  5
2B6
330
1F
100
AcDbEntity
  8
通り芯
  6
JWW_DASHED1
 62
     3
370
     9
100
AcDbCircle
 10
12.27752248673522
 20
5.43279843830976
 30
0.0
 40
1.499999982049566
100
AcDbArc
 50
90.0
 51
172.9994812011718
  0
ARC
  5
2B7
330
1F
100
AcDbEntity
  8
通り芯
  6
JWW_DASHED1
 62
     3
370
     9
100
AcDbCircle
 10
15.52569402427446
 20
19.57815189549183
 30
0.0
 40
2.999999964099133
100
AcDbArc
 50
105.0002746582031
 51
172.9999237060547
  0
ARC
  5
2B8
330
1F
100
AcDbEntity
  8
通り芯
  6
Continuous
 62
     3
370
     9
100
AcDbCircle
 10
31.61593297101973
 20
22.33660255457727
 30
0.0
 40
1.499999982049566
100
AcDbArc
 50
105.0000915527343
 51
173.1259155273437
  0
ARC
  5
2B9
330
1F
100
AcDbEntity
  8
通り芯
  6
Continuous
 62
     3
370
     9
100
AcDbCircle
 10
-98.7835368243546
 20
22.04565362050093
 30
0.0
 40
2.999999964099133
100
AcDbArc
 50
27.53991699218751
 51
74.99990844726564
  0
ARC
  5
2BA
330
1F
100
AcDbEntity
  8
通り芯
  6
JWW_DASHED1
 62
     3
370
     9
100
AcDbCircle
 10
-98.7835368243546
 20
22.04565362050093
 30
0.0
 40
2.999999964099133
100
AcDbArc
 50
6.999725341796887
 51
27.53991699218751
  0
ARC
  5
2BB
330
1F
100
AcDbEntity
  8
通り芯
  6
JWW_DASHED1
 62
     3
370
     9
100
AcDbCircle
 10
-91.70848043164074
 20
13.65670767644019
 30
0.0
 40
2.999999964099133
100
AcDbArc
 50
187.0004272460937
 51
263.7596130371094
  0
ARC
  5
2BC
330
1F
100
AcDbEntity
  8
通り芯
  6
JWW_DASHED1
 62
     3
370
     9
100
AcDbCircle
 10
-86.11375009862914
 20
9.021051975049655
 30
0.0
 40
0.999999988033044
100
AcDbArc
 50
9.462677001953137
 51
83.75891113281253
  0
ARC
  5
2BD
330
1F
100
AcDbEntity
  8
通り芯
  6
Continuous
 62
     3
370
     9
100
AcDbCircle
 10
22.87465675653795
 20
27.24130028208992
 30
0.0
 40
1.499999982049566
100
AcDbArc
 50
221.5644226074219
 51
285.0000915527344
  0
ARC
  5
2BE
330
1F
100
AcDbEntity
  8
通り芯
  6
Continuous
 62
     3
370
     9
100
AcDbCircle
 10
27.84521518815597
 20
28.57321228966111
 30
0.0
 40
1.499999982049566
100
AcDbArc
 50
285.0000915527344
 51
348.4351043701172
  0
ARC
  5
2BF
330
1F
100
AcDbEntity
  8
通り芯
  6
Continuous
 62
     3
370
     9
100
AcDbCircle
 10
33.98628840772038
 20
32.41860953190894
 30
0.0
 40
1.625007669898074
100
AcDbArc
 50
217.62109375
 51
352.3794097900391
  0
ARC
  5
2C0
330
1F
100
AcDbEntity
  8
通り芯
  6
Continuous
 62
     3
370
     9
100
AcDbCircle
 10
30.65713829988373
 20
29.84423289173639
 30
0.0
 40
0.999999988033044
100
AcDbArc
 50
104.9992218017578
 51
168.4335784912109
  0
ARC
  5
2C1
330
1F
100
AcDbEntity
  8
通り芯
  6
Continuous
 62
     3
370
     9
100
AcDbCircle
 10
19.80391017639198
 20
26.93614335339782
 30
0.0
 40
0.999999988033044
100
AcDbArc
 50
41.56501770019532
 51
104.9997711181641
  0
ARC
  5
2C2
330
1F
100
AcDbEntity
  8
通り芯
  6
Continuous
 62
     3
370
     9
100
AcDbCircle
 10
15.6335488011356
 20
27.50103362208449
 30
0.0
 40
1.625007669898074
100
AcDbArc
 50
217.62109375
 51
352.3794097900391
  0
ARC
  5
2C3
330
1F
100
AcDbEntity
  8
通り芯
  6
Continuous
 62
     3
370
     9
100
AcDbCircle
 10
39.78189038874717
 20
33.97155034241814
 30
0.0
 40
1.625007669898074
100
AcDbArc
 50
217.6203002929688
 51
352.3820037841797
  0
ARC
  5
2C4
330
1F
100
AcDbEntity
  8
通り芯
  6
Continuous
 62
     3
370
     9
100
AcDbCircle
 10
34.93605435321386
 20
25.81448167009063
 30
0.0
 40
1.999999976066088
100
AcDbArc
 50
104.999496459961
 51
168.4337921142578
  0
ARC
  5
2C5
330
1F
100
AcDbEntity
  8
通り芯
  6
Continuous
 62
     3
370
     9
100
AcDbCircle
 10
-107.6168500482928
 20
21.30669792024153
 30
0.0
 40
1.999999976066088
100
AcDbArc
 50
74.99948120117186
 51
138.435073852539
  0
ARC
  5
2C6
330
1F
100
AcDbEntity
  8
通り芯
  6
Continuous
 62
     3
370
     9
100
AcDbCircle
 10
-111.0256839091836
 20
22.73778592963762
 30
0.0
 40
1.499999982049566
100
AcDbArc
 50
255.0012817382812
 51
318.4365081787109
  0
ARC
  5
2C7
330
1F
100
AcDbEntity
  8
通り芯
  6
Continuous
 62
     3
370
     9
100
AcDbCircle
 10
31.26822204860178
 20
25.34925733407772
 30
0.0
 40
1.499999982049566
100
AcDbArc
 50
285.0000915527344
 51
348.4353942871094
  0
ARC
  5
2C8
330
1F
100
AcDbEntity
  8
通り芯
  6
JWW_DASHED1
 62
     3
370
     9
100
AcDbCircle
 10
8.530881305584774
 20
-4.5671801169056
 30
0.0
 40
1.499999982049566
100
AcDbArc
 50
90.0
 51
172.9996643066406
  0
ARC
  5
2C9
330
1F
100
AcDbEntity
  8
通り芯
  6
Continuous
 62
     3
370
     9
100
AcDbCircle
 10
-105.0294202505053
 20
19.57815189549183
 30
0.0
 40
2.999999964099133
100
AcDbArc
 50
7.000076293945316
 51
74.99972534179689
  0
ARC
  5
2CA
330
1F
100
AcDbEntity
  8
通り芯
  6
Continuous
 62
     3
370
     9
100
AcDbCircle
 10
9.279775603063062
 20
22.0456536205009
 30
0.0
 40
2.999999964099133
100
AcDbArc
 50
105.0000915527343
 51
173.0002746582031
  0
ARC
  5
2CB
330
1F
100
AcDbEntity
  8
通り芯
  6
Continuous
 62
     3
370
     9
100
AcDbCircle
 10
2.204754205409816
 20
13.65670767644019
 30
0.0
 40
2.999999964099133
100
AcDbArc
 50
276.2403869628906
 51
352.9995727539062
  0
ARC
  5
2CC
330
1F
100
AcDbEntity
  8
通り芯
  6
Continuous
 62
     3
370
     9
100
AcDbCircle
 10
-3.389976127601757
 20
9.021051975049655
 30
0.0
 40
0.999999988033044
100
AcDbArc
 50
96.24108886718749
 51
170.5373229980469
  0
ARC
  5
2CD
330
1F
100
AcDbEntity
  8
通り芯
  6
Continuous
 62
     3
370
     9
100
AcDbCircle
 10
26.91805605182935
 20
8.432715015740992
 30
0.0
 40
1.499999982049566
100
AcDbArc
 50
270.0
 51
353.1253814697266
  0
ARC
  5
2CE
330
1F
100
AcDbEntity
  8
通り芯
  6
Continuous
 62
     3
370
     9
100
AcDbCircle
 10
28.24807832612651
 20
-6.067173400681842
 30
0.0
 40
1.999999976066088
100
AcDbArc
 50
180.0
 51
270.0
  0
ARC
  5
2CF
330
1F
100
AcDbEntity
  8
通り芯
  6
Continuous
 62
     3
370
     9
100
AcDbCircle
 10
28.24807832612651
 20
-6.067173400681842
 30
0.0
 40
7.999999904264352
100
AcDbArc
 50
180.0
 51
270.0
  0
ARC
  5
2D0
330
1F
100
AcDbEntity
  8
通り芯
  6
JWW_CENTER1
 62
     3
370
     9
100
AcDbCircle
 10
28.24807832612651
 20
-6.067173400681842
 30
0.0
 40
5.000000213564133
100
AcDbArc
 50
180.0
 51
270.0
  0
ARC
  5
2D1
330
1F
100
AcDbEntity
  8
通り芯
  6
Continuous
 62
     3
370
     9
100
AcDbCircle
 10
-132.7400840349301
 20
18.72098288042488
 30
0.0
 40
10.99999959496458
100
AcDbArc
 50
75.00012207031251
 51
123.1290283203125
  0
ARC
  5
2D2
330
1F
100
AcDbEntity
  8
通り芯
  6
Continuous
 62
     3
370
     9
100
AcDbCircle
 10
43.23625282351729
 20
18.72098288042483
 30
0.0
 40
10.99999959496458
100
AcDbArc
 50
56.87097167968751
 51
104.9998779296875
  0
ARC
  5
2D3
330
1F
100
AcDbEntity
  8
通り芯
  6
Continuous
 62
     3
370
     9
100
AcDbCircle
 10
53.36536315245674
 20
35.93277852529548
 30
0.0
 40
0.999999988033044
100
AcDbArc
 50
7.124267578125002
 51
90.00000000000001
  0
ARC
  5
2D4
330
1F
100
AcDbEntity
  8
通り芯
  6
Continuous
 62
     3
370
     9
100
AcDbCircle
 10
-142.8690893786876
 20
35.9327785252955
 30
0.0
 40
0.999999988033044
100
AcDbArc
 50
90.0
 51
172.875732421875
  0
ARC
  5
2D5
330
1F
100
AcDbEntity
  8
0-A
  6
Continuous
 62
     4
370
     9
100
AcDbCircle
 10
21.57410032329109
 20
43.6770454624335
 30
0.0
 40
1.999999976066088
100
AcDbArc
 50
5.000015258789066
 51
90.0
  0
ARC
  5
2D6
330
1F
100
AcDbEntity
  8
0-A
  6
Continuous
 62
     4
370
     9
100
AcDbCircle
 10
15.92197809084661
 20
43.6770454624335
 30
0.0
 40
1.999999976066088
100
AcDbArc
 50
90.0
 51
174.9999847412109
  0
ARC
  5
2D7
330
1F
100
AcDbEntity
  8
0-A
  6
Continuous
 62
     4
370
     9
100
AcDbCircle
 10
-111.0779665297645
 20
43.67704546243354
 30
0.0
 40
1.999999976066088
100
AcDbArc
 50
90.0
 51
174.9999847412109
  0
ARC
  5
2D8
330
1F
100
AcDbEntity
  8
0-A
  6
Continuous
 62
     4
370
     9
100
AcDbCircle
 10
-105.4257743071988
 20
43.67704546243354
 30
0.0
 40
1.999999976066088
100
AcDbArc
 50
5.000015258789066
 51
90.0
  0
ARC
  5
2D9
330
1F
100
AcDbEntity
  8
0-A
  6
JWW_PHANTOM1
 62
     4
370
     9
100
AcDbCircle
 10
-103.5714560345455
 20
95.54910399208478
 30
0.0
 40
1.999999976066088
100
AcDbArc
 50
174.8840026855469
 51
259.8839874267578
  0
ARC
  5
2DA
330
1F
100
AcDbEntity
  8
0-A
  6
JWW_PHANTOM1
 62
     4
370
     9
100
AcDbCircle
 10
-103.0674396738244
 20
101.1787943906656
 30
0.0
 40
1.999999976066088
100
AcDbArc
 50
89.88401794433595
 51
174.8840026855469
  0
ARC
  5
2DB
330
1F
100
AcDbEntity
  8
仕上
  6
Continuous
 62
     6
370
     9
100
AcDbCircle
 10
21.9135174163398
 20
35.78915879647064
 30
0.0
 40
0.999999988033044
100
AcDbArc
 50
270.0
 51
349.6943969726562
  0
ARC
  5
2DC
330
1F
100
AcDbEntity
  8
仕上
  6
Continuous
 62
     6
370
     9
100
AcDbCircle
 10
10.712298409945
 20
37.78919650158651
 30
0.0
 40
2.999999964099133
100
AcDbArc
 50
185.0773620605469
 51
270.0
  0
ARC
  5
2DD
330
1F
100
AcDbEntity
  8
仕上
  6
Continuous
 62
     6
370
     9
100
AcDbCircle
 10
13.28702500072382
 20
42.70894210516996
 30
0.0
 40
0.999999988033044
100
AcDbArc
 50
185.0764770507813
 51
267.4657440185547
  0
ARC
  5
2DE
330
1F
100
AcDbEntity
  8
仕上
  6
Continuous
 62
     6
370
     9
100
AcDbCircle
 10
5.85267432052355
 20
103.7891809482262
 30
0.0
 40
0.999999988033044
100
AcDbArc
 50
5.077758789062505
 51
90.00000000000001
  0
ARC
  5
2DF
330
1F
100
AcDbEntity
  8
仕上
  6
Continuous
 62
     6
370
     9
100
AcDbCircle
 10
-95.35652302946662
 20
103.7891809482262
 30
0.0
 40
0.999999988033044
100
AcDbArc
 50
90.0
 51
174.922119140625
  0
ARC
  5
2E0
330
1F
100
AcDbEntity
  8
仕上
  6
JWW_PHANTOM1
 62
     6
370
     9
100
AcDbCircle
 10
-93.00205535029194
 20
73.78917529245882
 30
0.0
 40
0.999999988033044
100
AcDbArc
 50
90.0
 51
174.9225616455078
  0
ARC
  5
2E1
330
1F
100
AcDbEntity
  8
仕上
  6
Continuous
 62
     6
370
     9
100
AcDbCircle
 10
-111.4173486277525
 20
35.78915879647067
 30
0.0
 40
0.999999988033044
100
AcDbArc
 50
190.3056030273438
 51
270.0
  0
ARC
  5
2E2
330
1F
100
AcDbEntity
  8
仕上
  6
Continuous
 62
     6
370
     9
100
AcDbCircle
 10
-100.2161296213578
 20
37.78919650158653
 30
0.0
 40
2.999999964099133
100
AcDbArc
 50
270.0
 51
354.9226379394531
  0
ARC
  5
2E3
330
1F
100
AcDbEntity
  8
仕上
  6
Continuous
 62
     6
370
     9
100
AcDbCircle
 10
-102.7908562121366
 20
42.70894210517
 30
0.0
 40
0.999999988033044
100
AcDbArc
 50
272.5342559814453
 51
354.9235229492188
  0
ARC
  5
2E4
330
1F
100
AcDbEntity
  8
仕上
  6
JWW_PHANTOM1
 62
     6
370
     9
100
AcDbCircle
 10
3.498206641348825
 20
73.7891752924588
 30
0.0
 40
0.999999988033044
100
AcDbArc
 50
5.077438354492194
 51
90.00000000000001
  0
LINE
  5
2E5
330
1F
100
AcDbEntity
  8
ハッチ
  6
Continuous
 62
     2
370
     9
100
AcDbLine
 10
-93.69131806445696
 20
70.78911873478508
 30
0.0
 11
-94.25200892586805
 21
70.57564886494316
 31
0.0
  0
LINE
  5
2E6
330
1F
100
AcDbEntity
  8
ハッチ
  6
Continuous
 62
     2
370
     9
100
AcDbLine
 10
4.187469355513893
 20
70.78911873478503
 30
0.0
 11
4.748230207046233
 21
70.57564886494315
 31
0.0
  0
LINE
  5
2E7
330
1F
100
AcDbEntity
  8
ハッチ
  6
Continuous
 62
     2
370
     9
100
AcDbLine
 10
-93.69131806445696
 20
70.78911873478508
 30
0.0
 11
4.187469355513893
 21
70.78911873478503
 31
0.0
  0
LINE
  5
2E8
330
1F
100
AcDbEntity
  8
ハッチ
  6
Continuous
 62
     2
370
     9
100
AcDbLine
 10
-80.35788500894753
 20
35.78929877671317
 30
0.0
 11
-93.69131806445696
 21
70.78911873478508
 31
0.0
  0
LINE
  5
2E9
330
1F
100
AcDbEntity
  8
ハッチ
  6
Continuous
 62
     2
370
     9
100
AcDbLine
 10
-80.91861086541921
 20
35.57568892662874
 30
0.0
 11
-94.25200892586805
 21
70.57564886494316
 31
0.0
  0
LINE
  5
2EA
330
1F
100
AcDbEntity
  8
ハッチ
  6
Continuous
 62
     2
370
     9
100
AcDbLine
 10
-80.35788500894753
 20
35.78929877671317
 30
0.0
 11
-80.91861086541921
 21
35.57568892662874
 31
0.0
  0
LINE
  5
2EB
330
1F
100
AcDbEntity
  8
ハッチ
  6
JWW_PHANTOM1
 62
     2
370
     9
100
AcDbLine
 10
-110.0013959820789
 20
28.57569693896587
 30
0.0
 11
-110.2689682156545
 21
29.11280112951246
 31
0.0
  0
LINE
  5
2EC
330
1F
100
AcDbEntity
  8
ハッチ
  6
JWW_PHANTOM1
 62
     2
370
     9
100
AcDbLine
 10
-85.85126964637512
 20
46.8383592594895
 30
0.0
 11
-85.29057878496405
 21
47.05196910957393
 31
0.0
  0
LINE
  5
2ED
330
1F
100
AcDbEntity
  8
ハッチ
  6
JWW_PHANTOM1
 62
     2
370
     9
100
AcDbLine
 10
-3.652544067507329
 20
46.83835925948948
 30
0.0
 11
-4.213234928918435
 21
47.05196910957391
 31
0.0
  0
LINE
  5
2EE
330
1F
100
AcDbEntity
  8
ハッチ
  6
Continuous
 62
     2
370
     9
100
AcDbLine
 10
-8.585255341054218
 20
35.57568892662874
 30
0.0
 11
4.748230207046233
 21
70.57564886494315
 31
0.0
  0
LINE
  5
2EF
330
1F
100
AcDbEntity
  8
ハッチ
  6
Continuous
 62
     2
370
     9
100
AcDbLine
 10
-9.145946202465264
 20
35.78929877671317
 30
0.0
 11
4.187469355513893
 21
70.78911873478503
 31
0.0
  0
LINE
  5
2F0
330
1F
100
AcDbEntity
  8
ハッチ
  6
Continuous
 62
     2
370
     9
100
AcDbLine
 10
-9.145946202465264
 20
35.78929877671317
 30
0.0
 11
-80.35788500894753
 21
35.78929877671317
 31
0.0
  0
LINE
  5
2F1
330
1F
100
AcDbEntity
  8
ハッチ
  6
Continuous
 62
     2
370
     9
100
AcDbLine
 10
-80.91861086541921
 20
35.57568892662874
 30
0.0
 11
-8.585255341054218
 21
35.57568892662874
 31
0.0
  0
LINE
  5
2F2
330
1F
100
AcDbEntity
  8
ハッチ
  6
JWW_PHANTOM1
 62
     2
370
     9
100
AcDbLine
 10
-5.271275592000614
 20
42.58939897805852
 30
0.0
 11
-3.652544067507329
 21
46.83835925948948
 31
0.0
  0
LINE
  5
2F3
330
1F
100
AcDbEntity
  8
ハッチ
  6
JWW_PHANTOM1
 62
     2
370
     9
100
AcDbLine
 10
-5.026940078683134
 20
41.96382727423974
 30
0.0
 11
20.76518949683264
 21
29.11280112951243
 31
0.0
  0
LINE
  5
2F4
330
1F
100
AcDbEntity
  8
ハッチ
  6
JWW_PHANTOM1
 62
     2
370
     9
100
AcDbLine
 10
-5.294512312258798
 20
41.42686306393568
 30
0.0
 11
20.49761726325698
 21
28.57569693896585
 31
0.0
  0
LINE
  5
2F5
330
1F
100
AcDbEntity
  8
ハッチ
  6
JWW_PHANTOM1
 62
     2
370
     9
100
AcDbLine
 10
20.49761726325698
 20
28.57569693896585
 30
0.0
 11
20.76518949683264
 21
29.11280112951243
 31
0.0
  0
LINE
  5
2F6
330
1F
100
AcDbEntity
  8
ハッチ
  6
Continuous
 62
     2
370
     9
100
AcDbLine
 10
-9.145946202465264
 20
35.78929877671317
 30
0.0
 11
-8.585255341054218
 21
35.57568892662874
 31
0.0
  0
LINE
  5
2F7
330
1F
100
AcDbEntity
  8
ハッチ
  6
JWW_PHANTOM1
 62
     2
370
     9
100
AcDbLine
 10
-84.23255561941221
 20
42.58939897805852
 30
0.0
 11
-85.85126964637512
 21
46.8383592594895
 31
0.0
  0
LINE
  5
2F8
330
1F
100
AcDbEntity
  8
ハッチ
  6
JWW_PHANTOM1
 62
     2
370
     9
100
AcDbLine
 10
-84.47680364507809
 20
41.96382727423978
 30
0.0
 11
-110.2689682156545
 21
29.11280112951246
 31
0.0
  0
LINE
  5
2F9
330
1F
100
AcDbEntity
  8
ハッチ
  6
JWW_PHANTOM1
 62
     2
370
     9
100
AcDbLine
 10
-84.20923141150242
 20
41.42686306393568
 30
0.0
 11
-110.0013959820789
 21
28.57569693896587
 31
0.0
  0
ARC
  5
2FA
330
1F
100
AcDbEntity
  8
ハッチ
  6
JWW_PHANTOM1
 62
     2
370
     9
100
AcDbCircle
 10
-84.69979217141133
 20
42.41134410957395
 30
0.0
 40
0.499999994016522
100
AcDbArc
 50
296.4856872558594
 51
20.85360717773437
  0
ARC
  5
2FB
330
1F
100
AcDbEntity
  8
ハッチ
  6
JWW_PHANTOM1
 62
     2
370
     9
100
AcDbCircle
 10
-84.69979217141133
 20
42.41134410957395
 30
0.0
 40
1.10000001417624
100
AcDbArc
 50
296.4856872558594
 51
20.85360717773437
  0
ARC
  5
2FC
330
1F
100
AcDbEntity
  8
ハッチ
  6
JWW_PHANTOM1
 62
     2
370
     9
100
AcDbCircle
 10
-4.803951552349867
 20
42.41134410957391
 30
0.0
 40
0.499999994016522
100
AcDbArc
 50
159.1463928222656
 51
243.5143127441406
  0
ARC
  5
2FD
330
1F
100
AcDbEntity
  8
ハッチ
  6
JWW_PHANTOM1
 62
     2
370
     9
100
AcDbCircle
 10
-4.803951552349867
 20
42.41134410957391
 30
0.0
 40
1.10000001417624
100
AcDbArc
 50
159.1463928222656
 51
243.5143127441406
  0
LINE
  5
2FE
330
1F
100
AcDbEntity
  8
その他
  6
Continuous
 62
     7
370
     9
100
AcDbLine
 10
-80.91861086541921
 20
116.8936761976703
 30
0.0
 11
-8.585255341054218
 21
116.8936761976703
 31
0.0
  0
LINE
  5
2FF
330
1F
100
AcDbEntity
  8
その他
  6
Continuous
 62
     7
370
     9
100
AcDbLine
 10
-80.91861086541921
 20
116.8936761976703
 30
0.0
 11
-75.96138655855016
 21
117.5463071587705
 31
0.0
  0
LINE
  5
300
330
1F
100
AcDbEntity
  8
その他
  6
Continuous
 62
     7
370
     9
100
AcDbLine
 10
-80.91861086541921
 20
116.8936761976703
 30
0.0
 11
-75.96138655855016
 21
116.24104523657
 31
0.0
  0
LINE
  5
301
330
1F
100
AcDbEntity
  8
その他
  6
Continuous
 62
     7
370
     9
100
AcDbLine
 10
-8.585255341054218
 20
116.8936761976703
 30
0.0
 11
-13.54247964792327
 21
117.5463071587705
 31
0.0
  0
LINE
  5
302
330
1F
100
AcDbEntity
  8
その他
  6
Continuous
 62
     7
370
     9
100
AcDbLine
 10
-8.585255341054218
 20
116.8936761976703
 30
0.0
 11
-13.54247964792327
 21
116.24104523657
 31
0.0
  0
LINE
  5
303
330
1F
100
AcDbEntity
  8
その他
  6
Continuous
 62
     7
370
     9
100
AcDbLine
 10
-80.91861086541921
 20
117.4936761976703
 30
0.0
 11
-80.91861086541921
 21
39.24926509489462
 31
0.0
  0
LINE
  5
304
330
1F
100
AcDbEntity
  8
その他
  6
Continuous
 62
     7
370
     9
100
AcDbLine
 10
-8.585255341054218
 20
117.4936761976703
 30
0.0
 11
-8.585255341054218
 21
39.24926509489462
 31
0.0
  0
LINE
  5
305
330
1F
100
AcDbEntity
  8
その他
  6
Continuous
 62
     7
370
     9
100
AcDbLine
 10
-91.25191737313368
 20
134.2980272854422
 30
0.0
 11
1.748103659251249
 21
134.2980272854422
 31
0.0
  0
LINE
  5
306
330
1F
100
AcDbEntity
  8
その他
  6
Continuous
 62
     7
370
     9
100
AcDbLine
 10
-91.25191737313368
 20
134.2980272854422
 30
0.0
 11
-86.29469306626463
 21
134.9506582465425
 31
0.0
  0
LINE
  5
307
330
1F
100
AcDbEntity
  8
その他
  6
Continuous
 62
     7
370
     9
100
AcDbLine
 10
-91.25191737313368
 20
134.2980272854422
 30
0.0
 11
-86.29469306626463
 21
133.645396324342
 31
0.0
  0
LINE
  5
308
330
1F
100
AcDbEntity
  8
その他
  6
Continuous
 62
     7
370
     9
100
AcDbLine
 10
1.748103659251249
 20
134.2980272854422
 30
0.0
 11
-3.209120647617802
 21
134.9506582465425
 31
0.0
  0
LINE
  5
309
330
1F
100
AcDbEntity
  8
その他
  6
Continuous
 62
     7
370
     9
100
AcDbLine
 10
1.748103659251249
 20
134.2980272854422
 30
0.0
 11
-3.209120647617802
 21
133.645396324342
 31
0.0
  0
LINE
  5
30A
330
1F
100
AcDbEntity
  8
その他
  6
Continuous
 62
     7
370
     9
100
AcDbLine
 10
-91.25191737313368
 20
134.8980272854423
 30
0.0
 11
-91.25191737313368
 21
107.3587924767401
 31
0.0
  0
LINE
  5
30B
330
1F
100
AcDbEntity
  8
その他
  6
Continuous
 62
     7
370
     9
100
AcDbLine
 10
1.748103659251249
 20
134.8980272854423
 30
0.0
 11
1.748103659251249
 21
107.3587924767401
 31
0.0
  0
LINE
  5
30C
330
1F
100
AcDbEntity
  8
その他
  6
Continuous
 62
     7
370
     9
100
AcDbLine
 10
-94.25200892586805
 20
151.8090121745217
 30
0.0
 11
4.748230207046233
 21
151.8090121745217
 31
0.0
  0
LINE
  5
30D
330
1F
100
AcDbEntity
  8
その他
  6
Continuous
 62
     7
370
     9
100
AcDbLine
 10
-94.25200892586805
 20
151.8090121745217
 30
0.0
 11
-89.294784618999
 21
152.4616431356219
 31
0.0
  0
LINE
  5
30E
330
1F
100
AcDbEntity
  8
その他
  6
Continuous
 62
     7
370
     9
100
AcDbLine
 10
-94.25200892586805
 20
151.8090121745217
 30
0.0
 11
-89.294784618999
 21
151.1563812134214
 31
0.0
  0
LINE
  5
30F
330
1F
100
AcDbEntity
  8
その他
  6
Continuous
 62
     7
370
     9
100
AcDbLine
 10
4.748230207046233
 20
151.8090121745217
 30
0.0
 11
-0.2089940998228155
 21
152.4616431356219
 31
0.0
  0
LINE
  5
310
330
1F
100
AcDbEntity
  8
その他
  6
Continuous
 62
     7
370
     9
100
AcDbLine
 10
4.748230207046233
 20
151.8090121745217
 30
0.0
 11
-0.2089940998228155
 21
151.1563812134214
 31
0.0
  0
LINE
  5
311
330
1F
100
AcDbEntity
  8
その他
  6
Continuous
 62
     7
370
     9
100
AcDbLine
 10
-94.25200892586805
 20
152.4090121745216
 30
0.0
 11
-94.25200892586805
 21
82.33896609157235
 31
0.0
  0
LINE
  5
312
330
1F
100
AcDbEntity
  8
その他
  6
Continuous
 62
     7
370
     9
100
AcDbLine
 10
4.748230207046233
 20
152.4090121745216
 30
0.0
 11
4.748230207046233
 21
82.33896609157235
 31
0.0
  0
LINE
  5
313
330
1F
100
AcDbEntity
  8
その他
  6
Continuous
 62
     7
370
     9
100
AcDbLine
 10
-134.7519056440551
 20
168.3576222533086
 30
0.0
 11
45.24811885912602
 21
168.3576222533086
 31
0.0
  0
LINE
  5
314
330
1F
100
AcDbEntity
  8
その他
  6
Continuous
 62
     7
370
     9
100
AcDbLine
 10
-134.7519056440551
 20
168.3576222533086
 30
0.0
 11
-129.794681337186
 21
169.0102532144089
 31
0.0
  0
LINE
  5
315
330
1F
100
AcDbEntity
  8
その他
  6
Continuous
 62
     7
370
     9
100
AcDbLine
 10
-134.7519056440551
 20
168.3576222533086
 30
0.0
 11
-129.794681337186
 21
167.7049912922084
 31
0.0
  0
LINE
  5
316
330
1F
100
AcDbEntity
  8
その他
  6
Continuous
 62
     7
370
     9
100
AcDbLine
 10
45.24811885912602
 20
168.3576222533086
 30
0.0
 11
40.29089455225697
 21
169.0102532144089
 31
0.0
  0
LINE
  5
317
330
1F
100
AcDbEntity
  8
その他
  6
Continuous
 62
     7
370
     9
100
AcDbLine
 10
45.24811885912602
 20
168.3576222533086
 30
0.0
 11
40.29089455225697
 21
167.7049912922084
 31
0.0
  0
LINE
  5
318
330
1F
100
AcDbEntity
  8
その他
  6
Continuous
 62
     7
370
     9
100
AcDbLine
 10
45.24811885912602
 20
168.9576222533086
 30
0.0
 11
45.24811885912602
 21
42.02381818017055
 31
0.0
  0
LINE
  5
319
330
1F
100
AcDbEntity
  8
その他
  6
Continuous
 62
     7
370
     9
100
AcDbLine
 10
-144.7518936306936
 20
184.8527166490274
 30
0.0
 11
55.24809741434142
 21
184.8527166490274
 31
0.0
  0
LINE
  5
31A
330
1F
100
AcDbEntity
  8
その他
  6
Continuous
 62
     7
370
     9
100
AcDbLine
 10
-144.7518936306936
 20
184.8527166490274
 30
0.0
 11
-139.7946693238245
 21
185.5053476101277
 31
0.0
  0
LINE
  5
31B
330
1F
100
AcDbEntity
  8
その他
  6
Continuous
 62
     7
370
     9
100
AcDbLine
 10
-144.7518936306936
 20
184.8527166490274
 30
0.0
 11
-139.7946693238245
 21
184.2000856879271
 31
0.0
  0
LINE
  5
31C
330
1F
100
AcDbEntity
  8
その他
  6
Continuous
 62
     7
370
     9
100
AcDbLine
 10
55.24809741434142
 20
184.8527166490274
 30
0.0
 11
50.29087310747236
 21
185.5053476101277
 31
0.0
  0
LINE
  5
31D
330
1F
100
AcDbEntity
  8
その他
  6
Continuous
 62
     7
370
     9
100
AcDbLine
 10
55.24809741434142
 20
184.8527166490274
 30
0.0
 11
50.29087310747236
 21
184.2000856879271
 31
0.0
  0
LINE
  5
31E
330
1F
100
AcDbEntity
  8
その他
  6
Continuous
 62
     7
370
     9
100
AcDbLine
 10
55.24809741434142
 20
185.4527166490274
 30
0.0
 11
55.24809741434142
 21
35.2005685889709
 31
0.0
  0
TEXT
  5
31F
330
1F
100
AcDbEntity
  8
その他
  6
Continuous
 62
     2
370
   211
100
AcDbText
 10
-57.87693310323672
 20
117.7856761976703
 30
0.0
 40
9.144
  1
φ72
 41
1.09375
  7
ＭＳ ゴシック
100
AcDbText
  0
TEXT
  5
320
330
1F
100
AcDbEntity
  8
その他
  6
Continuous
 62
     2
370
   211
100
AcDbText
 10
-57.87690685694122
 20
135.1900272854422
 30
0.0
 40
9.144
  1
φ93
 41
1.09375
  7
ＭＳ ゴシック
100
AcDbText
  0
TEXT
  5
321
330
1F
100
AcDbEntity
  8
その他
  6
Continuous
 62
     2
370
   211
100
AcDbText
 10
-57.8768893594109
 20
152.7010121745217
 30
0.0
 40
9.144
  1
φ98
 41
1.09375
  7
ＭＳ ゴシック
100
AcDbText
  0
TEXT
  5
322
330
1F
100
AcDbEntity
  8
その他
  6
Continuous
 62
     2
370
   211
100
AcDbText
 10
-61.25189339246455
 20
169.2496222533086
 30
0.0
 40
9.144
  1
φ180
 41
1.1
  7
ＭＳ ゴシック
100
AcDbText
  0
TEXT
  5
323
330
1F
100
AcDbEntity
  8
その他
  6
Continuous
 62
     2
370
   211
100
AcDbText
 10
-61.25189810817609
 20
185.7447166490274
 30
0.0
 40
9.144
  1
φ200
 41
1.1
  7
ＭＳ ゴシック
100
AcDbText
  0
LINE
  5
324
330
1F
100
AcDbEntity
  8
その他
  6
Continuous
 62
     7
370
     9
100
AcDbLine
 10
-87.1162885955524
 20
-63.47789134859414
 30
0.0
 11
-2.387437630678506
 21
-63.47789134859414
 31
0.0
  0
LINE
  5
325
330
1F
100
AcDbEntity
  8
その他
  6
Continuous
 62
     7
370
     9
100
AcDbLine
 10
-87.1162885955524
 20
-63.47789134859414
 30
0.0
 11
-82.15906428868335
 21
-62.82526038749387
 31
0.0
  0
LINE
  5
326
330
1F
100
AcDbEntity
  8
その他
  6
Continuous
 62
     7
370
     9
100
AcDbLine
 10
-87.1162885955524
 20
-63.47789134859414
 30
0.0
 11
-82.15906428868335
 21
-64.13052230969441
 31
0.0
  0
LINE
  5
327
330
1F
100
AcDbEntity
  8
その他
  6
Continuous
 62
     7
370
     9
100
AcDbLine
 10
-2.387437630678506
 20
-63.47789134859414
 30
0.0
 11
-7.344661937547557
 21
-62.82526038749387
 31
0.0
  0
LINE
  5
328
330
1F
100
AcDbEntity
  8
その他
  6
Continuous
 62
     7
370
     9
100
AcDbLine
 10
-2.387437630678506
 20
-63.47789134859414
 30
0.0
 11
-7.344661937547557
 21
-64.13052230969441
 31
0.0
  0
LINE
  5
329
330
1F
100
AcDbEntity
  8
その他
  6
Continuous
 62
     7
370
     9
100
AcDbLine
 10
-87.1162885955524
 20
-64.07789134859415
 30
0.0
 11
-87.1162885955524
 21
-26.01691320083139
 31
0.0
  0
LINE
  5
32A
330
1F
100
AcDbEntity
  8
その他
  6
Continuous
 62
     7
370
     9
100
AcDbLine
 10
-2.387437630678506
 20
-64.07789134859415
 30
0.0
 11
-2.387437630678506
 21
-26.01691320083139
 31
0.0
  0
LINE
  5
32B
330
1F
100
AcDbEntity
  8
その他
  6
Continuous
 62
     7
370
     9
100
AcDbLine
 10
-101.9108004274178
 20
-82.87732646082844
 30
0.0
 11
12.08931905066799
 21
-82.87732646082844
 31
0.0
  0
LINE
  5
32C
330
1F
100
AcDbEntity
  8
その他
  6
Continuous
 62
     7
370
     9
100
AcDbLine
 10
-101.9108004274178
 20
-82.87732646082844
 30
0.0
 11
-96.95357612054872
 21
-82.22469549972817
 31
0.0
  0
LINE
  5
32D
330
1F
100
AcDbEntity
  8
その他
  6
Continuous
 62
     7
370
     9
100
AcDbLine
 10
-101.9108004274178
 20
-82.87732646082844
 30
0.0
 11
-96.95357612054872
 21
-83.52995742192871
 31
0.0
  0
LINE
  5
32E
330
1F
100
AcDbEntity
  8
その他
  6
Continuous
 62
     7
370
     9
100
AcDbLine
 10
12.08931905066799
 20
-82.87732646082844
 30
0.0
 11
7.132094743798935
 21
-82.22469549972817
 31
0.0
  0
LINE
  5
32F
330
1F
100
AcDbEntity
  8
その他
  6
Continuous
 62
     7
370
     9
100
AcDbLine
 10
12.08931905066799
 20
-82.87732646082844
 30
0.0
 11
7.132094743798935
 21
-83.52995742192871
 31
0.0
  0
LINE
  5
330
330
1F
100
AcDbEntity
  8
その他
  6
Continuous
 62
     7
370
     9
100
AcDbLine
 10
-101.9108004274178
 20
-83.47732646082845
 30
0.0
 11
-101.9108004274178
 21
-47.20020441534007
 31
0.0
  0
LINE
  5
331
330
1F
100
AcDbEntity
  8
その他
  6
Continuous
 62
     7
370
     9
100
AcDbLine
 10
12.08931905066799
 20
-83.47732646082845
 30
0.0
 11
12.08931905066799
 21
-47.20020441534007
 31
0.0
  0
TEXT
  5
332
330
1F
100
AcDbEntity
  8
その他
  6
Continuous
 62
     2
370
   211
100
AcDbText
 10
-54.50186311311546
 20
-62.58589134859414
 30
0.0
 40
9.144
  1
Rc3
 41
1.083333333333333
  7
ＭＳ ゴシック
100
AcDbText
  0
TEXT
  5
333
330
1F
100
AcDbEntity
  8
その他
  6
Continuous
 62
     2
370
   211
100
AcDbText
 10
-61.4107406883749
 20
-81.98532646082845
 30
0.0
 40
9.144
  1
φ114
 41
1.1
  7
ＭＳ ゴシック
100
AcDbText
  0
LINE
  5
334
330
1F
100
AcDbEntity
  8
その他
  6
Continuous
 62
     7
370
     9
100
AcDbLine
 10
88.76522289938569
 20
-43.06724103423335
 30
0.0
 11
88.76522289938569
 21
36.93277851332851
 31
0.0
  0
LINE
  5
335
330
1F
100
AcDbEntity
  8
その他
  6
Continuous
 62
     7
370
     9
100
AcDbLine
 10
88.76522289938569
 20
-43.06724103423335
 30
0.0
 11
88.11259193828542
 21
-38.1100167273643
 31
0.0
  0
LINE
  5
336
330
1F
100
AcDbEntity
  8
その他
  6
Continuous
 62
     7
370
     9
100
AcDbLine
 10
88.76522289938569
 20
-43.06724103423335
 30
0.0
 11
89.41785386048595
 21
-38.1100167273643
 31
0.0
  0
LINE
  5
337
330
1F
100
AcDbEntity
  8
その他
  6
Continuous
 62
     7
370
     9
100
AcDbLine
 10
88.76522289938569
 20
36.93277851332851
 30
0.0
 11
88.11259193828542
 21
31.97555420645947
 31
0.0
  0
LINE
  5
338
330
1F
100
AcDbEntity
  8
その他
  6
Continuous
 62
     7
370
     9
100
AcDbLine
 10
88.76522289938569
 20
36.93277851332851
 30
0.0
 11
89.41785386048595
 21
31.97555420645947
 31
0.0
  0
LINE
  5
339
330
1F
100
AcDbEntity
  8
その他
  6
Continuous
 62
     7
370
     9
100
AcDbLine
 10
89.36522289938566
 20
36.93277851332851
 30
0.0
 11
56.82523790313662
 21
36.93277851332851
 31
0.0
  0
LINE
  5
33A
330
1F
100
AcDbEntity
  8
その他
  6
Continuous
 62
     7
370
     9
100
AcDbLine
 10
88.76522289938569
 20
36.93277851332851
 30
0.0
 11
88.76522289938569
 21
104.7891809362592
 31
0.0
  0
LINE
  5
33B
330
1F
100
AcDbEntity
  8
その他
  6
Continuous
 62
     7
370
     9
100
AcDbLine
 10
88.76522289938569
 20
36.93277851332851
 30
0.0
 11
88.11259193828542
 21
41.89000282019756
 31
0.0
  0
LINE
  5
33C
330
1F
100
AcDbEntity
  8
その他
  6
Continuous
 62
     7
370
     9
100
AcDbLine
 10
88.76522289938569
 20
36.93277851332851
 30
0.0
 11
89.41785386048595
 21
41.89000282019756
 31
0.0
  0
LINE
  5
33D
330
1F
100
AcDbEntity
  8
その他
  6
Continuous
 62
     7
370
     9
100
AcDbLine
 10
88.76522289938569
 20
104.7891809362592
 30
0.0
 11
88.11259193828542
 21
99.83195662939019
 31
0.0
  0
LINE
  5
33E
330
1F
100
AcDbEntity
  8
その他
  6
Continuous
 62
     7
370
     9
100
AcDbLine
 10
88.76522289938569
 20
104.7891809362592
 30
0.0
 11
89.41785386048595
 21
99.83195662939019
 31
0.0
  0
LINE
  5
33F
330
1F
100
AcDbEntity
  8
その他
  6
Continuous
 62
     7
370
     9
100
AcDbLine
 10
72.32861374709762
 20
-3.067116843008076
 30
0.0
 11
72.32861374709762
 21
36.93277851332851
 31
0.0
  0
LINE
  5
340
330
1F
100
AcDbEntity
  8
その他
  6
Continuous
 62
     7
370
     9
100
AcDbLine
 10
72.32861374709762
 20
-3.067116843008076
 30
0.0
 11
71.67598278599736
 21
1.890107463860975
 31
0.0
  0
LINE
  5
341
330
1F
100
AcDbEntity
  8
その他
  6
Continuous
 62
     7
370
     9
100
AcDbLine
 10
72.32861374709762
 20
-3.067116843008076
 30
0.0
 11
72.98124470819788
 21
1.890107463860975
 31
0.0
  0
LINE
  5
342
330
1F
100
AcDbEntity
  8
その他
  6
Continuous
 62
     7
370
     9
100
AcDbLine
 10
72.32861374709762
 20
36.93277851332851
 30
0.0
 11
71.67598278599736
 21
31.97555420645947
 31
0.0
  0
LINE
  5
343
330
1F
100
AcDbEntity
  8
その他
  6
Continuous
 62
     7
370
     9
100
AcDbLine
 10
72.32861374709762
 20
36.93277851332851
 30
0.0
 11
72.98124470819788
 21
31.97555420645947
 31
0.0
  0
TEXT
  5
344
330
1F
100
AcDbEntity
  8
その他
  6
Continuous
 62
     2
370
   211
100
AcDbText
 10
71.4366137470976
 20
10.55783083516022
 30
0.0
 40
9.144
  1
40
 50
90.0
 41
1.0625
  7
ＭＳ ゴシック
100
AcDbText
  0
LINE
  5
345
330
1F
100
AcDbEntity
  8
その他
  6
Continuous
 62
     7
370
     9
100
AcDbLine
 10
72.92861374709761
 20
-3.067116843008076
 30
0.0
 11
28.62697405145943
 21
-3.067116843008076
 31
0.0
  0
LINE
  5
346
330
1F
100
AcDbEntity
  8
その他
  6
Continuous
 62
     7
370
     9
100
AcDbLine
 10
89.36522289938566
 20
-43.06724103423335
 30
0.0
 11
18.6730570007682
 21
-43.06724103423335
 31
0.0
  0
LINE
  5
347
330
1F
100
AcDbEntity
  8
その他
  6
Continuous
 62
     7
370
     9
100
AcDbLine
 10
89.36522289938566
 20
104.7891809362592
 30
0.0
 11
13.38503856758846
 21
104.7891809362592
 31
0.0
  0
TEXT
  5
348
330
1F
100
AcDbEntity
  8
その他
  6
Continuous
 62
     2
370
   211
100
AcDbText
 10
87.8732228993857
 20
64.48597972479388
 30
0.0
 40
9.144
  1
68
 50
90.0
 41
1.0625
  7
ＭＳ ゴシック
100
AcDbText
  0
LINE
  5
349
330
1F
100
AcDbEntity
  8
その他
  6
Continuous
 62
     7
370
     9
100
AcDbLine
 10
-161.9200751532381
 20
34.7891749389734
 30
0.0
 11
-161.9200751532381
 21
104.7891998007841
 31
0.0
  0
LINE
  5
34A
330
1F
100
AcDbEntity
  8
その他
  6
Continuous
 62
     7
370
     9
100
AcDbLine
 10
-161.9200751532381
 20
34.7891749389734
 30
0.0
 11
-162.5727061143383
 21
39.74639924584245
 31
0.0
  0
LINE
  5
34B
330
1F
100
AcDbEntity
  8
その他
  6
Continuous
 62
     7
370
     9
100
AcDbLine
 10
-161.9200751532381
 20
34.7891749389734
 30
0.0
 11
-161.2674441921378
 21
39.74639924584245
 31
0.0
  0
LINE
  5
34C
330
1F
100
AcDbEntity
  8
その他
  6
Continuous
 62
     7
370
     9
100
AcDbLine
 10
-161.9200751532381
 20
104.7891998007841
 30
0.0
 11
-162.5727061143383
 21
99.83197549391505
 31
0.0
  0
LINE
  5
34D
330
1F
100
AcDbEntity
  8
その他
  6
Continuous
 62
     7
370
     9
100
AcDbLine
 10
-161.9200751532381
 20
104.7891998007841
 30
0.0
 11
-161.2674441921378
 21
99.83197549391505
 31
0.0
  0
LINE
  5
34E
330
1F
100
AcDbEntity
  8
その他
  6
Continuous
 62
     7
370
     9
100
AcDbLine
 10
-162.520075153238
 20
34.7891749389734
 30
0.0
 11
-116.6547265580247
 21
34.7891749389734
 31
0.0
  0
TEXT
  5
34F
330
1F
100
AcDbEntity
  8
その他
  6
Continuous
 62
     2
370
   211
100
AcDbText
 10
-162.812075153238
 20
63.41418736987875
 30
0.0
 40
9.144
  1
70
 50
90.0
 41
1.062499999999998
  7
ＭＳ ゴシック
100
AcDbText
  0
LINE
  5
350
330
1F
100
AcDbEntity
  8
その他
  6
Continuous
 62
     7
370
     9
100
AcDbLine
 10
-162.520075153238
 20
104.7891998007841
 30
0.0
 11
-102.0329766505018
 21
104.7891998007841
 31
0.0
  0
LINE
  5
351
330
1F
100
AcDbEntity
  8
寸法
  6
Continuous
 62
     7
370
     9
100
AcDbLine
 10
25.74806618979234
 20
40.82669777413417
 30
0.0
 11
58.94193022059052
 21
122.9843942508508
 31
0.0
  0
LINE
  5
352
330
1F
100
AcDbEntity
  8
寸法
  6
Continuous
 62
     7
370
     9
100
AcDbLine
 10
25.74806618979234
 20
40.82669777413417
 30
0.0
 11
26.99996621006462
 21
45.66743597602471
 31
0.0
  0
LINE
  5
353
330
1F
100
AcDbEntity
  8
寸法
  6
Continuous
 62
     7
370
     9
100
AcDbLine
 10
25.74806618979234
 20
40.82669777413417
 30
0.0
 11
28.21018399030972
 21
45.17847625383367
 31
0.0
  0
LINE
  5
354
330
1F
100
AcDbEntity
  8
寸法
  6
Continuous
 62
     7
370
     9
100
AcDbLine
 10
18.74803920706884
 20
45.67704817248869
 30
0.0
 11
19.99993922734111
 21
50.51778637437922
 31
0.0
  0
LINE
  5
355
330
1F
100
AcDbEntity
  8
寸法
  6
Continuous
 62
     7
370
     9
100
AcDbLine
 10
18.74803920706884
 20
45.67704817248869
 30
0.0
 11
21.21015700758621
 21
50.02882665218818
 31
0.0
  0
LINE
  5
356
330
1F
100
AcDbEntity
  8
寸法
  6
Continuous
 62
     7
370
     9
100
AcDbLine
 10
-4.751948892253929
 20
104.8267844959006
 30
0.0
 11
-3.500048871981657
 21
109.6675226977911
 31
0.0
  0
LINE
  5
357
330
1F
100
AcDbEntity
  8
寸法
  6
Continuous
 62
     7
370
     9
100
AcDbLine
 10
-4.751948892253929
 20
104.8267844959006
 30
0.0
 11
-2.289831091736553
 21
109.1785629756001
 31
0.0
  0
LINE
  5
358
330
1F
100
AcDbEntity
  8
寸法
  6
Continuous
 62
     7
370
     9
100
AcDbLine
 10
6.544727650380101
 20
50.06631762226324
 30
0.0
 11
58.3339040558816
 21
178.2490272927774
 31
0.0
  0
LINE
  5
359
330
1F
100
AcDbEntity
  8
寸法
  6
Continuous
 62
     7
370
     9
100
AcDbLine
 10
18.74803920706884
 20
45.67704817248869
 30
0.0
 11
60.6570026364226
 21
149.4053725967866
 31
0.0
  0
LINE
  5
35A
330
1F
100
AcDbEntity
  8
寸法
  6
Continuous
 62
     7
370
     9
100
AcDbLine
 10
0.7551994117020397
 20
60.09407468350845
 30
0.0
 11
6.544727650380101
 21
50.06631762226324
 31
0.0
  0
LINE
  5
35B
330
1F
100
AcDbEntity
  8
寸法
  6
Continuous
 62
     7
370
     9
100
AcDbLine
 10
-138.7518505054673
 20
27.93283767519594
 30
0.0
 11
-157.4181285767523
 21
-4.39808827773302
 31
0.0
  0
LINE
  5
35C
330
1F
100
AcDbEntity
  8
寸法
  6
Continuous
 62
     7
370
     9
100
AcDbLine
 10
-138.7518505054673
 20
27.93283767519594
 30
0.0
 11
-141.7956572516667
 21
23.96608039056756
 31
0.0
  0
LINE
  5
35D
330
1F
100
AcDbEntity
  8
寸法
  6
Continuous
 62
     7
370
     9
100
AcDbLine
 10
-138.7518505054673
 20
27.93283767519594
 30
0.0
 11
-140.6652779099225
 21
23.31343311438513
 31
0.0
  0
LINE
  5
35E
330
1F
100
AcDbEntity
  8
寸法
  6
Continuous
 62
     7
370
     9
100
AcDbLine
 10
58.3339040558816
 20
178.2490272927774
 30
0.0
 11
164.8189386056191
 21
178.2490272927774
 31
0.0
  0
LINE
  5
35F
330
1F
100
AcDbEntity
  8
寸法
  6
Continuous
 62
     7
370
     9
100
AcDbLine
 10
58.94193022059052
 20
122.9843942508508
 30
0.0
 11
178.6045785639959
 21
122.9843942508508
 31
0.0
  0
LINE
  5
360
330
1F
100
AcDbEntity
  8
寸法
  6
Continuous
 62
     7
370
     9
100
AcDbLine
 10
-157.4181285767523
 20
-4.39808827773302
 30
0.0
 11
-243.352534562212
 21
-4.39808827773302
 31
0.0
  0
LINE
  5
361
330
1F
100
AcDbEntity
  8
その他
  6
Continuous
 62
     7
370
     9
100
AcDbLine
 10
-108.7519535464792
 20
-153.4110044425977
 30
0.0
 11
19.24804810311952
 21
-153.4110044425977
 31
0.0
  0
LINE
  5
362
330
1F
100
AcDbEntity
  8
その他
  6
Continuous
 62
     7
370
     9
100
AcDbLine
 10
-108.7519535464792
 20
-153.4110044425977
 30
0.0
 11
-101.3161170861757
 21
-152.4320580009473
 31
0.0
  0
LINE
  5
363
330
1F
100
AcDbEntity
  8
その他
  6
Continuous
 62
     7
370
     9
100
AcDbLine
 10
-108.7519535464792
 20
-153.4110044425977
 30
0.0
 11
-101.3161170861757
 21
-154.3899508842481
 31
0.0
  0
LINE
  5
364
330
1F
100
AcDbEntity
  8
その他
  6
Continuous
 62
     7
370
     9
100
AcDbLine
 10
19.24804810311952
 20
-153.4110044425977
 30
0.0
 11
11.81221164281594
 21
-152.4320580009473
 31
0.0
  0
LINE
  5
365
330
1F
100
AcDbEntity
  8
その他
  6
Continuous
 62
     7
370
     9
100
AcDbLine
 10
19.24804810311952
 20
-153.4110044425977
 30
0.0
 11
11.81221164281594
 21
-154.3899508842481
 31
0.0
  0
LINE
  5
366
330
1F
100
AcDbEntity
  8
その他
  6
Continuous
 62
     7
370
     9
100
AcDbLine
 10
-108.7519535464792
 20
-154.3110044425977
 30
0.0
 11
-108.7519535464792
 21
-129.0672699022126
 31
0.0
  0
LINE
  5
367
330
1F
100
AcDbEntity
  8
その他
  6
Continuous
 62
     7
370
     9
100
AcDbLine
 10
19.24804810311952
 20
-154.3110044425977
 30
0.0
 11
19.24804810311952
 21
-129.0672699022126
 31
0.0
  0
LINE
  5
368
330
1F
100
AcDbEntity
  8
その他
  6
Continuous
 62
     7
370
     9
100
AcDbLine
 10
-244.7519321016946
 20
-185.9084029857818
 30
0.0
 11
155.2481008902817
 21
-185.9084029857818
 31
0.0
  0
LINE
  5
369
330
1F
100
AcDbEntity
  8
その他
  6
Continuous
 62
     7
370
     9
100
AcDbLine
 10
-244.7519321016946
 20
-185.9084029857818
 30
0.0
 11
-237.316095641391
 21
-184.9294565441314
 31
0.0
  0
LINE
  5
36A
330
1F
100
AcDbEntity
  8
その他
  6
Continuous
 62
     7
370
     9
100
AcDbLine
 10
-244.7519321016946
 20
-185.9084029857818
 30
0.0
 11
-237.316095641391
 21
-186.8873494274322
 31
0.0
  0
LINE
  5
36B
330
1F
100
AcDbEntity
  8
その他
  6
Continuous
 62
     7
370
     9
100
AcDbLine
 10
155.2481008902817
 20
-185.9084029857818
 30
0.0
 11
147.8122644299781
 21
-184.9294565441314
 31
0.0
  0
LINE
  5
36C
330
1F
100
AcDbEntity
  8
その他
  6
Continuous
 62
     7
370
     9
100
AcDbLine
 10
155.2481008902817
 20
-185.9084029857818
 30
0.0
 11
147.8122644299781
 21
-186.8873494274322
 31
0.0
  0
LINE
  5
36D
330
1F
100
AcDbEntity
  8
その他
  6
Continuous
 62
     7
370
     9
100
AcDbLine
 10
-244.7519321016946
 20
-186.8084029857818
 30
0.0
 11
-244.7519321016946
 21
-49.06724103423335
 31
0.0
  0
LINE
  5
36E
330
1F
100
AcDbEntity
  8
その他
  6
Continuous
 62
     7
370
     9
100
AcDbLine
 10
88.76522289938569
 20
-123.0672699022126
 30
0.0
 11
88.76522289938569
 21
-43.06724103423335
 31
0.0
  0
LINE
  5
36F
330
1F
100
AcDbEntity
  8
その他
  6
Continuous
 62
     7
370
     9
100
AcDbLine
 10
88.76522289938569
 20
-123.0672699022126
 30
0.0
 11
87.78627645773531
 21
-115.631433441909
 31
0.0
  0
LINE
  5
370
330
1F
100
AcDbEntity
  8
その他
  6
Continuous
 62
     7
370
     9
100
AcDbLine
 10
88.76522289938569
 20
-123.0672699022126
 30
0.0
 11
89.74416934103608
 21
-115.631433441909
 31
0.0
  0
LINE
  5
371
330
1F
100
AcDbEntity
  8
その他
  6
Continuous
 62
     7
370
     9
100
AcDbLine
 10
88.76522289938569
 20
-43.06724103423335
 30
0.0
 11
87.78627645773531
 21
-50.50307749453692
 31
0.0
  0
LINE
  5
372
330
1F
100
AcDbEntity
  8
その他
  6
Continuous
 62
     7
370
     9
100
AcDbLine
 10
88.76522289938569
 20
-43.06724103423335
 30
0.0
 11
89.74416934103608
 21
-50.50307749453692
 31
0.0
  0
LINE
  5
373
330
1F
100
AcDbEntity
  8
その他
  6
Continuous
 62
     7
370
     9
100
AcDbLine
 10
89.6652228993857
 20
-123.0672699022126
 30
0.0
 11
25.24804810311952
 21
-123.0672699022126
 31
0.0
  0
TEXT
  5
374
330
1F
100
AcDbEntity
  8
その他
  6
Continuous
 62
     2
370
   211
100
AcDbText
 10
85.2732228993857
 20
-89.44225546822298
 30
0.0
 40
9.144
  1
80
 50
90.0
 41
1.0625
  7
ＭＳ ゴシック
100
AcDbText
  0
TEXT
  5
375
330
1F
100
AcDbEntity
  8
寸法
  6
Continuous
 62
     7
370
     9
100
AcDbText
 10
85.68523286557547
 20
-140.9156930612021
 30
0.0
 40
6.858000000000001
  1
アンカー：ＳＷＲＭ
 41
1.148148148148148
  7
ＭＳ ゴシック
100
AcDbText
  0
LINE
  5
376
330
1F
100
AcDbEntity
  8
寸法
  6
Continuous
 62
     7
370
     9
100
AcDbLine
 10
179.1893951964808
 20
-143.3854987252646
 30
0.0
 11
82.40790450268142
 21
-143.3854987252646
 31
0.0
  0
LINE
  5
377
330
1F
100
AcDbEntity
  8
その他
  6
Continuous
 62
     7
370
     9
100
AcDbLine
 10
155.2481008902817
 20
-186.8084029857818
 30
0.0
 11
155.2481008902817
 21
-157.8544785023568
 31
0.0
  0
LINE
  5
378
330
1F
100
AcDbEntity
  8
その他
  6
Continuous
 62
     7
370
     9
100
AcDbLine
 10
155.2481008902817
 20
-121.6394123510264
 30
0.0
 11
155.2481008902817
 21
-49.06724103423335
 31
0.0
  0
LINE
  5
379
330
1F
100
AcDbEntity
  8
寸法
  6
Continuous
 62
     7
370
     9
100
AcDbLine
 10
-4.751948892253929
 20
104.8267844959006
 30
0.0
 11
42.20614155209864
 21
221.0521368162511
 31
0.0
  0
LINE
  5
37A
330
1F
100
AcDbEntity
  8
寸法
  6
Continuous
 62
     7
370
     9
100
AcDbLine
 10
42.20614155209864
 20
221.0521368162511
 30
0.0
 11
170.0443649467005
 21
221.0521368162511
 31
0.0
  0
LINE
  5
37B
330
1F
100
AcDbEntity
  8
寸法
  6
Continuous
 62
     7
370
     9
100
AcDbLine
 10
-151.9561119674257
 20
140.2500784890027
 30
0.0
 11
-276.3619567724874
 21
140.2500784890027
 31
0.0
  0
LINE
  5
37C
330
1F
100
AcDbEntity
  8
その他
  6
Continuous
 62
     7
370
     9
100
AcDbLine
 10
-144.7518936306936
 20
185.4527166490274
 30
0.0
 11
-144.7518936306936
 21
35.2005685889709
 31
0.0
  0
LINE
  5
37D
330
1F
100
AcDbEntity
  8
その他
  6
Continuous
 62
     7
370
     9
100
AcDbLine
 10
-134.7519056440551
 20
168.9576222533086
 30
0.0
 11
-134.7519056440551
 21
42.02381818017054
 31
0.0
  0
TEXT
  5
37E
330
1F
100
AcDbEntity
  8
その他
  6
Continuous
 62
     2
370
   211
100
AcDbText
 10
-61.25195272167986
 20
-149.9190044425977
 30
0.0
 40
9.144
  1
φ128
 41
1.1
  7
ＭＳ ゴシック
100
AcDbText
  0
TEXT
  5
37F
330
1F
100
AcDbEntity
  8
その他
  6
Continuous
 62
     2
370
   211
100
AcDbText
 10
-71.37691560570646
 20
-182.4164029857819
 30
0.0
 40
9.144
  1
400×184
 41
1.109375
  7
ＭＳ ゴシック
100
AcDbText
  0
LINE
  5
380
330
1F
100
AcDbEntity
  8
寸法
  6
Continuous
 62
     7
370
     9
100
AcDbLine
 10
-101.9108004274178
 20
-31.86203728035434
 30
0.0
 11
-104.9546071736171
 21
-35.82880693697381
 31
0.0
  0
LINE
  5
381
330
1F
100
AcDbEntity
  8
寸法
  6
Continuous
 62
     7
370
     9
100
AcDbLine
 10
-101.9108004274178
 20
-31.86203728035434
 30
0.0
 11
-103.824227831873
 21
-36.48142946917402
 31
0.0
  0
LINE
  5
382
330
1F
100
AcDbEntity
  8
寸法
  6
Continuous
 62
     7
370
     9
100
AcDbLine
 10
-129.5365646040701
 20
-159.0672773254073
 30
0.0
 11
-226.9757562676575
 21
-159.0672773254073
 31
0.0
  0
TEXT
  5
383
330
1F
100
AcDbEntity
  8
寸法
  6
Continuous
 62
     7
370
     9
100
AcDbText
 10
-225.0071943219227
 20
-154.0900575394592
 30
0.0
 40
6.858000000000001
  1
固定金具：ＳＧＨＣ
 41
1.148148148148148
  7
ＭＳ ゴシック
100
AcDbText
  0
LINE
  5
384
330
1F
100
AcDbEntity
  8
寸法
  6
Continuous
 62
     7
370
     9
100
AcDbLine
 10
-108.7519535464792
 20
-123.0672699022126
 30
0.0
 11
-129.5365646040701
 21
-159.0672773254073
 31
0.0
  0
LINE
  5
385
330
1F
100
AcDbEntity
  8
寸法
  6
Continuous
 62
     7
370
     9
100
AcDbLine
 10
-108.7519535464792
 20
-123.0672699022126
 30
0.0
 11
-111.6220946531621
 21
-129.9963767434288
 31
0.0
  0
LINE
  5
386
330
1F
100
AcDbEntity
  8
寸法
  6
Continuous
 62
     7
370
     9
100
AcDbLine
 10
-108.7519535464792
 20
-123.0672699022126
 30
0.0
 11
-113.3176636657783
 21
-129.0174058291551
 31
0.0
  0
LINE
  5
387
330
1F
100
AcDbEntity
  8
寸法
  6
Continuous
 62
     7
370
     9
100
AcDbLine
 10
-87.75190388177191
 20
48.55696668702024
 30
0.0
 11
-151.9561119674257
 21
140.2500784890027
 31
0.0
  0
LINE
  5
388
330
1F
100
AcDbEntity
  8
寸法
  6
Continuous
 62
     7
370
     9
100
AcDbLine
 10
-105.3114665290084
 20
98.54224395218554
 30
0.0
 11
-162.1750695727843
 21
179.751885295329
 31
0.0
  0
LINE
  5
389
330
1F
100
AcDbEntity
  8
寸法
  6
Continuous
 62
     7
370
     9
100
AcDbLine
 10
-87.75190388177191
 20
48.55696668702024
 30
0.0
 11
-92.81883043888936
 21
54.08654671309617
 31
0.0
  0
LINE
  5
38A
330
1F
100
AcDbEntity
  8
寸法
  6
Continuous
 62
     7
370
     9
100
AcDbLine
 10
-87.75190388177191
 20
48.55696668702024
 30
0.0
 11
-91.21501848103466
 21
55.2095479358569
 31
0.0
  0
LINE
  5
38B
330
1F
100
AcDbEntity
  8
寸法
  6
Continuous
 62
     7
370
     9
100
AcDbLine
 10
-105.3114665290084
 20
98.54224395218554
 30
0.0
 11
-110.3783930861258
 21
104.0718239782615
 31
0.0
  0
LINE
  5
38C
330
1F
100
AcDbEntity
  8
寸法
  6
Continuous
 62
     7
370
     9
100
AcDbLine
 10
-105.3114665290084
 20
98.54224395218554
 30
0.0
 11
-108.7745811282711
 21
105.1948252010222
 31
0.0
  0
TEXT
  5
38D
330
1F
100
AcDbEntity
  8
寸法
  6
Continuous
 62
     7
370
     9
100
AcDbText
 10
-272.3140588511056
 20
143.5095741867713
 30
0.0
 40
6.858000000000001
  1
注） ボルト：Ｃ３６０２
 41
1.152173913043478
  7
ＭＳ ゴシック
100
AcDbText
  0
TEXT
  5
38E
330
1F
100
AcDbEntity
  8
寸法
  6
Continuous
 62
     6
370
     9
100
AcDbText
 10
-274.4516841885944
 20
131.4771752597904
 30
0.0
 40
6.858000000000001
  1
アスファルト防水用　Ｍ８×３０
 41
0.8955555555555554
  7
ＭＳ ゴシック
100
AcDbText
  0
TEXT
  5
38F
330
1F
100
AcDbEntity
  8
寸法
  6
Continuous
 62
     6
370
     9
100
AcDbText
 10
-249.8317434824506
 20
122.2887978973687
 30
0.0
 40
6.858000000000001
  1
シート防水用　Ｍ８×２０
 41
0.8944444444444444
  7
ＭＳ ゴシック
100
AcDbText
  0
TEXT
  5
390
330
1F
100
AcDbEntity
  8
寸法
  6
Continuous
 62
     7
370
     9
100
AcDbText
 10
-240.7457752334228
 20
-0.8523670714970775
 30
0.0
 40
6.858000000000001
  1
本体：ＦＣ１５０
 41
1.145833333333333
  7
ＭＳ ゴシック
100
AcDbText
  0
TEXT
  5
391
330
1F
100
AcDbEntity
  8
寸法
  6
Continuous
 62
     7
370
     9
100
AcDbText
 10
-227.7634440690987
 20
-13.41332563341109
 30
0.0
 40
6.858000000000001
  1
樹脂系塗装
 41
1.133333333333333
  7
ＭＳ ゴシック
100
AcDbText
  0
TEXT
  5
392
330
1F
100
AcDbEntity
  8
寸法
  6
Continuous
 62
     7
370
     9
100
AcDbText
 10
99.65054749960188
 20
-152.6973702259408
 30
0.0
 40
6.858000000000001
  1
りん酸塩被膜
 41
1.138888888888889
  7
ＭＳ ゴシック
100
AcDbText
  0
TEXT
  5
393
330
1F
100
AcDbEntity
  8
寸法
  6
Continuous
 62
     7
370
     9
100
AcDbText
 10
75.51608340859832
 20
211.2120249109888
 30
0.0
 40
6.858000000000001
  1
樹脂系塗装
 41
1.133333333333333
  7
ＭＳ ゴシック
100
AcDbText
  0
TEXT
  5
394
330
1F
100
AcDbEntity
  8
寸法
  6
Continuous
 62
     7
370
     9
100
AcDbText
 10
42.78203674957362
 20
223.6826168645437
 30
0.0
 40
6.858000000000001
  1
ストレーナー：ＦＣ１５０
 41
1.152777777777777
  7
ＭＳ ゴシック
100
AcDbText
  0
TEXT
  5
395
330
1F
100
AcDbEntity
  8
寸法
  6
Continuous
 62
     7
370
     9
100
AcDbText
 10
61.31394343152426
 20
181.4094238016456
 30
0.0
 40
6.858000000000001
  1
ロート：ＳＵＳ３０４
 41
1.15
  7
ＭＳ ゴシック
100
AcDbText
  0
TEXT
  5
396
330
1F
100
AcDbEntity
  8
寸法
  6
Continuous
 62
     7
370
     9
100
AcDbText
 10
61.55945852970099
 20
126.0315408892492
 30
0.0
 40
6.858000000000001
  1
防水層押え：ＦＣ１５０
 41
1.151515151515151
  7
ＭＳ ゴシック
100
AcDbText
  0
TEXT
  5
397
330
1F
100
AcDbEntity
  8
寸法
  6
Continuous
 62
     7
370
     9
100
AcDbText
 10
91.15957686931912
 20
113.1769903463004
 30
0.0
 40
6.858000000000001
  1
樹脂系塗装
 41
1.133333333333333
  7
ＭＳ ゴシック
100
AcDbText
  0
LINE
  5
398
330
1F
100
AcDbEntity
  8
寸法
  6
Continuous
 62
     7
370
     9
100
AcDbLine
 10
-101.9108004274178
 20
-31.86203728035434
 30
0.0
 11
-132.3949675314113
 21
-84.6621322124488
 31
0.0
  0
TEXT
  5
399
330
1F
100
AcDbEntity
  8
寸法
  6
Continuous
 62
     7
370
     9
100
AcDbText
 10
-207.974134528076
 20
-80.83074822649456
 30
0.0
 40
6.858000000000001
  1
スペーサー
 41
1.133333333333333
  7
ＭＳ ゴシック
100
AcDbText
  0
LINE
  5
39A
330
1F
100
AcDbEntity
  8
寸法
  6
Continuous
 62
     7
370
     9
100
AcDbLine
 10
-132.3949675314113
 20
-84.6621322124488
 30
0.0
 11
-236.9759208306181
 21
-84.6621322124488
 31
0.0
  0
LINE
  5
39B
330
1F
100
AcDbEntity
  8
寸法
  6
Continuous
 62
     7
370
     9
100
AcDbLine
 10
140.248125634264
 20
322.5540110254897
 30
0.0
 11
155.3795656680477
 21
379.0254449227659
 31
0.0
  0
LINE
  5
39C
330
1F
100
AcDbEntity
  8
寸法
  6
Continuous
 62
     7
370
     9
100
AcDbLine
 10
140.248125634264
 20
322.5540110254897
 30
0.0
 11
143.1182296249733
 21
329.4831178667059
 31
0.0
  0
TEXT
  5
39D
330
1F
100
AcDbEntity
  8
寸法
  6
Continuous
 62
     7
370
     9
100
AcDbText
 10
158.3293972440084
 20
381.7986810925294
 30
0.0
 40
6.858000000000001
  1
４－φ4.2
 41
1.148148148148148
  7
ＭＳ ゴシック
100
AcDbText
  0
LINE
  5
39E
330
1F
100
AcDbEntity
  8
寸法
  6
Continuous
 62
     7
370
     9
100
AcDbLine
 10
155.3795656680477
 20
379.0254449227659
 30
0.0
 11
207.0996353471018
 21
379.0254449227659
 31
0.0
  0
LINE
  5
39F
330
1F
100
AcDbEntity
  8
寸法
  6
Continuous
 62
     7
370
     9
100
AcDbLine
 10
140.248125634264
 20
322.5540110254897
 30
0.0
 11
141.2270965485376
 21
329.9898251354981
 31
0.0
  0
LINE
  5
3A0
330
1F
100
AcDbEntity
  8
寸法
  6
Continuous
 62
     7
370
     9
100
AcDbLine
 10
0.7551994117020397
 20
60.09407468350845
 30
0.0
 11
3.799006556745636
 21
56.12730798205227
 31
0.0
  0
LINE
  5
3A1
330
1F
100
AcDbEntity
  8
寸法
  6
Continuous
 62
     7
370
     9
100
AcDbLine
 10
0.7551994117020397
 20
60.09407468350845
 30
0.0
 11
2.668616573527479
 21
55.47467702095202
 31
0.0
  0
LINE
  5
3A2
330
1F
100
AcDbEntity
  8
寸法
  6
Continuous
 62
     7
370
     9
100
AcDbLine
 10
34.24798147111022
 20
-11.06719767335019
 30
0.0
 11
82.40790450268142
 21
-143.3854987252646
 31
0.0
  0
LINE
  5
3A3
330
1F
100
AcDbEntity
  8
0-B
  6
Continuous
 62
     2
370
     9
100
AcDbLine
 10
-244.7519321016945
 20
337.5539862815074
 30
0.0
 11
-244.7519321016945
 21
245.5540291710766
 31
0.0
  0
LINE
  5
3A4
330
1F
100
AcDbEntity
  8
0-B
  6
Continuous
 62
     2
370
     9
100
AcDbLine
 10
155.2481008902818
 20
337.5539862815074
 30
0.0
 11
155.2481008902818
 21
245.5540291710766
 31
0.0
  0
LINE
  5
3A5
330
1F
100
AcDbEntity
  8
0-B
  6
Continuous
 62
     2
370
     9
100
AcDbLine
 10
110.2481008902818
 20
295.5539961791003
 30
0.0
 11
70.24806789830537
 21
295.5539961791003
 31
0.0
  0
LINE
  5
3A6
330
1F
100
AcDbEntity
  8
0-B
  6
Continuous
 62
     2
370
     9
100
AcDbLine
 10
70.24806789830537
 20
265.5540456670648
 30
0.0
 11
110.2481008902818
 21
265.5540456670648
 31
0.0
  0
LINE
  5
3A7
330
1F
100
AcDbEntity
  8
0-B
  6
Continuous
 62
     2
370
     9
100
AcDbLine
 10
-159.7518991097182
 20
295.5539961791003
 30
0.0
 11
-199.7519321016945
 21
295.5539961791003
 31
0.0
  0
LINE
  5
3A8
330
1F
100
AcDbEntity
  8
0-B
  6
Continuous
 62
     2
370
     9
100
AcDbLine
 10
-199.7519321016945
 20
265.5540456670648
 30
0.0
 11
-159.7518991097182
 21
265.5540456670648
 31
0.0
  0
LINE
  5
3A9
330
1F
100
AcDbEntity
  8
0-B
  6
Continuous
 62
     2
370
     9
100
AcDbLine
 10
136.1007125351298
 20
322.5540110254897
 30
0.0
 11
144.3597589350452
 21
322.5540110254897
 31
0.0
  0
LINE
  5
3AA
330
1F
100
AcDbEntity
  8
0-B
  6
Continuous
 62
     2
370
     9
100
AcDbLine
 10
140.248125634264
 20
326.288546036575
 30
0.0
 11
140.248125634264
 21
319.0011958201476
 31
0.0
  0
LINE
  5
3AB
330
1F
100
AcDbEntity
  8
0-B
  6
Continuous
 62
     2
370
     9
100
AcDbLine
 10
-244.7519321016945
 20
337.5539862815074
 30
0.0
 11
-83.94385962492088
 21
337.5539862815074
 31
0.0
  0
LINE
  5
3AC
330
1F
100
AcDbEntity
  8
0-B
  6
Continuous
 62
     2
370
     9
100
AcDbLine
 10
-5.559971586491806
 20
337.5539862815074
 30
0.0
 11
155.2481008902818
 21
337.5539862815074
 31
0.0
  0
LINE
  5
3AD
330
1F
100
AcDbEntity
  8
0-B
  6
Continuous
 62
     2
370
     9
100
AcDbLine
 10
-233.5276163552841
 20
322.5540110254897
 30
0.0
 11
-225.2276681526869
 21
322.5540110254897
 31
0.0
  0
LINE
  5
3AE
330
1F
100
AcDbEntity
  8
0-B
  6
Continuous
 62
     2
370
     9
100
AcDbLine
 10
-229.7519197297034
 20
326.288546036575
 30
0.0
 11
-229.7519197297034
 21
318.8329119967734
 31
0.0
  0
ARC
  5
3AF
330
1F
100
AcDbEntity
  8
0-B
  6
Continuous
 62
     2
370
     9
100
AcDbCircle
 10
110.2481008902818
 20
280.5540209230826
 30
0.0
 40
14.99999961337528
100
AcDbArc
 50
270.0
 51
90.0
  0
ARC
  5
3B0
330
1F
100
AcDbEntity
  8
0-B
  6
Continuous
 62
     2
370
     9
100
AcDbCircle
 10
70.24806789830537
 20
280.5540209230826
 30
0.0
 40
14.99997525601774
100
AcDbArc
 50
90.0
 51
270.0
  0
ARC
  5
3B1
330
1F
100
AcDbEntity
  8
0-B
  6
Continuous
 62
     2
370
     9
100
AcDbCircle
 10
-159.7518991097182
 20
280.5540209230826
 30
0.0
 40
14.99999961337528
100
AcDbArc
 50
270.0
 51
90.0
  0
ARC
  5
3B2
330
1F
100
AcDbEntity
  8
0-B
  6
Continuous
 62
     2
370
     9
100
AcDbCircle
 10
-199.7519321016945
 20
280.5540209230826
 30
0.0
 40
14.99997525601774
100
AcDbArc
 50
90.0
 51
270.0
  0
CIRCLE
  5
3B3
330
1F
100
AcDbEntity
  8
0-B
  6
Continuous
 62
     2
370
     9
100
AcDbCircle
 10
-229.7519197297034
 20
322.5540110254897
 30
0.0
 40
2.09999988207946
  0
CIRCLE
  5
3B4
330
1F
100
AcDbEntity
  8
0-B
  6
Continuous
 62
     2
370
     9
100
AcDbCircle
 10
140.248125634264
 20
322.5540110254897
 30
0.0
 40
2.09999988207946
  0
LINE
  5
3B5
330
1F
100
AcDbEntity
  8
0-B
  6
Continuous
 62
     2
370
     9
100
AcDbLine
 10
8.589231327359357
 20
-43.06724103423335
 30
0.0
 11
8.589231327359357
 21
-44.66723641535663
 31
0.0
  0
LINE
  5
3B6
330
1F
100
AcDbEntity
  8
0-B
  6
Continuous
 62
     2
370
     9
100
AcDbLine
 10
-98.41077527103579
 20
-43.06724103423335
 30
0.0
 11
-98.41077527103579
 21
-44.66723641535663
 31
0.0
  0
LINE
  5
3B7
330
1F
100
AcDbEntity
  8
0-B
  6
Continuous
 62
     2
370
     9
100
AcDbLine
 10
-104.5107854985484
 20
-43.06724103423335
 30
0.0
 11
-104.5107854985484
 21
-44.66723641535663
 31
0.0
  0
LINE
  5
3B8
330
1F
100
AcDbEntity
  8
0-B
  6
Continuous
 62
     2
370
     9
100
AcDbLine
 10
-98.41077527103579
 20
-43.06724103423335
 30
0.0
 11
-102.9108272333986
 21
-43.06724103423335
 31
0.0
  0
LINE
  5
3B9
330
1F
100
AcDbEntity
  8
0-B
  6
Continuous
 62
     2
370
     9
100
AcDbLine
 10
-102.9108272333986
 20
-41.46720853713663
 30
0.0
 11
-102.9108272333986
 21
-43.06724103423335
 31
0.0
  0
LINE
  5
3BA
330
1F
100
AcDbEntity
  8
0-B
  6
Continuous
 62
     2
370
     9
100
AcDbLine
 10
14.68924155487201
 20
-43.06724103423335
 30
0.0
 11
14.68924155487201
 21
-44.66723641535663
 31
0.0
  0
LINE
  5
3BB
330
1F
100
AcDbEntity
  8
0-B
  6
Continuous
 62
     2
370
     9
100
AcDbLine
 10
8.589231327359357
 20
-43.06724103423335
 30
0.0
 11
13.08924617374873
 21
-43.06724103423335
 31
0.0
  0
LINE
  5
3BC
330
1F
100
AcDbEntity
  8
0-B
  6
Continuous
 62
     2
370
     9
100
AcDbLine
 10
13.08924617374873
 20
-41.46720853713663
 30
0.0
 11
13.08924617374873
 21
-43.06724103423335
 31
0.0
  0
LINE
  5
3BD
330
1F
100
AcDbEntity
  8
0-B
  6
Continuous
 62
     2
370
     9
100
AcDbLine
 10
14.68924155487201
 20
-43.06724103423335
 30
0.0
 11
155.2481008902817
 21
-43.06724103423335
 31
0.0
  0
LINE
  5
3BE
330
1F
100
AcDbEntity
  8
0-B
  6
Continuous
 62
     2
370
     9
100
AcDbLine
 10
-102.9108272333986
 20
-41.46720853713663
 30
0.0
 11
-244.7519321016946
 21
-41.46720853713663
 31
0.0
  0
LINE
  5
3BF
330
1F
100
AcDbEntity
  8
0-B
  6
Continuous
 62
     2
370
     9
100
AcDbLine
 10
-104.5107854985484
 20
-43.06724103423335
 30
0.0
 11
-244.7519321016946
 21
-43.06724103423335
 31
0.0
  0
LINE
  5
3C0
330
1F
100
AcDbEntity
  8
0-B
  6
Continuous
 62
     2
370
     9
100
AcDbLine
 10
-244.7519321016946
 20
-41.46720853713663
 30
0.0
 11
-244.7519321016946
 21
-43.06724103423335
 31
0.0
  0
LINE
  5
3C1
330
1F
100
AcDbEntity
  8
0-B
  6
Continuous
 62
     2
370
     9
100
AcDbLine
 10
155.2481008902817
 20
-41.46720853713663
 30
0.0
 11
155.2481008902817
 21
-43.06724103423335
 31
0.0
  0
LINE
  5
3C2
330
1F
100
AcDbEntity
  8
0-B
  6
Continuous
 62
     2
370
     9
100
AcDbLine
 10
19.24804810311952
 20
-43.06724103423335
 30
0.0
 11
19.24804810311952
 21
-123.0672699022126
 31
0.0
  0
LINE
  5
3C3
330
1F
100
AcDbEntity
  8
0-B
  6
Continuous
 62
     2
370
     9
100
AcDbLine
 10
17.64805272199624
 20
-43.06724103423335
 30
0.0
 11
17.64805272199624
 21
-123.0672699022126
 31
0.0
  0
LINE
  5
3C4
330
1F
100
AcDbEntity
  8
0-B
  6
Continuous
 62
     2
370
     9
100
AcDbLine
 10
-107.1519210493825
 20
-43.06724103423335
 30
0.0
 11
-107.1519210493825
 21
-123.0672699022126
 31
0.0
  0
LINE
  5
3C5
330
1F
100
AcDbEntity
  8
0-B
  6
Continuous
 62
     2
370
     9
100
AcDbLine
 10
-108.7519535464792
 20
-43.06724103423335
 30
0.0
 11
-108.7519535464792
 21
-123.0672699022126
 31
0.0
  0
LINE
  5
3C6
330
1F
100
AcDbEntity
  8
0-B
  6
Continuous
 62
     2
370
     9
100
AcDbLine
 10
-108.7519535464792
 20
-123.0672699022126
 30
0.0
 11
19.24804810311952
 21
-123.0672699022126
 31
0.0
  0
LINE
  5
3C7
330
1F
100
AcDbEntity
  8
0-B
  6
Continuous
 62
     2
370
     9
100
AcDbLine
 10
14.68924155487201
 20
-44.66723641535663
 30
0.0
 11
-104.5107854985484
 21
-44.66723641535663
 31
0.0
  0
LINE
  5
3C8
330
1F
100
AcDbEntity
  8
0-B
  6
Continuous
 62
     2
370
     9
100
AcDbLine
 10
13.08924617374873
 20
-41.46720853713663
 30
0.0
 11
155.2481008902817
 21
-41.46720853713663
 31
0.0
  0
TEXT
  5
3C9
330
1F
100
AcDbEntity
  8
F-5ﾚｲﾔ
  6
Continuous
 62
     6
370
     9
100
AcDbText
 10
37.57871376842445
 20
-262.1467092650196
 30
0.0
 40
9.144
  1
防水用の防水層厚さ＝３ｍｍ以下
 41
0.7966666666666662
  7
ＭＳ ゴシック
100
AcDbText
  0
TEXT
  5
3CA
330
1F
100
AcDbEntity
  8
F-5ﾚｲﾔ
  6
Continuous
 62
     6
370
     9
100
AcDbText
 10
-9.130355284673707
 20
-262.1467092650196
 30
0.0
 40
9.144
  1
シート・・
 41
0.7900000000000001
  7
ＭＳ ゴシック
100
AcDbText
  0
TEXT
  5
3CB
330
1F
100
AcDbEntity
  8
F-5ﾚｲﾔ
  6
Continuous
 62
     6
370
     9
100
AcDbText
 10
-34.42128969573311
 20
-276.3785176294074
 30
0.0
 40
9.144
  1
　上記以外の場合は、防水層の厚さを御指示下さい。
 41
0.7979166666666667
  7
ＭＳ ゴシック
100
AcDbText
  0
TEXT
  5
3CC
330
1F
100
AcDbEntity
  8
F-5ﾚｲﾔ
  6
Continuous
 62
     6
370
     9
100
AcDbText
 10
-36.02129893348653
 20
-231.7273548387097
 30
0.0
 40
9.144
  1
注）ボルト長さの適用防水層の厚さは、次の通りです。
 41
0.7979999999999999
  7
ＭＳ ゴシック
100
AcDbText
  0
TEXT
  5
3CD
330
1F
100
AcDbEntity
  8
F-5ﾚｲﾔ
  6
Continuous
 62
     6
370
     9
100
AcDbText
 10
-37.62128342725757
 20
-248.122703675919
 30
0.0
 40
9.144
  1
　　　アスファルト防水用の防水層厚さ＝１０～１２ｍｍ
 41
0.7980769230769231
  7
ＭＳ ゴシック
100
AcDbText
  0
LINE
  5
3CE
330
1F
100
AcDbEntity
  8
通り芯
  6
Continuous
 62
     3
370
     9
100
AcDbLine
 10
-5.251853333351051
 20
10.02103583254694
 30
0.0
 11
-79.75192803661179
 21
10.02103583254694
 31
0.0
  0
TEXT
  5
3CF
330
1F
100
AcDbEntity
  8
F-4ﾚｲﾔ
  6
Continuous
 62
     6
370
     9
100
AcDbText
 10
-39.79716348110399
 20
-332.3976331803606
 30
0.0
 40
9.144
  1
鋳鉄製ルーフドレン　たて引き用　デッキプレート打込型　ねじ込み式
 41
0.6992187500000003
  7
ＭＳ ゴシック
100
AcDbText
  0
TEXT
  5
3D0
330
1F
100
AcDbEntity
  8
F-5ﾚｲﾔ
  6
Continuous
 62
     2
370
     9
100
AcDbText
 10
-284.742643560071
 20
-279.5595519498389
 30
0.0
 40
9.144
  1
※ご注文の際はＣ寸法をご指示ください。
 41
1.118421052631579
  7
ＭＳ ゴシック
100
AcDbText
  0
TEXT
  5
3D1
330
1F
100
AcDbEntity
  8
F-4ﾚｲﾔ
  6
Continuous
 62
     6
370
     9
100
AcDbText
 10
-15.40130703133272
 20
-347.6877099370448
 30
0.0
 40
9.144
  1
アスファルト・シート防水用　　ＥＤＳＪ－２－７５　Ｃ＝指示
 41
0.6991379310344827
  7
ＭＳ ゴシック
100
AcDbText
  0
TEXT
  5
3D2
330
1F
100
AcDbEntity
  8
寸法
  6
Continuous
 62
     7
370
     9
100
AcDbText
 10
62.58213922341119
 20
152.0295546229315
 30
0.0
 40
6.858000000000001
  1
丸小ねじ：Ｃ２７００Ｗ
 41
1.151515151515151
  7
ＭＳ ゴシック
100
AcDbText
  0
TEXT
  5
3D3
330
1F
100
AcDbEntity
  8
寸法
  6
Continuous
 62
     7
370
     9
100
AcDbText
 10
-277.1169432023609
 20
182.2320216426916
 30
0.0
 40
6.858000000000001
  1
丸小ねじ：Ｃ２７００Ｗ
 41
1.151515151515151
  7
ＭＳ ゴシック
100
AcDbText
  0
LINE
  5
3D4
330
1F
100
AcDbEntity
  8
寸法
  6
Continuous
 62
     7
370
     9
100
AcDbLine
 10
60.6570026364226
 20
149.4053725967866
 30
0.0
 11
178.0419085938325
 21
149.4053725967866
 31
0.0
  0
LINE
  5
3D5
330
1F
100
AcDbEntity
  8
寸法
  6
Continuous
 62
     7
370
     9
100
AcDbLine
 10
-278.5732862237368
 20
179.751885295329
 30
0.0
 11
-162.1750695727843
 21
179.751885295329
 31
0.0
  0
TEXT
  5
3D6
330
1F
100
AcDbEntity
  8
寸法
  6
Continuous
 62
     7
370
     9
100
AcDbText
 10
-245.8741778982605
 20
170.8559353844551
 30
0.0
 40
6.858000000000001
  1
Ｍ６×１２
 41
1.133333333333333
  7
ＭＳ ゴシック
100
AcDbText
  0
TEXT
  5
3D7
330
1F
100
AcDbEntity
  8
寸法
  6
Continuous
 62
     7
370
     9
100
AcDbText
 10
93.84945561512758
 20
140.7429184026237
 30
0.0
 40
6.858000000000001
  1
Ｍ６×１２
 41
1.133333333333333
  7
ＭＳ ゴシック
100
AcDbText
  0
TEXT
  5
3D8
330
1F
100
AcDbEntity
  8
その他
  6
Continuous
 62
     2
370
   211
100
AcDbText
 10
87.8732228993857
 20
-9.067231260452417
 30
0.0
 40
9.144
  1
Ｃ
 50
90.0
  7
ＭＳ ゴシック
100
AcDbText
  0
TEXT
  5
3D9
330
1F
100
AcDbEntity
  8
寸法
  6
Continuous
 62
     7
370
     9
100
AcDbText
 10
-230.4644177472861
 20
-94.45619480213011
 30
0.0
 40
6.858000000000001
  1
硬質ポリ塩化ビニル
 41
1.148148148148148
  7
ＭＳ ゴシック
100
AcDbText
  0
ENDSEC
  0
SECTION
  2
OBJECTS
  0
DICTIONARY
  5
C
330
0
100
AcDbDictionary
281
     1
  3
ACAD_DETAILVIEWSTYLE
350
41F
  3
ACAD_GROUP
350
D
  3
ACAD_LAYOUT
350
1A
  3
ACAD_MATERIAL
350
43
  3
ACAD_MLEADERSTYLE
350
6B
  3
ACAD_MLINESTYLE
350
17
  3
ACAD_PLOTSETTINGS
350
19
  3
ACAD_PLOTSTYLENAME
350
E
  3
ACAD_SCALELIST
350
47
  3
ACAD_SECTIONVIEWSTYLE
350
420
  3
ACAD_TABLESTYLE
350
69
  3
ACAD_VISUALSTYLE
350
2A
  3
ACDB_RECOMPOSE_DATA
350
41C
  3
AcDbVariableDictionary
350
3DC
  0
DICTIONARY
  5
3DA
330
8
100
AcDbDictionary
280
     1
281
     1
  3
ACAD_XREC_ROUNDTRIP
360
3DB
  0
DICTIONARY
  5
41F
102
{ACAD_REACTORS
330
C
102
}
330
C
100
AcDbDictionary
281
     1
  0
DICTIONARY
  5
D
102
{ACAD_REACTORS
330
C
102
}
330
C
100
AcDbDictionary
281
     1
  0
DICTIONARY
  5
1A
102
{ACAD_REACTORS
330
C
102
}
330
C
100
AcDbDictionary
281
     1
  3
Layout1
350
1E
  3
Layout2
350
26
  3
Model
350
22
  0
DICTIONARY
  5
43
102
{ACAD_REACTORS
330
C
102
}
330
C
100
AcDbDictionary
281
     1
  3
ByBlock
350
45
  3
ByLayer
350
44
  3
Global
350
46
  0
DICTIONARY
  5
6B
102
{ACAD_REACTORS
330
C
102
}
330
C
100
AcDbDictionary
281
     1
  3
Standard
350
6C
  0
DICTIONARY
  5
17
102
{ACAD_REACTORS
330
C
102
}
330
C
100
AcDbDictionary
281
     1
  3
Standard
350
18
  0
DICTIONARY
  5
19
102
{ACAD_REACTORS
330
C
102
}
330
C
100
AcDbDictionary
281
     1
  0
ACDBDICTIONARYWDFLT
  5
E
102
{ACAD_REACTORS
330
C
102
}
330
C
100
AcDbDictionary
281
     1
  3
Normal
350
F
100
AcDbDictionaryWithDefault
340
F
  0
DICTIONARY
  5
47
102
{ACAD_REACTORS
330
C
102
}
330
C
100
AcDbDictionary
281
     1
  3
A0
350
48
  3
A1
350
49
  3
A2
350
4A
  3
A3
350
4B
  3
A4
350
4C
  3
A5
350
4D
  3
A6
350
4E
  3
A7
350
4F
  3
A8
350
50
  3
A9
350
51
  3
B0
350
52
  3
B1
350
53
  3
B2
350
54
  3
B3
350
55
  3
B4
350
56
  3
B5
350
57
  3
B6
350
58
  3
B7
350
59
  3
B8
350
5A
  3
B9
350
5B
  3
C0
350
5C
  3
C1
350
5D
  3
C2
350
5E
  3
C3
350
5F
  3
C4
350
60
  3
C5
350
61
  3
C6
350
62
  3
C7
350
63
  3
C8
350
64
  3
C9
350
65
  3
D0
350
66
  3
D1
350
67
  3
D2
350
68
  0
DICTIONARY
  5
420
102
{ACAD_REACTORS
330
C
102
}
330
C
100
AcDbDictionary
281
     1
  0
DICTIONARY
  5
69
102
{ACAD_REACTORS
330
C
102
}
330
C
100
AcDbDictionary
281
     1
  3
Standard
350
6A
  0
DICTIONARY
  5
2A
102
{ACAD_REACTORS
330
C
102
}
330
C
100
AcDbDictionary
281
     1
  3
2dWireframe
350
2F
  3
Basic
350
32
  3
Brighten
350
36
  3
ColorChange
350
3A
  3
Conceptual
350
34
  3
Dim
350
35
  3
EdgeColorOff
350
3D
  3
Facepattern
350
39
  3
Flat
350
2B
  3
FlatWithEdges
350
2C
  3
Gouraud
350
2D
  3
GouraudWithEdges
350
2E
  3
Hidden
350
31
  3
JitterOff
350
3B
  3
Linepattern
350
38
  3
OverhangOff
350
3C
  3
Realistic
350
33
  3
Shaded
350
42
  3
Shaded with edges
350
41
  3
Shades of Gray
350
3E
  3
Sketchy
350
3F
  3
Thicken
350
37
  3
Wireframe
350
30
  3
X-Ray
350
40
  0
XRECORD
  5
41C
102
{ACAD_REACTORS
330
C
102
}
330
C
100
AcDbXrecord
280
     1
 90
        1
330
6A
  0
DICTIONARY
  5
3DC
102
{ACAD_REACTORS
330
C
102
}
330
C
100
AcDbDictionary
281
     1
  3
CANNOSCALE
350
3DD
  3
CENTEREXE
350
421
  3
CENTERLTYPEFILE
350
422
  3
CMLEADERSTYLE
350
41E
  3
CTABLESTYLE
350
41D
  3
MSLTSCALE
350
3DE
  3
XCLIPFRAME
350
3DF
  0
XRECORD
  5
3DB
102
{ACAD_REACTORS
330
3DA
102
}
330
3DA
100
AcDbXrecord
280
     1
102
VTR_0.000_0.000_1.000_1.000_VISUALSTYLE
340
2F
102
VTR_0.000_0.000_1.000_1.000_GRIDDISPLAY
 70
     3
102
VTR_0.000_0.000_1.000_1.000_GRIDMAJOR
 70
     5
102
VTR_0.000_0.000_1.000_1.000_DEFAULTLIGHTING
280
     1
102
VTR_0.000_0.000_1.000_1.000_DEFAULTLIGHTINGTYPE
 70
     1
102
VTR_0.000_0.000_1.000_1.000_BRIGHTNESS
141
0.0
102
VTR_0.000_0.000_1.000_1.000_CONTRAST
142
0.0
  0
LAYOUT
  5
1E
102
{ACAD_REACTORS
330
1A
102
}
330
1A
100
AcDbPlotSettings
  1

  2
none_device
  4

  6

 40
0.0
 41
0.0
 42
0.0
 43
0.0
 44
0.0
 45
0.0
 46
0.0
 47
0.0
 48
0.0
 49
0.0
140
0.0
141
0.0
142
1.0
143
1.0
 70
   688
 72
     1
 73
     0
 74
     5
  7

 75
    16
 76
     0
 77
     5
 78
   300
147
1.0
148
0.0
149
0.0
100
AcDbLayout
  1
Layout1
 70
     1
 71
     1
 10
0.0
 20
0.0
 11
420.0
 21
297.0
 12
0.0
 22
0.0
 32
0.0
 14
1.000000000000000E+20
 24
1.000000000000000E+20
 34
1.000000000000000E+20
 15
-1.000000000000000E+20
 25
-1.000000000000000E+20
 35
-1.000000000000000E+20
146
0.0
 13
0.0
 23
0.0
 33
0.0
 16
1.0
 26
0.0
 36
0.0
 17
0.0
 27
1.0
 37
0.0
 76
     0
330
1B
  0
LAYOUT
  5
26
102
{ACAD_REACTORS
330
1A
102
}
330
1A
100
AcDbPlotSettings
  1

  2
none_device
  4

  6

 40
0.0
 41
0.0
 42
0.0
 43
0.0
 44
0.0
 45
0.0
 46
0.0
 47
0.0
 48
0.0
 49
0.0
140
0.0
141
0.0
142
1.0
143
1.0
 70
   688
 72
     1
 73
     0
 74
     5
  7

 75
    16
 76
     0
 77
     5
 78
   300
147
1.0
148
0.0
149
0.0
100
AcDbLayout
  1
Layout2
 70
     1
 71
     2
 10
0.0
 20
0.0
 11
0.0
 21
0.0
 12
0.0
 22
0.0
 32
0.0
 14
0.0
 24
0.0
 34
0.0
 15
0.0
 25
0.0
 35
0.0
146
0.0
 13
0.0
 23
0.0
 33
0.0
 16
1.0
 26
0.0
 36
0.0
 17
0.0
 27
1.0
 37
0.0
 76
     0
330
23
  0
LAYOUT
  5
22
102
{ACAD_REACTORS
330
1A
102
}
330
1A
100
AcDbPlotSettings
  1

  2
none_device
  4
Letter_(8.50_x_11.00_Inches)
  6

 40
6.35
 41
6.35
 42
6.35000508
 43
6.35000508
 44
215.9
 45
279.4
 46
0.0
 47
0.0
 48
0.0
 49
0.0
140
0.0
141
0.0
142
1.0
143
1.0
 70
  1712
 72
     1
 73
     0
 74
     0
  7

 75
     0
 76
     0
 77
     5
 78
   300
147
1.0
148
0.0
149
0.0
100
AcDbLayout
  1
Model
 70
     1
 71
     0
 10
-630.0
 20
-445.5
 11
630.0
 21
445.5
 12
0.0
 22
0.0
 32
0.0
 14
-630.0
 24
-445.5
 34
0.0
 15
630.0
 25
445.5
 35
0.0
146
0.0
 13
0.0
 23
0.0
 33
0.0
 16
1.0
 26
0.0
 36
0.0
 17
0.0
 27
1.0
 37
0.0
 76
     0
330
1F
331
29
  0
MATERIAL
  5
45
102
{ACAD_REACTORS
330
43
102
}
102
{ACAD_XDICTIONARY
360
412
102
}
330
43
100
AcDbMaterial
  1
ByBlock
  0
MATERIAL
  5
44
102
{ACAD_REACTORS
330
43
102
}
102
{ACAD_XDICTIONARY
360
410
102
}
330
43
100
AcDbMaterial
  1
ByLayer
  0
MATERIAL
  5
46
102
{ACAD_REACTORS
330
43
102
}
102
{ACAD_XDICTIONARY
360
414
102
}
330
43
100
AcDbMaterial
  1
Global
  0
MLEADERSTYLE
  5
6C
102
{ACAD_REACTORS
330
6B
102
}
102
{ACAD_XDICTIONARY
360
41A
102
}
330
6B
100
AcDbMLeaderStyle
170
     2
171
     1
172
     0
 90
        2
 40
0.0
 41
0.0
173
     1
 91
-1056964608
340
14
 92
       -2
290
     1
 42
2.0
291
     1
 43
8.0
  3
Standard
341
0
 44
4.0
300

342
11
174
     1
178
     6
175
     1
176
     0
 93
-1056964608
 45
4.0
292
     0
297
     0
 46
4.0
343
0
 94
-1056964608
 47
1.0
 49
1.0
140
1.0
293
     1
141
0.0
294
     1
177
     0
142
1.0
295
     0
296
     0
143
3.75
1001
ACAD_MLEADERVER
1070
     2
  0
MLINESTYLE
  5
18
102
{ACAD_REACTORS
330
17
102
}
330
17
100
AcDbMlineStyle
  2
Standard
 70
     0
  3

 62
   256
 51
90.0
 52
90.0
 71
     2
 49
0.5
 62
   256
  6
BYLAYER
 49
-0.5
 62
   256
  6
BYLAYER
  0
ACDBPLACEHOLDER
  5
F
102
{ACAD_REACTORS
330
E
102
}
330
E
  0
SCALE
  5
48
102
{ACAD_REACTORS
330
47
102
}
330
47
100
AcDbScale
 70
     0
300
1:1
140
1.0
141
1.0
290
     1
  0
SCALE
  5
49
102
{ACAD_REACTORS
330
47
102
}
330
47
100
AcDbScale
 70
     0
300
1:2
140
1.0
141
2.0
290
     0
  0
SCALE
  5
4A
102
{ACAD_REACTORS
330
47
102
}
330
47
100
AcDbScale
 70
     0
300
1:4
140
1.0
141
4.0
290
     0
  0
SCALE
  5
4B
102
{ACAD_REACTORS
330
47
102
}
330
47
100
AcDbScale
 70
     0
300
1:5
140
1.0
141
5.0
290
     0
  0
SCALE
  5
4C
102
{ACAD_REACTORS
330
47
102
}
330
47
100
AcDbScale
 70
     0
300
1:8
140
1.0
141
8.0
290
     0
  0
SCALE
  5
4D
102
{ACAD_REACTORS
330
47
102
}
330
47
100
AcDbScale
 70
     0
300
1:10
140
1.0
141
10.0
290
     0
  0
SCALE
  5
4E
102
{ACAD_REACTORS
330
47
102
}
330
47
100
AcDbScale
 70
     0
300
1:16
140
1.0
141
16.0
290
     0
  0
SCALE
  5
4F
102
{ACAD_REACTORS
330
47
102
}
330
47
100
AcDbScale
 70
     0
300
1:20
140
1.0
141
20.0
290
     0
  0
SCALE
  5
50
102
{ACAD_REACTORS
330
47
102
}
330
47
100
AcDbScale
 70
     0
300
1:30
140
1.0
141
30.0
290
     0
  0
SCALE
  5
51
102
{ACAD_REACTORS
330
47
102
}
330
47
100
AcDbScale
 70
     0
300
1:40
140
1.0
141
40.0
290
     0
  0
SCALE
  5
52
102
{ACAD_REACTORS
330
47
102
}
330
47
100
AcDbScale
 70
     0
300
1:50
140
1.0
141
50.0
290
     0
  0
SCALE
  5
53
102
{ACAD_REACTORS
330
47
102
}
330
47
100
AcDbScale
 70
     0
300
1:100
140
1.0
141
100.0
290
     0
  0
SCALE
  5
54
102
{ACAD_REACTORS
330
47
102
}
330
47
100
AcDbScale
 70
     0
300
2:1
140
2.0
141
1.0
290
     0
  0
SCALE
  5
55
102
{ACAD_REACTORS
330
47
102
}
330
47
100
AcDbScale
 70
     0
300
4:1
140
4.0
141
1.0
290
     0
  0
SCALE
  5
56
102
{ACAD_REACTORS
330
47
102
}
330
47
100
AcDbScale
 70
     0
300
8:1
140
8.0
141
1.0
290
     0
  0
SCALE
  5
57
102
{ACAD_REACTORS
330
47
102
}
330
47
100
AcDbScale
 70
     0
300
10:1
140
10.0
141
1.0
290
     0
  0
SCALE
  5
58
102
{ACAD_REACTORS
330
47
102
}
330
47
100
AcDbScale
 70
     0
300
100:1
140
100.0
141
1.0
290
     0
  0
SCALE
  5
59
102
{ACAD_REACTORS
330
47
102
}
330
47
100
AcDbScale
 70
     0
300
1/128" = 1'-0"
140
0.0078125
141
12.0
290
     0
  0
SCALE
  5
5A
102
{ACAD_REACTORS
330
47
102
}
330
47
100
AcDbScale
 70
     0
300
1/64" = 1'-0"
140
0.015625
141
12.0
290
     0
  0
SCALE
  5
5B
102
{ACAD_REACTORS
330
47
102
}
330
47
100
AcDbScale
 70
     0
300
1/32" = 1'-0"
140
0.03125
141
12.0
290
     0
  0
SCALE
  5
5C
102
{ACAD_REACTORS
330
47
102
}
330
47
100
AcDbScale
 70
     0
300
1/16" = 1'-0"
140
0.0625
141
12.0
290
     0
  0
SCALE
  5
5D
102
{ACAD_REACTORS
330
47
102
}
330
47
100
AcDbScale
 70
     0
300
3/32" = 1'-0"
140
0.09375
141
12.0
290
     0
  0
SCALE
  5
5E
102
{ACAD_REACTORS
330
47
102
}
330
47
100
AcDbScale
 70
     0
300
1/8" = 1'-0"
140
0.125
141
12.0
290
     0
  0
SCALE
  5
5F
102
{ACAD_REACTORS
330
47
102
}
330
47
100
AcDbScale
 70
     0
300
3/16" = 1'-0"
140
0.1875
141
12.0
290
     0
  0
SCALE
  5
60
102
{ACAD_REACTORS
330
47
102
}
330
47
100
AcDbScale
 70
     0
300
1/4" = 1'-0"
140
0.25
141
12.0
290
     0
  0
SCALE
  5
61
102
{ACAD_REACTORS
330
47
102
}
330
47
100
AcDbScale
 70
     0
300
3/8" = 1'-0"
140
0.375
141
12.0
290
     0
  0
SCALE
  5
62
102
{ACAD_REACTORS
330
47
102
}
330
47
100
AcDbScale
 70
     0
300
1/2" = 1'-0"
140
0.5
141
12.0
290
     0
  0
SCALE
  5
63
102
{ACAD_REACTORS
330
47
102
}
330
47
100
AcDbScale
 70
     0
300
3/4" = 1'-0"
140
0.75
141
12.0
290
     0
  0
SCALE
  5
64
102
{ACAD_REACTORS
330
47
102
}
330
47
100
AcDbScale
 70
     0
300
1" = 1'-0"
140
1.0
141
12.0
290
     0
  0
SCALE
  5
65
102
{ACAD_REACTORS
330
47
102
}
330
47
100
AcDbScale
 70
     0
300
1-1/2" = 1'-0"
140
1.5
141
12.0
290
     0
  0
SCALE
  5
66
102
{ACAD_REACTORS
330
47
102
}
330
47
100
AcDbScale
 70
     0
300
3" = 1'-0"
140
3.0
141
12.0
290
     0
  0
SCALE
  5
67
102
{ACAD_REACTORS
330
47
102
}
330
47
100
AcDbScale
 70
     0
300
6" = 1'-0"
140
6.0
141
12.0
290
     0
  0
SCALE
  5
68
102
{ACAD_REACTORS
330
47
102
}
330
47
100
AcDbScale
 70
     0
300
1'-0" = 1'-0"
140
12.0
141
12.0
290
     0
  0
TABLESTYLE
  5
6A
102
{ACAD_REACTORS
330
69
102
}
102
{ACAD_XDICTIONARY
360
416
102
}
330
69
100
AcDbTableStyle
  3
Standard
 70
     0
 71
     0
 40
0.06
 41
0.06
280
     0
281
     0
  7
Standard
140
4.5
170
     2
 62
     0
 63
   257
283
     0
274
    -2
284
     1
 64
     0
275
    -2
285
     1
 65
     0
276
    -2
286
     1
 66
     0
277
    -2
287
     1
 67
     0
278
    -2
288
     1
 68
     0
279
    -2
289
     1
 69
     0
  7
Standard
140
6.0
170
     5
 62
     0
 63
   257
283
     0
274
    -2
284
     1
 64
     0
275
    -2
285
     1
 65
     0
276
    -2
286
     1
 66
     0
277
    -2
287
     1
 67
     0
278
    -2
288
     1
 68
     0
279
    -2
289
     1
 69
     0
  7
Standard
140
4.5
170
     5
 62
     0
 63
   257
283
     0
274
    -2
284
     1
 64
     0
275
    -2
285
     1
 65
     0
276
    -2
286
     1
 66
     0
277
    -2
287
     1
 67
     0
278
    -2
288
     1
 68
     0
279
    -2
289
     1
 69
     0
  0
VISUALSTYLE
  5
2F
102
{ACAD_REACTORS
330
2A
102
}
102
{ACAD_XDICTIONARY
360
3E8
102
}
330
2A
100
AcDbVisualStyle
  2
2dWireframe
 70
     4
 71
     0
 72
     2
 73
     0
 90
        0
 40
0.6
 41
30.0
 62
     5
 63
     7
421
 16777215
 74
     1
 91
        4
 64
     7
 65
   257
 75
     1
175
     1
 42
1.0
 92
        0
 66
   257
 43
1.0
 76
     1
 77
     6
 78
     2
 67
     7
 79
     5
170
     0
171
     0
290
     0
174
     0
 93
        1
 44
0.0
173
     0
291
     0
 45
0.0
1001
ACAD
1000
AcDbSavedByObjectVersion
1070
     0
  0
VISUALSTYLE
  5
32
102
{ACAD_REACTORS
330
2A
102
}
102
{ACAD_XDICTIONARY
360
3EE
102
}
330
2A
100
AcDbVisualStyle
  2
Basic
 70
     7
 71
     1
 72
     0
 73
     1
 90
        0
 40
0.6
 41
30.0
 62
     5
 63
     7
421
 16777215
 74
     0
 91
        4
 64
     7
 65
   257
 75
     1
175
     1
 42
1.0
 92
        8
 66
     7
 43
1.0
 76
     1
 77
     6
 78
     2
 67
     7
 79
     5
170
     0
171
     0
290
     0
174
     0
 93
        1
 44
0.0
173
     0
291
     1
 45
0.0
1001
ACAD
1000
AcDbSavedByObjectVersion
1070
     0
  0
VISUALSTYLE
  5
36
102
{ACAD_REACTORS
330
2A
102
}
102
{ACAD_XDICTIONARY
360
3F6
102
}
330
2A
100
AcDbVisualStyle
  2
Brighten
 70
    12
 71
     2
 72
     2
 73
     0
 90
        0
 40
0.6
 41
30.0
 62
     5
 63
     7
421
 16777215
 74
     1
 91
        4
 64
     7
 65
   257
 75
     1
175
     1
 42
1.0
 92
        8
 66
     7
 43
1.0
 76
     1
 77
     6
 78
     2
 67
     7
 79
     5
170
     0
171
     0
290
     0
174
     0
 93
        1
 44
50.0
173
     0
291
     1
 45
0.0
1001
ACAD
1000
AcDbSavedByObjectVersion
1070
     0
  0
VISUALSTYLE
  5
3A
102
{ACAD_REACTORS
330
2A
102
}
102
{ACAD_XDICTIONARY
360
3FE
102
}
330
2A
100
AcDbVisualStyle
  2
ColorChange
 70
    16
 71
     2
 72
     2
 73
     3
 90
        0
 40
0.6
 41
30.0
 62
     5
 63
     8
421
  8421504
 74
     1
 91
        4
 64
     7
 65
   257
 75
     1
175
     1
 42
1.0
 92
        8
 66
     8
424
  8421504
 43
1.0
 76
     1
 77
     6
 78
     2
 67
     7
 79
     5
170
     0
171
     0
290
     0
174
     0
 93
        1
 44
0.0
173
     0
291
     1
 45
0.0
1001
ACAD
1000
AcDbSavedByObjectVersion
1070
     0
  0
VISUALSTYLE
  5
34
102
{ACAD_REACTORS
330
2A
102
}
102
{ACAD_XDICTIONARY
360
3F2
102
}
330
2A
100
AcDbVisualStyle
  2
Conceptual
 70
     9
 71
     3
 72
     2
 73
     0
 90
        0
 40
0.6
 41
30.0
 62
     5
 63
     7
421
 16777215
 74
     2
 91
        2
 64
     7
 65
   257
 75
     1
175
     1
 42
179.0
 92
        8
 66
     7
 43
1.0
 76
     1
 77
     6
 78
     2
 67
     7
 79
     3
170
     0
171
     0
290
     0
174
     0
 93
        1
 44
0.0
173
     0
291
     0
 45
0.0
1001
ACAD
1000
AcDbSavedByObjectVersion
1070
     0
  0
VISUALSTYLE
  5
35
102
{ACAD_REACTORS
330
2A
102
}
102
{ACAD_XDICTIONARY
360
3F4
102
}
330
2A
100
AcDbVisualStyle
  2
Dim
 70
    11
 71
     2
 72
     2
 73
     0
 90
        0
 40
0.6
 41
30.0
 62
     5
 63
     7
421
 16777215
 74
     1
 91
        4
 64
     7
 65
   257
 75
     1
175
     1
 42
1.0
 92
        8
 66
     7
 43
1.0
 76
     1
 77
     6
 78
     2
 67
     7
 79
     5
170
     0
171
     0
290
     0
174
     0
 93
        1
 44
-50.0
173
     0
291
     1
 45
0.0
1001
ACAD
1000
AcDbSavedByObjectVersion
1070
     0
  0
VISUALSTYLE
  5
3D
102
{ACAD_REACTORS
330
2A
102
}
102
{ACAD_XDICTIONARY
360
404
102
}
330
2A
100
AcDbVisualStyle
  2
EdgeColorOff
 70
    22
 71
     2
 72
     2
 73
     0
 90
        0
 40
0.6
 41
30.0
 62
     5
 63
     7
421
 16777215
 74
     1
 91
        4
 64
     7
 65
   257
 75
     1
175
     1
 42
1.0
 92
        8
 66
     7
 43
1.0
 76
     1
 77
     6
 78
     2
 67
     7
 79
     5
170
     0
171
     0
290
     0
174
     0
 93
        1
 44
0.0
173
     0
291
     1
 45
0.0
1001
ACAD
1000
AcDbSavedByObjectVersion
1070
     0
  0
VISUALSTYLE
  5
39
102
{ACAD_REACTORS
330
2A
102
}
102
{ACAD_XDICTIONARY
360
3FC
102
}
330
2A
100
AcDbVisualStyle
  2
Facepattern
 70
    15
 71
     2
 72
     2
 73
     0
 90
        0
 40
0.6
 41
30.0
 62
     5
 63
     7
421
 16777215
 74
     1
 91
        4
 64
     7
 65
   257
 75
     1
175
     1
 42
1.0
 92
        8
 66
     7
 43
1.0
 76
     1
 77
     6
 78
     2
 67
     7
 79
     5
170
     0
171
     0
290
     0
174
     0
 93
        1
 44
0.0
173
     0
291
     1
 45
0.0
1001
ACAD
1000
AcDbSavedByObjectVersion
1070
     0
  0
VISUALSTYLE
  5
2B
102
{ACAD_REACTORS
330
2A
102
}
102
{ACAD_XDICTIONARY
360
3E0
102
}
330
2A
100
AcDbVisualStyle
  2
Flat
 70
     0
 71
     2
 72
     1
 73
     1
 90
        2
 40
0.6
 41
30.0
 62
     5
 63
     7
421
 16777215
 74
     0
 91
        0
 64
     7
 65
   257
 75
     1
175
     1
 42
1.0
 92
        8
 66
     7
 43
1.0
 76
     1
 77
     6
 78
     2
 67
     7
 79
     5
170
     0
171
     0
290
     0
174
     0
 93
       13
 44
0.0
173
     0
291
     1
 45
0.0
1001
ACAD
1000
AcDbSavedByObjectVersion
1070
     0
  0
VISUALSTYLE
  5
2C
102
{ACAD_REACTORS
330
2A
102
}
102
{ACAD_XDICTIONARY
360
3E2
102
}
330
2A
100
AcDbVisualStyle
  2
FlatWithEdges
 70
     1
 71
     2
 72
     1
 73
     1
 90
        2
 40
0.6
 41
30.0
 62
     5
 63
     7
421
 16777215
 74
     1
 91
        0
 64
     7
 65
   257
 75
     1
175
     1
 42
1.0
 92
        0
 66
   257
 43
1.0
 76
     1
 77
     6
 78
     2
 67
     7
 79
     5
170
     0
171
     0
290
     0
174
     0
 93
       13
 44
0.0
173
     0
291
     1
 45
0.0
1001
ACAD
1000
AcDbSavedByObjectVersion
1070
     0
  0
VISUALSTYLE
  5
2D
102
{ACAD_REACTORS
330
2A
102
}
102
{ACAD_XDICTIONARY
360
3E4
102
}
330
2A
100
AcDbVisualStyle
  2
Gouraud
 70
     2
 71
     2
 72
     2
 73
     1
 90
        2
 40
0.6
 41
30.0
 62
     5
 63
     7
421
 16777215
 74
     0
 91
        0
 64
     7
 65
   257
 75
     1
175
     1
 42
1.0
 92
        0
 66
     7
 43
1.0
 76
     1
 77
     6
 78
     2
 67
     7
 79
     5
170
     0
171
     0
290
     0
174
     0
 93
       13
 44
0.0
173
     0
291
     1
 45
0.0
1001
ACAD
1000
AcDbSavedByObjectVersion
1070
     0
  0
VISUALSTYLE
  5
2E
102
{ACAD_REACTORS
330
2A
102
}
102
{ACAD_XDICTIONARY
360
3E6
102
}
330
2A
100
AcDbVisualStyle
  2
GouraudWithEdges
 70
     3
 71
     2
 72
     2
 73
     1
 90
        2
 40
0.6
 41
30.0
 62
     5
 63
     7
421
 16777215
 74
     1
 91
        0
 64
     7
 65
   257
 75
     1
175
     1
 42
1.0
 92
        0
 66
   257
 43
1.0
 76
     1
 77
     6
 78
     2
 67
     7
 79
     5
170
     0
171
     0
290
     0
174
     0
 93
       13
 44
0.0
173
     0
291
     1
 45
0.0
1001
ACAD
1000
AcDbSavedByObjectVersion
1070
     0
  0
VISUALSTYLE
  5
31
102
{ACAD_REACTORS
330
2A
102
}
102
{ACAD_XDICTIONARY
360
3EC
102
}
330
2A
100
AcDbVisualStyle
  2
Hidden
 70
     6
 71
     1
 72
     2
 73
     2
 90
        0
 40
0.6
 41
30.0
 62
     5
 63
     7
421
 16777215
 74
     2
 91
        2
 64
     7
 65
   257
 75
     2
175
     1
 42
40.0
 92
        0
 66
   257
 43
1.0
 76
     1
 77
     6
 78
     2
 67
     7
 79
     3
170
     0
171
     0
290
     0
174
     0
 93
        1
 44
0.0
173
     0
291
     0
 45
0.0
1001
ACAD
1000
AcDbSavedByObjectVersion
1070
     0
  0
VISUALSTYLE
  5
3B
102
{ACAD_REACTORS
330
2A
102
}
102
{ACAD_XDICTIONARY
360
400
102
}
330
2A
100
AcDbVisualStyle
  2
JitterOff
 70
    20
 71
     2
 72
     2
 73
     0
 90
        0
 40
0.6
 41
30.0
 62
     5
 63
     7
421
 16777215
 74
     1
 91
        4
 64
     7
 65
   257
 75
     1
175
     1
 42
1.0
 92
       10
 66
     7
 43
1.0
 76
     1
 77
     6
 78
     2
 67
     7
 79
     5
170
     0
171
     0
290
     0
174
     0
 93
        1
 44
0.0
173
     0
291
     1
 45
0.0
1001
ACAD
1000
AcDbSavedByObjectVersion
1070
     0
  0
VISUALSTYLE
  5
38
102
{ACAD_REACTORS
330
2A
102
}
102
{ACAD_XDICTIONARY
360
3FA
102
}
330
2A
100
AcDbVisualStyle
  2
Linepattern
 70
    14
 71
     2
 72
     2
 73
     0
 90
        0
 40
0.6
 41
30.0
 62
     5
 63
     7
421
 16777215
 74
     1
 91
        4
 64
     7
 65
   257
 75
     7
175
     7
 42
1.0
 92
        8
 66
     7
 43
1.0
 76
     1
 77
     6
 78
     2
 67
     7
 79
     5
170
     0
171
     0
290
     0
174
     0
 93
        1
 44
0.0
173
     0
291
     1
 45
0.0
1001
ACAD
1000
AcDbSavedByObjectVersion
1070
     0
  0
VISUALSTYLE
  5
3C
102
{ACAD_REACTORS
330
2A
102
}
102
{ACAD_XDICTIONARY
360
402
102
}
330
2A
100
AcDbVisualStyle
  2
OverhangOff
 70
    21
 71
     2
 72
     2
 73
     0
 90
        0
 40
0.6
 41
30.0
 62
     5
 63
     7
421
 16777215
 74
     1
 91
        4
 64
     7
 65
   257
 75
     1
175
     1
 42
1.0
 92
        9
 66
     7
 43
1.0
 76
     1
 77
     6
 78
     2
 67
     7
 79
     5
170
     0
171
     0
290
     0
174
     0
 93
        1
 44
0.0
173
     0
291
     1
 45
0.0
1001
ACAD
1000
AcDbSavedByObjectVersion
1070
     0
  0
VISUALSTYLE
  5
33
102
{ACAD_REACTORS
330
2A
102
}
102
{ACAD_XDICTIONARY
360
3F0
102
}
330
2A
100
AcDbVisualStyle
  2
Realistic
 70
     8
 71
     2
 72
     3
 73
     0
 90
        2
 40
0.6
 41
30.0
 62
     5
 63
     7
421
 16777215
 74
     0
 91
        0
 64
     7
 65
   257
 75
     1
175
     1
 42
1.0
 92
        8
 66
   257
 43
1.0
 76
     1
 77
     6
 78
     2
 67
     7
 79
     3
170
     0
171
     0
290
     0
174
     0
 93
       13
 44
0.0
173
     0
291
     0
 45
0.0
1001
ACAD
1000
AcDbSavedByObjectVersion
1070
     0
  0
VISUALSTYLE
  5
42
102
{ACAD_REACTORS
330
2A
102
}
102
{ACAD_XDICTIONARY
360
40E
102
}
330
2A
100
AcDbVisualStyle
  2
Shaded
 70
    27
 71
     2
 72
     2
 73
     1
 90
        2
 40
0.6
 41
30.0
 62
     5
 63
     7
421
 16777215
 74
     0
 91
        4
 64
     7
 65
   257
 75
     1
175
     1
 42
1.0
 92
        8
 66
   257
 43
1.0
 76
     1
 77
     6
 78
     2
 67
     8
425
  7895160
 79
     3
170
     0
171
     0
290
     0
174
     0
 93
        5
 44
0.0
173
     0
291
     0
 45
0.0
1001
ACAD
1000
AcDbSavedByObjectVersion
1070
     0
  0
VISUALSTYLE
  5
41
102
{ACAD_REACTORS
330
2A
102
}
102
{ACAD_XDICTIONARY
360
40C
102
}
330
2A
100
AcDbVisualStyle
  2
Shaded with edges
 70
    26
 71
     2
 72
     2
 73
     1
 90
        2
 40
0.6
 41
30.0
 62
     5
 63
     7
421
 16777215
 74
     1
 91
       10
 64
     7
 65
   257
 75
     2
175
     1
 42
1.0
 92
        8
 66
   257
 43
1.0
 76
     1
 77
     6
 78
     2
 67
     7
 79
     3
170
     0
171
     0
290
     0
174
     0
 93
        5
 44
0.0
173
     0
291
     0
 45
0.0
1001
ACAD
1000
AcDbSavedByObjectVersion
1070
     0
  0
VISUALSTYLE
  5
3E
102
{ACAD_REACTORS
330
2A
102
}
102
{ACAD_XDICTIONARY
360
406
102
}
330
2A
100
AcDbVisualStyle
  2
Shades of Gray
 70
    23
 71
     2
 72
     2
 73
     3
 90
        0
 40
0.6
 41
30.0
 62
     5
 63
     7
421
 16777215
 74
     2
 91
        2
 64
     7
 65
     7
 75
     1
175
     1
 42
40.0
 92
        8
 66
     7
 43
1.0
 76
     1
 77
     6
 78
     2
 67
     7
 79
     3
170
     0
171
     0
290
     0
174
     0
 93
        1
 44
0.0
173
     0
291
     0
 45
0.0
1001
ACAD
1000
AcDbSavedByObjectVersion
1070
     0
  0
VISUALSTYLE
  5
3F
102
{ACAD_REACTORS
330
2A
102
}
102
{ACAD_XDICTIONARY
360
408
102
}
330
2A
100
AcDbVisualStyle
  2
Sketchy
 70
    24
 71
     1
 72
     2
 73
     2
 90
        0
 40
0.6
 41
30.0
 62
     5
 63
     7
421
 16777215
 74
     2
 91
        2
 64
     7
 65
     7
 75
     1
175
     1
 42
40.0
 92
       11
 66
     7
 43
1.0
 76
     1
 77
     6
 78
     2
 67
     7
 79
     6
170
     0
171
     0
290
     0
174
     0
 93
        1
 44
0.0
173
     0
291
     0
 45
0.0
1001
ACAD
1000
AcDbSavedByObjectVersion
1070
     0
  0
VISUALSTYLE
  5
37
102
{ACAD_REACTORS
330
2A
102
}
102
{ACAD_XDICTIONARY
360
3F8
102
}
330
2A
100
AcDbVisualStyle
  2
Thicken
 70
    13
 71
     2
 72
     2
 73
     0
 90
        0
 40
0.6
 41
30.0
 62
     5
 63
     7
421
 16777215
 74
     1
 91
        4
 64
     7
 65
   257
 75
     1
175
     1
 42
1.0
 92
       12
 66
     7
 43
1.0
 76
     1
 77
     6
 78
     2
 67
     7
 79
     5
170
     0
171
     0
290
     0
174
     0
 93
        1
 44
0.0
173
     0
291
     1
 45
0.0
1001
ACAD
1000
AcDbSavedByObjectVersion
1070
     0
  0
VISUALSTYLE
  5
30
102
{ACAD_REACTORS
330
2A
102
}
102
{ACAD_XDICTIONARY
360
3EA
102
}
330
2A
100
AcDbVisualStyle
  2
Wireframe
 70
     5
 71
     0
 72
     2
 73
     0
 90
        0
 40
0.6
 41
30.0
 62
     5
 63
     7
421
 16777215
 74
     1
 91
        4
 64
     7
 65
   257
 75
     1
175
     1
 42
1.0
 92
        0
 66
   257
 43
1.0
 76
     1
 77
     6
 78
     2
 67
     7
 79
     3
170
     0
171
     0
290
     0
174
     0
 93
        1
 44
0.0
173
     0
291
     0
 45
0.0
1001
ACAD
1000
AcDbSavedByObjectVersion
1070
     0
  0
VISUALSTYLE
  5
40
102
{ACAD_REACTORS
330
2A
102
}
102
{ACAD_XDICTIONARY
360
40A
102
}
330
2A
100
AcDbVisualStyle
  2
X-Ray
 70
    25
 71
     2
 72
     2
 73
     1
 90
        1
 40
0.5
 41
30.0
 62
     5
 63
     7
421
 16777215
 74
     1
 91
        0
 64
     7
 65
   257
 75
     1
175
     1
 42
1.0
 92
        8
 66
     7
 43
1.0
 76
     1
 77
     6
 78
     2
 67
     7
 79
     3
170
     0
171
     0
290
     0
174
     0
 93
       13
 44
0.0
173
     0
291
     0
 45
0.0
1001
ACAD
1000
AcDbSavedByObjectVersion
1070
     0
  0
DICTIONARYVAR
  5
3DD
102
{ACAD_REACTORS
330
3DC
102
}
330
3DC
100
DictionaryVariables
280
     0
  1
1:1
  0
DICTIONARYVAR
  5
421
102
{ACAD_REACTORS
330
3DC
102
}
330
3DC
100
DictionaryVariables
280
     0
  1
3.500000
  0
DICTIONARYVAR
  5
422
102
{ACAD_REACTORS
330
3DC
102
}
330
3DC
100
DictionaryVariables
280
     0
  1
acadiso.lin
  0
DICTIONARYVAR
  5
41E
102
{ACAD_REACTORS
330
3DC
102
}
330
3DC
100
DictionaryVariables
280
     0
  1
Standard
  0
DICTIONARYVAR
  5
41D
102
{ACAD_REACTORS
330
3DC
102
}
330
3DC
100
DictionaryVariables
280
     0
  1
Standard
  0
DICTIONARYVAR
  5
3DE
102
{ACAD_REACTORS
330
3DC
102
}
330
3DC
100
DictionaryVariables
280
     0
  1
1
  0
DICTIONARYVAR
  5
3DF
102
{ACAD_REACTORS
330
3DC
102
}
330
3DC
100
DictionaryVariables
280
     0
  1
2
  0
DICTIONARY
  5
412
330
45
100
AcDbDictionary
280
     1
281
     1
  3
ACAD_XREC_ROUNDTRIP
360
413
  0
DICTIONARY
  5
410
330
44
100
AcDbDictionary
280
     1
281
     1
  3
ACAD_XREC_ROUNDTRIP
360
411
  0
DICTIONARY
  5
414
330
46
100
AcDbDictionary
280
     1
281
     1
  3
ACAD_XREC_ROUNDTRIP
360
415
  0
DICTIONARY
  5
41A
330
6C
100
AcDbDictionary
280
     1
281
     1
  3
ACAD_XREC_ROUNDTRIP
360
41B
  0
DICTIONARY
  5
416
330
6A
100
AcDbDictionary
280
     1
281
     1
  3
ACAD_ROUNDTRIP_2008_TABLESTYLE_CELLSTYLEMAP
360
418
  3
ACAD_XREC_ROUNDTRIP
360
417
  0
DICTIONARY
  5
3E8
330
2F
100
AcDbDictionary
280
     1
281
     1
  3
ACAD_XREC_ROUNDTRIP
360
3E9
  0
DICTIONARY
  5
3EE
330
32
100
AcDbDictionary
280
     1
281
     1
  3
ACAD_XREC_ROUNDTRIP
360
3EF
  0
DICTIONARY
  5
3F6
330
36
100
AcDbDictionary
280
     1
281
     1
  3
ACAD_XREC_ROUNDTRIP
360
3F7
  0
DICTIONARY
  5
3FE
330
3A
100
AcDbDictionary
280
     1
281
     1
  3
ACAD_XREC_ROUNDTRIP
360
3FF
  0
DICTIONARY
  5
3F2
330
34
100
AcDbDictionary
280
     1
281
     1
  3
ACAD_XREC_ROUNDTRIP
360
3F3
  0
DICTIONARY
  5
3F4
330
35
100
AcDbDictionary
280
     1
281
     1
  3
ACAD_XREC_ROUNDTRIP
360
3F5
  0
DICTIONARY
  5
404
330
3D
100
AcDbDictionary
280
     1
281
     1
  3
ACAD_XREC_ROUNDTRIP
360
405
  0
DICTIONARY
  5
3FC
330
39
100
AcDbDictionary
280
     1
281
     1
  3
ACAD_XREC_ROUNDTRIP
360
3FD
  0
DICTIONARY
  5
3E0
330
2B
100
AcDbDictionary
280
     1
281
     1
  3
ACAD_XREC_ROUNDTRIP
360
3E1
  0
DICTIONARY
  5
3E2
330
2C
100
AcDbDictionary
280
     1
281
     1
  3
ACAD_XREC_ROUNDTRIP
360
3E3
  0
DICTIONARY
  5
3E4
330
2D
100
AcDbDictionary
280
     1
281
     1
  3
ACAD_XREC_ROUNDTRIP
360
3E5
  0
DICTIONARY
  5
3E6
330
2E
100
AcDbDictionary
280
     1
281
     1
  3
ACAD_XREC_ROUNDTRIP
360
3E7
  0
DICTIONARY
  5
3EC
330
31
100
AcDbDictionary
280
     1
281
     1
  3
ACAD_XREC_ROUNDTRIP
360
3ED
  0
DICTIONARY
  5
400
330
3B
100
AcDbDictionary
280
     1
281
     1
  3
ACAD_XREC_ROUNDTRIP
360
401
  0
DICTIONARY
  5
3FA
330
38
100
AcDbDictionary
280
     1
281
     1
  3
ACAD_XREC_ROUNDTRIP
360
3FB
  0
DICTIONARY
  5
402
330
3C
100
AcDbDictionary
280
     1
281
     1
  3
ACAD_XREC_ROUNDTRIP
360
403
  0
DICTIONARY
  5
3F0
330
33
100
AcDbDictionary
280
     1
281
     1
  3
ACAD_XREC_ROUNDTRIP
360
3F1
  0
DICTIONARY
  5
40E
330
42
100
AcDbDictionary
280
     1
281
     1
  3
ACAD_XREC_ROUNDTRIP
360
40F
  0
DICTIONARY
  5
40C
330
41
100
AcDbDictionary
280
     1
281
     1
  3
ACAD_XREC_ROUNDTRIP
360
40D
  0
DICTIONARY
  5
406
330
3E
100
AcDbDictionary
280
     1
281
     1
  3
ACAD_XREC_ROUNDTRIP
360
407
  0
DICTIONARY
  5
408
330
3F
100
AcDbDictionary
280
     1
281
     1
  3
ACAD_XREC_ROUNDTRIP
360
409
  0
DICTIONARY
  5
3F8
330
37
100
AcDbDictionary
280
     1
281
     1
  3
ACAD_XREC_ROUNDTRIP
360
3F9
  0
DICTIONARY
  5
3EA
330
30
100
AcDbDictionary
280
     1
281
     1
  3
ACAD_XREC_ROUNDTRIP
360
3EB
  0
DICTIONARY
  5
40A
330
40
100
AcDbDictionary
280
     1
281
     1
  3
ACAD_XREC_ROUNDTRIP
360
40B
  0
XRECORD
  5
413
102
{ACAD_REACTORS
330
412
102
}
330
412
100
AcDbXrecord
280
     1
102
MATERIAL
148
0.0
149
0.0
149
0.0
 93
        0
 94
      127
282
     0
 72
     1
 77
     1
171
     1
175
     1
179
     1
273
     0
  0
XRECORD
  5
411
102
{ACAD_REACTORS
330
410
102
}
330
410
100
AcDbXrecord
280
     1
102
MATERIAL
148
0.0
149
0.0
149
0.0
 93
        0
 94
      127
282
     0
 72
     1
 77
     1
171
     1
175
     1
179
     1
273
     0
  0
XRECORD
  5
415
102
{ACAD_REACTORS
330
414
102
}
330
414
100
AcDbXrecord
280
     1
102
MATERIAL
148
0.0
149
0.0
149
0.0
 93
        0
 94
      127
282
     0
 72
     1
 77
     1
171
     1
175
     1
179
     1
273
     0
  0
XRECORD
  5
41B
102
{ACAD_REACTORS
330
41A
102
}
330
41A
100
AcDbXrecord
280
     1
102
ACAD_ROUNDTRIP_2010_MLEADER_STYLE
  0
CELLSTYLEMAP
  5
418
102
{ACAD_REACTORS
330
416
102
}
330
416
100
AcDbCellStyleMap
 90
        3
300
CELLSTYLE
  1
TABLEFORMAT_BEGIN
 90
        5
170
     1
 91
        0
 92
    32768
 62
   257
 93
        1
300
CONTENTFORMAT
  1
CONTENTFORMAT_BEGIN
 90
        0
 91
        0
 92
        4
 93
        0
300

 40
0.0
140
1.0
 94
        5
 62
     0
340
11
144
6.0
309
CONTENTFORMAT_END
171
     1
301
MARGIN
  1
CELLMARGIN_BEGIN
 40
1.5
 40
1.5
 40
1.5
 40
1.5
 40
1.5
 40
1.5
309
CELLMARGIN_END
 94
        6
 95
        1
302
GRIDFORMAT
  1
GRIDFORMAT_BEGIN
 90
        0
 91
        1
 62
     0
 92
       -2
340
14
 93
        0
 40
0.045
309
GRIDFORMAT_END
 95
        2
302
GRIDFORMAT
  1
GRIDFORMAT_BEGIN
 90
        0
 91
        1
 62
     0
 92
       -2
340
14
 93
        0
 40
0.045
309
GRIDFORMAT_END
 95
        4
302
GRIDFORMAT
  1
GRIDFORMAT_BEGIN
 90
        0
 91
        1
 62
     0
 92
       -2
340
14
 93
        0
 40
0.045
309
GRIDFORMAT_END
 95
        8
302
GRIDFORMAT
  1
GRIDFORMAT_BEGIN
 90
        0
 91
        1
 62
     0
 92
       -2
340
14
 93
        0
 40
0.045
309
GRIDFORMAT_END
 95
       16
302
GRIDFORMAT
  1
GRIDFORMAT_BEGIN
 90
        0
 91
        1
 62
     0
 92
       -2
340
14
 93
        0
 40
0.045
309
GRIDFORMAT_END
 95
       32
302
GRIDFORMAT
  1
GRIDFORMAT_BEGIN
 90
        0
 91
        1
 62
     0
 92
       -2
340
14
 93
        0
 40
0.045
309
GRIDFORMAT_END
309
TABLEFORMAT_END
  1
CELLSTYLE_BEGIN
 90
        1
 91
        1
300
_TITLE
309
CELLSTYLE_END
300
CELLSTYLE
  1
TABLEFORMAT_BEGIN
 90
        5
170
     1
 91
        0
 92
        0
 62
   257
 93
        1
300
CONTENTFORMAT
  1
CONTENTFORMAT_BEGIN
 90
        0
 91
        0
 92
        4
 93
        0
300

 40
0.0
140
1.0
 94
        5
 62
     0
340
11
144
4.5
309
CONTENTFORMAT_END
171
     1
301
MARGIN
  1
CELLMARGIN_BEGIN
 40
1.5
 40
1.5
 40
1.5
 40
1.5
 40
1.5
 40
1.5
309
CELLMARGIN_END
 94
        6
 95
        1
302
GRIDFORMAT
  1
GRIDFORMAT_BEGIN
 90
        0
 91
        1
 62
     0
 92
       -2
340
14
 93
        0
 40
0.045
309
GRIDFORMAT_END
 95
        2
302
GRIDFORMAT
  1
GRIDFORMAT_BEGIN
 90
        0
 91
        1
 62
     0
 92
       -2
340
14
 93
        0
 40
0.045
309
GRIDFORMAT_END
 95
        4
302
GRIDFORMAT
  1
GRIDFORMAT_BEGIN
 90
        0
 91
        1
 62
     0
 92
       -2
340
14
 93
        0
 40
0.045
309
GRIDFORMAT_END
 95
        8
302
GRIDFORMAT
  1
GRIDFORMAT_BEGIN
 90
        0
 91
        1
 62
     0
 92
       -2
340
14
 93
        0
 40
0.045
309
GRIDFORMAT_END
 95
       16
302
GRIDFORMAT
  1
GRIDFORMAT_BEGIN
 90
        0
 91
        1
 62
     0
 92
       -2
340
14
 93
        0
 40
0.045
309
GRIDFORMAT_END
 95
       32
302
GRIDFORMAT
  1
GRIDFORMAT_BEGIN
 90
        0
 91
        1
 62
     0
 92
       -2
340
14
 93
        0
 40
0.045
309
GRIDFORMAT_END
309
TABLEFORMAT_END
  1
CELLSTYLE_BEGIN
 90
        2
 91
        1
300
_HEADER
309
CELLSTYLE_END
300
CELLSTYLE
  1
TABLEFORMAT_BEGIN
 90
        5
170
     1
 91
        0
 92
        0
 62
   257
 93
        1
300
CONTENTFORMAT
  1
CONTENTFORMAT_BEGIN
 90
        0
 91
        0
 92
        4
 93
        0
300

 40
0.0
140
1.0
 94
        2
 62
     0
340
11
144
4.5
309
CONTENTFORMAT_END
171
     1
301
MARGIN
  1
CELLMARGIN_BEGIN
 40
1.5
 40
1.5
 40
1.5
 40
1.5
 40
1.5
 40
1.5
309
CELLMARGIN_END
 94
        6
 95
        1
302
GRIDFORMAT
  1
GRIDFORMAT_BEGIN
 90
        0
 91
        1
 62
     0
 92
       -2
340
14
 93
        0
 40
0.045
309
GRIDFORMAT_END
 95
        2
302
GRIDFORMAT
  1
GRIDFORMAT_BEGIN
 90
        0
 91
        1
 62
     0
 92
       -2
340
14
 93
        0
 40
0.045
309
GRIDFORMAT_END
 95
        4
302
GRIDFORMAT
  1
GRIDFORMAT_BEGIN
 90
        0
 91
        1
 62
     0
 92
       -2
340
14
 93
        0
 40
0.045
309
GRIDFORMAT_END
 95
        8
302
GRIDFORMAT
  1
GRIDFORMAT_BEGIN
 90
        0
 91
        1
 62
     0
 92
       -2
340
14
 93
        0
 40
0.045
309
GRIDFORMAT_END
 95
       16
302
GRIDFORMAT
  1
GRIDFORMAT_BEGIN
 90
        0
 91
        1
 62
     0
 92
       -2
340
14
 93
        0
 40
0.045
309
GRIDFORMAT_END
 95
       32
302
GRIDFORMAT
  1
GRIDFORMAT_BEGIN
 90
        0
 91
        1
 62
     0
 92
       -2
340
14
 93
        0
 40
0.045
309
GRIDFORMAT_END
309
TABLEFORMAT_END
  1
CELLSTYLE_BEGIN
 90
        3
 91
        2
300
_DATA
309
CELLSTYLE_END
  0
XRECORD
  5
417
102
{ACAD_REACTORS
330
416
102
}
330
416
100
AcDbXrecord
280
     1
102
ACAD_ROUNDTRIP_PRE2007_TABLESTYLE
 90
        4
 91
        0
  1

 92
        4
 93
        0
  2

 94
        4
 95
        0
  3

  0
XRECORD
  5
3E9
102
{ACAD_REACTORS
330
3E8
102
}
330
3E8
100
AcDbXrecord
280
     1
102
RTVSPropertyOp0
 70
     1
102
RTVSPropertyOp1
 70
     1
102
RTVSPropertyOp2
 70
     1
102
RTVSPropertyOp3
 70
     1
102
RTVSPropertyOp4
 70
     1
102
RTVSPropertyOp5
 70
     1
102
RTVSPropertyOp6
 70
     1
102
RTVSPropertyOp7
 70
     1
102
RTVSPropertyOp8
 70
     1
102
RTVSPropertyOp9
 70
     1
102
RTVSPropertyOp10
 70
     1
102
RTVSPropertyOp11
 70
     1
102
RTVSPropertyOp12
 70
     1
102
RTVSPropertyOp13
 70
     1
102
RTVSPropertyOp14
 70
     1
102
RTVSPropertyOp15
 70
     1
102
RTVSPropertyOp16
 70
     1
102
RTVSPropertyOp17
 70
     1
102
RTVSPropertyOp18
 70
     1
102
RTVSPropertyOp19
 70
     1
102
RTVSPropertyOp20
 70
     1
102
RTVSPropertyOp21
 70
     1
102
RTVSPropertyOp22
 70
     1
102
RTVSPropertyOp23
 70
     1
102
RTVSPropertyOp24
 70
     1
102
RTVSPropertyOp25
 70
     1
102
RTVSPropertyOp26
 70
     1
102
RTVSPropertyOp27
 70
     1
102
RTVSPropertyOp28
 70
     1
102
RTVSPropertyOp29
 70
     1
102
RTVSPropertyOp30
 70
     1
102
RTVSPropertyOp31
 70
     1
102
RTVSPropertyOp32
 70
     1
102
RTVSPropertyOp33
 70
     1
102
RTVSPropertyOp34
 70
     1
102
RTVSPropertyOp35
 70
     1
102
RTVSPropertyOp36
 70
     1
102
RTVSPropertyOp37
 70
     1
102
RTVSPropertyOp38
 70
     1
102
RTVSPropertyOp39
 70
     1
102
RTVSPropertyOp40
 70
     1
102
RTVSPropertyOp41
 70
     1
102
RTVSPropertyOp42
 70
     1
102
RTVSPropertyOp43
 70
     1
102
RTVSPropertyOp44
 70
     1
102
RTVSPropertyOp45
 70
     1
102
RTVSPropertyOp46
 70
     1
102
RTVSPropertyOp47
 70
     1
102
RTVSPropertyOp48
 70
     1
102
RTVSPropertyOp49
 70
     1
102
RTVSPropertyOp50
 70
     1
102
RTVSPropertyOp51
 70
     0
102
RTVSPropertyOp52
 70
     0
102
RTVSPropertyOp53
 70
     1
102
RTVSPropertyOp54
 70
     1
102
RTVSPropertyOp55
 70
     1
102
RTVSPropertyOp56
 70
     1
102
RTVSPropertyOp57
 70
     1
102
RTVSPost2010Prop28
280
     1
102
RTVSPost2010PropOp28
 70
     1
102
RTVSPost2010Prop29
280
     1
102
RTVSPost2010PropOp29
 70
     1
102
RTVSPost2010Prop30
280
     0
102
RTVSPost2010PropOp30
 70
     1
102
RTVSPost2010Prop31
280
     0
102
RTVSPost2010PropOp31
 70
     1
102
RTVSPost2010Prop32
280
     0
102
RTVSPost2010PropOp32
 70
     1
102
RTVSPost2010Prop33
280
     0
102
RTVSPost2010PropOp33
 70
     1
102
RTVSPost2010Prop34
280
     0
102
RTVSPost2010PropOp34
 70
     1
102
RTVSPost2010Prop35
280
     0
102
RTVSPost2010PropOp35
 70
     1
102
RTVSPost2010Prop36
280
     0
102
RTVSPost2010PropOp36
 70
     1
102
RTVSPost2010Prop37
 90
       50
102
RTVSPost2010PropOp37
 70
     1
102
RTVSPost2010Prop38
140
0.0
102
RTVSPost2010PropOp38
 70
     1
102
RTVSPost2010Prop39
140
1.0
102
RTVSPost2010PropOp39
 70
     1
102
RTVSPost2010Prop40
 90
        0
102
RTVSPost2010PropOp40
 70
     1
102
RTVSPost2010Prop41ColorIndex
 90
       18
102
RTVSPost2010Prop41ColorRGB
 90
        0
102
RTVSPost2010PropOp41
 70
     1
102
RTVSPost2010Prop42
 90
       50
102
RTVSPost2010PropOp42
 70
     1
102
RTVSPost2010Prop43
 90
        3
102
RTVSPost2010PropOp43
 70
     1
102
RTVSPost2010Prop44ColorIndex
 90
        5
102
RTVSPost2010Prop44ColorRGB
 90
      255
102
RTVSPost2010PropOp44
 70
     1
102
RTVSPost2010Prop45
280
     0
102
RTVSPost2010PropOp45
 70
     1
102
RTVSPost2010Prop46
 90
       50
102
RTVSPost2010PropOp46
 70
     1
102
RTVSPost2010Prop47
 90
       50
102
RTVSPost2010PropOp47
 70
     1
102
RTVSPost2010Prop48
 90
       50
102
RTVSPost2010PropOp48
 70
     1
102
RTVSPost2010Prop49
280
     0
102
RTVSPost2010PropOp49
 70
     1
102
RTVSPost2010Prop50
 90
       50
102
RTVSPost2010PropOp50
 70
     1
102
RTVSPost2010Prop51ColorIndex
 90
      256
102
RTVSPost2010Prop51ColorRGB
 90
-16777216
102
RTVSPost2010PropOp51
 70
     0
102
RTVSPost2010Prop52
140
1.0
102
RTVSPost2010PropOp52
 70
     0
102
RTVSPost2010Prop53
 90
        2
102
RTVSPost2010PropOp53
 70
     1
102
RTVSPost2010Prop54
  1
strokes_ogs.tif
102
RTVSPost2010PropOp54
 70
     1
102
RTVSPost2010Prop55
280
     0
102
RTVSPost2010PropOp55
 70
     1
102
RTVSPost2010Prop56
140
1.0
102
RTVSPost2010PropOp56
 70
     1
102
RTVSPost2010Prop57
140
1.0
102
RTVSPost2010PropOp57
 70
     1
  0
XRECORD
  5
3EF
102
{ACAD_REACTORS
330
3EE
102
}
330
3EE
100
AcDbXrecord
280
     1
102
RTVSPropertyOp0
 70
     1
102
RTVSPropertyOp1
 70
     1
102
RTVSPropertyOp2
 70
     1
102
RTVSPropertyOp3
 70
     1
102
RTVSPropertyOp4
 70
     1
102
RTVSPropertyOp5
 70
     1
102
RTVSPropertyOp6
 70
     1
102
RTVSPropertyOp7
 70
     1
102
RTVSPropertyOp8
 70
     1
102
RTVSPropertyOp9
 70
     1
102
RTVSPropertyOp10
 70
     1
102
RTVSPropertyOp11
 70
     1
102
RTVSPropertyOp12
 70
     1
102
RTVSPropertyOp13
 70
     1
102
RTVSPropertyOp14
 70
     1
102
RTVSPropertyOp15
 70
     1
102
RTVSPropertyOp16
 70
     1
102
RTVSPropertyOp17
 70
     1
102
RTVSPropertyOp18
 70
     1
102
RTVSPropertyOp19
 70
     1
102
RTVSPropertyOp20
 70
     1
102
RTVSPropertyOp21
 70
     1
102
RTVSPropertyOp22
 70
     1
102
RTVSPropertyOp23
 70
     1
102
RTVSPropertyOp24
 70
     1
102
RTVSPropertyOp25
 70
     1
102
RTVSPropertyOp26
 70
     1
102
RTVSPropertyOp27
 70
     1
102
RTVSPropertyOp28
 70
     1
102
RTVSPropertyOp29
 70
     1
102
RTVSPropertyOp30
 70
     1
102
RTVSPropertyOp31
 70
     1
102
RTVSPropertyOp32
 70
     1
102
RTVSPropertyOp33
 70
     1
102
RTVSPropertyOp34
 70
     1
102
RTVSPropertyOp35
 70
     1
102
RTVSPropertyOp36
 70
     1
102
RTVSPropertyOp37
 70
     1
102
RTVSPropertyOp38
 70
     1
102
RTVSPropertyOp39
 70
     1
102
RTVSPropertyOp40
 70
     1
102
RTVSPropertyOp41
 70
     1
102
RTVSPropertyOp42
 70
     1
102
RTVSPropertyOp43
 70
     1
102
RTVSPropertyOp44
 70
     1
102
RTVSPropertyOp45
 70
     1
102
RTVSPropertyOp46
 70
     1
102
RTVSPropertyOp47
 70
     1
102
RTVSPropertyOp48
 70
     1
102
RTVSPropertyOp49
 70
     1
102
RTVSPropertyOp50
 70
     1
102
RTVSPropertyOp51
 70
     0
102
RTVSPropertyOp52
 70
     0
102
RTVSPropertyOp53
 70
     1
102
RTVSPropertyOp54
 70
     1
102
RTVSPropertyOp55
 70
     1
102
RTVSPropertyOp56
 70
     1
102
RTVSPropertyOp57
 70
     1
102
RTVSPost2010Prop28
280
     0
102
RTVSPost2010PropOp28
 70
     1
102
RTVSPost2010Prop29
280
     1
102
RTVSPost2010PropOp29
 70
     1
102
RTVSPost2010Prop30
280
     1
102
RTVSPost2010PropOp30
 70
     1
102
RTVSPost2010Prop31
280
     0
102
RTVSPost2010PropOp31
 70
     1
102
RTVSPost2010Prop32
280
     0
102
RTVSPost2010PropOp32
 70
     1
102
RTVSPost2010Prop33
280
     0
102
RTVSPost2010PropOp33
 70
     1
102
RTVSPost2010Prop34
280
     0
102
RTVSPost2010PropOp34
 70
     1
102
RTVSPost2010Prop35
280
     0
102
RTVSPost2010PropOp35
 70
     1
102
RTVSPost2010Prop36
280
     0
102
RTVSPost2010PropOp36
 70
     1
102
RTVSPost2010Prop37
 90
       50
102
RTVSPost2010PropOp37
 70
     1
102
RTVSPost2010Prop38
140
0.0
102
RTVSPost2010PropOp38
 70
     1
102
RTVSPost2010Prop39
140
1.0
102
RTVSPost2010PropOp39
 70
     1
102
RTVSPost2010Prop40
 90
        0
102
RTVSPost2010PropOp40
 70
     1
102
RTVSPost2010Prop41ColorIndex
 90
       18
102
RTVSPost2010Prop41ColorRGB
 90
        0
102
RTVSPost2010PropOp41
 70
     1
102
RTVSPost2010Prop42
 90
       50
102
RTVSPost2010PropOp42
 70
     1
102
RTVSPost2010Prop43
 90
        3
102
RTVSPost2010PropOp43
 70
     1
102
RTVSPost2010Prop44ColorIndex
 90
        5
102
RTVSPost2010Prop44ColorRGB
 90
      255
102
RTVSPost2010PropOp44
 70
     1
102
RTVSPost2010Prop45
280
     0
102
RTVSPost2010PropOp45
 70
     1
102
RTVSPost2010Prop46
 90
       50
102
RTVSPost2010PropOp46
 70
     1
102
RTVSPost2010Prop47
 90
       50
102
RTVSPost2010PropOp47
 70
     1
102
RTVSPost2010Prop48
 90
       50
102
RTVSPost2010PropOp48
 70
     1
102
RTVSPost2010Prop49
280
     0
102
RTVSPost2010PropOp49
 70
     1
102
RTVSPost2010Prop50
 90
       50
102
RTVSPost2010PropOp50
 70
     1
102
RTVSPost2010Prop51ColorIndex
 90
      256
102
RTVSPost2010Prop51ColorRGB
 90
-16777216
102
RTVSPost2010PropOp51
 70
     0
102
RTVSPost2010Prop52
140
1.0
102
RTVSPost2010PropOp52
 70
     0
102
RTVSPost2010Prop53
 90
        2
102
RTVSPost2010PropOp53
 70
     1
102
RTVSPost2010Prop54
  1
strokes_ogs.tif
102
RTVSPost2010PropOp54
 70
     1
102
RTVSPost2010Prop55
280
     0
102
RTVSPost2010PropOp55
 70
     1
102
RTVSPost2010Prop56
140
1.0
102
RTVSPost2010PropOp56
 70
     1
102
RTVSPost2010Prop57
140
1.0
102
RTVSPost2010PropOp57
 70
     1
  0
XRECORD
  5
3F7
102
{ACAD_REACTORS
330
3F6
102
}
330
3F6
100
AcDbXrecord
280
     1
102
RTVSPropertyOp0
 70
     1
102
RTVSPropertyOp1
 70
     1
102
RTVSPropertyOp2
 70
     1
102
RTVSPropertyOp3
 70
     1
102
RTVSPropertyOp4
 70
     1
102
RTVSPropertyOp5
 70
     1
102
RTVSPropertyOp6
 70
     1
102
RTVSPropertyOp7
 70
     1
102
RTVSPropertyOp8
 70
     1
102
RTVSPropertyOp9
 70
     1
102
RTVSPropertyOp10
 70
     1
102
RTVSPropertyOp11
 70
     1
102
RTVSPropertyOp12
 70
     1
102
RTVSPropertyOp13
 70
     1
102
RTVSPropertyOp14
 70
     1
102
RTVSPropertyOp15
 70
     1
102
RTVSPropertyOp16
 70
     1
102
RTVSPropertyOp17
 70
     1
102
RTVSPropertyOp18
 70
     1
102
RTVSPropertyOp19
 70
     1
102
RTVSPropertyOp20
 70
     1
102
RTVSPropertyOp21
 70
     1
102
RTVSPropertyOp22
 70
     1
102
RTVSPropertyOp23
 70
     1
102
RTVSPropertyOp24
 70
     1
102
RTVSPropertyOp25
 70
     1
102
RTVSPropertyOp26
 70
     1
102
RTVSPropertyOp27
 70
     1
102
RTVSPropertyOp28
 70
     1
102
RTVSPropertyOp29
 70
     1
102
RTVSPropertyOp30
 70
     1
102
RTVSPropertyOp31
 70
     1
102
RTVSPropertyOp32
 70
     1
102
RTVSPropertyOp33
 70
     1
102
RTVSPropertyOp34
 70
     1
102
RTVSPropertyOp35
 70
     1
102
RTVSPropertyOp36
 70
     1
102
RTVSPropertyOp37
 70
     1
102
RTVSPropertyOp38
 70
     1
102
RTVSPropertyOp39
 70
     1
102
RTVSPropertyOp40
 70
     1
102
RTVSPropertyOp41
 70
     1
102
RTVSPropertyOp42
 70
     1
102
RTVSPropertyOp43
 70
     1
102
RTVSPropertyOp44
 70
     1
102
RTVSPropertyOp45
 70
     1
102
RTVSPropertyOp46
 70
     1
102
RTVSPropertyOp47
 70
     1
102
RTVSPropertyOp48
 70
     1
102
RTVSPropertyOp49
 70
     1
102
RTVSPropertyOp50
 70
     1
102
RTVSPropertyOp51
 70
     0
102
RTVSPropertyOp52
 70
     0
102
RTVSPropertyOp53
 70
     1
102
RTVSPropertyOp54
 70
     1
102
RTVSPropertyOp55
 70
     1
102
RTVSPropertyOp56
 70
     1
102
RTVSPropertyOp57
 70
     1
102
RTVSPost2010Prop28
280
     0
102
RTVSPost2010PropOp28
 70
     1
102
RTVSPost2010Prop29
280
     1
102
RTVSPost2010PropOp29
 70
     1
102
RTVSPost2010Prop30
280
     1
102
RTVSPost2010PropOp30
 70
     1
102
RTVSPost2010Prop31
280
     0
102
RTVSPost2010PropOp31
 70
     1
102
RTVSPost2010Prop32
280
     0
102
RTVSPost2010PropOp32
 70
     1
102
RTVSPost2010Prop33
280
     0
102
RTVSPost2010PropOp33
 70
     1
102
RTVSPost2010Prop34
280
     0
102
RTVSPost2010PropOp34
 70
     1
102
RTVSPost2010Prop35
280
     0
102
RTVSPost2010PropOp35
 70
     1
102
RTVSPost2010Prop36
280
     0
102
RTVSPost2010PropOp36
 70
     1
102
RTVSPost2010Prop37
 90
       50
102
RTVSPost2010PropOp37
 70
     1
102
RTVSPost2010Prop38
140
0.0
102
RTVSPost2010PropOp38
 70
     1
102
RTVSPost2010Prop39
140
1.0
102
RTVSPost2010PropOp39
 70
     1
102
RTVSPost2010Prop40
 90
        0
102
RTVSPost2010PropOp40
 70
     1
102
RTVSPost2010Prop41ColorIndex
 90
       18
102
RTVSPost2010Prop41ColorRGB
 90
        0
102
RTVSPost2010PropOp41
 70
     1
102
RTVSPost2010Prop42
 90
       50
102
RTVSPost2010PropOp42
 70
     1
102
RTVSPost2010Prop43
 90
        3
102
RTVSPost2010PropOp43
 70
     1
102
RTVSPost2010Prop44ColorIndex
 90
        5
102
RTVSPost2010Prop44ColorRGB
 90
      255
102
RTVSPost2010PropOp44
 70
     1
102
RTVSPost2010Prop45
280
     0
102
RTVSPost2010PropOp45
 70
     1
102
RTVSPost2010Prop46
 90
       50
102
RTVSPost2010PropOp46
 70
     1
102
RTVSPost2010Prop47
 90
       50
102
RTVSPost2010PropOp47
 70
     1
102
RTVSPost2010Prop48
 90
       50
102
RTVSPost2010PropOp48
 70
     1
102
RTVSPost2010Prop49
280
     0
102
RTVSPost2010PropOp49
 70
     1
102
RTVSPost2010Prop50
 90
       50
102
RTVSPost2010PropOp50
 70
     1
102
RTVSPost2010Prop51ColorIndex
 90
      256
102
RTVSPost2010Prop51ColorRGB
 90
-16777216
102
RTVSPost2010PropOp51
 70
     0
102
RTVSPost2010Prop52
140
1.0
102
RTVSPost2010PropOp52
 70
     0
102
RTVSPost2010Prop53
 90
        2
102
RTVSPost2010PropOp53
 70
     1
102
RTVSPost2010Prop54
  1
strokes_ogs.tif
102
RTVSPost2010PropOp54
 70
     1
102
RTVSPost2010Prop55
280
     0
102
RTVSPost2010PropOp55
 70
     1
102
RTVSPost2010Prop56
140
1.0
102
RTVSPost2010PropOp56
 70
     1
102
RTVSPost2010Prop57
140
1.0
102
RTVSPost2010PropOp57
 70
     1
  0
XRECORD
  5
3FF
102
{ACAD_REACTORS
330
3FE
102
}
330
3FE
100
AcDbXrecord
280
     1
102
RTVSPropertyOp0
 70
     1
102
RTVSPropertyOp1
 70
     1
102
RTVSPropertyOp2
 70
     1
102
RTVSPropertyOp3
 70
     1
102
RTVSPropertyOp4
 70
     1
102
RTVSPropertyOp5
 70
     1
102
RTVSPropertyOp6
 70
     1
102
RTVSPropertyOp7
 70
     1
102
RTVSPropertyOp8
 70
     1
102
RTVSPropertyOp9
 70
     1
102
RTVSPropertyOp10
 70
     1
102
RTVSPropertyOp11
 70
     1
102
RTVSPropertyOp12
 70
     1
102
RTVSPropertyOp13
 70
     1
102
RTVSPropertyOp14
 70
     1
102
RTVSPropertyOp15
 70
     1
102
RTVSPropertyOp16
 70
     1
102
RTVSPropertyOp17
 70
     1
102
RTVSPropertyOp18
 70
     1
102
RTVSPropertyOp19
 70
     1
102
RTVSPropertyOp20
 70
     1
102
RTVSPropertyOp21
 70
     1
102
RTVSPropertyOp22
 70
     1
102
RTVSPropertyOp23
 70
     1
102
RTVSPropertyOp24
 70
     1
102
RTVSPropertyOp25
 70
     1
102
RTVSPropertyOp26
 70
     1
102
RTVSPropertyOp27
 70
     1
102
RTVSPropertyOp28
 70
     1
102
RTVSPropertyOp29
 70
     1
102
RTVSPropertyOp30
 70
     1
102
RTVSPropertyOp31
 70
     1
102
RTVSPropertyOp32
 70
     1
102
RTVSPropertyOp33
 70
     1
102
RTVSPropertyOp34
 70
     1
102
RTVSPropertyOp35
 70
     1
102
RTVSPropertyOp36
 70
     1
102
RTVSPropertyOp37
 70
     1
102
RTVSPropertyOp38
 70
     1
102
RTVSPropertyOp39
 70
     1
102
RTVSPropertyOp40
 70
     1
102
RTVSPropertyOp41
 70
     1
102
RTVSPropertyOp42
 70
     1
102
RTVSPropertyOp43
 70
     1
102
RTVSPropertyOp44
 70
     1
102
RTVSPropertyOp45
 70
     1
102
RTVSPropertyOp46
 70
     1
102
RTVSPropertyOp47
 70
     1
102
RTVSPropertyOp48
 70
     1
102
RTVSPropertyOp49
 70
     1
102
RTVSPropertyOp50
 70
     1
102
RTVSPropertyOp51
 70
     0
102
RTVSPropertyOp52
 70
     0
102
RTVSPropertyOp53
 70
     1
102
RTVSPropertyOp54
 70
     1
102
RTVSPropertyOp55
 70
     1
102
RTVSPropertyOp56
 70
     1
102
RTVSPropertyOp57
 70
     1
102
RTVSPost2010Prop28
280
     0
102
RTVSPost2010PropOp28
 70
     1
102
RTVSPost2010Prop29
280
     1
102
RTVSPost2010PropOp29
 70
     1
102
RTVSPost2010Prop30
280
     1
102
RTVSPost2010PropOp30
 70
     1
102
RTVSPost2010Prop31
280
     0
102
RTVSPost2010PropOp31
 70
     1
102
RTVSPost2010Prop32
280
     0
102
RTVSPost2010PropOp32
 70
     1
102
RTVSPost2010Prop33
280
     0
102
RTVSPost2010PropOp33
 70
     1
102
RTVSPost2010Prop34
280
     0
102
RTVSPost2010PropOp34
 70
     1
102
RTVSPost2010Prop35
280
     0
102
RTVSPost2010PropOp35
 70
     1
102
RTVSPost2010Prop36
280
     0
102
RTVSPost2010PropOp36
 70
     1
102
RTVSPost2010Prop37
 90
       50
102
RTVSPost2010PropOp37
 70
     1
102
RTVSPost2010Prop38
140
0.0
102
RTVSPost2010PropOp38
 70
     1
102
RTVSPost2010Prop39
140
1.0
102
RTVSPost2010PropOp39
 70
     1
102
RTVSPost2010Prop40
 90
        0
102
RTVSPost2010PropOp40
 70
     1
102
RTVSPost2010Prop41ColorIndex
 90
       18
102
RTVSPost2010Prop41ColorRGB
 90
        0
102
RTVSPost2010PropOp41
 70
     1
102
RTVSPost2010Prop42
 90
       50
102
RTVSPost2010PropOp42
 70
     1
102
RTVSPost2010Prop43
 90
        3
102
RTVSPost2010PropOp43
 70
     1
102
RTVSPost2010Prop44ColorIndex
 90
        5
102
RTVSPost2010Prop44ColorRGB
 90
      255
102
RTVSPost2010PropOp44
 70
     1
102
RTVSPost2010Prop45
280
     0
102
RTVSPost2010PropOp45
 70
     1
102
RTVSPost2010Prop46
 90
       50
102
RTVSPost2010PropOp46
 70
     1
102
RTVSPost2010Prop47
 90
       50
102
RTVSPost2010PropOp47
 70
     1
102
RTVSPost2010Prop48
 90
       50
102
RTVSPost2010PropOp48
 70
     1
102
RTVSPost2010Prop49
280
     0
102
RTVSPost2010PropOp49
 70
     1
102
RTVSPost2010Prop50
 90
       50
102
RTVSPost2010PropOp50
 70
     1
102
RTVSPost2010Prop51ColorIndex
 90
      256
102
RTVSPost2010Prop51ColorRGB
 90
-16777216
102
RTVSPost2010PropOp51
 70
     0
102
RTVSPost2010Prop52
140
1.0
102
RTVSPost2010PropOp52
 70
     0
102
RTVSPost2010Prop53
 90
        2
102
RTVSPost2010PropOp53
 70
     1
102
RTVSPost2010Prop54
  1
strokes_ogs.tif
102
RTVSPost2010PropOp54
 70
     1
102
RTVSPost2010Prop55
280
     0
102
RTVSPost2010PropOp55
 70
     1
102
RTVSPost2010Prop56
140
1.0
102
RTVSPost2010PropOp56
 70
     1
102
RTVSPost2010Prop57
140
1.0
102
RTVSPost2010PropOp57
 70
     1
  0
XRECORD
  5
3F3
102
{ACAD_REACTORS
330
3F2
102
}
330
3F2
100
AcDbXrecord
280
     1
102
RTVSPropertyOp0
 70
     1
102
RTVSPropertyOp1
 70
     1
102
RTVSPropertyOp2
 70
     1
102
RTVSPropertyOp3
 70
     1
102
RTVSPropertyOp4
 70
     1
102
RTVSPropertyOp5
 70
     1
102
RTVSPropertyOp6
 70
     1
102
RTVSPropertyOp7
 70
     1
102
RTVSPropertyOp8
 70
     1
102
RTVSPropertyOp9
 70
     1
102
RTVSPropertyOp10
 70
     1
102
RTVSPropertyOp11
 70
     1
102
RTVSPropertyOp12
 70
     1
102
RTVSPropertyOp13
 70
     1
102
RTVSPropertyOp14
 70
     1
102
RTVSPropertyOp15
 70
     1
102
RTVSPropertyOp16
 70
     1
102
RTVSPropertyOp17
 70
     1
102
RTVSPropertyOp18
 70
     1
102
RTVSPropertyOp19
 70
     1
102
RTVSPropertyOp20
 70
     1
102
RTVSPropertyOp21
 70
     1
102
RTVSPropertyOp22
 70
     1
102
RTVSPropertyOp23
 70
     1
102
RTVSPropertyOp24
 70
     1
102
RTVSPropertyOp25
 70
     1
102
RTVSPropertyOp26
 70
     1
102
RTVSPropertyOp27
 70
     1
102
RTVSPropertyOp28
 70
     1
102
RTVSPropertyOp29
 70
     1
102
RTVSPropertyOp30
 70
     1
102
RTVSPropertyOp31
 70
     1
102
RTVSPropertyOp32
 70
     1
102
RTVSPropertyOp33
 70
     1
102
RTVSPropertyOp34
 70
     1
102
RTVSPropertyOp35
 70
     1
102
RTVSPropertyOp36
 70
     1
102
RTVSPropertyOp37
 70
     1
102
RTVSPropertyOp38
 70
     1
102
RTVSPropertyOp39
 70
     1
102
RTVSPropertyOp40
 70
     1
102
RTVSPropertyOp41
 70
     1
102
RTVSPropertyOp42
 70
     1
102
RTVSPropertyOp43
 70
     1
102
RTVSPropertyOp44
 70
     1
102
RTVSPropertyOp45
 70
     1
102
RTVSPropertyOp46
 70
     1
102
RTVSPropertyOp47
 70
     1
102
RTVSPropertyOp48
 70
     1
102
RTVSPropertyOp49
 70
     1
102
RTVSPropertyOp50
 70
     1
102
RTVSPropertyOp51
 70
     0
102
RTVSPropertyOp52
 70
     0
102
RTVSPropertyOp53
 70
     1
102
RTVSPropertyOp54
 70
     1
102
RTVSPropertyOp55
 70
     1
102
RTVSPropertyOp56
 70
     1
102
RTVSPropertyOp57
 70
     1
102
RTVSPost2010Prop28
280
     0
102
RTVSPost2010PropOp28
 70
     1
102
RTVSPost2010Prop29
280
     1
102
RTVSPost2010PropOp29
 70
     1
102
RTVSPost2010Prop30
280
     1
102
RTVSPost2010PropOp30
 70
     1
102
RTVSPost2010Prop31
280
     0
102
RTVSPost2010PropOp31
 70
     1
102
RTVSPost2010Prop32
280
     0
102
RTVSPost2010PropOp32
 70
     1
102
RTVSPost2010Prop33
280
     0
102
RTVSPost2010PropOp33
 70
     1
102
RTVSPost2010Prop34
280
     0
102
RTVSPost2010PropOp34
 70
     1
102
RTVSPost2010Prop35
280
     0
102
RTVSPost2010PropOp35
 70
     1
102
RTVSPost2010Prop36
280
     0
102
RTVSPost2010PropOp36
 70
     1
102
RTVSPost2010Prop37
 90
       50
102
RTVSPost2010PropOp37
 70
     1
102
RTVSPost2010Prop38
140
0.0
102
RTVSPost2010PropOp38
 70
     1
102
RTVSPost2010Prop39
140
1.0
102
RTVSPost2010PropOp39
 70
     1
102
RTVSPost2010Prop40
 90
        0
102
RTVSPost2010PropOp40
 70
     1
102
RTVSPost2010Prop41ColorIndex
 90
       18
102
RTVSPost2010Prop41ColorRGB
 90
        0
102
RTVSPost2010PropOp41
 70
     1
102
RTVSPost2010Prop42
 90
       50
102
RTVSPost2010PropOp42
 70
     1
102
RTVSPost2010Prop43
 90
        3
102
RTVSPost2010PropOp43
 70
     1
102
RTVSPost2010Prop44ColorIndex
 90
        5
102
RTVSPost2010Prop44ColorRGB
 90
      255
102
RTVSPost2010PropOp44
 70
     1
102
RTVSPost2010Prop45
280
     0
102
RTVSPost2010PropOp45
 70
     1
102
RTVSPost2010Prop46
 90
       50
102
RTVSPost2010PropOp46
 70
     1
102
RTVSPost2010Prop47
 90
       50
102
RTVSPost2010PropOp47
 70
     1
102
RTVSPost2010Prop48
 90
       50
102
RTVSPost2010PropOp48
 70
     1
102
RTVSPost2010Prop49
280
     0
102
RTVSPost2010PropOp49
 70
     1
102
RTVSPost2010Prop50
 90
       50
102
RTVSPost2010PropOp50
 70
     1
102
RTVSPost2010Prop51ColorIndex
 90
      256
102
RTVSPost2010Prop51ColorRGB
 90
-16777216
102
RTVSPost2010PropOp51
 70
     0
102
RTVSPost2010Prop52
140
1.0
102
RTVSPost2010PropOp52
 70
     0
102
RTVSPost2010Prop53
 90
        2
102
RTVSPost2010PropOp53
 70
     1
102
RTVSPost2010Prop54
  1
strokes_ogs.tif
102
RTVSPost2010PropOp54
 70
     1
102
RTVSPost2010Prop55
280
     0
102
RTVSPost2010PropOp55
 70
     1
102
RTVSPost2010Prop56
140
1.0
102
RTVSPost2010PropOp56
 70
     1
102
RTVSPost2010Prop57
140
1.0
102
RTVSPost2010PropOp57
 70
     1
  0
XRECORD
  5
3F5
102
{ACAD_REACTORS
330
3F4
102
}
330
3F4
100
AcDbXrecord
280
     1
102
RTVSPropertyOp0
 70
     1
102
RTVSPropertyOp1
 70
     1
102
RTVSPropertyOp2
 70
     1
102
RTVSPropertyOp3
 70
     1
102
RTVSPropertyOp4
 70
     1
102
RTVSPropertyOp5
 70
     1
102
RTVSPropertyOp6
 70
     1
102
RTVSPropertyOp7
 70
     1
102
RTVSPropertyOp8
 70
     1
102
RTVSPropertyOp9
 70
     1
102
RTVSPropertyOp10
 70
     1
102
RTVSPropertyOp11
 70
     1
102
RTVSPropertyOp12
 70
     1
102
RTVSPropertyOp13
 70
     1
102
RTVSPropertyOp14
 70
     1
102
RTVSPropertyOp15
 70
     1
102
RTVSPropertyOp16
 70
     1
102
RTVSPropertyOp17
 70
     1
102
RTVSPropertyOp18
 70
     1
102
RTVSPropertyOp19
 70
     1
102
RTVSPropertyOp20
 70
     1
102
RTVSPropertyOp21
 70
     1
102
RTVSPropertyOp22
 70
     1
102
RTVSPropertyOp23
 70
     1
102
RTVSPropertyOp24
 70
     1
102
RTVSPropertyOp25
 70
     1
102
RTVSPropertyOp26
 70
     1
102
RTVSPropertyOp27
 70
     1
102
RTVSPropertyOp28
 70
     1
102
RTVSPropertyOp29
 70
     1
102
RTVSPropertyOp30
 70
     1
102
RTVSPropertyOp31
 70
     1
102
RTVSPropertyOp32
 70
     1
102
RTVSPropertyOp33
 70
     1
102
RTVSPropertyOp34
 70
     1
102
RTVSPropertyOp35
 70
     1
102
RTVSPropertyOp36
 70
     1
102
RTVSPropertyOp37
 70
     1
102
RTVSPropertyOp38
 70
     1
102
RTVSPropertyOp39
 70
     1
102
RTVSPropertyOp40
 70
     1
102
RTVSPropertyOp41
 70
     1
102
RTVSPropertyOp42
 70
     1
102
RTVSPropertyOp43
 70
     1
102
RTVSPropertyOp44
 70
     1
102
RTVSPropertyOp45
 70
     1
102
RTVSPropertyOp46
 70
     1
102
RTVSPropertyOp47
 70
     1
102
RTVSPropertyOp48
 70
     1
102
RTVSPropertyOp49
 70
     1
102
RTVSPropertyOp50
 70
     1
102
RTVSPropertyOp51
 70
     0
102
RTVSPropertyOp52
 70
     0
102
RTVSPropertyOp53
 70
     1
102
RTVSPropertyOp54
 70
     1
102
RTVSPropertyOp55
 70
     1
102
RTVSPropertyOp56
 70
     1
102
RTVSPropertyOp57
 70
     1
102
RTVSPost2010Prop28
280
     0
102
RTVSPost2010PropOp28
 70
     1
102
RTVSPost2010Prop29
280
     1
102
RTVSPost2010PropOp29
 70
     1
102
RTVSPost2010Prop30
280
     1
102
RTVSPost2010PropOp30
 70
     1
102
RTVSPost2010Prop31
280
     0
102
RTVSPost2010PropOp31
 70
     1
102
RTVSPost2010Prop32
280
     0
102
RTVSPost2010PropOp32
 70
     1
102
RTVSPost2010Prop33
280
     0
102
RTVSPost2010PropOp33
 70
     1
102
RTVSPost2010Prop34
280
     0
102
RTVSPost2010PropOp34
 70
     1
102
RTVSPost2010Prop35
280
     0
102
RTVSPost2010PropOp35
 70
     1
102
RTVSPost2010Prop36
280
     0
102
RTVSPost2010PropOp36
 70
     1
102
RTVSPost2010Prop37
 90
       50
102
RTVSPost2010PropOp37
 70
     1
102
RTVSPost2010Prop38
140
0.0
102
RTVSPost2010PropOp38
 70
     1
102
RTVSPost2010Prop39
140
1.0
102
RTVSPost2010PropOp39
 70
     1
102
RTVSPost2010Prop40
 90
        0
102
RTVSPost2010PropOp40
 70
     1
102
RTVSPost2010Prop41ColorIndex
 90
       18
102
RTVSPost2010Prop41ColorRGB
 90
        0
102
RTVSPost2010PropOp41
 70
     1
102
RTVSPost2010Prop42
 90
       50
102
RTVSPost2010PropOp42
 70
     1
102
RTVSPost2010Prop43
 90
        3
102
RTVSPost2010PropOp43
 70
     1
102
RTVSPost2010Prop44ColorIndex
 90
        5
102
RTVSPost2010Prop44ColorRGB
 90
      255
102
RTVSPost2010PropOp44
 70
     1
102
RTVSPost2010Prop45
280
     0
102
RTVSPost2010PropOp45
 70
     1
102
RTVSPost2010Prop46
 90
       50
102
RTVSPost2010PropOp46
 70
     1
102
RTVSPost2010Prop47
 90
       50
102
RTVSPost2010PropOp47
 70
     1
102
RTVSPost2010Prop48
 90
       50
102
RTVSPost2010PropOp48
 70
     1
102
RTVSPost2010Prop49
280
     0
102
RTVSPost2010PropOp49
 70
     1
102
RTVSPost2010Prop50
 90
       50
102
RTVSPost2010PropOp50
 70
     1
102
RTVSPost2010Prop51ColorIndex
 90
      256
102
RTVSPost2010Prop51ColorRGB
 90
-16777216
102
RTVSPost2010PropOp51
 70
     0
102
RTVSPost2010Prop52
140
1.0
102
RTVSPost2010PropOp52
 70
     0
102
RTVSPost2010Prop53
 90
        2
102
RTVSPost2010PropOp53
 70
     1
102
RTVSPost2010Prop54
  1
strokes_ogs.tif
102
RTVSPost2010PropOp54
 70
     1
102
RTVSPost2010Prop55
280
     0
102
RTVSPost2010PropOp55
 70
     1
102
RTVSPost2010Prop56
140
1.0
102
RTVSPost2010PropOp56
 70
     1
102
RTVSPost2010Prop57
140
1.0
102
RTVSPost2010PropOp57
 70
     1
  0
XRECORD
  5
405
102
{ACAD_REACTORS
330
404
102
}
330
404
100
AcDbXrecord
280
     1
102
RTVSPropertyOp0
 70
     0
102
RTVSPropertyOp1
 70
     0
102
RTVSPropertyOp2
 70
     0
102
RTVSPropertyOp3
 70
     0
102
RTVSPropertyOp4
 70
     0
102
RTVSPropertyOp5
 70
     0
102
RTVSPropertyOp6
 70
     0
102
RTVSPropertyOp7
 70
     0
102
RTVSPropertyOp8
 70
     0
102
RTVSPropertyOp9
 70
     0
102
RTVSPropertyOp10
 70
     0
102
RTVSPropertyOp11
 70
     0
102
RTVSPropertyOp12
 70
     0
102
RTVSPropertyOp13
 70
     0
102
RTVSPropertyOp14
 70
     2
102
RTVSPropertyOp15
 70
     0
102
RTVSPropertyOp16
 70
     0
102
RTVSPropertyOp17
 70
     0
102
RTVSPropertyOp18
 70
     0
102
RTVSPropertyOp19
 70
     0
102
RTVSPropertyOp20
 70
     0
102
RTVSPropertyOp21
 70
     0
102
RTVSPropertyOp22
 70
     0
102
RTVSPropertyOp23
 70
     0
102
RTVSPropertyOp24
 70
     0
102
RTVSPropertyOp25
 70
     0
102
RTVSPropertyOp26
 70
     0
102
RTVSPropertyOp27
 70
     0
102
RTVSPropertyOp28
 70
     0
102
RTVSPropertyOp29
 70
     0
102
RTVSPropertyOp30
 70
     0
102
RTVSPropertyOp31
 70
     0
102
RTVSPropertyOp32
 70
     0
102
RTVSPropertyOp33
 70
     0
102
RTVSPropertyOp34
 70
     0
102
RTVSPropertyOp35
 70
     0
102
RTVSPropertyOp36
 70
     0
102
RTVSPropertyOp37
 70
     0
102
RTVSPropertyOp38
 70
     0
102
RTVSPropertyOp39
 70
     0
102
RTVSPropertyOp40
 70
     0
102
RTVSPropertyOp41
 70
     0
102
RTVSPropertyOp42
 70
     0
102
RTVSPropertyOp43
 70
     0
102
RTVSPropertyOp44
 70
     0
102
RTVSPropertyOp45
 70
     0
102
RTVSPropertyOp46
 70
     0
102
RTVSPropertyOp47
 70
     0
102
RTVSPropertyOp48
 70
     0
102
RTVSPropertyOp49
 70
     0
102
RTVSPropertyOp50
 70
     0
102
RTVSPropertyOp51
 70
     0
102
RTVSPropertyOp52
 70
     0
102
RTVSPropertyOp53
 70
     0
102
RTVSPropertyOp54
 70
     0
102
RTVSPropertyOp55
 70
     0
102
RTVSPropertyOp56
 70
     0
102
RTVSPropertyOp57
 70
     0
102
RTVSPost2010Prop28
280
     0
102
RTVSPost2010PropOp28
 70
     0
102
RTVSPost2010Prop29
280
     1
102
RTVSPost2010PropOp29
 70
     0
102
RTVSPost2010Prop30
280
     1
102
RTVSPost2010PropOp30
 70
     0
102
RTVSPost2010Prop31
280
     0
102
RTVSPost2010PropOp31
 70
     0
102
RTVSPost2010Prop32
280
     0
102
RTVSPost2010PropOp32
 70
     0
102
RTVSPost2010Prop33
280
     0
102
RTVSPost2010PropOp33
 70
     0
102
RTVSPost2010Prop34
280
     0
102
RTVSPost2010PropOp34
 70
     0
102
RTVSPost2010Prop35
280
     0
102
RTVSPost2010PropOp35
 70
     0
102
RTVSPost2010Prop36
280
     0
102
RTVSPost2010PropOp36
 70
     0
102
RTVSPost2010Prop37
 90
       50
102
RTVSPost2010PropOp37
 70
     0
102
RTVSPost2010Prop38
140
0.0
102
RTVSPost2010PropOp38
 70
     0
102
RTVSPost2010Prop39
140
1.0
102
RTVSPost2010PropOp39
 70
     0
102
RTVSPost2010Prop40
 90
        0
102
RTVSPost2010PropOp40
 70
     0
102
RTVSPost2010Prop41ColorIndex
 90
       18
102
RTVSPost2010Prop41ColorRGB
 90
        0
102
RTVSPost2010PropOp41
 70
     0
102
RTVSPost2010Prop42
 90
       50
102
RTVSPost2010PropOp42
 70
     0
102
RTVSPost2010Prop43
 90
        3
102
RTVSPost2010PropOp43
 70
     0
102
RTVSPost2010Prop44ColorIndex
 90
        5
102
RTVSPost2010Prop44ColorRGB
 90
      255
102
RTVSPost2010PropOp44
 70
     0
102
RTVSPost2010Prop45
280
     0
102
RTVSPost2010PropOp45
 70
     0
102
RTVSPost2010Prop46
 90
       50
102
RTVSPost2010PropOp46
 70
     0
102
RTVSPost2010Prop47
 90
       50
102
RTVSPost2010PropOp47
 70
     0
102
RTVSPost2010Prop48
 90
       50
102
RTVSPost2010PropOp48
 70
     0
102
RTVSPost2010Prop49
280
     0
102
RTVSPost2010PropOp49
 70
     0
102
RTVSPost2010Prop50
 90
       50
102
RTVSPost2010PropOp50
 70
     0
102
RTVSPost2010Prop51ColorIndex
 90
      256
102
RTVSPost2010Prop51ColorRGB
 90
-16777216
102
RTVSPost2010PropOp51
 70
     0
102
RTVSPost2010Prop52
140
1.0
102
RTVSPost2010PropOp52
 70
     0
102
RTVSPost2010Prop53
 90
        2
102
RTVSPost2010PropOp53
 70
     0
102
RTVSPost2010Prop54
  1
strokes_ogs.tif
102
RTVSPost2010PropOp54
 70
     0
102
RTVSPost2010Prop55
280
     0
102
RTVSPost2010PropOp55
 70
     0
102
RTVSPost2010Prop56
140
1.0
102
RTVSPost2010PropOp56
 70
     0
102
RTVSPost2010Prop57
140
1.0
102
RTVSPost2010PropOp57
 70
     0
  0
XRECORD
  5
3FD
102
{ACAD_REACTORS
330
3FC
102
}
330
3FC
100
AcDbXrecord
280
     1
102
RTVSPropertyOp0
 70
     1
102
RTVSPropertyOp1
 70
     1
102
RTVSPropertyOp2
 70
     1
102
RTVSPropertyOp3
 70
     1
102
RTVSPropertyOp4
 70
     1
102
RTVSPropertyOp5
 70
     1
102
RTVSPropertyOp6
 70
     1
102
RTVSPropertyOp7
 70
     1
102
RTVSPropertyOp8
 70
     1
102
RTVSPropertyOp9
 70
     1
102
RTVSPropertyOp10
 70
     1
102
RTVSPropertyOp11
 70
     1
102
RTVSPropertyOp12
 70
     1
102
RTVSPropertyOp13
 70
     1
102
RTVSPropertyOp14
 70
     1
102
RTVSPropertyOp15
 70
     1
102
RTVSPropertyOp16
 70
     1
102
RTVSPropertyOp17
 70
     1
102
RTVSPropertyOp18
 70
     1
102
RTVSPropertyOp19
 70
     1
102
RTVSPropertyOp20
 70
     1
102
RTVSPropertyOp21
 70
     1
102
RTVSPropertyOp22
 70
     1
102
RTVSPropertyOp23
 70
     1
102
RTVSPropertyOp24
 70
     1
102
RTVSPropertyOp25
 70
     1
102
RTVSPropertyOp26
 70
     1
102
RTVSPropertyOp27
 70
     1
102
RTVSPropertyOp28
 70
     1
102
RTVSPropertyOp29
 70
     1
102
RTVSPropertyOp30
 70
     1
102
RTVSPropertyOp31
 70
     1
102
RTVSPropertyOp32
 70
     1
102
RTVSPropertyOp33
 70
     1
102
RTVSPropertyOp34
 70
     1
102
RTVSPropertyOp35
 70
     1
102
RTVSPropertyOp36
 70
     1
102
RTVSPropertyOp37
 70
     1
102
RTVSPropertyOp38
 70
     1
102
RTVSPropertyOp39
 70
     1
102
RTVSPropertyOp40
 70
     1
102
RTVSPropertyOp41
 70
     1
102
RTVSPropertyOp42
 70
     1
102
RTVSPropertyOp43
 70
     1
102
RTVSPropertyOp44
 70
     1
102
RTVSPropertyOp45
 70
     1
102
RTVSPropertyOp46
 70
     1
102
RTVSPropertyOp47
 70
     1
102
RTVSPropertyOp48
 70
     1
102
RTVSPropertyOp49
 70
     1
102
RTVSPropertyOp50
 70
     1
102
RTVSPropertyOp51
 70
     0
102
RTVSPropertyOp52
 70
     0
102
RTVSPropertyOp53
 70
     1
102
RTVSPropertyOp54
 70
     1
102
RTVSPropertyOp55
 70
     1
102
RTVSPropertyOp56
 70
     1
102
RTVSPropertyOp57
 70
     1
102
RTVSPost2010Prop28
280
     0
102
RTVSPost2010PropOp28
 70
     1
102
RTVSPost2010Prop29
280
     1
102
RTVSPost2010PropOp29
 70
     1
102
RTVSPost2010Prop30
280
     1
102
RTVSPost2010PropOp30
 70
     1
102
RTVSPost2010Prop31
280
     0
102
RTVSPost2010PropOp31
 70
     1
102
RTVSPost2010Prop32
280
     0
102
RTVSPost2010PropOp32
 70
     1
102
RTVSPost2010Prop33
280
     0
102
RTVSPost2010PropOp33
 70
     1
102
RTVSPost2010Prop34
280
     0
102
RTVSPost2010PropOp34
 70
     1
102
RTVSPost2010Prop35
280
     0
102
RTVSPost2010PropOp35
 70
     1
102
RTVSPost2010Prop36
280
     0
102
RTVSPost2010PropOp36
 70
     1
102
RTVSPost2010Prop37
 90
       50
102
RTVSPost2010PropOp37
 70
     1
102
RTVSPost2010Prop38
140
0.0
102
RTVSPost2010PropOp38
 70
     1
102
RTVSPost2010Prop39
140
1.0
102
RTVSPost2010PropOp39
 70
     1
102
RTVSPost2010Prop40
 90
        0
102
RTVSPost2010PropOp40
 70
     1
102
RTVSPost2010Prop41ColorIndex
 90
       18
102
RTVSPost2010Prop41ColorRGB
 90
        0
102
RTVSPost2010PropOp41
 70
     1
102
RTVSPost2010Prop42
 90
       50
102
RTVSPost2010PropOp42
 70
     1
102
RTVSPost2010Prop43
 90
        3
102
RTVSPost2010PropOp43
 70
     1
102
RTVSPost2010Prop44ColorIndex
 90
        5
102
RTVSPost2010Prop44ColorRGB
 90
      255
102
RTVSPost2010PropOp44
 70
     1
102
RTVSPost2010Prop45
280
     0
102
RTVSPost2010PropOp45
 70
     1
102
RTVSPost2010Prop46
 90
       50
102
RTVSPost2010PropOp46
 70
     1
102
RTVSPost2010Prop47
 90
       50
102
RTVSPost2010PropOp47
 70
     1
102
RTVSPost2010Prop48
 90
       50
102
RTVSPost2010PropOp48
 70
     1
102
RTVSPost2010Prop49
280
     0
102
RTVSPost2010PropOp49
 70
     1
102
RTVSPost2010Prop50
 90
       50
102
RTVSPost2010PropOp50
 70
     1
102
RTVSPost2010Prop51ColorIndex
 90
      256
102
RTVSPost2010Prop51ColorRGB
 90
-16777216
102
RTVSPost2010PropOp51
 70
     0
102
RTVSPost2010Prop52
140
1.0
102
RTVSPost2010PropOp52
 70
     0
102
RTVSPost2010Prop53
 90
        2
102
RTVSPost2010PropOp53
 70
     1
102
RTVSPost2010Prop54
  1
strokes_ogs.tif
102
RTVSPost2010PropOp54
 70
     1
102
RTVSPost2010Prop55
280
     0
102
RTVSPost2010PropOp55
 70
     1
102
RTVSPost2010Prop56
140
1.0
102
RTVSPost2010PropOp56
 70
     1
102
RTVSPost2010Prop57
140
1.0
102
RTVSPost2010PropOp57
 70
     1
  0
XRECORD
  5
3E1
102
{ACAD_REACTORS
330
3E0
102
}
330
3E0
100
AcDbXrecord
280
     1
102
RTVSPropertyOp0
 70
     1
102
RTVSPropertyOp1
 70
     1
102
RTVSPropertyOp2
 70
     1
102
RTVSPropertyOp3
 70
     1
102
RTVSPropertyOp4
 70
     1
102
RTVSPropertyOp5
 70
     1
102
RTVSPropertyOp6
 70
     1
102
RTVSPropertyOp7
 70
     1
102
RTVSPropertyOp8
 70
     1
102
RTVSPropertyOp9
 70
     1
102
RTVSPropertyOp10
 70
     1
102
RTVSPropertyOp11
 70
     1
102
RTVSPropertyOp12
 70
     1
102
RTVSPropertyOp13
 70
     1
102
RTVSPropertyOp14
 70
     1
102
RTVSPropertyOp15
 70
     1
102
RTVSPropertyOp16
 70
     1
102
RTVSPropertyOp17
 70
     1
102
RTVSPropertyOp18
 70
     1
102
RTVSPropertyOp19
 70
     1
102
RTVSPropertyOp20
 70
     1
102
RTVSPropertyOp21
 70
     1
102
RTVSPropertyOp22
 70
     1
102
RTVSPropertyOp23
 70
     1
102
RTVSPropertyOp24
 70
     1
102
RTVSPropertyOp25
 70
     1
102
RTVSPropertyOp26
 70
     1
102
RTVSPropertyOp27
 70
     1
102
RTVSPropertyOp28
 70
     1
102
RTVSPropertyOp29
 70
     1
102
RTVSPropertyOp30
 70
     1
102
RTVSPropertyOp31
 70
     1
102
RTVSPropertyOp32
 70
     1
102
RTVSPropertyOp33
 70
     1
102
RTVSPropertyOp34
 70
     1
102
RTVSPropertyOp35
 70
     1
102
RTVSPropertyOp36
 70
     1
102
RTVSPropertyOp37
 70
     1
102
RTVSPropertyOp38
 70
     1
102
RTVSPropertyOp39
 70
     1
102
RTVSPropertyOp40
 70
     1
102
RTVSPropertyOp41
 70
     1
102
RTVSPropertyOp42
 70
     1
102
RTVSPropertyOp43
 70
     1
102
RTVSPropertyOp44
 70
     1
102
RTVSPropertyOp45
 70
     1
102
RTVSPropertyOp46
 70
     1
102
RTVSPropertyOp47
 70
     1
102
RTVSPropertyOp48
 70
     1
102
RTVSPropertyOp49
 70
     1
102
RTVSPropertyOp50
 70
     1
102
RTVSPropertyOp51
 70
     0
102
RTVSPropertyOp52
 70
     0
102
RTVSPropertyOp53
 70
     1
102
RTVSPropertyOp54
 70
     1
102
RTVSPropertyOp55
 70
     1
102
RTVSPropertyOp56
 70
     1
102
RTVSPropertyOp57
 70
     1
102
RTVSPost2010Prop28
280
     0
102
RTVSPost2010PropOp28
 70
     1
102
RTVSPost2010Prop29
280
     1
102
RTVSPost2010PropOp29
 70
     1
102
RTVSPost2010Prop30
280
     1
102
RTVSPost2010PropOp30
 70
     1
102
RTVSPost2010Prop31
280
     0
102
RTVSPost2010PropOp31
 70
     1
102
RTVSPost2010Prop32
280
     0
102
RTVSPost2010PropOp32
 70
     1
102
RTVSPost2010Prop33
280
     0
102
RTVSPost2010PropOp33
 70
     1
102
RTVSPost2010Prop34
280
     0
102
RTVSPost2010PropOp34
 70
     1
102
RTVSPost2010Prop35
280
     0
102
RTVSPost2010PropOp35
 70
     1
102
RTVSPost2010Prop36
280
     0
102
RTVSPost2010PropOp36
 70
     1
102
RTVSPost2010Prop37
 90
       50
102
RTVSPost2010PropOp37
 70
     1
102
RTVSPost2010Prop38
140
0.0
102
RTVSPost2010PropOp38
 70
     1
102
RTVSPost2010Prop39
140
1.0
102
RTVSPost2010PropOp39
 70
     1
102
RTVSPost2010Prop40
 90
        0
102
RTVSPost2010PropOp40
 70
     1
102
RTVSPost2010Prop41ColorIndex
 90
       18
102
RTVSPost2010Prop41ColorRGB
 90
        0
102
RTVSPost2010PropOp41
 70
     1
102
RTVSPost2010Prop42
 90
       50
102
RTVSPost2010PropOp42
 70
     1
102
RTVSPost2010Prop43
 90
        3
102
RTVSPost2010PropOp43
 70
     1
102
RTVSPost2010Prop44ColorIndex
 90
        5
102
RTVSPost2010Prop44ColorRGB
 90
      255
102
RTVSPost2010PropOp44
 70
     1
102
RTVSPost2010Prop45
280
     0
102
RTVSPost2010PropOp45
 70
     1
102
RTVSPost2010Prop46
 90
       50
102
RTVSPost2010PropOp46
 70
     1
102
RTVSPost2010Prop47
 90
       50
102
RTVSPost2010PropOp47
 70
     1
102
RTVSPost2010Prop48
 90
       50
102
RTVSPost2010PropOp48
 70
     1
102
RTVSPost2010Prop49
280
     0
102
RTVSPost2010PropOp49
 70
     1
102
RTVSPost2010Prop50
 90
       50
102
RTVSPost2010PropOp50
 70
     1
102
RTVSPost2010Prop51ColorIndex
 90
      256
102
RTVSPost2010Prop51ColorRGB
 90
-16777216
102
RTVSPost2010PropOp51
 70
     0
102
RTVSPost2010Prop52
140
1.0
102
RTVSPost2010PropOp52
 70
     0
102
RTVSPost2010Prop53
 90
        2
102
RTVSPost2010PropOp53
 70
     1
102
RTVSPost2010Prop54
  1
strokes_ogs.tif
102
RTVSPost2010PropOp54
 70
     1
102
RTVSPost2010Prop55
280
     0
102
RTVSPost2010PropOp55
 70
     1
102
RTVSPost2010Prop56
140
1.0
102
RTVSPost2010PropOp56
 70
     1
102
RTVSPost2010Prop57
140
1.0
102
RTVSPost2010PropOp57
 70
     1
  0
XRECORD
  5
3E3
102
{ACAD_REACTORS
330
3E2
102
}
330
3E2
100
AcDbXrecord
280
     1
102
RTVSPropertyOp0
 70
     1
102
RTVSPropertyOp1
 70
     1
102
RTVSPropertyOp2
 70
     1
102
RTVSPropertyOp3
 70
     1
102
RTVSPropertyOp4
 70
     1
102
RTVSPropertyOp5
 70
     1
102
RTVSPropertyOp6
 70
     1
102
RTVSPropertyOp7
 70
     1
102
RTVSPropertyOp8
 70
     1
102
RTVSPropertyOp9
 70
     1
102
RTVSPropertyOp10
 70
     1
102
RTVSPropertyOp11
 70
     1
102
RTVSPropertyOp12
 70
     1
102
RTVSPropertyOp13
 70
     1
102
RTVSPropertyOp14
 70
     1
102
RTVSPropertyOp15
 70
     1
102
RTVSPropertyOp16
 70
     1
102
RTVSPropertyOp17
 70
     1
102
RTVSPropertyOp18
 70
     1
102
RTVSPropertyOp19
 70
     1
102
RTVSPropertyOp20
 70
     1
102
RTVSPropertyOp21
 70
     1
102
RTVSPropertyOp22
 70
     1
102
RTVSPropertyOp23
 70
     1
102
RTVSPropertyOp24
 70
     1
102
RTVSPropertyOp25
 70
     1
102
RTVSPropertyOp26
 70
     1
102
RTVSPropertyOp27
 70
     1
102
RTVSPropertyOp28
 70
     1
102
RTVSPropertyOp29
 70
     1
102
RTVSPropertyOp30
 70
     1
102
RTVSPropertyOp31
 70
     1
102
RTVSPropertyOp32
 70
     1
102
RTVSPropertyOp33
 70
     1
102
RTVSPropertyOp34
 70
     1
102
RTVSPropertyOp35
 70
     1
102
RTVSPropertyOp36
 70
     1
102
RTVSPropertyOp37
 70
     1
102
RTVSPropertyOp38
 70
     1
102
RTVSPropertyOp39
 70
     1
102
RTVSPropertyOp40
 70
     1
102
RTVSPropertyOp41
 70
     1
102
RTVSPropertyOp42
 70
     1
102
RTVSPropertyOp43
 70
     1
102
RTVSPropertyOp44
 70
     1
102
RTVSPropertyOp45
 70
     1
102
RTVSPropertyOp46
 70
     1
102
RTVSPropertyOp47
 70
     1
102
RTVSPropertyOp48
 70
     1
102
RTVSPropertyOp49
 70
     1
102
RTVSPropertyOp50
 70
     1
102
RTVSPropertyOp51
 70
     0
102
RTVSPropertyOp52
 70
     0
102
RTVSPropertyOp53
 70
     1
102
RTVSPropertyOp54
 70
     1
102
RTVSPropertyOp55
 70
     1
102
RTVSPropertyOp56
 70
     1
102
RTVSPropertyOp57
 70
     1
102
RTVSPost2010Prop28
280
     0
102
RTVSPost2010PropOp28
 70
     1
102
RTVSPost2010Prop29
280
     1
102
RTVSPost2010PropOp29
 70
     1
102
RTVSPost2010Prop30
280
     1
102
RTVSPost2010PropOp30
 70
     1
102
RTVSPost2010Prop31
280
     0
102
RTVSPost2010PropOp31
 70
     1
102
RTVSPost2010Prop32
280
     0
102
RTVSPost2010PropOp32
 70
     1
102
RTVSPost2010Prop33
280
     0
102
RTVSPost2010PropOp33
 70
     1
102
RTVSPost2010Prop34
280
     0
102
RTVSPost2010PropOp34
 70
     1
102
RTVSPost2010Prop35
280
     0
102
RTVSPost2010PropOp35
 70
     1
102
RTVSPost2010Prop36
280
     0
102
RTVSPost2010PropOp36
 70
     1
102
RTVSPost2010Prop37
 90
       50
102
RTVSPost2010PropOp37
 70
     1
102
RTVSPost2010Prop38
140
0.0
102
RTVSPost2010PropOp38
 70
     1
102
RTVSPost2010Prop39
140
1.0
102
RTVSPost2010PropOp39
 70
     1
102
RTVSPost2010Prop40
 90
        0
102
RTVSPost2010PropOp40
 70
     1
102
RTVSPost2010Prop41ColorIndex
 90
       18
102
RTVSPost2010Prop41ColorRGB
 90
        0
102
RTVSPost2010PropOp41
 70
     1
102
RTVSPost2010Prop42
 90
       50
102
RTVSPost2010PropOp42
 70
     1
102
RTVSPost2010Prop43
 90
        3
102
RTVSPost2010PropOp43
 70
     1
102
RTVSPost2010Prop44ColorIndex
 90
        5
102
RTVSPost2010Prop44ColorRGB
 90
      255
102
RTVSPost2010PropOp44
 70
     1
102
RTVSPost2010Prop45
280
     0
102
RTVSPost2010PropOp45
 70
     1
102
RTVSPost2010Prop46
 90
       50
102
RTVSPost2010PropOp46
 70
     1
102
RTVSPost2010Prop47
 90
       50
102
RTVSPost2010PropOp47
 70
     1
102
RTVSPost2010Prop48
 90
       50
102
RTVSPost2010PropOp48
 70
     1
102
RTVSPost2010Prop49
280
     0
102
RTVSPost2010PropOp49
 70
     1
102
RTVSPost2010Prop50
 90
       50
102
RTVSPost2010PropOp50
 70
     1
102
RTVSPost2010Prop51ColorIndex
 90
      256
102
RTVSPost2010Prop51ColorRGB
 90
-16777216
102
RTVSPost2010PropOp51
 70
     0
102
RTVSPost2010Prop52
140
1.0
102
RTVSPost2010PropOp52
 70
     0
102
RTVSPost2010Prop53
 90
        2
102
RTVSPost2010PropOp53
 70
     1
102
RTVSPost2010Prop54
  1
strokes_ogs.tif
102
RTVSPost2010PropOp54
 70
     1
102
RTVSPost2010Prop55
280
     0
102
RTVSPost2010PropOp55
 70
     1
102
RTVSPost2010Prop56
140
1.0
102
RTVSPost2010PropOp56
 70
     1
102
RTVSPost2010Prop57
140
1.0
102
RTVSPost2010PropOp57
 70
     1
  0
XRECORD
  5
3E5
102
{ACAD_REACTORS
330
3E4
102
}
330
3E4
100
AcDbXrecord
280
     1
102
RTVSPropertyOp0
 70
     1
102
RTVSPropertyOp1
 70
     1
102
RTVSPropertyOp2
 70
     1
102
RTVSPropertyOp3
 70
     1
102
RTVSPropertyOp4
 70
     1
102
RTVSPropertyOp5
 70
     1
102
RTVSPropertyOp6
 70
     1
102
RTVSPropertyOp7
 70
     1
102
RTVSPropertyOp8
 70
     1
102
RTVSPropertyOp9
 70
     1
102
RTVSPropertyOp10
 70
     1
102
RTVSPropertyOp11
 70
     1
102
RTVSPropertyOp12
 70
     1
102
RTVSPropertyOp13
 70
     1
102
RTVSPropertyOp14
 70
     1
102
RTVSPropertyOp15
 70
     1
102
RTVSPropertyOp16
 70
     1
102
RTVSPropertyOp17
 70
     1
102
RTVSPropertyOp18
 70
     1
102
RTVSPropertyOp19
 70
     1
102
RTVSPropertyOp20
 70
     1
102
RTVSPropertyOp21
 70
     1
102
RTVSPropertyOp22
 70
     1
102
RTVSPropertyOp23
 70
     1
102
RTVSPropertyOp24
 70
     1
102
RTVSPropertyOp25
 70
     1
102
RTVSPropertyOp26
 70
     1
102
RTVSPropertyOp27
 70
     1
102
RTVSPropertyOp28
 70
     1
102
RTVSPropertyOp29
 70
     1
102
RTVSPropertyOp30
 70
     1
102
RTVSPropertyOp31
 70
     1
102
RTVSPropertyOp32
 70
     1
102
RTVSPropertyOp33
 70
     1
102
RTVSPropertyOp34
 70
     1
102
RTVSPropertyOp35
 70
     1
102
RTVSPropertyOp36
 70
     1
102
RTVSPropertyOp37
 70
     1
102
RTVSPropertyOp38
 70
     1
102
RTVSPropertyOp39
 70
     1
102
RTVSPropertyOp40
 70
     1
102
RTVSPropertyOp41
 70
     1
102
RTVSPropertyOp42
 70
     1
102
RTVSPropertyOp43
 70
     1
102
RTVSPropertyOp44
 70
     1
102
RTVSPropertyOp45
 70
     1
102
RTVSPropertyOp46
 70
     1
102
RTVSPropertyOp47
 70
     1
102
RTVSPropertyOp48
 70
     1
102
RTVSPropertyOp49
 70
     1
102
RTVSPropertyOp50
 70
     1
102
RTVSPropertyOp51
 70
     0
102
RTVSPropertyOp52
 70
     0
102
RTVSPropertyOp53
 70
     1
102
RTVSPropertyOp54
 70
     1
102
RTVSPropertyOp55
 70
     1
102
RTVSPropertyOp56
 70
     1
102
RTVSPropertyOp57
 70
     1
102
RTVSPost2010Prop28
280
     0
102
RTVSPost2010PropOp28
 70
     1
102
RTVSPost2010Prop29
280
     1
102
RTVSPost2010PropOp29
 70
     1
102
RTVSPost2010Prop30
280
     1
102
RTVSPost2010PropOp30
 70
     1
102
RTVSPost2010Prop31
280
     0
102
RTVSPost2010PropOp31
 70
     1
102
RTVSPost2010Prop32
280
     0
102
RTVSPost2010PropOp32
 70
     1
102
RTVSPost2010Prop33
280
     0
102
RTVSPost2010PropOp33
 70
     1
102
RTVSPost2010Prop34
280
     0
102
RTVSPost2010PropOp34
 70
     1
102
RTVSPost2010Prop35
280
     0
102
RTVSPost2010PropOp35
 70
     1
102
RTVSPost2010Prop36
280
     0
102
RTVSPost2010PropOp36
 70
     1
102
RTVSPost2010Prop37
 90
       50
102
RTVSPost2010PropOp37
 70
     1
102
RTVSPost2010Prop38
140
0.0
102
RTVSPost2010PropOp38
 70
     1
102
RTVSPost2010Prop39
140
1.0
102
RTVSPost2010PropOp39
 70
     1
102
RTVSPost2010Prop40
 90
        0
102
RTVSPost2010PropOp40
 70
     1
102
RTVSPost2010Prop41ColorIndex
 90
       18
102
RTVSPost2010Prop41ColorRGB
 90
        0
102
RTVSPost2010PropOp41
 70
     1
102
RTVSPost2010Prop42
 90
       50
102
RTVSPost2010PropOp42
 70
     1
102
RTVSPost2010Prop43
 90
        3
102
RTVSPost2010PropOp43
 70
     1
102
RTVSPost2010Prop44ColorIndex
 90
        5
102
RTVSPost2010Prop44ColorRGB
 90
      255
102
RTVSPost2010PropOp44
 70
     1
102
RTVSPost2010Prop45
280
     0
102
RTVSPost2010PropOp45
 70
     1
102
RTVSPost2010Prop46
 90
       50
102
RTVSPost2010PropOp46
 70
     1
102
RTVSPost2010Prop47
 90
       50
102
RTVSPost2010PropOp47
 70
     1
102
RTVSPost2010Prop48
 90
       50
102
RTVSPost2010PropOp48
 70
     1
102
RTVSPost2010Prop49
280
     0
102
RTVSPost2010PropOp49
 70
     1
102
RTVSPost2010Prop50
 90
       50
102
RTVSPost2010PropOp50
 70
     1
102
RTVSPost2010Prop51ColorIndex
 90
      256
102
RTVSPost2010Prop51ColorRGB
 90
-16777216
102
RTVSPost2010PropOp51
 70
     0
102
RTVSPost2010Prop52
140
1.0
102
RTVSPost2010PropOp52
 70
     0
102
RTVSPost2010Prop53
 90
        2
102
RTVSPost2010PropOp53
 70
     1
102
RTVSPost2010Prop54
  1
strokes_ogs.tif
102
RTVSPost2010PropOp54
 70
     1
102
RTVSPost2010Prop55
280
     0
102
RTVSPost2010PropOp55
 70
     1
102
RTVSPost2010Prop56
140
1.0
102
RTVSPost2010PropOp56
 70
     1
102
RTVSPost2010Prop57
140
1.0
102
RTVSPost2010PropOp57
 70
     1
  0
XRECORD
  5
3E7
102
{ACAD_REACTORS
330
3E6
102
}
330
3E6
100
AcDbXrecord
280
     1
102
RTVSPropertyOp0
 70
     1
102
RTVSPropertyOp1
 70
     1
102
RTVSPropertyOp2
 70
     1
102
RTVSPropertyOp3
 70
     1
102
RTVSPropertyOp4
 70
     1
102
RTVSPropertyOp5
 70
     1
102
RTVSPropertyOp6
 70
     1
102
RTVSPropertyOp7
 70
     1
102
RTVSPropertyOp8
 70
     1
102
RTVSPropertyOp9
 70
     1
102
RTVSPropertyOp10
 70
     1
102
RTVSPropertyOp11
 70
     1
102
RTVSPropertyOp12
 70
     1
102
RTVSPropertyOp13
 70
     1
102
RTVSPropertyOp14
 70
     1
102
RTVSPropertyOp15
 70
     1
102
RTVSPropertyOp16
 70
     1
102
RTVSPropertyOp17
 70
     1
102
RTVSPropertyOp18
 70
     1
102
RTVSPropertyOp19
 70
     1
102
RTVSPropertyOp20
 70
     1
102
RTVSPropertyOp21
 70
     1
102
RTVSPropertyOp22
 70
     1
102
RTVSPropertyOp23
 70
     1
102
RTVSPropertyOp24
 70
     1
102
RTVSPropertyOp25
 70
     1
102
RTVSPropertyOp26
 70
     1
102
RTVSPropertyOp27
 70
     1
102
RTVSPropertyOp28
 70
     1
102
RTVSPropertyOp29
 70
     1
102
RTVSPropertyOp30
 70
     1
102
RTVSPropertyOp31
 70
     1
102
RTVSPropertyOp32
 70
     1
102
RTVSPropertyOp33
 70
     1
102
RTVSPropertyOp34
 70
     1
102
RTVSPropertyOp35
 70
     1
102
RTVSPropertyOp36
 70
     1
102
RTVSPropertyOp37
 70
     1
102
RTVSPropertyOp38
 70
     1
102
RTVSPropertyOp39
 70
     1
102
RTVSPropertyOp40
 70
     1
102
RTVSPropertyOp41
 70
     1
102
RTVSPropertyOp42
 70
     1
102
RTVSPropertyOp43
 70
     1
102
RTVSPropertyOp44
 70
     1
102
RTVSPropertyOp45
 70
     1
102
RTVSPropertyOp46
 70
     1
102
RTVSPropertyOp47
 70
     1
102
RTVSPropertyOp48
 70
     1
102
RTVSPropertyOp49
 70
     1
102
RTVSPropertyOp50
 70
     1
102
RTVSPropertyOp51
 70
     0
102
RTVSPropertyOp52
 70
     0
102
RTVSPropertyOp53
 70
     1
102
RTVSPropertyOp54
 70
     1
102
RTVSPropertyOp55
 70
     1
102
RTVSPropertyOp56
 70
     1
102
RTVSPropertyOp57
 70
     1
102
RTVSPost2010Prop28
280
     0
102
RTVSPost2010PropOp28
 70
     1
102
RTVSPost2010Prop29
280
     1
102
RTVSPost2010PropOp29
 70
     1
102
RTVSPost2010Prop30
280
     1
102
RTVSPost2010PropOp30
 70
     1
102
RTVSPost2010Prop31
280
     0
102
RTVSPost2010PropOp31
 70
     1
102
RTVSPost2010Prop32
280
     0
102
RTVSPost2010PropOp32
 70
     1
102
RTVSPost2010Prop33
280
     0
102
RTVSPost2010PropOp33
 70
     1
102
RTVSPost2010Prop34
280
     0
102
RTVSPost2010PropOp34
 70
     1
102
RTVSPost2010Prop35
280
     0
102
RTVSPost2010PropOp35
 70
     1
102
RTVSPost2010Prop36
280
     0
102
RTVSPost2010PropOp36
 70
     1
102
RTVSPost2010Prop37
 90
       50
102
RTVSPost2010PropOp37
 70
     1
102
RTVSPost2010Prop38
140
0.0
102
RTVSPost2010PropOp38
 70
     1
102
RTVSPost2010Prop39
140
1.0
102
RTVSPost2010PropOp39
 70
     1
102
RTVSPost2010Prop40
 90
        0
102
RTVSPost2010PropOp40
 70
     1
102
RTVSPost2010Prop41ColorIndex
 90
       18
102
RTVSPost2010Prop41ColorRGB
 90
        0
102
RTVSPost2010PropOp41
 70
     1
102
RTVSPost2010Prop42
 90
       50
102
RTVSPost2010PropOp42
 70
     1
102
RTVSPost2010Prop43
 90
        3
102
RTVSPost2010PropOp43
 70
     1
102
RTVSPost2010Prop44ColorIndex
 90
        5
102
RTVSPost2010Prop44ColorRGB
 90
      255
102
RTVSPost2010PropOp44
 70
     1
102
RTVSPost2010Prop45
280
     0
102
RTVSPost2010PropOp45
 70
     1
102
RTVSPost2010Prop46
 90
       50
102
RTVSPost2010PropOp46
 70
     1
102
RTVSPost2010Prop47
 90
       50
102
RTVSPost2010PropOp47
 70
     1
102
RTVSPost2010Prop48
 90
       50
102
RTVSPost2010PropOp48
 70
     1
102
RTVSPost2010Prop49
280
     0
102
RTVSPost2010PropOp49
 70
     1
102
RTVSPost2010Prop50
 90
       50
102
RTVSPost2010PropOp50
 70
     1
102
RTVSPost2010Prop51ColorIndex
 90
      256
102
RTVSPost2010Prop51ColorRGB
 90
-16777216
102
RTVSPost2010PropOp51
 70
     0
102
RTVSPost2010Prop52
140
1.0
102
RTVSPost2010PropOp52
 70
     0
102
RTVSPost2010Prop53
 90
        2
102
RTVSPost2010PropOp53
 70
     1
102
RTVSPost2010Prop54
  1
strokes_ogs.tif
102
RTVSPost2010PropOp54
 70
     1
102
RTVSPost2010Prop55
280
     0
102
RTVSPost2010PropOp55
 70
     1
102
RTVSPost2010Prop56
140
1.0
102
RTVSPost2010PropOp56
 70
     1
102
RTVSPost2010Prop57
140
1.0
102
RTVSPost2010PropOp57
 70
     1
  0
XRECORD
  5
3ED
102
{ACAD_REACTORS
330
3EC
102
}
330
3EC
100
AcDbXrecord
280
     1
102
RTVSPropertyOp0
 70
     1
102
RTVSPropertyOp1
 70
     1
102
RTVSPropertyOp2
 70
     1
102
RTVSPropertyOp3
 70
     1
102
RTVSPropertyOp4
 70
     1
102
RTVSPropertyOp5
 70
     1
102
RTVSPropertyOp6
 70
     1
102
RTVSPropertyOp7
 70
     1
102
RTVSPropertyOp8
 70
     1
102
RTVSPropertyOp9
 70
     1
102
RTVSPropertyOp10
 70
     1
102
RTVSPropertyOp11
 70
     1
102
RTVSPropertyOp12
 70
     1
102
RTVSPropertyOp13
 70
     1
102
RTVSPropertyOp14
 70
     1
102
RTVSPropertyOp15
 70
     1
102
RTVSPropertyOp16
 70
     1
102
RTVSPropertyOp17
 70
     1
102
RTVSPropertyOp18
 70
     1
102
RTVSPropertyOp19
 70
     1
102
RTVSPropertyOp20
 70
     1
102
RTVSPropertyOp21
 70
     1
102
RTVSPropertyOp22
 70
     1
102
RTVSPropertyOp23
 70
     1
102
RTVSPropertyOp24
 70
     1
102
RTVSPropertyOp25
 70
     1
102
RTVSPropertyOp26
 70
     1
102
RTVSPropertyOp27
 70
     1
102
RTVSPropertyOp28
 70
     1
102
RTVSPropertyOp29
 70
     1
102
RTVSPropertyOp30
 70
     1
102
RTVSPropertyOp31
 70
     1
102
RTVSPropertyOp32
 70
     1
102
RTVSPropertyOp33
 70
     1
102
RTVSPropertyOp34
 70
     1
102
RTVSPropertyOp35
 70
     1
102
RTVSPropertyOp36
 70
     1
102
RTVSPropertyOp37
 70
     1
102
RTVSPropertyOp38
 70
     1
102
RTVSPropertyOp39
 70
     1
102
RTVSPropertyOp40
 70
     1
102
RTVSPropertyOp41
 70
     1
102
RTVSPropertyOp42
 70
     1
102
RTVSPropertyOp43
 70
     1
102
RTVSPropertyOp44
 70
     1
102
RTVSPropertyOp45
 70
     1
102
RTVSPropertyOp46
 70
     1
102
RTVSPropertyOp47
 70
     1
102
RTVSPropertyOp48
 70
     1
102
RTVSPropertyOp49
 70
     1
102
RTVSPropertyOp50
 70
     1
102
RTVSPropertyOp51
 70
     0
102
RTVSPropertyOp52
 70
     0
102
RTVSPropertyOp53
 70
     1
102
RTVSPropertyOp54
 70
     1
102
RTVSPropertyOp55
 70
     1
102
RTVSPropertyOp56
 70
     1
102
RTVSPropertyOp57
 70
     1
102
RTVSPost2010Prop28
280
     0
102
RTVSPost2010PropOp28
 70
     1
102
RTVSPost2010Prop29
280
     1
102
RTVSPost2010PropOp29
 70
     1
102
RTVSPost2010Prop30
280
     1
102
RTVSPost2010PropOp30
 70
     1
102
RTVSPost2010Prop31
280
     0
102
RTVSPost2010PropOp31
 70
     1
102
RTVSPost2010Prop32
280
     0
102
RTVSPost2010PropOp32
 70
     1
102
RTVSPost2010Prop33
280
     0
102
RTVSPost2010PropOp33
 70
     1
102
RTVSPost2010Prop34
280
     0
102
RTVSPost2010PropOp34
 70
     1
102
RTVSPost2010Prop35
280
     0
102
RTVSPost2010PropOp35
 70
     1
102
RTVSPost2010Prop36
280
     0
102
RTVSPost2010PropOp36
 70
     1
102
RTVSPost2010Prop37
 90
       50
102
RTVSPost2010PropOp37
 70
     1
102
RTVSPost2010Prop38
140
0.0
102
RTVSPost2010PropOp38
 70
     1
102
RTVSPost2010Prop39
140
1.0
102
RTVSPost2010PropOp39
 70
     1
102
RTVSPost2010Prop40
 90
        0
102
RTVSPost2010PropOp40
 70
     1
102
RTVSPost2010Prop41ColorIndex
 90
       18
102
RTVSPost2010Prop41ColorRGB
 90
        0
102
RTVSPost2010PropOp41
 70
     1
102
RTVSPost2010Prop42
 90
       50
102
RTVSPost2010PropOp42
 70
     1
102
RTVSPost2010Prop43
 90
        3
102
RTVSPost2010PropOp43
 70
     1
102
RTVSPost2010Prop44ColorIndex
 90
        5
102
RTVSPost2010Prop44ColorRGB
 90
      255
102
RTVSPost2010PropOp44
 70
     1
102
RTVSPost2010Prop45
280
     0
102
RTVSPost2010PropOp45
 70
     1
102
RTVSPost2010Prop46
 90
       50
102
RTVSPost2010PropOp46
 70
     1
102
RTVSPost2010Prop47
 90
       50
102
RTVSPost2010PropOp47
 70
     1
102
RTVSPost2010Prop48
 90
       50
102
RTVSPost2010PropOp48
 70
     1
102
RTVSPost2010Prop49
280
     0
102
RTVSPost2010PropOp49
 70
     1
102
RTVSPost2010Prop50
 90
       50
102
RTVSPost2010PropOp50
 70
     1
102
RTVSPost2010Prop51ColorIndex
 90
      256
102
RTVSPost2010Prop51ColorRGB
 90
-16777216
102
RTVSPost2010PropOp51
 70
     0
102
RTVSPost2010Prop52
140
1.0
102
RTVSPost2010PropOp52
 70
     0
102
RTVSPost2010Prop53
 90
        2
102
RTVSPost2010PropOp53
 70
     1
102
RTVSPost2010Prop54
  1
strokes_ogs.tif
102
RTVSPost2010PropOp54
 70
     1
102
RTVSPost2010Prop55
280
     0
102
RTVSPost2010PropOp55
 70
     1
102
RTVSPost2010Prop56
140
1.0
102
RTVSPost2010PropOp56
 70
     1
102
RTVSPost2010Prop57
140
1.0
102
RTVSPost2010PropOp57
 70
     1
  0
XRECORD
  5
401
102
{ACAD_REACTORS
330
400
102
}
330
400
100
AcDbXrecord
280
     1
102
RTVSPropertyOp0
 70
     0
102
RTVSPropertyOp1
 70
     0
102
RTVSPropertyOp2
 70
     0
102
RTVSPropertyOp3
 70
     0
102
RTVSPropertyOp4
 70
     0
102
RTVSPropertyOp5
 70
     0
102
RTVSPropertyOp6
 70
     0
102
RTVSPropertyOp7
 70
     0
102
RTVSPropertyOp8
 70
     0
102
RTVSPropertyOp9
 70
     0
102
RTVSPropertyOp10
 70
     0
102
RTVSPropertyOp11
 70
     0
102
RTVSPropertyOp12
 70
     0
102
RTVSPropertyOp13
 70
     0
102
RTVSPropertyOp14
 70
     2
102
RTVSPropertyOp15
 70
     0
102
RTVSPropertyOp16
 70
     0
102
RTVSPropertyOp17
 70
     0
102
RTVSPropertyOp18
 70
     0
102
RTVSPropertyOp19
 70
     0
102
RTVSPropertyOp20
 70
     0
102
RTVSPropertyOp21
 70
     0
102
RTVSPropertyOp22
 70
     0
102
RTVSPropertyOp23
 70
     0
102
RTVSPropertyOp24
 70
     0
102
RTVSPropertyOp25
 70
     0
102
RTVSPropertyOp26
 70
     0
102
RTVSPropertyOp27
 70
     0
102
RTVSPropertyOp28
 70
     0
102
RTVSPropertyOp29
 70
     0
102
RTVSPropertyOp30
 70
     0
102
RTVSPropertyOp31
 70
     0
102
RTVSPropertyOp32
 70
     0
102
RTVSPropertyOp33
 70
     0
102
RTVSPropertyOp34
 70
     0
102
RTVSPropertyOp35
 70
     0
102
RTVSPropertyOp36
 70
     0
102
RTVSPropertyOp37
 70
     0
102
RTVSPropertyOp38
 70
     0
102
RTVSPropertyOp39
 70
     0
102
RTVSPropertyOp40
 70
     0
102
RTVSPropertyOp41
 70
     0
102
RTVSPropertyOp42
 70
     0
102
RTVSPropertyOp43
 70
     0
102
RTVSPropertyOp44
 70
     0
102
RTVSPropertyOp45
 70
     0
102
RTVSPropertyOp46
 70
     0
102
RTVSPropertyOp47
 70
     0
102
RTVSPropertyOp48
 70
     0
102
RTVSPropertyOp49
 70
     0
102
RTVSPropertyOp50
 70
     0
102
RTVSPropertyOp51
 70
     0
102
RTVSPropertyOp52
 70
     0
102
RTVSPropertyOp53
 70
     0
102
RTVSPropertyOp54
 70
     0
102
RTVSPropertyOp55
 70
     0
102
RTVSPropertyOp56
 70
     0
102
RTVSPropertyOp57
 70
     0
102
RTVSPost2010Prop28
280
     0
102
RTVSPost2010PropOp28
 70
     0
102
RTVSPost2010Prop29
280
     1
102
RTVSPost2010PropOp29
 70
     0
102
RTVSPost2010Prop30
280
     1
102
RTVSPost2010PropOp30
 70
     0
102
RTVSPost2010Prop31
280
     0
102
RTVSPost2010PropOp31
 70
     0
102
RTVSPost2010Prop32
280
     0
102
RTVSPost2010PropOp32
 70
     0
102
RTVSPost2010Prop33
280
     0
102
RTVSPost2010PropOp33
 70
     0
102
RTVSPost2010Prop34
280
     0
102
RTVSPost2010PropOp34
 70
     0
102
RTVSPost2010Prop35
280
     0
102
RTVSPost2010PropOp35
 70
     0
102
RTVSPost2010Prop36
280
     0
102
RTVSPost2010PropOp36
 70
     0
102
RTVSPost2010Prop37
 90
       50
102
RTVSPost2010PropOp37
 70
     0
102
RTVSPost2010Prop38
140
0.0
102
RTVSPost2010PropOp38
 70
     0
102
RTVSPost2010Prop39
140
1.0
102
RTVSPost2010PropOp39
 70
     0
102
RTVSPost2010Prop40
 90
        0
102
RTVSPost2010PropOp40
 70
     0
102
RTVSPost2010Prop41ColorIndex
 90
       18
102
RTVSPost2010Prop41ColorRGB
 90
        0
102
RTVSPost2010PropOp41
 70
     0
102
RTVSPost2010Prop42
 90
       50
102
RTVSPost2010PropOp42
 70
     0
102
RTVSPost2010Prop43
 90
        3
102
RTVSPost2010PropOp43
 70
     0
102
RTVSPost2010Prop44ColorIndex
 90
        5
102
RTVSPost2010Prop44ColorRGB
 90
      255
102
RTVSPost2010PropOp44
 70
     0
102
RTVSPost2010Prop45
280
     0
102
RTVSPost2010PropOp45
 70
     0
102
RTVSPost2010Prop46
 90
       50
102
RTVSPost2010PropOp46
 70
     0
102
RTVSPost2010Prop47
 90
       50
102
RTVSPost2010PropOp47
 70
     0
102
RTVSPost2010Prop48
 90
       50
102
RTVSPost2010PropOp48
 70
     0
102
RTVSPost2010Prop49
280
     0
102
RTVSPost2010PropOp49
 70
     0
102
RTVSPost2010Prop50
 90
       50
102
RTVSPost2010PropOp50
 70
     0
102
RTVSPost2010Prop51ColorIndex
 90
      256
102
RTVSPost2010Prop51ColorRGB
 90
-16777216
102
RTVSPost2010PropOp51
 70
     0
102
RTVSPost2010Prop52
140
1.0
102
RTVSPost2010PropOp52
 70
     0
102
RTVSPost2010Prop53
 90
        2
102
RTVSPost2010PropOp53
 70
     0
102
RTVSPost2010Prop54
  1
strokes_ogs.tif
102
RTVSPost2010PropOp54
 70
     0
102
RTVSPost2010Prop55
280
     0
102
RTVSPost2010PropOp55
 70
     0
102
RTVSPost2010Prop56
140
1.0
102
RTVSPost2010PropOp56
 70
     0
102
RTVSPost2010Prop57
140
1.0
102
RTVSPost2010PropOp57
 70
     0
  0
XRECORD
  5
3FB
102
{ACAD_REACTORS
330
3FA
102
}
330
3FA
100
AcDbXrecord
280
     1
102
RTVSPropertyOp0
 70
     1
102
RTVSPropertyOp1
 70
     1
102
RTVSPropertyOp2
 70
     1
102
RTVSPropertyOp3
 70
     1
102
RTVSPropertyOp4
 70
     1
102
RTVSPropertyOp5
 70
     1
102
RTVSPropertyOp6
 70
     1
102
RTVSPropertyOp7
 70
     1
102
RTVSPropertyOp8
 70
     1
102
RTVSPropertyOp9
 70
     1
102
RTVSPropertyOp10
 70
     1
102
RTVSPropertyOp11
 70
     1
102
RTVSPropertyOp12
 70
     1
102
RTVSPropertyOp13
 70
     1
102
RTVSPropertyOp14
 70
     1
102
RTVSPropertyOp15
 70
     1
102
RTVSPropertyOp16
 70
     1
102
RTVSPropertyOp17
 70
     1
102
RTVSPropertyOp18
 70
     1
102
RTVSPropertyOp19
 70
     1
102
RTVSPropertyOp20
 70
     1
102
RTVSPropertyOp21
 70
     1
102
RTVSPropertyOp22
 70
     1
102
RTVSPropertyOp23
 70
     1
102
RTVSPropertyOp24
 70
     1
102
RTVSPropertyOp25
 70
     1
102
RTVSPropertyOp26
 70
     1
102
RTVSPropertyOp27
 70
     1
102
RTVSPropertyOp28
 70
     1
102
RTVSPropertyOp29
 70
     1
102
RTVSPropertyOp30
 70
     1
102
RTVSPropertyOp31
 70
     1
102
RTVSPropertyOp32
 70
     1
102
RTVSPropertyOp33
 70
     1
102
RTVSPropertyOp34
 70
     1
102
RTVSPropertyOp35
 70
     1
102
RTVSPropertyOp36
 70
     1
102
RTVSPropertyOp37
 70
     1
102
RTVSPropertyOp38
 70
     1
102
RTVSPropertyOp39
 70
     1
102
RTVSPropertyOp40
 70
     1
102
RTVSPropertyOp41
 70
     1
102
RTVSPropertyOp42
 70
     1
102
RTVSPropertyOp43
 70
     1
102
RTVSPropertyOp44
 70
     1
102
RTVSPropertyOp45
 70
     1
102
RTVSPropertyOp46
 70
     1
102
RTVSPropertyOp47
 70
     1
102
RTVSPropertyOp48
 70
     1
102
RTVSPropertyOp49
 70
     1
102
RTVSPropertyOp50
 70
     1
102
RTVSPropertyOp51
 70
     0
102
RTVSPropertyOp52
 70
     0
102
RTVSPropertyOp53
 70
     1
102
RTVSPropertyOp54
 70
     1
102
RTVSPropertyOp55
 70
     1
102
RTVSPropertyOp56
 70
     1
102
RTVSPropertyOp57
 70
     1
102
RTVSPost2010Prop28
280
     0
102
RTVSPost2010PropOp28
 70
     1
102
RTVSPost2010Prop29
280
     1
102
RTVSPost2010PropOp29
 70
     1
102
RTVSPost2010Prop30
280
     1
102
RTVSPost2010PropOp30
 70
     1
102
RTVSPost2010Prop31
280
     0
102
RTVSPost2010PropOp31
 70
     1
102
RTVSPost2010Prop32
280
     0
102
RTVSPost2010PropOp32
 70
     1
102
RTVSPost2010Prop33
280
     0
102
RTVSPost2010PropOp33
 70
     1
102
RTVSPost2010Prop34
280
     0
102
RTVSPost2010PropOp34
 70
     1
102
RTVSPost2010Prop35
280
     0
102
RTVSPost2010PropOp35
 70
     1
102
RTVSPost2010Prop36
280
     0
102
RTVSPost2010PropOp36
 70
     1
102
RTVSPost2010Prop37
 90
       50
102
RTVSPost2010PropOp37
 70
     1
102
RTVSPost2010Prop38
140
0.0
102
RTVSPost2010PropOp38
 70
     1
102
RTVSPost2010Prop39
140
1.0
102
RTVSPost2010PropOp39
 70
     1
102
RTVSPost2010Prop40
 90
        0
102
RTVSPost2010PropOp40
 70
     1
102
RTVSPost2010Prop41ColorIndex
 90
       18
102
RTVSPost2010Prop41ColorRGB
 90
        0
102
RTVSPost2010PropOp41
 70
     1
102
RTVSPost2010Prop42
 90
       50
102
RTVSPost2010PropOp42
 70
     1
102
RTVSPost2010Prop43
 90
        3
102
RTVSPost2010PropOp43
 70
     1
102
RTVSPost2010Prop44ColorIndex
 90
        5
102
RTVSPost2010Prop44ColorRGB
 90
      255
102
RTVSPost2010PropOp44
 70
     1
102
RTVSPost2010Prop45
280
     0
102
RTVSPost2010PropOp45
 70
     1
102
RTVSPost2010Prop46
 90
       50
102
RTVSPost2010PropOp46
 70
     1
102
RTVSPost2010Prop47
 90
       50
102
RTVSPost2010PropOp47
 70
     1
102
RTVSPost2010Prop48
 90
       50
102
RTVSPost2010PropOp48
 70
     1
102
RTVSPost2010Prop49
280
     0
102
RTVSPost2010PropOp49
 70
     1
102
RTVSPost2010Prop50
 90
       50
102
RTVSPost2010PropOp50
 70
     1
102
RTVSPost2010Prop51ColorIndex
 90
      256
102
RTVSPost2010Prop51ColorRGB
 90
-16777216
102
RTVSPost2010PropOp51
 70
     0
102
RTVSPost2010Prop52
140
1.0
102
RTVSPost2010PropOp52
 70
     0
102
RTVSPost2010Prop53
 90
        2
102
RTVSPost2010PropOp53
 70
     1
102
RTVSPost2010Prop54
  1
strokes_ogs.tif
102
RTVSPost2010PropOp54
 70
     1
102
RTVSPost2010Prop55
280
     0
102
RTVSPost2010PropOp55
 70
     1
102
RTVSPost2010Prop56
140
1.0
102
RTVSPost2010PropOp56
 70
     1
102
RTVSPost2010Prop57
140
1.0
102
RTVSPost2010PropOp57
 70
     1
  0
XRECORD
  5
403
102
{ACAD_REACTORS
330
402
102
}
330
402
100
AcDbXrecord
280
     1
102
RTVSPropertyOp0
 70
     0
102
RTVSPropertyOp1
 70
     0
102
RTVSPropertyOp2
 70
     0
102
RTVSPropertyOp3
 70
     0
102
RTVSPropertyOp4
 70
     0
102
RTVSPropertyOp5
 70
     0
102
RTVSPropertyOp6
 70
     0
102
RTVSPropertyOp7
 70
     0
102
RTVSPropertyOp8
 70
     0
102
RTVSPropertyOp9
 70
     0
102
RTVSPropertyOp10
 70
     0
102
RTVSPropertyOp11
 70
     0
102
RTVSPropertyOp12
 70
     0
102
RTVSPropertyOp13
 70
     0
102
RTVSPropertyOp14
 70
     2
102
RTVSPropertyOp15
 70
     0
102
RTVSPropertyOp16
 70
     0
102
RTVSPropertyOp17
 70
     0
102
RTVSPropertyOp18
 70
     0
102
RTVSPropertyOp19
 70
     0
102
RTVSPropertyOp20
 70
     0
102
RTVSPropertyOp21
 70
     0
102
RTVSPropertyOp22
 70
     0
102
RTVSPropertyOp23
 70
     0
102
RTVSPropertyOp24
 70
     0
102
RTVSPropertyOp25
 70
     0
102
RTVSPropertyOp26
 70
     0
102
RTVSPropertyOp27
 70
     0
102
RTVSPropertyOp28
 70
     0
102
RTVSPropertyOp29
 70
     0
102
RTVSPropertyOp30
 70
     0
102
RTVSPropertyOp31
 70
     0
102
RTVSPropertyOp32
 70
     0
102
RTVSPropertyOp33
 70
     0
102
RTVSPropertyOp34
 70
     0
102
RTVSPropertyOp35
 70
     0
102
RTVSPropertyOp36
 70
     0
102
RTVSPropertyOp37
 70
     0
102
RTVSPropertyOp38
 70
     0
102
RTVSPropertyOp39
 70
     0
102
RTVSPropertyOp40
 70
     0
102
RTVSPropertyOp41
 70
     0
102
RTVSPropertyOp42
 70
     0
102
RTVSPropertyOp43
 70
     0
102
RTVSPropertyOp44
 70
     0
102
RTVSPropertyOp45
 70
     0
102
RTVSPropertyOp46
 70
     0
102
RTVSPropertyOp47
 70
     0
102
RTVSPropertyOp48
 70
     0
102
RTVSPropertyOp49
 70
     0
102
RTVSPropertyOp50
 70
     0
102
RTVSPropertyOp51
 70
     0
102
RTVSPropertyOp52
 70
     0
102
RTVSPropertyOp53
 70
     0
102
RTVSPropertyOp54
 70
     0
102
RTVSPropertyOp55
 70
     0
102
RTVSPropertyOp56
 70
     0
102
RTVSPropertyOp57
 70
     0
102
RTVSPost2010Prop28
280
     0
102
RTVSPost2010PropOp28
 70
     0
102
RTVSPost2010Prop29
280
     1
102
RTVSPost2010PropOp29
 70
     0
102
RTVSPost2010Prop30
280
     1
102
RTVSPost2010PropOp30
 70
     0
102
RTVSPost2010Prop31
280
     0
102
RTVSPost2010PropOp31
 70
     0
102
RTVSPost2010Prop32
280
     0
102
RTVSPost2010PropOp32
 70
     0
102
RTVSPost2010Prop33
280
     0
102
RTVSPost2010PropOp33
 70
     0
102
RTVSPost2010Prop34
280
     0
102
RTVSPost2010PropOp34
 70
     0
102
RTVSPost2010Prop35
280
     0
102
RTVSPost2010PropOp35
 70
     0
102
RTVSPost2010Prop36
280
     0
102
RTVSPost2010PropOp36
 70
     0
102
RTVSPost2010Prop37
 90
       50
102
RTVSPost2010PropOp37
 70
     0
102
RTVSPost2010Prop38
140
0.0
102
RTVSPost2010PropOp38
 70
     0
102
RTVSPost2010Prop39
140
1.0
102
RTVSPost2010PropOp39
 70
     0
102
RTVSPost2010Prop40
 90
        0
102
RTVSPost2010PropOp40
 70
     0
102
RTVSPost2010Prop41ColorIndex
 90
       18
102
RTVSPost2010Prop41ColorRGB
 90
        0
102
RTVSPost2010PropOp41
 70
     0
102
RTVSPost2010Prop42
 90
       50
102
RTVSPost2010PropOp42
 70
     0
102
RTVSPost2010Prop43
 90
        3
102
RTVSPost2010PropOp43
 70
     0
102
RTVSPost2010Prop44ColorIndex
 90
        5
102
RTVSPost2010Prop44ColorRGB
 90
      255
102
RTVSPost2010PropOp44
 70
     0
102
RTVSPost2010Prop45
280
     0
102
RTVSPost2010PropOp45
 70
     0
102
RTVSPost2010Prop46
 90
       50
102
RTVSPost2010PropOp46
 70
     0
102
RTVSPost2010Prop47
 90
       50
102
RTVSPost2010PropOp47
 70
     0
102
RTVSPost2010Prop48
 90
       50
102
RTVSPost2010PropOp48
 70
     0
102
RTVSPost2010Prop49
280
     0
102
RTVSPost2010PropOp49
 70
     0
102
RTVSPost2010Prop50
 90
       50
102
RTVSPost2010PropOp50
 70
     0
102
RTVSPost2010Prop51ColorIndex
 90
      256
102
RTVSPost2010Prop51ColorRGB
 90
-16777216
102
RTVSPost2010PropOp51
 70
     0
102
RTVSPost2010Prop52
140
1.0
102
RTVSPost2010PropOp52
 70
     0
102
RTVSPost2010Prop53
 90
        2
102
RTVSPost2010PropOp53
 70
     0
102
RTVSPost2010Prop54
  1
strokes_ogs.tif
102
RTVSPost2010PropOp54
 70
     0
102
RTVSPost2010Prop55
280
     0
102
RTVSPost2010PropOp55
 70
     0
102
RTVSPost2010Prop56
140
1.0
102
RTVSPost2010PropOp56
 70
     0
102
RTVSPost2010Prop57
140
1.0
102
RTVSPost2010PropOp57
 70
     0
  0
XRECORD
  5
3F1
102
{ACAD_REACTORS
330
3F0
102
}
330
3F0
100
AcDbXrecord
280
     1
102
RTVSPropertyOp0
 70
     1
102
RTVSPropertyOp1
 70
     1
102
RTVSPropertyOp2
 70
     1
102
RTVSPropertyOp3
 70
     1
102
RTVSPropertyOp4
 70
     1
102
RTVSPropertyOp5
 70
     1
102
RTVSPropertyOp6
 70
     1
102
RTVSPropertyOp7
 70
     1
102
RTVSPropertyOp8
 70
     1
102
RTVSPropertyOp9
 70
     1
102
RTVSPropertyOp10
 70
     1
102
RTVSPropertyOp11
 70
     1
102
RTVSPropertyOp12
 70
     1
102
RTVSPropertyOp13
 70
     1
102
RTVSPropertyOp14
 70
     1
102
RTVSPropertyOp15
 70
     1
102
RTVSPropertyOp16
 70
     1
102
RTVSPropertyOp17
 70
     1
102
RTVSPropertyOp18
 70
     1
102
RTVSPropertyOp19
 70
     1
102
RTVSPropertyOp20
 70
     1
102
RTVSPropertyOp21
 70
     1
102
RTVSPropertyOp22
 70
     1
102
RTVSPropertyOp23
 70
     1
102
RTVSPropertyOp24
 70
     1
102
RTVSPropertyOp25
 70
     1
102
RTVSPropertyOp26
 70
     1
102
RTVSPropertyOp27
 70
     1
102
RTVSPropertyOp28
 70
     1
102
RTVSPropertyOp29
 70
     1
102
RTVSPropertyOp30
 70
     1
102
RTVSPropertyOp31
 70
     1
102
RTVSPropertyOp32
 70
     1
102
RTVSPropertyOp33
 70
     1
102
RTVSPropertyOp34
 70
     1
102
RTVSPropertyOp35
 70
     1
102
RTVSPropertyOp36
 70
     1
102
RTVSPropertyOp37
 70
     1
102
RTVSPropertyOp38
 70
     1
102
RTVSPropertyOp39
 70
     1
102
RTVSPropertyOp40
 70
     1
102
RTVSPropertyOp41
 70
     1
102
RTVSPropertyOp42
 70
     1
102
RTVSPropertyOp43
 70
     1
102
RTVSPropertyOp44
 70
     1
102
RTVSPropertyOp45
 70
     1
102
RTVSPropertyOp46
 70
     1
102
RTVSPropertyOp47
 70
     1
102
RTVSPropertyOp48
 70
     1
102
RTVSPropertyOp49
 70
     1
102
RTVSPropertyOp50
 70
     1
102
RTVSPropertyOp51
 70
     0
102
RTVSPropertyOp52
 70
     0
102
RTVSPropertyOp53
 70
     1
102
RTVSPropertyOp54
 70
     1
102
RTVSPropertyOp55
 70
     1
102
RTVSPropertyOp56
 70
     1
102
RTVSPropertyOp57
 70
     1
102
RTVSPost2010Prop28
280
     0
102
RTVSPost2010PropOp28
 70
     1
102
RTVSPost2010Prop29
280
     1
102
RTVSPost2010PropOp29
 70
     1
102
RTVSPost2010Prop30
280
     1
102
RTVSPost2010PropOp30
 70
     1
102
RTVSPost2010Prop31
280
     0
102
RTVSPost2010PropOp31
 70
     1
102
RTVSPost2010Prop32
280
     0
102
RTVSPost2010PropOp32
 70
     1
102
RTVSPost2010Prop33
280
     0
102
RTVSPost2010PropOp33
 70
     1
102
RTVSPost2010Prop34
280
     0
102
RTVSPost2010PropOp34
 70
     1
102
RTVSPost2010Prop35
280
     0
102
RTVSPost2010PropOp35
 70
     1
102
RTVSPost2010Prop36
280
     0
102
RTVSPost2010PropOp36
 70
     1
102
RTVSPost2010Prop37
 90
       50
102
RTVSPost2010PropOp37
 70
     1
102
RTVSPost2010Prop38
140
0.0
102
RTVSPost2010PropOp38
 70
     1
102
RTVSPost2010Prop39
140
1.0
102
RTVSPost2010PropOp39
 70
     1
102
RTVSPost2010Prop40
 90
        0
102
RTVSPost2010PropOp40
 70
     1
102
RTVSPost2010Prop41ColorIndex
 90
       18
102
RTVSPost2010Prop41ColorRGB
 90
        0
102
RTVSPost2010PropOp41
 70
     1
102
RTVSPost2010Prop42
 90
       50
102
RTVSPost2010PropOp42
 70
     1
102
RTVSPost2010Prop43
 90
        3
102
RTVSPost2010PropOp43
 70
     1
102
RTVSPost2010Prop44ColorIndex
 90
        5
102
RTVSPost2010Prop44ColorRGB
 90
      255
102
RTVSPost2010PropOp44
 70
     1
102
RTVSPost2010Prop45
280
     0
102
RTVSPost2010PropOp45
 70
     1
102
RTVSPost2010Prop46
 90
       50
102
RTVSPost2010PropOp46
 70
     1
102
RTVSPost2010Prop47
 90
       50
102
RTVSPost2010PropOp47
 70
     1
102
RTVSPost2010Prop48
 90
       50
102
RTVSPost2010PropOp48
 70
     1
102
RTVSPost2010Prop49
280
     0
102
RTVSPost2010PropOp49
 70
     1
102
RTVSPost2010Prop50
 90
       50
102
RTVSPost2010PropOp50
 70
     1
102
RTVSPost2010Prop51ColorIndex
 90
      256
102
RTVSPost2010Prop51ColorRGB
 90
-16777216
102
RTVSPost2010PropOp51
 70
     0
102
RTVSPost2010Prop52
140
1.0
102
RTVSPost2010PropOp52
 70
     0
102
RTVSPost2010Prop53
 90
        2
102
RTVSPost2010PropOp53
 70
     1
102
RTVSPost2010Prop54
  1
strokes_ogs.tif
102
RTVSPost2010PropOp54
 70
     1
102
RTVSPost2010Prop55
280
     0
102
RTVSPost2010PropOp55
 70
     1
102
RTVSPost2010Prop56
140
1.0
102
RTVSPost2010PropOp56
 70
     1
102
RTVSPost2010Prop57
140
1.0
102
RTVSPost2010PropOp57
 70
     1
  0
XRECORD
  5
40F
102
{ACAD_REACTORS
330
40E
102
}
330
40E
100
AcDbXrecord
280
     1
102
RTVSPropertyOp0
 70
     1
102
RTVSPropertyOp1
 70
     1
102
RTVSPropertyOp2
 70
     1
102
RTVSPropertyOp3
 70
     1
102
RTVSPropertyOp4
 70
     1
102
RTVSPropertyOp5
 70
     1
102
RTVSPropertyOp6
 70
     1
102
RTVSPropertyOp7
 70
     1
102
RTVSPropertyOp8
 70
     1
102
RTVSPropertyOp9
 70
     1
102
RTVSPropertyOp10
 70
     1
102
RTVSPropertyOp11
 70
     1
102
RTVSPropertyOp12
 70
     1
102
RTVSPropertyOp13
 70
     1
102
RTVSPropertyOp14
 70
     1
102
RTVSPropertyOp15
 70
     1
102
RTVSPropertyOp16
 70
     1
102
RTVSPropertyOp17
 70
     1
102
RTVSPropertyOp18
 70
     1
102
RTVSPropertyOp19
 70
     1
102
RTVSPropertyOp20
 70
     1
102
RTVSPropertyOp21
 70
     1
102
RTVSPropertyOp22
 70
     1
102
RTVSPropertyOp23
 70
     1
102
RTVSPropertyOp24
 70
     1
102
RTVSPropertyOp25
 70
     1
102
RTVSPropertyOp26
 70
     1
102
RTVSPropertyOp27
 70
     1
102
RTVSPropertyOp28
 70
     1
102
RTVSPropertyOp29
 70
     1
102
RTVSPropertyOp30
 70
     1
102
RTVSPropertyOp31
 70
     1
102
RTVSPropertyOp32
 70
     1
102
RTVSPropertyOp33
 70
     1
102
RTVSPropertyOp34
 70
     1
102
RTVSPropertyOp35
 70
     1
102
RTVSPropertyOp36
 70
     1
102
RTVSPropertyOp37
 70
     1
102
RTVSPropertyOp38
 70
     1
102
RTVSPropertyOp39
 70
     1
102
RTVSPropertyOp40
 70
     1
102
RTVSPropertyOp41
 70
     1
102
RTVSPropertyOp42
 70
     1
102
RTVSPropertyOp43
 70
     1
102
RTVSPropertyOp44
 70
     1
102
RTVSPropertyOp45
 70
     1
102
RTVSPropertyOp46
 70
     1
102
RTVSPropertyOp47
 70
     1
102
RTVSPropertyOp48
 70
     1
102
RTVSPropertyOp49
 70
     1
102
RTVSPropertyOp50
 70
     1
102
RTVSPropertyOp51
 70
     0
102
RTVSPropertyOp52
 70
     0
102
RTVSPropertyOp53
 70
     1
102
RTVSPropertyOp54
 70
     1
102
RTVSPropertyOp55
 70
     1
102
RTVSPropertyOp56
 70
     1
102
RTVSPropertyOp57
 70
     1
102
RTVSPost2010Prop28
280
     0
102
RTVSPost2010PropOp28
 70
     1
102
RTVSPost2010Prop29
280
     1
102
RTVSPost2010PropOp29
 70
     1
102
RTVSPost2010Prop30
280
     1
102
RTVSPost2010PropOp30
 70
     1
102
RTVSPost2010Prop31
280
     0
102
RTVSPost2010PropOp31
 70
     1
102
RTVSPost2010Prop32
280
     0
102
RTVSPost2010PropOp32
 70
     1
102
RTVSPost2010Prop33
280
     0
102
RTVSPost2010PropOp33
 70
     1
102
RTVSPost2010Prop34
280
     0
102
RTVSPost2010PropOp34
 70
     1
102
RTVSPost2010Prop35
280
     0
102
RTVSPost2010PropOp35
 70
     1
102
RTVSPost2010Prop36
280
     0
102
RTVSPost2010PropOp36
 70
     1
102
RTVSPost2010Prop37
 90
       50
102
RTVSPost2010PropOp37
 70
     1
102
RTVSPost2010Prop38
140
0.0
102
RTVSPost2010PropOp38
 70
     1
102
RTVSPost2010Prop39
140
1.0
102
RTVSPost2010PropOp39
 70
     1
102
RTVSPost2010Prop40
 90
        0
102
RTVSPost2010PropOp40
 70
     1
102
RTVSPost2010Prop41ColorIndex
 90
       18
102
RTVSPost2010Prop41ColorRGB
 90
        0
102
RTVSPost2010PropOp41
 70
     1
102
RTVSPost2010Prop42
 90
       50
102
RTVSPost2010PropOp42
 70
     1
102
RTVSPost2010Prop43
 90
        3
102
RTVSPost2010PropOp43
 70
     1
102
RTVSPost2010Prop44ColorIndex
 90
        5
102
RTVSPost2010Prop44ColorRGB
 90
      255
102
RTVSPost2010PropOp44
 70
     1
102
RTVSPost2010Prop45
280
     0
102
RTVSPost2010PropOp45
 70
     1
102
RTVSPost2010Prop46
 90
       50
102
RTVSPost2010PropOp46
 70
     1
102
RTVSPost2010Prop47
 90
       50
102
RTVSPost2010PropOp47
 70
     1
102
RTVSPost2010Prop48
 90
       50
102
RTVSPost2010PropOp48
 70
     1
102
RTVSPost2010Prop49
280
     0
102
RTVSPost2010PropOp49
 70
     1
102
RTVSPost2010Prop50
 90
       50
102
RTVSPost2010PropOp50
 70
     1
102
RTVSPost2010Prop51ColorIndex
 90
      256
102
RTVSPost2010Prop51ColorRGB
 90
-16777216
102
RTVSPost2010PropOp51
 70
     0
102
RTVSPost2010Prop52
140
1.0
102
RTVSPost2010PropOp52
 70
     0
102
RTVSPost2010Prop53
 90
        2
102
RTVSPost2010PropOp53
 70
     1
102
RTVSPost2010Prop54
  1
strokes_ogs.tif
102
RTVSPost2010PropOp54
 70
     1
102
RTVSPost2010Prop55
280
     0
102
RTVSPost2010PropOp55
 70
     1
102
RTVSPost2010Prop56
140
1.0
102
RTVSPost2010PropOp56
 70
     1
102
RTVSPost2010Prop57
140
1.0
102
RTVSPost2010PropOp57
 70
     1
  0
XRECORD
  5
40D
102
{ACAD_REACTORS
330
40C
102
}
330
40C
100
AcDbXrecord
280
     1
102
RTVSPropertyOp0
 70
     1
102
RTVSPropertyOp1
 70
     1
102
RTVSPropertyOp2
 70
     1
102
RTVSPropertyOp3
 70
     1
102
RTVSPropertyOp4
 70
     1
102
RTVSPropertyOp5
 70
     1
102
RTVSPropertyOp6
 70
     1
102
RTVSPropertyOp7
 70
     1
102
RTVSPropertyOp8
 70
     1
102
RTVSPropertyOp9
 70
     1
102
RTVSPropertyOp10
 70
     1
102
RTVSPropertyOp11
 70
     1
102
RTVSPropertyOp12
 70
     1
102
RTVSPropertyOp13
 70
     1
102
RTVSPropertyOp14
 70
     1
102
RTVSPropertyOp15
 70
     1
102
RTVSPropertyOp16
 70
     1
102
RTVSPropertyOp17
 70
     1
102
RTVSPropertyOp18
 70
     1
102
RTVSPropertyOp19
 70
     1
102
RTVSPropertyOp20
 70
     1
102
RTVSPropertyOp21
 70
     1
102
RTVSPropertyOp22
 70
     1
102
RTVSPropertyOp23
 70
     1
102
RTVSPropertyOp24
 70
     1
102
RTVSPropertyOp25
 70
     1
102
RTVSPropertyOp26
 70
     1
102
RTVSPropertyOp27
 70
     1
102
RTVSPropertyOp28
 70
     1
102
RTVSPropertyOp29
 70
     1
102
RTVSPropertyOp30
 70
     1
102
RTVSPropertyOp31
 70
     1
102
RTVSPropertyOp32
 70
     1
102
RTVSPropertyOp33
 70
     1
102
RTVSPropertyOp34
 70
     1
102
RTVSPropertyOp35
 70
     1
102
RTVSPropertyOp36
 70
     1
102
RTVSPropertyOp37
 70
     1
102
RTVSPropertyOp38
 70
     1
102
RTVSPropertyOp39
 70
     1
102
RTVSPropertyOp40
 70
     1
102
RTVSPropertyOp41
 70
     1
102
RTVSPropertyOp42
 70
     1
102
RTVSPropertyOp43
 70
     1
102
RTVSPropertyOp44
 70
     1
102
RTVSPropertyOp45
 70
     1
102
RTVSPropertyOp46
 70
     1
102
RTVSPropertyOp47
 70
     1
102
RTVSPropertyOp48
 70
     1
102
RTVSPropertyOp49
 70
     1
102
RTVSPropertyOp50
 70
     1
102
RTVSPropertyOp51
 70
     0
102
RTVSPropertyOp52
 70
     0
102
RTVSPropertyOp53
 70
     1
102
RTVSPropertyOp54
 70
     1
102
RTVSPropertyOp55
 70
     1
102
RTVSPropertyOp56
 70
     1
102
RTVSPropertyOp57
 70
     1
102
RTVSPost2010Prop28
280
     0
102
RTVSPost2010PropOp28
 70
     1
102
RTVSPost2010Prop29
280
     1
102
RTVSPost2010PropOp29
 70
     1
102
RTVSPost2010Prop30
280
     1
102
RTVSPost2010PropOp30
 70
     1
102
RTVSPost2010Prop31
280
     0
102
RTVSPost2010PropOp31
 70
     1
102
RTVSPost2010Prop32
280
     0
102
RTVSPost2010PropOp32
 70
     1
102
RTVSPost2010Prop33
280
     0
102
RTVSPost2010PropOp33
 70
     1
102
RTVSPost2010Prop34
280
     0
102
RTVSPost2010PropOp34
 70
     1
102
RTVSPost2010Prop35
280
     0
102
RTVSPost2010PropOp35
 70
     1
102
RTVSPost2010Prop36
280
     0
102
RTVSPost2010PropOp36
 70
     1
102
RTVSPost2010Prop37
 90
       50
102
RTVSPost2010PropOp37
 70
     1
102
RTVSPost2010Prop38
140
0.0
102
RTVSPost2010PropOp38
 70
     1
102
RTVSPost2010Prop39
140
1.0
102
RTVSPost2010PropOp39
 70
     1
102
RTVSPost2010Prop40
 90
        0
102
RTVSPost2010PropOp40
 70
     1
102
RTVSPost2010Prop41ColorIndex
 90
       18
102
RTVSPost2010Prop41ColorRGB
 90
        0
102
RTVSPost2010PropOp41
 70
     1
102
RTVSPost2010Prop42
 90
       50
102
RTVSPost2010PropOp42
 70
     1
102
RTVSPost2010Prop43
 90
        3
102
RTVSPost2010PropOp43
 70
     1
102
RTVSPost2010Prop44ColorIndex
 90
        5
102
RTVSPost2010Prop44ColorRGB
 90
      255
102
RTVSPost2010PropOp44
 70
     1
102
RTVSPost2010Prop45
280
     0
102
RTVSPost2010PropOp45
 70
     1
102
RTVSPost2010Prop46
 90
       50
102
RTVSPost2010PropOp46
 70
     1
102
RTVSPost2010Prop47
 90
       50
102
RTVSPost2010PropOp47
 70
     1
102
RTVSPost2010Prop48
 90
       50
102
RTVSPost2010PropOp48
 70
     1
102
RTVSPost2010Prop49
280
     0
102
RTVSPost2010PropOp49
 70
     1
102
RTVSPost2010Prop50
 90
       50
102
RTVSPost2010PropOp50
 70
     1
102
RTVSPost2010Prop51ColorIndex
 90
      256
102
RTVSPost2010Prop51ColorRGB
 90
-16777216
102
RTVSPost2010PropOp51
 70
     0
102
RTVSPost2010Prop52
140
1.0
102
RTVSPost2010PropOp52
 70
     0
102
RTVSPost2010Prop53
 90
        2
102
RTVSPost2010PropOp53
 70
     1
102
RTVSPost2010Prop54
  1
strokes_ogs.tif
102
RTVSPost2010PropOp54
 70
     1
102
RTVSPost2010Prop55
280
     0
102
RTVSPost2010PropOp55
 70
     1
102
RTVSPost2010Prop56
140
1.0
102
RTVSPost2010PropOp56
 70
     1
102
RTVSPost2010Prop57
140
1.0
102
RTVSPost2010PropOp57
 70
     1
  0
XRECORD
  5
407
102
{ACAD_REACTORS
330
406
102
}
330
406
100
AcDbXrecord
280
     1
102
RTVSPropertyOp0
 70
     1
102
RTVSPropertyOp1
 70
     1
102
RTVSPropertyOp2
 70
     1
102
RTVSPropertyOp3
 70
     1
102
RTVSPropertyOp4
 70
     1
102
RTVSPropertyOp5
 70
     1
102
RTVSPropertyOp6
 70
     1
102
RTVSPropertyOp7
 70
     1
102
RTVSPropertyOp8
 70
     1
102
RTVSPropertyOp9
 70
     1
102
RTVSPropertyOp10
 70
     1
102
RTVSPropertyOp11
 70
     1
102
RTVSPropertyOp12
 70
     1
102
RTVSPropertyOp13
 70
     1
102
RTVSPropertyOp14
 70
     1
102
RTVSPropertyOp15
 70
     1
102
RTVSPropertyOp16
 70
     1
102
RTVSPropertyOp17
 70
     1
102
RTVSPropertyOp18
 70
     1
102
RTVSPropertyOp19
 70
     1
102
RTVSPropertyOp20
 70
     1
102
RTVSPropertyOp21
 70
     1
102
RTVSPropertyOp22
 70
     1
102
RTVSPropertyOp23
 70
     1
102
RTVSPropertyOp24
 70
     1
102
RTVSPropertyOp25
 70
     1
102
RTVSPropertyOp26
 70
     1
102
RTVSPropertyOp27
 70
     1
102
RTVSPropertyOp28
 70
     1
102
RTVSPropertyOp29
 70
     1
102
RTVSPropertyOp30
 70
     1
102
RTVSPropertyOp31
 70
     1
102
RTVSPropertyOp32
 70
     1
102
RTVSPropertyOp33
 70
     1
102
RTVSPropertyOp34
 70
     1
102
RTVSPropertyOp35
 70
     1
102
RTVSPropertyOp36
 70
     1
102
RTVSPropertyOp37
 70
     1
102
RTVSPropertyOp38
 70
     1
102
RTVSPropertyOp39
 70
     1
102
RTVSPropertyOp40
 70
     1
102
RTVSPropertyOp41
 70
     1
102
RTVSPropertyOp42
 70
     1
102
RTVSPropertyOp43
 70
     1
102
RTVSPropertyOp44
 70
     1
102
RTVSPropertyOp45
 70
     1
102
RTVSPropertyOp46
 70
     1
102
RTVSPropertyOp47
 70
     1
102
RTVSPropertyOp48
 70
     1
102
RTVSPropertyOp49
 70
     1
102
RTVSPropertyOp50
 70
     1
102
RTVSPropertyOp51
 70
     0
102
RTVSPropertyOp52
 70
     0
102
RTVSPropertyOp53
 70
     1
102
RTVSPropertyOp54
 70
     1
102
RTVSPropertyOp55
 70
     1
102
RTVSPropertyOp56
 70
     1
102
RTVSPropertyOp57
 70
     1
102
RTVSPost2010Prop28
280
     0
102
RTVSPost2010PropOp28
 70
     1
102
RTVSPost2010Prop29
280
     1
102
RTVSPost2010PropOp29
 70
     1
102
RTVSPost2010Prop30
280
     1
102
RTVSPost2010PropOp30
 70
     1
102
RTVSPost2010Prop31
280
     0
102
RTVSPost2010PropOp31
 70
     1
102
RTVSPost2010Prop32
280
     0
102
RTVSPost2010PropOp32
 70
     1
102
RTVSPost2010Prop33
280
     0
102
RTVSPost2010PropOp33
 70
     1
102
RTVSPost2010Prop34
280
     0
102
RTVSPost2010PropOp34
 70
     1
102
RTVSPost2010Prop35
280
     0
102
RTVSPost2010PropOp35
 70
     1
102
RTVSPost2010Prop36
280
     0
102
RTVSPost2010PropOp36
 70
     1
102
RTVSPost2010Prop37
 90
       50
102
RTVSPost2010PropOp37
 70
     1
102
RTVSPost2010Prop38
140
0.0
102
RTVSPost2010PropOp38
 70
     1
102
RTVSPost2010Prop39
140
1.0
102
RTVSPost2010PropOp39
 70
     1
102
RTVSPost2010Prop40
 90
        0
102
RTVSPost2010PropOp40
 70
     1
102
RTVSPost2010Prop41ColorIndex
 90
       18
102
RTVSPost2010Prop41ColorRGB
 90
        0
102
RTVSPost2010PropOp41
 70
     1
102
RTVSPost2010Prop42
 90
       50
102
RTVSPost2010PropOp42
 70
     1
102
RTVSPost2010Prop43
 90
        3
102
RTVSPost2010PropOp43
 70
     1
102
RTVSPost2010Prop44ColorIndex
 90
        5
102
RTVSPost2010Prop44ColorRGB
 90
      255
102
RTVSPost2010PropOp44
 70
     1
102
RTVSPost2010Prop45
280
     0
102
RTVSPost2010PropOp45
 70
     1
102
RTVSPost2010Prop46
 90
       50
102
RTVSPost2010PropOp46
 70
     1
102
RTVSPost2010Prop47
 90
       50
102
RTVSPost2010PropOp47
 70
     1
102
RTVSPost2010Prop48
 90
       50
102
RTVSPost2010PropOp48
 70
     1
102
RTVSPost2010Prop49
280
     0
102
RTVSPost2010PropOp49
 70
     1
102
RTVSPost2010Prop50
 90
       50
102
RTVSPost2010PropOp50
 70
     1
102
RTVSPost2010Prop51ColorIndex
 90
      256
102
RTVSPost2010Prop51ColorRGB
 90
-16777216
102
RTVSPost2010PropOp51
 70
     0
102
RTVSPost2010Prop52
140
1.0
102
RTVSPost2010PropOp52
 70
     0
102
RTVSPost2010Prop53
 90
        2
102
RTVSPost2010PropOp53
 70
     1
102
RTVSPost2010Prop54
  1
strokes_ogs.tif
102
RTVSPost2010PropOp54
 70
     1
102
RTVSPost2010Prop55
280
     0
102
RTVSPost2010PropOp55
 70
     1
102
RTVSPost2010Prop56
140
1.0
102
RTVSPost2010PropOp56
 70
     1
102
RTVSPost2010Prop57
140
1.0
102
RTVSPost2010PropOp57
 70
     1
  0
XRECORD
  5
409
102
{ACAD_REACTORS
330
408
102
}
330
408
100
AcDbXrecord
280
     1
102
RTVSPropertyOp0
 70
     1
102
RTVSPropertyOp1
 70
     1
102
RTVSPropertyOp2
 70
     1
102
RTVSPropertyOp3
 70
     1
102
RTVSPropertyOp4
 70
     1
102
RTVSPropertyOp5
 70
     1
102
RTVSPropertyOp6
 70
     1
102
RTVSPropertyOp7
 70
     1
102
RTVSPropertyOp8
 70
     1
102
RTVSPropertyOp9
 70
     1
102
RTVSPropertyOp10
 70
     1
102
RTVSPropertyOp11
 70
     1
102
RTVSPropertyOp12
 70
     1
102
RTVSPropertyOp13
 70
     1
102
RTVSPropertyOp14
 70
     1
102
RTVSPropertyOp15
 70
     1
102
RTVSPropertyOp16
 70
     1
102
RTVSPropertyOp17
 70
     1
102
RTVSPropertyOp18
 70
     1
102
RTVSPropertyOp19
 70
     1
102
RTVSPropertyOp20
 70
     1
102
RTVSPropertyOp21
 70
     1
102
RTVSPropertyOp22
 70
     1
102
RTVSPropertyOp23
 70
     1
102
RTVSPropertyOp24
 70
     1
102
RTVSPropertyOp25
 70
     1
102
RTVSPropertyOp26
 70
     1
102
RTVSPropertyOp27
 70
     1
102
RTVSPropertyOp28
 70
     1
102
RTVSPropertyOp29
 70
     1
102
RTVSPropertyOp30
 70
     1
102
RTVSPropertyOp31
 70
     1
102
RTVSPropertyOp32
 70
     1
102
RTVSPropertyOp33
 70
     1
102
RTVSPropertyOp34
 70
     1
102
RTVSPropertyOp35
 70
     1
102
RTVSPropertyOp36
 70
     1
102
RTVSPropertyOp37
 70
     1
102
RTVSPropertyOp38
 70
     1
102
RTVSPropertyOp39
 70
     1
102
RTVSPropertyOp40
 70
     1
102
RTVSPropertyOp41
 70
     1
102
RTVSPropertyOp42
 70
     1
102
RTVSPropertyOp43
 70
     1
102
RTVSPropertyOp44
 70
     1
102
RTVSPropertyOp45
 70
     1
102
RTVSPropertyOp46
 70
     1
102
RTVSPropertyOp47
 70
     1
102
RTVSPropertyOp48
 70
     1
102
RTVSPropertyOp49
 70
     1
102
RTVSPropertyOp50
 70
     1
102
RTVSPropertyOp51
 70
     0
102
RTVSPropertyOp52
 70
     0
102
RTVSPropertyOp53
 70
     1
102
RTVSPropertyOp54
 70
     1
102
RTVSPropertyOp55
 70
     1
102
RTVSPropertyOp56
 70
     1
102
RTVSPropertyOp57
 70
     1
102
RTVSPost2010Prop28
280
     0
102
RTVSPost2010PropOp28
 70
     1
102
RTVSPost2010Prop29
280
     1
102
RTVSPost2010PropOp29
 70
     1
102
RTVSPost2010Prop30
280
     1
102
RTVSPost2010PropOp30
 70
     1
102
RTVSPost2010Prop31
280
     0
102
RTVSPost2010PropOp31
 70
     1
102
RTVSPost2010Prop32
280
     0
102
RTVSPost2010PropOp32
 70
     1
102
RTVSPost2010Prop33
280
     0
102
RTVSPost2010PropOp33
 70
     1
102
RTVSPost2010Prop34
280
     0
102
RTVSPost2010PropOp34
 70
     1
102
RTVSPost2010Prop35
280
     0
102
RTVSPost2010PropOp35
 70
     1
102
RTVSPost2010Prop36
280
     0
102
RTVSPost2010PropOp36
 70
     1
102
RTVSPost2010Prop37
 90
       50
102
RTVSPost2010PropOp37
 70
     1
102
RTVSPost2010Prop38
140
0.0
102
RTVSPost2010PropOp38
 70
     1
102
RTVSPost2010Prop39
140
1.0
102
RTVSPost2010PropOp39
 70
     1
102
RTVSPost2010Prop40
 90
        0
102
RTVSPost2010PropOp40
 70
     1
102
RTVSPost2010Prop41ColorIndex
 90
       18
102
RTVSPost2010Prop41ColorRGB
 90
        0
102
RTVSPost2010PropOp41
 70
     1
102
RTVSPost2010Prop42
 90
       50
102
RTVSPost2010PropOp42
 70
     1
102
RTVSPost2010Prop43
 90
        3
102
RTVSPost2010PropOp43
 70
     1
102
RTVSPost2010Prop44ColorIndex
 90
        5
102
RTVSPost2010Prop44ColorRGB
 90
      255
102
RTVSPost2010PropOp44
 70
     1
102
RTVSPost2010Prop45
280
     0
102
RTVSPost2010PropOp45
 70
     1
102
RTVSPost2010Prop46
 90
       50
102
RTVSPost2010PropOp46
 70
     1
102
RTVSPost2010Prop47
 90
       50
102
RTVSPost2010PropOp47
 70
     1
102
RTVSPost2010Prop48
 90
       50
102
RTVSPost2010PropOp48
 70
     1
102
RTVSPost2010Prop49
280
     0
102
RTVSPost2010PropOp49
 70
     1
102
RTVSPost2010Prop50
 90
       50
102
RTVSPost2010PropOp50
 70
     1
102
RTVSPost2010Prop51ColorIndex
 90
      256
102
RTVSPost2010Prop51ColorRGB
 90
-16777216
102
RTVSPost2010PropOp51
 70
     0
102
RTVSPost2010Prop52
140
1.0
102
RTVSPost2010PropOp52
 70
     0
102
RTVSPost2010Prop53
 90
        2
102
RTVSPost2010PropOp53
 70
     1
102
RTVSPost2010Prop54
  1
strokes_ogs.tif
102
RTVSPost2010PropOp54
 70
     1
102
RTVSPost2010Prop55
280
     0
102
RTVSPost2010PropOp55
 70
     1
102
RTVSPost2010Prop56
140
1.0
102
RTVSPost2010PropOp56
 70
     1
102
RTVSPost2010Prop57
140
1.0
102
RTVSPost2010PropOp57
 70
     1
  0
XRECORD
  5
3F9
102
{ACAD_REACTORS
330
3F8
102
}
330
3F8
100
AcDbXrecord
280
     1
102
RTVSPropertyOp0
 70
     1
102
RTVSPropertyOp1
 70
     1
102
RTVSPropertyOp2
 70
     1
102
RTVSPropertyOp3
 70
     1
102
RTVSPropertyOp4
 70
     1
102
RTVSPropertyOp5
 70
     1
102
RTVSPropertyOp6
 70
     1
102
RTVSPropertyOp7
 70
     1
102
RTVSPropertyOp8
 70
     1
102
RTVSPropertyOp9
 70
     1
102
RTVSPropertyOp10
 70
     1
102
RTVSPropertyOp11
 70
     1
102
RTVSPropertyOp12
 70
     1
102
RTVSPropertyOp13
 70
     1
102
RTVSPropertyOp14
 70
     1
102
RTVSPropertyOp15
 70
     1
102
RTVSPropertyOp16
 70
     1
102
RTVSPropertyOp17
 70
     1
102
RTVSPropertyOp18
 70
     1
102
RTVSPropertyOp19
 70
     1
102
RTVSPropertyOp20
 70
     1
102
RTVSPropertyOp21
 70
     1
102
RTVSPropertyOp22
 70
     1
102
RTVSPropertyOp23
 70
     1
102
RTVSPropertyOp24
 70
     1
102
RTVSPropertyOp25
 70
     1
102
RTVSPropertyOp26
 70
     1
102
RTVSPropertyOp27
 70
     1
102
RTVSPropertyOp28
 70
     1
102
RTVSPropertyOp29
 70
     1
102
RTVSPropertyOp30
 70
     1
102
RTVSPropertyOp31
 70
     1
102
RTVSPropertyOp32
 70
     1
102
RTVSPropertyOp33
 70
     1
102
RTVSPropertyOp34
 70
     1
102
RTVSPropertyOp35
 70
     1
102
RTVSPropertyOp36
 70
     1
102
RTVSPropertyOp37
 70
     1
102
RTVSPropertyOp38
 70
     1
102
RTVSPropertyOp39
 70
     1
102
RTVSPropertyOp40
 70
     1
102
RTVSPropertyOp41
 70
     1
102
RTVSPropertyOp42
 70
     1
102
RTVSPropertyOp43
 70
     1
102
RTVSPropertyOp44
 70
     1
102
RTVSPropertyOp45
 70
     1
102
RTVSPropertyOp46
 70
     1
102
RTVSPropertyOp47
 70
     1
102
RTVSPropertyOp48
 70
     1
102
RTVSPropertyOp49
 70
     1
102
RTVSPropertyOp50
 70
     1
102
RTVSPropertyOp51
 70
     0
102
RTVSPropertyOp52
 70
     0
102
RTVSPropertyOp53
 70
     1
102
RTVSPropertyOp54
 70
     1
102
RTVSPropertyOp55
 70
     1
102
RTVSPropertyOp56
 70
     1
102
RTVSPropertyOp57
 70
     1
102
RTVSPost2010Prop28
280
     0
102
RTVSPost2010PropOp28
 70
     1
102
RTVSPost2010Prop29
280
     1
102
RTVSPost2010PropOp29
 70
     1
102
RTVSPost2010Prop30
280
     1
102
RTVSPost2010PropOp30
 70
     1
102
RTVSPost2010Prop31
280
     0
102
RTVSPost2010PropOp31
 70
     1
102
RTVSPost2010Prop32
280
     0
102
RTVSPost2010PropOp32
 70
     1
102
RTVSPost2010Prop33
280
     0
102
RTVSPost2010PropOp33
 70
     1
102
RTVSPost2010Prop34
280
     0
102
RTVSPost2010PropOp34
 70
     1
102
RTVSPost2010Prop35
280
     0
102
RTVSPost2010PropOp35
 70
     1
102
RTVSPost2010Prop36
280
     0
102
RTVSPost2010PropOp36
 70
     1
102
RTVSPost2010Prop37
 90
       50
102
RTVSPost2010PropOp37
 70
     1
102
RTVSPost2010Prop38
140
0.0
102
RTVSPost2010PropOp38
 70
     1
102
RTVSPost2010Prop39
140
1.0
102
RTVSPost2010PropOp39
 70
     1
102
RTVSPost2010Prop40
 90
        0
102
RTVSPost2010PropOp40
 70
     1
102
RTVSPost2010Prop41ColorIndex
 90
       18
102
RTVSPost2010Prop41ColorRGB
 90
        0
102
RTVSPost2010PropOp41
 70
     1
102
RTVSPost2010Prop42
 90
       50
102
RTVSPost2010PropOp42
 70
     1
102
RTVSPost2010Prop43
 90
        3
102
RTVSPost2010PropOp43
 70
     1
102
RTVSPost2010Prop44ColorIndex
 90
        5
102
RTVSPost2010Prop44ColorRGB
 90
      255
102
RTVSPost2010PropOp44
 70
     1
102
RTVSPost2010Prop45
280
     0
102
RTVSPost2010PropOp45
 70
     1
102
RTVSPost2010Prop46
 90
       50
102
RTVSPost2010PropOp46
 70
     1
102
RTVSPost2010Prop47
 90
       50
102
RTVSPost2010PropOp47
 70
     1
102
RTVSPost2010Prop48
 90
       50
102
RTVSPost2010PropOp48
 70
     1
102
RTVSPost2010Prop49
280
     0
102
RTVSPost2010PropOp49
 70
     1
102
RTVSPost2010Prop50
 90
       50
102
RTVSPost2010PropOp50
 70
     1
102
RTVSPost2010Prop51ColorIndex
 90
      256
102
RTVSPost2010Prop51ColorRGB
 90
-16777216
102
RTVSPost2010PropOp51
 70
     0
102
RTVSPost2010Prop52
140
1.0
102
RTVSPost2010PropOp52
 70
     0
102
RTVSPost2010Prop53
 90
        2
102
RTVSPost2010PropOp53
 70
     1
102
RTVSPost2010Prop54
  1
strokes_ogs.tif
102
RTVSPost2010PropOp54
 70
     1
102
RTVSPost2010Prop55
280
     0
102
RTVSPost2010PropOp55
 70
     1
102
RTVSPost2010Prop56
140
1.0
102
RTVSPost2010PropOp56
 70
     1
102
RTVSPost2010Prop57
140
1.0
102
RTVSPost2010PropOp57
 70
     1
  0
XRECORD
  5
3EB
102
{ACAD_REACTORS
330
3EA
102
}
330
3EA
100
AcDbXrecord
280
     1
102
RTVSPropertyOp0
 70
     1
102
RTVSPropertyOp1
 70
     1
102
RTVSPropertyOp2
 70
     1
102
RTVSPropertyOp3
 70
     1
102
RTVSPropertyOp4
 70
     1
102
RTVSPropertyOp5
 70
     1
102
RTVSPropertyOp6
 70
     1
102
RTVSPropertyOp7
 70
     1
102
RTVSPropertyOp8
 70
     1
102
RTVSPropertyOp9
 70
     1
102
RTVSPropertyOp10
 70
     1
102
RTVSPropertyOp11
 70
     1
102
RTVSPropertyOp12
 70
     1
102
RTVSPropertyOp13
 70
     1
102
RTVSPropertyOp14
 70
     1
102
RTVSPropertyOp15
 70
     1
102
RTVSPropertyOp16
 70
     1
102
RTVSPropertyOp17
 70
     1
102
RTVSPropertyOp18
 70
     1
102
RTVSPropertyOp19
 70
     1
102
RTVSPropertyOp20
 70
     1
102
RTVSPropertyOp21
 70
     1
102
RTVSPropertyOp22
 70
     1
102
RTVSPropertyOp23
 70
     1
102
RTVSPropertyOp24
 70
     1
102
RTVSPropertyOp25
 70
     1
102
RTVSPropertyOp26
 70
     1
102
RTVSPropertyOp27
 70
     1
102
RTVSPropertyOp28
 70
     1
102
RTVSPropertyOp29
 70
     1
102
RTVSPropertyOp30
 70
     1
102
RTVSPropertyOp31
 70
     1
102
RTVSPropertyOp32
 70
     1
102
RTVSPropertyOp33
 70
     1
102
RTVSPropertyOp34
 70
     1
102
RTVSPropertyOp35
 70
     1
102
RTVSPropertyOp36
 70
     1
102
RTVSPropertyOp37
 70
     1
102
RTVSPropertyOp38
 70
     1
102
RTVSPropertyOp39
 70
     1
102
RTVSPropertyOp40
 70
     1
102
RTVSPropertyOp41
 70
     1
102
RTVSPropertyOp42
 70
     1
102
RTVSPropertyOp43
 70
     1
102
RTVSPropertyOp44
 70
     1
102
RTVSPropertyOp45
 70
     1
102
RTVSPropertyOp46
 70
     1
102
RTVSPropertyOp47
 70
     1
102
RTVSPropertyOp48
 70
     1
102
RTVSPropertyOp49
 70
     1
102
RTVSPropertyOp50
 70
     1
102
RTVSPropertyOp51
 70
     0
102
RTVSPropertyOp52
 70
     0
102
RTVSPropertyOp53
 70
     1
102
RTVSPropertyOp54
 70
     1
102
RTVSPropertyOp55
 70
     1
102
RTVSPropertyOp56
 70
     1
102
RTVSPropertyOp57
 70
     1
102
RTVSPost2010Prop28
280
     0
102
RTVSPost2010PropOp28
 70
     1
102
RTVSPost2010Prop29
280
     1
102
RTVSPost2010PropOp29
 70
     1
102
RTVSPost2010Prop30
280
     1
102
RTVSPost2010PropOp30
 70
     1
102
RTVSPost2010Prop31
280
     0
102
RTVSPost2010PropOp31
 70
     1
102
RTVSPost2010Prop32
280
     0
102
RTVSPost2010PropOp32
 70
     1
102
RTVSPost2010Prop33
280
     0
102
RTVSPost2010PropOp33
 70
     1
102
RTVSPost2010Prop34
280
     0
102
RTVSPost2010PropOp34
 70
     1
102
RTVSPost2010Prop35
280
     0
102
RTVSPost2010PropOp35
 70
     1
102
RTVSPost2010Prop36
280
     0
102
RTVSPost2010PropOp36
 70
     1
102
RTVSPost2010Prop37
 90
       50
102
RTVSPost2010PropOp37
 70
     1
102
RTVSPost2010Prop38
140
0.0
102
RTVSPost2010PropOp38
 70
     1
102
RTVSPost2010Prop39
140
1.0
102
RTVSPost2010PropOp39
 70
     1
102
RTVSPost2010Prop40
 90
        0
102
RTVSPost2010PropOp40
 70
     1
102
RTVSPost2010Prop41ColorIndex
 90
       18
102
RTVSPost2010Prop41ColorRGB
 90
        0
102
RTVSPost2010PropOp41
 70
     1
102
RTVSPost2010Prop42
 90
       50
102
RTVSPost2010PropOp42
 70
     1
102
RTVSPost2010Prop43
 90
        3
102
RTVSPost2010PropOp43
 70
     1
102
RTVSPost2010Prop44ColorIndex
 90
        5
102
RTVSPost2010Prop44ColorRGB
 90
      255
102
RTVSPost2010PropOp44
 70
     1
102
RTVSPost2010Prop45
280
     0
102
RTVSPost2010PropOp45
 70
     1
102
RTVSPost2010Prop46
 90
       50
102
RTVSPost2010PropOp46
 70
     1
102
RTVSPost2010Prop47
 90
       50
102
RTVSPost2010PropOp47
 70
     1
102
RTVSPost2010Prop48
 90
       50
102
RTVSPost2010PropOp48
 70
     1
102
RTVSPost2010Prop49
280
     0
102
RTVSPost2010PropOp49
 70
     1
102
RTVSPost2010Prop50
 90
       50
102
RTVSPost2010PropOp50
 70
     1
102
RTVSPost2010Prop51ColorIndex
 90
      256
102
RTVSPost2010Prop51ColorRGB
 90
-16777216
102
RTVSPost2010PropOp51
 70
     0
102
RTVSPost2010Prop52
140
1.0
102
RTVSPost2010PropOp52
 70
     0
102
RTVSPost2010Prop53
 90
        2
102
RTVSPost2010PropOp53
 70
     1
102
RTVSPost2010Prop54
  1
strokes_ogs.tif
102
RTVSPost2010PropOp54
 70
     1
102
RTVSPost2010Prop55
280
     0
102
RTVSPost2010PropOp55
 70
     1
102
RTVSPost2010Prop56
140
1.0
102
RTVSPost2010PropOp56
 70
     1
102
RTVSPost2010Prop57
140
1.0
102
RTVSPost2010PropOp57
 70
     1
  0
XRECORD
  5
40B
102
{ACAD_REACTORS
330
40A
102
}
330
40A
100
AcDbXrecord
280
     1
102
RTVSPropertyOp0
 70
     1
102
RTVSPropertyOp1
 70
     1
102
RTVSPropertyOp2
 70
     1
102
RTVSPropertyOp3
 70
     1
102
RTVSPropertyOp4
 70
     1
102
RTVSPropertyOp5
 70
     1
102
RTVSPropertyOp6
 70
     1
102
RTVSPropertyOp7
 70
     1
102
RTVSPropertyOp8
 70
     1
102
RTVSPropertyOp9
 70
     1
102
RTVSPropertyOp10
 70
     1
102
RTVSPropertyOp11
 70
     1
102
RTVSPropertyOp12
 70
     1
102
RTVSPropertyOp13
 70
     1
102
RTVSPropertyOp14
 70
     1
102
RTVSPropertyOp15
 70
     1
102
RTVSPropertyOp16
 70
     1
102
RTVSPropertyOp17
 70
     1
102
RTVSPropertyOp18
 70
     1
102
RTVSPropertyOp19
 70
     1
102
RTVSPropertyOp20
 70
     1
102
RTVSPropertyOp21
 70
     1
102
RTVSPropertyOp22
 70
     1
102
RTVSPropertyOp23
 70
     1
102
RTVSPropertyOp24
 70
     1
102
RTVSPropertyOp25
 70
     1
102
RTVSPropertyOp26
 70
     1
102
RTVSPropertyOp27
 70
     1
102
RTVSPropertyOp28
 70
     1
102
RTVSPropertyOp29
 70
     1
102
RTVSPropertyOp30
 70
     1
102
RTVSPropertyOp31
 70
     1
102
RTVSPropertyOp32
 70
     1
102
RTVSPropertyOp33
 70
     1
102
RTVSPropertyOp34
 70
     1
102
RTVSPropertyOp35
 70
     1
102
RTVSPropertyOp36
 70
     1
102
RTVSPropertyOp37
 70
     1
102
RTVSPropertyOp38
 70
     1
102
RTVSPropertyOp39
 70
     1
102
RTVSPropertyOp40
 70
     1
102
RTVSPropertyOp41
 70
     1
102
RTVSPropertyOp42
 70
     1
102
RTVSPropertyOp43
 70
     1
102
RTVSPropertyOp44
 70
     1
102
RTVSPropertyOp45
 70
     1
102
RTVSPropertyOp46
 70
     1
102
RTVSPropertyOp47
 70
     1
102
RTVSPropertyOp48
 70
     1
102
RTVSPropertyOp49
 70
     1
102
RTVSPropertyOp50
 70
     1
102
RTVSPropertyOp51
 70
     0
102
RTVSPropertyOp52
 70
     0
102
RTVSPropertyOp53
 70
     1
102
RTVSPropertyOp54
 70
     1
102
RTVSPropertyOp55
 70
     1
102
RTVSPropertyOp56
 70
     1
102
RTVSPropertyOp57
 70
     1
102
RTVSPost2010Prop28
280
     0
102
RTVSPost2010PropOp28
 70
     1
102
RTVSPost2010Prop29
280
     1
102
RTVSPost2010PropOp29
 70
     1
102
RTVSPost2010Prop30
280
     1
102
RTVSPost2010PropOp30
 70
     1
102
RTVSPost2010Prop31
280
     0
102
RTVSPost2010PropOp31
 70
     1
102
RTVSPost2010Prop32
280
     0
102
RTVSPost2010PropOp32
 70
     1
102
RTVSPost2010Prop33
280
     0
102
RTVSPost2010PropOp33
 70
     1
102
RTVSPost2010Prop34
280
     0
102
RTVSPost2010PropOp34
 70
     1
102
RTVSPost2010Prop35
280
     0
102
RTVSPost2010PropOp35
 70
     1
102
RTVSPost2010Prop36
280
     0
102
RTVSPost2010PropOp36
 70
     1
102
RTVSPost2010Prop37
 90
       50
102
RTVSPost2010PropOp37
 70
     1
102
RTVSPost2010Prop38
140
0.0
102
RTVSPost2010PropOp38
 70
     1
102
RTVSPost2010Prop39
140
1.0
102
RTVSPost2010PropOp39
 70
     1
102
RTVSPost2010Prop40
 90
        0
102
RTVSPost2010PropOp40
 70
     1
102
RTVSPost2010Prop41ColorIndex
 90
       18
102
RTVSPost2010Prop41ColorRGB
 90
        0
102
RTVSPost2010PropOp41
 70
     1
102
RTVSPost2010Prop42
 90
       50
102
RTVSPost2010PropOp42
 70
     1
102
RTVSPost2010Prop43
 90
        3
102
RTVSPost2010PropOp43
 70
     1
102
RTVSPost2010Prop44ColorIndex
 90
        5
102
RTVSPost2010Prop44ColorRGB
 90
      255
102
RTVSPost2010PropOp44
 70
     1
102
RTVSPost2010Prop45
280
     0
102
RTVSPost2010PropOp45
 70
     1
102
RTVSPost2010Prop46
 90
       50
102
RTVSPost2010PropOp46
 70
     1
102
RTVSPost2010Prop47
 90
       50
102
RTVSPost2010PropOp47
 70
     1
102
RTVSPost2010Prop48
 90
       50
102
RTVSPost2010PropOp48
 70
     1
102
RTVSPost2010Prop49
280
     0
102
RTVSPost2010PropOp49
 70
     1
102
RTVSPost2010Prop50
 90
       50
102
RTVSPost2010PropOp50
 70
     1
102
RTVSPost2010Prop51ColorIndex
 90
      256
102
RTVSPost2010Prop51ColorRGB
 90
-16777216
102
RTVSPost2010PropOp51
 70
     0
102
RTVSPost2010Prop52
140
1.0
102
RTVSPost2010PropOp52
 70
     0
102
RTVSPost2010Prop53
 90
        2
102
RTVSPost2010PropOp53
 70
     1
102
RTVSPost2010Prop54
  1
strokes_ogs.tif
102
RTVSPost2010PropOp54
 70
     1
102
RTVSPost2010Prop55
280
     0
102
RTVSPost2010PropOp55
 70
     1
102
RTVSPost2010Prop56
140
1.0
102
RTVSPost2010PropOp56
 70
     1
102
RTVSPost2010Prop57
140
1.0
102
RTVSPost2010PropOp57
 70
     1
  0
ENDSEC
  0
EOF
