  0
SECTION
  2
HEADER
  9
$ACADVER
  1
AC1018
  9
$ACADMAINTVER
 70
     0
  9
$DWGCODEPAGE
  3
ANSI_932
  9
$INSBASE
 10
0.0
 20
0.0
 30
0.0
  9
$EXTMIN
 10
-1188.0
 20
-840.0
 30
0.0
  9
$EXTMAX
 10
1188.0
 20
840.0
 30
0.0
  9
$LIMMIN
 10
-1188.0
 20
-840.0
  9
$LIMMAX
 10
1188.0
 20
840.0
  9
$ORTHOMODE
 70
     0
  9
$REGENMODE
 70
     1
  9
$FILLMODE
 70
     1
  9
$QTEXTMODE
 70
     0
  9
$MIRRTEXT
 70
     1
  9
$LTSCALE
 40
4.0
  9
$ATTMODE
 70
     1
  9
$TEXTSIZE
 40
2.5
  9
$TRACEWID
 40
1.0
  9
$TEXTSTYLE
  7
Standard
  9
$CLAYER
  8
0
  9
$CELTYPE
  6
ByLayer
  9
$CECOLOR
 62
   256
  9
$CELTSCALE
 40
1.0
  9
$DISPSILH
 70
     0
  9
$DIMSCALE
 40
1.0
  9
$DIMASZ
 40
2.5
  9
$DIMEXO
 40
0.625
  9
$DIMDLI
 40
3.75
  9
$DIMRND
 40
0.0
  9
$DIMDLE
 40
0.0
  9
$DIMEXE
 40
1.25
  9
$DIMTP
 40
0.0
  9
$DIMTM
 40
0.0
  9
$DIMTXT
 40
2.5
  9
$DIMCEN
 40
2.5
  9
$DIMTSZ
 40
0.0
  9
$DIMTOL
 70
     0
  9
$DIMLIM
 70
     0
  9
$DIMTIH
 70
     0
  9
$DIMTOH
 70
     0
  9
$DIMSE1
 70
     0
  9
$DIMSE2
 70
     0
  9
$DIMTAD
 70
     1
  9
$DIMZIN
 70
     8
  9
$DIMBLK
  1

  9
$DIMASO
 70
     1
  9
$DIMSHO
 70
     1
  9
$DIMPOST
  1

  9
$DIMAPOST
  1

  9
$DIMALT
 70
     0
  9
$DIMALTD
 70
     3
  9
$DIMALTF
 40
0.03937007874016
  9
$DIMLFAC
 40
1.0
  9
$DIMTOFL
 70
     1
  9
$DIMTVP
 40
0.0
  9
$DIMTIX
 70
     0
  9
$DIMSOXD
 70
     0
  9
$DIMSAH
 70
     0
  9
$DIMBLK1
  1

  9
$DIMBLK2
  1

  9
$DIMSTYLE
  2
ISO-25
  9
$DIMCLRD
 70
     0
  9
$DIMCLRE
 70
     0
  9
$DIMCLRT
 70
     0
  9
$DIMTFAC
 40
1.0
  9
$DIMGAP
 40
0.625
  9
$DIMJUST
 70
     0
  9
$DIMSD1
 70
     0
  9
$DIMSD2
 70
     0
  9
$DIMTOLJ
 70
     0
  9
$DIMTZIN
 70
     8
  9
$DIMALTZ
 70
     0
  9
$DIMALTTZ
 70
     0
  9
$DIMUPT
 70
     0
  9
$DIMDEC
 70
     2
  9
$DIMTDEC
 70
     2
  9
$DIMALTU
 70
     2
  9
$DIMALTTD
 70
     3
  9
$DIMTXSTY
  7
Standard
  9
$DIMAUNIT
 70
     0
  9
$DIMADEC
 70
     0
  9
$DIMALTRND
 40
0.0
  9
$DIMAZIN
 70
     0
  9
$DIMDSEP
 70
    44
  9
$DIMATFIT
 70
     3
  9
$DIMFRAC
 70
     0
  9
$DIMLDRBLK
  1

  9
$DIMLUNIT
 70
     2
  9
$DIMLWD
 70
    -2
  9
$DIMLWE
 70
    -2
  9
$DIMTMOVE
 70
     0
  9
$LUNITS
 70
     2
  9
$LUPREC
 70
     4
  9
$SKETCHINC
 40
1.0
  9
$FILLETRAD
 40
10.0
  9
$AUNITS
 70
     0
  9
$AUPREC
 70
     0
  9
$MENU
  1
.
  9
$ELEVATION
 40
0.0
  9
$PELEVATION
 40
0.0
  9
$THICKNESS
 40
0.0
  9
$LIMCHECK
 70
     0
  9
$CHAMFERA
 40
10.0
  9
$CHAMFERB
 40
10.0
  9
$CHAMFERC
 40
20.0
  9
$CHAMFERD
 40
0.0
  9
$SKPOLY
 70
     0
  9
$TDCREATE
 40
2457548.453917708
  9
$TDUCREATE
 40
2457548.078917708
  9
$TDUPDATE
 40
2457548.45391772
  9
$TDUUPDATE
 40
2457548.07891772
  9
$TDINDWG
 40
0.0000000116
  9
$TDUSRTIMER
 40
0.0000000116
  9
$USRTIMER
 70
     1
  9
$ANGBASE
 50
0.0
  9
$ANGDIR
 70
     0
  9
$PDMODE
 70
     0
  9
$PDSIZE
 40
0.0
  9
$PLINEWID
 40
0.0
  9
$SPLFRAME
 70
     0
  9
$SPLINETYPE
 70
     6
  9
$SPLINESEGS
 70
     8
  9
$HANDSEED
  5
601
  9
$SURFTAB1
 70
     6
  9
$SURFTAB2
 70
     6
  9
$SURFTYPE
 70
     6
  9
$SURFU
 70
     6
  9
$SURFV
 70
     6
  9
$UCSBASE
  2

  9
$UCSNAME
  2

  9
$UCSORG
 10
0.0
 20
0.0
 30
0.0
  9
$UCSXDIR
 10
1.0
 20
0.0
 30
0.0
  9
$UCSYDIR
 10
0.0
 20
1.0
 30
0.0
  9
$UCSORTHOREF
  2

  9
$UCSORTHOVIEW
 70
     0
  9
$UCSORGTOP
 10
0.0
 20
0.0
 30
0.0
  9
$UCSORGBOTTOM
 10
0.0
 20
0.0
 30
0.0
  9
$UCSORGLEFT
 10
0.0
 20
0.0
 30
0.0
  9
$UCSORGRIGHT
 10
0.0
 20
0.0
 30
0.0
  9
$UCSORGFRONT
 10
0.0
 20
0.0
 30
0.0
  9
$UCSORGBACK
 10
0.0
 20
0.0
 30
0.0
  9
$PUCSBASE
  2

  9
$PUCSNAME
  2

  9
$PUCSORG
 10
0.0
 20
0.0
 30
0.0
  9
$PUCSXDIR
 10
1.0
 20
0.0
 30
0.0
  9
$PUCSYDIR
 10
0.0
 20
1.0
 30
0.0
  9
$PUCSORTHOREF
  2

  9
$PUCSORTHOVIEW
 70
     0
  9
$PUCSORGTOP
 10
0.0
 20
0.0
 30
0.0
  9
$PUCSORGBOTTOM
 10
0.0
 20
0.0
 30
0.0
  9
$PUCSORGLEFT
 10
0.0
 20
0.0
 30
0.0
  9
$PUCSORGRIGHT
 10
0.0
 20
0.0
 30
0.0
  9
$PUCSORGFRONT
 10
0.0
 20
0.0
 30
0.0
  9
$PUCSORGBACK
 10
0.0
 20
0.0
 30
0.0
  9
$USERI1
 70
     0
  9
$USERI2
 70
     0
  9
$USERI3
 70
     0
  9
$USERI4
 70
     0
  9
$USERI5
 70
     0
  9
$USERR1
 40
0.0
  9
$USERR2
 40
0.0
  9
$USERR3
 40
0.0
  9
$USERR4
 40
0.0
  9
$USERR5
 40
0.0
  9
$WORLDVIEW
 70
     1
  9
$SHADEDGE
 70
     3
  9
$SHADEDIF
 70
    70
  9
$TILEMODE
 70
     1
  9
$MAXACTVP
 70
    64
  9
$PINSBASE
 10
0.0
 20
0.0
 30
0.0
  9
$PLIMCHECK
 70
     0
  9
$PEXTMIN
 10
1.000000000000000E+20
 20
1.000000000000000E+20
 30
1.000000000000000E+20
  9
$PEXTMAX
 10
-1.000000000000000E+20
 20
-1.000000000000000E+20
 30
-1.000000000000000E+20
  9
$PLIMMIN
 10
0.0
 20
0.0
  9
$PLIMMAX
 10
420.0
 20
297.0
  9
$UNITMODE
 70
     0
  9
$VISRETAIN
 70
     1
  9
$PLINEGEN
 70
     0
  9
$PSLTSCALE
 70
     1
  9
$TREEDEPTH
 70
  3020
  9
$CMLSTYLE
  2
Standard
  9
$CMLJUST
 70
     0
  9
$CMLSCALE
 40
20.0
  9
$PROXYGRAPHICS
 70
     1
  9
$MEASUREMENT
 70
     1
  9
$CELWEIGHT
370
    -1
  9
$ENDCAPS
280
     0
  9
$JOINSTYLE
280
     0
  9
$LWDISPLAY
290
     0
  9
$INSUNITS
 70
     4
  9
$HYPERLINKBASE
  1

  9
$STYLESHEET
  1

  9
$XEDIT
290
     1
  9
$CEPSNTYPE
380
     0
  9
$PSTYLEMODE
290
     1
  9
$FINGERPRINTGUID
  2
{9CE23DD4-C56D-453B-8568-F995352610B7}
  9
$VERSIONGUID
  2
{FAEB1C32-E019-11D5-929B-00C0DF256EC4}
  9
$EXTNAMES
290
     1
  9
$PSVPSCALE
 40
0.0
  9
$OLESTARTUP
290
     0
  9
$SORTENTS
280
   127
  9
$INDEXCTL
280
     0
  9
$HIDETEXT
280
     1
  9
$XCLIPFRAME
290
     0
  9
$HALOGAP
280
     0
  9
$OBSCOLOR
 70
   257
  9
$OBSLTYPE
280
     0
  9
$INTERSECTIONDISPLAY
280
     0
  9
$INTERSECTIONCOLOR
 70
   257
  9
$DIMASSOC
280
     2
  9
$PROJECTNAME
  1

  0
ENDSEC
  0
SECTION
  2
CLASSES
  0
CLASS
  1
ACDBDICTIONARYWDFLT
  2
AcDbDictionaryWithDefault
  3
ObjectDBX Classes
 90
        0
 91
        4
280
     0
281
     0
  0
CLASS
  1
VISUALSTYLE
  2
AcDbVisualStyle
  3
ObjectDBX Classes
 90
     4095
 91
        4
280
     0
281
     0
  0
ENDSEC
  0
SECTION
  2
TABLES
  0
TABLE
  2
VPORT
  5
8
330
0
100
AcDbSymbolTable
 70
     1
  0
VPORT
  5
29
330
8
100
AcDbSymbolTableRecord
100
AcDbViewportTableRecord
  2
*Active
 70
     0
 10
0.0
 20
0.0
 11
1.0
 21
1.0
 12
0.0
 22
0.0
 13
0.0
 23
0.0
 14
10.0
 24
10.0
 15
10.0
 25
10.0
 16
0.0
 26
0.0
 36
1.0
 17
0.0
 27
0.0
 37
0.0
 40
1848.0
 41
1.414285714285714
 42
50.0
 43
0.0
 44
0.0
 50
0.0
 51
0.0
 71
     0
 72
 10000
 73
     1
 74
     3
 75
     0
 76
     0
 77
     0
 78
     0
281
     0
 65
     1
110
0.0
120
0.0
130
0.0
111
1.0
121
0.0
131
0.0
112
0.0
122
1.0
132
0.0
 79
     0
146
0.0
  0
ENDTAB
  0
TABLE
  2
LTYPE
  5
5
330
0
100
AcDbSymbolTable
 70
     3
  0
LTYPE
  5
14
330
5
100
AcDbSymbolTableRecord
100
AcDbLinetypeTableRecord
  2
ByBlock
 70
     0
  3

 72
    65
 73
     0
 40
0.0
  0
LTYPE
  5
15
330
5
100
AcDbSymbolTableRecord
100
AcDbLinetypeTableRecord
  2
ByLayer
 70
     0
  3

 72
    65
 73
     0
 40
0.0
  0
LTYPE
  5
16
330
5
100
AcDbSymbolTableRecord
100
AcDbLinetypeTableRecord
  2
Continuous
 70
     0
  3
Solid line
 72
    65
 73
     0
 40
0.0
  0
LTYPE
  5
3C
330
5
100
AcDbSymbolTableRecord
100
AcDbLinetypeTableRecord
  2
JWW_DASHED1
 70
     0
  3
-  --  --  --  --  --  --  --  -
 72
    65
 73
     2
 40
1.693333333333333
 49
0.8466666666666667
 74
     0
 49
-0.8466666666666667
 74
     0
  0
LTYPE
  5
3D
330
5
100
AcDbSymbolTableRecord
100
AcDbLinetypeTableRecord
  2
JWW_CENTER1
 70
     0
  3
-----  --  ----------  --  -----
 72
    65
 73
     4
 40
6.773333333333333
 49
4.233333333333333
 74
     0
 49
-0.8466666666666667
 74
     0
 49
0.8466666666666667
 74
     0
 49
-0.8466666666666667
 74
     0
  0
ENDTAB
  0
TABLE
  2
LAYER
  5
2
330
0
100
AcDbSymbolTable
 70
    17
  0
LAYER
  5
10
330
2
100
AcDbSymbolTableRecord
100
AcDbLayerTableRecord
  2
0
 70
     0
 62
     7
  6
Continuous
370
    -3
390
F
  0
LAYER
  5
3E
330
2
100
AcDbSymbolTableRecord
100
AcDbLayerTableRecord
  2
寸法
 70
     0
 62
     7
  6
Continuous
370
    -3
390
F
  0
LAYER
  5
3F
330
2
100
AcDbSymbolTableRecord
100
AcDbLayerTableRecord
  2
通り芯
 70
     0
 62
     7
  6
Continuous
370
    -3
390
F
  0
LAYER
  5
40
330
2
100
AcDbSymbolTableRecord
100
AcDbLayerTableRecord
  2
ハッチ
 70
     0
 62
     7
  6
Continuous
370
    -3
390
F
  0
LAYER
  5
41
330
2
100
AcDbSymbolTableRecord
100
AcDbLayerTableRecord
  2
F-Fﾚｲﾔ
 70
     0
 62
     7
  6
Continuous
370
    -3
390
F
  0
LAYER
  5
42
330
2
100
AcDbSymbolTableRecord
100
AcDbLayerTableRecord
  2
その他
 70
     0
 62
     7
  6
Continuous
370
    -3
390
F
  0
LAYER
  5
43
330
2
100
AcDbSymbolTableRecord
100
AcDbLayerTableRecord
  2
建具
 70
     0
 62
     7
  6
Continuous
370
    -3
390
F
  0
LAYER
  5
44
330
2
100
AcDbSymbolTableRecord
100
AcDbLayerTableRecord
  2
061
 70
     0
 62
     7
  6
Continuous
370
    -3
390
F
  0
LAYER
  5
45
330
2
100
AcDbSymbolTableRecord
100
AcDbLayerTableRecord
  2
躯体
 70
     0
 62
     7
  6
Continuous
370
    -3
390
F
  0
LAYER
  5
46
330
2
100
AcDbSymbolTableRecord
100
AcDbLayerTableRecord
  2
仕上
 70
     0
 62
     7
  6
Continuous
370
    -3
390
F
  0
LAYER
  5
47
330
2
100
AcDbSymbolTableRecord
100
AcDbLayerTableRecord
  2
087
 70
     0
 62
     7
  6
Continuous
370
    -3
390
F
  0
LAYER
  5
48
330
2
100
AcDbSymbolTableRecord
100
AcDbLayerTableRecord
  2
051
 70
     0
 62
     7
  6
Continuous
370
    -3
390
F
  0
LAYER
  5
49
330
2
100
AcDbSymbolTableRecord
100
AcDbLayerTableRecord
  2
090
 70
     0
 62
     7
  6
Continuous
370
    -3
390
F
  0
LAYER
  5
4A
330
2
100
AcDbSymbolTableRecord
100
AcDbLayerTableRecord
  2
041
 70
     0
 62
     7
  6
Continuous
370
    -3
390
F
  0
LAYER
  5
4B
330
2
100
AcDbSymbolTableRecord
100
AcDbLayerTableRecord
  2
092
 70
     0
 62
     7
  6
Continuous
370
    -3
390
F
  0
LAYER
  5
4C
330
2
100
AcDbSymbolTableRecord
100
AcDbLayerTableRecord
  2
F-5ﾚｲﾔ
 70
     0
 62
     7
  6
Continuous
370
    -3
390
F
  0
LAYER
  5
4D
330
2
100
AcDbSymbolTableRecord
100
AcDbLayerTableRecord
  2
021
 70
     0
 62
     7
  6
Continuous
370
    -3
390
F
  0
ENDTAB
  0
TABLE
  2
STYLE
  5
3
330
0
100
AcDbSymbolTable
 70
     2
  0
STYLE
  5
11
330
3
100
AcDbSymbolTableRecord
100
AcDbTextStyleTableRecord
  2
Standard
 70
     0
 40
0.0
 41
1.0
 50
0.0
 71
     0
 42
2.5
  3
txt
  4

1001
ACAD
1000

1071
        0
  0
STYLE
  5
3B
330
3
100
AcDbSymbolTableRecord
100
AcDbTextStyleTableRecord
  2
ＭＳ ゴシック
 70
     0
 40
1.0
 41
1.0
 50
0.0
 71
     0
 42
10.0
  3

  4

1001
ACAD
1000
MS Gothic
1071
    32817
  0
ENDTAB
  0
TABLE
  2
VIEW
  5
6
330
0
100
AcDbSymbolTable
 70
     0
  0
ENDTAB
  0
TABLE
  2
UCS
  5
7
330
0
100
AcDbSymbolTable
 70
     0
  0
ENDTAB
  0
TABLE
  2
APPID
  5
9
330
0
100
AcDbSymbolTable
 70
     1
  0
APPID
  5
12
330
9
100
AcDbSymbolTableRecord
100
AcDbRegAppTableRecord
  2
ACAD
 70
     0
  0
ENDTAB
  0
TABLE
  2
DIMSTYLE
  5
A
330
0
100
AcDbSymbolTable
 70
     1
100
AcDbDimStyleTable
  0
DIMSTYLE
105
27
330
A
100
AcDbSymbolTableRecord
100
AcDbDimStyleTableRecord
  2
ISO-25
 70
     0
 41
2.5
 42
0.625
 43
3.75
 44
1.25
 73
     0
 74
     0
 77
     1
 78
     8
140
2.5
141
2.5
143
0.03937007874016
147
0.625
171
     3
172
     1
271
     2
272
     2
274
     3
278
    44
283
     0
284
     8
340
11
  0
ENDTAB
  0
TABLE
  2
BLOCK_RECORD
  5
1
330
0
100
AcDbSymbolTable
 70
     1
  0
BLOCK_RECORD
  5
1F
330
1
100
AcDbSymbolTableRecord
100
AcDbBlockTableRecord
  2
*Model_Space
340
22
  0
BLOCK_RECORD
  5
1B
330
1
100
AcDbSymbolTableRecord
100
AcDbBlockTableRecord
  2
*Paper_Space
340
1E
  0
BLOCK_RECORD
  5
23
330
1
100
AcDbSymbolTableRecord
100
AcDbBlockTableRecord
  2
*Paper_Space0
340
26
  0
ENDTAB
  0
ENDSEC
  0
SECTION
  2
BLOCKS
  0
BLOCK
  5
20
330
1F
100
AcDbEntity
  8
0
100
AcDbBlockBegin
  2
*Model_Space
 70
     0
 10
0.0
 20
0.0
 30
0.0
  3
*Model_Space
  1

  0
ENDBLK
  5
21
330
1F
100
AcDbEntity
  8
0
100
AcDbBlockEnd
  0
BLOCK
  5
1C
330
1B
100
AcDbEntity
 67
     1
  8
0
100
AcDbBlockBegin
  2
*Paper_Space
 70
     0
 10
0.0
 20
0.0
 30
0.0
  3
*Paper_Space
  1

  0
ENDBLK
  5
1D
330
1B
100
AcDbEntity
 67
     1
  8
0
100
AcDbBlockEnd
  0
BLOCK
  5
24
330
23
100
AcDbEntity
  8
0
100
AcDbBlockBegin
  2
*Paper_Space0
 70
     0
 10
0.0
 20
0.0
 30
0.0
  3
*Paper_Space0
  1

  0
ENDBLK
  5
25
330
23
100
AcDbEntity
  8
0
100
AcDbBlockEnd
  0
ENDSEC
  0
SECTION
  2
ENTITIES
  0
LINE
  5
4E
330
1F
100
AcDbEntity
  8
寸法
  6
Continuous
 62
     7
370
     9
100
AcDbLine
 10
-3.892382464506262
 20
-558.0773453453745
 30
0.0
 11
-101.2681877833697
 21
-389.4175031051673
 31
0.0
  0
LINE
  5
4F
330
1F
100
AcDbEntity
  8
通り芯
  6
JWW_DASHED1
 62
     4
370
     9
100
AcDbLine
 10
-289.7681975109564
 20
471.3360021942991
 30
0.0
 11
-289.7681975109564
 21
291.33590321837
 31
0.0
  0
LINE
  5
50
330
1F
100
AcDbEntity
  8
ハッチ
  6
Continuous
 62
     6
370
     9
100
AcDbLine
 10
-409.8468305160054
 20
-180.961208990579
 30
0.0
 11
-409.7603757441358
 21
-185.2005704901486
 31
0.0
  0
TEXT
  5
51
330
1F
100
AcDbEntity
  8
F-Fﾚｲﾔ
  6
Continuous
 62
     2
370
     9
100
AcDbText
 10
390.2090086797573
 20
622.4722361034554
 30
0.0
 40
12.192
  1
防水工法
 41
1.09375
  7
ＭＳ ゴシック
100
AcDbText
  0
TEXT
  5
52
330
1F
100
AcDbEntity
  8
F-Fﾚｲﾔ
  6
Continuous
 62
     2
370
     9
100
AcDbText
 10
583.255762707711
 20
620.4722361034554
 30
0.0
 40
12.192
  1
アスファルト防水
 41
1.109375
  7
ＭＳ ゴシック
100
AcDbText
  0
TEXT
  5
53
330
1F
100
AcDbEntity
  8
F-Fﾚｲﾔ
  6
Continuous
 62
     3
370
     9
100
AcDbText
 10
390.2090086797573
 20
739.0361660083933
 30
0.0
 40
15.24
  1
名称
 41
1.05
  7
ＭＳ ゴシック
100
AcDbText
  0
TEXT
  5
54
330
1F
100
AcDbEntity
  8
F-Fﾚｲﾔ
  6
Continuous
 62
     2
370
     9
100
AcDbText
 10
390.2090086797573
 20
676.472144550721
 30
0.0
 40
12.192
  1
使用場所
 41
1.09375
  7
ＭＳ ゴシック
100
AcDbText
  0
TEXT
  5
55
330
1F
100
AcDbEntity
  8
F-Fﾚｲﾔ
  6
Continuous
 62
     2
370
   211
100
AcDbText
 10
583.255762707711
 20
676.472144550721
 30
0.0
 40
12.192
  1
屋上
 41
1.0625
  7
ＭＳ ゴシック
100
AcDbText
  0
TEXT
  5
56
330
1F
100
AcDbEntity
  8
F-Fﾚｲﾔ
  6
Continuous
 62
     2
370
     9
100
AcDbText
 10
390.2090086797573
 20
648.472144550721
 30
0.0
 40
12.192
  1
施工方法
 41
1.09375
  7
ＭＳ ゴシック
100
AcDbText
  0
LINE
  5
57
330
1F
100
AcDbEntity
  8
F-Fﾚｲﾔ
  6
Continuous
 62
     7
370
     9
100
AcDbLine
 10
379.5621186212963
 20
764.2161874660653
 30
0.0
 11
1118.347285325923
 21
764.2161874660653
 31
0.0
  0
LINE
  5
58
330
1F
100
AcDbEntity
  8
F-Fﾚｲﾔ
  6
Continuous
 62
     7
370
     9
100
AcDbLine
 10
379.5621186212963
 20
700.2161445507211
 30
0.0
 11
1118.347285325923
 21
700.2161445507211
 31
0.0
  0
LINE
  5
59
330
1F
100
AcDbEntity
  8
F-Fﾚｲﾔ
  6
Continuous
 62
     7
370
     9
100
AcDbLine
 10
379.5621186212963
 20
696.2161445507211
 30
0.0
 11
1118.347285325923
 21
696.2161445507211
 31
0.0
  0
LINE
  5
5A
330
1F
100
AcDbEntity
  8
F-Fﾚｲﾔ
  6
Continuous
 62
     7
370
     9
100
AcDbLine
 10
379.5621186212963
 20
668.2161445507211
 30
0.0
 11
1118.347285325923
 21
668.2161445507211
 31
0.0
  0
LINE
  5
5B
330
1F
100
AcDbEntity
  8
F-Fﾚｲﾔ
  6
Continuous
 62
     7
370
     9
100
AcDbLine
 10
379.5621186212963
 20
640.2161445507211
 30
0.0
 11
1118.347285325923
 21
640.2161445507211
 31
0.0
  0
TEXT
  5
5C
330
1F
100
AcDbEntity
  8
F-Fﾚｲﾔ
  6
Continuous
 62
     3
370
     9
100
AcDbText
 10
583.255762707711
 20
739.0361660083933
 30
0.0
 40
15.24
  1
ルーフドレン　鋳鉄製　防水層張掛け幅100mm
 41
0.997560975609756
  7
ＭＳ ゴシック
100
AcDbText
  0
TEXT
  5
5D
330
1F
100
AcDbEntity
  8
F-Fﾚｲﾔ
  6
Continuous
 62
     3
370
   211
100
AcDbText
 10
583.255762707711
 20
711.036123093049
 30
0.0
 40
15.24
  1
よこ引き用　デッキプレート打込型　屋上用
 41
0.9949999999999999
  7
ＭＳ ゴシック
100
AcDbText
  0
TEXT
  5
5E
330
1F
100
AcDbEntity
  8
F-Fﾚｲﾔ
  6
Continuous
 62
     2
370
     9
100
AcDbText
 10
390.2090086797573
 20
552.4723276561898
 30
0.0
 40
12.192
  1
防水層張掛け幅
 41
1.107142857142857
  7
ＭＳ ゴシック
100
AcDbText
  0
TEXT
  5
5F
330
1F
100
AcDbEntity
  8
F-Fﾚｲﾔ
  6
Continuous
 62
     2
370
   211
100
AcDbText
 10
583.255762707711
 20
552.4723276561898
 30
0.0
 40
12.192
  1
100㎜
 41
1.075
  7
ＭＳ ゴシック
100
AcDbText
  0
TEXT
  5
60
330
1F
100
AcDbEntity
  8
F-Fﾚｲﾔ
  6
Continuous
 62
     2
370
     9
100
AcDbText
 10
390.2090086797573
 20
496.4723276561898
 30
0.0
 40
12.192
  1
排水管サイズ
 41
1.104166666666667
  7
ＭＳ ゴシック
100
AcDbText
  0
TEXT
  5
61
330
1F
100
AcDbEntity
  8
F-Fﾚｲﾔ
  6
Continuous
 62
     2
370
     9
100
AcDbText
 10
390.2090086797573
 20
470.4723276561898
 30
0.0
 40
12.192
  1
各種該当規格
 41
1.104166666666667
  7
ＭＳ ゴシック
100
AcDbText
  0
TEXT
  5
62
330
1F
100
AcDbEntity
  8
F-Fﾚｲﾔ
  6
Continuous
 62
     2
370
     9
100
AcDbText
 10
583.255762707711
 20
468.5087441203331
 30
0.0
 40
12.192
  1
国土交通省大臣官房官庁営繕部
 50
0.0000000000000853
 41
1.116071428571429
  7
ＭＳ ゴシック
100
AcDbText
  0
LINE
  5
63
330
1F
100
AcDbEntity
  8
F-Fﾚｲﾔ
  6
Continuous
 62
     7
370
     9
100
AcDbLine
 10
379.5621186212963
 20
572.2163276561898
 30
0.0
 11
1118.347285325923
 21
572.2163276561898
 31
0.0
  0
LINE
  5
64
330
1F
100
AcDbEntity
  8
F-Fﾚｲﾔ
  6
Continuous
 62
     7
370
     9
100
AcDbLine
 10
379.5621186212963
 20
544.2163276561898
 30
0.0
 11
1118.347285325923
 21
544.2163276561898
 31
0.0
  0
LINE
  5
65
330
1F
100
AcDbEntity
  8
F-Fﾚｲﾔ
  6
Continuous
 62
     7
370
     9
100
AcDbLine
 10
379.5621186212963
 20
516.2163276561898
 30
0.0
 11
1118.347285325923
 21
516.2163276561898
 31
0.0
  0
LINE
  5
66
330
1F
100
AcDbEntity
  8
F-Fﾚｲﾔ
  6
Continuous
 62
     7
370
     9
100
AcDbLine
 10
379.5621186212963
 20
488.2163276561898
 30
0.0
 11
1118.347285325923
 21
488.2163276561898
 31
0.0
  0
TEXT
  5
67
330
1F
100
AcDbEntity
  8
F-Fﾚｲﾔ
  6
Continuous
 62
     2
370
     9
100
AcDbText
 10
390.2090086797573
 20
524.4723276561898
 30
0.0
 40
12.192
  1
排水管接続方法
 41
1.107142857142857
  7
ＭＳ ゴシック
100
AcDbText
  0
LINE
  5
68
330
1F
100
AcDbEntity
  8
F-Fﾚｲﾔ
  6
Continuous
 62
     7
370
     9
100
AcDbLine
 10
379.5621186212963
 20
764.2161874660651
 30
0.0
 11
379.5621186212963
 21
296.2163276561896
 31
0.0
  0
TEXT
  5
69
330
1F
100
AcDbEntity
  8
F-Fﾚｲﾔ
  6
Continuous
 62
     2
370
     9
100
AcDbText
 10
390.2090086797573
 20
375.0640311935612
 30
0.0
 40
12.192
  1
材質
 41
1.0625
  7
ＭＳ ゴシック
100
AcDbText
  0
LINE
  5
6A
330
1F
100
AcDbEntity
  8
F-Fﾚｲﾔ
  6
Continuous
 62
     7
370
     9
100
AcDbLine
 10
379.5621186212963
 20
296.2163276561898
 30
0.0
 11
1118.347285325923
 21
296.2163276561898
 31
0.0
  0
LINE
  5
6B
330
1F
100
AcDbEntity
  8
F-Fﾚｲﾔ
  6
Continuous
 62
     7
370
     9
100
AcDbLine
 10
379.5621186212963
 20
324.2163276561898
 30
0.0
 11
1118.347285325923
 21
324.2163276561898
 31
0.0
  0
LINE
  5
6C
330
1F
100
AcDbEntity
  8
F-Fﾚｲﾔ
  6
Continuous
 62
     7
370
     9
100
AcDbLine
 10
379.5621186212963
 20
436.2163276561898
 30
0.0
 11
1118.347285325923
 21
436.2163276561898
 31
0.0
  0
TEXT
  5
6D
330
1F
100
AcDbEntity
  8
F-Fﾚｲﾔ
  6
Continuous
 62
     2
370
     9
100
AcDbText
 10
583.255762707711
 20
416.4723276561898
 30
0.0
 40
12.192
  1
ねずみ鋳鉄品 FC150（JIS G 5501）樹脂系塗装
 41
1.119047619047619
  7
ＭＳ ゴシック
100
AcDbText
  0
TEXT
  5
6E
330
1F
100
AcDbEntity
  8
F-Fﾚｲﾔ
  6
Continuous
 62
     2
370
     9
100
AcDbText
 10
390.2090086797573
 20
304.4723276561898
 30
0.0
 40
12.192
  1
品番
 41
1.0625
  7
ＭＳ ゴシック
100
AcDbText
  0
LINE
  5
6F
330
1F
100
AcDbEntity
  8
F-Fﾚｲﾔ
  6
Continuous
 62
     7
370
     9
100
AcDbLine
 10
566.7218019501017
 20
764.2161874660653
 30
0.0
 11
566.7218019501017
 21
296.2163276561898
 31
0.0
  0
LINE
  5
70
330
1F
100
AcDbEntity
  8
F-Fﾚｲﾔ
  6
Continuous
 62
     7
370
     9
100
AcDbLine
 10
435.3280030289081
 20
436.2163276561898
 30
0.0
 11
435.3280030289081
 21
324.2163276561898
 31
0.0
  0
LINE
  5
71
330
1F
100
AcDbEntity
  8
F-Fﾚｲﾔ
  6
Continuous
 62
     7
370
     9
100
AcDbLine
 10
435.3280030289081
 20
380.2163276561898
 30
0.0
 11
566.7218019501017
 21
380.2163276561898
 31
0.0
  0
TEXT
  5
72
330
1F
100
AcDbEntity
  8
F-Fﾚｲﾔ
  6
Continuous
 62
     2
370
   211
100
AcDbText
 10
448.4599639870469
 20
416.4723276561898
 30
0.0
 40
12.192
  1
ストレーナー
 41
1.104166666666667
  7
ＭＳ ゴシック
100
AcDbText
  0
LINE
  5
73
330
1F
100
AcDbEntity
  8
F-Fﾚｲﾔ
  6
Continuous
 62
     7
370
     9
100
AcDbLine
 10
435.3280030289081
 20
408.2163276561898
 30
0.0
 11
566.7218019501017
 21
408.2163276561898
 31
0.0
  0
LINE
  5
74
330
1F
100
AcDbEntity
  8
F-Fﾚｲﾔ
  6
Continuous
 62
     7
370
     9
100
AcDbLine
 10
1118.347285325923
 20
764.2161874660653
 30
0.0
 11
1118.347285325923
 21
296.2163276561898
 31
0.0
  0
TEXT
  5
75
330
1F
100
AcDbEntity
  8
F-Fﾚｲﾔ
  6
Continuous
 62
     2
370
   211
100
AcDbText
 10
583.255762707711
 20
445.2632525145569
 30
0.0
 40
12.192
  1
　公共建築工事標準仕様書（建築工事編）平成25年版 13.5.2(b)
 41
1.122844827586207
  7
ＭＳ ゴシック
100
AcDbText
  0
TEXT
  5
76
330
1F
100
AcDbEntity
  8
F-Fﾚｲﾔ
  6
Continuous
 62
     2
370
   211
100
AcDbText
 10
448.4599639870469
 20
388.4723276561898
 30
0.0
 40
12.192
  1
防水層押え
 41
1.1
  7
ＭＳ ゴシック
100
AcDbText
  0
TEXT
  5
77
330
1F
100
AcDbEntity
  8
F-Fﾚｲﾔ
  6
Continuous
 62
     2
370
     9
100
AcDbText
 10
448.4599639870469
 20
360.4723276561898
 30
0.0
 40
12.192
  1
本体
 41
1.0625
  7
ＭＳ ゴシック
100
AcDbText
  0
LINE
  5
78
330
1F
100
AcDbEntity
  8
F-Fﾚｲﾔ
  6
Continuous
 62
     7
370
     9
100
AcDbLine
 10
435.3280030289081
 20
352.2163276561898
 30
0.0
 11
1118.347285325923
 21
352.2163276561898
 31
0.0
  0
TEXT
  5
79
330
1F
100
AcDbEntity
  8
F-Fﾚｲﾔ
  6
Continuous
 62
     2
370
     9
100
AcDbText
 10
448.4599639870469
 20
332.4723276561898
 30
0.0
 40
12.192
  1
固定金具
 41
1.09375
  7
ＭＳ ゴシック
100
AcDbText
  0
TEXT
  5
7A
330
1F
100
AcDbEntity
  8
F-Fﾚｲﾔ
  6
Continuous
 62
     2
370
   211
100
AcDbText
 10
583.255762707711
 20
332.4723276561898
 30
0.0
 40
12.192
  1
溶融亜鉛めっき鋼板
 41
1.111111111111111
  7
ＭＳ ゴシック
100
AcDbText
  0
TEXT
  5
7B
330
1F
100
AcDbEntity
  8
F-Fﾚｲﾔ
  6
Continuous
 62
     2
370
   211
100
AcDbText
 10
583.255762707711
 20
524.4723276561898
 30
0.0
 40
12.192
  1
ねじ込み式　管用テーパめねじ　呼びRc5（JIS B 0203）
 41
1.120098039215686
  7
ＭＳ ゴシック
100
AcDbText
  0
TEXT
  5
7C
330
1F
100
AcDbEntity
  8
F-Fﾚｲﾔ
  6
Continuous
 62
     2
370
   211
100
AcDbText
 10
583.255762707711
 20
496.4723276561898
 30
0.0
 40
12.192
  1
呼び径125（5インチ）
 41
1.1125
  7
ＭＳ ゴシック
100
AcDbText
  0
TEXT
  5
7D
330
1F
100
AcDbEntity
  8
F-Fﾚｲﾔ
  6
Continuous
 62
     2
370
     9
100
AcDbText
 10
583.255762707711
 20
600.4722361034554
 30
0.0
 40
12.192
  1
改質アスファルトシート防水
 41
1.115384615384615
  7
ＭＳ ゴシック
100
AcDbText
  0
TEXT
  5
7E
330
1F
100
AcDbEntity
  8
F-Fﾚｲﾔ
  6
Continuous
 62
     2
370
   211
100
AcDbText
 10
583.255762707711
 20
580.4722361034554
 30
0.0
 40
12.192
  1
合成高分子系ルーフィングシート防水
 41
1.117647058823529
  7
ＭＳ ゴシック
100
AcDbText
  0
LINE
  5
7F
330
1F
100
AcDbEntity
  8
その他
  6
Continuous
 62
     7
370
     9
100
AcDbLine
 10
-359.245890080666
 20
-191.5322212659516
 30
0.0
 11
-286.7680127558889
 21
-191.5322212659516
 31
0.0
  0
LINE
  5
80
330
1F
100
AcDbEntity
  8
建具
  6
Continuous
 62
     4
370
     9
100
AcDbLine
 10
-90.76816610966449
 20
-319.9175675497353
 30
0.0
 11
-90.76816610966449
 21
-378.9174594656641
 31
0.0
  0
LINE
  5
81
330
1F
100
AcDbEntity
  8
建具
  6
Continuous
 62
     4
370
     9
100
AcDbLine
 10
-88.76816610966495
 20
-319.9175675497353
 30
0.0
 11
-88.76816610966495
 21
-378.9174594656641
 31
0.0
  0
ARC
  5
82
330
1F
100
AcDbEntity
  8
通り芯
  6
Continuous
 62
     4
370
     9
100
AcDbCircle
 10
-294.1817098307712
 20
-190.3459448864707
 30
0.0
 40
4.000000051549963
100
AcDbArc
 50
91.16699958817236
 51
165.9116284944224
  0
LINE
  5
83
330
1F
100
AcDbEntity
  8
通り芯
  6
Continuous
 62
     4
370
     9
100
AcDbLine
 10
-243.7681942117589
 20
-321.41749166819
 30
0.0
 11
-168.202249849428
 21
-321.41749166819
 31
0.0
  0
LINE
  5
84
330
1F
100
AcDbEntity
  8
061
  6
Continuous
 62
     2
370
     9
100
AcDbLine
 10
-243.5635614784397
 20
-273.5555531916274
 30
0.0
 11
-242.5738021878993
 21
-273.5557016555209
 31
0.0
  0
LINE
  5
85
330
1F
100
AcDbEntity
  8
061
  6
Continuous
 62
     2
370
     9
100
AcDbLine
 10
-237.9068396931781
 20
-278.2226641502422
 30
0.0
 11
-237.9068396931781
 21
-279.2125719046763
 31
0.0
  0
LINE
  5
86
330
1F
100
AcDbEntity
  8
061
  6
JWW_DASHED1
 62
     2
370
     9
100
AcDbLine
 10
-277.9288948293689
 20
-307.9210844944146
 30
0.0
 11
-277.9288948293689
 21
-308.9110417368132
 31
0.0
  0
LINE
  5
87
330
1F
100
AcDbEntity
  8
061
  6
JWW_DASHED1
 62
     2
370
     9
100
AcDbLine
 10
-277.9288948293689
 20
-307.9210844944146
 30
0.0
 11
-272.2720740681776
 21
-313.5779052556054
 31
0.0
  0
LINE
  5
88
330
1F
100
AcDbEntity
  8
061
  6
JWW_DASHED1
 62
     2
370
     9
100
AcDbLine
 10
-273.2619818226118
 20
-313.5779052556054
 30
0.0
 11
-272.2720740681776
 21
-313.5779052556054
 31
0.0
  0
LINE
  5
89
330
1F
100
AcDbEntity
  8
061
  6
JWW_DASHED1
 62
     2
370
     9
100
AcDbLine
 10
-277.9288948293689
 20
-308.9110417368132
 30
0.0
 11
-273.2619818226118
 21
-313.5779052556054
 31
0.0
  0
LINE
  5
8A
330
1F
100
AcDbEntity
  8
061
  6
Continuous
 62
     2
370
     9
100
AcDbLine
 10
-242.8917623599851
 20
-277.4801467304789
 30
0.0
 11
-241.831235280171
 21
-278.5408222741866
 31
0.0
  0
LINE
  5
8B
330
1F
100
AcDbEntity
  8
061
  6
Continuous
 62
     2
370
     9
100
AcDbLine
 10
-242.8917623599851
 20
-277.4801467304789
 30
0.0
 11
-240.7707082003573
 21
-275.3587956430632
 31
0.0
  0
LINE
  5
8C
330
1F
100
AcDbEntity
  8
061
  6
Continuous
 62
     2
370
     9
100
AcDbLine
 10
-241.831235280171
 20
-278.5408222741866
 30
0.0
 11
-239.7098841927556
 21
-276.419471186771
 31
0.0
  0
LINE
  5
8D
330
1F
100
AcDbEntity
  8
061
  6
Continuous
 62
     2
370
     9
100
AcDbLine
 10
-243.5635614784397
 20
-273.5555531916274
 30
0.0
 11
-241.2655878456272
 21
-275.8536752883335
 31
0.0
  0
LINE
  5
8E
330
1F
100
AcDbEntity
  8
061
  6
Continuous
 62
     2
370
     9
100
AcDbLine
 10
-240.204763838026
 20
-276.9144498079703
 30
0.0
 11
-237.9068396931781
 21
-279.2125719046763
 31
0.0
  0
LINE
  5
8F
330
1F
100
AcDbEntity
  8
061
  6
Continuous
 62
     2
370
     9
100
AcDbLine
 10
-239.7098841927556
 20
-276.419471186771
 30
0.0
 11
-237.9068396931781
 21
-278.2226641502422
 31
0.0
  0
LINE
  5
90
330
1F
100
AcDbEntity
  8
通り芯
  6
Continuous
 62
     4
370
     9
100
AcDbLine
 10
-272.3933690692339
 20
-299.5572225856308
 30
0.0
 11
-275.1808281591831
 21
-299.5572225856308
 31
0.0
  0
LINE
  5
91
330
1F
100
AcDbEntity
  8
通り芯
  6
Continuous
 62
     4
370
     9
100
AcDbLine
 10
-263.9080636955006
 20
-308.042527959364
 30
0.0
 11
-263.9080636955006
 21
-314.252921091754
 31
0.0
  0
LINE
  5
92
330
1F
100
AcDbEntity
  8
061
  6
Continuous
 62
     2
370
     9
100
AcDbLine
 10
-242.5738021878993
 20
-273.5557016555209
 30
0.0
 11
-240.7707082003573
 21
-275.3587956430632
 31
0.0
  0
LINE
  5
93
330
1F
100
AcDbEntity
  8
061
  6
JWW_DASHED1
 62
     2
370
     9
100
AcDbLine
 10
-277.9288948293689
 20
-308.9110417368132
 30
0.0
 11
-270.7403720781018
 21
-301.7224694975818
 31
0.0
  0
LINE
  5
94
330
1F
100
AcDbEntity
  8
061
  6
JWW_DASHED1
 62
     2
370
     9
100
AcDbLine
 10
-277.9288948293689
 20
-307.9210844944146
 30
0.0
 11
-271.1836357763706
 21
-301.1753305617709
 31
0.0
  0
LINE
  5
95
330
1F
100
AcDbEntity
  8
061
  6
JWW_DASHED1
 62
     2
370
     9
100
AcDbLine
 10
-273.2619818226118
 20
-313.5779052556054
 30
0.0
 11
-266.073360095416
 21
-306.389234040445
 31
0.0
  0
LINE
  5
96
330
1F
100
AcDbEntity
  8
061
  6
JWW_DASHED1
 62
     2
370
     9
100
AcDbLine
 10
-272.2722225320714
 20
-313.5779052556054
 30
0.0
 11
-265.5265675753573
 21
-306.8322008109263
 31
0.0
  0
LINE
  5
97
330
1F
100
AcDbEntity
  8
通り芯
  6
Continuous
 62
     4
370
     9
100
AcDbLine
 10
-277.2857987303397
 20
-335.0521187268893
 30
0.0
 11
-261.0001508998922
 21
-329.4488934312811
 31
0.0
  0
LINE
  5
98
330
1F
100
AcDbEntity
  8
通り芯
  6
Continuous
 62
     4
370
     9
100
AcDbLine
 10
-166.2989427337184
 20
-320.7364383003689
 30
0.0
 11
-159.6047057721472
 21
-315.1193068867287
 31
0.0
  0
LINE
  5
99
330
1F
100
AcDbEntity
  8
通り芯
  6
Continuous
 62
     4
370
     9
100
AcDbLine
 10
-166.1222707003572
 20
-326.8995704266359
 30
0.0
 11
-256.4083111353235
 21
-328.6356082222441
 31
0.0
  0
LINE
  5
9A
330
1F
100
AcDbEntity
  8
通り芯
  6
Continuous
 62
     4
370
     9
100
AcDbLine
 10
-164.2514276893772
 20
-326.1981775053943
 30
0.0
 11
-157.6029176070293
 21
-320.6193002883335
 31
0.0
  0
LINE
  5
9B
330
1F
100
AcDbEntity
  8
通り芯
  6
Continuous
 62
     4
370
     9
100
AcDbLine
 10
-287.4625532436427
 20
-329.2378272625733
 30
0.0
 11
-291.3515649359989
 21
-329.3170574937811
 31
0.0
  0
LINE
  5
9C
330
1F
100
AcDbEntity
  8
通り芯
  6
Continuous
 62
     4
370
     9
100
AcDbLine
 10
-295.5678405377727
 20
-325.4378939063656
 30
0.0
 11
-295.2697745274264
 21
-326.4486855818301
 31
0.0
  0
LINE
  5
9D
330
1F
100
AcDbEntity
  8
通り芯
  6
Continuous
 62
     4
370
     9
100
AcDbLine
 10
-283.3927620168685
 20
-325.1295838873623
 30
0.0
 11
-283.6644509421218
 21
-326.2124052951958
 31
0.0
  0
LINE
  5
9E
330
1F
100
AcDbEntity
  8
通り芯
  6
Continuous
 62
     4
370
     9
100
AcDbLine
 10
-281.4913354438114
 20
-323.616736811771
 30
0.0
 11
-168.1698847206272
 21
-321.437781733646
 31
0.0
  0
LINE
  5
9F
330
1F
100
AcDbEntity
  8
通り芯
  6
Continuous
 62
     4
370
     9
100
AcDbLine
 10
-280.3354945443181
 20
-335.5941109143893
 30
0.0
 11
-316.6639659600697
 21
-336.3338075201748
 31
0.0
  0
LINE
  5
A0
330
1F
100
AcDbEntity
  8
通り芯
  6
Continuous
 62
     4
370
     9
100
AcDbLine
 10
-319.7343972311847
 20
-332.8956311846595
 30
0.0
 11
-316.7352286289885
 21
-332.8345135484686
 31
0.0
  0
LINE
  5
A1
330
1F
100
AcDbEntity
  8
通り芯
  6
Continuous
 62
     4
370
     9
100
AcDbLine
 10
-318.3950549592256
 20
-326.0567409027761
 30
0.0
 11
-295.823841778271
 21
-324.8911013863066
 31
0.0
  0
LINE
  5
A2
330
1F
100
AcDbEntity
  8
通り芯
  6
Continuous
 62
     4
370
     9
100
AcDbLine
 10
-319.842033554031
 20
-327.6118012121088
 30
0.0
 11
-295.3004570654331
 21
-326.3442907206603
 31
0.0
  0
LINE
  5
A3
330
1F
100
AcDbEntity
  8
通り芯
  6
Continuous
 62
     4
370
     9
100
AcDbLine
 10
-319.8721222364635
 20
-326.1334225038106
 30
0.0
 11
-319.7343972311847
 21
-332.8956311846595
 31
0.0
  0
LINE
  5
A4
330
1F
100
AcDbEntity
  8
通り芯
  6
JWW_CENTER1
 62
     4
370
     9
100
AcDbLine
 10
-278.7680127558889
 20
-257.545998715276
 30
0.0
 11
-333.4424644292422
 21
-257.545998715276
 31
0.0
  0
ARC
  5
A5
330
1F
100
AcDbEntity
  8
通り芯
  6
Continuous
 62
     4
370
     9
100
AcDbCircle
 10
-157.6764567223163
 20
-317.4173794954703
 30
0.0
 40
3.000000038662472
100
AcDbArc
 50
90.0
 51
130.0000305175781
  0
ARC
  5
A6
330
1F
100
AcDbEntity
  8
通り芯
  6
Continuous
 62
     4
370
     9
100
AcDbCircle
 10
-155.6744706053401
 20
-322.917372897075
 30
0.0
 40
3.000000038662472
100
AcDbArc
 50
90.0
 51
130.0000305175781
  0
ARC
  5
A7
330
1F
100
AcDbEntity
  8
通り芯
  6
Continuous
 62
     4
370
     9
100
AcDbCircle
 10
-168.202249849428
 20
-318.4174322826324
 30
0.0
 40
3.000000038662472
100
AcDbArc
 50
270.0
 51
310.0003356933594
  0
ARC
  5
A8
330
1F
100
AcDbEntity
  8
通り芯
  6
Continuous
 62
     4
370
     9
100
AcDbCircle
 10
-275.1808281591831
 20
-298.0572423808165
 30
0.0
 40
1.500000019331236
100
AcDbArc
 50
200.3317108154297
 51
270.0
  0
ARC
  5
A9
330
1F
100
AcDbEntity
  8
通り芯
  6
Continuous
 62
     4
370
     9
100
AcDbCircle
 10
-262.4078855388281
 20
-314.252921091754
 30
0.0
 40
1.500000019331236
100
AcDbArc
 50
180.0
 51
236.1920928955078
  0
ARC
  5
AA
330
1F
100
AcDbEntity
  8
通り芯
  6
Continuous
 62
     4
370
     9
100
AcDbCircle
 10
-243.7681942117589
 20
-286.4173761962727
 30
0.0
 40
35.00000103099926
100
AcDbArc
 50
180.0
 51
270.0
  0
ARC
  5
AB
330
1F
100
AcDbEntity
  8
通り芯
  6
Continuous
 62
     4
370
     9
100
AcDbCircle
 10
-243.7681942117589
 20
-279.4174520778183
 30
0.0
 40
35.00000103099926
100
AcDbArc
 50
180.0
 51
270.0
  0
ARC
  5
AC
330
1F
100
AcDbEntity
  8
通り芯
  6
Continuous
 62
     4
370
     9
100
AcDbCircle
 10
-256.1198952780593
 20
-343.6326884323369
 30
0.0
 40
14.99999845350111
100
AcDbArc
 50
91.10153198242188
 51
108.9862670898438
  0
ARC
  5
AD
330
1F
100
AcDbEntity
  8
通り芯
  6
Continuous
 62
     4
370
     9
100
AcDbCircle
 10
-280.5392859822401
 20
-325.5961811609053
 30
0.0
 40
10.00000051549963
100
AcDbArc
 50
271.1667022705078
 51
288.9862976074219
  0
ARC
  5
AE
330
1F
100
AcDbEntity
  8
通り芯
  6
Continuous
 62
     4
370
     9
100
AcDbCircle
 10
-168.2272907594784
 20
-318.4383409476451
 30
0.0
 40
3.000000038662472
100
AcDbArc
 50
271.1015319824219
 51
309.9999542236328
  0
ARC
  5
AF
330
1F
100
AcDbEntity
  8
通り芯
  6
Continuous
 62
     4
370
     9
100
AcDbCircle
 10
-166.1797262271726
 20
-323.9000554086881
 30
0.0
 40
3.000000038662472
100
AcDbArc
 50
271.1015319824219
 51
309.9999542236328
  0
ARC
  5
B0
330
1F
100
AcDbEntity
  8
通り芯
  6
Continuous
 62
     4
370
     9
100
AcDbCircle
 10
-291.4328241737522
 20
-325.3179350803521
 30
0.0
 40
4.000000051549963
100
AcDbArc
 50
196.4218597412109
 51
271.1664886474609
  0
ARC
  5
B1
330
1F
100
AcDbEntity
  8
通り芯
  6
Continuous
 62
     4
370
     9
100
AcDbCircle
 10
-287.5439609452893
 20
-325.2386058732152
 30
0.0
 40
4.000000051549963
100
AcDbArc
 50
271.1664886474609
 51
345.9116821289062
  0
ARC
  5
B2
330
1F
100
AcDbEntity
  8
通り芯
  6
Continuous
 62
     4
370
     9
100
AcDbCircle
 10
-281.4531307351969
 20
-325.616446482379
 30
0.0
 40
2.000000025774982
100
AcDbArc
 50
91.10153198242188
 51
165.9117736816406
  0
ARC
  5
B3
330
1F
100
AcDbEntity
  8
通り芯
  6
Continuous
 62
     4
370
     9
100
AcDbCircle
 10
-297.4860435308047
 20
-326.0031949251578
 30
0.0
 40
2.000000025774982
100
AcDbArc
 50
16.42196655273438
 51
33.78799438476562
  0
LINE
  5
B4
330
1F
100
AcDbEntity
  8
通り芯
  6
Continuous
 62
     4
370
     9
100
AcDbLine
 10
-289.768246998921
 20
-95.41758734492137
 30
0.0
 11
-285.6114559305089
 21
-99.87506728579964
 31
0.0
  0
LINE
  5
B5
330
1F
100
AcDbEntity
  8
通り芯
  6
Continuous
 62
     4
370
     9
100
AcDbLine
 10
-278.7680127558889
 20
-286.4173761962727
 30
0.0
 11
-278.7680127558889
 21
-91.41747517220168
 31
0.0
  0
ARC
  5
B6
330
1F
100
AcDbEntity
  8
通り芯
  6
Continuous
 62
     4
370
     9
100
AcDbCircle
 10
-289.2682206053397
 20
-103.2851344574636
 30
0.0
 40
5.000000257749816
100
AcDbArc
 50
0.0
 51
43.00006103515624
  0
ARC
  5
B7
330
1F
100
AcDbEntity
  8
通り芯
  6
Continuous
 62
     4
370
     9
100
AcDbCircle
 10
-280.7683162820719
 20
-91.41747517220168
 30
0.0
 40
2.000000025774982
100
AcDbArc
 50
0.0
 51
90.0
  0
LINE
  5
B8
330
1F
100
AcDbEntity
  8
通り芯
  6
Continuous
 62
     4
370
     9
100
AcDbLine
 10
-60.02175734520466
 20
-324.0230824885024
 30
0.0
 11
-59.76818101496843
 21
-325.4175048649804
 31
0.0
  0
LINE
  5
B9
330
1F
100
AcDbEntity
  8
通り芯
  6
Continuous
 62
     4
370
     9
100
AcDbLine
 10
-157.6764567223163
 20
-314.4174685738064
 30
0.0
 11
-55.76806884224885
 21
-314.4174685738064
 31
0.0
  0
ARC
  5
BA
330
1F
100
AcDbEntity
  8
通り芯
  6
Continuous
 62
     4
370
     9
100
AcDbCircle
 10
-55.76806884224885
 20
-316.4175246601662
 30
0.0
 40
2.000000025774982
100
AcDbArc
 50
0.0
 51
90.0
  0
ARC
  5
BB
330
1F
100
AcDbEntity
  8
通り芯
  6
Continuous
 62
     4
370
     9
100
AcDbCircle
 10
-64.94115794697842
 20
-324.9174289834349
 30
0.0
 40
5.000000257749816
100
AcDbArc
 50
10.30474853515625
 51
90.00000000000001
  0
LINE
  5
BC
330
1F
100
AcDbEntity
  8
躯体
  6
Continuous
 62
     6
370
     9
100
AcDbLine
 10
-255.6742297639126
 20
-282.838380208097
 30
0.0
 11
-258.8563058830006
 21
-287.4345254255801
 31
0.0
  0
LINE
  5
BD
330
1F
100
AcDbEntity
  8
躯体
  6
Continuous
 62
     6
370
     9
100
AcDbLine
 10
-251.785218071556
 20
-294.505662724989
 30
0.0
 11
-247.1890233661085
 21
-291.3237350697947
 31
0.0
  0
LINE
  5
BE
330
1F
100
AcDbEntity
  8
躯体
  6
Continuous
 62
     6
370
     9
100
AcDbLine
 10
-263.8060920949935
 20
-274.706616852945
 30
0.0
 11
-239.0572105229922
 21
-299.4553004730885
 31
0.0
  0
LINE
  5
BF
330
1F
100
AcDbEntity
  8
躯体
  6
Continuous
 62
     6
370
     9
100
AcDbLine
 10
-263.8060920949935
 20
-274.706616852945
 30
0.0
 11
-268.3661605863368
 21
-274.706616852945
 31
0.0
  0
LINE
  5
C0
330
1F
100
AcDbEntity
  8
躯体
  6
Continuous
 62
     6
370
     9
100
AcDbLine
 10
-239.0572105229922
 20
-299.4553994490176
 30
0.0
 11
-239.0572105229922
 21
-304.0154679403605
 31
0.0
  0
LINE
  5
C1
330
1F
100
AcDbEntity
  8
躯体
  6
Continuous
 62
     6
370
     9
100
AcDbLine
 10
-118.186568763068
 20
-289.7682788567456
 30
0.0
 11
-126.1105321551709
 21
-296.417481770597
 31
0.0
  0
LINE
  5
C2
330
1F
100
AcDbEntity
  8
躯体
  6
Continuous
 62
     6
370
     9
100
AcDbLine
 10
-148.7681018342255
 20
-304.4175081641781
 30
0.0
 11
-139.2340475162351
 21
-296.417481770597
 31
0.0
  0
LINE
  5
C3
330
1F
100
AcDbEntity
  8
躯体
  6
Continuous
 62
     6
370
     9
100
AcDbLine
 10
-113.7680358502722
 20
-296.417481770597
 30
0.0
 11
-139.2340475162351
 21
-296.417481770597
 31
0.0
  0
LINE
  5
C4
330
1F
100
AcDbEntity
  8
躯体
  6
Continuous
 62
     6
370
     9
100
AcDbLine
 10
-143.4053880462184
 20
-299.9175675497355
 30
0.0
 11
-143.4053880462184
 21
-304.4175081641781
 31
0.0
  0
LINE
  5
C5
330
1F
100
AcDbEntity
  8
躯体
  6
Continuous
 62
     6
370
     9
100
AcDbLine
 10
-113.7680358502722
 20
-300.4174949673875
 30
0.0
 11
-143.4053880462184
 21
-300.4174949673875
 31
0.0
  0
LINE
  5
C6
330
1F
100
AcDbEntity
  8
仕上
  6
Continuous
 62
     3
370
     9
100
AcDbLine
 10
-123.7685637218938
 20
-290.4174619754111
 30
0.0
 11
-123.7685637218938
 21
-291.4175147625733
 31
0.0
  0
LINE
  5
C7
330
1F
100
AcDbEntity
  8
仕上
  6
Continuous
 62
     3
370
     9
100
AcDbLine
 10
-254.7686495010327
 20
-159.4174751722018
 30
0.0
 11
-255.7685538243014
 21
-159.4174751722018
 31
0.0
  0
LINE
  5
C8
330
1F
100
AcDbEntity
  8
仕上
  6
Continuous
 62
     3
370
     9
100
AcDbLine
 10
-233.7686791938114
 20
-295.9174553770159
 30
0.0
 11
-129.131574437688
 21
-295.9174553770159
 31
0.0
  0
LINE
  5
C9
330
1F
100
AcDbEntity
  8
仕上
  6
Continuous
 62
     3
370
     9
100
AcDbLine
 10
-144.2098149096051
 20
-298.7115953421763
 30
0.0
 11
-144.2862738147992
 21
-298.3290781203648
 31
0.0
  0
LINE
  5
CA
330
1F
100
AcDbEntity
  8
仕上
  6
Continuous
 62
     3
370
     9
100
AcDbLine
 10
-254.7686495010327
 20
-159.4174751722018
 30
0.0
 11
-123.7685637218938
 21
-290.4174619754111
 31
0.0
  0
LINE
  5
CB
330
1F
100
AcDbEntity
  8
仕上
  6
Continuous
 62
     3
370
     9
100
AcDbLine
 10
-228.7686626978231
 20
-185.4176104393048
 30
0.0
 11
-250.9224943859568
 21
-184.5655761540431
 31
0.0
  0
LINE
  5
CC
330
1F
100
AcDbEntity
  8
仕上
  6
Continuous
 62
     3
370
     9
100
AcDbLine
 10
-227.0664746699514
 20
-193.3343980765514
 30
0.0
 11
-223.1116934727389
 21
-191.0744806884602
 31
0.0
  0
LINE
  5
CD
330
1F
100
AcDbEntity
  8
仕上
  6
Continuous
 62
     3
370
     9
100
AcDbLine
 10
-233.0916343511172
 20
-190.7553822931899
 30
0.0
 11
-251.1337585065227
 21
-190.0612146147693
 31
0.0
  0
LINE
  5
CE
330
1F
100
AcDbEntity
  8
仕上
  6
Continuous
 62
     3
370
     9
100
AcDbLine
 10
-229.7480295158131
 20
-192.2161185421341
 30
0.0
 11
-127.4542293680088
 21
-294.5099681779027
 31
0.0
  0
LINE
  5
CF
330
1F
100
AcDbEntity
  8
仕上
  6
Continuous
 62
     3
370
     9
100
AcDbLine
 10
-249.7035563316914
 20
-226.4540203844062
 30
0.0
 11
-221.8972588232455
 21
-200.0669387226663
 31
0.0
  0
LINE
  5
D0
330
1F
100
AcDbEntity
  8
仕上
  6
Continuous
 62
     3
370
     9
100
AcDbLine
 10
-253.9446748916577
 20
-247.3261137912896
 30
0.0
 11
-215.3297110508634
 21
-206.6346349589416
 31
0.0
  0
LINE
  5
D1
330
1F
100
AcDbEntity
  8
仕上
  6
Continuous
 62
     3
370
     9
100
AcDbLine
 10
-249.7035563316914
 20
-259.529054036222
 30
0.0
 11
-204.9268460276376
 21
-217.0374999821679
 31
0.0
  0
LINE
  5
D2
330
1F
100
AcDbEntity
  8
仕上
  6
Continuous
 62
     3
370
     9
100
AcDbLine
 10
-198.3590013274684
 20
-223.6050477545498
 30
0.0
 11
-250.2461918627306
 21
-278.2826171696679
 31
0.0
  0
LINE
  5
D3
330
1F
100
AcDbEntity
  8
仕上
  6
Continuous
 62
     3
370
     9
100
AcDbLine
 10
-187.9561363042422
 20
-234.0081107296342
 30
0.0
 11
-242.6337057193601
 21
-285.8951033130379
 31
0.0
  0
LINE
  5
D4
330
1F
100
AcDbEntity
  8
仕上
  6
Continuous
 62
     3
370
     9
100
AcDbLine
 10
-190.805158422063
 20
-285.3524677819991
 30
0.0
 11
-164.4179777843943
 21
-257.5461702735531
 31
0.0
  0
LINE
  5
D5
330
1F
100
AcDbEntity
  8
仕上
  6
Continuous
 62
     3
370
     9
100
AcDbLine
 10
-211.6774992687693
 20
-289.5935863419652
 30
0.0
 11
-170.9854760688114
 21
-250.9786225011714
 31
0.0
  0
LINE
  5
D6
330
1F
100
AcDbEntity
  8
仕上
  6
Continuous
 62
     3
370
     9
100
AcDbLine
 10
-157.7301742582118
 20
-285.3524677819991
 30
0.0
 11
-147.4472680609989
 21
-274.5168799969483
 31
0.0
  0
LINE
  5
D7
330
1F
100
AcDbEntity
  8
仕上
  6
Continuous
 62
     3
370
     9
100
AcDbLine
 10
-176.8236207320293
 20
-289.5936853178943
 30
0.0
 11
-154.0151127611676
 21
-267.9491342727084
 31
0.0
  0
LINE
  5
D8
330
1F
100
AcDbEntity
  8
仕上
  6
Continuous
 62
     3
370
     9
100
AcDbLine
 10
-137.0444030377722
 20
-284.9196460442457
 30
0.0
 11
-141.9700391230763
 21
-289.5936853178943
 31
0.0
  0
LINE
  5
D9
330
1F
100
AcDbEntity
  8
躯体
  6
Continuous
 62
     6
370
     9
100
AcDbLine
 10
-253.7682502981189
 20
-160.4180228390092
 30
0.0
 11
-253.7682502981189
 21
-150.9175213609686
 31
0.0
  0
LINE
  5
DA
330
1F
100
AcDbEntity
  8
躯体
  6
Continuous
 62
     6
370
     9
100
AcDbLine
 10
-253.7682502981189
 20
-226.5143462131645
 30
0.0
 11
-253.7682502981189
 21
-212.2862594838571
 31
0.0
  0
LINE
  5
DB
330
1F
100
AcDbEntity
  8
躯体
  6
Continuous
 62
     6
370
     9
100
AcDbLine
 10
-253.7682502981189
 20
-259.5892808890513
 30
0.0
 11
-253.7682502981189
 21
-247.1402369965261
 31
0.0
  0
LINE
  5
DC
330
1F
100
AcDbEntity
  8
躯体
  6
Continuous
 62
     6
370
     9
100
AcDbLine
 10
-211.4919194017926
 20
-289.4175081641781
 30
0.0
 11
-223.9401219989214
 21
-289.4175081641781
 31
0.0
  0
LINE
  5
DD
330
1F
100
AcDbEntity
  8
躯体
  6
Continuous
 62
     6
370
     9
100
AcDbLine
 10
-182.1863345200359
 20
-289.7682788567456
 30
0.0
 11
-182.9598314055934
 21
-290.4174619754111
 31
0.0
  0
LINE
  5
DE
330
1F
100
AcDbEntity
  8
躯体
  6
Continuous
 62
     6
370
     9
100
AcDbLine
 10
-181.2223089710492
 20
-289.4175081641781
 30
0.0
 11
-176.638040865053
 21
-289.4175081641781
 31
0.0
  0
LINE
  5
DF
330
1F
100
AcDbEntity
  8
躯体
  6
Continuous
 62
     6
370
     9
100
AcDbLine
 10
-157.7903516230763
 20
-289.4175081641781
 30
0.0
 11
-141.9700391230763
 21
-289.4175081641781
 31
0.0
  0
LINE
  5
E0
330
1F
100
AcDbEntity
  8
躯体
  6
Continuous
 62
     6
370
     9
100
AcDbLine
 10
-124.7684680451626
 20
-289.4175081641781
 30
0.0
 11
-115.2682140069447
 21
-289.4175081641781
 31
0.0
  0
LINE
  5
E1
330
1F
100
AcDbEntity
  8
仕上
  6
Continuous
 62
     3
370
     9
100
AcDbLine
 10
-129.7274095305934
 20
-296.417481770597
 30
0.0
 11
-123.7685637218938
 21
-291.4175147625733
 31
0.0
  0
LINE
  5
E2
330
1F
100
AcDbEntity
  8
仕上
  6
Continuous
 62
     3
370
     9
100
AcDbLine
 10
-223.8801920738788
 20
-285.3524677819991
 30
0.0
 11
-181.3885885318601
 21
-240.5757574779449
 31
0.0
  0
LINE
  5
E3
330
1F
100
AcDbEntity
  8
仕上
  6
Continuous
 62
     3
370
     9
100
AcDbLine
 10
-254.7686495010327
 20
-257.352919772075
 30
0.0
 11
-254.7686495010327
 21
-249.3912465510024
 31
0.0
  0
LINE
  5
E4
330
1F
100
AcDbEntity
  8
仕上
  6
Continuous
 62
     3
370
     9
100
AcDbLine
 10
-221.7040083217676
 20
-290.4174619754111
 30
0.0
 11
-213.7426320284818
 21
-290.4174619754111
 31
0.0
  0
LINE
  5
E5
330
1F
100
AcDbEntity
  8
仕上
  6
Continuous
 62
     3
370
     9
100
AcDbLine
 10
-188.6289746699513
 20
-290.4174619754111
 30
0.0
 11
-178.8884565639547
 21
-290.4174619754111
 31
0.0
  0
LINE
  5
E6
330
1F
100
AcDbEntity
  8
仕上
  6
Continuous
 62
     3
370
     9
100
AcDbLine
 10
-155.5541884579584
 20
-290.4174619754111
 30
0.0
 11
-144.0350729068601
 21
-290.4174619754111
 31
0.0
  0
LINE
  5
E7
330
1F
100
AcDbEntity
  8
仕上
  6
Continuous
 62
     3
370
     9
100
AcDbLine
 10
-254.7686495010327
 20
-224.2778861202592
 30
0.0
 11
-254.7686495010327
 21
-214.5374669901916
 31
0.0
  0
LINE
  5
E8
330
1F
100
AcDbEntity
  8
仕上
  6
Continuous
 62
     3
370
     9
100
AcDbLine
 10
-249.7035563316914
 20
-193.3790857085194
 30
0.0
 11
-246.3994428920797
 21
-190.2435777640514
 31
0.0
  0
LINE
  5
E9
330
1F
100
AcDbEntity
  8
仕上
  6
Continuous
 62
     3
370
     9
100
AcDbLine
 10
-253.944872843516
 20
-212.4725816703014
 30
0.0
 11
-233.327197062266
 21
-190.7461775317878
 31
0.0
  0
LINE
  5
EA
330
1F
100
AcDbEntity
  8
061
  6
Continuous
 62
     2
370
     9
100
AcDbLine
 10
-242.0428194229077
 20
-288.2984368223284
 30
0.0
 11
-246.1285457742589
 21
-292.3842621496087
 31
0.0
  0
LINE
  5
EB
330
1F
100
AcDbEntity
  8
061
  6
Continuous
 62
     2
370
     9
100
AcDbLine
 10
-244.6961661289889
 20
-285.6446942125311
 30
0.0
 11
-248.7822883840564
 21
-289.7305195398116
 31
0.0
  0
LINE
  5
EC
330
1F
100
AcDbEntity
  8
061
  6
Continuous
 62
     2
370
     9
100
AcDbLine
 10
-252.1685023568181
 20
-168.4174553770159
 30
0.0
 11
-254.7686495010327
 21
-168.4174553770159
 31
0.0
  0
LINE
  5
ED
330
1F
100
AcDbEntity
  8
061
  6
Continuous
 62
     2
370
     9
100
AcDbLine
 10
-252.1685023568181
 20
-180.4173959914585
 30
0.0
 11
-254.7686495010327
 21
-180.4173959914585
 31
0.0
  0
LINE
  5
EE
330
1F
100
AcDbEntity
  8
061
  6
Continuous
 62
     2
370
     9
100
AcDbLine
 10
-252.1685023568181
 20
-174.8964691808589
 30
0.0
 11
-252.1685023568181
 21
-173.9384316755801
 31
0.0
  0
LINE
  5
EF
330
1F
100
AcDbEntity
  8
061
  6
Continuous
 62
     2
370
     9
100
AcDbLine
 10
-266.7684416515814
 20
-171.4174652746088
 30
0.0
 11
-266.7684416515814
 21
-177.4174850697947
 31
0.0
  0
LINE
  5
F0
330
1F
100
AcDbEntity
  8
061
  6
Continuous
 62
     2
370
     9
100
AcDbLine
 10
-256.7686066114635
 20
-171.4174652746088
 30
0.0
 11
-266.7684416515814
 21
-171.4174652746088
 31
0.0
  0
LINE
  5
F1
330
1F
100
AcDbEntity
  8
仕上
  6
Continuous
 62
     3
370
     9
100
AcDbLine
 10
-254.7686495010327
 20
-159.4174751722018
 30
0.0
 11
-254.7686495010327
 21
-180.568433259195
 31
0.0
  0
LINE
  5
F2
330
1F
100
AcDbEntity
  8
061
  6
Continuous
 62
     2
370
     9
100
AcDbLine
 10
-256.7686066114635
 20
-177.4174850697947
 30
0.0
 11
-266.7684416515814
 21
-177.4174850697947
 31
0.0
  0
LINE
  5
F3
330
1F
100
AcDbEntity
  8
061
  6
Continuous
 62
     2
370
     9
100
AcDbLine
 10
-256.7686066114635
 20
-172.2875131789586
 30
0.0
 11
-266.7684416515814
 21
-172.2875131789586
 31
0.0
  0
LINE
  5
F4
330
1F
100
AcDbEntity
  8
061
  6
Continuous
 62
     2
370
     9
100
AcDbLine
 10
-256.7686066114635
 20
-176.5474866534094
 30
0.0
 11
-266.7684416515814
 21
-176.5474866534094
 31
0.0
  0
LINE
  5
F5
330
1F
100
AcDbEntity
  8
061
  6
Continuous
 62
     2
370
     9
100
AcDbLine
 10
-256.7686066114635
 20
-176.5474866534094
 30
0.0
 11
-254.8960315217256
 21
-177.5996007792542
 31
0.0
  0
LINE
  5
F6
330
1F
100
AcDbEntity
  8
061
  6
Continuous
 62
     2
370
     9
100
AcDbLine
 10
-256.7686066114635
 20
-177.4174850697947
 30
0.0
 11
-256.0048093669531
 21
-176.9765473058588
 31
0.0
  0
LINE
  5
F7
330
1F
100
AcDbEntity
  8
061
  6
Continuous
 62
     2
370
     9
100
AcDbLine
 10
-256.7686066114635
 20
-172.2875131789586
 30
0.0
 11
-254.8960315217256
 21
-171.2354485410784
 31
0.0
  0
LINE
  5
F8
330
1F
100
AcDbEntity
  8
061
  6
Continuous
 62
     2
370
     9
100
AcDbLine
 10
-256.7686066114635
 20
-171.4174652746088
 30
0.0
 11
-256.0048093669531
 21
-171.8585020144737
 31
0.0
  0
LINE
  5
F9
330
1F
100
AcDbEntity
  8
061
  6
Continuous
 62
     2
370
     9
100
AcDbLine
 10
-250.1801254300868
 20
-173.9384316755801
 30
0.0
 11
-252.1685023568181
 21
-173.9384316755801
 31
0.0
  0
LINE
  5
FA
330
1F
100
AcDbEntity
  8
061
  6
Continuous
 62
     2
370
     9
100
AcDbLine
 10
-256.7686066114635
 20
-171.4174652746088
 30
0.0
 11
-256.7686066114635
 21
-177.4174850697947
 31
0.0
  0
LINE
  5
FB
330
1F
100
AcDbEntity
  8
061
  6
Continuous
 62
     2
370
     9
100
AcDbLine
 10
-250.1801254300868
 20
-174.8964691808589
 30
0.0
 11
-252.1685023568181
 21
-174.8964691808589
 31
0.0
  0
LINE
  5
FC
330
1F
100
AcDbEntity
  8
仕上
  6
Continuous
 62
     3
370
     9
100
AcDbLine
 10
-260.2683954628143
 20
-164.7805353759602
 30
0.0
 11
-260.2683954628143
 21
-171.4175147625733
 31
0.0
  0
LINE
  5
FD
330
1F
100
AcDbEntity
  8
仕上
  6
Continuous
 62
     3
370
     9
100
AcDbLine
 10
-260.2683954628143
 20
-177.4174850697947
 30
0.0
 11
-260.2686923906018
 21
-269.4174916681899
 31
0.0
  0
LINE
  5
FE
330
1F
100
AcDbEntity
  8
躯体
  6
Continuous
 62
     6
370
     9
100
AcDbLine
 10
-266.7684416515814
 20
-171.4175147625733
 30
0.0
 11
-268.7681018342251
 21
-171.4175147625733
 31
0.0
  0
LINE
  5
FF
330
1F
100
AcDbEntity
  8
躯体
  6
Continuous
 62
     6
370
     9
100
AcDbLine
 10
-266.7684416515814
 20
-172.287562666923
 30
0.0
 11
-268.7681018342251
 21
-172.287562666923
 31
0.0
  0
LINE
  5
100
330
1F
100
AcDbEntity
  8
躯体
  6
Continuous
 62
     6
370
     9
100
AcDbLine
 10
-266.7684416515814
 20
-176.547536141374
 30
0.0
 11
-268.7681018342251
 21
-176.547536141374
 31
0.0
  0
LINE
  5
101
330
1F
100
AcDbEntity
  8
躯体
  6
Continuous
 62
     6
370
     9
100
AcDbLine
 10
-266.7684416515814
 20
-177.4174850697947
 30
0.0
 11
-268.7681018342251
 21
-177.4174850697947
 31
0.0
  0
LINE
  5
102
330
1F
100
AcDbEntity
  8
仕上
  6
Continuous
 62
     3
370
     9
100
AcDbLine
 10
-132.2539680715564
 20
-281.9322555776071
 30
0.0
 11
-135.0822547322405
 21
-286.8818438377423
 31
0.0
  0
LINE
  5
103
330
1F
100
AcDbEntity
  8
仕上
  6
Continuous
 62
     3
370
     9
100
AcDbLine
 10
-196.3396944229076
 20
-225.6246020989331
 30
0.0
 11
-193.5111603224009
 21
-220.6749643508336
 31
0.0
  0
LINE
  5
104
330
1F
100
AcDbEntity
  8
仕上
  6
Continuous
 62
     3
370
     9
100
AcDbLine
 10
-189.9757401365901
 20
-231.9886058732152
 30
0.0
 11
-185.0259539245968
 21
-229.1601707486375
 31
0.0
  0
LINE
  5
105
330
1F
100
AcDbEntity
  8
躯体
  6
Continuous
 62
     6
370
     9
100
AcDbLine
 10
-266.9149260265814
 20
-279.3759052819989
 30
0.0
 11
-258.1494197976969
 21
-288.1414609988486
 31
0.0
  0
LINE
  5
106
330
1F
100
AcDbEntity
  8
躯体
  6
Continuous
 62
     6
370
     9
100
AcDbLine
 10
-252.4924010846477
 20
-293.798331248004
 30
0.0
 11
-243.7265979279751
 21
-302.5642581245877
 31
0.0
  0
LINE
  5
107
330
1F
100
AcDbEntity
  8
仕上
  6
Continuous
 62
     3
370
     9
100
AcDbLine
 10
-254.7686495010327
 20
-191.2029019564077
 30
0.0
 11
-254.7686495010327
 21
-189.1853271306055
 31
0.0
  0
LINE
  5
108
330
1F
100
AcDbEntity
  8
躯体
  6
Continuous
 62
     6
370
     9
100
AcDbLine
 10
-261.6189715027218
 20
-178.8358101331393
 30
0.0
 11
-268.7681018342251
 21
-187.3556581061122
 31
0.0
  0
LINE
  5
109
330
1F
100
AcDbEntity
  8
躯体
  6
Continuous
 62
     6
370
     9
100
AcDbLine
 10
-143.4053880462184
 20
-299.9175675497355
 30
0.0
 11
-233.7681348262018
 21
-299.9175675497355
 31
0.0
  0
LINE
  5
10A
330
1F
100
AcDbEntity
  8
躯体
  6
Continuous
 62
     6
370
     9
100
AcDbLine
 10
-196.2814965766239
 20
-298.4175873449213
 30
0.0
 11
-196.2814965766239
 21
-295.9174553770159
 31
0.0
  0
LINE
  5
10B
330
1F
100
AcDbEntity
  8
躯体
  6
Continuous
 62
     6
370
     9
100
AcDbLine
 10
-189.5145123071985
 20
-295.9174553770159
 30
0.0
 11
-194.0634460065226
 21
-299.7343383610742
 31
0.0
  0
LINE
  5
10C
330
1F
100
AcDbEntity
  8
061
  6
JWW_CENTER1
 62
     2
370
     9
100
AcDbLine
 10
-268.7681018342251
 20
-174.4174751722017
 30
0.0
 11
-249.9603988675868
 21
-174.4174751722017
 31
0.0
  0
LINE
  5
10D
330
1F
100
AcDbEntity
  8
躯体
  6
Continuous
 62
     6
370
     9
100
AcDbLine
 10
-113.7680358502722
 20
-304.4175081641781
 30
0.0
 11
-233.7681348262018
 21
-304.4175081641781
 31
0.0
  0
LINE
  5
10E
330
1F
100
AcDbEntity
  8
躯体
  6
Continuous
 62
     6
370
     9
100
AcDbLine
 10
-113.7680358502722
 20
-304.4175081641781
 30
0.0
 11
-113.7680358502722
 21
-290.9175873449213
 31
0.0
  0
LINE
  5
10F
330
1F
100
AcDbEntity
  8
躯体
  6
Continuous
 62
     6
370
     9
100
AcDbLine
 10
-268.7681018342251
 20
-149.4175411561545
 30
0.0
 11
-268.7681018342251
 21
-269.4174916681899
 31
0.0
  0
LINE
  5
110
330
1F
100
AcDbEntity
  8
躯体
  6
Continuous
 62
     6
370
     9
100
AcDbLine
 10
-255.2682799908977
 20
-149.4175411561545
 30
0.0
 11
-268.7681018342251
 21
-149.4175411561545
 31
0.0
  0
LINE
  5
111
330
1F
100
AcDbEntity
  8
躯体
  6
Continuous
 62
     6
370
     9
100
AcDbLine
 10
-254.119070478651
 20
-153.8358266291275
 30
0.0
 11
-261.2681513221893
 21
-162.3557240900649
 31
0.0
  0
LINE
  5
112
330
1F
100
AcDbEntity
  8
仕上
  6
Continuous
 62
     3
370
     9
100
AcDbLine
 10
-262.497976728651
 20
-179.8833713662475
 30
0.0
 11
-262.0950952094364
 21
-179.9988762754534
 31
0.0
  0
LINE
  5
113
330
1F
100
AcDbEntity
  8
躯体
  6
Continuous
 62
     6
370
     9
100
AcDbLine
 10
-264.2680127558893
 20
-269.4174916681899
 30
0.0
 11
-264.2680127558893
 21
-181.9927463662474
 31
0.0
  0
LINE
  5
114
330
1F
100
AcDbEntity
  8
仕上
  6
Continuous
 62
     3
370
     9
100
AcDbLine
 10
-261.2681513221893
 20
-165.9719086339838
 30
0.0
 11
-255.7685538243014
 21
-159.4174751722018
 31
0.0
  0
ARC
  5
115
330
1F
100
AcDbEntity
  8
躯体
  6
Continuous
 62
     6
370
     9
100
AcDbCircle
 10
-117.2222957742588
 20
-290.9175873449213
 30
0.0
 40
1.500000019331236
100
AcDbArc
 50
90.0
 51
130.0000305175781
  0
ARC
  5
116
330
1F
100
AcDbEntity
  8
躯体
  6
Continuous
 62
     6
370
     9
100
AcDbCircle
 10
-115.2682140069447
 20
-290.9175873449213
 30
0.0
 40
1.500000019331236
100
AcDbArc
 50
0.0
 51
90.0
  0
ARC
  5
117
330
1F
100
AcDbEntity
  8
躯体
  6
Continuous
 62
     6
370
     9
100
AcDbCircle
 10
-255.2682799908977
 20
-150.9175213609686
 30
0.0
 40
1.500000019331236
100
AcDbArc
 50
0.0
 51
90.0
  0
ARC
  5
118
330
1F
100
AcDbEntity
  8
躯体
  6
Continuous
 62
     6
370
     9
100
AcDbCircle
 10
-255.2682799908977
 20
-152.8715536403183
 30
0.0
 40
1.500000019331236
100
AcDbArc
 50
319.9999694824219
 51
0.0
  0
ARC
  5
119
330
1F
100
AcDbEntity
  8
躯体
  6
Continuous
 62
     6
370
     9
100
AcDbCircle
 10
-262.7681315270039
 20
-150.9175213609686
 30
0.0
 40
1.500000019331236
100
AcDbArc
 50
0.0
 51
90.0
  0
ARC
  5
11A
330
1F
100
AcDbEntity
  8
躯体
  6
Continuous
 62
     6
370
     9
100
AcDbCircle
 10
-181.2223089710492
 20
-290.9175873449213
 30
0.0
 40
1.500000019331236
100
AcDbArc
 50
90.0
 51
130.0000305175781
  0
ARC
  5
11B
330
1F
100
AcDbEntity
  8
躯体
  6
Continuous
 62
     6
370
     9
100
AcDbCircle
 10
-262.7681315270039
 20
-177.8715866322947
 30
0.0
 40
1.500000019331236
100
AcDbArc
 50
319.9999694824219
 51
0.0
  0
ARC
  5
11C
330
1F
100
AcDbEntity
  8
躯体
  6
Continuous
 62
     6
370
     9
100
AcDbCircle
 10
-264.7936739150952
 20
-277.2546531705125
 30
0.0
 40
3.000000038662472
100
AcDbArc
 50
194.1765289306641
 51
225.0
  0
ARC
  5
11D
330
1F
100
AcDbEntity
  8
躯体
  6
Continuous
 62
     6
370
     9
100
AcDbCircle
 10
-233.7681348262018
 20
-269.4174916681899
 30
0.0
 40
30.49999855660104
100
AcDbArc
 50
180.0
 51
189.9864044189453
  0
ARC
  5
11E
330
1F
100
AcDbEntity
  8
躯体
  6
Continuous
 62
     6
370
     9
100
AcDbCircle
 10
-241.605098376666
 20
-300.4429565251367
 30
0.0
 40
3.000000038662472
100
AcDbArc
 50
224.9999237060547
 51
255.823471069336
  0
ARC
  5
11F
330
1F
100
AcDbEntity
  8
躯体
  6
Continuous
 62
     6
370
     9
100
AcDbCircle
 10
-233.7681348262018
 20
-269.4174916681899
 30
0.0
 40
30.49999855660104
100
AcDbArc
 50
260.013671875
 51
270.0
  0
ARC
  5
120
330
1F
100
AcDbEntity
  8
仕上
  6
Continuous
 62
     3
370
     9
100
AcDbCircle
 10
-147.2280363781443
 20
-298.9175147625734
 30
0.0
 40
3.000000038662472
100
AcDbArc
 50
11.30950927734375
 51
89.99966430664062
  0
ARC
  5
121
330
1F
100
AcDbEntity
  8
仕上
  6
Continuous
 62
     3
370
     9
100
AcDbCircle
 10
-250.7684878403485
 20
-180.568433259195
 30
0.0
 40
4.000000051549963
100
AcDbArc
 50
180.0
 51
267.7975921630859
  0
ARC
  5
122
330
1F
100
AcDbEntity
  8
仕上
  6
Continuous
 62
     3
370
     9
100
AcDbCircle
 10
-250.7684878403485
 20
-180.568433259195
 30
0.0
 40
9.500000412399705
100
AcDbArc
 50
180.0
 51
267.7974243164062
  0
ARC
  5
123
330
1F
100
AcDbEntity
  8
仕上
  6
Continuous
 62
     3
370
     9
100
AcDbCircle
 10
-227.8110705842251
 20
-192.0320233140935
 30
0.0
 40
1.500000019331236
100
AcDbArc
 50
225.0
 51
299.7444152832031
  0
ARC
  5
124
330
1F
100
AcDbEntity
  8
仕上
  6
Continuous
 62
     3
370
     9
100
AcDbCircle
 10
-233.2836971414464
 20
-195.7515882159095
 30
0.0
 40
5.000000257749816
100
AcDbArc
 50
44.99980163574219
 51
87.79737854003906
  0
ARC
  5
125
330
1F
100
AcDbEntity
  8
仕上
  6
Continuous
 62
     3
370
     9
100
AcDbCircle
 10
-251.7686890914043
 20
-257.352919772075
 30
0.0
 40
3.000000038662472
100
AcDbArc
 50
180.0003356933594
 51
313.499984741211
  0
ARC
  5
126
330
1F
100
AcDbEntity
  8
仕上
  6
Continuous
 62
     3
370
     9
100
AcDbCircle
 10
-251.7686890914043
 20
-224.2778861202592
 30
0.0
 40
3.000000038662472
100
AcDbArc
 50
180.0001678466797
 51
313.5
  0
ARC
  5
127
330
1F
100
AcDbEntity
  8
仕上
  6
Continuous
 62
     3
370
     9
100
AcDbCircle
 10
-251.7686890914043
 20
-191.2029019564077
 30
0.0
 40
3.000000038662472
100
AcDbArc
 50
180.0001678466797
 51
313.5002136230469
  0
ARC
  5
128
330
1F
100
AcDbEntity
  8
仕上
  6
Continuous
 62
     3
370
     9
100
AcDbCircle
 10
-251.7686890914043
 20
-214.5374669901916
 30
0.0
 40
3.000000038662472
100
AcDbArc
 50
136.5000152587891
 51
179.9994964599609
  0
ARC
  5
129
330
1F
100
AcDbEntity
  8
仕上
  6
Continuous
 62
     3
370
     9
100
AcDbCircle
 10
-221.7040083217676
 20
-287.4176005417119
 30
0.0
 40
3.000000038662472
100
AcDbArc
 50
136.5000152587891
 51
269.9996643066406
  0
ARC
  5
12A
330
1F
100
AcDbEntity
  8
仕上
  6
Continuous
 62
     3
370
     9
100
AcDbCircle
 10
-188.6289746699513
 20
-287.4176005417119
 30
0.0
 40
3.000000038662472
100
AcDbArc
 50
136.5
 51
269.9998321533203
  0
ARC
  5
12B
330
1F
100
AcDbEntity
  8
仕上
  6
Continuous
 62
     3
370
     9
100
AcDbCircle
 10
-155.5541884579584
 20
-287.4176005417119
 30
0.0
 40
3.000000038662472
100
AcDbArc
 50
136.4997863769531
 51
269.9998321533203
  0
ARC
  5
12C
330
1F
100
AcDbEntity
  8
仕上
  6
Continuous
 62
     3
370
     9
100
AcDbCircle
 10
-144.0350729068601
 20
-287.4176005417119
 30
0.0
 40
3.000000038662472
100
AcDbArc
 50
269.9996643066406
 51
313.4999847412109
  0
ARC
  5
12D
330
1F
100
AcDbEntity
  8
仕上
  6
Continuous
 62
     3
370
     9
100
AcDbCircle
 10
-178.8887534917422
 20
-287.4176005417119
 30
0.0
 40
3.000000038662472
100
AcDbArc
 50
270.0005035400391
 51
313.4999847412109
  0
ARC
  5
12E
330
1F
100
AcDbEntity
  8
仕上
  6
Continuous
 62
     3
370
     9
100
AcDbCircle
 10
-213.7426320284818
 20
-287.4174025898537
 30
0.0
 40
3.000000038662472
100
AcDbArc
 50
270.0003356933594
 51
313.4999847412109
  0
ARC
  5
12F
330
1F
100
AcDbEntity
  8
仕上
  6
Continuous
 62
     3
370
     9
100
AcDbCircle
 10
-251.7686890914043
 20
-249.3912465510024
 30
0.0
 40
3.000000038662472
100
AcDbArc
 50
136.5000152587891
 51
180.0
  0
ARC
  5
130
330
1F
100
AcDbEntity
  8
仕上
  6
Continuous
 62
     3
370
     9
100
AcDbCircle
 10
-263.2686528002306
 20
-182.7598098164163
 30
0.0
 40
3.000000038662472
100
AcDbArc
 50
0.0
 51
66.9705810546875
  0
ARC
  5
131
330
1F
100
AcDbEntity
  8
仕上
  6
Continuous
 62
     3
370
     9
100
AcDbCircle
 10
-142.7389831158976
 20
-298.4175873449213
 30
0.0
 40
1.500000019331236
100
AcDbArc
 50
191.3109588623047
 51
248.7187194824219
  0
ARC
  5
132
330
1F
100
AcDbEntity
  8
061
  6
Continuous
 62
     2
370
     9
100
AcDbCircle
 10
-253.9699137535664
 20
-289.6190231557322
 30
0.0
 40
10.08940980241105
100
AcDbArc
 50
23.19786071777344
 51
66.80213928222658
  0
ARC
  5
133
330
1F
100
AcDbEntity
  8
061
  6
Continuous
 62
     2
370
     9
100
AcDbCircle
 10
-244.8393348103656
 20
-288.441407551847
 30
0.0
 40
2.80018948219918
100
AcDbArc
 50
2.92572021484375
 51
87.07427978515625
  0
ARC
  5
134
330
1F
100
AcDbEntity
  8
061
  6
Continuous
 62
     2
370
     9
100
AcDbCircle
 10
-255.0186132098585
 20
-177.8173973111376
 30
0.0
 40
0.2500000032218727
100
AcDbArc
 50
0.0
 51
60.67082214355469
  0
ARC
  5
135
330
1F
100
AcDbEntity
  8
061
  6
Continuous
 62
     2
370
     9
100
AcDbCircle
 10
-255.0186132098585
 20
-171.0175530332659
 30
0.0
 40
0.2500000032218727
100
AcDbArc
 50
299.3291778564453
 51
0.0
  0
ARC
  5
136
330
1F
100
AcDbEntity
  8
061
  6
Continuous
 62
     2
370
     9
100
AcDbCircle
 10
-260.1685287503993
 20
-174.4173761962728
 30
0.0
 40
10.00000051549963
100
AcDbArc
 50
2.745620727539063
 51
36.869873046875
  0
ARC
  5
137
330
1F
100
AcDbEntity
  8
061
  6
Continuous
 62
     2
370
     9
100
AcDbCircle
 10
-260.1685287503993
 20
-174.4173761962728
 30
0.0
 40
10.00000051549963
100
AcDbArc
 50
323.130126953125
 51
357.2543792724609
  0
ARC
  5
138
330
1F
100
AcDbEntity
  8
仕上
  6
Continuous
 62
     3
370
     9
100
AcDbCircle
 10
-248.0701565745127
 20
-280.3477499293808
 30
0.0
 40
3.000000038662472
100
AcDbArc
 50
136.5000152587891
 51
147.2848510742188
  0
ARC
  5
139
330
1F
100
AcDbEntity
  8
仕上
  6
Continuous
 62
     3
370
     9
100
AcDbCircle
 10
-244.6987889911089
 20
-283.7188700729619
 30
0.0
 40
3.000000038662472
100
AcDbArc
 50
302.7147521972656
 51
313.4999847412109
  0
ARC
  5
13A
330
1F
100
AcDbEntity
  8
仕上
  6
Continuous
 62
     3
370
     9
100
AcDbCircle
 10
-233.7686791938114
 20
-269.4174916681899
 30
0.0
 40
26.49999773180163
100
AcDbArc
 50
180.0
 51
205.4976654052734
  0
ARC
  5
13B
330
1F
100
AcDbEntity
  8
仕上
  6
Continuous
 62
     3
370
     9
100
AcDbCircle
 10
-233.7686791938114
 20
-269.4174916681899
 30
0.0
 40
26.49999773180163
100
AcDbArc
 50
244.50244140625
 51
270.0
  0
ARC
  5
13C
330
1F
100
AcDbEntity
  8
躯体
  6
Continuous
 62
     6
370
     9
100
AcDbCircle
 10
-194.7815163718097
 20
-298.4175873449213
 30
0.0
 40
1.500000019331236
100
AcDbArc
 50
180.0
 51
298.6094818115234
  0
ARC
  5
13D
330
1F
100
AcDbEntity
  8
躯体
  6
Continuous
 62
     6
370
     9
100
AcDbCircle
 10
-233.7681348262018
 20
-269.4174916681899
 30
0.0
 40
34.99999793800148
100
AcDbArc
 50
180.0
 51
218.4367176663806
  0
ARC
  5
13E
330
1F
100
AcDbEntity
  8
躯体
  6
Continuous
 62
     6
370
     9
100
AcDbCircle
 10
-233.7681348262018
 20
-269.4174916681899
 30
0.0
 40
34.99999793800148
100
AcDbArc
 50
231.561842111864
 51
270.0
  0
LINE
  5
13F
330
1F
100
AcDbEntity
  8
061
  6
Continuous
 62
     2
370
     9
100
AcDbLine
 10
-250.8122846889552
 20
-278.5082822879111
 30
0.0
 11
-242.8593213496389
 21
-286.4611961392625
 31
0.0
  0
LINE
  5
140
330
1F
100
AcDbEntity
  8
061
  6
Continuous
 62
     2
370
     9
100
AcDbLine
 10
-249.9955848103656
 20
-280.3452755311544
 30
0.0
 11
-254.0814596256101
 21
-284.4312988102929
 31
0.0
  0
ARC
  5
141
330
1F
100
AcDbEntity
  8
061
  6
Continuous
 62
     2
370
     9
100
AcDbCircle
 10
-252.7921001978235
 20
-280.4881472847439
 30
0.0
 40
2.800173630585542
100
AcDbArc
 50
2.925567626953125
 51
87.07463073730469
  0
LINE
  5
142
330
1F
100
AcDbEntity
  8
061
  6
Continuous
 62
     2
370
     9
100
AcDbLine
 10
-252.6492779321981
 20
-277.6917308732152
 30
0.0
 11
-256.735350699301
 21
-281.7775562004957
 31
0.0
  0
LINE
  5
143
330
1F
100
AcDbEntity
  8
061
  6
Continuous
 62
     2
370
     9
100
AcDbLine
 10
-249.1692806271031
 20
-280.1512761260358
 30
0.0
 11
-242.5738021878993
 21
-273.5557016555209
 31
0.0
  0
LINE
  5
144
330
1F
100
AcDbEntity
  8
061
  6
Continuous
 62
     2
370
     9
100
AcDbLine
 10
-249.6643105025997
 20
-279.6562493309033
 30
0.0
 11
-243.5635614784397
 21
-273.5554542156983
 31
0.0
  0
LINE
  5
145
330
1F
100
AcDbEntity
  8
061
  6
Continuous
 62
     2
370
     9
100
AcDbLine
 10
-244.5024145921135
 20
-284.8181131210697
 30
0.0
 11
-237.9068396931781
 21
-278.2224661983842
 31
0.0
  0
LINE
  5
146
330
1F
100
AcDbEntity
  8
061
  6
Continuous
 62
     2
370
     9
100
AcDbLine
 10
-244.0073501202656
 20
-285.3131745123386
 30
0.0
 11
-237.9068396931781
 21
-279.2125719046763
 31
0.0
  0
LINE
  5
147
330
1F
100
AcDbEntity
  8
061
  6
Continuous
 62
     2
370
     9
100
AcDbLine
 10
-271.1836357763706
 20
-301.1753305617709
 30
0.0
 11
-254.2602579097467
 21
-284.252374686636
 31
0.0
  0
LINE
  5
148
330
1F
100
AcDbEntity
  8
061
  6
Continuous
 62
     2
370
     9
100
AcDbLine
 10
-270.7403720781018
 20
-301.7224694975818
 30
0.0
 11
-253.7653077172073
 21
-284.7473209203577
 31
0.0
  0
LINE
  5
149
330
1F
100
AcDbEntity
  8
061
  6
Continuous
 62
     2
370
     9
100
AcDbLine
 10
-266.073360095416
 20
-306.389234040445
 30
0.0
 11
-249.0986955492532
 21
-289.4138957628053
 31
0.0
  0
LINE
  5
14A
330
1F
100
AcDbEntity
  8
061
  6
Continuous
 62
     2
370
     9
100
AcDbLine
 10
-265.5265675753573
 20
-306.8322008109263
 30
0.0
 11
-248.603266062126
 21
-289.9093212872808
 31
0.0
  0
ARC
  5
14B
330
1F
100
AcDbEntity
  8
通り芯
  6
Continuous
 62
     4
370
     9
100
AcDbCircle
 10
-288.2681678181776
 20
-175.7224497023961
 30
0.0
 40
4.000000051549963
100
AcDbArc
 50
271.5074469070451
 51
0.0
  0
LINE
  5
14C
330
1F
100
AcDbEntity
  8
仕上
  6
Continuous
 62
     3
370
     9
100
AcDbLine
 10
-260.2683954628143
 20
-178.4174751722017
 30
0.0
 11
-254.7686495010327
 21
-178.4174751722017
 31
0.0
  0
LINE
  5
14D
330
1F
100
AcDbEntity
  8
仕上
  6
Continuous
 62
     3
370
     9
100
AcDbLine
 10
-260.2683954628143
 20
-170.4174751722017
 30
0.0
 11
-254.7686495010327
 21
-170.4174751722017
 31
0.0
  0
LINE
  5
14E
330
1F
100
AcDbEntity
  8
通り芯
  6
Continuous
 62
     4
370
     9
100
AcDbLine
 10
-120.3886598406903
 20
-322.4777714454866
 30
0.0
 11
-118.7679679221497
 21
-333.4175675497355
 31
0.0
  0
ARC
  5
14F
330
1F
100
AcDbEntity
  8
通り芯
  6
Continuous
 62
     4
370
     9
100
AcDbCircle
 10
-123.3562709597932
 20
-322.9174124874467
 30
0.0
 40
3.0
100
AcDbArc
 50
8.426873619441738
 51
90.00000000000006
  0
LINE
  5
150
330
1F
100
AcDbEntity
  8
通り芯
  6
Continuous
 62
     4
370
     9
100
AcDbLine
 10
-94.0731965031892
 20
-321.0871902718517
 30
0.0
 11
-108.7679679221497
 21
-333.4175675497355
 31
0.0
  0
ARC
  5
151
330
1F
100
AcDbEntity
  8
通り芯
  6
Continuous
 62
     4
370
     9
100
AcDbCircle
 10
-90.85925845475691
 20
-324.9174124874467
 30
0.0
 40
5.0
100
AcDbArc
 50
90.0
 51
129.9999999999996
  0
LINE
  5
152
330
1F
100
AcDbEntity
  8
通り芯
  6
Continuous
 62
     4
370
     9
100
AcDbLine
 10
-64.94115794697842
 20
-319.9174124874467
 30
0.0
 11
-155.6744706053401
 21
-319.9174124874467
 31
0.0
  0
LINE
  5
153
330
1F
100
AcDbEntity
  8
通り芯
  6
Continuous
 62
     4
370
     9
100
AcDbLine
 10
-285.4379324057928
 20
-129.7227695382731
 30
0.0
 11
-297.7682074214373
 21
-144.4174190858419
 31
0.0
  0
ARC
  5
154
330
1F
100
AcDbEntity
  8
通り芯
  6
Continuous
 62
     4
370
     9
100
AcDbCircle
 10
-289.2681546213877
 20
-126.5088314898404
 30
0.0
 40
5.0
100
AcDbArc
 50
319.9999999999998
 51
359.9999999999999
  0
LINE
  5
155
330
1F
100
AcDbEntity
  8
通り芯
  6
Continuous
 62
     4
370
     9
100
AcDbLine
 10
-286.8285103206896
 20
-156.0381086139165
 30
0.0
 11
-297.7682074214373
 21
-154.4174190858419
 31
0.0
  0
ARC
  5
156
330
1F
100
AcDbEntity
  8
通り芯
  6
Continuous
 62
     4
370
     9
100
AcDbCircle
 10
-287.2681546213877
 20
-159.0057192502473
 30
0.0
 40
3.0
100
AcDbArc
 50
0.0
 51
81.57306346397873
  0
LINE
  5
157
330
1F
100
AcDbEntity
  8
061
  6
JWW_CENTER1
 62
     2
370
     9
100
AcDbLine
 10
-239.5296280105091
 20
-275.178981954817
 30
0.0
 11
-278.8419972628568
 21
-314.4913046168807
 31
0.0
  0
LINE
  5
158
330
1F
100
AcDbEntity
  8
通り芯
  6
Continuous
 62
     4
370
     9
100
AcDbLine
 10
-118.7679679221497
 20
-333.4175675497355
 30
0.0
 11
-108.7679679221497
 21
-333.4175675497355
 31
0.0
  0
LINE
  5
159
330
1F
100
AcDbEntity
  8
通り芯
  6
Continuous
 62
     4
370
     9
100
AcDbLine
 10
-297.7682074214373
 20
-154.4174190858419
 30
0.0
 11
-297.7682074214373
 21
-144.4174190858419
 31
0.0
  0
LINE
  5
15A
330
1F
100
AcDbEntity
  8
通り芯
  6
JWW_CENTER1
 62
     4
370
     9
100
AcDbLine
 10
-312.7682014121843
 20
-149.4174190858419
 30
0.0
 11
-282.9008726596754
 21
-149.4174190858419
 31
0.0
  0
LINE
  5
15B
330
1F
100
AcDbEntity
  8
通り芯
  6
Continuous
 62
     4
370
     9
100
AcDbLine
 10
-288.1629403104422
 20
-179.7210654108651
 30
0.0
 11
-319.8400540354497
 21
-180.3662023417542
 31
0.0
  0
LINE
  5
15C
330
1F
100
AcDbEntity
  8
061
  6
Continuous
 62
     2
370
     9
100
AcDbLine
 10
-264.7681737685162
 20
-363.8174167528376
 30
0.0
 11
-252.7681179178136
 21
-363.8174167528376
 31
0.0
  0
LINE
  5
15D
330
1F
100
AcDbEntity
  8
061
  6
Continuous
 62
     2
370
     9
100
AcDbLine
 10
-252.7681179178136
 20
-363.8174167528376
 30
0.0
 11
-252.7681179178136
 21
-368.9091512965681
 31
0.0
  0
LINE
  5
15E
330
1F
100
AcDbEntity
  8
061
  6
Continuous
 62
     2
370
     9
100
AcDbLine
 10
-253.818412653991
 20
-368.0516930125657
 30
0.0
 11
-252.2680908172616
 21
-369.3174175776371
 31
0.0
  0
LINE
  5
15F
330
1F
100
AcDbEntity
  8
061
  6
Continuous
 62
     2
370
     9
100
AcDbLine
 10
-253.818412653991
 20
-368.0516930125657
 30
0.0
 11
-255.1626194750353
 21
-368.0516930125657
 31
0.0
  0
LINE
  5
160
330
1F
100
AcDbEntity
  8
061
  6
Continuous
 62
     2
370
     9
100
AcDbLine
 10
-255.1626194750353
 20
-368.0516930125657
 30
0.0
 11
-255.1626194750353
 21
-370.317471778741
 31
0.0
  0
LINE
  5
161
330
1F
100
AcDbEntity
  8
061
  6
Continuous
 62
     2
370
     9
100
AcDbLine
 10
-253.6823569248874
 20
-370.317471778741
 30
0.0
 11
-254.6824111259913
 21
-371.3174268860876
 31
0.0
  0
LINE
  5
162
330
1F
100
AcDbEntity
  8
061
  6
Continuous
 62
     2
370
     9
100
AcDbLine
 10
-252.2680908172616
 20
-370.317471778741
 30
0.0
 11
-253.2681450183655
 21
-371.3174268860876
 31
0.0
  0
LINE
  5
163
330
1F
100
AcDbEntity
  8
061
  6
Continuous
 62
     2
370
     9
100
AcDbLine
 10
-256.717796905884
 20
-370.317471778741
 30
0.0
 11
-255.3036298920161
 21
-371.3174268860876
 31
0.0
  0
LINE
  5
164
330
1F
100
AcDbEntity
  8
061
  6
Continuous
 62
     2
370
     9
100
AcDbLine
 10
-252.2680908172616
 20
-369.3174175776371
 30
0.0
 11
-252.2680908172616
 21
-370.317471778741
 31
0.0
  0
LINE
  5
165
330
1F
100
AcDbEntity
  8
061
  6
Continuous
 62
     2
370
     9
100
AcDbLine
 10
-264.7681737685162
 20
-363.8174167528376
 30
0.0
 11
-264.7681737685162
 21
-368.9091512965681
 31
0.0
  0
LINE
  5
166
330
1F
100
AcDbEntity
  8
061
  6
Continuous
 62
     2
370
     9
100
AcDbLine
 10
-263.7178790323393
 20
-368.0516930125657
 30
0.0
 11
-265.2682008690687
 21
-369.3174175776371
 31
0.0
  0
LINE
  5
167
330
1F
100
AcDbEntity
  8
061
  6
Continuous
 62
     2
370
     9
100
AcDbLine
 10
-263.7178790323393
 20
-368.0516930125657
 30
0.0
 11
-262.3736722112955
 21
-368.0516930125657
 31
0.0
  0
LINE
  5
168
330
1F
100
AcDbEntity
  8
061
  6
Continuous
 62
     2
370
     9
100
AcDbLine
 10
-262.3736722112955
 20
-368.0516930125657
 30
0.0
 11
-262.3736722112955
 21
-370.317471778741
 31
0.0
  0
LINE
  5
169
330
1F
100
AcDbEntity
  8
061
  6
Continuous
 62
     2
370
     9
100
AcDbLine
 10
-263.8539347614434
 20
-370.317471778741
 30
0.0
 11
-262.853880560339
 21
-371.3174268860876
 31
0.0
  0
LINE
  5
16A
330
1F
100
AcDbEntity
  8
061
  6
Continuous
 62
     2
370
     9
100
AcDbLine
 10
-260.8184947804467
 20
-370.317471778741
 30
0.0
 11
-262.232760888072
 21
-371.3174268860876
 31
0.0
  0
LINE
  5
16B
330
1F
100
AcDbEntity
  8
061
  6
Continuous
 62
     2
370
     9
100
AcDbLine
 10
-265.2682008690687
 20
-369.3174175776371
 30
0.0
 11
-265.2682008690687
 21
-370.317471778741
 31
0.0
  0
LINE
  5
16C
330
1F
100
AcDbEntity
  8
061
  6
Continuous
 62
     2
370
     9
100
AcDbLine
 10
-265.2682008690687
 20
-370.317471778741
 30
0.0
 11
-264.2681466679643
 21
-371.3174268860876
 31
0.0
  0
LINE
  5
16D
330
1F
100
AcDbEntity
  8
061
  6
Continuous
 62
     2
370
     9
100
AcDbLine
 10
-265.2682008690687
 20
-370.317471778741
 30
0.0
 11
-252.2680908172616
 21
-370.317471778741
 31
0.0
  0
LINE
  5
16E
330
1F
100
AcDbEntity
  8
061
  6
Continuous
 62
     2
370
     9
100
AcDbLine
 10
-262.7681644600663
 20
-330.7133469564989
 30
0.0
 11
-261.7682093527197
 21
-329.7132927553948
 31
0.0
  0
LINE
  5
16F
330
1F
100
AcDbEntity
  8
061
  6
Continuous
 62
     2
370
     9
100
AcDbLine
 10
-261.7682093527197
 20
-329.7132927553948
 30
0.0
 11
-255.7681814273684
 21
-329.7132927553948
 31
0.0
  0
LINE
  5
170
330
1F
100
AcDbEntity
  8
061
  6
Continuous
 62
     2
370
     9
100
AcDbLine
 10
-262.7681644600663
 20
-330.7133469564989
 30
0.0
 11
-254.7682263200214
 21
-330.7133469564989
 31
0.0
  0
LINE
  5
171
330
1F
100
AcDbEntity
  8
061
  6
Continuous
 62
     2
370
     9
100
AcDbLine
 10
-255.7681814273684
 20
-329.7132927553948
 30
0.0
 11
-254.7682263200214
 21
-330.7133469564989
 31
0.0
  0
LINE
  5
172
330
1F
100
AcDbEntity
  8
061
  6
Continuous
 62
     2
370
     9
100
AcDbLine
 10
-262.7681644600663
 20
-363.8174167528376
 30
0.0
 11
-262.7681644600663
 21
-330.7133469564989
 31
0.0
  0
LINE
  5
173
330
1F
100
AcDbEntity
  8
061
  6
Continuous
 62
     2
370
     9
100
AcDbLine
 10
-261.7682093527197
 20
-363.8174167528376
 30
0.0
 11
-261.7682093527197
 21
-329.7132927553948
 31
0.0
  0
LINE
  5
174
330
1F
100
AcDbEntity
  8
061
  6
Continuous
 62
     2
370
     9
100
AcDbLine
 10
-254.7682263200214
 20
-363.8174167528376
 30
0.0
 11
-254.7682263200214
 21
-330.7133469564989
 31
0.0
  0
LINE
  5
175
330
1F
100
AcDbEntity
  8
061
  6
Continuous
 62
     2
370
     9
100
AcDbLine
 10
-255.7681814273684
 20
-363.8174167528376
 30
0.0
 11
-255.7681814273684
 21
-329.7132927553948
 31
0.0
  0
LINE
  5
176
330
1F
100
AcDbEntity
  8
061
  6
Continuous
 62
     2
370
     9
100
AcDbLine
 10
-118.2682118271178
 20
-384.9174827367904
 30
0.0
 11
-109.2680212984538
 21
-384.9174827367904
 31
0.0
  0
LINE
  5
177
330
1F
100
AcDbEntity
  8
061
  6
Continuous
 62
     2
370
     9
100
AcDbLine
 10
-103.2797855302502
 20
-389.4174293604857
 30
0.0
 11
-101.2679840646525
 21
-389.4174293604857
 31
0.0
  0
LINE
  5
178
330
1F
100
AcDbEntity
  8
061
  6
Continuous
 62
     2
370
     9
100
AcDbLine
 10
-106.6642337253061
 20
-387.5499084058677
 30
0.0
 11
-109.2680212984538
 21
-383.4174509820131
 31
0.0
  0
LINE
  5
179
330
1F
100
AcDbEntity
  8
061
  6
Continuous
 62
     2
370
     9
100
AcDbLine
 10
-109.0681491894939
 20
-380.9174641198894
 30
0.0
 11
-108.5826888713005
 21
-380.9174641198894
 31
0.0
  0
LINE
  5
17A
330
1F
100
AcDbEntity
  8
061
  6
Continuous
 62
     2
370
     9
100
AcDbLine
 10
-124.256348501564
 20
-389.4174293604857
 30
0.0
 11
-126.2681499671617
 21
-389.4174293604857
 31
0.0
  0
LINE
  5
17B
330
1F
100
AcDbEntity
  8
061
  6
Continuous
 62
     2
370
     9
100
AcDbLine
 10
-120.8721975877802
 20
-387.5499084058677
 30
0.0
 11
-118.2682118271178
 21
-383.4174509820131
 31
0.0
  0
LINE
  5
17C
330
1F
100
AcDbEntity
  8
061
  6
Continuous
 62
     2
370
     9
100
AcDbLine
 10
-118.4681830298351
 20
-380.9174641198894
 30
0.0
 11
-118.9535442542711
 21
-380.9174641198894
 31
0.0
  0
LINE
  5
17D
330
1F
100
AcDbEntity
  8
061
  6
Continuous
 62
     2
370
     9
100
AcDbLine
 10
-109.2680212984538
 20
-384.9174827367904
 30
0.0
 11
-109.2680212984538
 21
-381.1174353226072
 31
0.0
  0
LINE
  5
17E
330
1F
100
AcDbEntity
  8
061
  6
Continuous
 62
     2
370
     9
100
AcDbLine
 10
-110.2680754995582
 20
-381.1174353226072
 30
0.0
 11
-110.2680754995582
 21
-384.9174827367904
 31
0.0
  0
LINE
  5
17F
330
1F
100
AcDbEntity
  8
061
  6
Continuous
 62
     2
370
     9
100
AcDbLine
 10
-117.2682567197708
 20
-381.1174353226072
 30
0.0
 11
-117.2682567197708
 21
-384.9174827367904
 31
0.0
  0
LINE
  5
180
330
1F
100
AcDbEntity
  8
061
  6
Continuous
 62
     2
370
     9
100
AcDbLine
 10
-118.2682118271178
 20
-384.9174827367904
 30
0.0
 11
-118.2682118271178
 21
-381.1174353226072
 31
0.0
  0
LINE
  5
181
330
1F
100
AcDbEntity
  8
建具
  6
Continuous
 62
     4
370
     9
100
AcDbLine
 10
-126.5180644236803
 20
-379.9174594656641
 30
0.0
 11
-101.0180696081339
 21
-379.9174594656641
 31
0.0
  0
LINE
  5
182
330
1F
100
AcDbEntity
  8
建具
  6
Continuous
 62
     4
370
     9
100
AcDbLine
 10
-126.5180644236803
 20
-378.9175539051964
 30
0.0
 11
-126.5180644236803
 21
-379.9174594656641
 31
0.0
  0
LINE
  5
183
330
1F
100
AcDbEntity
  8
建具
  6
JWW_DASHED1
 62
     4
370
     9
100
AcDbLine
 10
-126.5180644236803
 20
-372.9175259798451
 30
0.0
 11
-126.5180644236803
 21
-378.9175539051964
 31
0.0
  0
LINE
  5
184
330
1F
100
AcDbEntity
  8
建具
  6
Continuous
 62
     4
370
     9
100
AcDbLine
 10
-101.0180696081339
 20
-378.9175539051964
 30
0.0
 11
-101.0180696081339
 21
-379.9174594656641
 31
0.0
  0
LINE
  5
185
330
1F
100
AcDbEntity
  8
建具
  6
JWW_DASHED1
 62
     4
370
     9
100
AcDbLine
 10
-101.0180696081339
 20
-372.9175259798451
 30
0.0
 11
-101.0180696081339
 21
-378.9175539051964
 31
0.0
  0
LINE
  5
186
330
1F
100
AcDbEntity
  8
建具
  6
JWW_DASHED1
 62
     4
370
     9
100
AcDbLine
 10
-126.5180644236803
 20
-372.9175259798451
 30
0.0
 11
-116.7680314317036
 21
-372.9175259798451
 31
0.0
  0
LINE
  5
187
330
1F
100
AcDbEntity
  8
建具
  6
JWW_DASHED1
 62
     4
370
     9
100
AcDbLine
 10
-110.7681026001101
 20
-372.9175259798451
 30
0.0
 11
-101.0180696081339
 21
-372.9175259798451
 31
0.0
  0
LINE
  5
188
330
1F
100
AcDbEntity
  8
建具
  6
Continuous
 62
     4
370
     9
100
AcDbLine
 10
-109.2680212984538
 20
-378.9175539051964
 30
0.0
 11
-109.2680212984538
 21
-379.9174594656641
 31
0.0
  0
LINE
  5
189
330
1F
100
AcDbEntity
  8
建具
  6
Continuous
 62
     4
370
     9
100
AcDbLine
 10
-118.2682118271178
 20
-378.9175539051964
 30
0.0
 11
-118.2682118271178
 21
-379.9174594656641
 31
0.0
  0
ARC
  5
18A
330
1F
100
AcDbEntity
  8
061
  6
Continuous
 62
     2
370
     9
100
AcDbCircle
 10
-110.5043150175357
 20
-388.9391037928352
 30
0.0
 40
9.2485086466815
100
AcDbArc
 50
357.0349273681641
 51
77.28176879882812
  0
ARC
  5
18B
330
1F
100
AcDbEntity
  8
061
  6
Continuous
 62
     2
370
     9
100
AcDbCircle
 10
-103.2797855302502
 20
-385.4175098373423
 30
0.0
 40
4.000000036821402
100
AcDbArc
 50
212.2164916992188
 51
270.0
  0
ARC
  5
18C
330
1F
100
AcDbEntity
  8
061
  6
Continuous
 62
     2
370
     9
100
AcDbCircle
 10
-109.0681491894939
 20
-381.1174353226072
 30
0.0
 40
1.200000049754919
100
AcDbArc
 50
90.0
 51
180.0
  0
ARC
  5
18D
330
1F
100
AcDbEntity
  8
061
  6
Continuous
 62
     2
370
     9
100
AcDbCircle
 10
-109.0681491894939
 20
-381.1174353226072
 30
0.0
 40
0.2000000042603513
100
AcDbArc
 50
90.0
 51
180.0
  0
ARC
  5
18E
330
1F
100
AcDbEntity
  8
061
  6
Continuous
 62
     2
370
     9
100
AcDbCircle
 10
-110.5043150175357
 20
-388.9391037928352
 30
0.0
 40
8.248509411646133
100
AcDbArc
 50
357.0349273681641
 51
76.52941894531249
  0
ARC
  5
18F
330
1F
100
AcDbEntity
  8
061
  6
Continuous
 62
     2
370
     9
100
AcDbCircle
 10
-117.0320172017933
 20
-388.9391037928352
 30
0.0
 40
9.2485086466815
100
AcDbArc
 50
102.7182312011719
 51
182.9650726318359
  0
ARC
  5
190
330
1F
100
AcDbEntity
  8
061
  6
Continuous
 62
     2
370
     9
100
AcDbCircle
 10
-124.256348501564
 20
-385.4175098373423
 30
0.0
 40
4.000000036821402
100
AcDbArc
 50
270.0
 51
327.7835083007812
  0
ARC
  5
191
330
1F
100
AcDbEntity
  8
061
  6
Continuous
 62
     2
370
     9
100
AcDbCircle
 10
-118.4681830298351
 20
-381.1174353226072
 30
0.0
 40
1.200000049754919
100
AcDbArc
 50
0.0
 51
90.0
  0
ARC
  5
192
330
1F
100
AcDbEntity
  8
061
  6
Continuous
 62
     2
370
     9
100
AcDbCircle
 10
-118.4681830298351
 20
-381.1174353226072
 30
0.0
 40
0.2000000042603513
100
AcDbArc
 50
0.0
 51
90.0
  0
ARC
  5
193
330
1F
100
AcDbEntity
  8
061
  6
Continuous
 62
     2
370
     9
100
AcDbCircle
 10
-117.0320172017933
 20
-388.9391037928352
 30
0.0
 40
8.248509411646133
100
AcDbArc
 50
103.4705810546875
 51
182.9650726318359
  0
LINE
  5
194
330
1F
100
AcDbEntity
  8
建具
  6
Continuous
 62
     4
370
     9
100
AcDbLine
 10
-126.5180644236803
 20
-378.9174594656641
 30
0.0
 11
-101.0180696081339
 21
-378.9174594656641
 31
0.0
  0
LINE
  5
195
330
1F
100
AcDbEntity
  8
061
  6
Continuous
 62
     2
370
     9
100
AcDbLine
 10
-116.7680314317036
 20
-333.4175675497354
 30
0.0
 11
-116.7680314317036
 21
-379.9174099187854
 31
0.0
  0
LINE
  5
196
330
1F
100
AcDbEntity
  8
061
  6
Continuous
 62
     2
370
     9
100
AcDbLine
 10
-115.7681754181149
 20
-333.4175675497354
 30
0.0
 11
-115.7681754181149
 21
-379.9174099187854
 31
0.0
  0
LINE
  5
197
330
1F
100
AcDbEntity
  8
061
  6
Continuous
 62
     2
370
     9
100
AcDbLine
 10
-111.768156801214
 20
-333.4175675497354
 30
0.0
 11
-111.768156801214
 21
-379.9174099187854
 31
0.0
  0
LINE
  5
198
330
1F
100
AcDbEntity
  8
061
  6
Continuous
 62
     2
370
     9
100
AcDbLine
 10
-110.7681026001101
 20
-333.4175675497354
 30
0.0
 11
-110.7681026001101
 21
-379.9174099187854
 31
0.0
  0
LINE
  5
199
330
1F
100
AcDbEntity
  8
061
  6
Continuous
 62
     2
370
     9
100
AcDbLine
 10
-116.7680314317036
 20
-389.4177213937221
 30
0.0
 11
-110.7681026001101
 21
-389.4177213937221
 31
0.0
  0
LINE
  5
19A
330
1F
100
AcDbEntity
  8
061
  6
Continuous
 62
     2
370
     9
100
AcDbLine
 10
-116.7680314317036
 20
-389.4177213937221
 30
0.0
 11
-115.7682745118723
 21
-390.4176765010685
 31
0.0
  0
LINE
  5
19B
330
1F
100
AcDbEntity
  8
061
  6
Continuous
 62
     2
370
     9
100
AcDbLine
 10
-115.7682745118723
 20
-390.4176765010685
 30
0.0
 11
-111.768156801214
 21
-390.4176765010685
 31
0.0
  0
LINE
  5
19C
330
1F
100
AcDbEntity
  8
061
  6
Continuous
 62
     2
370
     9
100
AcDbLine
 10
-111.768156801214
 20
-390.4176765010685
 30
0.0
 11
-110.7681026001101
 21
-389.4177213937221
 31
0.0
  0
LINE
  5
19D
330
1F
100
AcDbEntity
  8
061
  6
Continuous
 62
     2
370
     9
100
AcDbLine
 10
-110.7681026001101
 20
-384.9175818305479
 30
0.0
 11
-110.7681026001101
 21
-389.4177213937221
 31
0.0
  0
LINE
  5
19E
330
1F
100
AcDbEntity
  8
061
  6
Continuous
 62
     2
370
     9
100
AcDbLine
 10
-111.768156801214
 20
-384.9175818305479
 30
0.0
 11
-111.768156801214
 21
-390.4176765010685
 31
0.0
  0
LINE
  5
19F
330
1F
100
AcDbEntity
  8
061
  6
Continuous
 62
     2
370
     9
100
AcDbLine
 10
-115.7682745118723
 20
-384.9175818305479
 30
0.0
 11
-115.7682745118723
 21
-390.4176765010685
 31
0.0
  0
LINE
  5
1A0
330
1F
100
AcDbEntity
  8
061
  6
Continuous
 62
     2
370
     9
100
AcDbLine
 10
-116.7680314317036
 20
-384.9175818305479
 30
0.0
 11
-116.7680314317036
 21
-389.4177213937221
 31
0.0
  0
LINE
  5
1A1
330
1F
100
AcDbEntity
  8
061
  6
JWW_CENTER1
 62
     2
370
     9
100
AcDbLine
 10
-113.7679679221497
 20
-391.4886821046562
 30
0.0
 11
-113.7679679221497
 21
-322.1396574571129
 31
0.0
  0
LINE
  5
1A2
330
1F
100
AcDbEntity
  8
通り芯
  6
Continuous
 62
     4
370
     9
100
AcDbLine
 10
-298.3181815267345
 20
-190.3944460117229
 30
0.0
 11
-298.0615178685981
 21
-189.3723565223413
 31
0.0
  0
ARC
  5
1A3
330
1F
100
AcDbEntity
  8
通り芯
  6
Continuous
 62
     4
370
     9
100
AcDbCircle
 10
-300.2578105651338
 20
-189.9077149178695
 30
0.0
 40
2.000000025774982
100
AcDbArc
 50
328.5454938508677
 51
345.9115216828989
  0
LINE
  5
1A4
330
1F
100
AcDbEntity
  8
通り芯
  6
Continuous
 62
     4
370
     9
100
AcDbLine
 10
-290.3743327010694
 20
-186.2676504671167
 30
0.0
 11
-294.2633454231546
 21
-186.3468301380086
 31
0.0
  0
LINE
  5
1A5
330
1F
100
AcDbEntity
  8
通り芯
  6
Continuous
 62
     4
370
     9
100
AcDbLine
 10
-321.1516637437404
 20
-190.7055403601697
 30
0.0
 11
-298.551707390846
 21
-190.9512084080107
 31
0.0
  0
LINE
  5
1A6
330
1F
100
AcDbEntity
  8
通り芯
  6
Continuous
 62
     4
370
     9
100
AcDbLine
 10
-322.6607579742941
 20
-189.2106844397554
 30
0.0
 11
-298.0879244439285
 21
-189.4779140798943
 31
0.0
  0
ARC
  5
1A7
330
1F
100
AcDbEntity
  8
通り芯
  6
Continuous
 62
     4
370
     9
100
AcDbCircle
 10
-290.292841419585
 20
-190.2668701542594
 30
0.0
 40
4.000000051549963
100
AcDbArc
 50
16.42180610672708
 51
91.16699958817239
  0
LINE
  5
1A8
330
1F
100
AcDbEntity
  8
通り芯
  6
Continuous
 62
     4
370
     9
100
AcDbLine
 10
-319.8400540354497
 20
-180.3662023417542
 30
0.0
 11
-319.7688903424597
 21
-183.8654468254956
 31
0.0
  0
LINE
  5
1A9
330
1F
100
AcDbEntity
  8
通り芯
  6
Continuous
 62
     4
370
     9
100
AcDbLine
 10
-322.7682568965143
 20
-183.9266139496511
 30
0.0
 11
-319.7688903424597
 21
-183.8654468254956
 31
0.0
  0
LINE
  5
1AA
330
1F
100
AcDbEntity
  8
通り芯
  6
Continuous
 62
     4
370
     9
100
AcDbLine
 10
-284.2681546213877
 20
-175.7224497023961
 30
0.0
 11
-284.2681546213877
 21
-103.2851344574636
 31
0.0
  0
LINE
  5
1AB
330
1F
100
AcDbEntity
  8
通り芯
  6
Continuous
 62
     4
370
     9
100
AcDbLine
 10
-285.7077873925665
 20
-191.6757387168413
 30
0.0
 11
-286.4561974468189
 21
-189.135920904664
 31
0.0
  0
LINE
  5
1AC
330
1F
100
AcDbEntity
  8
通り芯
  6
Continuous
 62
     4
370
     9
100
AcDbLine
 10
-295.997495045796
 20
-324.9000092199213
 30
0.0
 11
-298.725733370563
 21
-190.9493166953877
 31
0.0
  0
LINE
  5
1AD
330
1F
100
AcDbEntity
  8
通り芯
  6
Continuous
 62
     4
370
     9
100
AcDbLine
 10
-285.7077873925665
 20
-191.6757387168413
 30
0.0
 11
-278.7680127558889
 21
-191.6757387168413
 31
0.0
  0
LINE
  5
1AE
330
1F
100
AcDbEntity
  8
通り芯
  6
Continuous
 62
     4
370
     9
100
AcDbLine
 10
-322.7682568965143
 20
-183.9266139496511
 30
0.0
 11
-322.6305315322981
 21
-190.6890629505034
 31
0.0
  0
LINE
  5
1AF
330
1F
100
AcDbEntity
  8
061
  6
Continuous
 62
     2
370
     9
100
AcDbLine
 10
-262.7681644600663
 20
-378.7133376480483
 30
0.0
 11
-254.7682263200214
 21
-378.7133376480483
 31
0.0
  0
LINE
  5
1B0
330
1F
100
AcDbEntity
  8
061
  6
Continuous
 62
     2
370
     9
100
AcDbLine
 10
-262.7681644600663
 20
-378.7133376480483
 30
0.0
 11
-261.7682093527197
 21
-379.7132927553948
 31
0.0
  0
LINE
  5
1B1
330
1F
100
AcDbEntity
  8
061
  6
Continuous
 62
     2
370
     9
100
AcDbLine
 10
-261.7682093527197
 20
-379.7132927553948
 30
0.0
 11
-255.7681814273684
 21
-379.7132927553948
 31
0.0
  0
LINE
  5
1B2
330
1F
100
AcDbEntity
  8
061
  6
Continuous
 62
     2
370
     9
100
AcDbLine
 10
-255.7681814273684
 20
-379.7132927553948
 30
0.0
 11
-254.7682263200214
 21
-378.7133376480483
 31
0.0
  0
LINE
  5
1B3
330
1F
100
AcDbEntity
  8
061
  6
Continuous
 62
     2
370
     9
100
AcDbLine
 10
-262.7681644600663
 20
-378.7133376480483
 30
0.0
 11
-262.7681644600663
 21
-371.3174268860876
 31
0.0
  0
LINE
  5
1B4
330
1F
100
AcDbEntity
  8
061
  6
Continuous
 62
     2
370
     9
100
AcDbLine
 10
-261.7682093527197
 20
-379.7132927553948
 30
0.0
 11
-261.7682093527197
 21
-371.3174268860876
 31
0.0
  0
LINE
  5
1B5
330
1F
100
AcDbEntity
  8
061
  6
Continuous
 62
     2
370
     9
100
AcDbLine
 10
-255.7681814273684
 20
-379.7132927553948
 30
0.0
 11
-255.7681814273684
 21
-371.3174268860876
 31
0.0
  0
LINE
  5
1B6
330
1F
100
AcDbEntity
  8
061
  6
Continuous
 62
     2
370
     9
100
AcDbLine
 10
-254.7682263200214
 20
-378.7133376480483
 30
0.0
 11
-254.7682263200214
 21
-371.3174268860876
 31
0.0
  0
LINE
  5
1B7
330
1F
100
AcDbEntity
  8
061
  6
JWW_CENTER1
 62
     2
370
     9
100
AcDbLine
 10
-258.7681458431654
 20
-329.3941154712294
 30
0.0
 11
-258.7681458431654
 21
-380.5793721963033
 31
0.0
  0
LINE
  5
1B8
330
1F
100
AcDbEntity
  8
建具
  6
Continuous
 62
     4
370
     9
100
AcDbLine
 10
-138.7681661096645
 20
-378.9174594656641
 30
0.0
 11
-88.76816610966495
 21
-378.9174594656641
 31
0.0
  0
LINE
  5
1B9
330
1F
100
AcDbEntity
  8
087
  6
Continuous
 62
     3
370
     9
100
AcDbLine
 10
-314.7681874495084
 20
-138.4174669831219
 30
0.0
 11
-320.7681658279813
 21
-138.4174669831219
 31
0.0
  0
LINE
  5
1BA
330
1F
100
AcDbEntity
  8
087
  6
Continuous
 62
     3
370
     9
100
AcDbLine
 10
-314.7681874495084
 20
-144.4174453615945
 30
0.0
 11
-314.7681874495084
 21
-138.4174669831219
 31
0.0
  0
LINE
  5
1BB
330
1F
100
AcDbEntity
  8
087
  6
Continuous
 62
     3
370
     9
100
AcDbLine
 10
-312.7682276879369
 20
-146.4173555762875
 30
0.0
 11
-299.7682167298877
 21
-146.4173555762875
 31
0.0
  0
LINE
  5
1BC
330
1F
100
AcDbEntity
  8
087
  6
Continuous
 62
     3
370
     9
100
AcDbLine
 10
-320.7681658279813
 20
-144.4174453615945
 30
0.0
 11
-320.7681658279813
 21
-138.4174669831219
 31
0.0
  0
LINE
  5
1BD
330
1F
100
AcDbEntity
  8
087
  6
Continuous
 62
     3
370
     9
100
AcDbLine
 10
-312.7682276879369
 20
-152.4174330485177
 30
0.0
 11
-299.7682167298877
 21
-152.4174330485177
 31
0.0
  0
LINE
  5
1BE
330
1F
100
AcDbEntity
  8
087
  6
Continuous
 62
     3
370
     9
100
AcDbLine
 10
-299.7682167298877
 20
-146.2424550942276
 30
0.0
 11
-299.7682167298877
 21
-152.5923335305775
 31
0.0
  0
LINE
  5
1BF
330
1F
100
AcDbEntity
  8
087
  6
Continuous
 62
     3
370
     9
100
AcDbLine
 10
-299.7682167298877
 20
-151.7774855623177
 30
0.0
 11
-297.7682074214373
 21
-151.7774855623177
 31
0.0
  0
LINE
  5
1C0
330
1F
100
AcDbEntity
  8
087
  6
Continuous
 62
     3
370
     9
100
AcDbLine
 10
-299.7682167298877
 20
-147.0575507968813
 30
0.0
 11
-297.7682074214373
 21
-147.0575507968813
 31
0.0
  0
LINE
  5
1C1
330
1F
100
AcDbEntity
  8
087
  6
Continuous
 62
     3
370
     9
100
AcDbLine
 10
-299.7682167298877
 20
-146.2424550942276
 30
0.0
 11
-297.7682074214373
 21
-146.2424550942276
 31
0.0
  0
LINE
  5
1C2
330
1F
100
AcDbEntity
  8
087
  6
Continuous
 62
     3
370
     9
100
AcDbLine
 10
-299.7682167298877
 20
-152.5923335305775
 30
0.0
 11
-297.7682074214373
 21
-152.5923335305775
 31
0.0
  0
ARC
  5
1C3
330
1F
100
AcDbEntity
  8
087
  6
Continuous
 62
     3
370
     9
100
AcDbCircle
 10
-312.7682276879369
 20
-144.4174453615945
 30
0.0
 40
2.000000018410701
100
AcDbArc
 50
180.0
 51
270.0
  0
ARC
  5
1C4
330
1F
100
AcDbEntity
  8
087
  6
Continuous
 62
     3
370
     9
100
AcDbCircle
 10
-312.7682276879369
 20
-144.4174453615945
 30
0.0
 40
8.000000073642804
100
AcDbArc
 50
180.0
 51
270.0
  0
LINE
  5
1C5
330
1F
100
AcDbEntity
  8
087
  6
JWW_CENTER1
 62
     3
370
     9
100
AcDbLine
 10
-317.7682014121843
 20
-144.4174190858419
 30
0.0
 11
-317.7682014121843
 21
-137.0290643462146
 31
0.0
  0
ARC
  5
1C6
330
1F
100
AcDbEntity
  8
087
  6
JWW_CENTER1
 62
     3
370
     9
100
AcDbCircle
 10
-312.7682014121843
 20
-144.4174190858419
 30
0.0
 40
5.0
100
AcDbArc
 50
180.0
 51
270.0
  0
LINE
  5
1C7
330
1F
100
AcDbEntity
  8
051
  6
Continuous
 62
     3
370
     9
100
AcDbLine
 10
-38.76796792214969
 20
-394.4175675497354
 30
0.0
 11
-273.7679679221498
 21
-394.4175675497354
 31
0.0
  0
LINE
  5
1C8
330
1F
100
AcDbEntity
  8
051
  6
Continuous
 62
     3
370
     9
100
AcDbLine
 10
-263.7681195674123
 20
-372.9174937891025
 30
0.0
 11
-263.7681195674123
 21
-371.3174268860876
 31
0.0
  0
LINE
  5
1C9
330
1F
100
AcDbEntity
  8
051
  6
Continuous
 62
     3
370
     9
100
AcDbLine
 10
-253.7681721189175
 20
-372.9174937891025
 30
0.0
 11
-253.7681721189175
 21
-371.3174268860876
 31
0.0
  0
LINE
  5
1CA
330
1F
100
AcDbEntity
  8
051
  6
Continuous
 62
     3
370
     9
100
AcDbLine
 10
-273.7679679221498
 20
-373.9175259798451
 30
0.0
 11
-273.7679679221498
 21
-394.4175675497354
 31
0.0
  0
ARC
  5
1CB
330
1F
100
AcDbEntity
  8
051
  6
Continuous
 62
     3
370
     9
100
AcDbCircle
 10
-271.1679679221498
 20
-373.9175259798451
 30
0.0
 40
2.6
100
AcDbArc
 50
90.0
 51
180.0
  0
LINE
  5
1CC
330
1F
100
AcDbEntity
  8
051
  6
Continuous
 62
     3
370
     9
100
AcDbLine
 10
-38.76796792214969
 20
-373.9175259798451
 30
0.0
 11
-38.76796792214969
 21
-394.4175675497354
 31
0.0
  0
ARC
  5
1CD
330
1F
100
AcDbEntity
  8
051
  6
Continuous
 62
     3
370
     9
100
AcDbCircle
 10
-41.3679679221496
 20
-373.9175259798451
 30
0.0
 40
2.6
100
AcDbArc
 50
0.0
 51
90.0
  0
LINE
  5
1CE
330
1F
100
AcDbEntity
  8
051
  6
Continuous
 62
     3
370
     9
100
AcDbLine
 10
-272.1679679221498
 20
-373.9175259798451
 30
0.0
 11
-272.1679679221498
 21
-394.4175675497354
 31
0.0
  0
ARC
  5
1CF
330
1F
100
AcDbEntity
  8
051
  6
Continuous
 62
     3
370
     9
100
AcDbCircle
 10
-271.1679679221498
 20
-373.9175259798451
 30
0.0
 40
1.0
100
AcDbArc
 50
90.0
 51
180.0
  0
LINE
  5
1D0
330
1F
100
AcDbEntity
  8
051
  6
Continuous
 62
     3
370
     9
100
AcDbLine
 10
-40.3679679221496
 20
-373.9175259798451
 30
0.0
 11
-40.3679679221496
 21
-394.4175675497354
 31
0.0
  0
ARC
  5
1D1
330
1F
100
AcDbEntity
  8
051
  6
Continuous
 62
     3
370
     9
100
AcDbCircle
 10
-41.3679679221496
 20
-373.9175259798451
 30
0.0
 40
1.0
100
AcDbArc
 50
0.0
 51
90.00000000000001
  0
LINE
  5
1D2
330
1F
100
AcDbEntity
  8
051
  6
Continuous
 62
     3
370
     9
100
AcDbLine
 10
-139.7683862132781
 20
-371.3173646372978
 30
0.0
 11
-139.7683862132781
 21
-372.9174315403128
 31
0.0
  0
LINE
  5
1D3
330
1F
100
AcDbEntity
  8
051
  6
Continuous
 62
     3
370
     9
100
AcDbLine
 10
-87.76834238108091
 20
-371.3173646372978
 30
0.0
 11
-87.76834238108091
 21
-372.9174315403128
 31
0.0
  0
LINE
  5
1D4
330
1F
100
AcDbEntity
  8
051
  6
Continuous
 62
     3
370
     9
100
AcDbLine
 10
-41.3679679221496
 20
-372.9175259798451
 30
0.0
 11
-88.76816610966495
 21
-372.9175259798451
 31
0.0
  0
LINE
  5
1D5
330
1F
100
AcDbEntity
  8
051
  6
Continuous
 62
     3
370
     9
100
AcDbLine
 10
-41.3679679221496
 20
-371.3175259798451
 30
0.0
 11
-88.76816610966495
 21
-371.3175259798451
 31
0.0
  0
LINE
  5
1D6
330
1F
100
AcDbEntity
  8
051
  6
Continuous
 62
     3
370
     9
100
AcDbLine
 10
-138.7681661096645
 20
-371.3175259798451
 30
0.0
 11
-271.1679679221498
 21
-371.3175259798451
 31
0.0
  0
LINE
  5
1D7
330
1F
100
AcDbEntity
  8
051
  6
Continuous
 62
     3
370
     9
100
AcDbLine
 10
-138.7681661096645
 20
-372.9175259798451
 30
0.0
 11
-254.7682263200214
 21
-372.9175259798451
 31
0.0
  0
LINE
  5
1D8
330
1F
100
AcDbEntity
  8
051
  6
Continuous
 62
     3
370
     9
100
AcDbLine
 10
-262.7681644600663
 20
-372.9175259798451
 30
0.0
 11
-271.1679679221498
 21
-372.9175259798451
 31
0.0
  0
LINE
  5
1D9
330
1F
100
AcDbEntity
  8
ハッチ
  6
Continuous
 62
     6
370
     9
100
AcDbLine
 10
-298.6948641158916
 20
-192.4646389444975
 30
0.0
 11
-296.2094935830052
 21
-194.9500094773839
 31
0.0
  0
LINE
  5
1DA
330
1F
100
AcDbEntity
  8
ハッチ
  6
Continuous
 62
     6
370
     9
100
AcDbLine
 10
-290.7275546965071
 20
-186.2896723853138
 30
0.0
 11
-285.8608001015356
 21
-191.1564720374044
 31
0.0
  0
LINE
  5
1DB
330
1F
100
AcDbEntity
  8
ハッチ
  6
Continuous
 62
     6
370
     9
100
AcDbLine
 10
-298.6343178300336
 20
-195.4376746316828
 30
0.0
 11
-287.178495457698
 21
-193.1337652192897
 31
0.0
  0
LINE
  5
1DC
330
1F
100
AcDbEntity
  8
ハッチ
  6
Continuous
 62
     6
370
     9
100
AcDbLine
 10
-287.178495457698
 20
-193.1337652192897
 30
0.0
 11
-285.7077873925665
 21
-191.6757387168413
 31
0.0
  0
LINE
  5
1DD
330
1F
100
AcDbEntity
  8
ハッチ
  6
Continuous
 62
     6
370
     9
100
AcDbLine
 10
-288.2182261467457
 20
-193.3428573707049
 30
0.0
 11
-285.8996606504021
 21
-191.0245941802831
 31
0.0
  0
LINE
  5
1DE
330
1F
100
AcDbEntity
  8
ハッチ
  6
Continuous
 62
     6
370
     9
100
AcDbLine
 10
-291.7585488224137
 20
-194.0548707920764
 30
0.0
 11
-286.5525796825115
 21
-188.8489693994171
 31
0.0
  0
LINE
  5
1DF
330
1F
100
AcDbEntity
  8
ハッチ
  6
Continuous
 62
     6
370
     9
100
AcDbLine
 10
-295.299020138718
 20
-194.7669089868876
 30
0.0
 11
-287.728811919692
 21
-187.1967312101599
 31
0.0
  0
LINE
  5
1E0
330
1F
100
AcDbEntity
  8
ハッチ
  6
Continuous
 62
     6
370
     9
100
AcDbLine
 10
-298.6375879240328
 20
-195.2770188772693
 30
0.0
 11
-289.6753323565064
 21
-186.3148222080149
 31
0.0
  0
LINE
  5
1E1
330
1F
100
AcDbEntity
  8
ハッチ
  6
Continuous
 62
     6
370
     9
100
AcDbLine
 10
-298.6940218189521
 20
-192.5051187444531
 30
0.0
 11
-292.4998940372303
 21
-186.3109265526132
 31
0.0
  0
LINE
  5
1E2
330
1F
100
AcDbEntity
  8
ハッチ
  6
Continuous
 62
     6
370
     9
100
AcDbLine
 10
-293.5141077686418
 20
-186.3315757803751
 30
0.0
 11
-286.9442272870589
 21
-192.9015170868629
 31
0.0
  0
LINE
  5
1E3
330
1F
100
AcDbEntity
  8
ハッチ
  6
Continuous
 62
     6
370
     9
100
AcDbLine
 10
-295.9272437086707
 20
-186.7469016950786
 30
0.0
 11
-289.144950967269
 21
-193.5292527286395
 31
0.0
  0
LINE
  5
1E4
330
1F
100
AcDbEntity
  8
ハッチ
  6
Continuous
 62
     6
370
     9
100
AcDbLine
 10
-297.4553025245333
 20
-188.0473385069988
 30
0.0
 11
-291.4997654745954
 21
-194.002821795928
 31
0.0
  0
LINE
  5
1E5
330
1F
100
AcDbEntity
  8
ハッチ
  6
Continuous
 62
     6
370
     9
100
AcDbLine
 10
-296.0285003203122
 20
-323.3847545743586
 30
0.0
 11
-293.6463845721788
 21
-320.8002511532009
 31
0.0
  0
LINE
  5
1E6
330
1F
100
AcDbEntity
  8
ハッチ
  6
Continuous
 62
     6
370
     9
100
AcDbLine
 10
-296.0890537522038
 20
-320.4117190327117
 30
0.0
 11
-284.5489254091173
 21
-322.2472850577077
 31
0.0
  0
LINE
  5
1E7
330
1F
100
AcDbEntity
  8
ハッチ
  6
Continuous
 62
     6
370
     9
100
AcDbLine
 10
-289.162684393462
 20
-321.5134238077123
 30
0.0
 11
-283.7490697960085
 21
-326.5030431304606
 31
0.0
  0
LINE
  5
1E8
330
1F
100
AcDbEntity
  8
ハッチ
  6
Continuous
 62
     6
370
     9
100
AcDbLine
 10
-292.7292110394197
 20
-320.9461291610615
 30
0.0
 11
-284.8570544730288
 21
-328.2018024616522
 31
0.0
  0
LINE
  5
1E9
330
1F
100
AcDbEntity
  8
ハッチ
  6
Continuous
 62
     6
370
     9
100
AcDbLine
 10
-296.0857799078141
 20
-320.5723747107435
 30
0.0
 11
-286.7660531673029
 21
-329.1622342834177
 31
0.0
  0
LINE
  5
1EA
330
1F
100
AcDbEntity
  8
ハッチ
  6
Continuous
 62
     6
370
     9
100
AcDbLine
 10
-296.0293068890593
 20
-323.3442740467503
 30
0.0
 11
-289.5881140169996
 21
-329.2811309820891
 31
0.0
  0
LINE
  5
1EB
330
1F
100
AcDbEntity
  8
ハッチ
  6
Continuous
 62
     6
370
     9
100
AcDbLine
 10
-290.6023274798687
 20
-329.3017933954511
 30
0.0
 11
-284.3053953337991
 21
-322.4698021878473
 31
0.0
  0
LINE
  5
1EC
330
1F
100
AcDbEntity
  8
ハッチ
  6
Continuous
 62
     6
370
     9
100
AcDbLine
 10
-293.0303726955773
 20
-328.9850646298518
 30
0.0
 11
-286.5298528595382
 21
-321.9321912980973
 31
0.0
  0
LINE
  5
1ED
330
1F
100
AcDbEntity
  8
ハッチ
  6
Continuous
 62
     6
370
     9
100
AcDbLine
 10
-294.6101127148305
 20
-327.7479223105923
 30
0.0
 11
-288.9019964207765
 21
-321.5548930735025
 31
0.0
  0
LINE
  5
1EE
330
1F
100
AcDbEntity
  8
ハッチ
  6
Continuous
 62
     6
370
     9
100
AcDbLine
 10
-284.5489254091173
 20
-322.2472850577077
 30
0.0
 11
-282.6307793007896
 21
-323.9999243021856
 31
0.0
  0
LINE
  5
1EF
330
1F
100
AcDbEntity
  8
ハッチ
  6
Continuous
 62
     6
370
     9
100
AcDbLine
 10
-287.8163789760766
 20
-329.2302053199207
 30
0.0
 11
-282.8288825254841
 21
-323.8189143756997
 31
0.0
  0
LINE
  5
1F0
330
1F
100
AcDbEntity
  8
ハッチ
  6
Continuous
 62
     6
370
     9
100
AcDbLine
 10
-285.5963072735532
 20
-322.080699753488
 30
0.0
 11
-283.0566596194609
 21
-324.4211660883166
 31
0.0
  0
LINE
  5
1F1
330
1F
100
AcDbEntity
  8
通り芯
  6
Continuous
 62
     4
370
     9
100
AcDbLine
 10
-243.7681942117589
 20
-314.4174685738064
 30
0.0
 11
-157.6764567223163
 21
-314.4174685738064
 31
0.0
  0
LINE
  5
1F2
330
1F
100
AcDbEntity
  8
通り芯
  6
Continuous
 62
     4
370
     9
100
AcDbLine
 10
-296.5110738767618
 20
-226.0131634849878
 30
0.0
 11
-297.1398455680512
 21
-195.1371175351223
 31
0.0
  0
LINE
  5
1F3
330
1F
100
AcDbEntity
  8
通り芯
  6
Continuous
 62
     4
370
     9
100
AcDbLine
 10
-284.5494151024463
 20
-322.2472071673749
 30
0.0
 11
-287.1784954576977
 21
-193.1337652192897
 31
0.0
  0
LINE
  5
1F4
330
1F
100
AcDbEntity
  8
通り芯
  6
Continuous
 62
     4
370
     9
100
AcDbLine
 10
-294.5838296928563
 20
-320.6511390860425
 30
0.0
 11
-296.5110738767618
 21
-226.0131634849878
 31
0.0
  0
LINE
  5
1F5
330
1F
100
AcDbEntity
  8
通り芯
  6
Continuous
 62
     4
370
     9
100
AcDbLine
 10
-283.020373261597
 20
-323.6439463805049
 30
0.0
 11
-285.7077873925665
 21
-191.6757387168413
 31
0.0
  0
LINE
  5
1F6
330
1F
100
AcDbEntity
  8
通り芯
  6
Continuous
 62
     4
370
     9
100
AcDbLine
 10
-280.7683162820719
 20
-89.417419085842
 30
0.0
 11
-289.768246998921
 21
-89.417419085842
 31
0.0
  0
LINE
  5
1F7
330
1F
100
AcDbEntity
  8
通り芯
  6
Continuous
 62
     4
370
     9
100
AcDbLine
 10
-53.76821070774673
 20
-316.4175246601662
 30
0.0
 11
-53.76821070774673
 21
-325.4175048649804
 31
0.0
  0
LINE
  5
1F8
330
1F
100
AcDbEntity
  8
090
  6
Continuous
 62
     7
370
     9
100
AcDbLine
 10
-157.6764567223163
 20
-314.4173794568078
 30
0.0
 11
-157.6764567223163
 21
-304.4175081641781
 31
0.0
  0
LINE
  5
1F9
330
1F
100
AcDbEntity
  8
090
  6
Continuous
 62
     7
370
     9
100
AcDbLine
 10
-268.7681018342251
 20
-191.5322212659516
 30
0.0
 11
-278.7680127558889
 21
-191.5322212659516
 31
0.0
  0
LINE
  5
1FA
330
1F
100
AcDbEntity
  8
041
  6
Continuous
 62
     2
370
     9
100
AcDbLine
 10
-322.6606700616327
 20
-189.2105428981307
 30
0.0
 11
-347.7927864309314
 21
-188.9372208700479
 31
0.0
  0
LINE
  5
1FB
330
1F
100
AcDbEntity
  8
041
  6
Continuous
 62
     2
370
     9
100
AcDbLine
 10
-347.7927864309314
 20
-188.9372208700479
 30
0.0
 11
-347.8088205314381
 21
-190.4147335389669
 31
0.0
  0
LINE
  5
1FC
330
1F
100
AcDbEntity
  8
041
  6
Continuous
 62
     2
370
     9
100
AcDbLine
 10
-344.9421806982456
 20
-328.9082374188233
 30
0.0
 11
-345.0183921636172
 21
-327.432654780521
 31
0.0
  0
LINE
  5
1FD
330
1F
100
AcDbEntity
  8
041
  6
Continuous
 62
     2
370
     9
100
AcDbLine
 10
-319.8419345781018
 20
-327.6119496760024
 30
0.0
 11
-344.9421806982456
 21
-328.9082374188233
 31
0.0
  0
LINE
  5
1FE
330
1F
100
AcDbEntity
  8
041
  6
Continuous
 62
     2
370
     9
100
AcDbLine
 10
-318.3948570073672
 20
-326.0570873185277
 30
0.0
 11
-319.8985117268154
 21
-326.134777170533
 31
0.0
  0
LINE
  5
1FF
330
1F
100
AcDbEntity
  8
041
  6
Continuous
 62
     2
370
     9
100
AcDbLine
 10
-319.8985117268154
 20
-326.134777170533
 30
0.0
 11
-345.0183921636172
 21
-327.432654780521
 31
0.0
  0
LINE
  5
200
330
1F
100
AcDbEntity
  8
041
  6
Continuous
 62
     2
370
     9
100
AcDbLine
 10
-321.1516597734318
 20
-190.7051759603812
 30
0.0
 11
-347.8088205314381
 21
-190.4147335389669
 31
0.0
  0
LINE
  5
201
330
1F
100
AcDbEntity
  8
ハッチ
  6
Continuous
 62
     6
370
     9
100
AcDbLine
 10
-295.4788970020397
 20
-325.7395163067218
 30
0.0
 11
-291.2741409906849
 21
-321.1775700960111
 31
0.0
  0
LINE
  5
202
330
1F
100
AcDbEntity
  8
ハッチ
  6
Continuous
 62
     6
370
     9
100
AcDbLine
 10
-298.2415925415554
 20
-190.089452319502
 30
0.0
 11
-293.8545799819213
 21
-194.476415636656
 31
0.0
  0
LINE
  5
203
330
1F
100
AcDbEntity
  8
051
  6
Continuous
 62
     7
370
     9
100
AcDbLine
 10
-278.7680407401546
 20
-455.6175779304251
 30
0.0
 11
-281.0680068526818
 21
-455.6175779304251
 31
0.0
  0
LINE
  5
204
330
1F
100
AcDbEntity
  8
051
  6
Continuous
 62
     7
370
     9
100
AcDbLine
 10
-278.7680407401546
 20
-335.4380661735632
 30
0.0
 11
-278.7680407401546
 21
-455.6175779304251
 31
0.0
  0
LINE
  5
205
330
1F
100
AcDbEntity
  8
051
  6
Continuous
 62
     7
370
     9
100
AcDbLine
 10
-281.0680068526818
 20
-335.6090258515467
 30
0.0
 11
-281.0680068526818
 21
-455.6175779304251
 31
0.0
  0
LINE
  5
206
330
1F
100
AcDbEntity
  8
通り芯
  6
Continuous
 62
     4
370
     9
100
AcDbLine
 10
-59.76818101496843
 20
-325.4175048649804
 30
0.0
 11
-53.76821070774673
 21
-325.4175048649804
 31
0.0
  0
LINE
  5
207
330
1F
100
AcDbEntity
  8
通り芯
  6
Continuous
 62
     4
370
     9
100
AcDbLine
 10
-289.768246998921
 20
-95.41758734492137
 30
0.0
 11
-289.768246998921
 21
-89.417419085842
 31
0.0
  0
LINE
  5
208
330
1F
100
AcDbEntity
  8
ハッチ
  6
Continuous
 62
     6
370
     9
100
AcDbLine
 10
-278.7680127558889
 20
-198.5322212659516
 30
0.0
 11
-268.7681018342251
 21
-198.5322212659516
 31
0.0
  0
LINE
  5
209
330
1F
100
AcDbEntity
  8
ハッチ
  6
Continuous
 62
     6
370
     9
100
AcDbLine
 10
-278.7680127558901
 20
-197.6112190157617
 30
0.0
 11
-277.8470105056988
 21
-198.5322212659531
 31
0.0
  0
LINE
  5
20A
330
1F
100
AcDbEntity
  8
ハッチ
  6
Continuous
 62
     6
370
     9
100
AcDbLine
 10
-278.7680127558893
 20
-194.7827918910158
 30
0.0
 11
-275.0185833809519
 21
-198.5322212659533
 31
0.0
  0
LINE
  5
20B
330
1F
100
AcDbEntity
  8
ハッチ
  6
Continuous
 62
     6
370
     9
100
AcDbLine
 10
-278.7680127558887
 20
-191.9543647662699
 30
0.0
 11
-272.1901562562051
 21
-198.5322212659534
 31
0.0
  0
LINE
  5
20C
330
1F
100
AcDbEntity
  8
ハッチ
  6
Continuous
 62
     6
370
     9
100
AcDbLine
 10
-276.3617291314605
 20
-191.5322212659513
 30
0.0
 11
-269.3617291314582
 21
-198.5322212659536
 31
0.0
  0
LINE
  5
20D
330
1F
100
AcDbEntity
  8
ハッチ
  6
Continuous
 62
     6
370
     9
100
AcDbLine
 10
-273.5333020067136
 20
-191.5322212659515
 30
0.0
 11
-268.7681018342266
 21
-196.2974214384386
 31
0.0
  0
LINE
  5
20E
330
1F
100
AcDbEntity
  8
ハッチ
  6
Continuous
 62
     6
370
     9
100
AcDbLine
 10
-270.7048748819668
 20
-191.5322212659517
 30
0.0
 11
-268.7681018342258
 21
-193.4689943136926
 31
0.0
  0
LINE
  5
20F
330
1F
100
AcDbEntity
  8
ハッチ
  6
Continuous
 62
     6
370
     9
100
AcDbLine
 10
-269.0412714158651
 20
-198.5322212659516
 30
0.0
 11
-268.7681018342251
 21
-198.2590516843116
 31
0.0
  0
LINE
  5
210
330
1F
100
AcDbEntity
  8
ハッチ
  6
Continuous
 62
     6
370
     9
100
AcDbLine
 10
-271.8696985406135
 20
-198.5322212659533
 30
0.0
 11
-268.7681018342238
 21
-195.4306245595635
 31
0.0
  0
LINE
  5
211
330
1F
100
AcDbEntity
  8
ハッチ
  6
Continuous
 62
     6
370
     9
100
AcDbLine
 10
-274.6981256653597
 20
-198.5322212659529
 30
0.0
 11
-268.7681018342245
 21
-192.6021974348176
 31
0.0
  0
LINE
  5
212
330
1F
100
AcDbEntity
  8
ハッチ
  6
Continuous
 62
     6
370
     9
100
AcDbLine
 10
-277.5265527901059
 20
-198.5322212659524
 30
0.0
 11
-270.5265527901053
 21
-191.5322212659517
 31
0.0
  0
LINE
  5
213
330
1F
100
AcDbEntity
  8
ハッチ
  6
Continuous
 62
     6
370
     9
100
AcDbLine
 10
-278.7680127558887
 20
-196.9452541069885
 30
0.0
 11
-273.3549799148515
 21
-191.5322212659513
 31
0.0
  0
LINE
  5
214
330
1F
100
AcDbEntity
  8
ハッチ
  6
Continuous
 62
     6
370
     9
100
AcDbLine
 10
-278.7680127558893
 20
-194.1168269822425
 30
0.0
 11
-276.1834070395977
 21
-191.5322212659508
 31
0.0
  0
LINE
  5
215
330
1F
100
AcDbEntity
  8
ハッチ
  6
Continuous
 62
     6
370
     9
100
AcDbLine
 10
-164.3092029935174
 20
-314.4174685738075
 30
0.0
 11
-157.6995801748413
 21
-307.8078457551316
 31
0.0
  0
LINE
  5
216
330
1F
100
AcDbEntity
  8
ハッチ
  6
Continuous
 62
     6
370
     9
100
AcDbLine
 10
-164.6764567223143
 20
-309.1278680531111
 30
0.0
 11
-159.9660968333824
 21
-304.4175081641793
 31
0.0
  0
LINE
  5
217
330
1F
100
AcDbEntity
  8
ハッチ
  6
Continuous
 62
     6
370
     9
100
AcDbLine
 10
-164.6764567223148
 20
-306.2994409283649
 30
0.0
 11
-162.7945239581291
 21
-304.4175081641793
 31
0.0
  0
LINE
  5
218
330
1F
100
AcDbEntity
  8
ハッチ
  6
Continuous
 62
     6
370
     9
100
AcDbLine
 10
-164.6764567223167
 20
-311.7027750493352
 30
0.0
 11
-161.9617631978445
 21
-314.4174685738074
 31
0.0
  0
LINE
  5
219
330
1F
100
AcDbEntity
  8
ハッチ
  6
Continuous
 62
     6
370
     9
100
AcDbLine
 10
-164.6764567223161
 20
-308.8743479245891
 30
0.0
 11
-159.1333360730979
 21
-314.4174685738074
 31
0.0
  0
LINE
  5
21A
330
1F
100
AcDbEntity
  8
ハッチ
  6
Continuous
 62
     6
370
     9
100
AcDbLine
 10
-164.6764567223148
 20
-304.4175081641781
 30
0.0
 11
-164.6764567223148
 21
-314.4174685738064
 31
0.0
  0
LINE
  5
21B
330
1F
100
AcDbEntity
  8
ハッチ
  6
Continuous
 62
     6
370
     9
100
AcDbLine
 10
-158.6523487440258
 20
-314.4174685738093
 30
0.0
 11
-157.6764567223163
 21
-313.4415765520998
 31
0.0
  0
LINE
  5
21C
330
1F
100
AcDbEntity
  8
ハッチ
  6
Continuous
 62
     6
370
     9
100
AcDbLine
 10
-163.4764422332348
 20
-304.417508164177
 30
0.0
 11
-157.6764567223163
 21
-310.2174936750955
 31
0.0
  0
LINE
  5
21D
330
1F
100
AcDbEntity
  8
ハッチ
  6
Continuous
 62
     6
370
     9
100
AcDbLine
 10
-161.4807758687716
 20
-314.4174685738084
 30
0.0
 11
-157.6764567223163
 21
-310.6131494273532
 31
0.0
  0
LINE
  5
21E
330
1F
100
AcDbEntity
  8
ハッチ
  6
Continuous
 62
     6
370
     9
100
AcDbLine
 10
-164.6764567223155
 20
-306.045920799843
 30
0.0
 11
-157.6764567223163
 21
-313.0459207998422
 31
0.0
  0
LINE
  5
21F
330
1F
100
AcDbEntity
  8
ハッチ
  6
Continuous
 62
     6
370
     9
100
AcDbLine
 10
-160.6480151084882
 20
-304.417508164177
 30
0.0
 11
-157.6764567223163
 21
-307.3890665503488
 31
0.0
  0
LINE
  5
220
330
1F
100
AcDbEntity
  8
ハッチ
  6
Continuous
 62
     6
370
     9
100
AcDbLine
 10
-164.6764567223137
 20
-311.9562951778572
 30
0.0
 11
-157.6764567223163
 21
-304.9562951778598
 31
0.0
  0
LINE
  5
221
330
1F
100
AcDbEntity
  8
ハッチ
  6
Continuous
 62
     6
370
     9
100
AcDbLine
 10
-157.8195879837415
 20
-304.417508164177
 30
0.0
 11
-157.6764567223163
 21
-304.5606394256022
 31
0.0
  0
LINE
  5
222
330
1F
100
AcDbEntity
  8
躯体
  6
Continuous
 62
     6
370
     9
100
AcDbLine
 10
-261.2681513221893
 20
-177.8715866322947
 30
0.0
 11
-261.2681513221893
 21
-177.4174850697947
 31
0.0
  0
LINE
  5
223
330
1F
100
AcDbEntity
  8
躯体
  6
Continuous
 62
     6
370
     9
100
AcDbLine
 10
-261.2681513221893
 20
-171.4174652746088
 30
0.0
 11
-261.2681513221893
 21
-150.9175213609686
 31
0.0
  0
LINE
  5
224
330
1F
100
AcDbEntity
  8
通り芯
  6
JWW_CENTER1
 62
     4
370
     9
100
AcDbLine
 10
-534.4600362674594
 20
-262.7535228278068
 30
0.0
 11
-271.7863002083806
 21
-257.4038197931899
 31
0.0
  0
LINE
  5
225
330
1F
100
AcDbEntity
  8
仕上
  6
Continuous
 62
     3
370
     9
100
AcDbLine
 10
-543.2506575773816
 20
-267.0753345441984
 30
0.0
 11
-525.5830361287396
 21
-258.4297918575023
 31
0.0
  0
LINE
  5
226
330
1F
100
AcDbEntity
  8
仕上
  6
Continuous
 62
     3
370
     9
100
AcDbLine
 10
-543.2506575773816
 20
-267.0753345441984
 30
0.0
 11
-534.4044920282557
 21
-266.8951705148863
 31
0.0
  0
LINE
  5
227
330
1F
100
AcDbEntity
  8
仕上
  6
Continuous
 62
     3
370
     9
100
AcDbLine
 10
-525.5830361287396
 20
-258.4297918575023
 30
0.0
 11
-534.5731718224263
 21
-258.6128880319569
 31
0.0
  0
LINE
  5
228
330
1F
100
AcDbEntity
  8
仕上
  6
Continuous
 62
     3
370
     9
100
AcDbLine
 10
-534.5731718224265
 20
-258.6128880319569
 30
0.0
 11
-536.0567069469759
 21
-185.7703935572739
 31
0.0
  0
LINE
  5
229
330
1F
100
AcDbEntity
  8
仕上
  6
Continuous
 62
     3
370
     9
100
AcDbLine
 10
-532.9209406140111
 20
-339.7384648237058
 30
0.0
 11
-534.4044920282557
 21
-266.8951705148863
 31
0.0
  0
LINE
  5
22A
330
1F
100
AcDbEntity
  8
041
  6
Continuous
 62
     2
370
     9
100
AcDbLine
 10
-535.7614644613923
 20
-200.2669826632066
 30
0.0
 11
-298.6343178300336
 21
-195.4376250848038
 31
0.0
  0
LINE
  5
22B
330
1F
100
AcDbEntity
  8
041
  6
Continuous
 62
     2
370
     9
100
AcDbLine
 10
-535.9141808631964
 20
-192.7685126435024
 30
0.0
 11
-347.7927864309314
 21
-188.9372208700479
 31
0.0
  0
LINE
  5
22C
330
1F
100
AcDbEntity
  8
041
  6
Continuous
 62
     2
370
     9
100
AcDbLine
 10
-533.2162000717314
 20
-325.2410423753456
 30
0.0
 11
-296.0888993162772
 21
-320.4117477651071
 31
0.0
  0
LINE
  5
22D
330
1F
100
AcDbEntity
  8
041
  6
Continuous
 62
     2
370
     9
100
AcDbLine
 10
-533.0634833658914
 20
-332.7395273233938
 30
0.0
 11
-344.9421806982456
 21
-328.9082374188233
 31
0.0
  0
LINE
  5
22E
330
1F
100
AcDbEntity
  8
その他
  6
Continuous
 62
     7
370
     9
100
AcDbLine
 10
40.12915588148859
 20
-336.3338075201748
 30
0.0
 11
40.12915588148859
 21
-314.4175246343913
 31
0.0
  0
LWPOLYLINE
  5
22F
330
1F
100
AcDbEntity
  8
その他
  6
Continuous
 62
     7
370
     9
100
AcDbPolyline
 90
        4
 70
     1
 43
0.4
 10
40.32915588148859
 20
-336.3338075201748
 42
0.4142135623731
 10
40.12915588148859
 20
-336.1338075201748
 42
0.4142135623731
 10
39.92915588148858
 20
-336.3338075201748
 42
0.4142135623731
 10
40.12915588148859
 20
-336.5338075201748
 42
0.4142135623731
  0
LWPOLYLINE
  5
230
330
1F
100
AcDbEntity
  8
その他
  6
Continuous
 62
     7
370
     9
100
AcDbPolyline
 90
        4
 70
     1
 43
0.4
 10
40.32915588148859
 20
-314.4175246343913
 42
0.4142135623731
 10
40.12915588148859
 20
-314.2175246343913
 42
0.4142135623731
 10
39.92915588148858
 20
-314.4175246343913
 42
0.4142135623731
 10
40.12915588148859
 20
-314.6175246343913
 42
0.4142135623731
  0
LWPOLYLINE
  5
231
330
1F
100
AcDbEntity
  8
その他
  6
Continuous
 62
     7
370
     9
100
AcDbPolyline
 90
        4
 70
     1
 43
0.4
 10
40.3291558814886
 20
-89.41741908584203
 42
0.4142135623731
 10
40.1291558814886
 20
-89.21741908584202
 42
0.4142135623731
 10
39.9291558814886
 20
-89.41741908584203
 42
0.4142135623731
 10
40.1291558814886
 20
-89.61741908584203
 42
0.4142135623731
  0
LINE
  5
232
330
1F
100
AcDbEntity
  8
その他
  6
Continuous
 62
     7
370
     9
100
AcDbLine
 10
41.3291558814886
 20
-89.41741908584203
 30
0.0
 11
-272.7683162820719
 21
-89.417419085842
 31
0.0
  0
TEXT
  5
233
330
1F
100
AcDbEntity
  8
その他
  6
Continuous
 62
     2
370
   211
100
AcDbText
 10
33.87315588148859
 20
-333.8756660772831
 30
0.0
 40
12.192
  1
22
 50
90.0
 41
1.0625
  7
ＭＳ ゴシック
100
AcDbText
  0
LWPOLYLINE
  5
234
330
1F
100
AcDbEntity
  8
その他
  6
Continuous
 62
     7
370
     9
100
AcDbPolyline
 90
        4
 70
     1
 43
0.4
 10
-53.56821070774673
 20
-360.2249245958001
 42
0.4142135623731
 10
-53.76821070774673
 20
-360.0249245958001
 42
0.4142135623731
 10
-53.96821070774674
 20
-360.2249245958001
 42
0.4142135623731
 10
-53.76821070774673
 20
-360.4249245958001
 42
0.4142135623731
  0
LWPOLYLINE
  5
235
330
1F
100
AcDbEntity
  8
その他
  6
Continuous
 62
     7
370
     9
100
AcDbPolyline
 90
        4
 70
     1
 43
0.4
 10
-157.4764567223164
 20
-360.2249245958001
 42
0.4142135623731
 10
-157.6764567223163
 20
-360.0249245958001
 42
0.4142135623731
 10
-157.8764567223163
 20
-360.2249245958001
 42
0.4142135623731
 10
-157.6764567223163
 20
-360.4249245958001
 42
0.4142135623731
  0
LINE
  5
236
330
1F
100
AcDbEntity
  8
その他
  6
Continuous
 62
     7
370
     9
100
AcDbLine
 10
-53.76821070774673
 20
-361.4249245958
 30
0.0
 11
-53.76821070774673
 21
-333.4175048649804
 31
0.0
  0
LINE
  5
237
330
1F
100
AcDbEntity
  8
その他
  6
Continuous
 62
     7
370
     9
100
AcDbLine
 10
-157.6764567223163
 20
-361.4249245958
 30
0.0
 11
-157.6764567223163
 21
-323.8548754652606
 31
0.0
  0
LINE
  5
238
330
1F
100
AcDbEntity
  8
その他
  6
Continuous
 62
     7
370
     9
100
AcDbLine
 10
-148.7681018342255
 20
-246.5999525336375
 30
0.0
 11
-148.7681018342255
 21
-296.4175081641781
 31
0.0
  0
LINE
  5
239
330
1F
100
AcDbEntity
  8
寸法
  6
Continuous
 62
     7
370
     9
100
AcDbLine
 10
-320.7681658279813
 20
-138.4174669831219
 30
0.0
 11
-324.5950001516322
 21
-129.178671658009
 31
0.0
  0
LINE
  5
23A
330
1F
100
AcDbEntity
  8
寸法
  6
Continuous
 62
     7
370
     9
100
AcDbLine
 10
-320.7681658279813
 20
-138.4174669831219
 30
0.0
 11
-326.8557801180685
 21
-130.4839335802096
 31
0.0
  0
LINE
  5
23B
330
1F
100
AcDbEntity
  8
寸法
  6
Continuous
 62
     7
370
     9
100
AcDbLine
 10
-482.042958054801
 20
-331.7004401983402
 30
0.0
 11
-485.8697923784519
 21
-340.9392355234531
 31
0.0
  0
LINE
  5
23C
330
1F
100
AcDbEntity
  8
寸法
  6
Continuous
 62
     7
370
     9
100
AcDbLine
 10
-482.042958054801
 20
-331.7004401983402
 30
0.0
 11
-488.1305723448883
 21
-339.6339736012526
 31
0.0
  0
LINE
  5
23D
330
1F
100
AcDbEntity
  8
寸法
  6
Continuous
 62
     7
370
     9
100
AcDbLine
 10
-338.3551976471664
 20
-328.5680564759588
 30
0.0
 11
-342.1820319708173
 21
-337.8068518010717
 31
0.0
  0
LINE
  5
23E
330
1F
100
AcDbEntity
  8
寸法
  6
Continuous
 62
     7
370
     9
100
AcDbLine
 10
-338.3551976471664
 20
-328.5680564759588
 30
0.0
 11
-344.4428119372536
 21
-336.5015898788712
 31
0.0
  0
LINE
  5
23F
330
1F
100
AcDbEntity
  8
寸法
  6
Continuous
 62
     7
370
     9
100
AcDbLine
 10
-290.6023274798687
 20
-329.3017933954511
 30
0.0
 11
-294.4291618035195
 21
-338.5405887205641
 31
0.0
  0
LINE
  5
240
330
1F
100
AcDbEntity
  8
寸法
  6
Continuous
 62
     7
370
     9
100
AcDbLine
 10
-290.6023274798687
 20
-329.3017933954511
 30
0.0
 11
-296.6899417699559
 21
-337.2353267983635
 31
0.0
  0
LINE
  5
241
330
1F
100
AcDbEntity
  8
寸法
  6
Continuous
 62
     7
370
     9
100
AcDbLine
 10
-258.7681458431654
 20
-379.7132927553948
 30
0.0
 11
-264.8557601332524
 21
-387.6468261583072
 31
0.0
  0
LINE
  5
242
330
1F
100
AcDbEntity
  8
寸法
  6
Continuous
 62
     7
370
     9
100
AcDbLine
 10
-258.7681458431654
 20
-379.7132927553948
 30
0.0
 11
-262.5949801668163
 21
-388.9520880805078
 31
0.0
  0
LINE
  5
243
330
1F
100
AcDbEntity
  8
寸法
  6
Continuous
 62
     7
370
     9
100
AcDbLine
 10
-164.6764567223147
 20
-314.4174685738064
 30
0.0
 11
-170.7640710124017
 21
-322.3510019767186
 31
0.0
  0
LINE
  5
244
330
1F
100
AcDbEntity
  8
寸法
  6
Continuous
 62
     7
370
     9
100
AcDbLine
 10
-164.6764567223147
 20
-314.4174685738064
 30
0.0
 11
-168.5032910459656
 21
-323.6562638989192
 31
0.0
  0
LINE
  5
245
330
1F
100
AcDbEntity
  8
寸法
  6
Continuous
 62
     7
370
     9
100
AcDbLine
 10
-113.7679679221496
 20
-390.4176765010685
 30
0.0
 11
-107.6803536320624
 21
-398.3512099039807
 31
0.0
  0
LINE
  5
246
330
1F
100
AcDbEntity
  8
寸法
  6
Continuous
 62
     7
370
     9
100
AcDbLine
 10
-113.7679679221496
 20
-390.4176765010685
 30
0.0
 11
-109.9411335984987
 21
-399.6564718261812
 31
0.0
  0
LINE
  5
247
330
1F
100
AcDbEntity
  8
寸法
  6
Continuous
 62
     7
370
     9
100
AcDbLine
 10
-101.2681877833697
 20
-389.4175031051673
 30
0.0
 11
-95.18057349328271
 21
-397.3510365080797
 31
0.0
  0
LINE
  5
248
330
1F
100
AcDbEntity
  8
寸法
  6
Continuous
 62
     7
370
     9
100
AcDbLine
 10
-101.2681877833697
 20
-389.4175031051673
 30
0.0
 11
-97.44135345971878
 21
-398.6562984302802
 31
0.0
  0
LINE
  5
249
330
1F
100
AcDbEntity
  8
寸法
  6
Continuous
 62
     7
370
     9
100
AcDbLine
 10
-665.9018781460421
 20
-377.2320069773998
 30
0.0
 11
-508.3306203913165
 21
-377.2320069773998
 31
0.0
  0
LINE
  5
24A
330
1F
100
AcDbEntity
  8
寸法
  6
Continuous
 62
     7
370
     9
100
AcDbLine
 10
-508.3306203913165
 20
-377.2320069773998
 30
0.0
 11
-482.042958054801
 21
-331.7004401983401
 31
0.0
  0
LINE
  5
24B
330
1F
100
AcDbEntity
  8
寸法
  6
Continuous
 62
     7
370
     9
100
AcDbLine
 10
-452.8103362386958
 20
-526.8101717038256
 30
0.0
 11
-338.3551976471664
 21
-328.5680564759587
 31
0.0
  0
LINE
  5
24C
330
1F
100
AcDbEntity
  8
寸法
  6
Continuous
 62
     7
370
     9
100
AcDbLine
 10
-581.6288803141828
 20
-526.8101717038256
 30
0.0
 11
-452.8103362386958
 21
-526.8101717038256
 31
0.0
  0
TEXT
  5
24D
330
1F
100
AcDbEntity
  8
寸法
  6
Continuous
 62
     2
370
   211
100
AcDbText
 10
-578.070934234541
 20
-521.0242704558955
 30
0.0
 40
12.192
  1
ねじ部シール材
 41
1.107142857142857
  7
ＭＳ ゴシック
100
AcDbText
  0
LINE
  5
24E
330
1F
100
AcDbEntity
  8
寸法
  6
Continuous
 62
     7
370
     9
100
AcDbLine
 10
-430.0832490143295
 20
-570.8898361796658
 30
0.0
 11
-290.6023274798687
 21
-329.301793395451
 31
0.0
  0
LINE
  5
24F
330
1F
100
AcDbEntity
  8
寸法
  6
Continuous
 62
     7
370
     9
100
AcDbLine
 10
-686.0161301829013
 20
-570.8898361796658
 30
0.0
 11
-430.0832490143295
 21
-570.889836179666
 31
0.0
  0
TEXT
  5
250
330
1F
100
AcDbEntity
  8
寸法
  6
Continuous
 62
     2
370
   211
100
AcDbText
 10
-682.4581841032588
 20
-565.1039349317356
 30
0.0
 40
12.192
  1
リセス部　シリコン系シール材
 50
359.9999999999999
 41
1.116071428571429
  7
ＭＳ ゴシック
100
AcDbText
  0
LINE
  5
251
330
1F
100
AcDbEntity
  8
寸法
  6
Continuous
 62
     7
370
     9
100
AcDbLine
 10
-390.7540044911303
 20
-608.319505814273
 30
0.0
 11
-258.7681458431654
 21
-379.7132927553948
 31
0.0
  0
LINE
  5
252
330
1F
100
AcDbEntity
  8
寸法
  6
Continuous
 62
     7
370
     9
100
AcDbLine
 10
0.5370837251828533
 20
-588.3998335160331
 30
0.0
 11
-113.7679679221496
 21
-390.4176765010685
 31
0.0
  0
TEXT
  5
253
330
1F
100
AcDbEntity
  8
寸法
  6
Continuous
 62
     2
370
   211
100
AcDbText
 10
7.367289769263055
 20
-503.9805628703391
 30
0.0
 40
12.192
  1
スペーサー
 41
1.1
  7
ＭＳ ゴシック
100
AcDbText
  0
LINE
  5
254
330
1F
100
AcDbEntity
  8
寸法
  6
Continuous
 62
     7
370
     9
100
AcDbLine
 10
3.809343689620973
 20
-509.766464118269
 30
0.0
 11
192.4783491590548
 21
-509.766464118269
 31
0.0
  0
TEXT
  5
255
330
1F
100
AcDbEntity
  8
寸法
  6
Continuous
 62
     2
370
     9
100
AcDbText
 10
7.367289769263055
 20
-483.5703256867203
 30
0.0
 40
12.192
  1
硬質ポリ塩化ビニル製
 50
0.0000000000001098
 41
1.112500000000001
  7
ＭＳ ゴシック
100
AcDbText
  0
LINE
  5
256
330
1F
100
AcDbEntity
  8
寸法
  6
Continuous
 62
     7
370
     9
100
AcDbLine
 10
-38.76796792214969
 20
-384.1675467647902
 30
0.0
 11
-32.68035363206269
 21
-392.1010801677027
 31
0.0
  0
LINE
  5
257
330
1F
100
AcDbEntity
  8
寸法
  6
Continuous
 62
     7
370
     9
100
AcDbLine
 10
-38.76796792214969
 20
-384.1675467647902
 30
0.0
 11
-34.94113359849877
 21
-393.406342089903
 31
0.0
  0
LINE
  5
258
330
1F
100
AcDbEntity
  8
寸法
  6
Continuous
 62
     7
370
     9
100
AcDbLine
 10
-12.77046635692625
 20
-429.1965403456088
 30
0.0
 11
-38.76796792214969
 21
-384.1675467647902
 31
0.0
  0
LINE
  5
259
330
1F
100
AcDbEntity
  8
寸法
  6
Continuous
 62
     7
370
     9
100
AcDbLine
 10
-12.77046635692625
 20
-429.1965403456088
 30
0.0
 11
64.46105829073974
 21
-429.1965403456088
 31
0.0
  0
TEXT
  5
25A
330
1F
100
AcDbEntity
  8
寸法
  6
Continuous
 62
     2
370
   211
100
AcDbText
 10
-9.212520277284398
 20
-423.4106390976789
 30
0.0
 40
12.192
  1
固定金具
 41
1.093750000000004
  7
ＭＳ ゴシック
100
AcDbText
  0
LINE
  5
25B
330
1F
100
AcDbEntity
  8
寸法
  6
Continuous
 62
     7
370
     9
100
AcDbLine
 10
-88.76816610966495
 20
-349.4175135076997
 30
0.0
 11
-82.68055181957794
 21
-357.3510469106121
 31
0.0
  0
LINE
  5
25C
330
1F
100
AcDbEntity
  8
寸法
  6
Continuous
 62
     7
370
     9
100
AcDbLine
 10
-88.76816610966495
 20
-349.4175135076997
 30
0.0
 11
-84.94133178601402
 21
-358.6563088328124
 31
0.0
  0
LINE
  5
25D
330
1F
100
AcDbEntity
  8
寸法
  6
Continuous
 62
     7
370
     9
100
AcDbLine
 10
3.809343689621031
 20
-509.766464118269
 30
0.0
 11
-88.76816610966495
 21
-349.4175135076997
 31
0.0
  0
LWPOLYLINE
  5
25E
330
1F
100
AcDbEntity
  8
寸法
  6
Continuous
 62
     7
370
     9
100
AcDbPolyline
 90
        4
 70
     1
 43
0.4
 10
76.59363983302019
 20
-309.3154747312079
 42
0.4142135623731
 10
76.39363983302019
 20
-309.1154747312079
 42
0.4142135623731
 10
76.19363983302019
 20
-309.3154747312079
 42
0.4142135623731
 10
76.39363983302019
 20
-309.5154747312079
 42
0.4142135623731
  0
LINE
  5
25F
330
1F
100
AcDbEntity
  8
寸法
  6
Continuous
 62
     7
370
     9
100
AcDbLine
 10
131.6056380124671
 20
-213.6854886970056
 30
0.0
 11
76.39363983302019
 21
-309.3154747312079
 31
0.0
  0
LINE
  5
260
330
1F
100
AcDbEntity
  8
寸法
  6
Continuous
 62
     7
370
     9
100
AcDbLine
 10
131.6056380124671
 20
-213.6854886970056
 30
0.0
 11
189.4966493817476
 21
-213.6854886970056
 31
0.0
  0
TEXT
  5
261
330
1F
100
AcDbEntity
  8
寸法
  6
Continuous
 62
     2
370
   211
100
AcDbText
 10
135.1635840921092
 20
-207.8995874490756
 30
0.0
 40
12.192
  1
防水層
 41
1.083333333333333
  7
ＭＳ ゴシック
100
AcDbText
  0
LINE
  5
262
330
1F
100
AcDbEntity
  8
寸法
  6
Continuous
 62
     7
370
     9
100
AcDbLine
 10
140.3110313785838
 20
-262.9928386190035
 30
0.0
 11
102.2674578627976
 21
-328.8862408498263
 31
0.0
  0
LWPOLYLINE
  5
263
330
1F
100
AcDbEntity
  8
寸法
  6
Continuous
 62
     7
370
     9
100
AcDbPolyline
 90
        4
 70
     1
 43
0.4
 10
102.4674578627976
 20
-328.8862408498263
 42
0.4142135623731
 10
102.2674578627976
 20
-328.6862408498263
 42
0.4142135623731
 10
102.0674578627976
 20
-328.8862408498263
 42
0.4142135623731
 10
102.2674578627976
 20
-329.0862408498263
 42
0.4142135623731
  0
LINE
  5
264
330
1F
100
AcDbEntity
  8
寸法
  6
Continuous
 62
     7
370
     9
100
AcDbLine
 10
140.3110313785838
 20
-262.9928386190035
 30
0.0
 11
303.9942616010402
 21
-262.9928386190035
 31
0.0
  0
TEXT
  5
265
330
1F
100
AcDbEntity
  8
寸法
  6
Continuous
 62
     2
370
   211
100
AcDbText
 10
143.8689774582259
 20
-257.2069373710731
 30
0.0
 40
12.192
  1
スラブコンクリート
 41
1.11111111111111
  7
ＭＳ ゴシック
100
AcDbText
  0
LINE
  5
266
330
1F
100
AcDbEntity
  8
寸法
  6
Continuous
 62
     7
370
     9
100
AcDbLine
 10
-250.1801254300868
 20
-173.9384316755801
 30
0.0
 11
-246.3532911064359
 21
-164.6996363504672
 31
0.0
  0
LINE
  5
267
330
1F
100
AcDbEntity
  8
寸法
  6
Continuous
 62
     7
370
     9
100
AcDbLine
 10
-250.1801254300868
 20
-173.9384316755801
 30
0.0
 11
-244.0925111399998
 21
-166.0048982726677
 31
0.0
  0
LINE
  5
268
330
1F
100
AcDbEntity
  8
寸法
  6
Continuous
 62
     7
370
     9
100
AcDbLine
 10
-240.7707082003583
 20
-275.3587956430647
 30
0.0
 11
-236.9438738767078
 21
-266.120000317952
 31
0.0
  0
LINE
  5
269
330
1F
100
AcDbEntity
  8
寸法
  6
Continuous
 62
     7
370
     9
100
AcDbLine
 10
-240.7707082003583
 20
-275.3587956430647
 30
0.0
 11
-234.6830939102713
 21
-267.4252622401523
 31
0.0
  0
LINE
  5
26A
330
1F
100
AcDbEntity
  8
寸法
  6
Continuous
 62
     7
370
     9
100
AcDbLine
 10
-164.6603907153245
 20
-249.5257185708927
 30
0.0
 11
-160.8335563916736
 21
-240.28692324578
 31
0.0
  0
LINE
  5
26B
330
1F
100
AcDbEntity
  8
寸法
  6
Continuous
 62
     7
370
     9
100
AcDbLine
 10
-164.6603907153245
 20
-249.5257185708927
 30
0.0
 11
-158.5727764252373
 21
-241.5921851679805
 31
0.0
  0
LINE
  5
26C
330
1F
100
AcDbEntity
  8
寸法
  6
Continuous
 62
     7
370
     9
100
AcDbLine
 10
-114.5182139972789
 20
-289.6185492225034
 30
0.0
 11
-110.691379673628
 21
-280.3797538973906
 31
0.0
  0
LINE
  5
26D
330
1F
100
AcDbEntity
  8
寸法
  6
Continuous
 62
     7
370
     9
100
AcDbLine
 10
-114.5182139972789
 20
-289.6185492225034
 30
0.0
 11
-108.4305997071917
 21
-281.6850158195912
 31
0.0
  0
LINE
  5
26E
330
1F
100
AcDbEntity
  8
その他
  6
Continuous
 62
     7
370
     9
100
AcDbLine
 10
-358.045890080666
 20
-89.417419085842
 30
0.0
 11
-358.045890080666
 21
-191.5322212659516
 31
0.0
  0
LWPOLYLINE
  5
26F
330
1F
100
AcDbEntity
  8
その他
  6
Continuous
 62
     7
370
     9
100
AcDbPolyline
 90
        4
 70
     1
 43
0.4
 10
-357.845890080666
 20
-89.417419085842
 42
0.4142135623731
 10
-358.045890080666
 20
-89.217419085842
 42
0.4142135623731
 10
-358.245890080666
 20
-89.417419085842
 42
0.4142135623731
 10
-358.045890080666
 20
-89.617419085842
 42
0.4142135623731
  0
LWPOLYLINE
  5
270
330
1F
100
AcDbEntity
  8
その他
  6
Continuous
 62
     7
370
     9
100
AcDbPolyline
 90
        4
 70
     1
 43
0.4
 10
-357.845890080666
 20
-191.5322212659516
 42
0.4142135623731
 10
-358.045890080666
 20
-191.3322212659516
 42
0.4142135623731
 10
-358.245890080666
 20
-191.5322212659516
 42
0.4142135623731
 10
-358.045890080666
 20
-191.7322212659516
 42
0.4142135623731
  0
LINE
  5
271
330
1F
100
AcDbEntity
  8
その他
  6
Continuous
 62
     7
370
     9
100
AcDbLine
 10
-359.245890080666
 20
-89.417419085842
 30
0.0
 11
-297.768246998921
 21
-89.417419085842
 31
0.0
  0
TEXT
  5
272
330
1F
100
AcDbEntity
  8
その他
  6
Continuous
 62
     2
370
   211
100
AcDbText
 10
-364.301890080666
 20
-153.4748201758968
 30
0.0
 40
12.192
  1
100
 50
90.0
 41
1.083333333333333
  7
ＭＳ ゴシック
100
AcDbText
  0
LINE
  5
273
330
1F
100
AcDbEntity
  8
その他
  6
Continuous
 62
     7
370
     9
100
AcDbLine
 10
-335.1963236044984
 20
-149.4175411561545
 30
0.0
 11
-335.1963236044984
 21
-187.3556581061122
 31
0.0
  0
LWPOLYLINE
  5
274
330
1F
100
AcDbEntity
  8
その他
  6
Continuous
 62
     7
370
     9
100
AcDbPolyline
 90
        4
 70
     1
 43
0.4
 10
-334.9963236044984
 20
-149.4175411561545
 42
0.4142135623731
 10
-335.1963236044984
 20
-149.2175411561545
 42
0.4142135623731
 10
-335.3963236044984
 20
-149.4175411561545
 42
0.4142135623731
 10
-335.1963236044984
 20
-149.6175411561545
 42
0.4142135623731
  0
LWPOLYLINE
  5
275
330
1F
100
AcDbEntity
  8
その他
  6
Continuous
 62
     7
370
     9
100
AcDbPolyline
 90
        4
 70
     1
 43
0.4
 10
-334.9963236044984
 20
-187.3556581061122
 42
0.4142135623731
 10
-335.1963236044984
 20
-187.1556581061122
 42
0.4142135623731
 10
-335.3963236044984
 20
-187.3556581061122
 42
0.4142135623731
 10
-335.1963236044984
 20
-187.5556581061122
 42
0.4142135623731
  0
LINE
  5
276
330
1F
100
AcDbEntity
  8
その他
  6
Continuous
 62
     7
370
     9
100
AcDbLine
 10
-336.3963236044984
 20
-149.4175411561545
 30
0.0
 11
-276.7681018342251
 21
-149.4175411561545
 31
0.0
  0
LINE
  5
277
330
1F
100
AcDbEntity
  8
その他
  6
Continuous
 62
     7
370
     9
100
AcDbLine
 10
-336.3963236044984
 20
-187.3556581061122
 30
0.0
 11
-276.7681018342251
 21
-187.3556581061122
 31
0.0
  0
TEXT
  5
278
330
1F
100
AcDbEntity
  8
その他
  6
Continuous
 62
     2
370
   211
100
AcDbText
 10
-341.4523236044984
 20
-176.8865996311334
 30
0.0
 40
12.192
  1
38
 50
90.0
 41
1.0625
  7
ＭＳ ゴシック
100
AcDbText
  0
LINE
  5
279
330
1F
100
AcDbEntity
  8
092
  6
Continuous
 62
     6
370
     9
100
AcDbLine
 10
93.86270356024448
 20
-314.4175246343913
 30
0.0
 11
13.86266064490049
 21
-394.4175675497354
 31
0.0
  0
LINE
  5
27A
330
1F
100
AcDbEntity
  8
092
  6
Continuous
 62
     6
370
     9
100
AcDbLine
 10
98.10534424736379
 20
-314.4175246343913
 30
0.0
 11
18.10530133201978
 21
-394.4175675497354
 31
0.0
  0
LINE
  5
27B
330
1F
100
AcDbEntity
  8
092
  6
Continuous
 62
     6
370
     9
100
AcDbLine
 10
102.347984934483
 20
-314.4175246343913
 30
0.0
 11
22.34794201913908
 21
-394.4175675497354
 31
0.0
  0
LINE
  5
27C
330
1F
100
AcDbEntity
  8
092
  6
Continuous
 62
     6
370
     9
100
AcDbLine
 10
-243.1194370349741
 20
-328.3800871296351
 30
0.0
 11
-254.7682263200214
 21
-340.0288764146825
 31
0.0
  0
LINE
  5
27D
330
1F
100
AcDbEntity
  8
092
  6
Continuous
 62
     6
370
     9
100
AcDbLine
 10
-262.7681644600663
 20
-348.0288145547273
 30
0.0
 11
-278.7680407401546
 21
-364.0286908348156
 31
0.0
  0
LINE
  5
27E
330
1F
100
AcDbEntity
  8
092
  6
Continuous
 62
     6
370
     9
100
AcDbLine
 10
-234.4678002826105
 20
-328.21373175151
 30
0.0
 11
-254.7682263200214
 21
-348.514157788921
 31
0.0
  0
LINE
  5
27F
330
1F
100
AcDbEntity
  8
092
  6
Continuous
 62
     6
370
     9
100
AcDbLine
 10
-262.7681644600663
 20
-356.5140959289658
 30
0.0
 11
-278.7680407401546
 21
-372.5139722090543
 31
0.0
  0
LINE
  5
280
330
1F
100
AcDbEntity
  8
092
  6
Continuous
 62
     6
370
     9
100
AcDbLine
 10
-238.7936186587922
 20
-328.2969094405726
 30
0.0
 11
-254.7682263200214
 21
-344.2715171018018
 31
0.0
  0
LINE
  5
281
330
1F
100
AcDbEntity
  8
092
  6
Continuous
 62
     6
370
     9
100
AcDbLine
 10
-262.7681644600663
 20
-352.2714552418466
 30
0.0
 11
-278.7680407401546
 21
-368.2713315219349
 31
0.0
  0
LWPOLYLINE
  5
282
330
1F
100
AcDbEntity
  8
その他
  6
Continuous
 62
     7
370
     9
100
AcDbPolyline
 90
        4
 70
     1
 43
0.4
 10
-330.336259050544
 20
-259.0289326785282
 42
0.4142135623731
 10
-330.536259050544
 20
-258.8289326785282
 42
0.4142135623731
 10
-330.736259050544
 20
-259.0289326785282
 42
0.4142135623731
 10
-330.536259050544
 20
-259.2289326785282
 42
0.4142135623731
  0
LWPOLYLINE
  5
283
330
1F
100
AcDbEntity
  8
その他
  6
Continuous
 62
     7
370
     9
100
AcDbPolyline
 90
        4
 70
     1
 43
0.4
 10
-330.3506372821208
 20
-257.545998715276
 42
0.4142135623731
 10
-330.5506372821208
 20
-257.345998715276
 42
0.4142135623731
 10
-330.7506372821207
 20
-257.545998715276
 42
0.4142135623731
 10
-330.5506372821208
 20
-257.745998715276
 42
0.4142135623731
  0
ARC
  5
284
330
1F
100
AcDbEntity
  8
その他
  6
Continuous
 62
     7
370
     9
100
AcDbCircle
 10
-261.0396268993302
 20
-257.6135705253009
 30
0.0
 40
69.51104322613753
100
AcDbArc
 50
168.3741076479869
 51
192.008108552783
  0
TEXT
  5
285
330
1F
100
AcDbEntity
  8
その他
  6
Continuous
 62
     2
370
     5
100
AcDbText
 10
-339.8181110284281
 20
-283.0774477518074
 30
0.0
 40
12.192
  1
1°10'
 50
91.16667704202501
 41
1.104166666666668
  7
ＭＳ ゴシック
100
AcDbText
  0
LWPOLYLINE
  5
286
330
1F
100
AcDbEntity
  8
その他
  6
Continuous
 62
     7
370
     9
100
AcDbPolyline
 90
        4
 70
     1
 43
0.4
 10
-366.2189219492071
 20
-207.78712168339
 42
0.4142135623731
 10
-366.4189219492071
 20
-207.58712168339
 42
0.4142135623731
 10
-366.618921949207
 20
-207.78712168339
 42
0.4142135623731
 10
-366.4189219492071
 20
-207.98712168339
 42
0.4142135623731
  0
TEXT
  5
287
330
1F
100
AcDbEntity
  8
その他
  6
Continuous
 62
     2
370
   211
100
AcDbText
 10
-372.674921949207
 20
-289.2203105497393
 30
0.0
 40
12.192
  1
Rc5
 50
90.0
 41
1.083333333333338
  7
ＭＳ ゴシック
100
AcDbText
  0
LINE
  5
288
330
1F
100
AcDbEntity
  8
その他
  6
Continuous
 62
     7
370
     9
100
AcDbLine
 10
-366.4189219492071
 20
-207.78712168339
 30
0.0
 11
-366.4189219492071
 21
-345.4004042625074
 31
0.0
  0
LWPOLYLINE
  5
289
330
1F
100
AcDbEntity
  8
その他
  6
Continuous
 62
     7
370
     9
100
AcDbPolyline
 90
        4
 70
     1
 43
0.4
 10
-366.2189219492071
 20
-345.4004042625074
 42
0.4142135623731
 10
-366.4189219492071
 20
-345.2004042625074
 42
0.4142135623731
 10
-366.618921949207
 20
-345.4004042625074
 42
0.4142135623731
 10
-366.4189219492071
 20
-345.6004042625074
 42
0.4142135623731
  0
LWPOLYLINE
  5
28A
330
1F
100
AcDbEntity
  8
その他
  6
Continuous
 62
     7
370
     9
100
AcDbPolyline
 90
        4
 70
     1
 43
0.4
 10
-148.5681018342256
 20
-247.7303448546228
 42
0.4142135623731
 10
-148.7681018342255
 20
-247.5303448546228
 42
0.4142135623731
 10
-148.9681018342255
 20
-247.7303448546228
 42
0.4142135623731
 10
-148.7681018342255
 20
-247.9303448546228
 42
0.4142135623731
  0
LWPOLYLINE
  5
28B
330
1F
100
AcDbEntity
  8
その他
  6
Continuous
 62
     7
370
     9
100
AcDbPolyline
 90
        4
 70
     1
 43
0.4
 10
-113.5680358502722
 20
-247.7303448546228
 42
0.4142135623731
 10
-113.7680358502722
 20
-247.5303448546228
 42
0.4142135623731
 10
-113.9680358502722
 20
-247.7303448546228
 42
0.4142135623731
 10
-113.7680358502722
 20
-247.9303448546228
 42
0.4142135623731
  0
LINE
  5
28C
330
1F
100
AcDbEntity
  8
その他
  6
Continuous
 62
     7
370
     9
100
AcDbLine
 10
-113.7680358502722
 20
-246.5303448546228
 30
0.0
 11
-113.7680358502722
 21
-282.9175873449213
 31
0.0
  0
LINE
  5
28D
330
1F
100
AcDbEntity
  8
その他
  6
Continuous
 62
     7
370
     9
100
AcDbLine
 10
40.12915588148859
 20
-314.4175246343913
 30
0.0
 11
40.1291558814886
 21
-89.41741908584203
 31
0.0
  0
TEXT
  5
28E
330
1F
100
AcDbEntity
  8
その他
  6
Continuous
 62
     2
370
   211
100
AcDbText
 10
33.87315588148859
 20
-214.9174718601166
 30
0.0
 40
12.192
  1
225
 50
90.0
 41
1.083333333333333
  7
ＭＳ ゴシック
100
AcDbText
  0
LINE
  5
28F
330
1F
100
AcDbEntity
  8
その他
  6
Continuous
 62
     7
370
     9
100
AcDbLine
 10
-148.7681018342255
 20
-247.7303448546228
 30
0.0
 11
-113.7680358502722
 21
-247.7303448546228
 31
0.0
  0
TEXT
  5
290
330
1F
100
AcDbEntity
  8
その他
  6
Continuous
 62
     2
370
   211
100
AcDbText
 10
-139.7680688422489
 20
-241.4743448546228
 30
0.0
 40
12.192
  1
35
 41
1.0625
  7
ＭＳ ゴシック
100
AcDbText
  0
TEXT
  5
291
330
1F
100
AcDbEntity
  8
寸法
  6
Continuous
 62
     2
370
   211
100
AcDbText
 10
-662.3439320664005
 20
-371.4461057294701
 30
0.0
 40
12.192
  1
排水管　呼び径125
 41
1.117647058823529
  7
ＭＳ ゴシック
100
AcDbText
  0
LINE
  5
292
330
1F
100
AcDbEntity
  8
その他
  6
Continuous
 62
     7
370
     9
100
AcDbLine
 10
-314.8954101060006
 20
-193.9814382937874
 30
0.0
 11
-366.6484636775618
 21
-207.8486272041319
 31
0.0
  0
LINE
  5
293
330
1F
100
AcDbEntity
  8
その他
  6
Continuous
 62
     7
370
     9
100
AcDbLine
 10
-302.1770602529056
 20
-328.1868493007115
 30
0.0
 11
-366.6349916794588
 21
-345.4582999722372
 31
0.0
  0
LINE
  5
294
330
1F
100
AcDbEntity
  8
その他
  6
Continuous
 62
     7
370
     9
100
AcDbLine
 10
-273.7679679221498
 20
-431.1084289095121
 30
0.0
 11
-38.76796792214969
 21
-431.1084289095121
 31
0.0
  0
LWPOLYLINE
  5
295
330
1F
100
AcDbEntity
  8
その他
  6
Continuous
 62
     7
370
     9
100
AcDbPolyline
 90
        4
 70
     1
 43
0.4
 10
-273.5679679221498
 20
-431.1084289095121
 42
0.4142135623731
 10
-273.7679679221498
 20
-430.9084289095121
 42
0.4142135623731
 10
-273.9679679221497
 20
-431.1084289095121
 42
0.4142135623731
 10
-273.7679679221498
 20
-431.3084289095121
 42
0.4142135623731
  0
LWPOLYLINE
  5
296
330
1F
100
AcDbEntity
  8
その他
  6
Continuous
 62
     7
370
     9
100
AcDbPolyline
 90
        4
 70
     1
 43
0.4
 10
-38.56796792214969
 20
-431.1084289095121
 42
0.4142135623731
 10
-38.76796792214969
 20
-430.9084289095121
 42
0.4142135623731
 10
-38.9679679221497
 20
-431.1084289095121
 42
0.4142135623731
 10
-38.76796792214969
 20
-431.3084289095121
 42
0.4142135623731
  0
LINE
  5
297
330
1F
100
AcDbEntity
  8
その他
  6
Continuous
 62
     7
370
     9
100
AcDbLine
 10
-273.7679679221498
 20
-432.3084289095121
 30
0.0
 11
-273.7679679221498
 21
-402.4175675497354
 31
0.0
  0
LINE
  5
298
330
1F
100
AcDbEntity
  8
その他
  6
Continuous
 62
     7
370
     9
100
AcDbLine
 10
-38.76796792214969
 20
-432.3084289095121
 30
0.0
 11
-38.76796792214969
 21
-402.4175675497354
 31
0.0
  0
LINE
  5
299
330
1F
100
AcDbEntity
  8
通り芯
  6
Continuous
 62
     4
370
     9
100
AcDbLine
 10
-409.7603757441358
 20
-185.2005704901483
 30
0.0
 11
-319.779084896487
 21
-183.3655507652309
 31
0.0
  0
LINE
  5
29A
330
1F
100
AcDbEntity
  8
通り芯
  6
Continuous
 62
     4
370
     9
100
AcDbLine
 10
-406.7064025673294
 20
-335.166320022441
 30
0.0
 11
-316.7250416475173
 21
-333.3344097631058
 31
0.0
  0
LINE
  5
29B
330
1F
100
AcDbEntity
  8
ハッチ
  6
Continuous
 62
     6
370
     9
100
AcDbLine
 10
-405.7433105523216
 20
-185.5372063216088
 30
0.0
 11
-409.7603757441357
 21
-185.2005704901484
 31
0.0
  0
LINE
  5
29C
330
1F
100
AcDbEntity
  8
ハッチ
  6
Continuous
 62
     6
370
     9
100
AcDbLine
 10
-418.7680127558889
 20
-190.3827066509636
 30
0.0
 11
-418.7680127558889
 21
-180.2331922539645
 31
0.0
  0
LINE
  5
29D
330
1F
100
AcDbEntity
  8
ハッチ
  6
Continuous
 62
     6
370
     9
100
AcDbLine
 10
-405.7433105523216
 20
-185.5372063216088
 30
0.0
 11
-405.5567058629198
 21
-190.1136443703635
 31
0.0
  0
LINE
  5
29E
330
1F
100
AcDbEntity
  8
ハッチ
  6
Continuous
 62
     6
370
     9
100
AcDbLine
 10
-405.5567058629198
 20
-190.1136443703635
 30
0.0
 11
-418.7680127558889
 21
-190.3827066509636
 31
0.0
  0
LINE
  5
29F
330
1F
100
AcDbEntity
  8
ハッチ
  6
Continuous
 62
     6
370
     9
100
AcDbLine
 10
-408.0437696811633
 20
-190.1642960635187
 30
0.0
 11
-405.6521586969286
 21
-187.7726850792839
 31
0.0
  0
LINE
  5
2A0
330
1F
100
AcDbEntity
  8
ハッチ
  6
Continuous
 62
     6
370
     9
100
AcDbLine
 10
-413.8182268775176
 20
-190.2818990103796
 30
0.0
 11
-408.816035431527
 21
-185.279707564389
 31
0.0
  0
LINE
  5
2A1
330
1F
100
AcDbEntity
  8
ハッチ
  6
Continuous
 62
     6
370
     9
100
AcDbLine
 10
-418.7680127558889
 20
-189.5748306392576
 30
0.0
 11
-410.1311861491138
 21
-180.9380040324825
 31
0.0
  0
LINE
  5
2A2
330
1F
100
AcDbEntity
  8
ハッチ
  6
Continuous
 62
     6
370
     9
100
AcDbLine
 10
-418.7680127558884
 20
-183.9179763897637
 30
0.0
 11
-415.3612397304636
 21
-180.511203364339
 31
0.0
  0
LINE
  5
2A3
330
1F
100
AcDbEntity
  8
ハッチ
  6
Continuous
 62
     6
370
     9
100
AcDbLine
 10
-418.7680127558901
 20
-187.8719615691448
 30
0.0
 11
-416.3073810492325
 21
-190.3325932758025
 31
0.0
  0
LINE
  5
2A4
330
1F
100
AcDbEntity
  8
ハッチ
  6
Continuous
 62
     6
370
     9
100
AcDbLine
 10
-418.768012755889
 20
-182.2151073196599
 30
0.0
 11
-410.7634351397033
 21
-190.2196849358455
 31
0.0
  0
LINE
  5
2A5
330
1F
100
AcDbEntity
  8
ハッチ
  6
Continuous
 62
     6
370
     9
100
AcDbLine
 10
-414.7665310128357
 20
-180.5597348132199
 30
0.0
 11
-405.5713323324653
 21
-189.7549334935903
 31
0.0
  0
LINE
  5
2A6
330
1F
100
AcDbEntity
  8
ハッチ
  6
Continuous
 62
     6
370
     9
100
AcDbLine
 10
-402.7063748490725
 20
-334.6664053382361
 30
0.0
 11
-406.7064025673294
 21
-335.166320022441
 31
0.0
  0
LINE
  5
2A7
330
1F
100
AcDbEntity
  8
ハッチ
  6
Continuous
 62
     6
370
     9
100
AcDbLine
 10
-402.7063748490725
 20
-334.6664053382361
 30
0.0
 11
-402.7062582105216
 21
-330.0861644591347
 31
0.0
  0
LINE
  5
2A8
330
1F
100
AcDbEntity
  8
ハッチ
  6
Continuous
 62
     6
370
     9
100
AcDbLine
 10
-405.1933220003407
 20
-330.1368175479447
 30
0.0
 11
-402.7063178739763
 21
-332.4290689903636
 31
0.0
  0
LINE
  5
2A9
330
1F
100
AcDbEntity
  8
ハッチ
  6
Continuous
 62
     6
370
     9
100
AcDbLine
 10
-410.9677791306995
 20
-330.2544237352251
 30
0.0
 11
-405.7660674605954
 21
-335.0487990048287
 31
0.0
  0
LINE
  5
2AA
330
1F
100
AcDbEntity
  8
ハッチ
  6
Continuous
 62
     6
370
     9
100
AcDbLine
 10
-411.5194512600419
 20
-340.0071369613639
 30
0.0
 11
-402.7062673528977
 21
-330.4451734097796
 31
0.0
  0
LINE
  5
2AB
330
1F
100
AcDbEntity
  8
ハッチ
  6
Continuous
 62
     6
370
     9
100
AcDbLine
 10
-402.7062582105216
 20
-330.0861644591347
 30
0.0
 11
-418.7679820285267
 21
-330.4132875214013
 31
0.0
  0
LINE
  5
2AC
330
1F
100
AcDbEntity
  8
ハッチ
  6
Continuous
 62
     6
370
     9
100
AcDbLine
 10
-418.7680127558889
 20
-340.8969937912032
 30
0.0
 11
-418.7679820285267
 21
-330.4132875214013
 31
0.0
  0
LINE
  5
2AD
330
1F
100
AcDbEntity
  8
ハッチ
  6
Continuous
 62
     6
370
     9
100
AcDbLine
 10
-418.7680127558889
 20
-336.0674351463299
 30
0.0
 11
-413.4569332739662
 21
-330.3051193974726
 31
0.0
  0
LINE
  5
2AE
330
1F
100
AcDbEntity
  8
ハッチ
  6
Continuous
 62
     6
370
     9
100
AcDbLine
 10
-418.7680127558889
 20
-333.9447645122142
 30
0.0
 11
-412.1116908297871
 21
-340.079842204512
 31
0.0
  0
LINE
  5
2AF
330
1F
100
AcDbEntity
  8
ハッチ
  6
Continuous
 62
     6
370
     9
100
AcDbLine
 10
-416.7438372245055
 20
-330.3705543275389
 30
0.0
 11
-406.9033517035054
 21
-339.4404496648615
 31
0.0
  0
LINE
  5
2B0
330
1F
100
AcDbEntity
  8
ハッチ
  6
Continuous
 62
     6
370
     9
100
AcDbLine
 10
-417.6533808805916
 20
-340.760157980738
 30
0.0
 11
-407.912987427798
 21
-330.1922079464489
 31
0.0
  0
LINE
  5
2B1
330
1F
100
AcDbEntity
  8
ハッチ
  6
Continuous
 62
     6
370
     9
100
AcDbLine
 10
-418.7680083232492
 20
-339.3846448793632
 30
0.0
 11
-417.3200299560682
 21
-340.7192347441634
 31
0.0
  0
LINE
  5
2B2
330
1F
100
AcDbEntity
  8
その他
  6
Continuous
 62
     7
370
     9
100
AcDbLine
 10
-275.4347685008918
 20
-191.5322212659516
 30
0.0
 11
-275.4347685008918
 21
72.0752745903693
 31
0.0
  0
LINE
  5
2B3
330
1F
100
AcDbEntity
  8
その他
  6
Continuous
 62
     7
370
     9
100
AcDbLine
 10
-272.1014351675585
 20
-191.5322212659516
 30
0.0
 11
-272.1014351675585
 21
72.0752745903693
 31
0.0
  0
LINE
  5
2B4
330
1F
100
AcDbEntity
  8
ハッチ
  6
Continuous
 62
     6
370
     9
100
AcDbLine
 10
-409.8468305160054
 20
-180.961208990579
 30
0.0
 11
-418.7680127558889
 21
-180.2331922539645
 31
0.0
  0
LINE
  5
2B5
330
1F
100
AcDbEntity
  8
ハッチ
  6
Continuous
 62
     6
370
     9
100
AcDbLine
 10
-406.6199482722169
 20
-339.4056581439409
 30
0.0
 11
-418.7680127558889
 21
-340.8969937912032
 31
0.0
  0
LINE
  5
2B6
330
1F
100
AcDbEntity
  8
ハッチ
  6
Continuous
 62
     6
370
     9
100
AcDbLine
 10
-406.6199482722169
 20
-339.4056581439409
 30
0.0
 11
-406.7064025673294
 21
-335.166320022441
 31
0.0
  0
LINE
  5
2B7
330
1F
100
AcDbEntity
  8
躯体
  6
Continuous
 62
     6
370
     9
100
AcDbLine
 10
-418.7680127558889
 20
-564.0841733536995
 30
0.0
 11
-418.7680127558889
 21
-330.4132875214013
 31
0.0
  0
LINE
  5
2B8
330
1F
100
AcDbEntity
  8
躯体
  6
Continuous
 62
     6
370
     9
100
AcDbLine
 10
-418.7680127558889
 20
-190.3827066509637
 30
0.0
 11
-418.7680127558889
 21
72.0752745903693
 31
0.0
  0
LINE
  5
2B9
330
1F
100
AcDbEntity
  8
躯体
  6
JWW_DASHED1
 62
     6
370
     9
100
AcDbLine
 10
-418.7680127558889
 20
-330.4132875214013
 30
0.0
 11
-418.7680127558889
 21
-190.3827066509637
 31
0.0
  0
TEXT
  5
2BA
330
1F
100
AcDbEntity
  8
その他
  6
Continuous
 62
     2
370
   211
100
AcDbText
 10
-82.5905835873667
 20
-353.9689245958001
 30
0.0
 40
12.192
  1
100
 41
1.083333333333333
  7
ＭＳ ゴシック
100
AcDbText
  0
LINE
  5
2BB
330
1F
100
AcDbEntity
  8
その他
  6
Continuous
 62
     7
370
     9
100
AcDbLine
 10
-53.76821070774673
 20
-360.2249245958001
 30
0.0
 11
-157.6764567223163
 21
-360.2249245958001
 31
0.0
  0
LINE
  5
2BC
330
1F
100
AcDbEntity
  8
その他
  6
Continuous
 62
     7
370
     9
100
AcDbLine
 10
41.32915588148859
 20
-336.3338075201748
 30
0.0
 11
-288.1210167258518
 21
-336.3338075201748
 31
0.0
  0
LINE
  5
2BD
330
1F
100
AcDbEntity
  8
建具
  6
Continuous
 62
     4
370
     9
100
AcDbLine
 10
-136.7681661096649
 20
-319.9175675497353
 30
0.0
 11
-136.7681661096649
 21
-378.9174594656641
 31
0.0
  0
LINE
  5
2BE
330
1F
100
AcDbEntity
  8
建具
  6
Continuous
 62
     4
370
     9
100
AcDbLine
 10
-138.7681661096645
 20
-319.9175675497353
 30
0.0
 11
-138.7681661096645
 21
-378.9174594656641
 31
0.0
  0
LINE
  5
2BF
330
1F
100
AcDbEntity
  8
躯体
  6
Continuous
 62
     6
370
     9
100
AcDbLine
 10
-117.7683459748501
 20
465.0310375616978
 30
0.0
 11
-117.7683459748501
 21
449.6155366115291
 31
0.0
  0
LINE
  5
2C0
330
1F
100
AcDbEntity
  8
躯体
  6
Continuous
 62
     6
370
     9
100
AcDbLine
 10
-196.2817935044109
 20
361.3359362103462
 30
0.0
 11
-181.7681612197826
 21
362.8359164151605
 31
0.0
  0
LINE
  5
2C1
330
1F
100
AcDbEntity
  8
躯体
  6
Continuous
 62
     6
370
     9
100
AcDbLine
 10
-119.7682041093518
 20
362.8359164151605
 30
0.0
 11
-181.7681612197826
 21
362.8359164151605
 31
0.0
  0
LINE
  5
2C2
330
1F
100
AcDbEntity
  8
躯体
  6
Continuous
 62
     6
370
     9
100
AcDbLine
 10
-196.2817935044109
 20
366.8360285878802
 30
0.0
 11
-253.7682502981189
 21
366.8360285878802
 31
0.0
  0
LINE
  5
2C3
330
1F
100
AcDbEntity
  8
躯体
  6
Continuous
 62
     6
370
     9
100
AcDbLine
 10
-253.7682502981189
 20
464.6014820296032
 30
0.0
 11
-253.7682502981189
 21
450.0706279333193
 31
0.0
  0
LINE
  5
2C4
330
1F
100
AcDbEntity
  8
躯体
  6
Continuous
 62
     6
370
     9
100
AcDbLine
 10
-259.0510905113789
 20
467.0907266453126
 30
0.0
 11
-255.4854331792422
 21
466.5811985625425
 31
0.0
  0
LINE
  5
2C5
330
1F
100
AcDbEntity
  8
躯体
  6
Continuous
 62
     6
370
     9
100
AcDbLine
 10
-259.0510905113789
 20
447.5813833176099
 30
0.0
 11
-255.4854331792422
 21
448.0908124244513
 31
0.0
  0
LINE
  5
2C6
330
1F
100
AcDbEntity
  8
躯体
  6
Continuous
 62
     6
370
     9
100
AcDbLine
 10
-253.7682502981189
 20
436.6014886279985
 30
0.0
 11
-253.7682502981189
 21
422.0708324835727
 31
0.0
  0
LINE
  5
2C7
330
1F
100
AcDbEntity
  8
躯体
  6
Continuous
 62
     6
370
     9
100
AcDbLine
 10
-259.0510905113789
 20
439.0907332437079
 30
0.0
 11
-255.4854331792422
 21
438.5815020887247
 31
0.0
  0
LINE
  5
2C8
330
1F
100
AcDbEntity
  8
躯体
  6
Continuous
 62
     6
370
     9
100
AcDbLine
 10
-259.0510905113789
 20
419.581290940076
 30
0.0
 11
-255.4854331792422
 21
420.0908190228463
 31
0.0
  0
LINE
  5
2C9
330
1F
100
AcDbEntity
  8
躯体
  6
Continuous
 62
     6
370
     9
100
AcDbLine
 10
-260.7683228804668
 20
441.0707467044343
 30
0.0
 11
-260.7683228804668
 21
445.6016667846707
 31
0.0
  0
LINE
  5
2CA
330
1F
100
AcDbEntity
  8
躯体
  6
Continuous
 62
     6
370
     9
100
AcDbLine
 10
-253.7682502981189
 20
408.6014952263936
 30
0.0
 11
-253.7682502981189
 21
394.0708390819679
 31
0.0
  0
LINE
  5
2CB
330
1F
100
AcDbEntity
  8
躯体
  6
Continuous
 62
     6
370
     9
100
AcDbLine
 10
-259.0510905113789
 20
411.090739842103
 30
0.0
 11
-255.4854331792422
 21
410.5814097111909
 31
0.0
  0
LINE
  5
2CC
330
1F
100
AcDbEntity
  8
躯体
  6
Continuous
 62
     6
370
     9
100
AcDbLine
 10
-259.0510905113789
 20
391.5814954903295
 30
0.0
 11
-255.4854331792422
 21
392.0907266453125
 31
0.0
  0
LINE
  5
2CD
330
1F
100
AcDbEntity
  8
躯体
  6
Continuous
 62
     6
370
     9
100
AcDbLine
 10
-259.0510905113789
 20
383.0908454164275
 30
0.0
 11
-255.4854331792422
 21
382.5814163095862
 31
0.0
  0
LINE
  5
2CE
330
1F
100
AcDbEntity
  8
躯体
  6
Continuous
 62
     6
370
     9
100
AcDbLine
 10
-260.7683228804668
 20
385.0706609252957
 30
0.0
 11
-260.7683228804668
 21
389.6014820296031
 31
0.0
  0
LINE
  5
2CF
330
1F
100
AcDbEntity
  8
躯体
  6
Continuous
 62
     6
370
     9
100
AcDbLine
 10
-260.7683228804668
 20
413.0706543269005
 30
0.0
 11
-260.7683228804668
 21
417.601574407137
 31
0.0
  0
LINE
  5
2D0
330
1F
100
AcDbEntity
  8
躯体
  6
Continuous
 62
     6
370
     9
100
AcDbLine
 10
-121.2681348262013
 20
361.3359362103462
 30
0.0
 11
-268.7680523462606
 21
361.3359362103462
 31
0.0
  0
LINE
  5
2D1
330
1F
100
AcDbEntity
  8
躯体
  6
Continuous
 62
     6
370
     9
100
AcDbLine
 10
-254.6686838126881
 20
362.7461452475084
 30
0.0
 11
-268.7680523462606
 21
361.3359362103462
 31
0.0
  0
LINE
  5
2D2
330
1F
100
AcDbEntity
  8
躯体
  6
Continuous
 62
     6
370
     9
100
AcDbLine
 10
-196.2817935044109
 20
362.8359164151605
 30
0.0
 11
-254.3428055662777
 21
362.8359164151605
 31
0.0
  0
LINE
  5
2D3
330
1F
100
AcDbEntity
  8
躯体
  6
Continuous
 62
     6
370
     9
100
AcDbLine
 10
-196.2817935044109
 20
368.3360087926944
 30
0.0
 11
-196.2817935044109
 21
361.3359362103462
 31
0.0
  0
LINE
  5
2D4
330
1F
100
AcDbEntity
  8
躯体
  6
Continuous
 62
     6
370
     9
100
AcDbLine
 10
-181.7681612197826
 20
366.8360285878802
 30
0.0
 11
-181.7681612197826
 21
362.8359164151605
 31
0.0
  0
LINE
  5
2D5
330
1F
100
AcDbEntity
  8
躯体
  6
Continuous
 62
     6
370
     9
100
AcDbLine
 10
-196.2817935044109
 20
368.3360087926944
 30
0.0
 11
-181.7681612197826
 21
366.8360285878802
 31
0.0
  0
LINE
  5
2D6
330
1F
100
AcDbEntity
  8
躯体
  6
Continuous
 62
     6
370
     9
100
AcDbLine
 10
-117.7683459748501
 20
381.0566921225084
 30
0.0
 11
-117.7683459748501
 21
369.8359889975084
 31
0.0
  0
LINE
  5
2D7
330
1F
100
AcDbEntity
  8
躯体
  6
Continuous
 62
     6
370
     9
100
AcDbLine
 10
-133.2816351429242
 20
368.3360087926944
 30
0.0
 11
-253.7682502981189
 21
368.3360087926944
 31
0.0
  0
LINE
  5
2D8
330
1F
100
AcDbEntity
  8
躯体
  6
Continuous
 62
     6
370
     9
100
AcDbLine
 10
-120.7681084326205
 20
366.8360285878802
 30
0.0
 11
-181.7681612197826
 21
366.8360285878802
 31
0.0
  0
LINE
  5
2D9
330
1F
100
AcDbEntity
  8
躯体
  6
Continuous
 62
     6
370
     9
100
AcDbLine
 10
-117.7683459748501
 20
409.0312487103462
 30
0.0
 11
-117.7683459748501
 21
393.6155498083193
 31
0.0
  0
LINE
  5
2DA
330
1F
100
AcDbEntity
  8
躯体
  6
Continuous
 62
     6
370
     9
100
AcDbLine
 10
-119.0315757573672
 20
392.3361869493665
 30
0.0
 11
-113.7682338021305
 21
392.3361869493665
 31
0.0
  0
LINE
  5
2DB
330
1F
100
AcDbEntity
  8
躯体
  6
Continuous
 62
     6
370
     9
100
AcDbLine
 10
-119.0604767286509
 20
410.3359494071369
 30
0.0
 11
-113.7682338021305
 21
410.3359494071369
 31
0.0
  0
LINE
  5
2DC
330
1F
100
AcDbEntity
  8
躯体
  6
Continuous
 62
     6
370
     9
100
AcDbLine
 10
-117.7683459748501
 20
421.640980023691
 30
0.0
 11
-117.7683459748501
 21
437.0566789257179
 31
0.0
  0
LINE
  5
2DD
330
1F
100
AcDbEntity
  8
躯体
  6
Continuous
 62
     6
370
     9
100
AcDbLine
 10
-118.5285305979497
 20
466.3361341622045
 30
0.0
 11
-113.7682338021305
 21
466.3361341622045
 31
0.0
  0
LINE
  5
2DE
330
1F
100
AcDbEntity
  8
躯体
  6
Continuous
 62
     6
370
     9
100
AcDbLine
 10
-118.4849811891659
 20
448.3361737525761
 30
0.0
 11
-113.7682338021305
 21
448.3361737525761
 31
0.0
  0
LINE
  5
2DF
330
1F
100
AcDbEntity
  8
躯体
  6
Continuous
 62
     6
370
     9
100
AcDbLine
 10
-118.4849811891659
 20
438.3360417846706
 30
0.0
 11
-113.7682338021305
 21
438.3360417846706
 31
0.0
  0
LINE
  5
2E0
330
1F
100
AcDbEntity
  8
躯体
  6
Continuous
 62
     6
370
     9
100
AcDbLine
 10
-118.5285305979497
 20
420.3359823991132
 30
0.0
 11
-113.7682338021305
 21
420.3359823991132
 31
0.0
  0
LINE
  5
2E1
330
1F
100
AcDbEntity
  8
躯体
  6
Continuous
 62
     6
370
     9
100
AcDbLine
 10
-118.4849811891659
 20
382.3362529333194
 30
0.0
 11
-113.7682338021305
 21
382.3362529333194
 31
0.0
  0
LINE
  5
2E2
330
1F
100
AcDbEntity
  8
仕上
  6
Continuous
 62
     3
370
     9
100
AcDbLine
 10
-252.5149181085072
 20
459.6241805093329
 30
0.0
 11
-237.4998242793264
 21
461.4170304882181
 31
0.0
  0
LINE
  5
2E3
330
1F
100
AcDbEntity
  8
仕上
  6
Continuous
 62
     3
370
     9
100
AcDbLine
 10
-246.2836410550868
 20
402.3359230135558
 30
0.0
 11
-246.2834431032289
 21
397.3360549814614
 31
0.0
  0
LINE
  5
2E4
330
1F
100
AcDbEntity
  8
仕上
  6
Continuous
 62
     3
370
     9
100
AcDbLine
 10
-246.2834431032289
 20
420.3359823991132
 30
0.0
 11
-246.2834431032289
 21
414.3360615798566
 31
0.0
  0
LINE
  5
2E5
330
1F
100
AcDbEntity
  8
仕上
  6
Continuous
 62
     3
370
     9
100
AcDbLine
 10
-195.5114638485834
 20
395.3359494071369
 30
0.0
 11
-244.2836344566919
 21
395.3359494071369
 31
0.0
  0
LINE
  5
2E6
330
1F
100
AcDbEntity
  8
仕上
  6
Continuous
 62
     3
370
     9
100
AcDbLine
 10
-193.511457250188
 20
402.3359230135558
 30
0.0
 11
-193.511457250188
 21
397.3360549814614
 31
0.0
  0
LINE
  5
2E7
330
1F
100
AcDbEntity
  8
仕上
  6
Continuous
 62
     3
370
     9
100
AcDbLine
 10
-195.5114638485834
 20
404.3360285878801
 30
0.0
 11
-244.2836344566919
 21
404.3360285878801
 31
0.0
  0
LINE
  5
2E8
330
1F
100
AcDbEntity
  8
仕上
  6
Continuous
 62
     3
370
     9
100
AcDbLine
 10
-195.5114638485834
 20
412.3360549814612
 30
0.0
 11
-244.2836344566919
 21
412.3360549814612
 31
0.0
  0
LINE
  5
2E9
330
1F
100
AcDbEntity
  8
仕上
  6
Continuous
 62
     3
370
     9
100
AcDbLine
 10
-193.511457250188
 20
420.3359823991132
 30
0.0
 11
-193.511457250188
 21
414.3360615798566
 31
0.0
  0
LINE
  5
2EA
330
1F
100
AcDbEntity
  8
仕上
  6
Continuous
 62
     3
370
     9
100
AcDbLine
 10
-195.5114638485834
 20
422.3360879734375
 30
0.0
 11
-244.2836344566919
 21
422.3360879734375
 31
0.0
  0
LINE
  5
2EB
330
1F
100
AcDbEntity
  8
仕上
  6
Continuous
 62
     3
370
     9
100
AcDbLine
 10
-195.5114638485834
 20
466.3361341622045
 30
0.0
 11
-221.1118848262018
 21
466.3361341622045
 31
0.0
  0
LINE
  5
2EC
330
1F
100
AcDbEntity
  8
仕上
  6
Continuous
 62
     3
370
     9
100
AcDbLine
 10
-185.2051003561847
 20
456.3360021942991
 30
0.0
 11
-185.2053972839718
 21
450.3360813750424
 31
0.0
  0
LINE
  5
2ED
330
1F
100
AcDbEntity
  8
仕上
  6
Continuous
 62
     3
370
     9
100
AcDbLine
 10
-185.2051003561847
 20
432.336120965414
 30
0.0
 11
-185.2051003561847
 21
438.3360417846706
 31
0.0
  0
LINE
  5
2EE
330
1F
100
AcDbEntity
  8
仕上
  6
Continuous
 62
     3
370
     9
100
AcDbLine
 10
-134.2542715977389
 20
430.3360153910895
 30
0.0
 11
-183.2050937577893
 21
430.3360153910895
 31
0.0
  0
LINE
  5
2EF
330
1F
100
AcDbEntity
  8
仕上
  6
Continuous
 62
     3
370
     9
100
AcDbLine
 10
-132.2539680715564
 20
438.3360417846706
 30
0.0
 11
-132.2539680715564
 21
432.336120965414
 31
0.0
  0
LINE
  5
2F0
330
1F
100
AcDbEntity
  8
仕上
  6
Continuous
 62
     3
370
     9
100
AcDbLine
 10
-134.2542715977389
 20
440.3360483830659
 30
0.0
 11
-183.2050937577893
 21
440.3360483830659
 31
0.0
  0
LINE
  5
2F1
330
1F
100
AcDbEntity
  8
仕上
  6
Continuous
 62
     3
370
     9
100
AcDbLine
 10
-134.2542715977389
 20
448.3361737525761
 30
0.0
 11
-183.2050937577893
 21
448.3361737525761
 31
0.0
  0
LINE
  5
2F2
330
1F
100
AcDbEntity
  8
仕上
  6
Continuous
 62
     3
370
     9
100
AcDbLine
 10
-132.2539680715564
 20
456.3360021942991
 30
0.0
 11
-132.2539680715564
 21
450.3360813750424
 31
0.0
  0
LINE
  5
2F3
330
1F
100
AcDbEntity
  8
仕上
  6
Continuous
 62
     3
370
     9
100
AcDbLine
 10
-134.2542715977389
 20
458.3361077686235
 30
0.0
 11
-183.2050937577893
 21
458.3359098167654
 31
0.0
  0
LINE
  5
2F4
330
1F
100
AcDbEntity
  8
仕上
  6
Continuous
 62
     3
370
     9
100
AcDbLine
 10
-134.2542715977389
 20
466.3361341622045
 30
0.0
 11
-183.2050937577893
 21
466.3361341622045
 31
0.0
  0
LINE
  5
2F5
330
1F
100
AcDbEntity
  8
仕上
  6
Continuous
 62
     3
370
     9
100
AcDbLine
 10
-185.2051003561847
 20
414.3360615798566
 30
0.0
 11
-185.2051003561847
 21
420.3359823991132
 31
0.0
  0
LINE
  5
2F6
330
1F
100
AcDbEntity
  8
仕上
  6
Continuous
 62
     3
370
     9
100
AcDbLine
 10
-134.2542715977389
 20
412.3360549814612
 30
0.0
 11
-183.2050937577893
 21
412.3360549814612
 31
0.0
  0
LINE
  5
2F7
330
1F
100
AcDbEntity
  8
仕上
  6
Continuous
 62
     3
370
     9
100
AcDbLine
 10
-132.2542649993434
 20
420.3359823991132
 30
0.0
 11
-132.2539680715564
 21
414.3360615798566
 31
0.0
  0
LINE
  5
2F8
330
1F
100
AcDbEntity
  8
仕上
  6
Continuous
 62
     3
370
     9
100
AcDbLine
 10
-134.2542715977389
 20
422.3360879734375
 30
0.0
 11
-183.2052917096472
 21
422.3360879734375
 31
0.0
  0
LINE
  5
2F9
330
1F
100
AcDbEntity
  8
仕上
  6
Continuous
 62
     3
370
     9
100
AcDbLine
 10
-185.2051003561847
 20
397.3360549814614
 30
0.0
 11
-185.2051003561847
 21
402.3359230135558
 31
0.0
  0
LINE
  5
2FA
330
1F
100
AcDbEntity
  8
仕上
  6
Continuous
 62
     3
370
     9
100
AcDbLine
 10
-134.2540736458805
 20
395.3359494071369
 30
0.0
 11
-183.2052917096472
 21
395.3359494071369
 31
0.0
  0
LINE
  5
2FB
330
1F
100
AcDbEntity
  8
仕上
  6
Continuous
 62
     3
370
     9
100
AcDbLine
 10
-132.2539680715564
 20
402.3359230135558
 30
0.0
 11
-132.2539680715564
 21
397.3360549814614
 31
0.0
  0
LINE
  5
2FC
330
1F
100
AcDbEntity
  8
仕上
  6
Continuous
 62
     3
370
     9
100
AcDbLine
 10
-134.2542715977389
 20
404.3360285878801
 30
0.0
 11
-183.2050937577893
 21
404.3360285878801
 31
0.0
  0
LINE
  5
2FD
330
1F
100
AcDbEntity
  8
仕上
  6
Continuous
 62
     3
370
     9
100
AcDbLine
 10
-246.2834431032289
 20
438.3360417846706
 30
0.0
 11
-246.2834431032289
 21
432.336120965414
 31
0.0
  0
LINE
  5
2FE
330
1F
100
AcDbEntity
  8
仕上
  6
Continuous
 62
     3
370
     9
100
AcDbLine
 10
-195.5114638485834
 20
430.3360153910895
 30
0.0
 11
-244.2836344566919
 21
430.3360153910895
 31
0.0
  0
LINE
  5
2FF
330
1F
100
AcDbEntity
  8
仕上
  6
Continuous
 62
     3
370
     9
100
AcDbLine
 10
-193.511457250188
 20
438.3360417846706
 30
0.0
 11
-193.511457250188
 21
432.336120965414
 31
0.0
  0
LINE
  5
300
330
1F
100
AcDbEntity
  8
仕上
  6
Continuous
 62
     3
370
     9
100
AcDbLine
 10
-195.5114638485834
 20
440.3360483830659
 30
0.0
 11
-244.2836344566919
 21
440.3360483830659
 31
0.0
  0
LINE
  5
301
330
1F
100
AcDbEntity
  8
仕上
  6
Continuous
 62
     3
370
     9
100
AcDbLine
 10
-193.511457250188
 20
456.3360021942991
 30
0.0
 11
-193.511457250188
 21
450.3360813750424
 31
0.0
  0
LINE
  5
302
330
1F
100
AcDbEntity
  8
仕上
  6
Continuous
 62
     3
370
     9
100
AcDbLine
 10
-195.5114638485834
 20
458.3361077686235
 30
0.0
 11
-225.4668257045797
 21
458.3361077686235
 31
0.0
  0
LINE
  5
303
330
1F
100
AcDbEntity
  8
仕上
  6
Continuous
 62
     3
370
     9
100
AcDbLine
 10
-226.8259631623505
 20
448.3362727285051
 30
0.0
 11
-195.5114638485834
 21
448.3361737525761
 31
0.0
  0
LINE
  5
304
330
1F
100
AcDbEntity
  8
仕上
  6
Continuous
 62
     3
370
     9
100
AcDbLine
 10
-133.0537430662776
 20
387.3359230135558
 30
0.0
 11
-131.9926716188534
 21
381.8358306360221
 31
0.0
  0
LINE
  5
305
330
1F
100
AcDbEntity
  8
仕上
  6
Continuous
 62
     3
370
     9
100
AcDbLine
 10
-150.0244033017084
 20
387.3359230135558
 30
0.0
 11
-148.9633813422489
 21
381.8360285878801
 31
0.0
  0
LINE
  5
306
330
1F
100
AcDbEntity
  8
仕上
  6
Continuous
 62
     3
370
     9
100
AcDbLine
 10
-144.7212235350276
 20
381.8360285878801
 30
0.0
 11
-143.6602510635326
 21
387.3359230135558
 31
0.0
  0
LINE
  5
307
330
1F
100
AcDbEntity
  8
仕上
  6
Continuous
 62
     3
370
     9
100
AcDbLine
 10
-143.6602510635326
 20
387.3359230135558
 30
0.0
 11
-133.0537430662776
 21
387.3359230135558
 31
0.0
  0
LINE
  5
308
330
1F
100
AcDbEntity
  8
仕上
  6
Continuous
 62
     3
370
     9
100
AcDbLine
 10
-166.9948160973163
 20
387.3359230135558
 30
0.0
 11
-165.9337941378568
 21
381.8360285878801
 31
0.0
  0
LINE
  5
309
330
1F
100
AcDbEntity
  8
仕上
  6
Continuous
 62
     3
370
     9
100
AcDbLine
 10
-161.6919332584226
 20
381.8360285878801
 30
0.0
 11
-160.6308618109989
 21
387.336120965414
 31
0.0
  0
LINE
  5
30A
330
1F
100
AcDbEntity
  8
仕上
  6
Continuous
 62
     3
370
     9
100
AcDbLine
 10
-160.6308618109989
 20
387.3359230135558
 30
0.0
 11
-150.0244033017084
 21
387.3359230135558
 31
0.0
  0
LINE
  5
30B
330
1F
100
AcDbEntity
  8
仕上
  6
Continuous
 62
     3
370
     9
100
AcDbLine
 10
-148.9633813422489
 20
381.8360285878801
 30
0.0
 11
-144.7212235350276
 21
381.8360285878801
 31
0.0
  0
LINE
  5
30C
330
1F
100
AcDbEntity
  8
仕上
  6
Continuous
 62
     3
370
     9
100
AcDbLine
 10
-131.9926716188534
 20
381.8360285878801
 30
0.0
 11
-123.7688111617168
 21
381.8360285878801
 31
0.0
  0
LINE
  5
30D
330
1F
100
AcDbEntity
  8
仕上
  6
Continuous
 62
     3
370
     9
100
AcDbLine
 10
-183.9654268447826
 20
387.3359230135558
 30
0.0
 11
-182.9044543732876
 21
381.8360285878801
 31
0.0
  0
LINE
  5
30E
330
1F
100
AcDbEntity
  8
仕上
  6
Continuous
 62
     3
370
     9
100
AcDbLine
 10
-178.6622965660663
 20
381.8360285878801
 30
0.0
 11
-177.6012746066068
 21
387.3359230135558
 31
0.0
  0
LINE
  5
30F
330
1F
100
AcDbEntity
  8
仕上
  6
Continuous
 62
     3
370
     9
100
AcDbLine
 10
-177.6012746066068
 20
387.3359230135558
 30
0.0
 11
-166.9948160973163
 21
387.3359230135558
 31
0.0
  0
LINE
  5
310
330
1F
100
AcDbEntity
  8
仕上
  6
Continuous
 62
     3
370
     9
100
AcDbLine
 10
-165.9337941378568
 20
381.8360285878801
 30
0.0
 11
-161.6919332584226
 21
381.8360285878801
 31
0.0
  0
LINE
  5
311
330
1F
100
AcDbEntity
  8
仕上
  6
Continuous
 62
     3
370
     9
100
AcDbLine
 10
-200.936136568178
 20
387.3359230135558
 30
0.0
 11
-199.8751146087184
 21
381.8358306360221
 31
0.0
  0
LINE
  5
312
330
1F
100
AcDbEntity
  8
仕上
  6
Continuous
 62
     3
370
     9
100
AcDbLine
 10
-195.6330062894613
 20
381.8360285878801
 30
0.0
 11
-194.5719348420376
 21
387.3359230135558
 31
0.0
  0
LINE
  5
313
330
1F
100
AcDbEntity
  8
仕上
  6
Continuous
 62
     3
370
     9
100
AcDbLine
 10
-194.5719348420376
 20
387.3359230135558
 30
0.0
 11
-183.9654268447826
 21
387.3359230135558
 31
0.0
  0
LINE
  5
314
330
1F
100
AcDbEntity
  8
仕上
  6
Continuous
 62
     3
370
     9
100
AcDbLine
 10
-182.9044543732876
 20
381.8360285878801
 30
0.0
 11
-178.6622965660663
 21
381.8360285878801
 31
0.0
  0
LINE
  5
315
330
1F
100
AcDbEntity
  8
仕上
  6
Continuous
 62
     3
370
     9
100
AcDbLine
 10
-216.8455274043263
 20
381.8358306360221
 30
0.0
 11
-217.9065493637859
 21
387.3359230135558
 31
0.0
  0
LINE
  5
316
330
1F
100
AcDbEntity
  8
仕上
  6
Continuous
 62
     3
370
     9
100
AcDbLine
 10
-212.603617036928
 20
381.8360285878801
 30
0.0
 11
-211.542644565433
 21
387.3359230135558
 31
0.0
  0
LINE
  5
317
330
1F
100
AcDbEntity
  8
仕上
  6
Continuous
 62
     3
370
     9
100
AcDbLine
 10
-211.542644565433
 20
387.3359230135558
 30
0.0
 11
-200.936136568178
 21
387.3359230135558
 31
0.0
  0
LINE
  5
318
330
1F
100
AcDbEntity
  8
仕上
  6
Continuous
 62
     3
370
     9
100
AcDbLine
 10
-234.8771601112518
 20
387.3359230135558
 30
0.0
 11
-233.8159401999343
 21
381.8360285878801
 31
0.0
  0
LINE
  5
319
330
1F
100
AcDbEntity
  8
仕上
  6
Continuous
 62
     3
370
     9
100
AcDbLine
 10
-229.5740793205006
 20
381.8360285878801
 30
0.0
 11
-228.5130078730764
 21
387.3359230135558
 31
0.0
  0
LINE
  5
31A
330
1F
100
AcDbEntity
  8
仕上
  6
Continuous
 62
     3
370
     9
100
AcDbLine
 10
-228.5130078730764
 20
387.3359230135558
 30
0.0
 11
-217.9065493637859
 21
387.3359230135558
 31
0.0
  0
LINE
  5
31B
330
1F
100
AcDbEntity
  8
仕上
  6
Continuous
 62
     3
370
     9
100
AcDbLine
 10
-233.8159401999343
 20
381.8360285878801
 30
0.0
 11
-229.5740793205006
 21
381.8360285878801
 31
0.0
  0
LINE
  5
31C
330
1F
100
AcDbEntity
  8
仕上
  6
Continuous
 62
     3
370
     9
100
AcDbLine
 10
-245.4837175964718
 20
387.3359230135558
 30
0.0
 11
-246.5447395559314
 21
381.8360285878801
 31
0.0
  0
LINE
  5
31D
330
1F
100
AcDbEntity
  8
仕上
  6
Continuous
 62
     3
370
     9
100
AcDbLine
 10
-245.4837175964718
 20
387.3359230135558
 30
0.0
 11
-234.8771601112518
 21
387.3359230135558
 31
0.0
  0
LINE
  5
31E
330
1F
100
AcDbEntity
  8
仕上
  6
Continuous
 62
     3
370
     9
100
AcDbLine
 10
-135.082502172063
 20
438.3360417846706
 30
0.0
 11
-135.082502172063
 21
432.336120965414
 31
0.0
  0
LINE
  5
31F
330
1F
100
AcDbEntity
  8
仕上
  6
Continuous
 62
     3
370
     9
100
AcDbLine
 10
-135.0822547322405
 20
456.3360021942991
 30
0.0
 11
-135.0822547322405
 21
450.3360813750424
 31
0.0
  0
LINE
  5
320
330
1F
100
AcDbEntity
  8
仕上
  6
Continuous
 62
     3
370
     9
100
AcDbLine
 10
-135.082502172063
 20
420.3359823991132
 30
0.0
 11
-135.082502172063
 21
414.3360615798566
 31
0.0
  0
LINE
  5
321
330
1F
100
AcDbEntity
  8
仕上
  6
Continuous
 62
     3
370
     9
100
AcDbLine
 10
-135.082502172063
 20
402.3359230135558
 30
0.0
 11
-135.0822547322405
 21
397.3360549814614
 31
0.0
  0
LINE
  5
322
330
1F
100
AcDbEntity
  8
仕上
  6
Continuous
 62
     3
370
     9
100
AcDbLine
 10
-196.3396944229076
 20
402.3359230135558
 30
0.0
 11
-196.3396944229076
 21
397.3360549814614
 31
0.0
  0
LINE
  5
323
330
1F
100
AcDbEntity
  8
仕上
  6
Continuous
 62
     3
370
     9
100
AcDbLine
 10
-196.3396944229076
 20
420.3359823991132
 30
0.0
 11
-196.3396944229076
 21
414.3360615798566
 31
0.0
  0
LINE
  5
324
330
1F
100
AcDbEntity
  8
仕上
  6
Continuous
 62
     3
370
     9
100
AcDbLine
 10
-196.3396944229076
 20
438.3360417846706
 30
0.0
 11
-196.3396944229076
 21
432.336120965414
 31
0.0
  0
LINE
  5
325
330
1F
100
AcDbEntity
  8
仕上
  6
Continuous
 62
     3
370
     9
100
AcDbLine
 10
-196.3396944229076
 20
456.3360021942991
 30
0.0
 11
-196.3396944229076
 21
450.3360813750424
 31
0.0
  0
LINE
  5
326
330
1F
100
AcDbEntity
  8
仕上
  6
Continuous
 62
     3
370
     9
100
AcDbLine
 10
-216.8455274043263
 20
381.8360285878801
 30
0.0
 11
-212.603617036928
 21
381.8360285878801
 31
0.0
  0
LINE
  5
327
330
1F
100
AcDbEntity
  8
仕上
  6
Continuous
 62
     3
370
     9
100
AcDbLine
 10
-199.8751146087184
 20
381.8360285878801
 30
0.0
 11
-195.6330062894613
 21
381.8360285878801
 31
0.0
  0
LINE
  5
328
330
1F
100
AcDbEntity
  8
仕上
  6
Continuous
 62
     3
370
     9
100
AcDbLine
 10
-131.9926716188534
 20
381.8358306360221
 30
0.0
 11
-140.1938171002726
 21
380.7076040207349
 31
0.0
  0
LINE
  5
329
330
1F
100
AcDbEntity
  8
仕上
  6
Continuous
 62
     3
370
     9
100
AcDbLine
 10
-182.9044543732876
 20
381.8360285878801
 30
0.0
 11
-241.8787668205006
 21
373.7218829480998
 31
0.0
  0
LINE
  5
32A
330
1F
100
AcDbEntity
  8
仕上
  6
Continuous
 62
     3
370
     9
100
AcDbLine
 10
-178.6622965660663
 20
381.8360285878801
 30
0.0
 11
-233.406179853651
 21
374.3037624350084
 31
0.0
  0
LINE
  5
32B
330
1F
100
AcDbEntity
  8
仕上
  6
Continuous
 62
     3
370
     9
100
AcDbLine
 10
-165.9337941378568
 20
381.8360285878801
 30
0.0
 11
-207.9834206686847
 21
376.0501927031673
 31
0.0
  0
LINE
  5
32C
330
1F
100
AcDbEntity
  8
仕上
  6
Continuous
 62
     3
370
     9
100
AcDbLine
 10
-161.6919332584226
 20
381.8360285878801
 30
0.0
 11
-199.5113780694447
 21
376.6322701419342
 31
0.0
  0
LINE
  5
32D
330
1F
100
AcDbEntity
  8
仕上
  6
Continuous
 62
     3
370
     9
100
AcDbLine
 10
-148.9633813422489
 20
381.8360285878801
 30
0.0
 11
-174.088668372443
 21
378.3788983619511
 31
0.0
  0
LINE
  5
32E
330
1F
100
AcDbEntity
  8
仕上
  6
Continuous
 62
     3
370
     9
100
AcDbLine
 10
-144.7212235350276
 20
381.8360285878801
 30
0.0
 11
-165.6168237250614
 21
378.961173752576
 31
0.0
  0
LINE
  5
32F
330
1F
100
AcDbEntity
  8
仕上
  6
Continuous
 62
     3
370
     9
100
AcDbLine
 10
-133.0537430662776
 20
387.3359230135558
 30
0.0
 11
-143.949508216193
 21
385.8369325680322
 31
0.0
  0
LINE
  5
330
330
1F
100
AcDbEntity
  8
仕上
  6
Continuous
 62
     3
370
     9
100
AcDbLine
 10
-150.0244033017084
 20
387.3359230135558
 30
0.0
 11
-160.9201684516239
 21
385.8369325680322
 31
0.0
  0
LINE
  5
331
330
1F
100
AcDbEntity
  8
仕上
  6
Continuous
 62
     3
370
     9
100
AcDbLine
 10
-166.9948160973163
 20
387.3359230135558
 30
0.0
 11
-177.8905812472318
 21
385.8369325680322
 31
0.0
  0
LINE
  5
332
330
1F
100
AcDbEntity
  8
仕上
  6
Continuous
 62
     3
370
     9
100
AcDbLine
 10
-234.8771601112518
 20
387.3359230135558
 30
0.0
 11
-245.7729747491322
 21
385.8369325680322
 31
0.0
  0
LINE
  5
333
330
1F
100
AcDbEntity
  8
仕上
  6
Continuous
 62
     3
370
     9
100
AcDbLine
 10
-217.9065493637859
 20
387.3359230135558
 30
0.0
 11
-228.8023145137018
 21
385.8369325680322
 31
0.0
  0
LINE
  5
334
330
1F
100
AcDbEntity
  8
仕上
  6
Continuous
 62
     3
370
     9
100
AcDbLine
 10
-200.936136568178
 20
387.3359230135558
 30
0.0
 11
-211.8319017180934
 21
385.8369325680322
 31
0.0
  0
LINE
  5
335
330
1F
100
AcDbEntity
  8
仕上
  6
Continuous
 62
     3
370
     9
100
AcDbLine
 10
-183.9654268447826
 20
387.3359230135558
 30
0.0
 11
-194.8612414826626
 21
385.8369325680322
 31
0.0
  0
LINE
  5
336
330
1F
100
AcDbEntity
  8
仕上
  6
Continuous
 62
     3
370
     9
100
AcDbLine
 10
-175.5126350637439
 20
378.2812091199748
 30
0.0
 11
-175.823468968938
 21
379.8917454375423
 31
0.0
  0
LINE
  5
337
330
1F
100
AcDbEntity
  8
仕上
  6
Continuous
 62
     3
370
     9
100
AcDbLine
 10
-140.6590039668263
 20
380.6756347956504
 30
0.0
 11
-141.7138894186847
 21
386.1445497555322
 31
0.0
  0
LINE
  5
338
330
1F
100
AcDbEntity
  8
仕上
  6
Continuous
 62
     3
370
     9
100
AcDbLine
 10
-140.6590039668263
 20
380.6756347956504
 30
0.0
 11
-123.7688111617168
 21
381.8360285878801
 31
0.0
  0
LINE
  5
339
330
1F
100
AcDbEntity
  8
仕上
  6
Continuous
 62
     3
370
     9
100
AcDbLine
 10
-175.5126350637439
 20
378.2812091199748
 30
0.0
 11
-165.6168237250614
 21
378.961173752576
 31
0.0
  0
LINE
  5
33A
330
1F
100
AcDbEntity
  8
仕上
  6
Continuous
 62
     3
370
     9
100
AcDbLine
 10
-210.366563088448
 20
375.8866844683699
 30
0.0
 11
-210.6646785867588
 21
377.4326884801944
 31
0.0
  0
LINE
  5
33B
330
1F
100
AcDbEntity
  8
仕上
  6
Continuous
 62
     3
370
     9
100
AcDbLine
 10
-210.366563088448
 20
375.8866844683699
 30
0.0
 11
-199.5113780694447
 21
376.6324680937923
 31
0.0
  0
LINE
  5
33C
330
1F
100
AcDbEntity
  8
仕上
  6
Continuous
 62
     3
370
     9
100
AcDbLine
 10
-242.9786368321139
 20
373.6461663623734
 30
0.0
 11
-243.2935782383639
 21
375.2782794324748
 31
0.0
  0
LINE
  5
33D
330
1F
100
AcDbEntity
  8
仕上
  6
Continuous
 62
     3
370
     9
100
AcDbLine
 10
-242.9786368321139
 20
373.6461663623734
 30
0.0
 11
-233.406179853651
 21
374.3037624350084
 31
0.0
  0
LINE
  5
33E
330
1F
100
AcDbEntity
  8
躯体
  6
Continuous
 62
     6
370
     9
100
AcDbLine
 10
-123.7685637218938
 20
467.3359889975087
 30
0.0
 11
-113.7682338021305
 21
467.3359889975087
 31
0.0
  0
LINE
  5
33F
330
1F
100
AcDbEntity
  8
躯体
  6
Continuous
 62
     6
370
     9
100
AcDbLine
 10
-123.7685637218938
 20
467.1750541368665
 30
0.0
 11
-119.0604767286509
 21
466.5166662567991
 31
0.0
  0
LINE
  5
340
330
1F
100
AcDbEntity
  8
躯体
  6
Continuous
 62
     6
370
     9
100
AcDbLine
 10
-123.7685637218938
 20
447.3768990481844
 30
0.0
 11
-119.0315757573672
 21
448.1340649054478
 31
0.0
  0
LINE
  5
341
330
1F
100
AcDbEntity
  8
躯体
  6
Continuous
 62
     6
370
     9
100
AcDbLine
 10
-123.7685637218938
 20
446.3359692023228
 30
0.0
 11
-113.7682338021305
 21
446.3359692023228
 31
0.0
  0
LINE
  5
342
330
1F
100
AcDbEntity
  8
躯体
  6
Continuous
 62
     6
370
     9
100
AcDbLine
 10
-123.7685637218938
 20
440.3360483830659
 30
0.0
 11
-113.7682338021305
 21
440.3360483830659
 31
0.0
  0
LINE
  5
343
330
1F
100
AcDbEntity
  8
躯体
  6
Continuous
 62
     6
370
     9
100
AcDbLine
 10
-123.7685637218938
 20
439.2949205853463
 30
0.0
 11
-119.0315757573672
 21
438.5379526799409
 31
0.0
  0
LINE
  5
344
330
1F
100
AcDbEntity
  8
躯体
  6
Continuous
 62
     6
370
     9
100
AcDbLine
 10
-123.7685637218938
 20
419.4969634485221
 30
0.0
 11
-119.0604767286509
 21
420.1553513285896
 31
0.0
  0
LINE
  5
345
330
1F
100
AcDbEntity
  8
躯体
  6
Continuous
 62
     6
370
     9
100
AcDbLine
 10
-123.7685637218938
 20
419.3360285878801
 30
0.0
 11
-113.7682338021305
 21
419.3360285878801
 31
0.0
  0
LINE
  5
346
330
1F
100
AcDbEntity
  8
躯体
  6
Continuous
 62
     6
370
     9
100
AcDbLine
 10
-123.7685637218938
 20
411.3360021942992
 30
0.0
 11
-113.7682338021305
 21
411.3360021942992
 31
0.0
  0
LINE
  5
347
330
1F
100
AcDbEntity
  8
躯体
  6
Continuous
 62
     6
370
     9
100
AcDbLine
 10
-123.7685637218938
 20
411.1752652855153
 30
0.0
 11
-119.0604767286509
 21
410.5168774054477
 31
0.0
  0
LINE
  5
348
330
1F
100
AcDbEntity
  8
躯体
  6
Continuous
 62
     6
370
     9
100
AcDbLine
 10
-123.7685637218938
 20
391.377209172762
 30
0.0
 11
-119.0315757573672
 21
392.1340781022381
 31
0.0
  0
LINE
  5
349
330
1F
100
AcDbEntity
  8
躯体
  6
Continuous
 62
     6
370
     9
100
AcDbLine
 10
-123.7685637218938
 20
390.3360813750423
 30
0.0
 11
-113.7682338021305
 21
390.3360813750423
 31
0.0
  0
LINE
  5
34A
330
1F
100
AcDbEntity
  8
躯体
  6
Continuous
 62
     6
370
     9
100
AcDbLine
 10
-123.7685637218938
 20
384.3359626039276
 30
0.0
 11
-113.7682338021305
 21
384.3359626039276
 31
0.0
  0
LINE
  5
34B
330
1F
100
AcDbEntity
  8
躯体
  6
Continuous
 62
     6
370
     9
100
AcDbLine
 10
-123.7685637218938
 20
383.2950327580659
 30
0.0
 11
-119.0315757573672
 21
382.5380648526605
 31
0.0
  0
LINE
  5
34C
330
1F
100
AcDbEntity
  8
仕上
  6
Continuous
 62
     3
370
     9
100
AcDbLine
 10
-260.2686923906018
 20
439.7484282922719
 30
0.0
 11
-260.2686923906018
 21
446.9237872449747
 31
0.0
  0
LINE
  5
34D
330
1F
100
AcDbEntity
  8
仕上
  6
Continuous
 62
     3
370
     9
100
AcDbLine
 10
-260.2686923906018
 20
411.7483359147382
 30
0.0
 11
-260.2686923906018
 21
418.9238928192992
 31
0.0
  0
LINE
  5
34E
330
1F
100
AcDbEntity
  8
仕上
  6
Continuous
 62
     3
370
     9
100
AcDbLine
 10
-260.2686923906018
 20
383.7483425131335
 30
0.0
 11
-260.2686923906018
 21
390.9238004417653
 31
0.0
  0
LINE
  5
34F
330
1F
100
AcDbEntity
  8
躯体
  6
Continuous
 62
     6
370
     9
100
AcDbLine
 10
-253.7682502981189
 20
363.7410512863598
 30
0.0
 11
-253.7682502981189
 21
380.601600800718
 31
0.0
  0
LINE
  5
350
330
1F
100
AcDbEntity
  8
仕上
  6
Continuous
 62
     3
370
     9
100
AcDbLine
 10
-195.6330062894613
 20
381.8360285878801
 30
0.0
 11
-253.7682502981189
 21
373.8370909295186
 31
0.0
  0
LINE
  5
351
330
1F
100
AcDbEntity
  8
仕上
  6
Continuous
 62
     3
370
     9
100
AcDbLine
 10
-199.8751146087184
 20
381.8358306360221
 30
0.0
 11
-253.7682502981189
 21
374.4205540312923
 31
0.0
  0
LINE
  5
352
330
1F
100
AcDbEntity
  8
仕上
  6
Continuous
 62
     3
370
     9
100
AcDbLine
 10
-212.603617036928
 20
381.8360285878801
 30
0.0
 11
-253.7682502981189
 21
376.1719330959037
 31
0.0
  0
LINE
  5
353
330
1F
100
AcDbEntity
  8
仕上
  6
Continuous
 62
     3
370
     9
100
AcDbLine
 10
-216.8455274043263
 20
381.8358306360221
 30
0.0
 11
-253.7682502981189
 21
376.7556931254646
 31
0.0
  0
LINE
  5
354
330
1F
100
AcDbEntity
  8
仕上
  6
Continuous
 62
     3
370
     9
100
AcDbLine
 10
-229.5740793205006
 20
381.8360285878801
 30
0.0
 11
-253.7682502981189
 21
378.5070721900761
 31
0.0
  0
LINE
  5
355
330
1F
100
AcDbEntity
  8
仕上
  6
Continuous
 62
     3
370
     9
100
AcDbLine
 10
-233.8159401999343
 20
381.8360285878801
 30
0.0
 11
-253.7682502981189
 21
379.0907332437079
 31
0.0
  0
LINE
  5
356
330
1F
100
AcDbEntity
  8
仕上
  6
Continuous
 62
     3
370
     9
100
AcDbLine
 10
-246.5447395559314
 20
381.8360285878801
 30
0.0
 11
-253.7682502981189
 21
380.8421123083194
 31
0.0
  0
LINE
  5
357
330
1F
100
AcDbEntity
  8
仕上
  6
Continuous
 62
     3
370
     9
100
AcDbLine
 10
-126.7687715713451
 20
368.8358372344173
 30
0.0
 11
-253.7682502981189
 21
368.8361341622045
 31
0.0
  0
LINE
  5
358
330
1F
100
AcDbEntity
  8
仕上
  6
Continuous
 62
     3
370
     9
100
AcDbLine
 10
-254.1948365523418
 20
381.8360285878801
 30
0.0
 11
-246.5447395559314
 21
381.8360285878801
 31
0.0
  0
LINE
  5
359
330
1F
100
AcDbEntity
  8
仕上
  6
Continuous
 62
     3
370
     9
100
AcDbLine
 10
-254.7686495010327
 20
438.3337653383024
 30
0.0
 11
-254.7686495010327
 21
448.338252247086
 31
0.0
  0
LINE
  5
35A
330
1F
100
AcDbEntity
  8
仕上
  6
Continuous
 62
     3
370
     9
100
AcDbLine
 10
-254.7686495010327
 20
382.333679559164
 30
0.0
 11
-254.7686495010327
 21
392.3383644198058
 31
0.0
  0
LINE
  5
35B
330
1F
100
AcDbEntity
  8
仕上
  6
Continuous
 62
     3
370
     9
100
AcDbLine
 10
-254.7686495010327
 20
410.3339698885558
 30
0.0
 11
-254.7686495010327
 21
420.3382588454816
 31
0.0
  0
LINE
  5
35C
330
1F
100
AcDbEntity
  8
仕上
  6
Continuous
 62
     3
370
     9
100
AcDbLine
 10
-255.7685538243014
 20
438.621884267779
 30
0.0
 11
-255.7685538243014
 21
448.050331269468
 31
0.0
  0
LINE
  5
35D
330
1F
100
AcDbEntity
  8
仕上
  6
Continuous
 62
     3
370
     9
100
AcDbLine
 10
-255.7685538243014
 20
410.621791890245
 30
0.0
 11
-255.7685538243014
 21
420.0504368437923
 31
0.0
  0
LINE
  5
35E
330
1F
100
AcDbEntity
  8
仕上
  6
Continuous
 62
     3
370
     9
100
AcDbLine
 10
-255.7685538243014
 20
382.6216995127112
 30
0.0
 11
-255.7685538243014
 21
392.0504434421876
 31
0.0
  0
LINE
  5
35F
330
1F
100
AcDbEntity
  8
061
  6
Continuous
 62
     2
370
     9
100
AcDbLine
 10
-250.1801254300868
 20
470.8570576736067
 30
0.0
 11
-252.1685518447827
 21
470.8570576736067
 31
0.0
  0
LINE
  5
360
330
1F
100
AcDbEntity
  8
061
  6
Continuous
 62
     2
370
     9
100
AcDbLine
 10
-252.1687992846056
 20
465.3360813750424
 30
0.0
 11
-253.9080537979077
 21
465.3360813750424
 31
0.0
  0
ARC
  5
361
330
1F
100
AcDbEntity
  8
躯体
  6
Continuous
 62
     6
370
     9
100
AcDbCircle
 10
-120.7681084326205
 20
369.8359889975084
 30
0.0
 40
3.000000038662472
100
AcDbArc
 50
270.0
 51
0.0
  0
ARC
  5
362
330
1F
100
AcDbEntity
  8
躯体
  6
Continuous
 62
     6
370
     9
100
AcDbCircle
 10
-119.7682041093518
 20
368.8361341622045
 30
0.0
 40
6.000000077324945
100
AcDbArc
 50
270.0
 51
0.0
  0
ARC
  5
363
330
1F
100
AcDbEntity
  8
躯体
  6
Continuous
 62
     6
370
     9
100
AcDbCircle
 10
-119.2681282278064
 20
381.0566921225084
 30
0.0
 40
1.500000019331236
100
AcDbArc
 50
0.0
 51
80.91943359375001
  0
ARC
  5
364
330
1F
100
AcDbEntity
  8
躯体
  6
Continuous
 62
     6
370
     9
100
AcDbCircle
 10
-119.2681282278064
 20
449.6155366115291
 30
0.0
 40
1.500000019331236
100
AcDbArc
 50
279.08056640625
 51
0.0000000000000127
  0
ARC
  5
365
330
1F
100
AcDbEntity
  8
躯体
  6
Continuous
 62
     6
370
     9
100
AcDbCircle
 10
-119.2681282278064
 20
465.0310375616978
 30
0.0
 40
1.500000019331236
100
AcDbArc
 50
0.0
 51
82.03892517089844
  0
ARC
  5
366
330
1F
100
AcDbEntity
  8
躯体
  6
Continuous
 62
     6
370
     9
100
AcDbCircle
 10
-121.2681348262013
 20
368.8361341622045
 30
0.0
 40
7.499999226750555
100
AcDbArc
 50
270.0
 51
0.0
  0
ARC
  5
367
330
1F
100
AcDbEntity
  8
躯体
  6
Continuous
 62
     6
370
     9
100
AcDbCircle
 10
-255.7682568965139
 20
450.0706279333193
 30
0.0
 40
2.000000025774982
100
AcDbArc
 50
278.1300048828125
 51
0.0
  0
ARC
  5
368
330
1F
100
AcDbEntity
  8
躯体
  6
Continuous
 62
     6
370
     9
100
AcDbCircle
 10
-255.7682568965139
 20
464.6014820296032
 30
0.0
 40
2.000000025774982
100
AcDbArc
 50
0.0
 51
81.8699951171875
  0
ARC
  5
369
330
1F
100
AcDbEntity
  8
躯体
  6
Continuous
 62
     6
370
     9
100
AcDbCircle
 10
-258.7682667941068
 20
469.0706411301098
 30
0.0
 40
2.000000025774982
100
AcDbArc
 50
180.0
 51
261.8699951171875
  0
ARC
  5
36A
330
1F
100
AcDbEntity
  8
躯体
  6
Continuous
 62
     6
370
     9
100
AcDbCircle
 10
-258.7682667941068
 20
445.6016667846707
 30
0.0
 40
2.000000025774982
100
AcDbArc
 50
98.1300048828125
 51
180.0
  0
ARC
  5
36B
330
1F
100
AcDbEntity
  8
躯体
  6
Continuous
 62
     6
370
     9
100
AcDbCircle
 10
-255.7682568965139
 20
422.0708324835727
 30
0.0
 40
2.000000025774982
100
AcDbArc
 50
278.1300048828125
 51
0.0
  0
ARC
  5
36C
330
1F
100
AcDbEntity
  8
躯体
  6
Continuous
 62
     6
370
     9
100
AcDbCircle
 10
-255.7682568965139
 20
436.6014886279985
 30
0.0
 40
2.000000025774982
100
AcDbArc
 50
0.0
 51
81.8699951171875
  0
ARC
  5
36D
330
1F
100
AcDbEntity
  8
躯体
  6
Continuous
 62
     6
370
     9
100
AcDbCircle
 10
-258.7682667941068
 20
441.0707467044343
 30
0.0
 40
2.000000025774982
100
AcDbArc
 50
180.0
 51
261.8699951171875
  0
ARC
  5
36E
330
1F
100
AcDbEntity
  8
躯体
  6
Continuous
 62
     6
370
     9
100
AcDbCircle
 10
-258.7682667941068
 20
417.601574407137
 30
0.0
 40
2.000000025774982
100
AcDbArc
 50
98.1300048828125
 51
180.0
  0
ARC
  5
36F
330
1F
100
AcDbEntity
  8
躯体
  6
Continuous
 62
     6
370
     9
100
AcDbCircle
 10
-255.7682568965139
 20
394.0708390819679
 30
0.0
 40
2.000000025774982
100
AcDbArc
 50
278.1300048828125
 51
0.0
  0
ARC
  5
370
330
1F
100
AcDbEntity
  8
躯体
  6
Continuous
 62
     6
370
     9
100
AcDbCircle
 10
-255.7682568965139
 20
408.6014952263936
 30
0.0
 40
2.000000025774982
100
AcDbArc
 50
0.0
 51
81.8699951171875
  0
ARC
  5
371
330
1F
100
AcDbEntity
  8
躯体
  6
Continuous
 62
     6
370
     9
100
AcDbCircle
 10
-258.7682667941068
 20
413.0706543269005
 30
0.0
 40
2.000000025774982
100
AcDbArc
 50
180.0
 51
261.8699951171875
  0
ARC
  5
372
330
1F
100
AcDbEntity
  8
躯体
  6
Continuous
 62
     6
370
     9
100
AcDbCircle
 10
-258.7682667941068
 20
389.6014820296031
 30
0.0
 40
2.000000025774982
100
AcDbArc
 50
98.1300048828125
 51
180.0
  0
ARC
  5
373
330
1F
100
AcDbEntity
  8
躯体
  6
Continuous
 62
     6
370
     9
100
AcDbCircle
 10
-255.7682568965139
 20
380.601600800718
 30
0.0
 40
2.000000025774982
100
AcDbArc
 50
0.0
 51
81.8699951171875
  0
ARC
  5
374
330
1F
100
AcDbEntity
  8
躯体
  6
Continuous
 62
     6
370
     9
100
AcDbCircle
 10
-258.7682667941068
 20
385.0706609252957
 30
0.0
 40
2.000000025774982
100
AcDbArc
 50
180.0
 51
261.8699951171875
  0
ARC
  5
375
330
1F
100
AcDbEntity
  8
躯体
  6
Continuous
 62
     6
370
     9
100
AcDbCircle
 10
-254.7681546213877
 20
363.7410512863598
 30
0.0
 40
1.000000012887491
100
AcDbArc
 50
275.7107391357422
 51
0.0000000000000254
  0
ARC
  5
376
330
1F
100
AcDbEntity
  8
躯体
  6
Continuous
 62
     6
370
     9
100
AcDbCircle
 10
-119.2681282278064
 20
393.6155498083193
 30
0.0
 40
1.500000019331236
100
AcDbArc
 50
279.08056640625
 51
0.0000000000000127
  0
ARC
  5
377
330
1F
100
AcDbEntity
  8
躯体
  6
Continuous
 62
     6
370
     9
100
AcDbCircle
 10
-119.2681282278064
 20
409.0312487103462
 30
0.0
 40
1.500000019331236
100
AcDbArc
 50
0.0
 51
82.03892517089844
  0
ARC
  5
378
330
1F
100
AcDbEntity
  8
躯体
  6
Continuous
 62
     6
370
     9
100
AcDbCircle
 10
-119.2681282278064
 20
421.640980023691
 30
0.0
 40
1.500000019331236
100
AcDbArc
 50
277.9610748291016
 51
0.0000000000000254
  0
ARC
  5
379
330
1F
100
AcDbEntity
  8
躯体
  6
Continuous
 62
     6
370
     9
100
AcDbCircle
 10
-119.2681282278064
 20
437.0566789257179
 30
0.0
 40
1.500000019331236
100
AcDbArc
 50
0.0
 51
80.91943359375001
  0
ARC
  5
37A
330
1F
100
AcDbEntity
  8
仕上
  6
Continuous
 62
     3
370
     9
100
AcDbCircle
 10
-244.2836344566919
 20
397.3360549814614
 30
0.0
 40
2.000000025774982
100
AcDbArc
 50
180.0
 51
270.0
  0
ARC
  5
37B
330
1F
100
AcDbEntity
  8
仕上
  6
Continuous
 62
     3
370
     9
100
AcDbCircle
 10
-244.2836344566919
 20
402.3359230135558
 30
0.0
 40
2.000000025774982
100
AcDbArc
 50
90.0
 51
180.0
  0
ARC
  5
37C
330
1F
100
AcDbEntity
  8
仕上
  6
Continuous
 62
     3
370
     9
100
AcDbCircle
 10
-244.2836344566919
 20
414.3360615798566
 30
0.0
 40
2.000000025774982
100
AcDbArc
 50
180.0
 51
270.0
  0
ARC
  5
37D
330
1F
100
AcDbEntity
  8
仕上
  6
Continuous
 62
     3
370
     9
100
AcDbCircle
 10
-244.2836344566919
 20
420.3359823991132
 30
0.0
 40
2.000000025774982
100
AcDbArc
 50
90.0
 51
180.0
  0
ARC
  5
37E
330
1F
100
AcDbEntity
  8
仕上
  6
Continuous
 62
     3
370
     9
100
AcDbCircle
 10
-195.5114638485834
 20
397.3360549814614
 30
0.0
 40
2.000000025774982
100
AcDbArc
 50
270.0
 51
0.0
  0
ARC
  5
37F
330
1F
100
AcDbEntity
  8
仕上
  6
Continuous
 62
     3
370
     9
100
AcDbCircle
 10
-195.5114638485834
 20
402.3359230135558
 30
0.0
 40
2.000000025774982
100
AcDbArc
 50
0.0
 51
90.0
  0
ARC
  5
380
330
1F
100
AcDbEntity
  8
仕上
  6
Continuous
 62
     3
370
     9
100
AcDbCircle
 10
-195.5114638485834
 20
414.3360615798566
 30
0.0
 40
2.000000025774982
100
AcDbArc
 50
270.0
 51
0.0
  0
ARC
  5
381
330
1F
100
AcDbEntity
  8
仕上
  6
Continuous
 62
     3
370
     9
100
AcDbCircle
 10
-195.5114638485834
 20
420.3359823991132
 30
0.0
 40
2.000000025774982
100
AcDbArc
 50
0.0
 51
90.0
  0
ARC
  5
382
330
1F
100
AcDbEntity
  8
仕上
  6
Continuous
 62
     3
370
     9
100
AcDbCircle
 10
-221.1118848262018
 20
468.3360417846708
 30
0.0
 40
2.000000025774982
100
AcDbArc
 50
180.0
 51
270.0
  0
ARC
  5
383
330
1F
100
AcDbEntity
  8
仕上
  6
Continuous
 62
     3
370
     9
100
AcDbCircle
 10
-195.5114638485834
 20
468.3360417846708
 30
0.0
 40
2.000000025774982
100
AcDbArc
 50
270.0
 51
0.0
  0
ARC
  5
384
330
1F
100
AcDbEntity
  8
仕上
  6
Continuous
 62
     3
370
     9
100
AcDbCircle
 10
-183.2050937577893
 20
468.3360417846708
 30
0.0
 40
2.000000025774982
100
AcDbArc
 50
180.0
 51
270.0
  0
ARC
  5
385
330
1F
100
AcDbEntity
  8
仕上
  6
Continuous
 62
     3
370
     9
100
AcDbCircle
 10
-183.2050937577893
 20
450.3360813750424
 30
0.0
 40
2.000000025774982
100
AcDbArc
 50
180.0
 51
270.0
  0
ARC
  5
386
330
1F
100
AcDbEntity
  8
仕上
  6
Continuous
 62
     3
370
     9
100
AcDbCircle
 10
-183.2050937577893
 20
456.3360021942991
 30
0.0
 40
2.000000025774982
100
AcDbArc
 50
90.0
 51
180.0
  0
ARC
  5
387
330
1F
100
AcDbEntity
  8
仕上
  6
Continuous
 62
     3
370
     9
100
AcDbCircle
 10
-183.2050937577893
 20
438.3360417846706
 30
0.0
 40
2.000000025774982
100
AcDbArc
 50
90.0
 51
180.0
  0
ARC
  5
388
330
1F
100
AcDbEntity
  8
仕上
  6
Continuous
 62
     3
370
     9
100
AcDbCircle
 10
-183.2050937577893
 20
432.336120965414
 30
0.0
 40
2.000000025774982
100
AcDbArc
 50
180.0
 51
270.0
  0
ARC
  5
389
330
1F
100
AcDbEntity
  8
仕上
  6
Continuous
 62
     3
370
     9
100
AcDbCircle
 10
-134.2542715977389
 20
432.336120965414
 30
0.0
 40
2.000000025774982
100
AcDbArc
 50
270.0
 51
0.0
  0
ARC
  5
38A
330
1F
100
AcDbEntity
  8
仕上
  6
Continuous
 62
     3
370
     9
100
AcDbCircle
 10
-134.2542715977389
 20
438.3360417846706
 30
0.0
 40
2.000000025774982
100
AcDbArc
 50
0.0
 51
90.0
  0
ARC
  5
38B
330
1F
100
AcDbEntity
  8
仕上
  6
Continuous
 62
     3
370
     9
100
AcDbCircle
 10
-134.2542715977389
 20
450.3360813750424
 30
0.0
 40
2.000000025774982
100
AcDbArc
 50
270.0
 51
0.0
  0
ARC
  5
38C
330
1F
100
AcDbEntity
  8
仕上
  6
Continuous
 62
     3
370
     9
100
AcDbCircle
 10
-134.2542715977389
 20
456.3360021942991
 30
0.0
 40
2.000000025774982
100
AcDbArc
 50
0.0
 51
90.0
  0
ARC
  5
38D
330
1F
100
AcDbEntity
  8
仕上
  6
Continuous
 62
     3
370
     9
100
AcDbCircle
 10
-134.2542715977389
 20
468.3358438328127
 30
0.0
 40
2.000000025774982
100
AcDbArc
 50
270.0
 51
0.0
  0
ARC
  5
38E
330
1F
100
AcDbEntity
  8
仕上
  6
Continuous
 62
     3
370
     9
100
AcDbCircle
 10
-183.2050937577893
 20
420.3359823991132
 30
0.0
 40
2.000000025774982
100
AcDbArc
 50
90.0
 51
180.0
  0
ARC
  5
38F
330
1F
100
AcDbEntity
  8
仕上
  6
Continuous
 62
     3
370
     9
100
AcDbCircle
 10
-183.2050937577893
 20
414.3360615798566
 30
0.0
 40
2.000000025774982
100
AcDbArc
 50
180.0
 51
270.0
  0
ARC
  5
390
330
1F
100
AcDbEntity
  8
仕上
  6
Continuous
 62
     3
370
     9
100
AcDbCircle
 10
-134.2542715977389
 20
414.3360615798566
 30
0.0
 40
2.000000025774982
100
AcDbArc
 50
270.0
 51
0.0
  0
ARC
  5
391
330
1F
100
AcDbEntity
  8
仕上
  6
Continuous
 62
     3
370
     9
100
AcDbCircle
 10
-134.2542715977389
 20
420.3359823991132
 30
0.0
 40
2.000000025774982
100
AcDbArc
 50
0.0
 51
90.0
  0
ARC
  5
392
330
1F
100
AcDbEntity
  8
仕上
  6
Continuous
 62
     3
370
     9
100
AcDbCircle
 10
-183.2050937577893
 20
402.3359230135558
 30
0.0
 40
2.000000025774982
100
AcDbArc
 50
90.0
 51
180.0
  0
ARC
  5
393
330
1F
100
AcDbEntity
  8
仕上
  6
Continuous
 62
     3
370
     9
100
AcDbCircle
 10
-183.2050937577893
 20
397.3362529333195
 30
0.0
 40
2.000000025774982
100
AcDbArc
 50
180.0
 51
270.0
  0
ARC
  5
394
330
1F
100
AcDbEntity
  8
仕上
  6
Continuous
 62
     3
370
     9
100
AcDbCircle
 10
-134.2542715977389
 20
397.3360549814614
 30
0.0
 40
2.000000025774982
100
AcDbArc
 50
270.0
 51
0.0
  0
ARC
  5
395
330
1F
100
AcDbEntity
  8
仕上
  6
Continuous
 62
     3
370
     9
100
AcDbCircle
 10
-134.2542715977389
 20
402.3359230135558
 30
0.0
 40
2.000000025774982
100
AcDbArc
 50
0.0
 51
90.0
  0
ARC
  5
396
330
1F
100
AcDbEntity
  8
仕上
  6
Continuous
 62
     3
370
     9
100
AcDbCircle
 10
-244.2836344566919
 20
432.336120965414
 30
0.0
 40
2.000000025774982
100
AcDbArc
 50
180.0
 51
270.0
  0
ARC
  5
397
330
1F
100
AcDbEntity
  8
仕上
  6
Continuous
 62
     3
370
     9
100
AcDbCircle
 10
-244.2836344566919
 20
438.3360417846706
 30
0.0
 40
2.000000025774982
100
AcDbArc
 50
90.0
 51
180.0
  0
ARC
  5
398
330
1F
100
AcDbEntity
  8
仕上
  6
Continuous
 62
     3
370
     9
100
AcDbCircle
 10
-195.5114638485834
 20
432.336120965414
 30
0.0
 40
2.000000025774982
100
AcDbArc
 50
270.0
 51
0.0
  0
ARC
  5
399
330
1F
100
AcDbEntity
  8
仕上
  6
Continuous
 62
     3
370
     9
100
AcDbCircle
 10
-195.5114638485834
 20
438.3360417846706
 30
0.0
 40
2.000000025774982
100
AcDbArc
 50
0.0
 51
90.0
  0
ARC
  5
39A
330
1F
100
AcDbEntity
  8
仕上
  6
Continuous
 62
     3
370
     9
100
AcDbCircle
 10
-126.7687715713451
 20
371.8360945718329
 30
0.0
 40
3.000000038662472
100
AcDbArc
 50
270.0
 51
0.0
  0
ARC
  5
39B
330
1F
100
AcDbEntity
  8
仕上
  6
Continuous
 62
     3
370
     9
100
AcDbCircle
 10
-195.5114638485834
 20
450.3360813750424
 30
0.0
 40
2.000000025774982
100
AcDbArc
 50
270.0
 51
0.0
  0
ARC
  5
39C
330
1F
100
AcDbEntity
  8
仕上
  6
Continuous
 62
     3
370
     9
100
AcDbCircle
 10
-195.5114638485834
 20
456.3360021942991
 30
0.0
 40
2.000000025774982
100
AcDbArc
 50
0.0
 51
90.0
  0
ARC
  5
39D
330
1F
100
AcDbEntity
  8
仕上
  6
Continuous
 62
     3
370
     9
100
AcDbCircle
 10
-226.8259631623505
 20
452.3361869493667
 30
0.0
 40
4.000000051549963
100
AcDbArc
 50
120.2738494873047
 51
270.0
  0
ARC
  5
39E
330
1F
100
AcDbEntity
  8
仕上
  6
Continuous
 62
     3
370
     9
100
AcDbCircle
 10
-237.9167108925022
 20
471.3360021942991
 30
0.0
 40
18.00000061859956
100
AcDbArc
 50
300.2734069824219
 51
313.761474609375
  0
ARC
  5
39F
330
1F
100
AcDbEntity
  8
仕上
  6
Continuous
 62
     3
370
     9
100
AcDbCircle
 10
-137.0825582584226
 20
432.336120965414
 30
0.0
 40
2.000000025774982
100
AcDbArc
 50
270.0
 51
0.0
  0
ARC
  5
3A0
330
1F
100
AcDbEntity
  8
仕上
  6
Continuous
 62
     3
370
     9
100
AcDbCircle
 10
-137.0823108186001
 20
438.3360417846706
 30
0.0
 40
2.000000025774982
100
AcDbArc
 50
0.0
 51
90.0
  0
ARC
  5
3A1
330
1F
100
AcDbEntity
  8
仕上
  6
Continuous
 62
     3
370
     9
100
AcDbCircle
 10
-137.0825582584226
 20
450.3360813750424
 30
0.0
 40
2.000000025774982
100
AcDbArc
 50
270.0
 51
0.0
  0
ARC
  5
3A2
330
1F
100
AcDbEntity
  8
仕上
  6
Continuous
 62
     3
370
     9
100
AcDbCircle
 10
-137.0823108186001
 20
456.3360021942991
 30
0.0
 40
2.000000025774982
100
AcDbArc
 50
0.0
 51
90.0
  0
ARC
  5
3A3
330
1F
100
AcDbEntity
  8
仕上
  6
Continuous
 62
     3
370
     9
100
AcDbCircle
 10
-137.0825582584226
 20
468.3358438328127
 30
0.0
 40
2.000000025774982
100
AcDbArc
 50
270.0
 51
0.0
  0
ARC
  5
3A4
330
1F
100
AcDbEntity
  8
仕上
  6
Continuous
 62
     3
370
     9
100
AcDbCircle
 10
-137.0825582584226
 20
414.3360615798566
 30
0.0
 40
2.000000025774982
100
AcDbArc
 50
270.0
 51
0.0
  0
ARC
  5
3A5
330
1F
100
AcDbEntity
  8
仕上
  6
Continuous
 62
     3
370
     9
100
AcDbCircle
 10
-137.0823108186001
 20
420.3359823991132
 30
0.0
 40
2.000000025774982
100
AcDbArc
 50
0.0
 51
90.0
  0
ARC
  5
3A6
330
1F
100
AcDbEntity
  8
仕上
  6
Continuous
 62
     3
370
     9
100
AcDbCircle
 10
-137.0823108186001
 20
397.3360549814614
 30
0.0
 40
2.000000025774982
100
AcDbArc
 50
270.0
 51
0.0
  0
ARC
  5
3A7
330
1F
100
AcDbEntity
  8
仕上
  6
Continuous
 62
     3
370
     9
100
AcDbCircle
 10
-137.0823108186001
 20
402.3359230135558
 30
0.0
 40
2.000000025774982
100
AcDbArc
 50
0.0
 51
90.0
  0
ARC
  5
3A8
330
1F
100
AcDbEntity
  8
仕上
  6
Continuous
 62
     3
370
     9
100
AcDbCircle
 10
-198.339701021303
 20
397.3360549814614
 30
0.0
 40
2.000000025774982
100
AcDbArc
 50
270.0
 51
0.0
  0
ARC
  5
3A9
330
1F
100
AcDbEntity
  8
仕上
  6
Continuous
 62
     3
370
     9
100
AcDbCircle
 10
-198.339701021303
 20
402.3359230135558
 30
0.0
 40
2.000000025774982
100
AcDbArc
 50
0.0
 51
90.0
  0
ARC
  5
3AA
330
1F
100
AcDbEntity
  8
仕上
  6
Continuous
 62
     3
370
     9
100
AcDbCircle
 10
-198.339701021303
 20
414.3360615798566
 30
0.0
 40
2.000000025774982
100
AcDbArc
 50
270.0
 51
0.0
  0
ARC
  5
3AB
330
1F
100
AcDbEntity
  8
仕上
  6
Continuous
 62
     3
370
     9
100
AcDbCircle
 10
-198.339701021303
 20
420.3359823991132
 30
0.0
 40
2.000000025774982
100
AcDbArc
 50
0.0
 51
90.0
  0
ARC
  5
3AC
330
1F
100
AcDbEntity
  8
仕上
  6
Continuous
 62
     3
370
     9
100
AcDbCircle
 10
-198.339701021303
 20
468.3360417846708
 30
0.0
 40
2.000000025774982
100
AcDbArc
 50
270.0
 51
0.0
  0
ARC
  5
3AD
330
1F
100
AcDbEntity
  8
仕上
  6
Continuous
 62
     3
370
     9
100
AcDbCircle
 10
-198.339701021303
 20
432.336120965414
 30
0.0
 40
2.000000025774982
100
AcDbArc
 50
270.0
 51
0.0
  0
ARC
  5
3AE
330
1F
100
AcDbEntity
  8
仕上
  6
Continuous
 62
     3
370
     9
100
AcDbCircle
 10
-198.339701021303
 20
438.3360417846706
 30
0.0
 40
2.000000025774982
100
AcDbArc
 50
0.0
 51
90.0
  0
ARC
  5
3AF
330
1F
100
AcDbEntity
  8
仕上
  6
Continuous
 62
     3
370
     9
100
AcDbCircle
 10
-198.339701021303
 20
450.3360813750424
 30
0.0
 40
2.000000025774982
100
AcDbArc
 50
270.0
 51
0.0
  0
ARC
  5
3B0
330
1F
100
AcDbEntity
  8
仕上
  6
Continuous
 62
     3
370
     9
100
AcDbCircle
 10
-198.339701021303
 20
456.3360021942991
 30
0.0
 40
2.000000025774982
100
AcDbArc
 50
0.0
 51
90.0
  0
ARC
  5
3B1
330
1F
100
AcDbEntity
  8
躯体
  6
Continuous
 62
     6
370
     9
100
AcDbCircle
 10
-133.2816351429242
 20
371.3359692023226
 30
0.0
 40
3.000000038662472
100
AcDbArc
 50
270.0
 51
303.5543823242188
  0
ARC
  5
3B2
330
1F
100
AcDbEntity
  8
仕上
  6
Continuous
 62
     3
370
     9
100
AcDbCircle
 10
-252.7688408544956
 20
461.6082519831504
 30
0.0
 40
2.000000025774982
100
AcDbArc
 50
240.0177917480469
 51
277.2884826660156
  0
ARC
  5
3B3
330
1F
100
AcDbEntity
  8
061
  6
Continuous
 62
     2
370
     9
100
AcDbCircle
 10
-260.1687267022572
 20
471.3360021942991
 30
0.0
 40
10.00000051549963
100
AcDbArc
 50
323.130126953125
 51
357.2540893554688
  0
LINE
  5
3B4
330
1F
100
AcDbEntity
  8
通り芯
  6
JWW_CENTER1
 62
     4
370
     9
100
AcDbLine
 10
-283.1323856285054
 20
320.3360021942991
 30
0.0
 11
-322.3020604688633
 21
320.3360021942991
 31
0.0
  0
LINE
  5
3B5
330
1F
100
AcDbEntity
  8
躯体
  6
Continuous
 62
     6
370
     9
100
AcDbLine
 10
-268.7680523462606
 20
471.3360021942991
 30
0.0
 11
-268.7680523462606
 21
361.3359362103462
 31
0.0
  0
LINE
  5
3B6
330
1F
100
AcDbEntity
  8
躯体
  6
Continuous
 62
     6
370
     9
100
AcDbLine
 10
-260.7683228804668
 20
471.3360021942991
 30
0.0
 11
-260.7683228804668
 21
469.0706411301098
 31
0.0
  0
LINE
  5
3B7
330
1F
100
AcDbEntity
  8
仕上
  6
Continuous
 62
     3
370
     9
100
AcDbLine
 10
-260.2686923906018
 20
471.3360021942991
 30
0.0
 11
-260.2686923906018
 21
467.7485206698059
 31
0.0
  0
LINE
  5
3B8
330
1F
100
AcDbEntity
  8
仕上
  6
Continuous
 62
     3
370
     9
100
AcDbLine
 10
-255.7685538243014
 20
466.6218776693837
 30
0.0
 11
-255.7685538243014
 21
471.3360021942991
 31
0.0
  0
LINE
  5
3B9
330
1F
100
AcDbEntity
  8
仕上
  6
Continuous
 62
     3
370
     9
100
AcDbLine
 10
-254.7686495010327
 20
466.3339566917654
 30
0.0
 11
-254.7686495010327
 21
471.3360021942991
 31
0.0
  0
LINE
  5
3BA
330
1F
100
AcDbEntity
  8
061
  6
Continuous
 62
     2
370
     9
100
AcDbLine
 10
-252.1685518447827
 20
470.8570576736067
 30
0.0
 11
-252.1685518447827
 21
471.3360021942991
 31
0.0
  0
ARC
  5
3BB
330
1F
100
AcDbEntity
  8
仕上
  6
Continuous
 62
     3
370
     9
100
AcDbCircle
 10
-238.7686956897993
 20
471.3360021942991
 30
0.0
 40
10.00000051549963
100
AcDbArc
 50
277.2887420654297
 51
0.0
  0
LINE
  5
3BC
330
1F
100
AcDbEntity
  8
仕上
  6
Continuous
 62
     3
370
     9
100
AcDbLine
 10
-223.1119409125614
 20
468.3360417846708
 30
0.0
 11
-223.1119409125614
 21
471.3360021942991
 31
0.0
  0
LINE
  5
3BD
330
1F
100
AcDbEntity
  8
仕上
  6
Continuous
 62
     3
370
     9
100
AcDbLine
 10
-196.3396944229076
 20
468.3360417846708
 30
0.0
 11
-196.3396944229076
 21
471.3360021942991
 31
0.0
  0
LINE
  5
3BE
330
1F
100
AcDbEntity
  8
仕上
  6
Continuous
 62
     3
370
     9
100
AcDbLine
 10
-193.511457250188
 20
468.3360417846708
 30
0.0
 11
-193.511457250188
 21
471.3360021942991
 31
0.0
  0
LINE
  5
3BF
330
1F
100
AcDbEntity
  8
仕上
  6
Continuous
 62
     3
370
     9
100
AcDbLine
 10
-185.2051003561847
 20
468.3358438328127
 30
0.0
 11
-185.2051003561847
 21
471.3360021942991
 31
0.0
  0
LINE
  5
3C0
330
1F
100
AcDbEntity
  8
仕上
  6
Continuous
 62
     3
370
     9
100
AcDbLine
 10
-135.082502172063
 20
468.3360417846708
 30
0.0
 11
-135.082502172063
 21
471.3360021942991
 31
0.0
  0
LINE
  5
3C1
330
1F
100
AcDbEntity
  8
仕上
  6
Continuous
 62
     3
370
     9
100
AcDbLine
 10
-132.2539680715564
 20
468.3360417846708
 30
0.0
 11
-132.2539680715564
 21
471.3360021942991
 31
0.0
  0
LINE
  5
3C2
330
1F
100
AcDbEntity
  8
仕上
  6
Continuous
 62
     3
370
     9
100
AcDbLine
 10
-123.7688111617168
 20
371.8360945718329
 30
0.0
 11
-123.7685567829081
 21
471.3360021942991
 31
0.0
  0
LINE
  5
3C3
330
1F
100
AcDbEntity
  8
躯体
  6
Continuous
 62
     6
370
     9
100
AcDbLine
 10
-113.7682338021305
 20
471.3360021942991
 30
0.0
 11
-113.7682338021305
 21
368.8361341622045
 31
0.0
  0
LINE
  5
3C4
330
1F
100
AcDbEntity
  8
躯体
  6
Continuous
 62
     6
370
     9
100
AcDbLine
 10
-117.7683459748501
 20
477.6409668269003
 30
0.0
 11
-117.7683459748501
 21
493.0564677770689
 31
0.0
  0
LINE
  5
3C5
330
1F
100
AcDbEntity
  8
躯体
  6
Continuous
 62
     6
370
     9
100
AcDbLine
 10
-196.2817935044109
 20
581.3360681782518
 30
0.0
 11
-181.7681612197826
 21
579.8360879734377
 31
0.0
  0
LINE
  5
3C6
330
1F
100
AcDbEntity
  8
躯体
  6
Continuous
 62
     6
370
     9
100
AcDbLine
 10
-119.7682041093518
 20
579.8360879734377
 30
0.0
 11
-181.7681612197826
 21
579.8360879734377
 31
0.0
  0
LINE
  5
3C7
330
1F
100
AcDbEntity
  8
躯体
  6
Continuous
 62
     6
370
     9
100
AcDbLine
 10
-196.2817935044109
 20
575.8359758007178
 30
0.0
 11
-253.7682502981189
 21
575.8359758007178
 31
0.0
  0
LINE
  5
3C8
330
1F
100
AcDbEntity
  8
躯体
  6
Continuous
 62
     6
370
     9
100
AcDbLine
 10
-253.7682502981189
 20
478.0705223589949
 30
0.0
 11
-253.7682502981189
 21
492.6013764552787
 31
0.0
  0
LINE
  5
3C9
330
1F
100
AcDbEntity
  8
躯体
  6
Continuous
 62
     6
370
     9
100
AcDbLine
 10
-259.0510905113789
 20
475.5812777432855
 30
0.0
 11
-255.4854331792422
 21
476.0908058260556
 31
0.0
  0
LINE
  5
3CA
330
1F
100
AcDbEntity
  8
躯体
  6
Continuous
 62
     6
370
     9
100
AcDbLine
 10
-259.0510905113789
 20
495.0906210709881
 30
0.0
 11
-255.4854331792422
 21
494.5811919641467
 31
0.0
  0
LINE
  5
3CB
330
1F
100
AcDbEntity
  8
躯体
  6
Continuous
 62
     6
370
     9
100
AcDbLine
 10
-253.7682502981189
 20
506.0705157605994
 30
0.0
 11
-253.7682502981189
 21
520.6011719050254
 31
0.0
  0
LINE
  5
3CC
330
1F
100
AcDbEntity
  8
躯体
  6
Continuous
 62
     6
370
     9
100
AcDbLine
 10
-259.0510905113789
 20
503.5812711448901
 30
0.0
 11
-255.4854331792422
 21
504.0905022998733
 31
0.0
  0
LINE
  5
3CD
330
1F
100
AcDbEntity
  8
躯体
  6
Continuous
 62
     6
370
     9
100
AcDbLine
 10
-259.0510905113789
 20
523.090713448522
 30
0.0
 11
-255.4854331792422
 21
522.5811853657516
 31
0.0
  0
LINE
  5
3CE
330
1F
100
AcDbEntity
  8
躯体
  6
Continuous
 62
     6
370
     9
100
AcDbLine
 10
-260.7683228804668
 20
501.6012576841637
 30
0.0
 11
-260.7683228804668
 21
497.0703376039273
 31
0.0
  0
LINE
  5
3CF
330
1F
100
AcDbEntity
  8
躯体
  6
Continuous
 62
     6
370
     9
100
AcDbLine
 10
-253.7682502981189
 20
534.0705091622045
 30
0.0
 11
-253.7682502981189
 21
548.6011653066302
 31
0.0
  0
LINE
  5
3D0
330
1F
100
AcDbEntity
  8
躯体
  6
Continuous
 62
     6
370
     9
100
AcDbLine
 10
-259.0510905113789
 20
531.5812645464952
 30
0.0
 11
-255.4854331792422
 21
532.0905946774072
 31
0.0
  0
LINE
  5
3D1
330
1F
100
AcDbEntity
  8
躯体
  6
Continuous
 62
     6
370
     9
100
AcDbLine
 10
-259.0510905113789
 20
551.0905088982687
 30
0.0
 11
-255.4854331792422
 21
550.5812777432856
 31
0.0
  0
LINE
  5
3D2
330
1F
100
AcDbEntity
  8
躯体
  6
Continuous
 62
     6
370
     9
100
AcDbLine
 10
-259.0510905113789
 20
559.5811589721706
 30
0.0
 11
-255.4854331792422
 21
560.0905880790118
 31
0.0
  0
LINE
  5
3D3
330
1F
100
AcDbEntity
  8
躯体
  6
Continuous
 62
     6
370
     9
100
AcDbLine
 10
-260.7683228804668
 20
557.6013434633024
 30
0.0
 11
-260.7683228804668
 21
553.0705223589949
 31
0.0
  0
LINE
  5
3D4
330
1F
100
AcDbEntity
  8
躯体
  6
Continuous
 62
     6
370
     9
100
AcDbLine
 10
-260.7683228804668
 20
529.6013500616976
 30
0.0
 11
-260.7683228804668
 21
525.0704299814612
 31
0.0
  0
LINE
  5
3D5
330
1F
100
AcDbEntity
  8
躯体
  6
Continuous
 62
     6
370
     9
100
AcDbLine
 10
-121.2681348262013
 20
581.3360681782518
 30
0.0
 11
-268.7680523462606
 21
581.3360681782518
 31
0.0
  0
LINE
  5
3D6
330
1F
100
AcDbEntity
  8
躯体
  6
Continuous
 62
     6
370
     9
100
AcDbLine
 10
-254.6686838126881
 20
579.9258591410897
 30
0.0
 11
-268.7680523462606
 21
581.3360681782518
 31
0.0
  0
LINE
  5
3D7
330
1F
100
AcDbEntity
  8
躯体
  6
Continuous
 62
     6
370
     9
100
AcDbLine
 10
-196.2817935044109
 20
579.8360879734377
 30
0.0
 11
-254.3428055662777
 21
579.8360879734377
 31
0.0
  0
LINE
  5
3D8
330
1F
100
AcDbEntity
  8
躯体
  6
Continuous
 62
     6
370
     9
100
AcDbLine
 10
-196.2817935044109
 20
574.3359955959037
 30
0.0
 11
-196.2817935044109
 21
581.3360681782518
 31
0.0
  0
LINE
  5
3D9
330
1F
100
AcDbEntity
  8
躯体
  6
Continuous
 62
     6
370
     9
100
AcDbLine
 10
-181.7681612197826
 20
575.8359758007178
 30
0.0
 11
-181.7681612197826
 21
579.8360879734377
 31
0.0
  0
LINE
  5
3DA
330
1F
100
AcDbEntity
  8
躯体
  6
Continuous
 62
     6
370
     9
100
AcDbLine
 10
-196.2817935044109
 20
574.3359955959037
 30
0.0
 11
-181.7681612197826
 21
575.8359758007178
 31
0.0
  0
LINE
  5
3DB
330
1F
100
AcDbEntity
  8
躯体
  6
Continuous
 62
     6
370
     9
100
AcDbLine
 10
-117.7683459748501
 20
561.6153122660897
 30
0.0
 11
-117.7683459748501
 21
572.8360153910897
 31
0.0
  0
LINE
  5
3DC
330
1F
100
AcDbEntity
  8
躯体
  6
Continuous
 62
     6
370
     9
100
AcDbLine
 10
-133.2816351429242
 20
574.3359955959037
 30
0.0
 11
-253.7682502981189
 21
574.3359955959037
 31
0.0
  0
LINE
  5
3DD
330
1F
100
AcDbEntity
  8
躯体
  6
Continuous
 62
     6
370
     9
100
AcDbLine
 10
-120.7681084326205
 20
575.8359758007178
 30
0.0
 11
-181.7681612197826
 21
575.8359758007178
 31
0.0
  0
LINE
  5
3DE
330
1F
100
AcDbEntity
  8
躯体
  6
Continuous
 62
     6
370
     9
100
AcDbLine
 10
-117.7683459748501
 20
533.6407556782518
 30
0.0
 11
-117.7683459748501
 21
549.0564545802789
 31
0.0
  0
LINE
  5
3DF
330
1F
100
AcDbEntity
  8
躯体
  6
Continuous
 62
     6
370
     9
100
AcDbLine
 10
-119.0315757573672
 20
550.3358174392316
 30
0.0
 11
-113.7682338021305
 21
550.3358174392316
 31
0.0
  0
LINE
  5
3E0
330
1F
100
AcDbEntity
  8
躯体
  6
Continuous
 62
     6
370
     9
100
AcDbLine
 10
-119.0604767286509
 20
532.3360549814612
 30
0.0
 11
-113.7682338021305
 21
532.3360549814612
 31
0.0
  0
LINE
  5
3E1
330
1F
100
AcDbEntity
  8
躯体
  6
Continuous
 62
     6
370
     9
100
AcDbLine
 10
-117.7683459748501
 20
521.031024364907
 30
0.0
 11
-117.7683459748501
 21
505.6153254628801
 31
0.0
  0
LINE
  5
3E2
330
1F
100
AcDbEntity
  8
躯体
  6
Continuous
 62
     6
370
     9
100
AcDbLine
 10
-118.5285305979497
 20
476.3358702263936
 30
0.0
 11
-113.7682338021305
 21
476.3358702263936
 31
0.0
  0
LINE
  5
3E3
330
1F
100
AcDbEntity
  8
躯体
  6
Continuous
 62
     6
370
     9
100
AcDbLine
 10
-118.4849811891659
 20
494.3358306360219
 30
0.0
 11
-113.7682338021305
 21
494.3358306360219
 31
0.0
  0
LINE
  5
3E4
330
1F
100
AcDbEntity
  8
躯体
  6
Continuous
 62
     6
370
     9
100
AcDbLine
 10
-118.4849811891659
 20
504.3359626039274
 30
0.0
 11
-113.7682338021305
 21
504.3359626039274
 31
0.0
  0
LINE
  5
3E5
330
1F
100
AcDbEntity
  8
躯体
  6
Continuous
 62
     6
370
     9
100
AcDbLine
 10
-118.5285305979497
 20
522.3360219894847
 30
0.0
 11
-113.7682338021305
 21
522.3360219894847
 31
0.0
  0
LINE
  5
3E6
330
1F
100
AcDbEntity
  8
躯体
  6
Continuous
 62
     6
370
     9
100
AcDbLine
 10
-118.4849811891659
 20
560.3357514552787
 30
0.0
 11
-113.7682338021305
 21
560.3357514552787
 31
0.0
  0
LINE
  5
3E7
330
1F
100
AcDbEntity
  8
仕上
  6
Continuous
 62
     3
370
     9
100
AcDbLine
 10
-252.5149181085072
 20
483.0478238792652
 30
0.0
 11
-237.4998242793264
 21
481.25497390038
 31
0.0
  0
LINE
  5
3E8
330
1F
100
AcDbEntity
  8
仕上
  6
Continuous
 62
     3
370
     9
100
AcDbLine
 10
-246.2836410550868
 20
540.3360813750422
 30
0.0
 11
-246.2834431032289
 21
545.3359494071368
 31
0.0
  0
LINE
  5
3E9
330
1F
100
AcDbEntity
  8
仕上
  6
Continuous
 62
     3
370
     9
100
AcDbLine
 10
-246.2834431032289
 20
522.3360219894847
 30
0.0
 11
-246.2834431032289
 21
528.3359428087416
 31
0.0
  0
LINE
  5
3EA
330
1F
100
AcDbEntity
  8
仕上
  6
Continuous
 62
     3
370
     9
100
AcDbLine
 10
-195.5114638485834
 20
547.3360549814612
 30
0.0
 11
-244.2836344566919
 21
547.3360549814612
 31
0.0
  0
LINE
  5
3EB
330
1F
100
AcDbEntity
  8
仕上
  6
Continuous
 62
     3
370
     9
100
AcDbLine
 10
-193.511457250188
 20
540.3360813750422
 30
0.0
 11
-193.511457250188
 21
545.3359494071368
 31
0.0
  0
LINE
  5
3EC
330
1F
100
AcDbEntity
  8
仕上
  6
Continuous
 62
     3
370
     9
100
AcDbLine
 10
-195.5114638485834
 20
538.3359758007181
 30
0.0
 11
-244.2836344566919
 21
538.3359758007181
 31
0.0
  0
LINE
  5
3ED
330
1F
100
AcDbEntity
  8
仕上
  6
Continuous
 62
     3
370
     9
100
AcDbLine
 10
-195.5114638485834
 20
530.3359494071368
 30
0.0
 11
-244.2836344566919
 21
530.3359494071368
 31
0.0
  0
LINE
  5
3EE
330
1F
100
AcDbEntity
  8
仕上
  6
Continuous
 62
     3
370
     9
100
AcDbLine
 10
-193.511457250188
 20
522.3360219894847
 30
0.0
 11
-193.511457250188
 21
528.3359428087416
 31
0.0
  0
LINE
  5
3EF
330
1F
100
AcDbEntity
  8
仕上
  6
Continuous
 62
     3
370
     9
100
AcDbLine
 10
-195.5114638485834
 20
520.3359164151606
 30
0.0
 11
-244.2836344566919
 21
520.3359164151606
 31
0.0
  0
LINE
  5
3F0
330
1F
100
AcDbEntity
  8
仕上
  6
Continuous
 62
     3
370
     9
100
AcDbLine
 10
-195.5114638485834
 20
476.3358702263936
 30
0.0
 11
-221.1118848262018
 21
476.3358702263936
 31
0.0
  0
LINE
  5
3F1
330
1F
100
AcDbEntity
  8
仕上
  6
Continuous
 62
     3
370
     9
100
AcDbLine
 10
-185.2051003561847
 20
486.3360021942991
 30
0.0
 11
-185.2053972839718
 21
492.3359230135556
 31
0.0
  0
LINE
  5
3F2
330
1F
100
AcDbEntity
  8
仕上
  6
Continuous
 62
     3
370
     9
100
AcDbLine
 10
-185.2051003561847
 20
510.335883423184
 30
0.0
 11
-185.2051003561847
 21
504.3359626039274
 31
0.0
  0
LINE
  5
3F3
330
1F
100
AcDbEntity
  8
仕上
  6
Continuous
 62
     3
370
     9
100
AcDbLine
 10
-134.2542715977389
 20
512.3359889975085
 30
0.0
 11
-183.2050937577893
 21
512.3359889975085
 31
0.0
  0
LINE
  5
3F4
330
1F
100
AcDbEntity
  8
仕上
  6
Continuous
 62
     3
370
     9
100
AcDbLine
 10
-132.2539680715564
 20
504.3359626039274
 30
0.0
 11
-132.2539680715564
 21
510.335883423184
 31
0.0
  0
LINE
  5
3F5
330
1F
100
AcDbEntity
  8
仕上
  6
Continuous
 62
     3
370
     9
100
AcDbLine
 10
-134.2542715977389
 20
502.3359560055321
 30
0.0
 11
-183.2050937577893
 21
502.3359560055321
 31
0.0
  0
LINE
  5
3F6
330
1F
100
AcDbEntity
  8
仕上
  6
Continuous
 62
     3
370
     9
100
AcDbLine
 10
-134.2542715977389
 20
494.3358306360219
 30
0.0
 11
-183.2050937577893
 21
494.3358306360219
 31
0.0
  0
LINE
  5
3F7
330
1F
100
AcDbEntity
  8
仕上
  6
Continuous
 62
     3
370
     9
100
AcDbLine
 10
-132.2539680715564
 20
486.3360021942991
 30
0.0
 11
-132.2539680715564
 21
492.3359230135556
 31
0.0
  0
LINE
  5
3F8
330
1F
100
AcDbEntity
  8
仕上
  6
Continuous
 62
     3
370
     9
100
AcDbLine
 10
-134.2542715977389
 20
484.3358966199746
 30
0.0
 11
-183.2050937577893
 21
484.3360945718327
 31
0.0
  0
LINE
  5
3F9
330
1F
100
AcDbEntity
  8
仕上
  6
Continuous
 62
     3
370
     9
100
AcDbLine
 10
-134.2542715977389
 20
476.3358702263936
 30
0.0
 11
-183.2050937577893
 21
476.3358702263936
 31
0.0
  0
LINE
  5
3FA
330
1F
100
AcDbEntity
  8
仕上
  6
Continuous
 62
     3
370
     9
100
AcDbLine
 10
-185.2051003561847
 20
528.3359428087416
 30
0.0
 11
-185.2051003561847
 21
522.3360219894847
 31
0.0
  0
LINE
  5
3FB
330
1F
100
AcDbEntity
  8
仕上
  6
Continuous
 62
     3
370
     9
100
AcDbLine
 10
-134.2542715977389
 20
530.3359494071368
 30
0.0
 11
-183.2050937577893
 21
530.3359494071368
 31
0.0
  0
LINE
  5
3FC
330
1F
100
AcDbEntity
  8
仕上
  6
Continuous
 62
     3
370
     9
100
AcDbLine
 10
-132.2542649993434
 20
522.3360219894847
 30
0.0
 11
-132.2539680715564
 21
528.3359428087416
 31
0.0
  0
LINE
  5
3FD
330
1F
100
AcDbEntity
  8
仕上
  6
Continuous
 62
     3
370
     9
100
AcDbLine
 10
-134.2542715977389
 20
520.3359164151606
 30
0.0
 11
-183.2052917096472
 21
520.3359164151606
 31
0.0
  0
LINE
  5
3FE
330
1F
100
AcDbEntity
  8
仕上
  6
Continuous
 62
     3
370
     9
100
AcDbLine
 10
-185.2051003561847
 20
545.3359494071368
 30
0.0
 11
-185.2051003561847
 21
540.3360813750422
 31
0.0
  0
LINE
  5
3FF
330
1F
100
AcDbEntity
  8
仕上
  6
Continuous
 62
     3
370
     9
100
AcDbLine
 10
-134.2540736458805
 20
547.3360549814612
 30
0.0
 11
-183.2052917096472
 21
547.3360549814612
 31
0.0
  0
LINE
  5
400
330
1F
100
AcDbEntity
  8
仕上
  6
Continuous
 62
     3
370
     9
100
AcDbLine
 10
-132.2539680715564
 20
540.3360813750422
 30
0.0
 11
-132.2539680715564
 21
545.3359494071368
 31
0.0
  0
LINE
  5
401
330
1F
100
AcDbEntity
  8
仕上
  6
Continuous
 62
     3
370
     9
100
AcDbLine
 10
-134.2542715977389
 20
538.3359758007181
 30
0.0
 11
-183.2050937577893
 21
538.3359758007181
 31
0.0
  0
LINE
  5
402
330
1F
100
AcDbEntity
  8
仕上
  6
Continuous
 62
     3
370
     9
100
AcDbLine
 10
-246.2834431032289
 20
504.3359626039274
 30
0.0
 11
-246.2834431032289
 21
510.335883423184
 31
0.0
  0
LINE
  5
403
330
1F
100
AcDbEntity
  8
仕上
  6
Continuous
 62
     3
370
     9
100
AcDbLine
 10
-195.5114638485834
 20
512.3359889975085
 30
0.0
 11
-244.2836344566919
 21
512.3359889975085
 31
0.0
  0
LINE
  5
404
330
1F
100
AcDbEntity
  8
仕上
  6
Continuous
 62
     3
370
     9
100
AcDbLine
 10
-193.511457250188
 20
504.3359626039274
 30
0.0
 11
-193.511457250188
 21
510.335883423184
 31
0.0
  0
LINE
  5
405
330
1F
100
AcDbEntity
  8
仕上
  6
Continuous
 62
     3
370
     9
100
AcDbLine
 10
-195.5114638485834
 20
502.3359560055321
 30
0.0
 11
-244.2836344566919
 21
502.3359560055321
 31
0.0
  0
LINE
  5
406
330
1F
100
AcDbEntity
  8
仕上
  6
Continuous
 62
     3
370
     9
100
AcDbLine
 10
-193.511457250188
 20
486.3360021942991
 30
0.0
 11
-193.511457250188
 21
492.3359230135556
 31
0.0
  0
LINE
  5
407
330
1F
100
AcDbEntity
  8
仕上
  6
Continuous
 62
     3
370
     9
100
AcDbLine
 10
-195.5114638485834
 20
484.3358966199746
 30
0.0
 11
-225.4668257045797
 21
484.3358966199746
 31
0.0
  0
LINE
  5
408
330
1F
100
AcDbEntity
  8
仕上
  6
Continuous
 62
     3
370
     9
100
AcDbLine
 10
-226.8259631623505
 20
494.3357316600929
 30
0.0
 11
-195.5114638485834
 21
494.3358306360219
 31
0.0
  0
LINE
  5
409
330
1F
100
AcDbEntity
  8
仕上
  6
Continuous
 62
     3
370
     9
100
AcDbLine
 10
-133.0537430662776
 20
555.3360813750422
 30
0.0
 11
-131.9926716188534
 21
560.836173752576
 31
0.0
  0
LINE
  5
40A
330
1F
100
AcDbEntity
  8
仕上
  6
Continuous
 62
     3
370
     9
100
AcDbLine
 10
-150.0244033017084
 20
555.3360813750422
 30
0.0
 11
-148.9633813422489
 21
560.8359758007181
 31
0.0
  0
LINE
  5
40B
330
1F
100
AcDbEntity
  8
仕上
  6
Continuous
 62
     3
370
     9
100
AcDbLine
 10
-144.7212235350276
 20
560.8359758007181
 30
0.0
 11
-143.6602510635326
 21
555.3360813750422
 31
0.0
  0
LINE
  5
40C
330
1F
100
AcDbEntity
  8
仕上
  6
Continuous
 62
     3
370
     9
100
AcDbLine
 10
-143.6602510635326
 20
555.3360813750422
 30
0.0
 11
-133.0537430662776
 21
555.3360813750422
 31
0.0
  0
LINE
  5
40D
330
1F
100
AcDbEntity
  8
仕上
  6
Continuous
 62
     3
370
     9
100
AcDbLine
 10
-166.9948160973163
 20
555.3360813750422
 30
0.0
 11
-165.9337941378568
 21
560.8359758007181
 31
0.0
  0
LINE
  5
40E
330
1F
100
AcDbEntity
  8
仕上
  6
Continuous
 62
     3
370
     9
100
AcDbLine
 10
-161.6919332584226
 20
560.8359758007181
 30
0.0
 11
-160.6308618109989
 21
555.3358834231841
 31
0.0
  0
LINE
  5
40F
330
1F
100
AcDbEntity
  8
仕上
  6
Continuous
 62
     3
370
     9
100
AcDbLine
 10
-160.6308618109989
 20
555.3360813750422
 30
0.0
 11
-150.0244033017084
 21
555.3360813750422
 31
0.0
  0
LINE
  5
410
330
1F
100
AcDbEntity
  8
仕上
  6
Continuous
 62
     3
370
     9
100
AcDbLine
 10
-148.9633813422489
 20
560.8359758007181
 30
0.0
 11
-144.7212235350276
 21
560.8359758007181
 31
0.0
  0
LINE
  5
411
330
1F
100
AcDbEntity
  8
仕上
  6
Continuous
 62
     3
370
     9
100
AcDbLine
 10
-131.9926716188534
 20
560.8359758007181
 30
0.0
 11
-123.7688111617168
 21
560.8359758007181
 31
0.0
  0
LINE
  5
412
330
1F
100
AcDbEntity
  8
仕上
  6
Continuous
 62
     3
370
     9
100
AcDbLine
 10
-183.9654268447826
 20
555.3360813750422
 30
0.0
 11
-182.9044543732876
 21
560.8359758007181
 31
0.0
  0
LINE
  5
413
330
1F
100
AcDbEntity
  8
仕上
  6
Continuous
 62
     3
370
     9
100
AcDbLine
 10
-178.6622965660663
 20
560.8359758007181
 30
0.0
 11
-177.6012746066068
 21
555.3360813750422
 31
0.0
  0
LINE
  5
414
330
1F
100
AcDbEntity
  8
仕上
  6
Continuous
 62
     3
370
     9
100
AcDbLine
 10
-177.6012746066068
 20
555.3360813750422
 30
0.0
 11
-166.9948160973163
 21
555.3360813750422
 31
0.0
  0
LINE
  5
415
330
1F
100
AcDbEntity
  8
仕上
  6
Continuous
 62
     3
370
     9
100
AcDbLine
 10
-165.9337941378568
 20
560.8359758007181
 30
0.0
 11
-161.6919332584226
 21
560.8359758007181
 31
0.0
  0
LINE
  5
416
330
1F
100
AcDbEntity
  8
仕上
  6
Continuous
 62
     3
370
     9
100
AcDbLine
 10
-200.936136568178
 20
555.3360813750422
 30
0.0
 11
-199.8751146087184
 21
560.836173752576
 31
0.0
  0
LINE
  5
417
330
1F
100
AcDbEntity
  8
仕上
  6
Continuous
 62
     3
370
     9
100
AcDbLine
 10
-195.6330062894613
 20
560.8359758007181
 30
0.0
 11
-194.5719348420376
 21
555.3360813750422
 31
0.0
  0
LINE
  5
418
330
1F
100
AcDbEntity
  8
仕上
  6
Continuous
 62
     3
370
     9
100
AcDbLine
 10
-194.5719348420376
 20
555.3360813750422
 30
0.0
 11
-183.9654268447826
 21
555.3360813750422
 31
0.0
  0
LINE
  5
419
330
1F
100
AcDbEntity
  8
仕上
  6
Continuous
 62
     3
370
     9
100
AcDbLine
 10
-182.9044543732876
 20
560.8359758007181
 30
0.0
 11
-178.6622965660663
 21
560.8359758007181
 31
0.0
  0
LINE
  5
41A
330
1F
100
AcDbEntity
  8
仕上
  6
Continuous
 62
     3
370
     9
100
AcDbLine
 10
-216.8455274043263
 20
560.836173752576
 30
0.0
 11
-217.9065493637859
 21
555.3360813750422
 31
0.0
  0
LINE
  5
41B
330
1F
100
AcDbEntity
  8
仕上
  6
Continuous
 62
     3
370
     9
100
AcDbLine
 10
-212.603617036928
 20
560.8359758007181
 30
0.0
 11
-211.542644565433
 21
555.3360813750422
 31
0.0
  0
LINE
  5
41C
330
1F
100
AcDbEntity
  8
仕上
  6
Continuous
 62
     3
370
     9
100
AcDbLine
 10
-211.542644565433
 20
555.3360813750422
 30
0.0
 11
-200.936136568178
 21
555.3360813750422
 31
0.0
  0
LINE
  5
41D
330
1F
100
AcDbEntity
  8
仕上
  6
Continuous
 62
     3
370
     9
100
AcDbLine
 10
-234.8771601112518
 20
555.3360813750422
 30
0.0
 11
-233.8159401999343
 21
560.8359758007181
 31
0.0
  0
LINE
  5
41E
330
1F
100
AcDbEntity
  8
仕上
  6
Continuous
 62
     3
370
     9
100
AcDbLine
 10
-229.5740793205006
 20
560.8359758007181
 30
0.0
 11
-228.5130078730764
 21
555.3360813750422
 31
0.0
  0
LINE
  5
41F
330
1F
100
AcDbEntity
  8
仕上
  6
Continuous
 62
     3
370
     9
100
AcDbLine
 10
-228.5130078730764
 20
555.3360813750422
 30
0.0
 11
-217.9065493637859
 21
555.3360813750422
 31
0.0
  0
LINE
  5
420
330
1F
100
AcDbEntity
  8
仕上
  6
Continuous
 62
     3
370
     9
100
AcDbLine
 10
-233.8159401999343
 20
560.8359758007181
 30
0.0
 11
-229.5740793205006
 21
560.8359758007181
 31
0.0
  0
LINE
  5
421
330
1F
100
AcDbEntity
  8
仕上
  6
Continuous
 62
     3
370
     9
100
AcDbLine
 10
-245.4837175964718
 20
555.3360813750422
 30
0.0
 11
-246.5447395559314
 21
560.8359758007181
 31
0.0
  0
LINE
  5
422
330
1F
100
AcDbEntity
  8
仕上
  6
Continuous
 62
     3
370
     9
100
AcDbLine
 10
-245.4837175964718
 20
555.3360813750422
 30
0.0
 11
-234.8771601112518
 21
555.3360813750422
 31
0.0
  0
LINE
  5
423
330
1F
100
AcDbEntity
  8
仕上
  6
Continuous
 62
     3
370
     9
100
AcDbLine
 10
-135.082502172063
 20
504.3359626039274
 30
0.0
 11
-135.082502172063
 21
510.335883423184
 31
0.0
  0
LINE
  5
424
330
1F
100
AcDbEntity
  8
仕上
  6
Continuous
 62
     3
370
     9
100
AcDbLine
 10
-135.0822547322405
 20
486.3360021942991
 30
0.0
 11
-135.0822547322405
 21
492.3359230135556
 31
0.0
  0
LINE
  5
425
330
1F
100
AcDbEntity
  8
仕上
  6
Continuous
 62
     3
370
     9
100
AcDbLine
 10
-135.082502172063
 20
522.3360219894847
 30
0.0
 11
-135.082502172063
 21
528.3359428087416
 31
0.0
  0
LINE
  5
426
330
1F
100
AcDbEntity
  8
仕上
  6
Continuous
 62
     3
370
     9
100
AcDbLine
 10
-135.082502172063
 20
540.3360813750422
 30
0.0
 11
-135.0822547322405
 21
545.3359494071368
 31
0.0
  0
LINE
  5
427
330
1F
100
AcDbEntity
  8
仕上
  6
Continuous
 62
     3
370
     9
100
AcDbLine
 10
-196.3396944229076
 20
540.3360813750422
 30
0.0
 11
-196.3396944229076
 21
545.3359494071368
 31
0.0
  0
LINE
  5
428
330
1F
100
AcDbEntity
  8
仕上
  6
Continuous
 62
     3
370
     9
100
AcDbLine
 10
-196.3396944229076
 20
522.3360219894847
 30
0.0
 11
-196.3396944229076
 21
528.3359428087416
 31
0.0
  0
LINE
  5
429
330
1F
100
AcDbEntity
  8
仕上
  6
Continuous
 62
     3
370
     9
100
AcDbLine
 10
-196.3396944229076
 20
504.3359626039274
 30
0.0
 11
-196.3396944229076
 21
510.335883423184
 31
0.0
  0
LINE
  5
42A
330
1F
100
AcDbEntity
  8
仕上
  6
Continuous
 62
     3
370
     9
100
AcDbLine
 10
-196.3396944229076
 20
486.3360021942991
 30
0.0
 11
-196.3396944229076
 21
492.3359230135556
 31
0.0
  0
LINE
  5
42B
330
1F
100
AcDbEntity
  8
仕上
  6
Continuous
 62
     3
370
     9
100
AcDbLine
 10
-216.8455274043263
 20
560.8359758007181
 30
0.0
 11
-212.603617036928
 21
560.8359758007181
 31
0.0
  0
LINE
  5
42C
330
1F
100
AcDbEntity
  8
仕上
  6
Continuous
 62
     3
370
     9
100
AcDbLine
 10
-199.8751146087184
 20
560.8359758007181
 30
0.0
 11
-195.6330062894613
 21
560.8359758007181
 31
0.0
  0
LINE
  5
42D
330
1F
100
AcDbEntity
  8
仕上
  6
Continuous
 62
     3
370
     9
100
AcDbLine
 10
-131.9926716188534
 20
560.836173752576
 30
0.0
 11
-140.1938171002726
 21
561.9644003678633
 31
0.0
  0
LINE
  5
42E
330
1F
100
AcDbEntity
  8
仕上
  6
Continuous
 62
     3
370
     9
100
AcDbLine
 10
-182.9044543732876
 20
560.8359758007181
 30
0.0
 11
-241.8787668205006
 21
568.9501214404983
 31
0.0
  0
LINE
  5
42F
330
1F
100
AcDbEntity
  8
仕上
  6
Continuous
 62
     3
370
     9
100
AcDbLine
 10
-178.6622965660663
 20
560.8359758007181
 30
0.0
 11
-233.406179853651
 21
568.3682419535897
 31
0.0
  0
LINE
  5
430
330
1F
100
AcDbEntity
  8
仕上
  6
Continuous
 62
     3
370
     9
100
AcDbLine
 10
-165.9337941378568
 20
560.8359758007181
 30
0.0
 11
-207.9834206686847
 21
566.6218116854308
 31
0.0
  0
LINE
  5
431
330
1F
100
AcDbEntity
  8
仕上
  6
Continuous
 62
     3
370
     9
100
AcDbLine
 10
-161.6919332584226
 20
560.8359758007181
 30
0.0
 11
-199.5113780694447
 21
566.0397342466639
 31
0.0
  0
LINE
  5
432
330
1F
100
AcDbEntity
  8
仕上
  6
Continuous
 62
     3
370
     9
100
AcDbLine
 10
-148.9633813422489
 20
560.8359758007181
 30
0.0
 11
-174.088668372443
 21
564.293106026647
 31
0.0
  0
LINE
  5
433
330
1F
100
AcDbEntity
  8
仕上
  6
Continuous
 62
     3
370
     9
100
AcDbLine
 10
-144.7212235350276
 20
560.8359758007181
 30
0.0
 11
-165.6168237250614
 21
563.710830636022
 31
0.0
  0
LINE
  5
434
330
1F
100
AcDbEntity
  8
仕上
  6
Continuous
 62
     3
370
     9
100
AcDbLine
 10
-133.0537430662776
 20
555.3360813750422
 30
0.0
 11
-143.949508216193
 21
556.835071820566
 31
0.0
  0
LINE
  5
435
330
1F
100
AcDbEntity
  8
仕上
  6
Continuous
 62
     3
370
     9
100
AcDbLine
 10
-150.0244033017084
 20
555.3360813750422
 30
0.0
 11
-160.9201684516239
 21
556.835071820566
 31
0.0
  0
LINE
  5
436
330
1F
100
AcDbEntity
  8
仕上
  6
Continuous
 62
     3
370
     9
100
AcDbLine
 10
-166.9948160973163
 20
555.3360813750422
 30
0.0
 11
-177.8905812472318
 21
556.835071820566
 31
0.0
  0
LINE
  5
437
330
1F
100
AcDbEntity
  8
仕上
  6
Continuous
 62
     3
370
     9
100
AcDbLine
 10
-234.8771601112518
 20
555.3360813750422
 30
0.0
 11
-245.7729747491322
 21
556.835071820566
 31
0.0
  0
LINE
  5
438
330
1F
100
AcDbEntity
  8
仕上
  6
Continuous
 62
     3
370
     9
100
AcDbLine
 10
-217.9065493637859
 20
555.3360813750422
 30
0.0
 11
-228.8023145137018
 21
556.835071820566
 31
0.0
  0
LINE
  5
439
330
1F
100
AcDbEntity
  8
仕上
  6
Continuous
 62
     3
370
     9
100
AcDbLine
 10
-200.936136568178
 20
555.3360813750422
 30
0.0
 11
-211.8319017180934
 21
556.835071820566
 31
0.0
  0
LINE
  5
43A
330
1F
100
AcDbEntity
  8
仕上
  6
Continuous
 62
     3
370
     9
100
AcDbLine
 10
-183.9654268447826
 20
555.3360813750422
 30
0.0
 11
-194.8612414826626
 21
556.835071820566
 31
0.0
  0
LINE
  5
43B
330
1F
100
AcDbEntity
  8
仕上
  6
Continuous
 62
     3
370
     9
100
AcDbLine
 10
-175.5126350637439
 20
564.3907952686233
 30
0.0
 11
-175.823468968938
 21
562.7802589510558
 31
0.0
  0
LINE
  5
43C
330
1F
100
AcDbEntity
  8
仕上
  6
Continuous
 62
     3
370
     9
100
AcDbLine
 10
-140.6590039668263
 20
561.9963695929476
 30
0.0
 11
-141.7138894186847
 21
556.527454633066
 31
0.0
  0
LINE
  5
43D
330
1F
100
AcDbEntity
  8
仕上
  6
Continuous
 62
     3
370
     9
100
AcDbLine
 10
-140.6590039668263
 20
561.9963695929476
 30
0.0
 11
-123.7688111617168
 21
560.8359758007181
 31
0.0
  0
LINE
  5
43E
330
1F
100
AcDbEntity
  8
仕上
  6
Continuous
 62
     3
370
     9
100
AcDbLine
 10
-175.5126350637439
 20
564.3907952686233
 30
0.0
 11
-165.6168237250614
 21
563.710830636022
 31
0.0
  0
LINE
  5
43F
330
1F
100
AcDbEntity
  8
仕上
  6
Continuous
 62
     3
370
     9
100
AcDbLine
 10
-210.366563088448
 20
566.7853199202283
 30
0.0
 11
-210.6646785867588
 21
565.2393159084037
 31
0.0
  0
LINE
  5
440
330
1F
100
AcDbEntity
  8
仕上
  6
Continuous
 62
     3
370
     9
100
AcDbLine
 10
-210.366563088448
 20
566.7853199202283
 30
0.0
 11
-199.5113780694447
 21
566.0395362948058
 31
0.0
  0
LINE
  5
441
330
1F
100
AcDbEntity
  8
仕上
  6
Continuous
 62
     3
370
     9
100
AcDbLine
 10
-242.9786368321139
 20
569.0258380262247
 30
0.0
 11
-243.2935782383639
 21
567.3937249561233
 31
0.0
  0
LINE
  5
442
330
1F
100
AcDbEntity
  8
仕上
  6
Continuous
 62
     3
370
     9
100
AcDbLine
 10
-242.9786368321139
 20
569.0258380262247
 30
0.0
 11
-233.406179853651
 21
568.3682419535897
 31
0.0
  0
LINE
  5
443
330
1F
100
AcDbEntity
  8
躯体
  6
Continuous
 62
     6
370
     9
100
AcDbLine
 10
-123.7685637218938
 20
475.3360153910895
 30
0.0
 11
-113.7682338021305
 21
475.3360153910895
 31
0.0
  0
LINE
  5
444
330
1F
100
AcDbEntity
  8
躯体
  6
Continuous
 62
     6
370
     9
100
AcDbLine
 10
-123.7685637218938
 20
475.4969502517316
 30
0.0
 11
-119.0604767286509
 21
476.1553381317991
 31
0.0
  0
LINE
  5
445
330
1F
100
AcDbEntity
  8
躯体
  6
Continuous
 62
     6
370
     9
100
AcDbLine
 10
-123.7685637218938
 20
495.2951053404136
 30
0.0
 11
-119.0315757573672
 21
494.5379394831502
 31
0.0
  0
LINE
  5
446
330
1F
100
AcDbEntity
  8
躯体
  6
Continuous
 62
     6
370
     9
100
AcDbLine
 10
-123.7685637218938
 20
496.3360351862752
 30
0.0
 11
-113.7682338021305
 21
496.3360351862752
 31
0.0
  0
LINE
  5
447
330
1F
100
AcDbEntity
  8
躯体
  6
Continuous
 62
     6
370
     9
100
AcDbLine
 10
-123.7685637218938
 20
502.3359560055321
 30
0.0
 11
-113.7682338021305
 21
502.3359560055321
 31
0.0
  0
LINE
  5
448
330
1F
100
AcDbEntity
  8
躯体
  6
Continuous
 62
     6
370
     9
100
AcDbLine
 10
-123.7685637218938
 20
503.3770838032517
 30
0.0
 11
-119.0315757573672
 21
504.1340517086571
 31
0.0
  0
LINE
  5
449
330
1F
100
AcDbEntity
  8
躯体
  6
Continuous
 62
     6
370
     9
100
AcDbLine
 10
-123.7685637218938
 20
523.175040940076
 30
0.0
 11
-119.0604767286509
 21
522.5166530600085
 31
0.0
  0
LINE
  5
44A
330
1F
100
AcDbEntity
  8
躯体
  6
Continuous
 62
     6
370
     9
100
AcDbLine
 10
-123.7685637218938
 20
523.3359758007178
 30
0.0
 11
-113.7682338021305
 21
523.3359758007178
 31
0.0
  0
LINE
  5
44B
330
1F
100
AcDbEntity
  8
躯体
  6
Continuous
 62
     6
370
     9
100
AcDbLine
 10
-123.7685637218938
 20
531.3360021942989
 30
0.0
 11
-113.7682338021305
 21
531.3360021942989
 31
0.0
  0
LINE
  5
44C
330
1F
100
AcDbEntity
  8
躯体
  6
Continuous
 62
     6
370
     9
100
AcDbLine
 10
-123.7685637218938
 20
531.4967391030829
 30
0.0
 11
-119.0604767286509
 21
532.1551269831504
 31
0.0
  0
LINE
  5
44D
330
1F
100
AcDbEntity
  8
躯体
  6
Continuous
 62
     6
370
     9
100
AcDbLine
 10
-123.7685637218938
 20
551.2947952158362
 30
0.0
 11
-119.0315757573672
 21
550.53792628636
 31
0.0
  0
LINE
  5
44E
330
1F
100
AcDbEntity
  8
躯体
  6
Continuous
 62
     6
370
     9
100
AcDbLine
 10
-123.7685637218938
 20
552.3359230135558
 30
0.0
 11
-113.7682338021305
 21
552.3359230135558
 31
0.0
  0
LINE
  5
44F
330
1F
100
AcDbEntity
  8
躯体
  6
Continuous
 62
     6
370
     9
100
AcDbLine
 10
-123.7685637218938
 20
558.3360417846706
 30
0.0
 11
-113.7682338021305
 21
558.3360417846706
 31
0.0
  0
LINE
  5
450
330
1F
100
AcDbEntity
  8
躯体
  6
Continuous
 62
     6
370
     9
100
AcDbLine
 10
-123.7685637218938
 20
559.3769716305322
 30
0.0
 11
-119.0315757573672
 21
560.1339395359377
 31
0.0
  0
LINE
  5
451
330
1F
100
AcDbEntity
  8
仕上
  6
Continuous
 62
     3
370
     9
100
AcDbLine
 10
-260.2686923906018
 20
502.9235760963261
 30
0.0
 11
-260.2686923906018
 21
495.7482171436233
 31
0.0
  0
LINE
  5
452
330
1F
100
AcDbEntity
  8
仕上
  6
Continuous
 62
     3
370
     9
100
AcDbLine
 10
-260.2686923906018
 20
530.92366847386
 30
0.0
 11
-260.2686923906018
 21
523.7481115692989
 31
0.0
  0
LINE
  5
453
330
1F
100
AcDbEntity
  8
仕上
  6
Continuous
 62
     3
370
     9
100
AcDbLine
 10
-260.2686923906018
 20
558.9236618754645
 30
0.0
 11
-260.2686923906018
 21
551.7482039468329
 31
0.0
  0
LINE
  5
454
330
1F
100
AcDbEntity
  8
躯体
  6
Continuous
 62
     6
370
     9
100
AcDbLine
 10
-253.7682502981189
 20
578.9309531022383
 30
0.0
 11
-253.7682502981189
 21
562.0704035878802
 31
0.0
  0
LINE
  5
455
330
1F
100
AcDbEntity
  8
仕上
  6
Continuous
 62
     3
370
     9
100
AcDbLine
 10
-195.6330062894613
 20
560.8359758007181
 30
0.0
 11
-253.7682502981189
 21
568.8349134590795
 31
0.0
  0
LINE
  5
456
330
1F
100
AcDbEntity
  8
仕上
  6
Continuous
 62
     3
370
     9
100
AcDbLine
 10
-199.8751146087184
 20
560.836173752576
 30
0.0
 11
-253.7682502981189
 21
568.2514503573058
 31
0.0
  0
LINE
  5
457
330
1F
100
AcDbEntity
  8
仕上
  6
Continuous
 62
     3
370
     9
100
AcDbLine
 10
-212.603617036928
 20
560.8359758007181
 30
0.0
 11
-253.7682502981189
 21
566.5000712926943
 31
0.0
  0
LINE
  5
458
330
1F
100
AcDbEntity
  8
仕上
  6
Continuous
 62
     3
370
     9
100
AcDbLine
 10
-216.8455274043263
 20
560.836173752576
 30
0.0
 11
-253.7682502981189
 21
565.9163112631335
 31
0.0
  0
LINE
  5
459
330
1F
100
AcDbEntity
  8
仕上
  6
Continuous
 62
     3
370
     9
100
AcDbLine
 10
-229.5740793205006
 20
560.8359758007181
 30
0.0
 11
-253.7682502981189
 21
564.164932198522
 31
0.0
  0
LINE
  5
45A
330
1F
100
AcDbEntity
  8
仕上
  6
Continuous
 62
     3
370
     9
100
AcDbLine
 10
-233.8159401999343
 20
560.8359758007181
 30
0.0
 11
-253.7682502981189
 21
563.5812711448901
 31
0.0
  0
LINE
  5
45B
330
1F
100
AcDbEntity
  8
仕上
  6
Continuous
 62
     3
370
     9
100
AcDbLine
 10
-246.5447395559314
 20
560.8359758007181
 30
0.0
 11
-253.7682502981189
 21
561.8298920802787
 31
0.0
  0
LINE
  5
45C
330
1F
100
AcDbEntity
  8
仕上
  6
Continuous
 62
     3
370
     9
100
AcDbLine
 10
-126.7687715713451
 20
573.8361671541808
 30
0.0
 11
-253.7682502981189
 21
573.8358702263937
 31
0.0
  0
LINE
  5
45D
330
1F
100
AcDbEntity
  8
仕上
  6
Continuous
 62
     3
370
     9
100
AcDbLine
 10
-254.1948365523418
 20
560.8359758007181
 30
0.0
 11
-246.5447395559314
 21
560.8359758007181
 31
0.0
  0
LINE
  5
45E
330
1F
100
AcDbEntity
  8
仕上
  6
Continuous
 62
     3
370
     9
100
AcDbLine
 10
-254.7686495010327
 20
504.3382390502956
 30
0.0
 11
-254.7686495010327
 21
494.333752141512
 31
0.0
  0
LINE
  5
45F
330
1F
100
AcDbEntity
  8
仕上
  6
Continuous
 62
     3
370
     9
100
AcDbLine
 10
-254.7686495010327
 20
560.3383248294341
 30
0.0
 11
-254.7686495010327
 21
550.3336399687922
 31
0.0
  0
LINE
  5
460
330
1F
100
AcDbEntity
  8
仕上
  6
Continuous
 62
     3
370
     9
100
AcDbLine
 10
-254.7686495010327
 20
532.3380345000422
 30
0.0
 11
-254.7686495010327
 21
522.3337455431164
 31
0.0
  0
LINE
  5
461
330
1F
100
AcDbEntity
  8
仕上
  6
Continuous
 62
     3
370
     9
100
AcDbLine
 10
-255.7685538243014
 20
504.050120120819
 30
0.0
 11
-255.7685538243014
 21
494.62167311913
 31
0.0
  0
LINE
  5
462
330
1F
100
AcDbEntity
  8
仕上
  6
Continuous
 62
     3
370
     9
100
AcDbLine
 10
-255.7685538243014
 20
532.0502124983531
 30
0.0
 11
-255.7685538243014
 21
522.6215675448058
 31
0.0
  0
LINE
  5
463
330
1F
100
AcDbEntity
  8
仕上
  6
Continuous
 62
     3
370
     9
100
AcDbLine
 10
-255.7685538243014
 20
560.0503048758868
 30
0.0
 11
-255.7685538243014
 21
550.6215609464106
 31
0.0
  0
LINE
  5
464
330
1F
100
AcDbEntity
  8
061
  6
Continuous
 62
     2
370
     9
100
AcDbLine
 10
-250.1801254300868
 20
471.8149467149914
 30
0.0
 11
-252.1685518447827
 21
471.8149467149914
 31
0.0
  0
LINE
  5
465
330
1F
100
AcDbEntity
  8
061
  6
Continuous
 62
     2
370
     9
100
AcDbLine
 10
-252.1687992846056
 20
477.3359230135557
 30
0.0
 11
-253.9080537979077
 21
477.3359230135557
 31
0.0
  0
ARC
  5
466
330
1F
100
AcDbEntity
  8
躯体
  6
Continuous
 62
     6
370
     9
100
AcDbCircle
 10
-120.7681084326205
 20
572.8360153910897
 30
0.0
 40
3.000000038662472
100
AcDbArc
 50
0.0
 51
90.0
  0
ARC
  5
467
330
1F
100
AcDbEntity
  8
躯体
  6
Continuous
 62
     6
370
     9
100
AcDbCircle
 10
-119.7682041093518
 20
573.8358702263937
 30
0.0
 40
6.000000077324945
100
AcDbArc
 50
0.0
 51
90.0
  0
ARC
  5
468
330
1F
100
AcDbEntity
  8
躯体
  6
Continuous
 62
     6
370
     9
100
AcDbCircle
 10
-119.2681282278064
 20
561.6153122660897
 30
0.0
 40
1.500000019331236
100
AcDbArc
 50
279.08056640625
 51
0.0
  0
ARC
  5
469
330
1F
100
AcDbEntity
  8
躯体
  6
Continuous
 62
     6
370
     9
100
AcDbCircle
 10
-119.2681282278064
 20
493.0564677770689
 30
0.0
 40
1.500000019331236
100
AcDbArc
 50
0.0
 51
80.91943359375
  0
ARC
  5
46A
330
1F
100
AcDbEntity
  8
躯体
  6
Continuous
 62
     6
370
     9
100
AcDbCircle
 10
-119.2681282278064
 20
477.6409668269003
 30
0.0
 40
1.500000019331236
100
AcDbArc
 50
277.9610748291016
 51
0.0
  0
ARC
  5
46B
330
1F
100
AcDbEntity
  8
躯体
  6
Continuous
 62
     6
370
     9
100
AcDbCircle
 10
-121.2681348262013
 20
573.8358702263937
 30
0.0
 40
7.499999226750555
100
AcDbArc
 50
0.0
 51
90.0
  0
ARC
  5
46C
330
1F
100
AcDbEntity
  8
躯体
  6
Continuous
 62
     6
370
     9
100
AcDbCircle
 10
-255.7682568965139
 20
492.6013764552787
 30
0.0
 40
2.000000025774982
100
AcDbArc
 50
0.0000000000000127
 51
81.86999511718751
  0
ARC
  5
46D
330
1F
100
AcDbEntity
  8
躯体
  6
Continuous
 62
     6
370
     9
100
AcDbCircle
 10
-255.7682568965139
 20
478.0705223589949
 30
0.0
 40
2.000000025774982
100
AcDbArc
 50
278.1300048828125
 51
0.0
  0
ARC
  5
46E
330
1F
100
AcDbEntity
  8
躯体
  6
Continuous
 62
     6
370
     9
100
AcDbCircle
 10
-258.7682667941068
 20
473.6013632584883
 30
0.0
 40
2.000000025774982
100
AcDbArc
 50
98.13000488281249
 51
180.0
  0
ARC
  5
46F
330
1F
100
AcDbEntity
  8
躯体
  6
Continuous
 62
     6
370
     9
100
AcDbCircle
 10
-258.7682667941068
 20
497.0703376039273
 30
0.0
 40
2.000000025774982
100
AcDbArc
 50
180.0
 51
261.8699951171875
  0
ARC
  5
470
330
1F
100
AcDbEntity
  8
躯体
  6
Continuous
 62
     6
370
     9
100
AcDbCircle
 10
-255.7682568965139
 20
520.6011719050254
 30
0.0
 40
2.000000025774982
100
AcDbArc
 50
0.0000000000000127
 51
81.86999511718751
  0
ARC
  5
471
330
1F
100
AcDbEntity
  8
躯体
  6
Continuous
 62
     6
370
     9
100
AcDbCircle
 10
-255.7682568965139
 20
506.0705157605994
 30
0.0
 40
2.000000025774982
100
AcDbArc
 50
278.1300048828125
 51
0.0
  0
ARC
  5
472
330
1F
100
AcDbEntity
  8
躯体
  6
Continuous
 62
     6
370
     9
100
AcDbCircle
 10
-258.7682667941068
 20
501.6012576841637
 30
0.0
 40
2.000000025774982
100
AcDbArc
 50
98.13000488281249
 51
180.0
  0
ARC
  5
473
330
1F
100
AcDbEntity
  8
躯体
  6
Continuous
 62
     6
370
     9
100
AcDbCircle
 10
-258.7682667941068
 20
525.0704299814612
 30
0.0
 40
2.000000025774982
100
AcDbArc
 50
180.0
 51
261.8699951171875
  0
ARC
  5
474
330
1F
100
AcDbEntity
  8
躯体
  6
Continuous
 62
     6
370
     9
100
AcDbCircle
 10
-255.7682568965139
 20
548.6011653066302
 30
0.0
 40
2.000000025774982
100
AcDbArc
 50
0.0000000000000127
 51
81.86999511718751
  0
ARC
  5
475
330
1F
100
AcDbEntity
  8
躯体
  6
Continuous
 62
     6
370
     9
100
AcDbCircle
 10
-255.7682568965139
 20
534.0705091622045
 30
0.0
 40
2.000000025774982
100
AcDbArc
 50
278.1300048828125
 51
0.0
  0
ARC
  5
476
330
1F
100
AcDbEntity
  8
躯体
  6
Continuous
 62
     6
370
     9
100
AcDbCircle
 10
-258.7682667941068
 20
529.6013500616976
 30
0.0
 40
2.000000025774982
100
AcDbArc
 50
98.13000488281249
 51
180.0
  0
ARC
  5
477
330
1F
100
AcDbEntity
  8
躯体
  6
Continuous
 62
     6
370
     9
100
AcDbCircle
 10
-258.7682667941068
 20
553.0705223589949
 30
0.0
 40
2.000000025774982
100
AcDbArc
 50
180.0
 51
261.8699951171875
  0
ARC
  5
478
330
1F
100
AcDbEntity
  8
躯体
  6
Continuous
 62
     6
370
     9
100
AcDbCircle
 10
-255.7682568965139
 20
562.0704035878802
 30
0.0
 40
2.000000025774982
100
AcDbArc
 50
278.1300048828125
 51
0.0
  0
ARC
  5
479
330
1F
100
AcDbEntity
  8
躯体
  6
Continuous
 62
     6
370
     9
100
AcDbCircle
 10
-258.7682667941068
 20
557.6013434633024
 30
0.0
 40
2.000000025774982
100
AcDbArc
 50
98.13000488281249
 51
180.0
  0
ARC
  5
47A
330
1F
100
AcDbEntity
  8
躯体
  6
Continuous
 62
     6
370
     9
100
AcDbCircle
 10
-254.7681546213877
 20
578.9309531022383
 30
0.0
 40
1.000000012887491
100
AcDbArc
 50
0.0
 51
84.2892608642578
  0
ARC
  5
47B
330
1F
100
AcDbEntity
  8
躯体
  6
Continuous
 62
     6
370
     9
100
AcDbCircle
 10
-119.2681282278064
 20
549.0564545802789
 30
0.0
 40
1.500000019331236
100
AcDbArc
 50
0.0
 51
80.91943359375
  0
ARC
  5
47C
330
1F
100
AcDbEntity
  8
躯体
  6
Continuous
 62
     6
370
     9
100
AcDbCircle
 10
-119.2681282278064
 20
533.6407556782518
 30
0.0
 40
1.500000019331236
100
AcDbArc
 50
277.9610748291016
 51
0.0
  0
ARC
  5
47D
330
1F
100
AcDbEntity
  8
躯体
  6
Continuous
 62
     6
370
     9
100
AcDbCircle
 10
-119.2681282278064
 20
521.031024364907
 30
0.0
 40
1.500000019331236
100
AcDbArc
 50
0.0
 51
82.03892517089841
  0
ARC
  5
47E
330
1F
100
AcDbEntity
  8
躯体
  6
Continuous
 62
     6
370
     9
100
AcDbCircle
 10
-119.2681282278064
 20
505.6153254628801
 30
0.0
 40
1.500000019331236
100
AcDbArc
 50
279.08056640625
 51
0.0
  0
ARC
  5
47F
330
1F
100
AcDbEntity
  8
仕上
  6
Continuous
 62
     3
370
     9
100
AcDbCircle
 10
-244.2836344566919
 20
545.3359494071368
 30
0.0
 40
2.000000025774982
100
AcDbArc
 50
90.0
 51
180.0
  0
ARC
  5
480
330
1F
100
AcDbEntity
  8
仕上
  6
Continuous
 62
     3
370
     9
100
AcDbCircle
 10
-244.2836344566919
 20
540.3360813750422
 30
0.0
 40
2.000000025774982
100
AcDbArc
 50
180.0
 51
270.0
  0
ARC
  5
481
330
1F
100
AcDbEntity
  8
仕上
  6
Continuous
 62
     3
370
     9
100
AcDbCircle
 10
-244.2836344566919
 20
528.3359428087416
 30
0.0
 40
2.000000025774982
100
AcDbArc
 50
90.0
 51
180.0
  0
ARC
  5
482
330
1F
100
AcDbEntity
  8
仕上
  6
Continuous
 62
     3
370
     9
100
AcDbCircle
 10
-244.2836344566919
 20
522.3360219894847
 30
0.0
 40
2.000000025774982
100
AcDbArc
 50
180.0
 51
270.0
  0
ARC
  5
483
330
1F
100
AcDbEntity
  8
仕上
  6
Continuous
 62
     3
370
     9
100
AcDbCircle
 10
-195.5114638485834
 20
545.3359494071368
 30
0.0
 40
2.000000025774982
100
AcDbArc
 50
0.0
 51
90.0
  0
ARC
  5
484
330
1F
100
AcDbEntity
  8
仕上
  6
Continuous
 62
     3
370
     9
100
AcDbCircle
 10
-195.5114638485834
 20
540.3360813750422
 30
0.0
 40
2.000000025774982
100
AcDbArc
 50
270.0
 51
0.0
  0
ARC
  5
485
330
1F
100
AcDbEntity
  8
仕上
  6
Continuous
 62
     3
370
     9
100
AcDbCircle
 10
-195.5114638485834
 20
528.3359428087416
 30
0.0
 40
2.000000025774982
100
AcDbArc
 50
0.0
 51
90.0
  0
ARC
  5
486
330
1F
100
AcDbEntity
  8
仕上
  6
Continuous
 62
     3
370
     9
100
AcDbCircle
 10
-195.5114638485834
 20
522.3360219894847
 30
0.0
 40
2.000000025774982
100
AcDbArc
 50
270.0
 51
0.0
  0
ARC
  5
487
330
1F
100
AcDbEntity
  8
仕上
  6
Continuous
 62
     3
370
     9
100
AcDbCircle
 10
-221.1118848262018
 20
474.3359626039273
 30
0.0
 40
2.000000025774982
100
AcDbArc
 50
90.0
 51
180.0
  0
ARC
  5
488
330
1F
100
AcDbEntity
  8
仕上
  6
Continuous
 62
     3
370
     9
100
AcDbCircle
 10
-195.5114638485834
 20
474.3359626039273
 30
0.0
 40
2.000000025774982
100
AcDbArc
 50
0.0
 51
90.0
  0
ARC
  5
489
330
1F
100
AcDbEntity
  8
仕上
  6
Continuous
 62
     3
370
     9
100
AcDbCircle
 10
-183.2050937577893
 20
474.3359626039273
 30
0.0
 40
2.000000025774982
100
AcDbArc
 50
90.0
 51
180.0
  0
ARC
  5
48A
330
1F
100
AcDbEntity
  8
仕上
  6
Continuous
 62
     3
370
     9
100
AcDbCircle
 10
-183.2050937577893
 20
492.3359230135556
 30
0.0
 40
2.000000025774982
100
AcDbArc
 50
90.0
 51
180.0
  0
ARC
  5
48B
330
1F
100
AcDbEntity
  8
仕上
  6
Continuous
 62
     3
370
     9
100
AcDbCircle
 10
-183.2050937577893
 20
486.3360021942991
 30
0.0
 40
2.000000025774982
100
AcDbArc
 50
180.0
 51
270.0
  0
ARC
  5
48C
330
1F
100
AcDbEntity
  8
仕上
  6
Continuous
 62
     3
370
     9
100
AcDbCircle
 10
-183.2050937577893
 20
504.3359626039274
 30
0.0
 40
2.000000025774982
100
AcDbArc
 50
180.0
 51
270.0
  0
ARC
  5
48D
330
1F
100
AcDbEntity
  8
仕上
  6
Continuous
 62
     3
370
     9
100
AcDbCircle
 10
-183.2050937577893
 20
510.335883423184
 30
0.0
 40
2.000000025774982
100
AcDbArc
 50
90.0
 51
180.0
  0
ARC
  5
48E
330
1F
100
AcDbEntity
  8
仕上
  6
Continuous
 62
     3
370
     9
100
AcDbCircle
 10
-134.2542715977389
 20
510.335883423184
 30
0.0
 40
2.000000025774982
100
AcDbArc
 50
0.0
 51
90.0
  0
ARC
  5
48F
330
1F
100
AcDbEntity
  8
仕上
  6
Continuous
 62
     3
370
     9
100
AcDbCircle
 10
-134.2542715977389
 20
504.3359626039274
 30
0.0
 40
2.000000025774982
100
AcDbArc
 50
270.0
 51
0.0
  0
ARC
  5
490
330
1F
100
AcDbEntity
  8
仕上
  6
Continuous
 62
     3
370
     9
100
AcDbCircle
 10
-134.2542715977389
 20
492.3359230135556
 30
0.0
 40
2.000000025774982
100
AcDbArc
 50
0.0
 51
90.0
  0
ARC
  5
491
330
1F
100
AcDbEntity
  8
仕上
  6
Continuous
 62
     3
370
     9
100
AcDbCircle
 10
-134.2542715977389
 20
486.3360021942991
 30
0.0
 40
2.000000025774982
100
AcDbArc
 50
270.0
 51
0.0
  0
ARC
  5
492
330
1F
100
AcDbEntity
  8
仕上
  6
Continuous
 62
     3
370
     9
100
AcDbCircle
 10
-134.2542715977389
 20
474.3361605557854
 30
0.0
 40
2.000000025774982
100
AcDbArc
 50
0.0
 51
90.0
  0
ARC
  5
493
330
1F
100
AcDbEntity
  8
仕上
  6
Continuous
 62
     3
370
     9
100
AcDbCircle
 10
-183.2050937577893
 20
522.3360219894847
 30
0.0
 40
2.000000025774982
100
AcDbArc
 50
180.0
 51
270.0
  0
ARC
  5
494
330
1F
100
AcDbEntity
  8
仕上
  6
Continuous
 62
     3
370
     9
100
AcDbCircle
 10
-183.2050937577893
 20
528.3359428087416
 30
0.0
 40
2.000000025774982
100
AcDbArc
 50
90.0
 51
180.0
  0
ARC
  5
495
330
1F
100
AcDbEntity
  8
仕上
  6
Continuous
 62
     3
370
     9
100
AcDbCircle
 10
-134.2542715977389
 20
528.3359428087416
 30
0.0
 40
2.000000025774982
100
AcDbArc
 50
0.0
 51
90.0
  0
ARC
  5
496
330
1F
100
AcDbEntity
  8
仕上
  6
Continuous
 62
     3
370
     9
100
AcDbCircle
 10
-134.2542715977389
 20
522.3360219894847
 30
0.0
 40
2.000000025774982
100
AcDbArc
 50
270.0
 51
0.0
  0
ARC
  5
497
330
1F
100
AcDbEntity
  8
仕上
  6
Continuous
 62
     3
370
     9
100
AcDbCircle
 10
-183.2050937577893
 20
540.3360813750422
 30
0.0
 40
2.000000025774982
100
AcDbArc
 50
180.0
 51
270.0
  0
ARC
  5
498
330
1F
100
AcDbEntity
  8
仕上
  6
Continuous
 62
     3
370
     9
100
AcDbCircle
 10
-183.2050937577893
 20
545.3357514552787
 30
0.0
 40
2.000000025774982
100
AcDbArc
 50
90.0
 51
180.0
  0
ARC
  5
499
330
1F
100
AcDbEntity
  8
仕上
  6
Continuous
 62
     3
370
     9
100
AcDbCircle
 10
-134.2542715977389
 20
545.3359494071368
 30
0.0
 40
2.000000025774982
100
AcDbArc
 50
0.0
 51
90.0
  0
ARC
  5
49A
330
1F
100
AcDbEntity
  8
仕上
  6
Continuous
 62
     3
370
     9
100
AcDbCircle
 10
-134.2542715977389
 20
540.3360813750422
 30
0.0
 40
2.000000025774982
100
AcDbArc
 50
270.0
 51
0.0
  0
ARC
  5
49B
330
1F
100
AcDbEntity
  8
仕上
  6
Continuous
 62
     3
370
     9
100
AcDbCircle
 10
-244.2836344566919
 20
510.335883423184
 30
0.0
 40
2.000000025774982
100
AcDbArc
 50
90.0
 51
180.0
  0
ARC
  5
49C
330
1F
100
AcDbEntity
  8
仕上
  6
Continuous
 62
     3
370
     9
100
AcDbCircle
 10
-244.2836344566919
 20
504.3359626039274
 30
0.0
 40
2.000000025774982
100
AcDbArc
 50
180.0
 51
270.0
  0
ARC
  5
49D
330
1F
100
AcDbEntity
  8
仕上
  6
Continuous
 62
     3
370
     9
100
AcDbCircle
 10
-195.5114638485834
 20
510.335883423184
 30
0.0
 40
2.000000025774982
100
AcDbArc
 50
0.0
 51
90.0
  0
ARC
  5
49E
330
1F
100
AcDbEntity
  8
仕上
  6
Continuous
 62
     3
370
     9
100
AcDbCircle
 10
-195.5114638485834
 20
504.3359626039274
 30
0.0
 40
2.000000025774982
100
AcDbArc
 50
270.0
 51
0.0
  0
ARC
  5
49F
330
1F
100
AcDbEntity
  8
仕上
  6
Continuous
 62
     3
370
     9
100
AcDbCircle
 10
-126.7687715713451
 20
570.8359098167651
 30
0.0
 40
3.000000038662472
100
AcDbArc
 50
0.0
 51
90.0
  0
ARC
  5
4A0
330
1F
100
AcDbEntity
  8
仕上
  6
Continuous
 62
     3
370
     9
100
AcDbCircle
 10
-195.5114638485834
 20
492.3359230135556
 30
0.0
 40
2.000000025774982
100
AcDbArc
 50
0.0
 51
90.0
  0
ARC
  5
4A1
330
1F
100
AcDbEntity
  8
仕上
  6
Continuous
 62
     3
370
     9
100
AcDbCircle
 10
-195.5114638485834
 20
486.3360021942991
 30
0.0
 40
2.000000025774982
100
AcDbArc
 50
270.0
 51
0.0
  0
ARC
  5
4A2
330
1F
100
AcDbEntity
  8
仕上
  6
Continuous
 62
     3
370
     9
100
AcDbCircle
 10
-226.8259631623505
 20
490.3358174392313
 30
0.0
 40
4.000000051549963
100
AcDbArc
 50
90.0
 51
239.7261505126953
  0
ARC
  5
4A3
330
1F
100
AcDbEntity
  8
仕上
  6
Continuous
 62
     3
370
     9
100
AcDbCircle
 10
-237.9167108925022
 20
471.3360021942991
 30
0.0
 40
18.00000061859956
100
AcDbArc
 50
46.238525390625
 51
59.72659301757812
  0
ARC
  5
4A4
330
1F
100
AcDbEntity
  8
仕上
  6
Continuous
 62
     3
370
     9
100
AcDbCircle
 10
-137.0825582584226
 20
510.335883423184
 30
0.0
 40
2.000000025774982
100
AcDbArc
 50
0.0
 51
90.0
  0
ARC
  5
4A5
330
1F
100
AcDbEntity
  8
仕上
  6
Continuous
 62
     3
370
     9
100
AcDbCircle
 10
-137.0823108186001
 20
504.3359626039274
 30
0.0
 40
2.000000025774982
100
AcDbArc
 50
270.0
 51
0.0
  0
ARC
  5
4A6
330
1F
100
AcDbEntity
  8
仕上
  6
Continuous
 62
     3
370
     9
100
AcDbCircle
 10
-137.0825582584226
 20
492.3359230135556
 30
0.0
 40
2.000000025774982
100
AcDbArc
 50
0.0
 51
90.0
  0
ARC
  5
4A7
330
1F
100
AcDbEntity
  8
仕上
  6
Continuous
 62
     3
370
     9
100
AcDbCircle
 10
-137.0823108186001
 20
486.3360021942991
 30
0.0
 40
2.000000025774982
100
AcDbArc
 50
270.0
 51
0.0
  0
ARC
  5
4A8
330
1F
100
AcDbEntity
  8
仕上
  6
Continuous
 62
     3
370
     9
100
AcDbCircle
 10
-137.0825582584226
 20
474.3361605557854
 30
0.0
 40
2.000000025774982
100
AcDbArc
 50
0.0
 51
90.0
  0
ARC
  5
4A9
330
1F
100
AcDbEntity
  8
仕上
  6
Continuous
 62
     3
370
     9
100
AcDbCircle
 10
-137.0825582584226
 20
528.3359428087416
 30
0.0
 40
2.000000025774982
100
AcDbArc
 50
0.0
 51
90.0
  0
ARC
  5
4AA
330
1F
100
AcDbEntity
  8
仕上
  6
Continuous
 62
     3
370
     9
100
AcDbCircle
 10
-137.0823108186001
 20
522.3360219894847
 30
0.0
 40
2.000000025774982
100
AcDbArc
 50
270.0
 51
0.0
  0
ARC
  5
4AB
330
1F
100
AcDbEntity
  8
仕上
  6
Continuous
 62
     3
370
     9
100
AcDbCircle
 10
-137.0823108186001
 20
545.3359494071368
 30
0.0
 40
2.000000025774982
100
AcDbArc
 50
0.0
 51
90.0
  0
ARC
  5
4AC
330
1F
100
AcDbEntity
  8
仕上
  6
Continuous
 62
     3
370
     9
100
AcDbCircle
 10
-137.0823108186001
 20
540.3360813750422
 30
0.0
 40
2.000000025774982
100
AcDbArc
 50
270.0
 51
0.0
  0
ARC
  5
4AD
330
1F
100
AcDbEntity
  8
仕上
  6
Continuous
 62
     3
370
     9
100
AcDbCircle
 10
-198.339701021303
 20
545.3359494071368
 30
0.0
 40
2.000000025774982
100
AcDbArc
 50
0.0
 51
90.0
  0
ARC
  5
4AE
330
1F
100
AcDbEntity
  8
仕上
  6
Continuous
 62
     3
370
     9
100
AcDbCircle
 10
-198.339701021303
 20
540.3360813750422
 30
0.0
 40
2.000000025774982
100
AcDbArc
 50
270.0
 51
0.0
  0
ARC
  5
4AF
330
1F
100
AcDbEntity
  8
仕上
  6
Continuous
 62
     3
370
     9
100
AcDbCircle
 10
-198.339701021303
 20
528.3359428087416
 30
0.0
 40
2.000000025774982
100
AcDbArc
 50
0.0
 51
90.0
  0
ARC
  5
4B0
330
1F
100
AcDbEntity
  8
仕上
  6
Continuous
 62
     3
370
     9
100
AcDbCircle
 10
-198.339701021303
 20
522.3360219894847
 30
0.0
 40
2.000000025774982
100
AcDbArc
 50
270.0
 51
0.0
  0
ARC
  5
4B1
330
1F
100
AcDbEntity
  8
仕上
  6
Continuous
 62
     3
370
     9
100
AcDbCircle
 10
-198.339701021303
 20
474.3359626039273
 30
0.0
 40
2.000000025774982
100
AcDbArc
 50
0.0
 51
90.0
  0
ARC
  5
4B2
330
1F
100
AcDbEntity
  8
仕上
  6
Continuous
 62
     3
370
     9
100
AcDbCircle
 10
-198.339701021303
 20
510.335883423184
 30
0.0
 40
2.000000025774982
100
AcDbArc
 50
0.0
 51
90.0
  0
ARC
  5
4B3
330
1F
100
AcDbEntity
  8
仕上
  6
Continuous
 62
     3
370
     9
100
AcDbCircle
 10
-198.339701021303
 20
504.3359626039274
 30
0.0
 40
2.000000025774982
100
AcDbArc
 50
270.0
 51
0.0
  0
ARC
  5
4B4
330
1F
100
AcDbEntity
  8
仕上
  6
Continuous
 62
     3
370
     9
100
AcDbCircle
 10
-198.339701021303
 20
492.3359230135556
 30
0.0
 40
2.000000025774982
100
AcDbArc
 50
0.0
 51
90.0
  0
ARC
  5
4B5
330
1F
100
AcDbEntity
  8
仕上
  6
Continuous
 62
     3
370
     9
100
AcDbCircle
 10
-198.339701021303
 20
486.3360021942991
 30
0.0
 40
2.000000025774982
100
AcDbArc
 50
270.0
 51
0.0
  0
ARC
  5
4B6
330
1F
100
AcDbEntity
  8
躯体
  6
Continuous
 62
     6
370
     9
100
AcDbCircle
 10
-133.2816351429242
 20
571.3360351862756
 30
0.0
 40
3.000000038662472
100
AcDbArc
 50
56.44561767578125
 51
90.0
  0
ARC
  5
4B7
330
1F
100
AcDbEntity
  8
仕上
  6
Continuous
 62
     3
370
     9
100
AcDbCircle
 10
-252.7688408544956
 20
481.0637524054477
 30
0.0
 40
2.000000025774982
100
AcDbArc
 50
82.71151733398436
 51
119.9822082519531
  0
ARC
  5
4B8
330
1F
100
AcDbEntity
  8
061
  6
Continuous
 62
     2
370
     9
100
AcDbCircle
 10
-260.1687267022572
 20
471.3360021942991
 30
0.0
 40
10.00000051549963
100
AcDbArc
 50
2.745910644531237
 51
36.86987304687499
  0
LINE
  5
4B9
330
1F
100
AcDbEntity
  8
通り芯
  6
JWW_CENTER1
 62
     4
370
     9
100
AcDbLine
 10
-283.1323856285054
 20
622.3360021942991
 30
0.0
 11
-322.3020604688633
 21
622.3360021942991
 31
0.0
  0
LINE
  5
4BA
330
1F
100
AcDbEntity
  8
躯体
  6
Continuous
 62
     6
370
     9
100
AcDbLine
 10
-268.7680523462606
 20
471.3360021942991
 30
0.0
 11
-268.7680523462606
 21
581.3360681782518
 31
0.0
  0
LINE
  5
4BB
330
1F
100
AcDbEntity
  8
躯体
  6
Continuous
 62
     6
370
     9
100
AcDbLine
 10
-260.7683228804668
 20
471.3360021942991
 30
0.0
 11
-260.7683228804668
 21
473.6013632584883
 31
0.0
  0
LINE
  5
4BC
330
1F
100
AcDbEntity
  8
仕上
  6
Continuous
 62
     3
370
     9
100
AcDbLine
 10
-260.2686923906018
 20
471.3360021942991
 30
0.0
 11
-260.2686923906018
 21
474.9234837187922
 31
0.0
  0
LINE
  5
4BD
330
1F
100
AcDbEntity
  8
仕上
  6
Continuous
 62
     3
370
     9
100
AcDbLine
 10
-255.7685538243014
 20
476.0501267192145
 30
0.0
 11
-255.7685538243014
 21
471.3360021942991
 31
0.0
  0
LINE
  5
4BE
330
1F
100
AcDbEntity
  8
仕上
  6
Continuous
 62
     3
370
     9
100
AcDbLine
 10
-254.7686495010327
 20
476.3380476968327
 30
0.0
 11
-254.7686495010327
 21
471.3360021942991
 31
0.0
  0
LINE
  5
4BF
330
1F
100
AcDbEntity
  8
061
  6
Continuous
 62
     2
370
     9
100
AcDbLine
 10
-252.1685518447827
 20
471.8149467149914
 30
0.0
 11
-252.1685518447827
 21
471.3360021942991
 31
0.0
  0
ARC
  5
4C0
330
1F
100
AcDbEntity
  8
仕上
  6
Continuous
 62
     3
370
     9
100
AcDbCircle
 10
-238.7686956897993
 20
471.3360021942991
 30
0.0
 40
10.00000051549963
100
AcDbArc
 50
0.0
 51
82.71125793457033
  0
LINE
  5
4C1
330
1F
100
AcDbEntity
  8
仕上
  6
Continuous
 62
     3
370
     9
100
AcDbLine
 10
-223.1119409125614
 20
474.3359626039273
 30
0.0
 11
-223.1119409125614
 21
471.3360021942991
 31
0.0
  0
LINE
  5
4C2
330
1F
100
AcDbEntity
  8
仕上
  6
Continuous
 62
     3
370
     9
100
AcDbLine
 10
-196.3396944229076
 20
474.3359626039273
 30
0.0
 11
-196.3396944229076
 21
471.3360021942991
 31
0.0
  0
LINE
  5
4C3
330
1F
100
AcDbEntity
  8
仕上
  6
Continuous
 62
     3
370
     9
100
AcDbLine
 10
-193.511457250188
 20
474.3359626039273
 30
0.0
 11
-193.511457250188
 21
471.3360021942991
 31
0.0
  0
LINE
  5
4C4
330
1F
100
AcDbEntity
  8
仕上
  6
Continuous
 62
     3
370
     9
100
AcDbLine
 10
-185.2051003561847
 20
474.3361605557854
 30
0.0
 11
-185.2051003561847
 21
471.3360021942991
 31
0.0
  0
LINE
  5
4C5
330
1F
100
AcDbEntity
  8
仕上
  6
Continuous
 62
     3
370
     9
100
AcDbLine
 10
-135.082502172063
 20
474.3359626039273
 30
0.0
 11
-135.082502172063
 21
471.3360021942991
 31
0.0
  0
LINE
  5
4C6
330
1F
100
AcDbEntity
  8
仕上
  6
Continuous
 62
     3
370
     9
100
AcDbLine
 10
-132.2539680715564
 20
474.3359626039273
 30
0.0
 11
-132.2539680715564
 21
471.3360021942991
 31
0.0
  0
LINE
  5
4C7
330
1F
100
AcDbEntity
  8
仕上
  6
Continuous
 62
     3
370
     9
100
AcDbLine
 10
-123.7688111617168
 20
570.8359098167651
 30
0.0
 11
-123.7685567829081
 21
471.3360021942991
 31
0.0
  0
LINE
  5
4C8
330
1F
100
AcDbEntity
  8
躯体
  6
Continuous
 62
     6
370
     9
100
AcDbLine
 10
-113.7682338021305
 20
471.3360021942991
 30
0.0
 11
-113.7682338021305
 21
573.8358702263937
 31
0.0
  0
ARC
  5
4C9
330
1F
100
AcDbEntity
  8
通り芯
  6
JWW_DASHED1
 62
     4
370
     9
100
AcDbCircle
 10
-68.76826019571132
 20
306.3362001461573
 30
0.0
 40
14.99999845350111
100
AcDbArc
 50
270.0
 51
0.0
  0
LINE
  5
4CA
330
1F
100
AcDbEntity
  8
通り芯
  6
JWW_DASHED1
 62
     4
370
     9
100
AcDbLine
 10
-68.76826019571132
 20
291.33590321837
 30
0.0
 11
-289.7681975109564
 21
291.33590321837
 31
0.0
  0
LINE
  5
4CB
330
1F
100
AcDbEntity
  8
通り芯
  6
JWW_DASHED1
 62
     4
370
     9
100
AcDbLine
 10
-53.76821070774673
 20
306.3362001461573
 30
0.0
 11
-53.76821070774673
 21
471.3360021942991
 31
0.0
  0
ARC
  5
4CC
330
1F
100
AcDbEntity
  8
通り芯
  6
JWW_DASHED1
 62
     4
370
     9
100
AcDbCircle
 10
-68.76826019571132
 20
636.3358042424408
 30
0.0
 40
14.99999845350111
100
AcDbArc
 50
0.0
 51
90.0
  0
LINE
  5
4CD
330
1F
100
AcDbEntity
  8
通り芯
  6
JWW_DASHED1
 62
     4
370
     9
100
AcDbLine
 10
-68.76826019571132
 20
651.3361011702281
 30
0.0
 11
-289.7681975109564
 21
651.3361011702281
 31
0.0
  0
LINE
  5
4CE
330
1F
100
AcDbEntity
  8
通り芯
  6
JWW_DASHED1
 62
     4
370
     9
100
AcDbLine
 10
-289.7681975109564
 20
471.3360021942991
 30
0.0
 11
-289.7681975109564
 21
651.3361011702281
 31
0.0
  0
LINE
  5
4CF
330
1F
100
AcDbEntity
  8
通り芯
  6
JWW_DASHED1
 62
     4
370
     9
100
AcDbLine
 10
-53.76821070774673
 20
636.3358042424408
 30
0.0
 11
-53.76821070774673
 21
471.3360021942991
 31
0.0
  0
LINE
  5
4D0
330
1F
100
AcDbEntity
  8
051
  6
JWW_DASHED1
 62
     3
370
     9
100
AcDbLine
 10
-40.3679679221496
 20
230.336002194299
 30
0.0
 11
-272.1679679221498
 21
230.336002194299
 31
0.0
  0
LINE
  5
4D1
330
1F
100
AcDbEntity
  8
051
  6
JWW_DASHED1
 62
     3
370
     9
100
AcDbLine
 10
-40.3679679221496
 20
275.3360021942991
 30
0.0
 11
-272.1679679221498
 21
275.3360021942991
 31
0.0
  0
LINE
  5
4D2
330
1F
100
AcDbEntity
  8
051
  6
JWW_DASHED1
 62
     3
370
     9
100
AcDbLine
 10
-272.1679679221498
 20
280.3360021942991
 30
0.0
 11
-272.1679679221498
 21
230.336002194299
 31
0.0
  0
LINE
  5
4D3
330
1F
100
AcDbEntity
  8
051
  6
JWW_DASHED1
 62
     3
370
     9
100
AcDbLine
 10
-272.1679679221498
 20
280.3360021942991
 30
0.0
 11
-273.7679679221498
 21
280.3360021942991
 31
0.0
  0
LINE
  5
4D4
330
1F
100
AcDbEntity
  8
051
  6
JWW_DASHED1
 62
     3
370
     9
100
AcDbLine
 10
-40.3679679221496
 20
280.3360021942991
 30
0.0
 11
-40.3679679221496
 21
230.336002194299
 31
0.0
  0
LINE
  5
4D5
330
1F
100
AcDbEntity
  8
051
  6
JWW_DASHED1
 62
     3
370
     9
100
AcDbLine
 10
-38.76796792214969
 20
280.3360021942991
 30
0.0
 11
-40.3679679221496
 21
280.3360021942991
 31
0.0
  0
LINE
  5
4D6
330
1F
100
AcDbEntity
  8
051
  6
JWW_DASHED1
 62
     3
370
     9
100
AcDbLine
 10
-273.7679679221498
 20
291.33590321837
 30
0.0
 11
-273.7679679221498
 21
280.3360021942991
 31
0.0
  0
CIRCLE
  5
4D7
330
1F
100
AcDbEntity
  8
051
  6
JWW_DASHED1
 62
     3
370
     9
100
AcDbCircle
 10
-257.1679476556502
 20
245.3361215545564
 30
0.0
 40
2.099999941914238
  0
CIRCLE
  5
4D8
330
1F
100
AcDbEntity
  8
051
  6
JWW_DASHED1
 62
     3
370
     9
100
AcDbCircle
 10
-55.36798818864969
 20
245.3361215545564
 30
0.0
 40
2.099999941914238
  0
LINE
  5
4D9
330
1F
100
AcDbEntity
  8
051
  6
JWW_DASHED1
 62
     3
370
     9
100
AcDbLine
 10
-38.76796792214969
 20
471.3360021942991
 30
0.0
 11
-38.76796792214969
 21
280.3360021942991
 31
0.0
  0
LINE
  5
4DA
330
1F
100
AcDbEntity
  8
051
  6
JWW_DASHED1
 62
     3
370
     9
100
AcDbLine
 10
-40.3679679221496
 20
712.3360021942991
 30
0.0
 11
-272.1679679221498
 21
712.3360021942991
 31
0.0
  0
LINE
  5
4DB
330
1F
100
AcDbEntity
  8
051
  6
JWW_DASHED1
 62
     3
370
     9
100
AcDbLine
 10
-40.3679679221496
 20
667.3360021942991
 30
0.0
 11
-272.1679679221498
 21
667.3360021942991
 31
0.0
  0
LINE
  5
4DC
330
1F
100
AcDbEntity
  8
051
  6
JWW_DASHED1
 62
     3
370
     9
100
AcDbLine
 10
-272.1679679221498
 20
662.3360021942991
 30
0.0
 11
-272.1679679221498
 21
712.3360021942991
 31
0.0
  0
LINE
  5
4DD
330
1F
100
AcDbEntity
  8
051
  6
JWW_DASHED1
 62
     3
370
     9
100
AcDbLine
 10
-272.1679679221498
 20
662.3360021942991
 30
0.0
 11
-273.7679679221498
 21
662.3360021942991
 31
0.0
  0
LINE
  5
4DE
330
1F
100
AcDbEntity
  8
051
  6
JWW_DASHED1
 62
     3
370
     9
100
AcDbLine
 10
-40.3679679221496
 20
662.3360021942991
 30
0.0
 11
-40.3679679221496
 21
712.3360021942991
 31
0.0
  0
LINE
  5
4DF
330
1F
100
AcDbEntity
  8
051
  6
JWW_DASHED1
 62
     3
370
     9
100
AcDbLine
 10
-38.76796792214969
 20
662.3360021942991
 30
0.0
 11
-40.3679679221496
 21
662.3360021942991
 31
0.0
  0
LINE
  5
4E0
330
1F
100
AcDbEntity
  8
051
  6
JWW_DASHED1
 62
     3
370
     9
100
AcDbLine
 10
-273.7679679221498
 20
651.3361011702281
 30
0.0
 11
-273.7679679221498
 21
662.3360021942991
 31
0.0
  0
CIRCLE
  5
4E1
330
1F
100
AcDbEntity
  8
051
  6
JWW_DASHED1
 62
     3
370
     9
100
AcDbCircle
 10
-257.1679476556502
 20
697.3358828340419
 30
0.0
 40
2.099999941914238
  0
CIRCLE
  5
4E2
330
1F
100
AcDbEntity
  8
051
  6
JWW_DASHED1
 62
     3
370
     9
100
AcDbCircle
 10
-55.36798818864969
 20
697.3358828340419
 30
0.0
 40
2.099999941914238
  0
LINE
  5
4E3
330
1F
100
AcDbEntity
  8
051
  6
JWW_DASHED1
 62
     3
370
     9
100
AcDbLine
 10
-38.76796792214969
 20
471.3360021942991
 30
0.0
 11
-38.76796792214969
 21
662.3360021942991
 31
0.0
  0
LINE
  5
4E4
330
1F
100
AcDbEntity
  8
051
  6
JWW_CENTER1
 62
     3
370
     9
100
AcDbLine
 10
-257.1679476556502
 20
702.0189457609273
 30
0.0
 11
-257.1679476556502
 21
692.8460220682692
 31
0.0
  0
LINE
  5
4E5
330
1F
100
AcDbEntity
  8
051
  6
JWW_CENTER1
 62
     3
370
     9
100
AcDbLine
 10
-252.6754133463575
 20
697.3358828340419
 30
0.0
 11
-261.7218139535995
 21
697.3358828340419
 31
0.0
  0
LINE
  5
4E6
330
1F
100
AcDbEntity
  8
051
  6
JWW_CENTER1
 62
     3
370
     9
100
AcDbLine
 10
-55.36798818864969
 20
702.2764628681408
 30
0.0
 11
-55.36798818864969
 21
692.3747891572363
 31
0.0
  0
LINE
  5
4E7
330
1F
100
AcDbEntity
  8
051
  6
JWW_CENTER1
 62
     3
370
     9
100
AcDbLine
 10
-60.09252136139509
 20
697.3358828340419
 30
0.0
 11
-50.48350795721677
 21
697.3358828340419
 31
0.0
  0
LINE
  5
4E8
330
1F
100
AcDbEntity
  8
051
  6
JWW_CENTER1
 62
     3
370
     9
100
AcDbLine
 10
-55.36798818864969
 20
240.3955415204574
 30
0.0
 11
-55.36798818864969
 21
250.2972152313618
 31
0.0
  0
LINE
  5
4E9
330
1F
100
AcDbEntity
  8
051
  6
JWW_CENTER1
 62
     3
370
     9
100
AcDbLine
 10
-60.09252136139509
 20
245.3361215545564
 30
0.0
 11
-50.48350795721677
 21
245.3361215545564
 31
0.0
  0
LINE
  5
4EA
330
1F
100
AcDbEntity
  8
051
  6
JWW_CENTER1
 62
     3
370
     9
100
AcDbLine
 10
-257.1679476556502
 20
240.6530586276709
 30
0.0
 11
-257.1679476556502
 21
249.8259823203288
 31
0.0
  0
LINE
  5
4EB
330
1F
100
AcDbEntity
  8
051
  6
JWW_CENTER1
 62
     3
370
     9
100
AcDbLine
 10
-252.6754133463575
 20
245.3361215545564
 30
0.0
 11
-261.7218139535995
 21
245.3361215545564
 31
0.0
  0
LINE
  5
4EC
330
1F
100
AcDbEntity
  8
通り芯
  6
JWW_CENTER1
 62
     4
370
     9
100
AcDbLine
 10
-29.2742433756444
 20
471.3360021942991
 30
0.0
 11
-534.4312362674593
 21
471.3360021942991
 31
0.0
  0
LINE
  5
4ED
330
1F
100
AcDbEntity
  8
仕上
  6
Continuous
 62
     3
370
     9
100
AcDbLine
 10
-543.3080362674593
 20
467.1944021942991
 30
0.0
 11
-525.4680362674594
 21
475.4784021942991
 31
0.0
  0
LINE
  5
4EE
330
1F
100
AcDbEntity
  8
仕上
  6
Continuous
 62
     3
370
     9
100
AcDbLine
 10
-543.3080362674593
 20
467.1944021942991
 30
0.0
 11
-534.4600362674594
 21
467.1944021942991
 31
0.0
  0
LINE
  5
4EF
330
1F
100
AcDbEntity
  8
仕上
  6
Continuous
 62
     3
370
     9
100
AcDbLine
 10
-525.4680362674594
 20
475.4784021942991
 30
0.0
 11
-534.4600362674594
 21
475.4784021942991
 31
0.0
  0
LINE
  5
4F0
330
1F
100
AcDbEntity
  8
仕上
  6
Continuous
 62
     3
370
     9
100
AcDbLine
 10
-534.4600362674594
 20
475.4784021942991
 30
0.0
 11
-534.4600362674594
 21
548.3360021942991
 31
0.0
  0
LINE
  5
4F1
330
1F
100
AcDbEntity
  8
仕上
  6
Continuous
 62
     3
370
     9
100
AcDbLine
 10
-534.4600362674594
 20
394.3360021942991
 30
0.0
 11
-534.4600362674594
 21
467.1944021942991
 31
0.0
  0
LWPOLYLINE
  5
4F2
330
1F
100
AcDbEntity
  8
その他
  6
Continuous
 62
     7
370
     9
100
AcDbPolyline
 90
        4
 70
     1
 43
0.4
 10
80.44968954750654
 20
712.3360021942991
 42
0.4142135623731
 10
80.24968954750653
 20
712.5360021942992
 42
0.4142135623731
 10
80.04968954750653
 20
712.3360021942991
 42
0.4142135623731
 10
80.24968954750653
 20
712.1360021942991
 42
0.4142135623731
  0
LWPOLYLINE
  5
4F3
330
1F
100
AcDbEntity
  8
その他
  6
Continuous
 62
     7
370
     9
100
AcDbPolyline
 90
        4
 70
     1
 43
0.4
 10
80.44968954750648
 20
230.336002194299
 42
0.4142135623731
 10
80.24968954750648
 20
230.536002194299
 42
0.4142135623731
 10
80.04968954750647
 20
230.336002194299
 42
0.4142135623731
 10
80.24968954750648
 20
230.136002194299
 42
0.4142135623731
  0
LINE
  5
4F4
330
1F
100
AcDbEntity
  8
その他
  6
Continuous
 62
     7
370
     9
100
AcDbLine
 10
81.44968954750652
 20
712.3360021942991
 30
0.0
 11
-32.3679679221496
 21
712.3360021942991
 31
0.0
  0
LINE
  5
4F5
330
1F
100
AcDbEntity
  8
その他
  6
Continuous
 62
     7
370
     9
100
AcDbLine
 10
81.4496895475065
 20
230.336002194299
 30
0.0
 11
-32.3679679221496
 21
230.3360021942991
 31
0.0
  0
LWPOLYLINE
  5
4F6
330
1F
100
AcDbEntity
  8
その他
  6
Continuous
 62
     7
370
     9
100
AcDbPolyline
 90
        4
 70
     1
 43
0.4
 10
50.44968954750651
 20
651.3361011702281
 42
0.4142135623731
 10
50.24968954750651
 20
651.5361011702281
 42
0.4142135623731
 10
50.0496895475065
 20
651.3361011702281
 42
0.4142135623731
 10
50.24968954750651
 20
651.136101170228
 42
0.4142135623731
  0
LWPOLYLINE
  5
4F7
330
1F
100
AcDbEntity
  8
その他
  6
Continuous
 62
     7
370
     9
100
AcDbPolyline
 90
        4
 70
     1
 43
0.4
 10
50.44968954750651
 20
291.33590321837
 42
0.4142135623731
 10
50.24968954750651
 20
291.53590321837
 42
0.4142135623731
 10
50.0496895475065
 20
291.33590321837
 42
0.4142135623731
 10
50.24968954750651
 20
291.13590321837
 42
0.4142135623731
  0
LINE
  5
4F8
330
1F
100
AcDbEntity
  8
その他
  6
Continuous
 62
     7
370
     9
100
AcDbLine
 10
51.44968954750649
 20
651.3361011702281
 30
0.0
 11
-60.76826019571132
 21
651.3361011702281
 31
0.0
  0
LINE
  5
4F9
330
1F
100
AcDbEntity
  8
その他
  6
Continuous
 62
     7
370
     9
100
AcDbLine
 10
51.44968954750649
 20
291.33590321837
 30
0.0
 11
-60.76826019571132
 21
291.33590321837
 31
0.0
  0
LWPOLYLINE
  5
4FA
330
1F
100
AcDbEntity
  8
その他
  6
Continuous
 62
     7
370
     9
100
AcDbPolyline
 90
        4
 70
     1
 43
0.4
 10
20.44968954750651
 20
573.8359098554275
 42
0.4142135623731
 10
20.24968954750651
 20
574.0359098554276
 42
0.4142135623731
 10
20.04968954750651
 20
573.8359098554275
 42
0.4142135623731
 10
20.24968954750651
 20
573.6359098554275
 42
0.4142135623731
  0
LWPOLYLINE
  5
4FB
330
1F
100
AcDbEntity
  8
その他
  6
Continuous
 62
     7
370
     9
100
AcDbPolyline
 90
        4
 70
     1
 43
0.4
 10
20.44968954750651
 20
368.8360945331704
 42
0.4142135623731
 10
20.24968954750651
 20
369.0360945331704
 42
0.4142135623731
 10
20.04968954750651
 20
368.8360945331704
 42
0.4142135623731
 10
20.24968954750651
 20
368.6360945331704
 42
0.4142135623731
  0
LINE
  5
4FC
330
1F
100
AcDbEntity
  8
その他
  6
Continuous
 62
     7
370
     9
100
AcDbLine
 10
21.44968954750655
 20
573.8359098554275
 30
0.0
 11
-118.7687715713451
 21
573.8359098554275
 31
0.0
  0
LINE
  5
4FD
330
1F
100
AcDbEntity
  8
その他
  6
Continuous
 62
     7
370
     9
100
AcDbLine
 10
21.44968954750655
 20
368.8360945331704
 30
0.0
 11
-118.7687715713451
 21
368.8360945331704
 31
0.0
  0
LINE
  5
4FE
330
1F
100
AcDbEntity
  8
その他
  6
Continuous
 62
     7
370
     9
100
AcDbLine
 10
80.24968954750653
 20
712.3360021942991
 30
0.0
 11
80.24968954750648
 21
230.336002194299
 31
0.0
  0
TEXT
  5
4FF
330
1F
100
AcDbEntity
  8
その他
  6
Continuous
 62
     2
370
   211
100
AcDbText
 10
73.9936895475065
 20
458.3360021942991
 30
0.0
 40
12.192
  1
482
 50
90.0
 41
1.083333333333333
  7
ＭＳ ゴシック
100
AcDbText
  0
LINE
  5
500
330
1F
100
AcDbEntity
  8
その他
  6
Continuous
 62
     7
370
     9
100
AcDbLine
 10
50.24968954750651
 20
651.3361011702281
 30
0.0
 11
50.24968954750651
 21
291.33590321837
 31
0.0
  0
TEXT
  5
501
330
1F
100
AcDbEntity
  8
その他
  6
Continuous
 62
     2
370
   211
100
AcDbText
 10
43.99368954750651
 20
458.3360021942989
 30
0.0
 40
12.192
  1
360
 50
90.0
 41
1.083333333333333
  7
ＭＳ ゴシック
100
AcDbText
  0
LINE
  5
502
330
1F
100
AcDbEntity
  8
その他
  6
Continuous
 62
     7
370
     9
100
AcDbLine
 10
20.24968954750651
 20
573.8359098554275
 30
0.0
 11
20.24968954750651
 21
368.8360945331704
 31
0.0
  0
TEXT
  5
503
330
1F
100
AcDbEntity
  8
その他
  6
Continuous
 62
     2
370
   211
100
AcDbText
 10
13.99368954750651
 20
458.3360021942991
 30
0.0
 40
12.192
  1
205
 50
90.0
 41
1.083333333333333
  7
ＭＳ ゴシック
100
AcDbText
  0
LINE
  5
504
330
1F
100
AcDbEntity
  8
090
  6
Continuous
 62
     7
370
     9
100
AcDbLine
 10
-268.7681018342251
 20
180.336002194299
 30
0.0
 11
-268.7681018342251
 21
762.3360021942991
 31
0.0
  0
LINE
  5
505
330
1F
100
AcDbEntity
  8
その他
  6
Continuous
 62
     7
370
     9
100
AcDbLine
 10
-275.4347685008918
 20
180.336002194299
 30
0.0
 11
-275.4347685008918
 21
762.3360021942991
 31
0.0
  0
LINE
  5
506
330
1F
100
AcDbEntity
  8
その他
  6
Continuous
 62
     7
370
     9
100
AcDbLine
 10
-272.1014351675585
 20
180.336002194299
 30
0.0
 11
-272.1014351675585
 21
762.3360021942991
 31
0.0
  0
LINE
  5
507
330
1F
100
AcDbEntity
  8
092
  6
Continuous
 62
     6
370
     9
100
AcDbLine
 10
-398.0693065903446
 20
72.0752745903693
 30
0.0
 11
-418.7680127558889
 21
51.37656842482492
 31
0.0
  0
LINE
  5
508
330
1F
100
AcDbEntity
  8
092
  6
Continuous
 62
     6
370
     9
100
AcDbLine
 10
-393.8266659032252
 20
72.0752745903693
 30
0.0
 11
-418.7680127558889
 21
47.13392773770558
 31
0.0
  0
LINE
  5
509
330
1F
100
AcDbEntity
  8
092
  6
Continuous
 62
     6
370
     9
100
AcDbLine
 10
-389.5840252161059
 20
72.0752745903693
 30
0.0
 11
-418.7680127558889
 21
42.89128705058621
 31
0.0
  0
LINE
  5
50A
330
1F
100
AcDbEntity
  8
092
  6
Continuous
 62
     6
370
     9
100
AcDbLine
 10
-284.2681546213877
 20
-160.1126413021557
 30
0.0
 11
-304.2032562257143
 21
-180.0477429064824
 31
0.0
  0
LINE
  5
50B
330
1F
100
AcDbEntity
  8
092
  6
Continuous
 62
     6
370
     9
100
AcDbLine
 10
-284.2681546213877
 20
-164.3552819892751
 30
0.0
 11
-299.8724134814102
 21
-179.9595408492976
 31
0.0
  0
LINE
  5
50C
330
1F
100
AcDbEntity
  8
092
  6
Continuous
 62
     6
370
     9
100
AcDbLine
 10
-284.2681546213877
 20
-168.5979226763942
 30
0.0
 11
-295.5415707371062
 21
-179.8713387921128
 31
0.0
  0
LINE
  5
50D
330
1F
100
AcDbEntity
  8
092
  6
Continuous
 62
     6
370
     9
100
AcDbLine
 10
-306.7387832515594
 20
-336.1317174328362
 30
0.0
 11
-418.7680127558889
 21
-448.1609469371659
 31
0.0
  0
LINE
  5
50E
330
1F
100
AcDbEntity
  8
092
  6
Continuous
 62
     6
370
     9
100
AcDbLine
 10
-302.4079611945394
 20
-336.0435360629355
 30
0.0
 11
-418.7680127558889
 21
-452.4035876242852
 31
0.0
  0
LINE
  5
50F
330
1F
100
AcDbEntity
  8
092
  6
Continuous
 62
     6
370
     9
100
AcDbLine
 10
-298.0771391375195
 20
-335.9553546930348
 30
0.0
 11
-418.7680127558889
 21
-456.6462283114046
 31
0.0
  0
LINE
  5
510
330
1F
100
AcDbEntity
  8
092
  6
Continuous
 62
     6
370
     9
100
AcDbLine
 10
-281.0680068526818
 20
-488.9431315975448
 30
0.0
 11
-356.2090486088363
 21
-564.0841733536995
 31
0.0
  0
LINE
  5
511
330
1F
100
AcDbEntity
  8
092
  6
Continuous
 62
     6
370
     9
100
AcDbLine
 10
-281.0680068526818
 20
-484.7004909104257
 30
0.0
 11
-360.4516892959556
 21
-564.0841733536995
 31
0.0
  0
LINE
  5
512
330
1F
100
AcDbEntity
  8
092
  6
Continuous
 62
     6
370
     9
100
AcDbLine
 10
-281.0680068526818
 20
-480.4578502233064
 30
0.0
 11
-364.6943299830749
 21
-564.0841733536995
 31
0.0
  0
TEXT
  5
513
330
1F
100
AcDbEntity
  8
寸法
  6
Continuous
 62
     3
370
   211
100
AcDbText
 10
-299.7214612872298
 20
139.8892524147909
 30
0.0
 40
15.24
  1
平面図　Ｓ＝１：４
 50
0.0000000000000142
 41
1.088888888888889
  7
ＭＳ ゴシック
100
AcDbText
  0
LINE
  5
514
330
1F
100
AcDbEntity
  8
寸法
  6
Continuous
 62
     7
370
     9
100
AcDbLine
 10
-302.7498034126942
 20
132.0825148298429
 30
0.0
 11
-101.5340915572887
 21
132.0825148298429
 31
0.0
  0
LINE
  5
515
330
1F
100
AcDbEntity
  8
寸法
  6
Continuous
 62
     7
370
     9
100
AcDbLine
 10
-53.76821070774673
 20
-325.4175048649804
 30
0.0
 11
-47.68059641765973
 21
-333.3510382678928
 31
0.0
  0
LINE
  5
516
330
1F
100
AcDbEntity
  8
寸法
  6
Continuous
 62
     7
370
     9
100
AcDbLine
 10
-53.76821070774673
 20
-325.4175048649804
 30
0.0
 11
-49.9413763840958
 21
-334.6563001900931
 31
0.0
  0
LINE
  5
517
330
1F
100
AcDbEntity
  8
寸法
  6
Continuous
 62
     7
370
     9
100
AcDbLine
 10
-27.77070914252329
 20
-370.446498445799
 30
0.0
 11
-53.76821070774673
 21
-325.4175048649804
 31
0.0
  0
LINE
  5
518
330
1F
100
AcDbEntity
  8
寸法
  6
Continuous
 62
     7
370
     9
100
AcDbLine
 10
-27.77070914252329
 20
-370.446498445799
 30
0.0
 11
12.95604924893848
 21
-370.446498445799
 31
0.0
  0
TEXT
  5
519
330
1F
100
AcDbEntity
  8
寸法
  6
Continuous
 62
     2
370
   211
100
AcDbText
 10
-24.21276306288144
 20
-364.6605971978688
 30
0.0
 40
12.192
  1
本体
 41
1.062499999999998
  7
ＭＳ ゴシック
100
AcDbText
  0
LWPOLYLINE
  5
51A
330
1F
100
AcDbEntity
  8
その他
  6
Continuous
 62
     7
370
     9
100
AcDbPolyline
 90
        4
 70
     1
 43
0.4
 10
-322.5682568965144
 20
-69.89582577975584
 42
0.4142135623731
 10
-322.7682568965143
 20
-69.69582577975584
 42
0.4142135623731
 10
-322.9682568965143
 20
-69.89582577975584
 42
0.4142135623731
 10
-322.7682568965143
 20
-70.09582577975584
 42
0.4142135623731
  0
LWPOLYLINE
  5
51B
330
1F
100
AcDbEntity
  8
その他
  6
Continuous
 62
     7
370
     9
100
AcDbPolyline
 90
        4
 70
     1
 43
0.4
 10
-278.5680127558889
 20
-69.89582577975584
 42
0.4142135623731
 10
-278.7680127558889
 20
-69.69582577975584
 42
0.4142135623731
 10
-278.9680127558889
 20
-69.89582577975584
 42
0.4142135623731
 10
-278.7680127558889
 20
-70.09582577975584
 42
0.4142135623731
  0
LINE
  5
51C
330
1F
100
AcDbEntity
  8
その他
  6
Continuous
 62
     7
370
     9
100
AcDbLine
 10
-322.7682568965143
 20
-68.69582577975584
 30
0.0
 11
-322.7682568965143
 21
-175.9266139496511
 31
0.0
  0
LWPOLYLINE
  5
51D
330
1F
100
AcDbEntity
  8
その他
  6
Continuous
 62
     7
370
     9
100
AcDbPolyline
 90
        4
 70
     1
 43
0.4
 10
-268.5681018342252
 20
-69.89582577975584
 42
0.4142135623731
 10
-268.7681018342251
 20
-69.69582577975584
 42
0.4142135623731
 10
-268.9681018342251
 20
-69.89582577975584
 42
0.4142135623731
 10
-268.7681018342251
 20
-70.09582577975584
 42
0.4142135623731
  0
LWPOLYLINE
  5
51E
330
1F
100
AcDbEntity
  8
その他
  6
Continuous
 62
     7
370
     9
100
AcDbPolyline
 90
        4
 70
     1
 43
0.4
 10
-253.5682799715664
 20
-69.89582577975584
 42
0.4142135623731
 10
-253.7682799715664
 20
-69.69582577975584
 42
0.4142135623731
 10
-253.9682799715664
 20
-69.89582577975584
 42
0.4142135623731
 10
-253.7682799715664
 20
-70.09582577975584
 42
0.4142135623731
  0
LINE
  5
51F
330
1F
100
AcDbEntity
  8
その他
  6
Continuous
 62
     7
370
     9
100
AcDbLine
 10
-253.7682799715664
 20
-68.69582577975584
 30
0.0
 11
-253.7682799715664
 21
-144.8715536403183
 31
0.0
  0
LWPOLYLINE
  5
520
330
1F
100
AcDbEntity
  8
その他
  6
Continuous
 62
     7
370
     9
100
AcDbPolyline
 90
        4
 70
     1
 43
0.4
 10
-253.5682799715664
 20
-69.89582577975584
 42
0.4142135623731
 10
-253.7682799715664
 20
-69.69582577975584
 42
0.4142135623731
 10
-253.9682799715664
 20
-69.89582577975584
 42
0.4142135623731
 10
-253.7682799715664
 20
-70.09582577975584
 42
0.4142135623731
  0
LWPOLYLINE
  5
521
330
1F
100
AcDbEntity
  8
その他
  6
Continuous
 62
     7
370
     9
100
AcDbPolyline
 90
        4
 70
     1
 43
0.4
 10
-253.5682799715664
 20
-69.89582577975584
 42
0.4142135623731
 10
-253.7682799715664
 20
-69.69582577975584
 42
0.4142135623731
 10
-253.9682799715664
 20
-69.89582577975584
 42
0.4142135623731
 10
-253.7682799715664
 20
-70.09582577975584
 42
0.4142135623731
  0
LINE
  5
522
330
1F
100
AcDbEntity
  8
その他
  6
Continuous
 62
     7
370
     9
100
AcDbLine
 10
-253.7682799715664
 20
-69.89582577975584
 30
0.0
 11
-117.2222957742588
 21
-69.89582577975584
 31
0.0
  0
LWPOLYLINE
  5
523
330
1F
100
AcDbEntity
  8
その他
  6
Continuous
 62
     7
370
     9
100
AcDbPolyline
 90
        4
 70
     1
 43
0.4
 10
-253.5682799715664
 20
-69.89582577975584
 42
0.4142135623731
 10
-253.7682799715664
 20
-69.69582577975584
 42
0.4142135623731
 10
-253.9682799715664
 20
-69.89582577975584
 42
0.4142135623731
 10
-253.7682799715664
 20
-70.09582577975584
 42
0.4142135623731
  0
LWPOLYLINE
  5
524
330
1F
100
AcDbEntity
  8
その他
  6
Continuous
 62
     7
370
     9
100
AcDbPolyline
 90
        4
 70
     1
 43
0.4
 10
-117.0222957742588
 20
-69.89582577975584
 42
0.4142135623731
 10
-117.2222957742588
 20
-69.69582577975584
 42
0.4142135623731
 10
-117.4222957742588
 20
-69.89582577975584
 42
0.4142135623731
 10
-117.2222957742588
 20
-70.09582577975584
 42
0.4142135623731
  0
LINE
  5
525
330
1F
100
AcDbEntity
  8
その他
  6
Continuous
 62
     7
370
     9
100
AcDbLine
 10
-117.2222957742588
 20
-68.69582577975584
 30
0.0
 11
-117.2222957742588
 21
-281.4175873255901
 31
0.0
  0
TEXT
  5
526
330
1F
100
AcDbEntity
  8
その他
  6
Continuous
 62
     2
370
   211
100
AcDbText
 10
-175.5423422750849
 20
-63.63982577975584
 30
0.0
 40
12.192
  1
136
 41
1.083333333333333
  7
ＭＳ ゴシック
100
AcDbText
  0
LINE
  5
527
330
1F
100
AcDbEntity
  8
その他
  6
Continuous
 62
     7
370
     9
100
AcDbLine
 10
-322.7682568965143
 20
-69.89582577975584
 30
0.0
 11
-278.7680127558889
 21
-69.89582577975584
 31
0.0
  0
TEXT
  5
528
330
1F
100
AcDbEntity
  8
その他
  6
Continuous
 62
     2
370
   211
100
AcDbText
 10
-302.5427757376593
 20
-63.63982577975584
 30
0.0
 40
12.192
  1
44
 41
1.0625
  7
ＭＳ ゴシック
100
AcDbText
  0
LINE
  5
529
330
1F
100
AcDbEntity
  8
その他
  6
Continuous
 62
     7
370
     9
100
AcDbLine
 10
-268.7681018342251
 20
-69.89582577975584
 30
0.0
 11
-253.7682799715664
 21
-69.89582577975584
 31
0.0
  0
TEXT
  5
52A
330
1F
100
AcDbEntity
  8
その他
  6
Continuous
 62
     2
370
   211
100
AcDbText
 10
-267.6773263331544
 20
-63.63982577975584
 30
0.0
 40
12.192
  1
15
 41
1.0625
  7
ＭＳ ゴシック
100
AcDbText
  0
LINE
  5
52B
330
1F
100
AcDbEntity
  8
寸法
  6
Continuous
 62
     7
370
     9
100
AcDbLine
 10
-59.74011188474731
 20
38.19539490006551
 30
0.0
 11
-240.7707082003583
 21
-275.3587956430652
 31
0.0
  0
LINE
  5
52C
330
1F
100
AcDbEntity
  8
寸法
  6
Continuous
 62
     7
370
     9
100
AcDbLine
 10
-106.3073878375803
 20
75.2564596586663
 30
0.0
 11
-250.1801254300868
 21
-173.9384316755801
 31
0.0
  0
TEXT
  5
52D
330
1F
100
AcDbEntity
  8
寸法
  6
Continuous
 62
     2
370
   211
100
AcDbText
 10
-56.18216580510523
 20
43.9812961479957
 30
0.0
 40
12.192
  1
真鍮製ボルト：M8×50
 50
360.0
 41
1.11875
  7
ＭＳ ゴシック
100
AcDbText
  0
LINE
  5
52E
330
1F
100
AcDbEntity
  8
寸法
  6
Continuous
 62
     7
370
     9
100
AcDbLine
 10
-106.3073878375803
 20
75.2564596586663
 30
0.0
 11
98.63017560492857
 21
75.2564596586663
 31
0.0
  0
LINE
  5
52F
330
1F
100
AcDbEntity
  8
寸法
  6
Continuous
 62
     7
370
     9
100
AcDbLine
 10
-59.74011188474731
 20
38.19539490006551
 30
0.0
 11
126.6063008105034
 21
38.1953949000655
 31
0.0
  0
TEXT
  5
530
330
1F
100
AcDbEntity
  8
寸法
  6
Continuous
 62
     2
370
   211
100
AcDbText
 10
-102.7494417579381
 20
81.04236090659624
 30
0.0
 40
12.192
  1
真鍮製丸小ネジ：M6×12
 41
1.119318181818182
  7
ＭＳ ゴシック
100
AcDbText
  0
LINE
  5
531
330
1F
100
AcDbEntity
  8
寸法
  6
Continuous
 62
     7
370
     9
100
AcDbLine
 10
-25.1939799583146
 20
-7.962809190481204
 30
0.0
 11
-164.6603907153243
 21
-249.525718570893
 31
0.0
  0
LINE
  5
532
330
1F
100
AcDbEntity
  8
寸法
  6
Continuous
 62
     7
370
     9
100
AcDbLine
 10
-25.1939799583146
 20
-7.962809190481204
 30
0.0
 11
88.01325636213198
 21
-7.962809190481217
 31
0.0
  0
TEXT
  5
533
330
1F
100
AcDbEntity
  8
寸法
  6
Continuous
 62
     2
370
   211
100
AcDbText
 10
-21.63603387867254
 20
-2.176907942551034
 30
0.0
 40
12.192
  1
ストレーナー
 50
360.0
 41
1.104166666666667
  7
ＭＳ ゴシック
100
AcDbText
  0
LINE
  5
534
330
1F
100
AcDbEntity
  8
寸法
  6
Continuous
 62
     7
370
     9
100
AcDbLine
 10
19.47419783710022
 20
-57.53688409666537
 30
0.0
 11
-114.5182139972789
 21
-289.6185492225034
 31
0.0
  0
LINE
  5
535
330
1F
100
AcDbEntity
  8
寸法
  6
Continuous
 62
     7
370
     9
100
AcDbLine
 10
19.47419783710022
 20
-57.53688409666537
 30
0.0
 11
114.3009383245557
 21
-57.5368840966654
 31
0.0
  0
TEXT
  5
536
330
1F
100
AcDbEntity
  8
寸法
  6
Continuous
 62
     2
370
   211
100
AcDbText
 10
23.03214391674229
 20
-51.75098284873521
 30
0.0
 40
12.192
  1
防水層押え
 41
1.1
  7
ＭＳ ゴシック
100
AcDbText
  0
LWPOLYLINE
  5
537
330
1F
100
AcDbEntity
  8
その他
  6
Continuous
 62
     7
370
     9
100
AcDbPolyline
 90
        4
 70
     1
 43
0.4
 10
-278.5680127558889
 20
-11.69427380288225
 42
0.4142135623731
 10
-278.7680127558889
 20
-11.49427380288225
 42
0.4142135623731
 10
-278.9680127558889
 20
-11.69427380288225
 42
0.4142135623731
 10
-278.7680127558889
 20
-11.89427380288225
 42
0.4142135623731
  0
LWPOLYLINE
  5
538
330
1F
100
AcDbEntity
  8
その他
  6
Continuous
 62
     7
370
     9
100
AcDbPolyline
 90
        4
 70
     1
 43
0.4
 10
-53.56806881647385
 20
-11.69427380288225
 42
0.4142135623731
 10
-53.76806881647386
 20
-11.49427380288225
 42
0.4142135623731
 10
-53.96806881647386
 20
-11.69427380288225
 42
0.4142135623731
 10
-53.76806881647386
 20
-11.89427380288225
 42
0.4142135623731
  0
LINE
  5
539
330
1F
100
AcDbEntity
  8
その他
  6
Continuous
 62
     7
370
     9
100
AcDbLine
 10
-53.76806881647386
 20
-10.49427380288225
 30
0.0
 11
-53.76806881647386
 21
-308.4175246601662
 31
0.0
  0
LINE
  5
53A
330
1F
100
AcDbEntity
  8
その他
  6
Continuous
 62
     7
370
     9
100
AcDbLine
 10
-278.7680127558889
 20
-11.69427380288225
 30
0.0
 11
-53.76806881647386
 21
-11.69427380288225
 31
0.0
  0
LINE
  5
53B
330
1F
100
AcDbEntity
  8
その他
  6
Continuous
 62
     7
370
     9
100
AcDbLine
 10
-278.7680127558889
 20
-11.69427380288225
 30
0.0
 11
-418.7680127558889
 21
-11.69427380288225
 31
0.0
  0
LWPOLYLINE
  5
53C
330
1F
100
AcDbEntity
  8
その他
  6
Continuous
 62
     7
370
     9
100
AcDbPolyline
 90
        4
 70
     1
 43
0.4
 10
-278.5680127558889
 20
-11.69427380288225
 42
0.4142135623731
 10
-278.7680127558889
 20
-11.49427380288225
 42
0.4142135623731
 10
-278.9680127558889
 20
-11.69427380288225
 42
0.4142135623731
 10
-278.7680127558889
 20
-11.89427380288225
 42
0.4142135623731
  0
LWPOLYLINE
  5
53D
330
1F
100
AcDbEntity
  8
その他
  6
Continuous
 62
     7
370
     9
100
AcDbPolyline
 90
        4
 70
     1
 43
0.4
 10
-418.5680127558889
 20
-11.69427380288225
 42
0.4142135623731
 10
-418.7680127558889
 20
-11.49427380288225
 42
0.4142135623731
 10
-418.9680127558889
 20
-11.69427380288225
 42
0.4142135623731
 10
-418.7680127558889
 20
-11.89427380288225
 42
0.4142135623731
  0
TEXT
  5
53E
330
1F
100
AcDbEntity
  8
その他
  6
Continuous
 62
     2
370
   211
100
AcDbText
 10
-357.2680127558889
 20
-7.038273802882252
 30
0.0
 40
12.192
  1
L=
 41
1.0625
  7
ＭＳ ゴシック
100
AcDbText
  0
TEXT
  5
53F
330
1F
100
AcDbEntity
  8
その他
  6
Continuous
 62
     2
370
   211
100
AcDbText
 10
-410.5785805904749
 20
-27.83827380288225
 30
0.0
 40
12.192
  1
（パラペット厚さ）
 41
0.8972222222222221
  7
ＭＳ ゴシック
100
AcDbText
  0
LINE
  5
540
330
1F
100
AcDbEntity
  8
寸法
  6
Continuous
 62
     7
370
     9
100
AcDbLine
 10
-418.7680127558889
 20
-340.8969937912033
 30
0.0
 11
-422.5948470795398
 21
-350.1357891163162
 31
0.0
  0
LINE
  5
541
330
1F
100
AcDbEntity
  8
寸法
  6
Continuous
 62
     7
370
     9
100
AcDbLine
 10
-418.7680127558889
 20
-340.8969937912033
 30
0.0
 11
-424.8556270459761
 21
-348.8305271941157
 31
0.0
  0
LINE
  5
542
330
1F
100
AcDbEntity
  8
寸法
  6
Continuous
 62
     7
370
     9
100
AcDbLine
 10
-470.7085531335514
 20
-430.8606486978976
 30
0.0
 11
-418.7680127558889
 21
-340.8969937912032
 31
0.0
  0
TEXT
  5
543
330
1F
100
AcDbEntity
  8
寸法
  6
Continuous
 62
     2
370
   211
100
AcDbText
 10
-543.9692929781364
 20
-425.0747474499676
 30
0.0
 40
12.192
  1
シール材
 50
0.0000000000000038
 41
1.093749999999999
  7
ＭＳ ゴシック
100
AcDbText
  0
LINE
  5
544
330
1F
100
AcDbEntity
  8
寸法
  6
Continuous
 62
     7
370
     9
100
AcDbLine
 10
-470.7085531335514
 20
-430.8606486978976
 30
0.0
 11
-545.6181342056435
 21
-430.8606486978976
 31
0.0
  0
LINE
  5
545
330
1F
100
AcDbEntity
  8
寸法
  6
Continuous
 62
     7
370
     9
100
AcDbLine
 10
-373.6688248329385
 20
-46.79083783266
 30
0.0
 11
-320.7681658279813
 21
-138.4174669831219
 31
0.0
  0
TEXT
  5
546
330
1F
100
AcDbEntity
  8
寸法
  6
Continuous
 62
     2
370
   211
100
AcDbText
 10
-597.9232264185322
 20
-41.00493658472979
 30
0.0
 40
12.192
  1
スチール製アンカー
 50
0.0000000000000038
 41
1.11111111111111
  7
ＭＳ ゴシック
100
AcDbText
  0
TEXT
  5
547
330
1F
100
AcDbEntity
  8
寸法
  6
Continuous
 62
     2
370
     9
100
AcDbText
 10
-597.9232264185322
 20
-64.06473908058993
 30
0.0
 40
12.192
  1
りん酸塩被膜
 50
360.0
 41
1.104166666666667
  7
ＭＳ ゴシック
100
AcDbText
  0
LINE
  5
548
330
1F
100
AcDbEntity
  8
寸法
  6
Continuous
 62
     7
370
     9
100
AcDbLine
 10
-601.4811724981738
 20
-46.79083783265975
 30
0.0
 11
-373.6688248329385
 21
-46.79083783266
 31
0.0
  0
LINE
  5
549
330
1F
100
AcDbEntity
  8
寸法
  6
Continuous
 62
     7
370
     9
100
AcDbLine
 10
-616.8514710724611
 20
-141.4807929966209
 30
0.0
 11
-410.6546415052511
 21
-141.4807929966211
 31
0.0
  0
TEXT
  5
54A
330
1F
100
AcDbEntity
  8
寸法
  6
Continuous
 62
     2
370
   211
100
AcDbText
 10
-613.2935249928195
 20
-115.7137147048545
 30
0.0
 40
12.192
  1
硬質ポリ塩化ビニル製
 50
0.0000000000000038
 41
1.1125
  7
ＭＳ ゴシック
100
AcDbText
  0
LINE
  5
54B
330
1F
100
AcDbEntity
  8
090
  6
Continuous
 62
     7
370
     9
100
AcDbLine
 10
-268.7681018342251
 20
-149.4175411561545
 30
0.0
 11
-268.7681018342251
 21
72.0752745903693
 31
0.0
  0
LINE
  5
54C
330
1F
100
AcDbEntity
  8
092
  6
Continuous
 62
     6
370
     9
100
AcDbLine
 10
-278.7680127558889
 20
18.38203449408407
 30
0.0
 11
-292.2244349919409
 21
4.925612258032031
 31
0.0
  0
LINE
  5
54D
330
1F
100
AcDbEntity
  8
092
  6
Continuous
 62
     6
370
     9
100
AcDbLine
 10
-278.7680127558889
 20
14.13939380696475
 30
0.0
 11
-287.9817943048216
 21
4.925612258032031
 31
0.0
  0
LINE
  5
54E
330
1F
100
AcDbEntity
  8
092
  6
Continuous
 62
     6
370
     9
100
AcDbLine
 10
-278.7680127558889
 20
9.896753119845599
 30
0.0
 11
-283.7391536177025
 21
4.925612258032031
 31
0.0
  0
LINE
  5
54F
330
1F
100
AcDbEntity
  8
092
  6
Continuous
 62
     6
370
     9
100
AcDbLine
 10
-334.2035300227902
 20
-37.05348277281729
 30
0.0
 11
-418.7680127558889
 21
-121.6179655059161
 31
0.0
  0
LINE
  5
550
330
1F
100
AcDbEntity
  8
092
  6
Continuous
 62
     6
370
     9
100
AcDbLine
 10
-329.9608893356709
 20
-37.05348277281729
 30
0.0
 11
-418.7680127558889
 21
-125.8606061930355
 31
0.0
  0
LINE
  5
551
330
1F
100
AcDbEntity
  8
092
  6
Continuous
 62
     6
370
     9
100
AcDbLine
 10
-325.7182486485517
 20
-37.05348277281729
 30
0.0
 11
-418.7680127558889
 21
-130.1032468801548
 31
0.0
  0
LINE
  5
552
330
1F
100
AcDbEntity
  8
躯体
  6
Continuous
 62
     6
370
     9
100
AcDbLine
 10
-418.7680127558889
 20
180.336002194299
 30
0.0
 11
-418.7680127558889
 21
762.3360021942991
 31
0.0
  0
LINE
  5
553
330
1F
100
AcDbEntity
  8
躯体
  6
Continuous
 62
     6
370
     9
100
AcDbLine
 10
-278.7680127558889
 20
180.336002194299
 30
0.0
 11
-278.7680127558889
 21
762.3360021942991
 31
0.0
  0
LINE
  5
554
330
1F
100
AcDbEntity
  8
041
  6
Continuous
 62
     2
370
     9
100
AcDbLine
 10
-418.7680127558889
 20
541.3360021942991
 30
0.0
 11
-534.4312362674593
 21
541.3360021942991
 31
0.0
  0
LINE
  5
555
330
1F
100
AcDbEntity
  8
041
  6
JWW_DASHED1
 62
     2
370
     9
100
AcDbLine
 10
-418.7680127558889
 20
533.8360021942991
 30
0.0
 11
-534.4312362674593
 21
533.8360021942991
 31
0.0
  0
LINE
  5
556
330
1F
100
AcDbEntity
  8
041
  6
JWW_DASHED1
 62
     2
370
     9
100
AcDbLine
 10
-418.7680127558889
 20
408.8360021942991
 30
0.0
 11
-534.4312362674593
 21
408.8360021942991
 31
0.0
  0
LINE
  5
557
330
1F
100
AcDbEntity
  8
041
  6
Continuous
 62
     2
370
     9
100
AcDbLine
 10
-418.7680127558889
 20
401.3360021942991
 30
0.0
 11
-534.4312362674593
 21
401.3360021942991
 31
0.0
  0
LINE
  5
558
330
1F
100
AcDbEntity
  8
通り芯
  6
JWW_DASHED1
 62
     4
370
     9
100
AcDbLine
 10
-289.7681975109564
 20
549.3359626039274
 30
0.0
 11
-318.2520099977597
 21
549.3359626039274
 31
0.0
  0
TEXT
  5
559
330
1F
100
AcDbEntity
  8
寸法
  6
Continuous
 62
     2
370
   211
100
AcDbText
 10
-613.2935249928195
 20
-135.6948917486909
 30
0.0
 40
12.192
  1
スペーサー φ156
 50
0.0000000000000038
 41
1.1171875
  7
ＭＳ ゴシック
100
AcDbText
  0
LINE
  5
55A
330
1F
100
AcDbEntity
  8
通り芯
  6
Continuous
 62
     4
370
     9
100
AcDbLine
 10
-319.8402522206509
 20
-180.3661744036426
 30
0.0
 11
-319.779084896487
 21
-183.3655507652309
 31
0.0
  0
LINE
  5
55B
330
1F
100
AcDbEntity
  8
通り芯
  6
Continuous
 62
     4
370
     9
100
AcDbLine
 10
-409.8215430682997
 20
-182.20119412856
 30
0.0
 11
-409.7603757441358
 21
-185.2005704901486
 31
0.0
  0
LINE
  5
55C
330
1F
100
AcDbEntity
  8
通り芯
  6
Continuous
 62
     4
370
     9
100
AcDbLine
 10
-409.8215430682997
 20
-182.20119412856
 30
0.0
 11
-319.8402522206509
 21
-180.3661744036426
 31
0.0
  0
LINE
  5
55D
330
1F
100
AcDbEntity
  8
通り芯
  6
Continuous
 62
     4
370
     9
100
AcDbLine
 10
-316.7352286289885
 20
-332.8345135484686
 30
0.0
 11
-316.6639663575917
 21
-336.3337880001902
 31
0.0
  0
LINE
  5
55E
330
1F
100
AcDbEntity
  8
通り芯
  6
Continuous
 62
     4
370
     9
100
AcDbLine
 10
-316.6640816302036
 20
-336.3337903469994
 30
0.0
 11
-316.7252489542579
 21
-333.3344139907841
 31
0.0
  0
LINE
  5
55F
330
1F
100
AcDbEntity
  8
通り芯
  6
Continuous
 62
     4
370
     9
100
AcDbLine
 10
-406.7064025673295
 20
-335.1663200224355
 30
0.0
 11
-406.645235243129
 21
-338.1656963858204
 31
0.0
  0
LINE
  5
560
330
1F
100
AcDbEntity
  8
通り芯
  6
Continuous
 62
     4
370
     9
100
AcDbLine
 10
-406.645235243129
 20
-338.1656963858204
 30
0.0
 11
-316.6640816302036
 21
-336.3337903469994
 31
0.0
  0
LINE
  5
561
330
1F
100
AcDbEntity
  8
寸法
  6
Continuous
 62
     7
370
     9
100
AcDbLine
 10
-387.3530213145175
 20
-181.8403830656445
 30
0.0
 11
-391.1798556381684
 21
-172.6015877405316
 31
0.0
  0
LINE
  5
562
330
1F
100
AcDbEntity
  8
寸法
  6
Continuous
 62
     7
370
     9
100
AcDbLine
 10
-387.3530213145175
 20
-181.8403830656445
 30
0.0
 11
-393.4406356046047
 21
-173.9068496627322
 31
0.0
  0
LINE
  5
563
330
1F
100
AcDbEntity
  8
寸法
  6
Continuous
 62
     7
370
     9
100
AcDbLine
 10
-410.6546415052511
 20
-141.4807929966211
 30
0.0
 11
-387.3530213145175
 21
-181.8403830656445
 31
0.0
  0
ELLIPSE
  5
564
330
1F
100
AcDbEntity
  8
通り芯
  6
JWW_DASHED1
 62
     4
370
     9
100
AcDbEllipse
 10
-318.2520099977597
 20
471.3360021942991
 30
0.0
 11
4.775962355776233E-15
 21
77.99996040962827
 31
0.0
210
0.0
220
0.0
230
1.0
 40
0.0203595492786171
 41
0.0
 42
1.570796326794897
  0
ELLIPSE
  5
565
330
1F
100
AcDbEntity
  8
通り芯
  6
JWW_DASHED1
 62
     4
370
     9
100
AcDbEllipse
 10
-318.2520099977597
 20
471.3360021942991
 30
0.0
 11
4.775962355776233E-15
 21
-77.99996040962827
 31
0.0
210
0.0
220
0.0
230
1.0
 40
0.0203595492786171
 41
4.71238898038469
 42
6.283185307179586
  0
LINE
  5
566
330
1F
100
AcDbEntity
  8
通り芯
  6
JWW_DASHED1
 62
     4
370
     9
100
AcDbLine
 10
-289.7681975109564
 20
393.3360417846707
 30
0.0
 11
-318.2520099977597
 21
393.3360417846707
 31
0.0
  0
LINE
  5
567
330
1F
100
AcDbEntity
  8
通り芯
  6
JWW_DASHED1
 62
     4
370
     9
100
AcDbLine
 10
-318.2520099977597
 20
549.336002194299
 30
0.0
 11
-409.7493082671451
 21
549.336002194299
 31
0.0
  0
LINE
  5
568
330
1F
100
AcDbEntity
  8
通り芯
  6
JWW_DASHED1
 62
     4
370
     9
100
AcDbLine
 10
-318.2520099977597
 20
393.3360021942991
 30
0.0
 11
-409.7493082671451
 21
393.3360021942991
 31
0.0
  0
LINE
  5
569
330
1F
100
AcDbEntity
  8
その他
  6
JWW_DASHED1
 62
     6
370
     9
100
AcDbLine
 10
-409.7493082671451
 20
551.336002194299
 30
0.0
 11
-418.7680127558895
 21
552.3360021942989
 31
0.0
  0
LINE
  5
56A
330
1F
100
AcDbEntity
  8
その他
  6
JWW_DASHED1
 62
     6
370
     9
100
AcDbLine
 10
-409.7493082671451
 20
391.3360021942991
 30
0.0
 11
-418.7680127558895
 21
390.3360021942991
 31
0.0
  0
LINE
  5
56B
330
1F
100
AcDbEntity
  8
その他
  6
JWW_DASHED1
 62
     6
370
     9
100
AcDbLine
 10
-409.7493082671451
 20
551.336002194299
 30
0.0
 11
-409.7493082671451
 21
391.3360021942991
 31
0.0
  0
LINE
  5
56C
330
1F
100
AcDbEntity
  8
通り芯
  6
JWW_DASHED1
 62
     4
370
     9
100
AcDbLine
 10
-297.7682074214373
 20
315.3360021942991
 30
0.0
 11
-297.7682074214373
 21
325.3360021942991
 31
0.0
  0
LINE
  5
56D
330
1F
100
AcDbEntity
  8
通り芯
  6
JWW_DASHED1
 62
     4
370
     9
100
AcDbLine
 10
-297.7682074214373
 20
627.3360021942991
 30
0.0
 11
-297.7682074214373
 21
617.3360021942991
 31
0.0
  0
CIRCLE
  5
56E
330
1F
100
AcDbEntity
  8
087
  6
JWW_DASHED1
 62
     3
370
     9
100
AcDbCircle
 10
-317.7682014121843
 20
320.3360021942991
 30
0.0
 40
3.000063509554476
  0
LINE
  5
56F
330
1F
100
AcDbEntity
  8
087
  6
JWW_DASHED1
 62
     3
370
     9
100
AcDbLine
 10
-317.7682014121843
 20
315.6589750258779
 30
0.0
 11
-317.7682014121843
 21
325.2607637565728
 31
0.0
  0
LINE
  5
570
330
1F
100
AcDbEntity
  8
087
  6
JWW_DASHED1
 62
     3
370
     9
100
AcDbLine
 10
-317.7682014121843
 20
317.3359386847446
 30
0.0
 11
-299.7682167298877
 21
317.3359386847446
 31
0.0
  0
LINE
  5
571
330
1F
100
AcDbEntity
  8
087
  6
JWW_DASHED1
 62
     3
370
     9
100
AcDbLine
 10
-317.7682014121843
 20
323.3360657038535
 30
0.0
 11
-299.7682167298877
 21
323.3360657038535
 31
0.0
  0
LINE
  5
572
330
1F
100
AcDbEntity
  8
087
  6
JWW_DASHED1
 62
     3
370
     9
100
AcDbLine
 10
-299.7682167298877
 20
322.6959200301386
 30
0.0
 11
-297.7682074214373
 21
322.6959200301386
 31
0.0
  0
LINE
  5
573
330
1F
100
AcDbEntity
  8
087
  6
JWW_DASHED1
 62
     3
370
     9
100
AcDbLine
 10
-299.7682167298877
 20
323.5109661859134
 30
0.0
 11
-297.7682074214373
 21
323.5109661859134
 31
0.0
  0
LINE
  5
574
330
1F
100
AcDbEntity
  8
087
  6
JWW_DASHED1
 62
     3
370
     9
100
AcDbLine
 10
-299.7682167298877
 20
323.5109661859134
 30
0.0
 11
-299.7682167298877
 21
317.1611372964422
 31
0.0
  0
LINE
  5
575
330
1F
100
AcDbEntity
  8
087
  6
JWW_DASHED1
 62
     3
370
     9
100
AcDbLine
 10
-299.7682167298877
 20
317.9758861709445
 30
0.0
 11
-297.7682074214373
 21
317.9758861709445
 31
0.0
  0
LINE
  5
576
330
1F
100
AcDbEntity
  8
087
  6
JWW_DASHED1
 62
     3
370
     9
100
AcDbLine
 10
-299.7682167298877
 20
317.1611372964422
 30
0.0
 11
-297.7682074214373
 21
317.1611372964422
 31
0.0
  0
CIRCLE
  5
577
330
1F
100
AcDbEntity
  8
087
  6
JWW_DASHED1
 62
     3
370
     9
100
AcDbCircle
 10
-317.7682014121843
 20
622.3360021942991
 30
0.0
 40
3.000063509554476
  0
LINE
  5
578
330
1F
100
AcDbEntity
  8
087
  6
JWW_DASHED1
 62
     3
370
     9
100
AcDbLine
 10
-317.7682014121843
 20
627.0130293627202
 30
0.0
 11
-317.7682014121843
 21
617.4112406320254
 31
0.0
  0
LINE
  5
579
330
1F
100
AcDbEntity
  8
087
  6
JWW_DASHED1
 62
     3
370
     9
100
AcDbLine
 10
-317.7682014121843
 20
625.3360657038535
 30
0.0
 11
-299.7682167298877
 21
625.3360657038535
 31
0.0
  0
LINE
  5
57A
330
1F
100
AcDbEntity
  8
087
  6
JWW_DASHED1
 62
     3
370
     9
100
AcDbLine
 10
-317.7682014121843
 20
619.3359386847445
 30
0.0
 11
-299.7682167298877
 21
619.3359386847445
 31
0.0
  0
LINE
  5
57B
330
1F
100
AcDbEntity
  8
087
  6
JWW_DASHED1
 62
     3
370
     9
100
AcDbLine
 10
-299.7682167298877
 20
619.9760843584596
 30
0.0
 11
-297.7682074214373
 21
619.9760843584596
 31
0.0
  0
LINE
  5
57C
330
1F
100
AcDbEntity
  8
087
  6
JWW_DASHED1
 62
     3
370
     9
100
AcDbLine
 10
-299.7682167298877
 20
619.1610382026846
 30
0.0
 11
-297.7682074214373
 21
619.1610382026846
 31
0.0
  0
LINE
  5
57D
330
1F
100
AcDbEntity
  8
087
  6
JWW_DASHED1
 62
     3
370
     9
100
AcDbLine
 10
-299.7682167298877
 20
619.1610382026846
 30
0.0
 11
-299.7682167298877
 21
625.510867092156
 31
0.0
  0
LINE
  5
57E
330
1F
100
AcDbEntity
  8
087
  6
JWW_DASHED1
 62
     3
370
     9
100
AcDbLine
 10
-299.7682167298877
 20
624.6961182176536
 30
0.0
 11
-297.7682074214373
 21
624.6961182176536
 31
0.0
  0
LINE
  5
57F
330
1F
100
AcDbEntity
  8
087
  6
JWW_DASHED1
 62
     3
370
     9
100
AcDbLine
 10
-299.7682167298877
 20
625.510867092156
 30
0.0
 11
-297.7682074214373
 21
625.510867092156
 31
0.0
  0
LINE
  5
580
330
1F
100
AcDbEntity
  8
通り芯
  6
JWW_DASHED1
 62
     4
370
     9
100
AcDbLine
 10
-297.7682074214373
 20
617.3360021942991
 30
0.0
 11
-291.7682266145927
 21
616.4471196253625
 31
0.0
  0
LINE
  5
581
330
1F
100
AcDbEntity
  8
通り芯
  6
JWW_DASHED1
 62
     4
370
     9
100
AcDbLine
 10
-297.7682074214373
 20
627.3360021942991
 30
0.0
 11
-291.7682266145927
 21
628.2248847632358
 31
0.0
  0
LINE
  5
582
330
1F
100
AcDbEntity
  8
通り芯
  6
JWW_DASHED1
 62
     4
370
     9
100
AcDbLine
 10
-297.7682074214373
 20
315.3360021942991
 30
0.0
 11
-291.7682266145927
 21
314.4471196253624
 31
0.0
  0
LINE
  5
583
330
1F
100
AcDbEntity
  8
通り芯
  6
JWW_DASHED1
 62
     4
370
     9
100
AcDbLine
 10
-297.7682074214373
 20
325.3360021942991
 30
0.0
 11
-291.7682266145927
 21
326.2248847632357
 31
0.0
  0
LINE
  5
584
330
1F
100
AcDbEntity
  8
通り芯
  6
JWW_DASHED1
 62
     4
370
     9
100
AcDbLine
 10
-291.7682266145927
 20
314.4471196253624
 30
0.0
 11
-289.7681975109564
 21
314.1508201762775
 31
0.0
  0
LINE
  5
585
330
1F
100
AcDbEntity
  8
通り芯
  6
JWW_DASHED1
 62
     4
370
     9
100
AcDbLine
 10
-291.7682266145927
 20
326.2248847632357
 30
0.0
 11
-289.7681975109564
 21
326.5211842123206
 31
0.0
  0
LINE
  5
586
330
1F
100
AcDbEntity
  8
通り芯
  6
JWW_DASHED1
 62
     4
370
     9
100
AcDbLine
 10
-291.7682266145927
 20
616.4471196253625
 30
0.0
 11
-289.7681975109564
 21
616.1508201762775
 31
0.0
  0
LINE
  5
587
330
1F
100
AcDbEntity
  8
通り芯
  6
JWW_DASHED1
 62
     4
370
     9
100
AcDbLine
 10
-291.7682266145927
 20
628.2248847632355
 30
0.0
 11
-289.7681975109564
 21
628.5211842123207
 31
0.0
  0
LINE
  5
588
330
1F
100
AcDbEntity
  8
092
  6
Continuous
 62
     6
370
     9
100
AcDbLine
 10
-278.7680127558889
 20
269.0438222343315
 30
0.0
 11
-367.4476135081499
 21
180.3642214820703
 31
0.0
  0
LINE
  5
589
330
1F
100
AcDbEntity
  8
092
  6
Continuous
 62
     6
370
     9
100
AcDbLine
 10
-278.7680127558889
 20
273.2864629214507
 30
0.0
 11
-371.6925883580704
 21
180.361887319269
 31
0.0
  0
LINE
  5
58A
330
1F
100
AcDbEntity
  8
092
  6
Continuous
 62
     6
370
     9
100
AcDbLine
 10
-278.7680127558889
 20
277.52910360857
 30
0.0
 11
-375.937563207991
 21
180.3595531564677
 31
0.0
  0
LINE
  5
58B
330
1F
100
AcDbEntity
  8
092
  6
Continuous
 62
     6
370
     9
100
AcDbLine
 10
-278.7680127558889
 20
450.5236375393111
 30
0.0
 11
-418.7680127558889
 21
310.5236375393108
 31
0.0
  0
LINE
  5
58C
330
1F
100
AcDbEntity
  8
092
  6
Continuous
 62
     6
370
     9
100
AcDbLine
 10
-278.7680127558889
 20
442.0383561650725
 30
0.0
 11
-418.7680127558889
 21
302.038356165072
 31
0.0
  0
LINE
  5
58D
330
1F
100
AcDbEntity
  8
092
  6
Continuous
 62
     6
370
     9
100
AcDbLine
 10
-278.7680127558889
 20
446.2809968521917
 30
0.0
 11
-418.7680127558889
 21
306.2809968521914
 31
0.0
  0
LINE
  5
58E
330
1F
100
AcDbEntity
  8
092
  6
Continuous
 62
     6
370
     9
100
AcDbLine
 10
-278.7680127558889
 20
623.5181714700523
 30
0.0
 11
-418.7680127558889
 21
483.5181714700519
 31
0.0
  0
LINE
  5
58F
330
1F
100
AcDbEntity
  8
092
  6
Continuous
 62
     6
370
     9
100
AcDbLine
 10
-278.7680127558889
 20
615.0328900958136
 30
0.0
 11
-418.7680127558889
 21
475.0328900958131
 31
0.0
  0
LINE
  5
590
330
1F
100
AcDbEntity
  8
092
  6
Continuous
 62
     6
370
     9
100
AcDbLine
 10
-278.7680127558889
 20
619.2755307829328
 30
0.0
 11
-418.7680127558889
 21
479.2755307829325
 31
0.0
  0
LINE
  5
591
330
1F
100
AcDbEntity
  8
092
  6
Continuous
 62
     6
370
     9
100
AcDbLine
 10
-312.9447159623831
 20
762.3360021942991
 30
0.0
 11
-418.7680127558889
 21
656.512705400793
 31
0.0
  0
LINE
  5
592
330
1F
100
AcDbEntity
  8
092
  6
Continuous
 62
     6
370
     9
100
AcDbLine
 10
-304.4594345881445
 20
762.3360021942991
 30
0.0
 11
-418.7680127558889
 21
648.0274240265543
 31
0.0
  0
LINE
  5
593
330
1F
100
AcDbEntity
  8
092
  6
Continuous
 62
     6
370
     9
100
AcDbLine
 10
-308.7020752752637
 20
762.3360021942991
 30
0.0
 11
-418.7680127558889
 21
652.2700647136737
 31
0.0
  0
ARC
  5
594
330
1F
100
AcDbEntity
  8
通り芯
  6
Continuous
 62
     4
370
     9
100
AcDbCircle
 10
744.8351142774138
 20
-368.1582602595718
 30
0.0
 40
3.000000038662472
100
AcDbArc
 50
271.1015319824219
 51
309.9999542236328
  0
LINE
  5
595
330
1F
100
AcDbEntity
  8
通り芯
  6
Continuous
 62
     4
370
     9
100
AcDbLine
 10
744.8925698042292
 20
-371.1577752775196
 30
0.0
 11
654.606529369263
 21
-372.8938130731277
 31
0.0
  0
LINE
  5
596
330
1F
100
AcDbEntity
  8
通り芯
  6
Continuous
 62
     4
370
     9
100
AcDbLine
 10
633.7290417742468
 20
-379.3103235777729
 30
0.0
 11
650.0146896046942
 21
-373.7070982821648
 31
0.0
  0
LINE
  5
597
330
1F
100
AcDbEntity
  8
通り芯
  6
Continuous
 62
     4
370
     9
100
AcDbLine
 10
630.6793459602684
 20
-379.8523157652729
 30
0.0
 11
594.3508745445167
 21
-380.5920123710584
 31
0.0
  0
LINE
  5
598
330
1F
100
AcDbEntity
  8
通り芯
  6
Continuous
 62
     4
370
     9
100
AcDbLine
 10
591.2804432734017
 20
-377.1538360355431
 30
0.0
 11
594.279611875598
 21
-377.0927183993523
 31
0.0
  0
ARC
  5
599
330
1F
100
AcDbEntity
  8
通り芯
  6
Continuous
 62
     4
370
     9
100
AcDbCircle
 10
654.8949452265272
 20
-387.8908932832205
 30
0.0
 40
14.99999845350111
100
AcDbArc
 50
91.10153198242188
 51
108.9862670898438
  0
ARC
  5
59A
330
1F
100
AcDbEntity
  8
通り芯
  6
Continuous
 62
     4
370
     9
100
AcDbCircle
 10
630.4755545223463
 20
-369.854386011789
 30
0.0
 40
10.00000051549963
100
AcDbArc
 50
271.1667022705078
 51
288.9862976074219
  0
ARC
  5
59B
330
1F
100
AcDbEntity
  8
通り芯
  6
Continuous
 62
     4
370
     9
100
AcDbCircle
 10
630.2465242225146
 20
-135.6756800230853
 30
0.0
 40
2.000000025774982
100
AcDbArc
 50
0.0
 51
90.0
  0
LINE
  5
59C
330
1F
100
AcDbEntity
  8
通り芯
  6
Continuous
 62
     4
370
     9
100
AcDbLine
 10
753.3383837822701
 20
-358.6756734246901
 30
0.0
 11
855.2467716623376
 21
-358.6756734246901
 31
0.0
  0
ARC
  5
59D
330
1F
100
AcDbEntity
  8
通り芯
  6
Continuous
 62
     4
370
     9
100
AcDbCircle
 10
855.2467716623376
 20
-360.6757295110499
 30
0.0
 40
2.000000025774982
100
AcDbArc
 50
0.0
 51
90.0
  0
LINE
  5
59E
330
1F
100
AcDbEntity
  8
通り芯
  6
Continuous
 62
     4
370
     9
100
AcDbLine
 10
588.2465836080721
 20
-228.1848188005347
 30
0.0
 11
591.2459501621267
 21
-228.1236516763793
 31
0.0
  0
LINE
  5
59F
330
1F
100
AcDbEntity
  8
通り芯
  6
Continuous
 62
     4
370
     9
100
AcDbLine
 10
667.2466462928276
 20
-358.6756734246901
 30
0.0
 11
753.3383837822701
 21
-358.6756734246901
 31
0.0
  0
LINE
  5
5A0
330
1F
100
AcDbEntity
  8
通り芯
  6
Continuous
 62
     4
370
     9
100
AcDbLine
 10
630.2465242225146
 20
-133.6756239367256
 30
0.0
 11
621.2465935056655
 21
-133.6756239367256
 31
0.0
  0
LINE
  5
5A1
330
1F
100
AcDbEntity
  8
通り芯
  6
Continuous
 62
     4
370
     9
100
AcDbLine
 10
857.2466297968397
 20
-360.6757295110499
 30
0.0
 11
857.2466297968397
 21
-369.6757097158641
 31
0.0
  0
LINE
  5
5A2
330
1F
100
AcDbEntity
  8
通り芯
  6
Continuous
 62
     4
370
     9
100
AcDbLine
 10
621.2465935056655
 20
-139.675792195805
 30
0.0
 11
621.2465935056655
 21
-133.6756239367256
 31
0.0
  0
LINE
  5
5A3
330
1F
100
AcDbEntity
  8
通り芯
  6
Continuous
 62
     4
370
     9
100
AcDbLine
 10
621.2465935056655
 20
-224.0119639799685
 30
0.0
 11
591.1747864691367
 21
-224.6244071926378
 31
0.0
  0
LINE
  5
5A4
330
1F
100
AcDbEntity
  8
通り芯
  6
Continuous
 62
     4
370
     9
100
AcDbLine
 10
588.2465836080721
 20
-228.1848188005347
 30
0.0
 11
591.2805158343292
 21
-377.153834557753
 31
0.0
  0
LINE
  5
5A5
330
1F
100
AcDbEntity
  8
通り芯
  6
Continuous
 62
     4
370
     9
100
AcDbLine
 10
591.2997423442596
 20
-230.7687082872463
 30
0.0
 11
594.3508741469948
 21
-380.5919928510739
 31
0.0
  0
LINE
  5
5A6
330
1F
100
AcDbEntity
  8
通り芯
  6
Continuous
 62
     4
370
     9
100
AcDbLine
 10
591.1747864691367
 20
-224.6244071926378
 30
0.0
 11
591.2997423442596
 21
-230.7687082872463
 31
0.0
  0
LINE
  5
5A7
330
1F
100
AcDbEntity
  8
通り芯
  6
Continuous
 62
     4
370
     9
100
AcDbLine
 10
746.7634128152092
 20
-370.4563823562779
 30
0.0
 11
747.6937630844234
 21
-369.6757097158641
 31
0.0
  0
LINE
  5
5A8
330
1F
100
AcDbEntity
  8
通り芯
  6
Continuous
 62
     4
370
     9
100
AcDbLine
 10
632.2468277486976
 20
-323.788679262441
 30
0.0
 11
632.2468277486976
 21
-135.6756800230853
 31
0.0
  0
ARC
  5
5A9
330
1F
100
AcDbEntity
  8
通り芯
  6
Continuous
 62
     4
370
     9
100
AcDbCircle
 10
667.2466462928276
 20
-323.675656928702
 30
0.0
 40
35.00000103099926
100
AcDbArc
 50
180.1850203936516
 51
270.0
  0
ARC
  5
5AA
330
1F
100
AcDbEntity
  8
通り芯
  6
Continuous
 62
     4
370
     9
100
AcDbCircle
 10
667.2466462928276
 20
-323.675656928702
 30
0.0
 40
46.00000103099926
100
AcDbArc
 50
180.0811497965167
 51
269.9188502030289
  0
LINE
  5
5AB
330
1F
100
AcDbEntity
  8
通り芯
  6
Continuous
 62
     4
370
     9
100
AcDbLine
 10
621.2465935056655
 20
-139.675792195805
 30
0.0
 11
621.2465935056655
 21
-323.740808140661
 31
0.0
  0
LINE
  5
5AC
330
1F
100
AcDbEntity
  8
通り芯
  6
Continuous
 62
     4
370
     9
100
AcDbLine
 10
667.1814950805037
 20
-369.6757097158641
 30
0.0
 11
857.2466297968397
 21
-369.6757097158641
 31
0.0
  0
LINE
  5
5AD
330
1F
100
AcDbEntity
  8
通り芯
  6
JWW_DASHED1
 62
     4
370
     9
100
AcDbLine
 10
621.2465935056655
 20
-139.675792195805
 30
0.0
 11
625.4033845740776
 21
-144.1332721366833
 31
0.0
  0
ARC
  5
5AE
330
1F
100
AcDbEntity
  8
通り芯
  6
JWW_DASHED1
 62
     4
370
     9
100
AcDbCircle
 10
621.7466198992468
 20
-147.5433393083472
 30
0.0
 40
5.000000257749816
100
AcDbArc
 50
0.0
 51
43.00006103515624
  0
LINE
  5
5AF
330
1F
100
AcDbEntity
  8
通り芯
  6
JWW_DASHED1
 62
     4
370
     9
100
AcDbLine
 10
626.7466858831988
 20
-323.7330183220143
 30
0.0
 11
626.7466858831988
 21
-147.5433393083472
 31
0.0
  0
ARC
  5
5B0
330
1F
100
AcDbEntity
  8
通り芯
  6
JWW_DASHED1
 62
     4
370
     9
100
AcDbCircle
 10
667.2466462928276
 20
-323.675656928702
 30
0.0
 40
40.50000103099926
100
AcDbArc
 50
180.0811497965167
 51
269.9188502030289
  0
LINE
  5
5B1
330
1F
100
AcDbEntity
  8
通り芯
  6
JWW_DASHED1
 62
     4
370
     9
100
AcDbLine
 10
846.073682557608
 20
-364.1756173383303
 30
0.0
 11
667.189284899194
 21
-364.1756173383303
 31
0.0
  0
ARC
  5
5B2
330
1F
100
AcDbEntity
  8
通り芯
  6
JWW_DASHED1
 62
     4
370
     9
100
AcDbCircle
 10
846.073682557608
 20
-369.1756338343185
 30
0.0
 40
5.000000257749816
100
AcDbArc
 50
10.30474853515625
 51
90.00000000000001
  0
LINE
  5
5B3
330
1F
100
AcDbEntity
  8
通り芯
  6
JWW_DASHED1
 62
     4
370
     9
100
AcDbLine
 10
850.9930831593817
 20
-368.281287339386
 30
0.0
 11
851.246659489618
 21
-369.6757097158641
 31
0.0
  0
LINE
  5
5B4
330
1F
100
AcDbEntity
  8
その他
  6
Continuous
 62
     7
370
     9
100
AcDbLine
 10
688.750025945179
 20
-302.1722772763505
 30
0.0
 11
642.4979082222719
 21
-348.4243949992577
 31
0.0
  0
LINE
  5
5B5
330
1F
100
AcDbEntity
  8
その他
  6
Continuous
 62
     7
370
     9
100
AcDbLine
 10
642.4979082222719
 20
-348.4243949992577
 30
0.0
 11
648.5855225123591
 21
-340.4908615963454
 31
0.0
  0
LINE
  5
5B6
330
1F
100
AcDbEntity
  8
その他
  6
Continuous
 62
     7
370
     9
100
AcDbLine
 10
642.4979082222719
 20
-348.4243949992577
 30
0.0
 11
650.4314416251843
 21
-342.3367807091705
 31
0.0
  0
TEXT
  5
5B7
330
1F
100
AcDbEntity
  8
寸法
  6
Continuous
 62
     2
370
     9
100
AcDbText
 10
669.5279098632735
 20
-312.7901740617147
 30
0.0
 40
12.192
  1
R35
 50
45.0
 41
0.8916666666666645
  7
ＭＳ ゴシック
100
AcDbText
  0
LINE
  5
5B8
330
1F
100
AcDbEntity
  8
寸法
  6
Continuous
 62
     7
370
     9
100
AcDbLine
 10
552.8505872526914
 20
-476.6726359470653
 30
0.0
 11
884.0691818695266
 21
-476.6726359470653
 31
0.0
  0
TEXT
  5
5B9
330
1F
100
AcDbEntity
  8
その他
  6
Continuous
 62
     2
370
   211
100
AcDbText
 10
-134.6515653485433
 20
-5.43827380288225
 30
0.0
 40
12.192
  1
225
 41
1.083333333333333
  7
ＭＳ ゴシック
100
AcDbText
  0
LINE
  5
5BA
330
1F
100
AcDbEntity
  8
寸法
  6
Continuous
 62
     7
370
     9
100
AcDbLine
 10
-54.08958922309175
 20
243.6700795860274
 30
0.0
 11
-48.00197493300455
 21
235.736546183115
 31
0.0
  0
LINE
  5
5BB
330
1F
100
AcDbEntity
  8
寸法
  6
Continuous
 62
     7
370
     9
100
AcDbLine
 10
-54.08958922309175
 20
243.6700795860274
 30
0.0
 11
-50.26275489944085
 21
234.4312842609145
 31
0.0
  0
LINE
  5
5BC
330
1F
100
AcDbEntity
  8
寸法
  6
Continuous
 62
     7
370
     9
100
AcDbLine
 10
-15.17689209244794
 20
176.2713110962126
 30
0.0
 11
61.71170934340248
 21
176.2713110962125
 31
0.0
  0
LINE
  5
5BD
330
1F
100
AcDbEntity
  8
寸法
  6
Continuous
 62
     7
370
     9
100
AcDbLine
 10
-15.17689209244794
 20
176.2713110962126
 30
0.0
 11
-54.08958922309175
 21
243.6700795860274
 31
0.0
  0
TEXT
  5
5BE
330
1F
100
AcDbEntity
  8
寸法
  6
Continuous
 62
     2
370
   211
100
AcDbText
 10
-11.61894601280631
 20
182.0572123441426
 30
0.0
 40
12.192
  1
4×φ4.2
 50
0.0000000000000038
 41
1.109375
  7
ＭＳ ゴシック
100
AcDbText
  0
TEXT
  5
5BF
330
1F
100
AcDbEntity
  8
F-Fﾚｲﾔ
  6
Continuous
 62
     2
370
   211
100
AcDbText
 10
583.255762707711
 20
648.472144550721
 30
0.0
 40
12.192
  1
デッキプレート打込型（立ち上がり部打込型）
 41
1.119047619047619
  7
ＭＳ ゴシック
100
AcDbText
  0
TEXT
  5
5C0
330
1F
100
AcDbEntity
  8
F-5ﾚｲﾔ
  6
Continuous
 62
     2
370
   211
100
AcDbText
 10
-166.3666048921271
 20
-757.3124806333396
 30
0.0
 40
12.192
  1
ルーフドレン　鋳鉄製　防水層張掛け幅100㎜　よこ引き用　デッキプレート打込型
 50
0.0000000033747369
 41
1.121666666666667
  7
ＭＳ ゴシック
100
AcDbText
  0
LINE
  5
5C1
330
1F
100
AcDbEntity
  8
F-Fﾚｲﾔ
  6
Continuous
 62
     7
370
     9
100
AcDbLine
 10
599.6705956729297
 20
-658.0887556014445
 30
0.0
 11
1068.833756986913
 21
-658.0887556014445
 31
0.0
  0
TEXT
  5
5C2
330
1F
100
AcDbEntity
  8
F-Fﾚｲﾔ
  6
Continuous
 62
     2
370
     9
100
AcDbText
 10
616.204556430539
 20
-608.2193600378203
 30
0.0
 40
12.192
  1
パラペット厚さに基づきＬ寸法（Ｌ＝８０以上）
 41
1.119318181818182
  7
ＭＳ ゴシック
100
AcDbText
  0
TEXT
  5
5C3
330
1F
100
AcDbEntity
  8
F-Fﾚｲﾔ
  6
Continuous
 62
     2
370
     9
100
AcDbText
 10
616.204556430539
 20
-627.2106350341403
 30
0.0
 40
12.192
  1
を記入してお使いください。
 41
1.115384615384615
  7
ＭＳ ゴシック
100
AcDbText
  0
LINE
  5
5C4
330
1F
100
AcDbEntity
  8
F-Fﾚｲﾔ
  6
Continuous
 62
     7
370
     9
100
AcDbLine
 10
599.6705956729297
 20
-566.9567549160045
 30
0.0
 11
599.6705956729297
 21
-658.0887556014445
 31
0.0
  0
LINE
  5
5C5
330
1F
100
AcDbEntity
  8
F-Fﾚｲﾔ
  6
Continuous
 62
     7
370
     9
100
AcDbLine
 10
1068.833756986913
 20
-566.9567549160045
 30
0.0
 11
1068.833756986913
 21
-658.0887556014445
 31
0.0
  0
LINE
  5
5C6
330
1F
100
AcDbEntity
  8
F-Fﾚｲﾔ
  6
Continuous
 62
     7
370
     9
100
AcDbLine
 10
599.6705956729297
 20
-566.9567549160045
 30
0.0
 11
1068.833756986913
 21
-566.9567549160045
 31
0.0
  0
TEXT
  5
5C7
330
1F
100
AcDbEntity
  8
F-Fﾚｲﾔ
  6
Continuous
 62
     2
370
     9
100
AcDbText
 10
616.204556430539
 20
-588.7007549160045
 30
0.0
 40
12.192
  1
スラブ厚さに基づきＣ寸法（Ｃ＝５０以上）及び、
 41
1.119565217391304
  7
ＭＳ ゴシック
100
AcDbText
  0
TEXT
  5
5C8
330
1F
100
AcDbEntity
  8
F-Fﾚｲﾔ
  6
Continuous
 62
     2
370
     9
100
AcDbText
 10
616.204556430539
 20
-647.8327556014445
 30
0.0
 40
12.192
  1
本図はＣ＝８０、Ｌ＝１４０です。
 41
1.1171875
  7
ＭＳ ゴシック
100
AcDbText
  0
TEXT
  5
5C9
330
1F
100
AcDbEntity
  8
寸法
  6
Continuous
 62
     3
370
   211
100
AcDbText
 10
555.8789293781558
 20
-468.8658983621172
 30
0.0
 40
15.24
  1
本体コーナー部寸法　Ｓ＝１：４
 50
0.0000000000000142
 41
1.093333333333333
  7
ＭＳ ゴシック
100
AcDbText
  0
LINE
  5
5CA
330
1F
100
AcDbEntity
  8
その他
  6
Continuous
 62
     7
370
     9
100
AcDbLine
 10
-12.5331087524721
 20
-304.4175081641781
 30
0.0
 11
-12.5331087524721
 21
-289.4175873255901
 31
0.0
  0
LWPOLYLINE
  5
5CB
330
1F
100
AcDbEntity
  8
その他
  6
Continuous
 62
     7
370
     9
100
AcDbPolyline
 90
        4
 70
     1
 43
0.4
 10
-12.3331087524721
 20
-304.4175081641781
 42
0.4142135623731
 10
-12.5331087524721
 20
-304.2175081641781
 42
0.4142135623731
 10
-12.73310875247209
 20
-304.4175081641781
 42
0.4142135623731
 10
-12.5331087524721
 20
-304.6175081641781
 42
0.4142135623731
  0
LWPOLYLINE
  5
5CC
330
1F
100
AcDbEntity
  8
その他
  6
Continuous
 62
     7
370
     9
100
AcDbPolyline
 90
        4
 70
     1
 43
0.4
 10
-12.3331087524721
 20
-289.4175873255901
 42
0.4142135623731
 10
-12.5331087524721
 20
-289.2175873255901
 42
0.4142135623731
 10
-12.73310875247209
 20
-289.4175873255901
 42
0.4142135623731
 10
-12.5331087524721
 20
-289.6175873255901
 42
0.4142135623731
  0
LINE
  5
5CD
330
1F
100
AcDbEntity
  8
その他
  6
Continuous
 62
     7
370
     9
100
AcDbLine
 10
-11.3331087524721
 20
-289.4175873255901
 30
0.0
 11
-107.2682140069447
 21
-289.4175873255901
 31
0.0
  0
LINE
  5
5CE
330
1F
100
AcDbEntity
  8
その他
  6
Continuous
 62
     7
370
     9
100
AcDbLine
 10
-12.5331087524721
 20
-289.4175873255901
 30
0.0
 11
-12.53310875247209
 21
-152.8715536403183
 31
0.0
  0
LWPOLYLINE
  5
5CF
330
1F
100
AcDbEntity
  8
その他
  6
Continuous
 62
     7
370
     9
100
AcDbPolyline
 90
        4
 70
     1
 43
0.4
 10
-12.33310875247209
 20
-152.8715536403183
 42
0.4142135623731
 10
-12.53310875247209
 20
-152.6715536403183
 42
0.4142135623731
 10
-12.73310875247209
 20
-152.8715536403183
 42
0.4142135623731
 10
-12.53310875247209
 20
-153.0715536403183
 42
0.4142135623731
  0
LINE
  5
5D0
330
1F
100
AcDbEntity
  8
その他
  6
Continuous
 62
     7
370
     9
100
AcDbLine
 10
-11.33310875247209
 20
-152.8715536403183
 30
0.0
 11
-245.7682799715664
 21
-152.8715536403183
 31
0.0
  0
TEXT
  5
5D1
330
1F
100
AcDbEntity
  8
その他
  6
Continuous
 62
     2
370
   211
100
AcDbText
 10
-17.18910875247209
 20
-304.0175477448842
 30
0.0
 40
12.192
  1
15
 50
90.0
 41
0.8874999999999993
  7
ＭＳ ゴシック
100
AcDbText
  0
TEXT
  5
5D2
330
1F
100
AcDbEntity
  8
その他
  6
Continuous
 62
     2
370
   211
100
AcDbText
 10
-17.18910875247209
 20
-234.1445704829542
 30
0.0
 40
12.192
  1
136
 50
90.0
 41
1.083333333333333
  7
ＭＳ ゴシック
100
AcDbText
  0
LINE
  5
5D3
330
1F
100
AcDbEntity
  8
寸法
  6
Continuous
 62
     7
370
     9
100
AcDbLine
 10
-448.3377777341212
 20
674.0263707516441
 30
0.0
 11
-399.3043112409532
 21
589.0979155142509
 31
0.0
  0
LWPOLYLINE
  5
5D4
330
1F
100
AcDbEntity
  8
寸法
  6
Continuous
 62
     7
370
     9
100
AcDbPolyline
 90
        4
 70
     1
 43
0.4
 10
-399.1043112409532
 20
589.0979155142509
 42
0.4142135623731
 10
-399.3043112409532
 20
589.2979155142509
 42
0.4142135623731
 10
-399.5043112409531
 20
589.0979155142509
 42
0.4142135623731
 10
-399.3043112409532
 20
588.8979155142508
 42
0.4142135623731
  0
LINE
  5
5D5
330
1F
100
AcDbEntity
  8
寸法
  6
Continuous
 62
     7
370
     9
100
AcDbLine
 10
-543.6463536904671
 20
674.0263707516443
 30
0.0
 11
-448.3377777341212
 21
674.0263707516441
 31
0.0
  0
TEXT
  5
5D6
330
1F
100
AcDbEntity
  8
寸法
  6
Continuous
 62
     2
370
   211
100
AcDbText
 10
-540.0884076108255
 20
679.8122719995743
 30
0.0
 40
12.192
  1
パラペット
 50
0.0000000000000038
 41
1.099999999999999
  7
ＭＳ ゴシック
100
AcDbText
  0
TEXT
  5
5D7
330
1F
100
AcDbEntity
  8
F-Fﾚｲﾔ
  6
Continuous
 62
     2
370
   211
100
AcDbText
 10
583.255762707711
 20
304.4723276561898
 30
0.0
 40
12.192
  1
カネソウ　ルーフドレン　EDUXH-125 C=　　　　L=
 41
1.122282608695652
  7
ＭＳ ゴシック
100
AcDbText
  0
TEXT
  5
5D8
330
1F
100
AcDbEntity
  8
F-5ﾚｲﾔ
  6
Continuous
 62
     2
370
     9
100
AcDbText
 10
94.4306423464242
 20
-774.9358132153146
 30
0.0
 40
12.192
  1
ねじ込み式　ＥＤＵＸＨ－１２５　Ｃ＝　　　Ｌ＝
 50
0.0000000033747369
 41
1.119565217391304
  7
ＭＳ ゴシック
100
AcDbText
  0
LINE
  5
5D9
330
1F
100
AcDbEntity
  8
寸法
  6
Continuous
 62
     7
370
     9
100
AcDbLine
 10
199.7034386918992
 20
-444.417602073482
 30
0.0
 11
205.7910529819865
 21
-452.3511354763945
 31
0.0
  0
LINE
  5
5DA
330
1F
100
AcDbEntity
  8
寸法
  6
Continuous
 62
     7
370
     9
100
AcDbLine
 10
199.7034386918992
 20
-444.417602073482
 30
0.0
 11
203.5302730155502
 21
-453.656397398595
 31
0.0
  0
LINE
  5
5DB
330
1F
100
AcDbEntity
  8
090
  6
Continuous
 62
     7
370
     9
100
AcDbLine
 10
-113.7680358502722
 20
-304.4175081641781
 30
0.0
 11
269.3989297118879
 21
-304.4175081641781
 31
0.0
  0
LINE
  5
5DC
330
1F
100
AcDbEntity
  8
092
  6
Continuous
 62
     6
370
     9
100
AcDbLine
 10
-55.76806884224885
 20
-314.4175246343913
 30
0.0
 11
269.3989297118879
 21
-314.4175246343913
 31
0.0
  0
LINE
  5
5DD
330
1F
100
AcDbEntity
  8
021
  6
Continuous
 62
     2
370
     9
100
AcDbLine
 10
-278.7680407401546
 20
-444.417602073482
 30
0.0
 11
269.3989297118879
 21
-444.417602073482
 31
0.0
  0
LINE
  5
5DE
330
1F
100
AcDbEntity
  8
021
  6
Continuous
 62
     2
370
     9
100
AcDbLine
 10
-278.7680407401546
 20
-394.4175675497354
 30
0.0
 11
269.3989297118879
 21
-394.4175675497354
 31
0.0
  0
LINE
  5
5DF
330
1F
100
AcDbEntity
  8
その他
  6
Continuous
 62
     7
370
     9
100
AcDbLine
 10
-157.6764567223163
 20
-307.7508414971782
 30
0.0
 11
269.3989297118879
 21
-307.7508414971782
 31
0.0
  0
LINE
  5
5E0
330
1F
100
AcDbEntity
  8
その他
  6
Continuous
 62
     7
370
     9
100
AcDbLine
 10
-157.6764567223163
 20
-311.0841748301781
 30
0.0
 11
269.3989297118879
 21
-311.0841748301781
 31
0.0
  0
LINE
  5
5E1
330
1F
100
AcDbEntity
  8
その他
  6
Continuous
 62
     7
370
     9
100
AcDbLine
 10
307.8695879087683
 20
-314.4175246343913
 30
0.0
 11
307.8695879087683
 21
-394.4175675497354
 31
0.0
  0
LWPOLYLINE
  5
5E2
330
1F
100
AcDbEntity
  8
その他
  6
Continuous
 62
     7
370
     9
100
AcDbPolyline
 90
        4
 70
     1
 43
0.4
 10
308.0695879087683
 20
-314.4175246343913
 42
0.4142135623731
 10
307.8695879087683
 20
-314.2175246343913
 42
0.4142135623731
 10
307.6695879087683
 20
-314.4175246343913
 42
0.4142135623731
 10
307.8695879087683
 20
-314.6175246343913
 42
0.4142135623731
  0
LWPOLYLINE
  5
5E3
330
1F
100
AcDbEntity
  8
その他
  6
Continuous
 62
     7
370
     9
100
AcDbPolyline
 90
        4
 70
     1
 43
0.4
 10
308.0695879087683
 20
-394.4175675497354
 42
0.4142135623731
 10
307.8695879087683
 20
-394.2175675497354
 42
0.4142135623731
 10
307.6695879087683
 20
-394.4175675497354
 42
0.4142135623731
 10
307.8695879087683
 20
-394.6175675497354
 42
0.4142135623731
  0
LINE
  5
5E4
330
1F
100
AcDbEntity
  8
その他
  6
Continuous
 62
     7
370
     9
100
AcDbLine
 10
309.0695879087683
 20
-314.4175246343913
 30
0.0
 11
277.3989297118879
 21
-314.4175246343913
 31
0.0
  0
LINE
  5
5E5
330
1F
100
AcDbEntity
  8
その他
  6
Continuous
 62
     7
370
     9
100
AcDbLine
 10
309.0695879087683
 20
-394.4175675497354
 30
0.0
 11
277.3989297118879
 21
-394.4175675497354
 31
0.0
  0
LINE
  5
5E6
330
1F
100
AcDbEntity
  8
021
  6
JWW_DASHED1
 62
     2
370
     9
100
AcDbLine
 10
-278.7680407401546
 20
-396.4176759519434
 30
0.0
 11
269.3989297118879
 21
-396.4176759519434
 31
0.0
  0
LINE
  5
5E7
330
1F
100
AcDbEntity
  8
021
  6
JWW_DASHED1
 62
     2
370
     9
100
AcDbLine
 10
-278.7680407401546
 20
-442.4175927650316
 30
0.0
 11
269.3989297118879
 21
-442.4175927650316
 31
0.0
  0
TEXT
  5
5E8
330
1F
100
AcDbEntity
  8
その他
  6
Continuous
 62
     2
370
   211
100
AcDbText
 10
301.6135879087683
 20
-362.9175460920634
 30
0.0
 40
12.192
  1
C=
 50
90.0
 41
1.0625
  7
ＭＳ ゴシック
100
AcDbText
  0
TEXT
  5
5E9
330
1F
100
AcDbEntity
  8
その他
  6
Continuous
 62
     2
370
   211
100
AcDbText
 10
325.6135879087683
 20
-416.4175460920634
 30
0.0
 40
12.192
  1
（スラブ厚さ）
 50
90.0
 41
1.107142857142857
  7
ＭＳ ゴシック
100
AcDbText
  0
LINE
  5
5EA
330
1F
100
AcDbEntity
  8
092
  6
Continuous
 62
     6
370
     9
100
AcDbLine
 10
269.3989297118879
 20
-369.3383837320224
 30
0.0
 11
244.319745894175
 21
-394.4175675497354
 31
0.0
  0
LINE
  5
5EB
330
1F
100
AcDbEntity
  8
092
  6
Continuous
 62
     6
370
     9
100
AcDbLine
 10
269.3989297118879
 20
-373.5810244191417
 30
0.0
 11
248.5623865812943
 21
-394.4175675497354
 31
0.0
  0
LINE
  5
5EC
330
1F
100
AcDbEntity
  8
092
  6
Continuous
 62
     6
370
     9
100
AcDbLine
 10
269.3989297118879
 20
-377.823665106261
 30
0.0
 11
252.8050272684136
 21
-394.4175675497354
 31
0.0
  0
LINE
  5
5ED
330
1F
100
AcDbEntity
  8
寸法
  6
Continuous
 62
     7
370
     9
100
AcDbLine
 10
242.6209961583607
 20
-518.7529921421504
 30
0.0
 11
199.7034386918992
 21
-444.417602073482
 31
0.0
  0
LINE
  5
5EE
330
1F
100
AcDbEntity
  8
寸法
  6
Continuous
 62
     7
370
     9
100
AcDbLine
 10
242.6209961583607
 20
-518.7529921421504
 30
0.0
 11
375.6285841387925
 21
-518.7529921421504
 31
0.0
  0
TEXT
  5
5EF
330
1F
100
AcDbEntity
  8
寸法
  6
Continuous
 62
     2
370
   211
100
AcDbText
 10
246.1789422380028
 20
-512.9670908942205
 30
0.0
 40
12.192
  1
デッキプレート
 41
1.107142857142857
  7
ＭＳ ゴシック
100
AcDbText
  0
LINE
  5
5F0
330
1F
100
AcDbEntity
  8
寸法
  6
Continuous
 62
     7
370
     9
100
AcDbLine
 10
-542.2280457703029
 20
-608.3195058142733
 30
0.0
 11
-390.7540044911303
 21
-608.319505814273
 31
0.0
  0
TEXT
  5
5F1
330
1F
100
AcDbEntity
  8
寸法
  6
Continuous
 62
     2
370
   211
100
AcDbText
 10
-538.6700996906608
 20
-602.5336045663431
 30
0.0
 40
12.192
  1
スチール製ボルト
 41
1.109375
  7
ＭＳ ゴシック
100
AcDbText
  0
TEXT
  5
5F2
330
1F
100
AcDbEntity
  8
寸法
  6
Continuous
 62
     2
370
   211
100
AcDbText
 10
4.09502980482489
 20
-582.6139322681026
 30
0.0
 40
12.192
  1
スチール製ボルト
 41
1.109375
  7
ＭＳ ゴシック
100
AcDbText
  0
LINE
  5
5F3
330
1F
100
AcDbEntity
  8
寸法
  6
Continuous
 62
     7
370
     9
100
AcDbLine
 10
0.5370837251828533
 20
-588.3998335160331
 30
0.0
 11
150.1158789822087
 21
-588.3998335160331
 31
0.0
  0
TEXT
  5
5F4
330
1F
100
AcDbEntity
  8
寸法
  6
Continuous
 62
     2
370
   211
100
AcDbText
 10
-0.3344363848641763
 20
-552.2914440974444
 30
0.0
 40
12.192
  1
スチール製蝶ナット
 41
1.111111111111111
  7
ＭＳ ゴシック
100
AcDbText
  0
LINE
  5
5F5
330
1F
100
AcDbEntity
  8
寸法
  6
Continuous
 62
     7
370
     9
100
AcDbLine
 10
-3.892382464506262
 20
-558.0773453453745
 30
0.0
 11
160.336088092575
 21
-558.0773453453745
 31
0.0
  0
LINE
  5
5F6
330
1F
100
AcDbEntity
  8
寸法
  6
Continuous
 62
     7
370
     9
100
AcDbLine
 10
-345.3709024353712
 20
-672.9971682413992
 30
0.0
 11
-58.49250633684994
 21
-672.9971682413992
 31
0.0
  0
TEXT
  5
5F7
330
1F
100
AcDbEntity
  8
寸法
  6
Continuous
 62
     3
370
   211
100
AcDbText
 10
-342.3425603099068
 20
-665.1904306564511
 30
0.0
 40
15.24
  1
断面図（納まり）Ｓ＝１：４
 50
0.0000000000000142
 41
1.092307692307692
  7
ＭＳ ゴシック
100
AcDbText
  0
LINE
  5
5F8
330
1F
100
AcDbEntity
  8
寸法
  6
Continuous
 62
     7
370
     9
100
AcDbLine
 10
-23.60128953515283
 20
-630.3713592996542
 30
0.0
 11
86.28758241025479
 21
-630.3713592996542
 31
0.0
  0
TEXT
  5
5F9
330
1F
100
AcDbEntity
  8
寸法
  6
Continuous
 62
     2
370
   211
100
AcDbText
 10
-20.04334345551032
 20
-624.585458051724
 30
0.0
 40
12.192
  1
端部シール材
 41
1.104166666666665
  7
ＭＳ ゴシック
100
AcDbText
  0
LINE
  5
5FA
330
1F
100
AcDbEntity
  8
寸法
  6
Continuous
 62
     7
370
     9
100
AcDbLine
 10
-23.60128953515283
 20
-630.3713592996542
 30
0.0
 11
-185.3469050597719
 21
-350.2197353095099
 31
0.0
  0
LINE
  5
5FB
330
1F
100
AcDbEntity
  8
寸法
  6
Continuous
 62
     7
370
     9
100
AcDbLine
 10
-185.3469050597719
 20
-350.2197353095099
 30
0.0
 11
-164.6764567223147
 21
-314.4174685738064
 31
0.0
  0
TEXT
  5
5FC
330
1F
100
AcDbEntity
  8
その他
  6
Continuous
 62
     2
370
   211
100
AcDbText
 10
-193.2154990695047
 20
-424.8524289095121
 30
0.0
 40
12.192
  1
235
 41
1.083333333333333
  7
ＭＳ ゴシック
100
AcDbText
  0
LINE
  5
5FD
330
1F
100
AcDbEntity
  8
躯体
  6
Continuous
 62
     6
370
     9
100
AcDbLine
 10
-278.7680127558889
 20
-91.41747517220168
 30
0.0
 11
-278.7680127558889
 21
72.0752745903693
 31
0.0
  0
LINE
  5
5FE
330
1F
100
AcDbEntity
  8
躯体
  6
Continuous
 62
     6
370
     9
100
AcDbLine
 10
-281.0680068526818
 20
-455.6175779304251
 30
0.0
 11
-281.0680068526818
 21
-564.0841733536995
 31
0.0
  0
ENDSEC
  0
SECTION
  2
OBJECTS
  0
DICTIONARY
  5
C
330
0
100
AcDbDictionary
281
     1
  3
ACAD_GROUP
350
D
  3
ACAD_LAYOUT
350
1A
  3
ACAD_MLEADERSTYLE
350
600
  3
ACAD_MLINESTYLE
350
17
  3
ACAD_PLOTSETTINGS
350
19
  3
ACAD_PLOTSTYLENAME
350
E
  3
ACAD_TABLESTYLE
350
5FF
  3
ACAD_VISUALSTYLE
350
2A
  0
DICTIONARY
  5
D
102
{ACAD_REACTORS
330
C
102
}
330
C
100
AcDbDictionary
281
     1
  0
DICTIONARY
  5
1A
102
{ACAD_REACTORS
330
C
102
}
330
C
100
AcDbDictionary
281
     1
  3
Layout1
350
1E
  3
Layout2
350
26
  3
Model
350
22
  0
DICTIONARY
  5
600
102
{ACAD_REACTORS
330
C
102
}
330
C
100
AcDbDictionary
281
     1
  0
DICTIONARY
  5
17
102
{ACAD_REACTORS
330
C
102
}
330
C
100
AcDbDictionary
281
     1
  3
Standard
350
18
  0
DICTIONARY
  5
19
102
{ACAD_REACTORS
330
C
102
}
330
C
100
AcDbDictionary
281
     1
  0
ACDBDICTIONARYWDFLT
  5
E
102
{ACAD_REACTORS
330
C
102
}
330
C
100
AcDbDictionary
281
     1
  3
Normal
350
F
100
AcDbDictionaryWithDefault
340
F
  0
DICTIONARY
  5
5FF
102
{ACAD_REACTORS
330
C
102
}
330
C
100
AcDbDictionary
281
     1
  0
DICTIONARY
  5
2A
102
{ACAD_REACTORS
330
C
102
}
330
C
100
AcDbDictionary
281
     1
  3
2dWireframe
350
2F
  3
3D Hidden
350
31
  3
3dWireframe
350
30
  3
Basic
350
32
  3
Brighten
350
36
  3
ColorChange
350
3A
  3
Conceptual
350
34
  3
Dim
350
35
  3
Facepattern
350
39
  3
Flat
350
2B
  3
FlatWithEdges
350
2C
  3
Gouraud
350
2D
  3
GouraudWithEdges
350
2E
  3
Linepattern
350
38
  3
Realistic
350
33
  3
Thicken
350
37
  0
LAYOUT
  5
1E
102
{ACAD_REACTORS
330
1A
102
}
330
1A
100
AcDbPlotSettings
  1

  2
none_device
  4

  6

 40
0.0
 41
0.0
 42
0.0
 43
0.0
 44
0.0
 45
0.0
 46
0.0
 47
0.0
 48
0.0
 49
0.0
140
0.0
141
0.0
142
1.0
143
1.0
 70
   688
 72
     0
 73
     0
 74
     5
  7

 75
    16
 76
     0
 77
     5
 78
   300
147
1.0
148
0.0
149
0.0
100
AcDbLayout
  1
Layout1
 70
     1
 71
     1
 10
0.0
 20
0.0
 11
420.0
 21
297.0
 12
0.0
 22
0.0
 32
0.0
 14
1.000000000000000E+20
 24
1.000000000000000E+20
 34
1.000000000000000E+20
 15
-1.000000000000000E+20
 25
-1.000000000000000E+20
 35
-1.000000000000000E+20
146
0.0
 13
0.0
 23
0.0
 33
0.0
 16
1.0
 26
0.0
 36
0.0
 17
0.0
 27
1.0
 37
0.0
 76
     0
330
1B
  0
LAYOUT
  5
26
102
{ACAD_REACTORS
330
1A
102
}
330
1A
100
AcDbPlotSettings
  1

  2
none_device
  4

  6

 40
0.0
 41
0.0
 42
0.0
 43
0.0
 44
0.0
 45
0.0
 46
0.0
 47
0.0
 48
0.0
 49
0.0
140
0.0
141
0.0
142
1.0
143
1.0
 70
   688
 72
     0
 73
     0
 74
     5
  7

 75
    16
 76
     0
 77
     5
 78
   300
147
1.0
148
0.0
149
0.0
100
AcDbLayout
  1
Layout2
 70
     1
 71
     2
 10
0.0
 20
0.0
 11
0.0
 21
0.0
 12
0.0
 22
0.0
 32
0.0
 14
0.0
 24
0.0
 34
0.0
 15
0.0
 25
0.0
 35
0.0
146
0.0
 13
0.0
 23
0.0
 33
0.0
 16
1.0
 26
0.0
 36
0.0
 17
0.0
 27
1.0
 37
0.0
 76
     0
330
23
  0
LAYOUT
  5
22
102
{ACAD_REACTORS
330
1A
102
}
330
1A
100
AcDbPlotSettings
  1

  2
none_device
  4

  6

 40
0.0
 41
0.0
 42
0.0
 43
0.0
 44
0.0
 45
0.0
 46
0.0
 47
0.0
 48
0.0
 49
0.0
140
0.0
141
0.0
142
1.0
143
1.0
 70
  1712
 72
     0
 73
     0
 74
     0
  7

 75
     0
 76
     0
 77
     5
 78
   300
147
1.0
148
0.0
149
0.0
100
AcDbLayout
  1
Model
 70
     1
 71
     0
 10
-1188.0
 20
-840.0
 11
1188.0
 21
840.0
 12
0.0
 22
0.0
 32
0.0
 14
-1188.0
 24
-840.0
 34
0.0
 15
1188.0
 25
840.0
 35
0.0
146
0.0
 13
0.0
 23
0.0
 33
0.0
 16
1.0
 26
0.0
 36
0.0
 17
0.0
 27
1.0
 37
0.0
 76
     0
330
1F
331
29
  0
MLINESTYLE
  5
18
102
{ACAD_REACTORS
330
17
102
}
330
17
100
AcDbMlineStyle
  2
Standard
 70
     0
  3

 62
   256
 51
90.0
 52
90.0
 71
     2
 49
0.5
 62
   256
  6
BYLAYER
 49
-0.5
 62
   256
  6
BYLAYER
  0
ACDBPLACEHOLDER
  5
F
102
{ACAD_REACTORS
330
E
102
}
330
E
  0
VISUALSTYLE
  5
2F
102
{ACAD_REACTORS
330
2A
102
}
330
2A
100
AcDbVisualStyle
  2
2dWireframe
 70
     4
 71
     0
 72
     2
 73
     0
 90
        0
 40
-0.6
 41
-30.0
 62
     5
 63
     7
421
 16777215
 74
     1
 91
        4
 64
     7
 65
   257
 75
     1
175
     1
 42
1.0
 92
        0
 66
   257
 43
1.0
 76
     1
 77
     6
 78
     2
 67
     7
 79
     5
170
     0
171
     0
290
     0
174
     0
 93
        1
 44
0.0
173
     0
291
     0
 45
0.0
1001
ACAD
1000
AcDbSavedByObjectVersion
1070
     0
  0
VISUALSTYLE
  5
31
102
{ACAD_REACTORS
330
2A
102
}
330
2A
100
AcDbVisualStyle
  2
3D Hidden
 70
     6
 71
     1
 72
     2
 73
     2
 90
        0
 40
-0.6
 41
-30.0
 62
     5
 63
     7
421
 16777215
 74
     2
 91
        2
 64
     7
 65
   257
 75
     2
175
     1
 42
40.0
 92
        0
 66
   257
 43
1.0
 76
     1
 77
     6
 78
     2
 67
     7
 79
     3
170
     0
171
     0
290
     0
174
     0
 93
        1
 44
0.0
173
     0
291
     0
 45
0.0
1001
ACAD
1000
AcDbSavedByObjectVersion
1070
     0
  0
VISUALSTYLE
  5
30
102
{ACAD_REACTORS
330
2A
102
}
330
2A
100
AcDbVisualStyle
  2
3dWireframe
 70
     5
 71
     0
 72
     2
 73
     0
 90
        0
 40
-0.6
 41
-30.0
 62
     5
 63
     7
421
 16777215
 74
     1
 91
        4
 64
     7
 65
   257
 75
     1
175
     1
 42
1.0
 92
        0
 66
   257
 43
1.0
 76
     1
 77
     6
 78
     2
 67
     7
 79
     5
170
     0
171
     0
290
     0
174
     0
 93
        1
 44
0.0
173
     0
291
     0
 45
0.0
1001
ACAD
1000
AcDbSavedByObjectVersion
1070
     0
  0
VISUALSTYLE
  5
32
102
{ACAD_REACTORS
330
2A
102
}
330
2A
100
AcDbVisualStyle
  2
Basic
 70
     7
 71
     1
 72
     0
 73
     1
 90
        0
 40
-0.6
 41
-30.0
 62
     5
 63
     7
421
 16777215
 74
     0
 91
        4
 64
     7
 65
   257
 75
     1
175
     1
 42
1.0
 92
        8
 66
     7
 43
1.0
 76
     1
 77
     6
 78
     2
 67
     7
 79
     5
170
     0
171
     0
290
     0
174
     0
 93
        1
 44
0.0
173
     0
291
     1
 45
0.0
1001
ACAD
1000
AcDbSavedByObjectVersion
1070
     0
  0
VISUALSTYLE
  5
36
102
{ACAD_REACTORS
330
2A
102
}
330
2A
100
AcDbVisualStyle
  2
Brighten
 70
    12
 71
     2
 72
     2
 73
     0
 90
        0
 40
-0.6
 41
-30.0
 62
     5
 63
     7
421
 16777215
 74
     1
 91
        4
 64
     7
 65
   257
 75
     1
175
     1
 42
1.0
 92
        8
 66
     7
 43
1.0
 76
     1
 77
     6
 78
     2
 67
     7
 79
     5
170
     0
171
     0
290
     0
174
     0
 93
        1
 44
50.0
173
     0
291
     1
 45
0.0
1001
ACAD
1000
AcDbSavedByObjectVersion
1070
     0
  0
VISUALSTYLE
  5
3A
102
{ACAD_REACTORS
330
2A
102
}
330
2A
100
AcDbVisualStyle
  2
ColorChange
 70
    16
 71
     2
 72
     2
 73
     3
 90
        0
 40
-0.6
 41
-30.0
 62
     5
 63
     8
421
  8421504
 74
     1
 91
        4
 64
     7
 65
   257
 75
     1
175
     1
 42
1.0
 92
        8
 66
     8
424
  8421504
 43
1.0
 76
     1
 77
     6
 78
     2
 67
     7
 79
     5
170
     0
171
     0
290
     0
174
     0
 93
        1
 44
0.0
173
     0
291
     1
 45
0.0
1001
ACAD
1000
AcDbSavedByObjectVersion
1070
     0
  0
VISUALSTYLE
  5
34
102
{ACAD_REACTORS
330
2A
102
}
330
2A
100
AcDbVisualStyle
  2
Conceptual
 70
     9
 71
     3
 72
     2
 73
     0
 90
        0
 40
-0.6
 41
-30.0
 62
     5
 63
     7
421
 16777215
 74
     2
 91
        2
 64
     7
 65
   257
 75
     1
175
     1
 42
40.0
 92
        8
 66
     7
 43
1.0
 76
     1
 77
     6
 78
     2
 67
     7
 79
     3
170
     0
171
     0
290
     0
174
     0
 93
        1
 44
0.0
173
     0
291
     0
 45
0.0
1001
ACAD
1000
AcDbSavedByObjectVersion
1070
     0
  0
VISUALSTYLE
  5
35
102
{ACAD_REACTORS
330
2A
102
}
330
2A
100
AcDbVisualStyle
  2
Dim
 70
    11
 71
     2
 72
     2
 73
     0
 90
        0
 40
-0.6
 41
-30.0
 62
     5
 63
     7
421
 16777215
 74
     1
 91
        4
 64
     7
 65
   257
 75
     1
175
     1
 42
1.0
 92
        8
 66
     7
 43
1.0
 76
     1
 77
     6
 78
     2
 67
     7
 79
     5
170
     0
171
     0
290
     0
174
     0
 93
        1
 44
-50.0
173
     0
291
     1
 45
0.0
1001
ACAD
1000
AcDbSavedByObjectVersion
1070
     0
  0
VISUALSTYLE
  5
39
102
{ACAD_REACTORS
330
2A
102
}
330
2A
100
AcDbVisualStyle
  2
Facepattern
 70
    15
 71
     2
 72
     2
 73
     0
 90
        0
 40
-0.6
 41
-30.0
 62
     5
 63
     7
421
 16777215
 74
     1
 91
        4
 64
     7
 65
   257
 75
     1
175
     1
 42
1.0
 92
        8
 66
     7
 43
1.0
 76
     1
 77
     6
 78
     2
 67
     7
 79
     5
170
     0
171
     0
290
     0
174
     0
 93
        1
 44
0.0
173
     0
291
     1
 45
0.0
1001
ACAD
1000
AcDbSavedByObjectVersion
1070
     0
  0
VISUALSTYLE
  5
2B
102
{ACAD_REACTORS
330
2A
102
}
330
2A
100
AcDbVisualStyle
  2
Flat
 70
     0
 71
     2
 72
     1
 73
     1
 90
        2
 40
-0.6
 41
30.0
 62
     5
 63
     7
421
 16777215
 74
     0
 91
        4
 64
     7
 65
   257
 75
     1
175
     1
 42
1.0
 92
        8
 66
     7
 43
1.0
 76
     1
 77
     6
 78
     2
 67
     7
 79
     5
170
     0
171
     0
290
     0
174
     0
 93
       13
 44
0.0
173
     0
291
     1
 45
0.0
1001
ACAD
1000
AcDbSavedByObjectVersion
1070
     0
  0
VISUALSTYLE
  5
2C
102
{ACAD_REACTORS
330
2A
102
}
330
2A
100
AcDbVisualStyle
  2
FlatWithEdges
 70
     1
 71
     2
 72
     1
 73
     1
 90
        2
 40
-0.6
 41
30.0
 62
     5
 63
     7
421
 16777215
 74
     1
 91
        4
 64
     7
 65
   257
 75
     1
175
     1
 42
1.0
 92
        0
 66
   257
 43
1.0
 76
     1
 77
     6
 78
     2
 67
     7
 79
     5
170
     0
171
     0
290
     0
174
     0
 93
       13
 44
0.0
173
     0
291
     1
 45
0.0
1001
ACAD
1000
AcDbSavedByObjectVersion
1070
     0
  0
VISUALSTYLE
  5
2D
102
{ACAD_REACTORS
330
2A
102
}
330
2A
100
AcDbVisualStyle
  2
Gouraud
 70
     2
 71
     2
 72
     2
 73
     1
 90
        2
 40
-0.6
 41
30.0
 62
     5
 63
     7
421
 16777215
 74
     0
 91
        4
 64
     7
 65
   257
 75
     1
175
     1
 42
1.0
 92
        0
 66
     7
 43
1.0
 76
     1
 77
     6
 78
     2
 67
     7
 79
     5
170
     0
171
     0
290
     0
174
     0
 93
       13
 44
0.0
173
     0
291
     1
 45
0.0
1001
ACAD
1000
AcDbSavedByObjectVersion
1070
     0
  0
VISUALSTYLE
  5
2E
102
{ACAD_REACTORS
330
2A
102
}
330
2A
100
AcDbVisualStyle
  2
GouraudWithEdges
 70
     3
 71
     2
 72
     2
 73
     1
 90
        2
 40
-0.6
 41
30.0
 62
     5
 63
     7
421
 16777215
 74
     1
 91
        4
 64
     7
 65
   257
 75
     1
175
     1
 42
1.0
 92
        0
 66
   257
 43
1.0
 76
     1
 77
     6
 78
     2
 67
     7
 79
     5
170
     0
171
     0
290
     0
174
     0
 93
       13
 44
0.0
173
     0
291
     1
 45
0.0
1001
ACAD
1000
AcDbSavedByObjectVersion
1070
     0
  0
VISUALSTYLE
  5
38
102
{ACAD_REACTORS
330
2A
102
}
330
2A
100
AcDbVisualStyle
  2
Linepattern
 70
    14
 71
     2
 72
     2
 73
     0
 90
        0
 40
-0.6
 41
-30.0
 62
     5
 63
     7
421
 16777215
 74
     1
 91
        4
 64
     7
 65
   257
 75
     7
175
     7
 42
1.0
 92
        8
 66
     7
 43
1.0
 76
     1
 77
     6
 78
     2
 67
     7
 79
     5
170
     0
171
     0
290
     0
174
     0
 93
        1
 44
0.0
173
     0
291
     1
 45
0.0
1001
ACAD
1000
AcDbSavedByObjectVersion
1070
     0
  0
VISUALSTYLE
  5
33
102
{ACAD_REACTORS
330
2A
102
}
330
2A
100
AcDbVisualStyle
  2
Realistic
 70
     8
 71
     2
 72
     2
 73
     0
 90
        0
 40
-0.6
 41
-30.0
 62
     5
 63
     7
421
 16777215
 74
     1
 91
        0
 64
     7
 65
   257
 75
     1
175
     1
 42
1.0
 92
        8
 66
     8
424
  7895160
 43
1.0
 76
     1
 77
     6
 78
     2
 67
     7
 79
     5
170
     0
171
     0
290
     0
174
     0
 93
       13
 44
0.0
173
     0
291
     0
 45
0.0
1001
ACAD
1000
AcDbSavedByObjectVersion
1070
     0
  0
VISUALSTYLE
  5
37
102
{ACAD_REACTORS
330
2A
102
}
330
2A
100
AcDbVisualStyle
  2
Thicken
 70
    13
 71
     2
 72
     2
 73
     0
 90
        0
 40
-0.6
 41
-30.0
 62
     5
 63
     7
421
 16777215
 74
     1
 91
        4
 64
     7
 65
   257
 75
     1
175
     1
 42
1.0
 92
       12
 66
     7
 43
1.0
 76
     1
 77
     6
 78
     2
 67
     7
 79
     5
170
     0
171
     0
290
     0
174
     0
 93
        1
 44
0.0
173
     0
291
     1
 45
0.0
1001
ACAD
1000
AcDbSavedByObjectVersion
1070
     0
  0
ENDSEC
  0
EOF
