  0
SECTION
  2
HEADER
  9
$ACADVER
  1
AC1018
  9
$ACADMAINTVER
 70
     0
  9
$DWGCODEPAGE
  3
ANSI_932
  9
$INSBASE
 10
0.0
 20
0.0
 30
0.0
  9
$EXTMIN
 10
-630.0
 20
-445.5
 30
0.0
  9
$EXTMAX
 10
630.0
 20
445.5
 30
0.0
  9
$LIMMIN
 10
-630.0
 20
-445.5
  9
$LIMMAX
 10
630.0
 20
445.5
  9
$ORTHOMODE
 70
     0
  9
$REGENMODE
 70
     1
  9
$FILLMODE
 70
     1
  9
$QTEXTMODE
 70
     0
  9
$MIRRTEXT
 70
     1
  9
$LTSCALE
 40
3.0
  9
$ATTMODE
 70
     1
  9
$TEXTSIZE
 40
2.5
  9
$TRACEWID
 40
1.0
  9
$TEXTSTYLE
  7
Standard
  9
$CLAYER
  8
0
  9
$CELTYPE
  6
ByLayer
  9
$CECOLOR
 62
   256
  9
$CELTSCALE
 40
1.0
  9
$DISPSILH
 70
     0
  9
$DIMSCALE
 40
1.0
  9
$DIMASZ
 40
2.5
  9
$DIMEXO
 40
0.625
  9
$DIMDLI
 40
3.75
  9
$DIMRND
 40
0.0
  9
$DIMDLE
 40
0.0
  9
$DIMEXE
 40
1.25
  9
$DIMTP
 40
0.0
  9
$DIMTM
 40
0.0
  9
$DIMTXT
 40
2.5
  9
$DIMCEN
 40
2.5
  9
$DIMTSZ
 40
0.0
  9
$DIMTOL
 70
     0
  9
$DIMLIM
 70
     0
  9
$DIMTIH
 70
     0
  9
$DIMTOH
 70
     0
  9
$DIMSE1
 70
     0
  9
$DIMSE2
 70
     0
  9
$DIMTAD
 70
     1
  9
$DIMZIN
 70
     8
  9
$DIMBLK
  1

  9
$DIMASO
 70
     1
  9
$DIMSHO
 70
     1
  9
$DIMPOST
  1

  9
$DIMAPOST
  1

  9
$DIMALT
 70
     0
  9
$DIMALTD
 70
     3
  9
$DIMALTF
 40
0.03937007874016
  9
$DIMLFAC
 40
1.0
  9
$DIMTOFL
 70
     1
  9
$DIMTVP
 40
0.0
  9
$DIMTIX
 70
     0
  9
$DIMSOXD
 70
     0
  9
$DIMSAH
 70
     0
  9
$DIMBLK1
  1

  9
$DIMBLK2
  1

  9
$DIMSTYLE
  2
ISO-25
  9
$DIMCLRD
 70
     0
  9
$DIMCLRE
 70
     0
  9
$DIMCLRT
 70
     0
  9
$DIMTFAC
 40
1.0
  9
$DIMGAP
 40
0.625
  9
$DIMJUST
 70
     0
  9
$DIMSD1
 70
     0
  9
$DIMSD2
 70
     0
  9
$DIMTOLJ
 70
     0
  9
$DIMTZIN
 70
     8
  9
$DIMALTZ
 70
     0
  9
$DIMALTTZ
 70
     0
  9
$DIMUPT
 70
     0
  9
$DIMDEC
 70
     2
  9
$DIMTDEC
 70
     2
  9
$DIMALTU
 70
     2
  9
$DIMALTTD
 70
     3
  9
$DIMTXSTY
  7
Standard
  9
$DIMAUNIT
 70
     0
  9
$DIMADEC
 70
     0
  9
$DIMALTRND
 40
0.0
  9
$DIMAZIN
 70
     0
  9
$DIMDSEP
 70
    44
  9
$DIMATFIT
 70
     3
  9
$DIMFRAC
 70
     0
  9
$DIMLDRBLK
  1

  9
$DIMLUNIT
 70
     2
  9
$DIMLWD
 70
    -2
  9
$DIMLWE
 70
    -2
  9
$DIMTMOVE
 70
     0
  9
$LUNITS
 70
     2
  9
$LUPREC
 70
     4
  9
$SKETCHINC
 40
1.0
  9
$FILLETRAD
 40
10.0
  9
$AUNITS
 70
     0
  9
$AUPREC
 70
     0
  9
$MENU
  1
.
  9
$ELEVATION
 40
0.0
  9
$PELEVATION
 40
0.0
  9
$THICKNESS
 40
0.0
  9
$LIMCHECK
 70
     0
  9
$CHAMFERA
 40
0.0
  9
$CHAMFERB
 40
0.0
  9
$CHAMFERC
 40
0.0
  9
$CHAMFERD
 40
0.0
  9
$SKPOLY
 70
     0
  9
$TDCREATE
 40
2460129.726314769
  9
$TDUCREATE
 40
2460129.351314769
  9
$TDUPDATE
 40
2460129.726314873
  9
$TDUUPDATE
 40
2460129.351314873
  9
$TDINDWG
 40
0.0000000116
  9
$TDUSRTIMER
 40
0.0000000116
  9
$USRTIMER
 70
     1
  9
$ANGBASE
 50
0.0
  9
$ANGDIR
 70
     0
  9
$PDMODE
 70
     0
  9
$PDSIZE
 40
0.0
  9
$PLINEWID
 40
0.0
  9
$SPLFRAME
 70
     0
  9
$SPLINETYPE
 70
     6
  9
$SPLINESEGS
 70
     8
  9
$HANDSEED
  5
339
  9
$SURFTAB1
 70
     6
  9
$SURFTAB2
 70
     6
  9
$SURFTYPE
 70
     6
  9
$SURFU
 70
     6
  9
$SURFV
 70
     6
  9
$UCSBASE
  2

  9
$UCSNAME
  2

  9
$UCSORG
 10
0.0
 20
0.0
 30
0.0
  9
$UCSXDIR
 10
1.0
 20
0.0
 30
0.0
  9
$UCSYDIR
 10
0.0
 20
1.0
 30
0.0
  9
$UCSORTHOREF
  2

  9
$UCSORTHOVIEW
 70
     0
  9
$UCSORGTOP
 10
0.0
 20
0.0
 30
0.0
  9
$UCSORGBOTTOM
 10
0.0
 20
0.0
 30
0.0
  9
$UCSORGLEFT
 10
0.0
 20
0.0
 30
0.0
  9
$UCSORGRIGHT
 10
0.0
 20
0.0
 30
0.0
  9
$UCSORGFRONT
 10
0.0
 20
0.0
 30
0.0
  9
$UCSORGBACK
 10
0.0
 20
0.0
 30
0.0
  9
$PUCSBASE
  2

  9
$PUCSNAME
  2

  9
$PUCSORG
 10
0.0
 20
0.0
 30
0.0
  9
$PUCSXDIR
 10
1.0
 20
0.0
 30
0.0
  9
$PUCSYDIR
 10
0.0
 20
1.0
 30
0.0
  9
$PUCSORTHOREF
  2

  9
$PUCSORTHOVIEW
 70
     0
  9
$PUCSORGTOP
 10
0.0
 20
0.0
 30
0.0
  9
$PUCSORGBOTTOM
 10
0.0
 20
0.0
 30
0.0
  9
$PUCSORGLEFT
 10
0.0
 20
0.0
 30
0.0
  9
$PUCSORGRIGHT
 10
0.0
 20
0.0
 30
0.0
  9
$PUCSORGFRONT
 10
0.0
 20
0.0
 30
0.0
  9
$PUCSORGBACK
 10
0.0
 20
0.0
 30
0.0
  9
$USERI1
 70
     0
  9
$USERI2
 70
     0
  9
$USERI3
 70
     0
  9
$USERI4
 70
     0
  9
$USERI5
 70
     0
  9
$USERR1
 40
0.0
  9
$USERR2
 40
0.0
  9
$USERR3
 40
0.0
  9
$USERR4
 40
0.0
  9
$USERR5
 40
0.0
  9
$WORLDVIEW
 70
     1
  9
$SHADEDGE
 70
     3
  9
$SHADEDIF
 70
    70
  9
$TILEMODE
 70
     1
  9
$MAXACTVP
 70
    64
  9
$PINSBASE
 10
0.0
 20
0.0
 30
0.0
  9
$PLIMCHECK
 70
     0
  9
$PEXTMIN
 10
1.000000000000000E+20
 20
1.000000000000000E+20
 30
1.000000000000000E+20
  9
$PEXTMAX
 10
-1.000000000000000E+20
 20
-1.000000000000000E+20
 30
-1.000000000000000E+20
  9
$PLIMMIN
 10
0.0
 20
0.0
  9
$PLIMMAX
 10
420.0
 20
297.0
  9
$UNITMODE
 70
     0
  9
$VISRETAIN
 70
     1
  9
$PLINEGEN
 70
     0
  9
$PSLTSCALE
 70
     1
  9
$TREEDEPTH
 70
  3020
  9
$CMLSTYLE
  2
Standard
  9
$CMLJUST
 70
     0
  9
$CMLSCALE
 40
20.0
  9
$PROXYGRAPHICS
 70
     1
  9
$MEASUREMENT
 70
     1
  9
$CELWEIGHT
370
    -1
  9
$ENDCAPS
280
     0
  9
$JOINSTYLE
280
     0
  9
$LWDISPLAY
290
     0
  9
$INSUNITS
 70
     4
  9
$HYPERLINKBASE
  1

  9
$STYLESHEET
  1

  9
$XEDIT
290
     1
  9
$CEPSNTYPE
380
     0
  9
$PSTYLEMODE
290
     1
  9
$FINGERPRINTGUID
  2
{7C228F15-4BA4-4412-9BA5-DD21292C951B}
  9
$VERSIONGUID
  2
{FAEB1C32-E019-11D5-929B-00C0DF256EC4}
  9
$EXTNAMES
290
     1
  9
$PSVPSCALE
 40
0.0
  9
$OLESTARTUP
290
     0
  9
$SORTENTS
280
   127
  9
$INDEXCTL
280
     0
  9
$HIDETEXT
280
     1
  9
$XCLIPFRAME
290
     0
  9
$HALOGAP
280
     0
  9
$OBSCOLOR
 70
   257
  9
$OBSLTYPE
280
     0
  9
$INTERSECTIONDISPLAY
280
     0
  9
$INTERSECTIONCOLOR
 70
   257
  9
$DIMASSOC
280
     2
  9
$PROJECTNAME
  1

  0
ENDSEC
  0
SECTION
  2
CLASSES
  0
CLASS
  1
ACDBDICTIONARYWDFLT
  2
AcDbDictionaryWithDefault
  3
ObjectDBX Classes
 90
        0
 91
        4
280
     0
281
     0
  0
CLASS
  1
VISUALSTYLE
  2
AcDbVisualStyle
  3
ObjectDBX Classes
 90
     4095
 91
        4
280
     0
281
     0
  0
CLASS
  1
MATERIAL
  2
AcDbMaterial
  3
ObjectDBX Classes
 90
     1153
 91
        4
280
     0
281
     0
  0
CLASS
  1
SCALE
  2
AcDbScale
  3
ObjectDBX Classes
 90
     1153
 91
        4
280
     0
281
     0
  0
CLASS
  1
TABLESTYLE
  2
AcDbTableStyle
  3
ObjectDBX Classes
 90
     4095
 91
        4
280
     0
281
     0
  0
CLASS
  1
MLEADERSTYLE
  2
AcDbMLeaderStyle
  3
ACDB_MLEADERSTYLE_CLASS
 90
     4095
 91
        4
280
     0
281
     0
  0
CLASS
  1
SUN
  2
AcDbSun
  3
SCENEOE
 90
     1153
 91
        4
280
     0
281
     0
  0
CLASS
  1
DICTIONARYVAR
  2
AcDbDictionaryVar
  3
ObjectDBX Classes
 90
        0
 91
        4
280
     0
281
     0
  0
CLASS
  1
CELLSTYLEMAP
  2
AcDbCellStyleMap
  3
ObjectDBX Classes
 90
     1152
 91
        4
280
     0
281
     0
  0
ENDSEC
  0
SECTION
  2
TABLES
  0
TABLE
  2
VPORT
  5
8
102
{ACAD_XDICTIONARY
360
2F0
102
}
330
0
100
AcDbSymbolTable
 70
     1
  0
VPORT
  5
29
330
8
100
AcDbSymbolTableRecord
100
AcDbViewportTableRecord
  2
*Active
 70
     0
 10
0.0
 20
0.0
 11
1.0
 21
1.0
 12
0.0
 22
0.0
 13
0.0
 23
0.0
 14
10.0
 24
10.0
 15
10.0
 25
10.0
 16
0.0
 26
0.0
 36
1.0
 17
0.0
 27
0.0
 37
0.0
 40
980.1
 41
1.414141414141414
 42
50.0
 43
0.0
 44
0.0
 50
0.0
 51
0.0
 71
     0
 72
 10000
 73
     1
 74
     3
 75
     0
 76
     0
 77
     0
 78
     0
281
     0
 65
     1
110
0.0
120
0.0
130
0.0
111
1.0
121
0.0
131
0.0
112
0.0
122
1.0
132
0.0
 79
     0
146
0.0
  0
ENDTAB
  0
TABLE
  2
LTYPE
  5
5
330
0
100
AcDbSymbolTable
 70
     3
  0
LTYPE
  5
14
330
5
100
AcDbSymbolTableRecord
100
AcDbLinetypeTableRecord
  2
ByBlock
 70
     0
  3

 72
    65
 73
     0
 40
0.0
  0
LTYPE
  5
15
330
5
100
AcDbSymbolTableRecord
100
AcDbLinetypeTableRecord
  2
ByLayer
 70
     0
  3

 72
    65
 73
     0
 40
0.0
  0
LTYPE
  5
16
330
5
100
AcDbSymbolTableRecord
100
AcDbLinetypeTableRecord
  2
Continuous
 70
     0
  3
Solid line
 72
    65
 73
     0
 40
0.0
  0
LTYPE
  5
6F
330
5
100
AcDbSymbolTableRecord
100
AcDbLinetypeTableRecord
  2
JWW_DASHED1
 70
     0
  3
-  --  --  --  --  --  --  --  -
 72
    65
 73
     2
 40
1.693333333333333
 49
0.8466666666666667
 74
     0
 49
-0.8466666666666667
 74
     0
  0
LTYPE
  5
70
330
5
100
AcDbSymbolTableRecord
100
AcDbLinetypeTableRecord
  2
JWW_CENTER1
 70
     0
  3
-----  --  ----------  --  -----
 72
    65
 73
     4
 40
6.773333333333333
 49
4.233333333333333
 74
     0
 49
-0.8466666666666667
 74
     0
 49
0.8466666666666667
 74
     0
 49
-0.8466666666666667
 74
     0
  0
ENDTAB
  0
TABLE
  2
LAYER
  5
2
330
0
100
AcDbSymbolTable
 70
     7
  0
LAYER
  5
10
330
2
100
AcDbSymbolTableRecord
100
AcDbLayerTableRecord
  2
0
 70
     0
 62
     7
  6
Continuous
370
    -3
390
F
  0
LAYER
  5
71
330
2
100
AcDbSymbolTableRecord
100
AcDbLayerTableRecord
  2
1-0ﾚｲﾔ
 70
     0
 62
     7
  6
Continuous
370
    -3
390
F
  0
LAYER
  5
72
330
2
100
AcDbSymbolTableRecord
100
AcDbLayerTableRecord
  2
1-2ﾚｲﾔ
 70
     0
 62
     7
  6
Continuous
370
    -3
390
F
  0
LAYER
  5
73
330
2
100
AcDbSymbolTableRecord
100
AcDbLayerTableRecord
  2
1-3ﾚｲﾔ
 70
     0
 62
     7
  6
Continuous
370
    -3
390
F
  0
LAYER
  5
74
330
2
100
AcDbSymbolTableRecord
100
AcDbLayerTableRecord
  2
1-5ﾚｲﾔ
 70
     0
 62
     7
  6
Continuous
370
    -3
390
F
  0
LAYER
  5
75
330
2
100
AcDbSymbolTableRecord
100
AcDbLayerTableRecord
  2
1-4ﾚｲﾔ
 70
     0
 62
     7
  6
Continuous
370
    -3
390
F
  0
LAYER
  5
76
330
2
100
AcDbSymbolTableRecord
100
AcDbLayerTableRecord
  2
F-5ﾚｲﾔ
 70
     0
 62
     7
  6
Continuous
370
    -3
390
F
  0
ENDTAB
  0
TABLE
  2
STYLE
  5
3
330
0
100
AcDbSymbolTable
 70
     2
  0
STYLE
  5
11
330
3
100
AcDbSymbolTableRecord
100
AcDbTextStyleTableRecord
  2
Standard
 70
     0
 40
0.0
 41
1.0
 50
0.0
 71
     0
 42
2.5
  3
txt
  4

  0
STYLE
  5
6E
330
3
100
AcDbSymbolTableRecord
100
AcDbTextStyleTableRecord
  2
ＭＳ ゴシック
 70
     0
 40
1.0
 41
1.0
 50
0.0
 71
     0
 42
2.5
  3

  4

1001
ACAD
1000
MS Gothic
1071
    32817
  0
ENDTAB
  0
TABLE
  2
VIEW
  5
6
330
0
100
AcDbSymbolTable
 70
     0
  0
ENDTAB
  0
TABLE
  2
UCS
  5
7
330
0
100
AcDbSymbolTable
 70
     0
  0
ENDTAB
  0
TABLE
  2
APPID
  5
9
330
0
100
AcDbSymbolTable
 70
     2
  0
APPID
  5
12
330
9
100
AcDbSymbolTableRecord
100
AcDbRegAppTableRecord
  2
ACAD
 70
     0
  0
APPID
  5
32F
330
9
100
AcDbSymbolTableRecord
100
AcDbRegAppTableRecord
  2
ACAD_MLEADERVER
 70
     0
  0
ENDTAB
  0
TABLE
  2
DIMSTYLE
  5
A
330
0
100
AcDbSymbolTable
 70
     1
100
AcDbDimStyleTable
  0
DIMSTYLE
105
27
330
A
100
AcDbSymbolTableRecord
100
AcDbDimStyleTableRecord
  2
ISO-25
 70
     0
 41
2.5
 42
0.625
 43
3.75
 44
1.25
 73
     0
 74
     0
 77
     1
 78
     8
140
2.5
141
2.5
143
0.03937007874016
147
0.625
171
     3
172
     1
178
     0
271
     2
272
     2
274
     3
278
    44
283
     0
284
     8
340
11
  0
ENDTAB
  0
TABLE
  2
BLOCK_RECORD
  5
1
330
0
100
AcDbSymbolTable
 70
     1
  0
BLOCK_RECORD
  5
1F
330
1
100
AcDbSymbolTableRecord
100
AcDbBlockTableRecord
  2
*Model_Space
340
22
  0
BLOCK_RECORD
  5
1B
330
1
100
AcDbSymbolTableRecord
100
AcDbBlockTableRecord
  2
*Paper_Space
340
1E
  0
BLOCK_RECORD
  5
23
330
1
100
AcDbSymbolTableRecord
100
AcDbBlockTableRecord
  2
*Paper_Space0
340
26
  0
ENDTAB
  0
ENDSEC
  0
SECTION
  2
BLOCKS
  0
BLOCK
  5
20
330
1F
100
AcDbEntity
  8
0
100
AcDbBlockBegin
  2
*Model_Space
 70
     0
 10
0.0
 20
0.0
 30
0.0
  3
*Model_Space
  1

  0
ENDBLK
  5
21
330
1F
100
AcDbEntity
  8
0
100
AcDbBlockEnd
  0
BLOCK
  5
1C
330
1B
100
AcDbEntity
 67
     1
  8
0
100
AcDbBlockBegin
  2
*Paper_Space
 70
     0
 10
0.0
 20
0.0
 30
0.0
  3
*Paper_Space
  1

  0
ENDBLK
  5
1D
330
1B
100
AcDbEntity
 67
     1
  8
0
100
AcDbBlockEnd
  0
BLOCK
  5
24
330
23
100
AcDbEntity
  8
0
100
AcDbBlockBegin
  2
*Paper_Space0
 70
     0
 10
0.0
 20
0.0
 30
0.0
  3
*Paper_Space0
  1

  0
ENDBLK
  5
25
330
23
100
AcDbEntity
  8
0
100
AcDbBlockEnd
  0
ENDSEC
  0
SECTION
  2
ENTITIES
  0
LINE
  5
77
330
1F
100
AcDbEntity
  8
1-0ﾚｲﾔ
  6
Continuous
 62
     3
370
     9
100
AcDbLine
 10
18.7479711318179
 20
-70.91222212929753
 30
0.0
 11
23.00798985240787
 21
-70.91222212929753
 31
0.0
  0
LINE
  5
78
330
1F
100
AcDbEntity
  8
1-0ﾚｲﾔ
  6
Continuous
 62
     3
370
     9
100
AcDbLine
 10
23.00798985240787
 20
-70.91222212929753
 30
0.0
 11
20.8780154871735
 21
-72.14194855982961
 31
0.0
  0
LINE
  5
79
330
1F
100
AcDbEntity
  8
1-0ﾚｲﾔ
  6
Continuous
 62
     3
370
     9
100
AcDbLine
 10
23.00798985240787
 20
-68.91218442418173
 30
0.0
 11
23.00798985240787
 21
-70.91222212929753
 31
0.0
  0
LINE
  5
7A
330
1F
100
AcDbEntity
  8
1-0ﾚｲﾔ
  6
Continuous
 62
     3
370
     9
100
AcDbLine
 10
18.7479711318179
 20
-70.91222212929753
 30
0.0
 11
20.8780154871735
 21
-72.14194855982961
 31
0.0
  0
LINE
  5
7B
330
1F
100
AcDbEntity
  8
1-0ﾚｲﾔ
  6
Continuous
 62
     3
370
     9
100
AcDbLine
 10
18.7479711318179
 20
-68.91218442418173
 30
0.0
 11
18.7479711318179
 21
-70.91222212929753
 31
0.0
  0
LINE
  5
7C
330
1F
100
AcDbEntity
  8
1-0ﾚｲﾔ
  6
Continuous
 62
     3
370
     9
100
AcDbLine
 10
-116.964186305422
 20
-52.63587674006763
 30
0.0
 11
-116.6220046025835
 21
-50.9122300238062
 31
0.0
  0
LINE
  5
7D
330
1F
100
AcDbEntity
  8
1-0ﾚｲﾔ
  6
JWW_DASHED1
 62
     3
370
     9
100
AcDbLine
 10
-115.6219157599043
 20
-67.44508649739751
 30
0.0
 11
-116.3160077924363
 21
-61.79275429458924
 31
0.0
  0
LINE
  5
7E
330
1F
100
AcDbEntity
  8
1-0ﾚｲﾔ
  6
Continuous
 62
     3
370
     9
100
AcDbLine
 10
31.72032515174877
 20
-52.63587674006763
 30
0.0
 11
31.37814344891034
 21
-50.9122300238062
 31
0.0
  0
LINE
  5
7F
330
1F
100
AcDbEntity
  8
1-0ﾚｲﾔ
  6
JWW_DASHED1
 62
     3
370
     9
100
AcDbLine
 10
-117.6830548408798
 20
-60.13440836146303
 30
0.0
 11
-118.9262193746938
 21
-59.73049537167359
 31
0.0
  0
LINE
  5
80
330
1F
100
AcDbEntity
  8
1-0ﾚｲﾔ
  6
Continuous
 62
     3
370
     9
100
AcDbLine
 10
14.9700093714037
 20
-74.20074297174294
 30
0.0
 11
23.91852633493533
 21
-73.57489130743912
 31
0.0
  0
LINE
  5
81
330
1F
100
AcDbEntity
  8
1-0ﾚｲﾔ
  6
Continuous
 62
     3
370
     9
100
AcDbLine
 10
35.58993897595244
 20
-54.90481649106303
 30
0.0
 11
47.8780345753884
 21
-50.9122300238062
 31
0.0
  0
LINE
  5
82
330
1F
100
AcDbEntity
  8
1-0ﾚｲﾔ
  6
Continuous
 62
     3
370
     9
100
AcDbLine
 10
14.18486019111292
 20
-69.29247574804604
 30
0.0
 11
15.54777782240216
 21
-64.9619069852263
 31
0.0
  0
LINE
  5
83
330
1F
100
AcDbEntity
  8
1-0ﾚｲﾔ
  6
Continuous
 62
     3
370
     9
100
AcDbLine
 10
-86.3876720208388
 20
-110.9121713452197
 30
0.0
 11
-84.86097750580203
 21
-109.3854768301829
 31
0.0
  0
LINE
  5
84
330
1F
100
AcDbEntity
  8
1-0ﾚｲﾔ
  6
Continuous
 62
     3
370
     9
100
AcDbLine
 10
1.14379336963537
 20
-110.9121713452197
 30
0.0
 11
-0.3829011454014388
 21
-109.3854768301829
 31
0.0
  0
LINE
  5
85
330
1F
100
AcDbEntity
  8
1-0ﾚｲﾔ
  6
Continuous
 62
     3
370
     9
100
AcDbLine
 10
26.94360436095939
 20
-62.59498106446736
 30
0.0
 11
28.37812188629724
 21
-50.9122300238062
 31
0.0
  0
LINE
  5
86
330
1F
100
AcDbEntity
  8
1-0ﾚｲﾔ
  6
Continuous
 62
     3
370
     9
100
AcDbLine
 10
-84.86097750580203
 20
-109.3854768301829
 30
0.0
 11
-0.3829011454014388
 21
-109.3854768301829
 31
0.0
  0
LINE
  5
87
330
1F
100
AcDbEntity
  8
1-0ﾚｲﾔ
  6
JWW_DASHED1
 62
     3
370
     9
100
AcDbLine
 10
-100.2138355300162
 20
-74.20074297174294
 30
0.0
 11
-109.1624224836691
 21
-73.57489130743912
 31
0.0
  0
LINE
  5
88
330
1F
100
AcDbEntity
  8
1-0ﾚｲﾔ
  6
Continuous
 62
     3
370
     9
100
AcDbLine
 10
-100.5319056360807
 20
-81.81272857970023
 30
0.0
 11
-99.75701000855449
 21
-89.56140489447765
 31
0.0
  0
LINE
  5
89
330
1F
100
AcDbEntity
  8
1-0ﾚｲﾔ
  6
Continuous
 62
     3
370
     9
100
AcDbLine
 10
-99.42875633984673
 20
-69.29247574804604
 30
0.0
 11
-100.7917089661966
 21
-64.9619069852263
 31
0.0
  0
LINE
  5
8A
330
1F
100
AcDbEntity
  8
1-0ﾚｲﾔ
  6
Continuous
 62
     3
370
     9
100
AcDbLine
 10
-91.11361497865434
 20
-74.49253178727443
 30
0.0
 11
-91.20614191895959
 21
-73.37219991627117
 31
0.0
  0
LINE
  5
8B
330
1F
100
AcDbEntity
  8
1-0ﾚｲﾔ
  6
Continuous
 62
     3
370
     9
100
AcDbLine
 10
-115.7560868223591
 20
-79.56023650720081
 30
0.0
 11
-117.5540280523377
 21
-61.43517476507365
 31
0.0
  0
LINE
  5
8C
330
1F
100
AcDbEntity
  8
1-0ﾚｲﾔ
  6
Continuous
 62
     3
370
     9
100
AcDbLine
 10
-121.621818904888
 20
-98.91215508488844
 30
0.0
 11
-121.621818904888
 21
-104.9121282199934
 31
0.0
  0
LINE
  5
8D
330
1F
100
AcDbEntity
  8
1-0ﾚｲﾔ
  6
Continuous
 62
     3
370
     9
100
AcDbLine
 10
-107.4468946214738
 20
-74.71216078778723
 30
0.0
 11
-113.7968533579376
 21
-74.71216078778723
 31
0.0
  0
LINE
  5
8E
330
1F
100
AcDbEntity
  8
1-0ﾚｲﾔ
  6
Continuous
 62
     3
370
     9
100
AcDbLine
 10
-107.4468946214738
 20
-74.71216078778723
 30
0.0
 11
-108.2619645786031
 21
-73.91210371166817
 31
0.0
  0
LINE
  5
8F
330
1F
100
AcDbEntity
  8
1-0ﾚｲﾔ
  6
Continuous
 62
     3
370
     9
100
AcDbLine
 10
-112.9819583761115
 20
-73.91210371166817
 30
0.0
 11
-113.7968533579376
 21
-74.71216078778723
 31
0.0
  0
LINE
  5
90
330
1F
100
AcDbEntity
  8
1-0ﾚｲﾔ
  6
Continuous
 62
     3
370
     9
100
AcDbLine
 10
-108.2619645786031
 20
-73.91210371166817
 30
0.0
 11
-112.9819583761115
 21
-73.91210371166817
 31
0.0
  0
LINE
  5
91
330
1F
100
AcDbEntity
  8
1-0ﾚｲﾔ
  6
Continuous
 62
     3
370
     9
100
AcDbLine
 10
-115.6218107747224
 20
-98.91215508488844
 30
0.0
 11
-121.621818904888
 21
-98.91215508488844
 31
0.0
  0
LINE
  5
92
330
1F
100
AcDbEntity
  8
1-0ﾚｲﾔ
  6
Continuous
 62
     3
370
     9
100
AcDbLine
 10
-107.6217999345016
 20
-96.91218736989387
 30
0.0
 11
-107.6217999345016
 21
-83.91215225700475
 31
0.0
  0
LINE
  5
93
330
1F
100
AcDbEntity
  8
1-0ﾚｲﾔ
  6
Continuous
 62
     3
370
     9
100
AcDbLine
 10
-115.6218107747224
 20
-104.9121282199934
 30
0.0
 11
-121.621818904888
 21
-104.9121282199934
 31
0.0
  0
LINE
  5
94
330
1F
100
AcDbEntity
  8
1-0ﾚｲﾔ
  6
JWW_CENTER1
 62
     3
370
     9
100
AcDbLine
 10
-115.6219857500256
 20
-101.9122116425622
 30
0.0
 11
-124.6218754625618
 21
-101.9122116425622
 31
0.0
  0
LINE
  5
95
330
1F
100
AcDbEntity
  8
1-0ﾚｲﾔ
  6
Continuous
 62
     3
370
     9
100
AcDbLine
 10
-113.6218080646672
 20
-96.91218736989387
 30
0.0
 11
-113.6218080646672
 21
-83.91215225700475
 31
0.0
  0
LINE
  5
96
330
1F
100
AcDbEntity
  8
1-0ﾚｲﾔ
  6
Continuous
 62
     3
370
     9
100
AcDbLine
 10
-112.9819583761115
 20
-83.91215225700475
 30
0.0
 11
-112.9819583761115
 21
-72.91211985417087
 31
0.0
  0
LINE
  5
97
330
1F
100
AcDbEntity
  8
1-0ﾚｲﾔ
  6
Continuous
 62
     3
370
     9
100
AcDbLine
 10
-108.2619645786031
 20
-83.91215225700475
 30
0.0
 11
-108.2619645786031
 21
-72.91211985417087
 31
0.0
  0
LINE
  5
98
330
1F
100
AcDbEntity
  8
1-0ﾚｲﾔ
  6
Continuous
 62
     3
370
     9
100
AcDbLine
 10
-107.4468946214738
 20
-83.91215225700475
 30
0.0
 11
-107.4468946214738
 21
-74.71216078778723
 31
0.0
  0
LINE
  5
99
330
1F
100
AcDbEntity
  8
1-0ﾚｲﾔ
  6
Continuous
 62
     3
370
     9
100
AcDbLine
 10
-113.7968533579376
 20
-83.91215225700475
 30
0.0
 11
-113.7968533579376
 21
-74.71216078778723
 31
0.0
  0
LINE
  5
9A
330
1F
100
AcDbEntity
  8
1-0ﾚｲﾔ
  6
Continuous
 62
     3
370
     9
100
AcDbLine
 10
-107.4468946214738
 20
-83.91215225700475
 30
0.0
 11
-113.7968533579376
 21
-83.91215225700475
 31
0.0
  0
LINE
  5
9B
330
1F
100
AcDbEntity
  8
1-0ﾚｲﾔ
  6
Continuous
 62
     3
370
     9
100
AcDbLine
 10
11.03698449733883
 20
-90.91221423478895
 30
0.0
 11
12.18926685869712
 21
-76.94666539912292
 31
0.0
  0
LINE
  5
9C
330
1F
100
AcDbEntity
  8
1-0ﾚｲﾔ
  6
Continuous
 62
     3
370
     9
100
AcDbLine
 10
9.449328586684816
 20
-90.91221423478895
 30
0.0
 11
11.03698449733883
 21
-90.91221423478895
 31
0.0
  0
LINE
  5
9D
330
1F
100
AcDbEntity
  8
1-0ﾚｲﾔ
  6
Continuous
 62
     3
370
     9
100
AcDbLine
 10
-96.28074066583008
 20
-90.91263417551644
 30
0.0
 11
-95.04300036641374
 21
-105.912182067612
 31
0.0
  0
LINE
  5
9E
330
1F
100
AcDbEntity
  8
1-0ﾚｲﾔ
  6
Continuous
 62
     3
370
     9
100
AcDbLine
 10
-95.04300036641374
 20
-105.912182067612
 30
0.0
 11
-92.53458941552842
 21
-105.912182067612
 31
0.0
  0
LINE
  5
9F
330
1F
100
AcDbEntity
  8
1-0ﾚｲﾔ
  6
Continuous
 62
     3
370
     9
100
AcDbLine
 10
-92.53458941552842
 20
-105.912182067612
 30
0.0
 11
-92.2355916175072
 21
-109.5356056402848
 31
0.0
  0
LINE
  5
A0
330
1F
100
AcDbEntity
  8
1-0ﾚｲﾔ
  6
JWW_DASHED1
 62
     3
370
     9
100
AcDbLine
 10
-93.69663539880244
 20
-91.82999469486671
 30
0.0
 11
-92.53458941552842
 21
-105.912182067612
 31
0.0
  0
LINE
  5
A1
330
1F
100
AcDbEntity
  8
1-0ﾚｲﾔ
  6
JWW_DASHED1
 62
     3
370
     9
100
AcDbLine
 10
-94.69322473541862
 20
-90.91221423478895
 30
0.0
 11
-96.2807756608907
 21
-90.91221423478895
 31
0.0
  0
LINE
  5
A2
330
1F
100
AcDbEntity
  8
1-0ﾚｲﾔ
  6
Continuous
 62
     3
370
     9
100
AcDbLine
 10
-96.2807756608907
 20
-90.91221423478895
 30
0.0
 11
-98.26443567763178
 21
-90.91221423478895
 31
0.0
  0
LINE
  5
A3
330
1F
100
AcDbEntity
  8
1-0ﾚｲﾔ
  6
JWW_DASHED1
 62
     3
370
     9
100
AcDbLine
 10
-98.02681921595524
 20
-80.9122006845129
 30
0.0
 11
-101.5269551900292
 21
-80.9122006845129
 31
0.0
  0
LINE
  5
A4
330
1F
100
AcDbEntity
  8
1-0ﾚｲﾔ
  6
JWW_DASHED1
 62
     3
370
     9
100
AcDbLine
 10
-96.2807756608907
 20
-90.91221423478895
 30
0.0
 11
-97.43316300743089
 21
-76.94666539912292
 31
0.0
  0
LINE
  5
A5
330
1F
100
AcDbEntity
  8
1-0ﾚｲﾔ
  6
Continuous
 62
     3
370
     9
100
AcDbLine
 10
-120.8338001296256
 20
-54.9048514861237
 30
0.0
 11
-133.1218957290616
 21
-50.9122300238062
 31
0.0
  0
LINE
  5
A6
330
1F
100
AcDbEntity
  8
1-0ﾚｲﾔ
  6
Continuous
 62
     3
370
     9
100
AcDbLine
 10
-134.2313616337393
 20
-51.78819138643136
 30
0.0
 11
-135.1219334341774
 21
-58.912240864027
 31
0.0
  0
LINE
  5
A7
330
1F
100
AcDbEntity
  8
1-0ﾚｲﾔ
  6
Continuous
 62
     3
370
     9
100
AcDbLine
 10
48.98748298253574
 20
-51.78819138643136
 30
0.0
 11
49.8780722805042
 21
-58.91224086402698
 31
0.0
  0
LINE
  5
A8
330
1F
100
AcDbEntity
  8
1-0ﾚｲﾔ
  6
Continuous
 62
     3
370
     9
100
AcDbLine
 10
-135.1219334341774
 20
-58.912240864027
 30
0.0
 11
-134.1219145816195
 21
-59.91222472152429
 31
0.0
  0
LINE
  5
A9
330
1F
100
AcDbEntity
  8
1-0ﾚｲﾔ
  6
Continuous
 62
     3
370
     9
100
AcDbLine
 10
-134.1219145816195
 20
-59.91222472152429
 30
0.0
 11
-129.1219253040118
 21
-59.91222472152429
 31
0.0
  0
LINE
  5
AA
330
1F
100
AcDbEntity
  8
1-0ﾚｲﾔ
  6
Continuous
 62
     3
370
     9
100
AcDbLine
 10
-118.9262193746938
 20
-59.73049537167359
 30
0.0
 11
-120.6019228578924
 21
-59.1860072233341
 31
0.0
  0
LINE
  5
AB
330
1F
100
AcDbEntity
  8
1-0ﾚｲﾔ
  6
Continuous
 62
     3
370
     9
100
AcDbLine
 10
49.8780722805042
 20
-58.91224086402698
 30
0.0
 11
48.8780534279463
 21
-59.91222472152427
 31
0.0
  0
LINE
  5
AC
330
1F
100
AcDbEntity
  8
1-0ﾚｲﾔ
  6
Continuous
 62
     3
370
     9
100
AcDbLine
 10
48.8780534279463
 20
-59.91222472152427
 30
0.0
 11
43.87809914539922
 21
-59.91222472152428
 31
0.0
  0
LINE
  5
AD
330
1F
100
AcDbEntity
  8
1-0ﾚｲﾔ
  6
Continuous
 62
     3
370
     9
100
AcDbLine
 10
32.43919368720666
 20
-60.13440836146303
 30
0.0
 11
35.35813169434048
 21
-59.1860072233341
 31
0.0
  0
LINE
  5
AE
330
1F
100
AcDbEntity
  8
1-0ﾚｲﾔ
  6
Continuous
 62
     3
370
     9
100
AcDbLine
 10
-112.1875180072235
 20
-62.59498106446736
 30
0.0
 11
-113.6219830399704
 21
-50.9122300238062
 31
0.0
  0
LINE
  5
AF
330
1F
100
AcDbEntity
  8
1-0ﾚｲﾔ
  6
JWW_DASHED1
 62
     3
370
     9
100
AcDbLine
 10
-111.6518661116931
 20
-66.95760530282404
 30
0.0
 11
-112.1875180072235
 21
-62.59498106446736
 31
0.0
  0
LINE
  5
B0
330
1F
100
AcDbEntity
  8
1-0ﾚｲﾔ
  6
Continuous
 62
     3
370
     9
100
AcDbLine
 10
-93.9866394662418
 20
-70.62627748889125
 30
0.0
 11
-98.10256602468851
 21
-70.33851310533218
 31
0.0
  0
LINE
  5
B1
330
1F
100
AcDbEntity
  8
1-0ﾚｲﾔ
  6
JWW_DASHED1
 62
     3
370
     9
100
AcDbLine
 10
-98.10256602468851
 20
-70.33851310533218
 30
0.0
 11
-108.8834768553888
 21
-69.5846845043051
 31
0.0
  0
LINE
  5
B2
330
1F
100
AcDbEntity
  8
1-0ﾚｲﾔ
  6
Continuous
 62
     3
370
     9
100
AcDbLine
 10
-108.2619645786031
 20
-80.91223567957357
 30
0.0
 11
-101.5269551900292
 21
-80.91223567957357
 31
0.0
  0
LINE
  5
B3
330
1F
100
AcDbEntity
  8
1-0ﾚｲﾔ
  6
Continuous
 62
     3
370
     9
100
AcDbLine
 10
-114.2633725111938
 20
-80.91223567957357
 30
0.0
 11
-112.9819583761115
 21
-80.91223567957357
 31
0.0
  0
LINE
  5
B4
330
1F
100
AcDbEntity
  8
1-0ﾚｲﾔ
  6
Continuous
 62
     3
370
     9
100
AcDbLine
 10
-108.2619645786031
 20
-72.91211985417087
 30
0.0
 11
-112.9819583761115
 21
-72.91211985417087
 31
0.0
  0
LINE
  5
B5
330
1F
100
AcDbEntity
  8
1-0ﾚｲﾔ
  6
Continuous
 62
     3
370
     9
100
AcDbLine
 10
-108.2619645786031
 20
-72.91211985417087
 30
0.0
 11
-110.6219614773573
 21
-71.54958716854858
 31
0.0
  0
LINE
  5
B6
330
1F
100
AcDbEntity
  8
1-0ﾚｲﾔ
  6
Continuous
 62
     3
370
     9
100
AcDbLine
 10
-112.9819583761115
 20
-72.91211985417087
 30
0.0
 11
-110.6219614773573
 21
-71.54958716854858
 31
0.0
  0
LINE
  5
B7
330
1F
100
AcDbEntity
  8
1-0ﾚｲﾔ
  6
JWW_CENTER1
 62
     3
370
     9
100
AcDbLine
 10
-110.6219614773573
 20
-96.91218736989387
 30
0.0
 11
-110.6219614773573
 21
-71.10214032333559
 31
0.0
  0
LINE
  5
B8
330
1F
100
AcDbEntity
  8
1-0ﾚｲﾔ
  6
Continuous
 62
     3
370
     9
100
AcDbLine
 10
16.97855087625258
 20
-63.91219514657404
 30
0.0
 11
18.37810833602122
 21
-63.91219514657404
 31
0.0
  0
LINE
  5
B9
330
1F
100
AcDbEntity
  8
1-0ﾚｲﾔ
  6
Continuous
 62
     3
370
     9
100
AcDbLine
 10
2.378086655579626
 20
-82.91216839950746
 30
0.0
 11
2.378086655579626
 21
-92.9121819497835
 31
0.0
  0
LINE
  5
BA
330
1F
100
AcDbEntity
  8
1-0ﾚｲﾔ
  6
Continuous
 62
     3
370
     9
100
AcDbLine
 10
-87.6219478092528
 20
-82.91216839950746
 30
0.0
 11
2.378086655579626
 21
-82.91216839950746
 31
0.0
  0
LINE
  5
BB
330
1F
100
AcDbEntity
  8
1-0ﾚｲﾔ
  6
Continuous
 62
     3
370
     9
100
AcDbLine
 10
-87.6219478092528
 20
-82.91216839950746
 30
0.0
 11
-87.6219478092528
 21
-92.9121819497835
 31
0.0
  0
LINE
  5
BC
330
1F
100
AcDbEntity
  8
1-0ﾚｲﾔ
  6
Continuous
 62
     3
370
     9
100
AcDbLine
 10
-87.6219478092528
 20
-92.9121819497835
 30
0.0
 11
2.378086655579626
 21
-92.9121819497835
 31
0.0
  0
LINE
  5
BD
330
1F
100
AcDbEntity
  8
1-0ﾚｲﾔ
  6
Continuous
 62
     3
370
     9
100
AcDbLine
 10
-84.86097750580203
 20
-109.3854768301829
 30
0.0
 11
-84.3462001639373
 21
-92.9121819497835
 31
0.0
  0
LINE
  5
BE
330
1F
100
AcDbEntity
  8
1-0ﾚｲﾔ
  6
Continuous
 62
     3
370
     9
100
AcDbLine
 10
-86.3876720208388
 20
-110.9121713452197
 30
0.0
 11
-85.82519641133563
 21
-92.9121819497835
 31
0.0
  0
LINE
  5
BF
330
1F
100
AcDbEntity
  8
1-0ﾚｲﾔ
  6
Continuous
 62
     3
370
     9
100
AcDbLine
 10
1.14379336963537
 20
-110.9121713452197
 30
0.0
 11
0.5813177601321389
 21
-92.9121819497835
 31
0.0
  0
LINE
  5
C0
330
1F
100
AcDbEntity
  8
1-0ﾚｲﾔ
  6
Continuous
 62
     3
370
     9
100
AcDbLine
 10
-0.3829011454014388
 20
-109.3854768301829
 30
0.0
 11
-0.897713482326834
 21
-92.9121819497835
 31
0.0
  0
LINE
  5
C1
330
1F
100
AcDbEntity
  8
1-0ﾚｲﾔ
  6
Continuous
 62
     3
370
     9
100
AcDbLine
 10
-82.93880381058756
 20
-79.0114439664039
 30
0.0
 11
-82.28864807667635
 21
-82.91216839950746
 31
0.0
  0
LINE
  5
C2
330
1F
100
AcDbEntity
  8
1-0ﾚｲﾔ
  6
Continuous
 62
     3
370
     9
100
AcDbLine
 10
-84.22746192322028
 20
-77.7702391559852
 30
0.0
 11
-88.50574806545906
 21
-77.22123664482453
 31
0.0
  0
LINE
  5
C3
330
1F
100
AcDbEntity
  8
1-0ﾚｲﾔ
  6
Continuous
 62
     3
370
     9
100
AcDbLine
 10
23.37799262844702
 20
-63.91219514657404
 30
0.0
 11
25.45477450152406
 21
-63.91219514657404
 31
0.0
  0
LINE
  5
C4
330
1F
100
AcDbEntity
  8
1-0ﾚｲﾔ
  6
JWW_DASHED1
 62
     3
370
     9
100
AcDbLine
 10
26.40800495801993
 20
-66.95764029788464
 30
0.0
 11
26.94360436095939
 21
-62.59505105458866
 31
0.0
  0
LINE
  5
C5
330
1F
100
AcDbEntity
  8
1-0ﾚｲﾔ
  6
JWW_DASHED1
 62
     3
370
     9
100
AcDbLine
 10
12.85868737348504
 20
-70.33847811027155
 30
0.0
 11
23.63954571159432
 21
-69.5846845043051
 31
0.0
  0
LINE
  5
C6
330
1F
100
AcDbEntity
  8
1-0ﾚｲﾔ
  6
Continuous
 62
     3
370
     9
100
AcDbLine
 10
12.85868737348504
 20
-70.33854810039279
 30
0.0
 11
8.742778312568634
 21
-70.6263474790125
 31
0.0
  0
LINE
  5
C7
330
1F
100
AcDbEntity
  8
1-0ﾚｲﾔ
  6
Continuous
 62
     3
370
     9
100
AcDbLine
 10
5.871993508861507
 20
-74.46488568937687
 30
0.0
 11
5.962280765286424
 21
-73.37216492121055
 31
0.0
  0
LINE
  5
C8
330
1F
100
AcDbEntity
  8
1-0ﾚｲﾔ
  6
Continuous
 62
     3
370
     9
100
AcDbLine
 10
-1.016434225513493
 20
-77.7702391559852
 30
0.0
 11
3.261886911785879
 21
-77.22123664482453
 31
0.0
  0
LINE
  5
C9
330
1F
100
AcDbEntity
  8
1-0ﾚｲﾔ
  6
Continuous
 62
     3
370
     9
100
AcDbLine
 10
-2.305109835676557
 20
-79.0114439664039
 30
0.0
 11
-2.95526556958778
 21
-82.91216839950746
 31
0.0
  0
LINE
  5
CA
330
1F
100
AcDbEntity
  8
1-0ﾚｲﾔ
  6
Continuous
 62
     3
370
     9
100
AcDbLine
 10
8.452809240189927
 20
-91.82999469486671
 30
0.0
 11
6.991695468773388
 21
-109.5355706452242
 31
0.0
  0
LINE
  5
CB
330
1F
100
AcDbEntity
  8
1-0ﾚｲﾔ
  6
Continuous
 62
     3
370
     9
100
AcDbLine
 10
-90.74063762246163
 20
-110.9121713452197
 30
0.0
 11
5.496776468788473
 21
-110.9121713452197
 31
0.0
  0
LINE
  5
CC
330
1F
100
AcDbEntity
  8
1-0ﾚｲﾔ
  6
Continuous
 62
     3
370
     9
100
AcDbLine
 10
-102.2225170151076
 20
-63.91219514657404
 30
0.0
 11
-110.6986356551972
 21
-63.91219514657404
 31
0.0
  0
LINE
  5
CD
330
1F
100
AcDbEntity
  8
1-0ﾚｲﾔ
  6
JWW_DASHED1
 62
     3
370
     9
100
AcDbLine
 10
35.58986898583121
 20
-54.90478149600243
 30
0.0
 11
27.56788124753488
 21
-57.51128360183314
 31
0.0
  0
LINE
  5
CE
330
1F
100
AcDbEntity
  8
1-0ﾚｲﾔ
  6
JWW_DASHED1
 62
     3
370
     9
100
AcDbLine
 10
-120.833765134565
 20
-54.90478149600243
 30
0.0
 11
-112.811742401208
 21
-57.51128360183314
 31
0.0
  0
LINE
  5
CF
330
1F
100
AcDbEntity
  8
1-0ﾚｲﾔ
  6
Continuous
 62
     3
370
     9
100
AcDbLine
 10
30.37805460623115
 20
-67.44519148257942
 30
0.0
 11
31.07214663876317
 21
-61.79275429458924
 31
0.0
  0
LINE
  5
D0
330
1F
100
AcDbEntity
  8
1-2ﾚｲﾔ
  6
Continuous
 62
     6
370
     9
100
AcDbLine
 10
-96.47506823750749
 20
-61.68864398921549
 30
0.0
 11
-88.80772044363384
 21
-33.0736028529341
 31
0.0
  0
LINE
  5
D1
330
1F
100
AcDbEntity
  8
1-2ﾚｲﾔ
  6
Continuous
 62
     6
370
     9
100
AcDbLine
 10
-48.62194745576734
 20
-18.98424149275978
 30
0.0
 11
-47.12195417199111
 21
-23.45339069567363
 31
0.0
  0
LINE
  5
D2
330
1F
100
AcDbEntity
  8
1-2ﾚｲﾔ
  6
Continuous
 62
     6
370
     9
100
AcDbLine
 10
-56.12191387464857
 20
-19.27701016998893
 30
0.0
 11
-57.6219071584248
 21
-23.87088176898747
 31
0.0
  0
LINE
  5
D3
330
1F
100
AcDbEntity
  8
1-2ﾚｲﾔ
  6
Continuous
 62
     6
370
     9
100
AcDbLine
 10
-87.24543595193649
 20
-29.9122190657569
 30
0.0
 11
-92.44731173431768
 21
-29.9122190657569
 31
0.0
  0
LINE
  5
D4
330
1F
100
AcDbEntity
  8
1-2ﾚｲﾔ
  6
Continuous
 62
     6
370
     9
100
AcDbLine
 10
25.0272398458095
 20
-63.09110603901642
 30
0.0
 11
25.87796976972054
 21
-57.91218701640841
 31
0.0
  0
LINE
  5
D5
330
1F
100
AcDbEntity
  8
1-2ﾚｲﾔ
  6
Continuous
 62
     6
370
     9
100
AcDbLine
 10
11.23113709371307
 20
-61.68864398921549
 30
0.0
 11
3.563859289960691
 21
-33.0736028529341
 31
0.0
  0
LINE
  5
D6
330
1F
100
AcDbEntity
  8
1-2ﾚｲﾔ
  6
Continuous
 62
     6
370
     9
100
AcDbLine
 10
-36.62193119543615
 20
-18.98424149275978
 30
0.0
 11
-38.12192447921238
 21
-23.45339069567363
 31
0.0
  0
LINE
  5
D7
330
1F
100
AcDbEntity
  8
1-2ﾚｲﾔ
  6
Continuous
 62
     6
370
     9
100
AcDbLine
 10
-29.12196477655495
 20
-19.27701016998893
 30
0.0
 11
-27.62197149277872
 21
-23.87088176898747
 31
0.0
  0
LINE
  5
D8
330
1F
100
AcDbEntity
  8
1-2ﾚｲﾔ
  6
JWW_DASHED1
 62
     6
370
     9
100
AcDbLine
 10
2.001539803202707
 20
-29.9121490756356
 30
0.0
 11
7.203415585583839
 21
-29.9121490756356
 31
0.0
  0
LINE
  5
D9
330
1F
100
AcDbEntity
  8
1-2ﾚｲﾔ
  6
Continuous
 62
     6
370
     9
100
AcDbLine
 10
-61.12197314237751
 20
-24.11024798369548
 30
0.0
 11
-62.62193143109312
 21
-19.7135385562854
 31
0.0
  0
LINE
  5
DA
330
1F
100
AcDbEntity
  8
1-2ﾚｲﾔ
  6
Continuous
 62
     6
370
     9
100
AcDbLine
 10
23.87800205472598
 20
-63.91219514657404
 30
0.0
 11
24.04338871126253
 21
-63.91219514657404
 31
0.0
  0
LINE
  5
DB
330
1F
100
AcDbEntity
  8
1-2ﾚｲﾔ
  6
Continuous
 62
     6
370
     9
100
AcDbLine
 10
-110.2712059846645
 20
-63.09110603901642
 30
0.0
 11
-111.121900913515
 21
-57.91218701640841
 31
0.0
  0
LINE
  5
DC
330
1F
100
AcDbEntity
  8
1-2ﾚｲﾔ
  6
Continuous
 62
     6
370
     9
100
AcDbLine
 10
-101.4317336300554
 20
-62.80043706542509
 30
0.0
 11
-93.15435193928269
 21
-31.90889724505227
 31
0.0
  0
LINE
  5
DD
330
1F
100
AcDbEntity
  8
1-2ﾚｲﾔ
  6
Continuous
 62
     6
370
     9
100
AcDbLine
 10
-100.1219385008023
 20
-57.91218701640841
 30
0.0
 11
-111.121900913515
 21
-57.91218701640841
 31
0.0
  0
LINE
  5
DE
330
1F
100
AcDbEntity
  8
1-2ﾚｲﾔ
  6
Continuous
 62
     6
370
     9
100
AcDbLine
 10
15.9154359293791
 20
-62.78199466847319
 30
0.0
 11
17.15398111518991
 21
-57.91218701640841
 31
0.0
  0
LINE
  5
DF
330
1F
100
AcDbEntity
  8
1-2ﾚｲﾔ
  6
Continuous
 62
     6
370
     9
100
AcDbLine
 10
25.87796976972054
 20
-57.91218701640841
 30
0.0
 11
24.83126750628246
 21
-56.86551974803096
 31
0.0
  0
LINE
  5
E0
330
1F
100
AcDbEntity
  8
1-2ﾚｲﾔ
  6
Continuous
 62
     6
370
     9
100
AcDbLine
 10
14.61012016788656
 20
-56.91227314903243
 30
0.0
 11
7.910385800427589
 21
-31.90889724505227
 31
0.0
  0
LINE
  5
E1
330
1F
100
AcDbEntity
  8
1-2ﾚｲﾔ
  6
Continuous
 62
     6
370
     9
100
AcDbLine
 10
17.15398111518991
 20
-57.91218701640841
 30
0.0
 11
16.15396226263196
 21
-56.91227314903243
 31
0.0
  0
LINE
  5
E2
330
1F
100
AcDbEntity
  8
1-2ﾚｲﾔ
  6
Continuous
 62
     6
370
     9
100
AcDbLine
 10
14.61012016788656
 20
-56.91227314903243
 30
0.0
 11
24.83126750628246
 21
-56.91227314903243
 31
0.0
  0
LINE
  5
E3
330
1F
100
AcDbEntity
  8
1-2ﾚｲﾔ
  6
Continuous
 62
     6
370
     9
100
AcDbLine
 10
-82.62199352670574
 20
-22.13792636659847
 30
0.0
 11
-83.79863245026239
 21
-27.1915630721517
 31
0.0
  0
LINE
  5
E4
330
1F
100
AcDbEntity
  8
1-2ﾚｲﾔ
  6
JWW_CENTER1
 62
     6
370
     9
100
AcDbLine
 10
-37.82299667131242
 20
-31.44451279049445
 30
0.0
 11
-37.1219406217151
 21
-63.91219514657404
 31
0.0
  0
LINE
  5
E5
330
1F
100
AcDbEntity
  8
1-2ﾚｲﾔ
  6
JWW_CENTER1
 62
     6
370
     9
100
AcDbLine
 10
-47.42088197989109
 20
-31.44451279049445
 30
0.0
 11
-48.12193802948839
 21
-63.91219514657404
 31
0.0
  0
LINE
  5
E6
330
1F
100
AcDbEntity
  8
1-2ﾚｲﾔ
  6
JWW_CENTER1
 62
     6
370
     9
100
AcDbLine
 10
-45.92053874550855
 20
-31.44451279049445
 30
0.0
 11
-46.62159479510584
 21
-63.91219514657404
 31
0.0
  0
LINE
  5
E7
330
1F
100
AcDbEntity
  8
1-2ﾚｲﾔ
  6
JWW_CENTER1
 62
     6
370
     9
100
AcDbLine
 10
-39.32333990569497
 20
-31.44451279049445
 30
0.0
 11
-38.62228385609764
 21
-63.91219514657404
 31
0.0
  0
LINE
  5
E8
330
1F
100
AcDbEntity
  8
1-2ﾚｲﾔ
  6
JWW_CENTER1
 62
     6
370
     9
100
AcDbLine
 10
2.001539803202707
 20
-29.9121490756356
 30
0.0
 11
-87.24543595193649
 21
-29.9121490756356
 31
0.0
  0
LINE
  5
E9
330
1F
100
AcDbEntity
  8
1-2ﾚｲﾔ
  6
Continuous
 62
     6
370
     9
100
AcDbLine
 10
23.0080248474685
 20
-63.91219514657404
 30
0.0
 11
23.87800205472598
 21
-63.91219514657404
 31
0.0
  0
LINE
  5
EA
330
1F
100
AcDbEntity
  8
1-2ﾚｲﾔ
  6
Continuous
 62
     6
370
     9
100
AcDbLine
 10
17.15398111518991
 20
-57.91218701640841
 30
0.0
 11
18.18612543340598
 21
-57.91218701640841
 31
0.0
  0
LINE
  5
EB
330
1F
100
AcDbEntity
  8
1-2ﾚｲﾔ
  6
Continuous
 62
     6
370
     9
100
AcDbLine
 10
23.56983555081971
 20
-57.91218701640841
 30
0.0
 11
25.87796976972054
 21
-57.91218701640841
 31
0.0
  0
LINE
  5
EC
330
1F
100
AcDbEntity
  8
1-2ﾚｲﾔ
  6
Continuous
 62
     6
370
     9
100
AcDbLine
 10
-109.2873548501176
 20
-63.91219514657404
 30
0.0
 11
18.74800612687851
 21
-63.91219514657404
 31
0.0
  0
ARC
  5
ED
330
1F
100
AcDbEntity
  8
1-0ﾚｲﾔ
  6
JWW_DASHED1
 62
     3
370
     9
100
AcDbCircle
 10
-118.3011026066632
 20
-62.03652988693663
 30
0.0
 40
1.999999976066088
100
AcDbArc
 50
6.999984741210952
 51
71.99948120117189
  0
ARC
  5
EE
330
1F
100
AcDbEntity
  8
1-0ﾚｲﾔ
  6
Continuous
 62
     3
370
     9
100
AcDbCircle
 10
-119.9067459784809
 20
-52.05159920779208
 30
0.0
 40
2.999999964099133
100
AcDbArc
 50
252.0001525878906
 51
348.7693023681641
  0
ARC
  5
EF
330
1F
100
AcDbEntity
  8
1-0ﾚｲﾔ
  6
JWW_DASHED1
 62
     3
370
     9
100
AcDbCircle
 10
-108.6742063928224
 20
-66.59204689948488
 30
0.0
 40
6.999999642832398
100
AcDbArc
 50
187.000259399414
 51
266.0002899169922
  0
ARC
  5
F0
330
1F
100
AcDbEntity
  8
1-0ﾚｲﾔ
  6
Continuous
 62
     3
370
     9
100
AcDbCircle
 10
-94.19590992880816
 20
-73.61912506407523
 30
0.0
 40
2.999999964099133
100
AcDbArc
 50
4.717132568359378
 51
86.00018310546876
  0
ARC
  5
F1
330
1F
100
AcDbEntity
  8
1-0ﾚｲﾔ
  6
Continuous
 62
     3
370
     9
100
AcDbCircle
 10
-90.74063762246163
 20
-109.412213056504
 30
0.0
 40
1.499999982049566
100
AcDbArc
 50
184.7178497314453
 51
270.0
  0
ARC
  5
F2
330
1F
100
AcDbEntity
  8
1-0ﾚｲﾔ
  6
Continuous
 62
     3
370
     9
100
AcDbCircle
 10
-88.12391695892704
 20
-74.24560663947037
 30
0.0
 40
2.999999964099133
100
AcDbArc
 50
184.7171325683594
 51
262.6866455078125
  0
ARC
  5
F3
330
1F
100
AcDbEntity
  8
1-0ﾚｲﾔ
  6
Continuous
 62
     3
370
     9
100
AcDbCircle
 10
-98.26443567763178
 20
-89.41225594607332
 30
0.0
 40
1.499999982049566
100
AcDbArc
 50
185.7115783691406
 51
270.0
  0
ARC
  5
F4
330
1F
100
AcDbEntity
  8
1-0ﾚｲﾔ
  6
Continuous
 62
     3
370
     9
100
AcDbCircle
 10
-119.5441971503559
 20
-61.63261689714714
 30
0.0
 40
1.999999976066088
100
AcDbArc
 50
5.66487121582032
 51
72.00048828125
  0
ARC
  5
F5
330
1F
100
AcDbEntity
  8
1-0ﾚｲﾔ
  6
JWW_DASHED1
 62
     3
370
     9
100
AcDbCircle
 10
-100.423070997522
 20
-77.19338057656316
 30
0.0
 40
2.999999964099133
100
AcDbArc
 50
4.717132568359378
 51
86.00013732910158
  0
ARC
  5
F6
330
1F
100
AcDbEntity
  8
1-0ﾚｲﾔ
  6
Continuous
 62
     3
370
     9
100
AcDbCircle
 10
33.05727644805068
 20
-62.03652988693663
 30
0.0
 40
1.999999976066088
100
AcDbArc
 50
108.0005187988282
 51
173.0000152587891
  0
ARC
  5
F7
330
1F
100
AcDbEntity
  8
1-0ﾚｲﾔ
  6
JWW_DASHED1
 62
     3
370
     9
100
AcDbCircle
 10
23.43034523914923
 20
-66.59204689948488
 30
0.0
 40
2.999999964099133
100
AcDbArc
 50
273.9998016357422
 51
353.0002746582031
  0
ARC
  5
F8
330
1F
100
AcDbEntity
  8
1-0ﾚｲﾔ
  6
Continuous
 62
     3
370
     9
100
AcDbCircle
 10
23.43034523914923
 20
-66.59204689948488
 30
0.0
 40
6.999999642832398
100
AcDbArc
 50
273.9997100830078
 51
352.9997406005859
  0
ARC
  5
F9
330
1F
100
AcDbEntity
  8
1-0ﾚｲﾔ
  6
Continuous
 62
     3
370
     9
100
AcDbCircle
 10
8.952048775135035
 20
-73.61912506407523
 30
0.0
 40
2.999999964099133
100
AcDbArc
 50
93.99981689453126
 51
175.2828674316407
  0
ARC
  5
FA
330
1F
100
AcDbEntity
  8
1-0ﾚｲﾔ
  6
Continuous
 62
     3
370
     9
100
AcDbCircle
 10
5.496776468788473
 20
-109.412213056504
 30
0.0
 40
1.499999982049566
100
AcDbArc
 50
270.0
 51
355.2821502685547
  0
ARC
  5
FB
330
1F
100
AcDbEntity
  8
1-0ﾚｲﾔ
  6
Continuous
 62
     3
370
     9
100
AcDbCircle
 10
2.880055805253834
 20
-74.24560663947037
 30
0.0
 40
2.999999964099133
100
AcDbArc
 50
277.3133544921875
 51
355.2828674316407
  0
ARC
  5
FC
330
1F
100
AcDbEntity
  8
1-0ﾚｲﾔ
  6
Continuous
 62
     3
370
     9
100
AcDbCircle
 10
15.1792098438488
 20
-77.19338057656316
 30
0.0
 40
2.999999964099133
100
AcDbArc
 50
93.99986267089844
 51
175.2828674316407
  0
ARC
  5
FD
330
1F
100
AcDbEntity
  8
1-0ﾚｲﾔ
  6
Continuous
 62
     3
370
     9
100
AcDbCircle
 10
34.66284982974711
 20
-52.05159920779208
 30
0.0
 40
2.999999964099133
100
AcDbArc
 50
191.230697631836
 51
287.9998474121094
  0
ARC
  5
FE
330
1F
100
AcDbEntity
  8
1-0ﾚｲﾔ
  6
Continuous
 62
     3
370
     9
100
AcDbCircle
 10
16.97855087625258
 20
-65.41215343528964
 30
0.0
 40
1.499999982049566
100
AcDbArc
 50
90.0
 51
162.5307922363281
  0
ARC
  5
FF
330
1F
100
AcDbEntity
  8
1-0ﾚｲﾔ
  6
Continuous
 62
     3
370
     9
100
AcDbCircle
 10
25.45477450152406
 20
-62.41216686773718
 30
0.0
 40
1.499999982049566
100
AcDbArc
 50
270.0
 51
353.0005340576172
  0
ARC
  5
100
330
1F
100
AcDbEntity
  8
1-0ﾚｲﾔ
  6
Continuous
 62
     3
370
     9
100
AcDbCircle
 10
12.75405214220187
 20
-68.8422292979827
 30
0.0
 40
1.499999982049566
100
AcDbArc
 50
273.9983520507812
 51
342.5294342041016
  0
ARC
  5
101
330
1F
100
AcDbEntity
  8
1-0ﾚｲﾔ
  6
JWW_DASHED1
 62
     3
370
     9
100
AcDbCircle
 10
-108.6742063928224
 20
-66.59204689948488
 30
0.0
 40
2.999999964099133
100
AcDbArc
 50
186.9997253417969
 51
266.0001831054688
  0
ARC
  5
102
330
1F
100
AcDbEntity
  8
1-0ﾚｲﾔ
  6
JWW_DASHED1
 62
     3
370
     9
100
AcDbCircle
 10
-94.69322473541862
 20
-91.91216309722554
 30
0.0
 40
0.9999999880330441
100
AcDbArc
 50
4.717132568359378
 51
90.00000000000001
  0
ARC
  5
103
330
1F
100
AcDbEntity
  8
1-0ﾚｲﾔ
  6
Continuous
 62
     3
370
     9
100
AcDbCircle
 10
9.449328586684816
 20
-91.91216309722554
 30
0.0
 40
0.9999999880330441
100
AcDbArc
 50
90.0
 51
175.2828674316407
  0
ARC
  5
104
330
1F
100
AcDbEntity
  8
1-0ﾚｲﾔ
  6
Continuous
 62
     3
370
     9
100
AcDbCircle
 10
-101.5269551900292
 20
-81.9121845420102
 30
0.0
 40
0.9999999880330441
100
AcDbArc
 50
5.710800170898438
 51
90.00000000000001
  0
ARC
  5
105
330
1F
100
AcDbEntity
  8
1-0ﾚｲﾔ
  6
Continuous
 62
     3
370
     9
100
AcDbCircle
 10
-102.2225170151076
 20
-65.41215343528964
 30
0.0
 40
1.499999982049566
100
AcDbArc
 50
17.46920776367188
 51
90.00000000000001
  0
ARC
  5
106
330
1F
100
AcDbEntity
  8
1-0ﾚｲﾔ
  6
Continuous
 62
     3
370
     9
100
AcDbCircle
 10
-110.6986356551972
 20
-62.41216686773718
 30
0.0
 40
1.499999982049566
100
AcDbArc
 50
186.9994659423828
 51
270.0
  0
ARC
  5
107
330
1F
100
AcDbEntity
  8
1-0ﾚｲﾔ
  6
Continuous
 62
     3
370
     9
100
AcDbCircle
 10
-97.99794829093565
 20
-68.8422292979827
 30
0.0
 40
1.499999982049566
100
AcDbArc
 50
197.4705657958984
 51
266.0016479492188
  0
ARC
  5
108
330
1F
100
AcDbEntity
  8
1-0ﾚｲﾔ
  6
Continuous
 62
     3
370
     9
100
AcDbCircle
 10
-114.2633725111938
 20
-79.41220740073666
 30
0.0
 40
1.499999982049566
100
AcDbArc
 50
185.6653137207031
 51
270.0
  0
ARC
  5
109
330
1F
100
AcDbEntity
  8
1-0ﾚｲﾔ
  6
Continuous
 62
     3
370
     9
100
AcDbCircle
 10
-115.6218107747224
 20
-96.91218736989387
 30
0.0
 40
1.999999976066088
100
AcDbArc
 50
270.0
 51
0.0
  0
ARC
  5
10A
330
1F
100
AcDbEntity
  8
1-0ﾚｲﾔ
  6
Continuous
 62
     3
370
     9
100
AcDbCircle
 10
-115.6218107747224
 20
-96.91218736989387
 30
0.0
 40
7.999999904264353
100
AcDbArc
 50
270.0
 51
0.0
  0
ARC
  5
10B
330
1F
100
AcDbEntity
  8
1-0ﾚｲﾔ
  6
JWW_CENTER1
 62
     3
370
     9
100
AcDbCircle
 10
-115.6219857500256
 20
-96.91218736989387
 30
0.0
 40
5.000000213564133
100
AcDbArc
 50
270.0
 51
0.0
  0
ARC
  5
10C
330
1F
100
AcDbEntity
  8
1-0ﾚｲﾔ
  6
JWW_DASHED1
 62
     3
370
     9
100
AcDbCircle
 10
-98.02681921595524
 20
-81.9121845420102
 30
0.0
 40
0.9999999880330441
100
AcDbArc
 50
4.71527099609376
 51
90.00000000000001
  0
ARC
  5
10D
330
1F
100
AcDbEntity
  8
1-0ﾚｲﾔ
  6
Continuous
 62
     3
370
     9
100
AcDbCircle
 10
-133.2390941871108
 20
-51.91221388130349
 30
0.0
 40
0.9999999880330441
100
AcDbArc
 50
90.0
 51
172.8756713867188
  0
ARC
  5
10E
330
1F
100
AcDbEntity
  8
1-0ﾚｲﾔ
  6
Continuous
 62
     3
370
     9
100
AcDbCircle
 10
47.99526802849833
 20
-51.91221388130349
 30
0.0
 40
0.9999999880330441
100
AcDbArc
 50
7.124267578125002
 51
90.00000000000001
  0
ARC
  5
10F
330
1F
100
AcDbEntity
  8
1-0ﾚｲﾔ
  6
Continuous
 62
     3
370
     9
100
AcDbCircle
 10
-124.0011680721706
 20
-69.64760562331752
 30
0.0
 40
10.99999959496458
100
AcDbArc
 50
71.9996795654297
 51
117.744125366211
  0
ARC
  5
110
330
1F
100
AcDbEntity
  8
1-0ﾚｲﾔ
  6
Continuous
 62
     3
370
     9
100
AcDbCircle
 10
38.7572719234368
 20
-69.64760562331752
 30
0.0
 40
10.99999959496458
100
AcDbArc
 50
62.25587463378908
 51
108.0001525878906
  0
ARC
  5
111
330
1F
100
AcDbEntity
  8
1-0ﾚｲﾔ
  6
Continuous
 62
     3
370
     9
100
AcDbCircle
 10
-0.8255186722474939
 20
-79.25805415866232
 30
0.0
 40
1.499999982049566
100
AcDbArc
 50
97.31217956542969
 51
170.5372314453125
  0
ARC
  5
112
330
1F
100
AcDbEntity
  8
1-0ﾚｲﾔ
  6
Continuous
 62
     3
370
     9
100
AcDbCircle
 10
-84.4183949740166
 20
-79.25805415866232
 30
0.0
 40
1.499999982049566
100
AcDbArc
 50
9.462768554687502
 51
82.68713378906251
  0
ARC
  5
113
330
1F
100
AcDbEntity
  8
1-2ﾚｲﾔ
  6
Continuous
 62
     6
370
     9
100
AcDbCircle
 10
-109.2873548501176
 20
-62.91221128907674
 30
0.0
 40
0.9999999880330441
100
AcDbArc
 50
190.3056030273438
 51
270.0
  0
ARC
  5
114
330
1F
100
AcDbEntity
  8
1-2ﾚｲﾔ
  6
Continuous
 62
     6
370
     9
100
AcDbCircle
 10
-42.62193932560174
 20
-268.9120704840348
 30
0.0
 40
245.4999739599043
100
AcDbArc
 50
90.0
 51
99.12161254882812
  0
ARC
  5
115
330
1F
100
AcDbEntity
  8
1-2ﾚｲﾔ
  6
Continuous
 62
     6
370
     9
100
AcDbCircle
 10
-80.11435246715428
 20
-35.4030140686979
 30
0.0
 40
13.49999970174664
100
AcDbArc
 50
99.12167358398439
 51
165.0000152587891
  0
ARC
  5
116
330
1F
100
AcDbEntity
  8
1-2ﾚｲﾔ
  6
Continuous
 62
     6
370
     9
100
AcDbCircle
 10
-80.11442245727554
 20
-35.40294407857662
 30
0.0
 40
9.00000016569631
100
AcDbArc
 50
99.12141418457033
 51
165.0000152587891
  0
ARC
  5
117
330
1F
100
AcDbEntity
  8
1-2ﾚｲﾔ
  6
Continuous
 62
     6
370
     9
100
AcDbCircle
 10
-99.37293921814216
 20
-60.91213858890026
 30
0.0
 40
2.999999964099133
100
AcDbArc
 50
270.0
 51
345.0002746582031
  0
ARC
  5
118
330
1F
100
AcDbEntity
  8
1-2ﾚｲﾔ
  6
Continuous
 62
     6
370
     9
100
AcDbCircle
 10
24.04338871126253
 20
-62.91221128907674
 30
0.0
 40
0.9999999880330441
100
AcDbArc
 50
270.0
 51
349.6943969726562
  0
ARC
  5
119
330
1F
100
AcDbEntity
  8
1-2ﾚｲﾔ
  6
Continuous
 62
     6
370
     9
100
AcDbCircle
 10
-42.62193932560174
 20
-268.9120704840348
 30
0.0
 40
245.4999739599043
100
AcDbArc
 50
80.87838745117188
 51
90.0
  0
ARC
  5
11A
330
1F
100
AcDbEntity
  8
1-2ﾚｲﾔ
  6
Continuous
 62
     6
370
     9
100
AcDbCircle
 10
-42.62193932560174
 20
-268.9120704840348
 30
0.0
 40
249.9999888062937
100
AcDbArc
 50
80.87840270996092
 51
89.99999999999999
  0
ARC
  5
11B
330
1F
100
AcDbEntity
  8
1-2ﾚｲﾔ
  6
Continuous
 62
     6
370
     9
100
AcDbCircle
 10
-5.129526184049224
 20
-35.4030140686979
 30
0.0
 40
13.49999970174664
100
AcDbArc
 50
14.99998474121094
 51
80.87832641601562
  0
ARC
  5
11C
330
1F
100
AcDbEntity
  8
1-2ﾚｲﾔ
  6
Continuous
 62
     6
370
     9
100
AcDbCircle
 10
-5.129456193927936
 20
-35.40294407857662
 30
0.0
 40
9.00000016569631
100
AcDbArc
 50
14.99998474121094
 51
80.87858581542969
  0
ARC
  5
11D
330
1F
100
AcDbEntity
  8
1-2ﾚｲﾔ
  6
Continuous
 62
     6
370
     9
100
AcDbCircle
 10
14.1290080743477
 20
-60.91213858890026
 30
0.0
 40
2.999999964099133
100
AcDbArc
 50
194.9997253417969
 51
270.0
  0
ARC
  5
11E
330
1F
100
AcDbEntity
  8
1-2ﾚｲﾔ
  6
Continuous
 62
     6
370
     9
100
AcDbCircle
 10
14.46167112069485
 20
-62.41213187267651
 30
0.0
 40
1.499999982049566
100
AcDbArc
 50
270.0
 51
345.7299499511719
  0
ARC
  5
11F
330
1F
100
AcDbEntity
  8
1-2ﾚｲﾔ
  6
Continuous
 62
     6
370
     9
100
AcDbCircle
 10
-102.4239135890323
 20
-54.91216545379533
 30
0.0
 40
2.999999964099133
100
AcDbArc
 50
270.0
 51
344.9998626708984
  0
ARC
  5
120
330
1F
100
AcDbEntity
  8
1-2ﾚｲﾔ
  6
Continuous
 62
     6
370
     9
100
AcDbCircle
 10
-102.8806341253122
 20
-62.41213187267651
 30
0.0
 40
1.499999982049566
100
AcDbArc
 50
270.0
 51
344.9998779296876
  0
ARC
  5
121
330
1F
100
AcDbEntity
  8
1-2ﾚｲﾔ
  6
Continuous
 62
     6
370
     9
100
AcDbCircle
 10
-42.62193932560174
 20
-268.9120704840348
 30
0.0
 40
249.9999888062937
100
AcDbArc
 50
90.0
 51
99.12159729003906
  0
ARC
  5
122
330
1F
100
AcDbEntity
  8
1-2ﾚｲﾔ
  6
JWW_CENTER1
 62
     6
370
     9
100
AcDbCircle
 10
-36.32335333814247
 20
-31.41217735447252
 30
0.0
 40
1.499999982049566
100
AcDbArc
 50
90.0
 51
181.2365570068359
  0
ARC
  5
123
330
1F
100
AcDbEntity
  8
1-2ﾚｲﾔ
  6
JWW_CENTER1
 62
     6
370
     9
100
AcDbCircle
 10
-48.92052531306101
 20
-31.41217735447252
 30
0.0
 40
1.499999982049566
100
AcDbArc
 50
358.7634429931641
 51
90.0
  0
ARC
  5
124
330
1F
100
AcDbEntity
  8
1-2ﾚｲﾔ
  6
JWW_CENTER1
 62
     6
370
     9
100
AcDbCircle
 10
-47.42018207867848
 20
-31.41217735447252
 30
0.0
 40
1.499999982049566
100
AcDbArc
 50
358.7634429931641
 51
90.0
  0
ARC
  5
125
330
1F
100
AcDbEntity
  8
1-2ﾚｲﾔ
  6
JWW_CENTER1
 62
     6
370
     9
100
AcDbCircle
 10
-37.82369657252501
 20
-31.41217735447252
 30
0.0
 40
1.499999982049566
100
AcDbArc
 50
90.0
 51
181.2365570068359
  0
LINE
  5
126
330
1F
100
AcDbEntity
  8
1-0ﾚｲﾔ
  6
Continuous
 62
     3
370
     9
100
AcDbLine
 10
19.16759690383011
 20
282.9502232890105
 30
0.0
 11
21.66848391668
 21
284.6213424192666
 31
0.0
  0
LINE
  5
127
330
1F
100
AcDbEntity
  8
1-0ﾚｲﾔ
  6
Continuous
 62
     3
370
     9
100
AcDbLine
 10
25.79902091293965
 20
266.9405079767745
 30
0.0
 11
28.74896454379146
 21
267.527340148476
 31
0.0
  0
LINE
  5
128
330
1F
100
AcDbEntity
  8
1-0ﾚｲﾔ
  6
Continuous
 62
     3
370
     9
100
AcDbLine
 10
25.79902091293965
 20
266.9405079767745
 30
0.0
 11
25.62978479973381
 21
264.3578725022933
 31
0.0
  0
LINE
  5
129
330
1F
100
AcDbEntity
  8
1-0ﾚｲﾔ
  6
Continuous
 62
     3
370
     9
100
AcDbLine
 10
28.74896454379146
 20
267.527340148476
 30
0.0
 11
30.35103841942495
 21
265.296982451825
 31
0.0
  0
LINE
  5
12A
330
1F
100
AcDbEntity
  8
1-0ﾚｲﾔ
  6
Continuous
 62
     3
370
     9
100
AcDbLine
 10
21.66848391668
 20
284.6213424192666
 30
0.0
 11
21.22404664668122
 21
287.331114949016
 31
0.0
  0
LINE
  5
12B
330
1F
100
AcDbEntity
  8
1-0ﾚｲﾔ
  6
Continuous
 62
     3
370
     9
100
AcDbLine
 10
19.16759690383011
 20
282.9502232890105
 30
0.0
 11
17.22166156244796
 21
284.656757420624
 31
0.0
  0
LINE
  5
12C
330
1F
100
AcDbEntity
  8
1-0ﾚｲﾔ
  6
Continuous
 62
     3
370
     9
100
AcDbLine
 10
17.22166156244796
 20
284.656757420624
 30
0.0
 11
21.22404664668122
 21
287.331114949016
 31
0.0
  0
LINE
  5
12D
330
1F
100
AcDbEntity
  8
1-0ﾚｲﾔ
  6
Continuous
 62
     3
370
     9
100
AcDbLine
 10
25.62978479973381
 20
264.3578725022933
 30
0.0
 11
30.35103841942495
 21
265.296982451825
 31
0.0
  0
LINE
  5
12E
330
1F
100
AcDbEntity
  8
1-0ﾚｲﾔ
  6
Continuous
 62
     3
370
     9
100
AcDbLine
 10
1.080732270380363
 20
303.933961543867
 30
0.0
 11
2.751903893227418
 21
306.4348485567169
 31
0.0
  0
LINE
  5
12F
330
1F
100
AcDbEntity
  8
1-0ﾚｲﾔ
  6
Continuous
 62
     3
370
     9
100
AcDbLine
 10
13.33413026720185
 20
291.6806860297577
 30
0.0
 11
15.83491229486984
 21
293.3517001748319
 31
0.0
  0
LINE
  5
130
330
1F
100
AcDbEntity
  8
1-0ﾚｲﾔ
  6
Continuous
 62
     3
370
     9
100
AcDbLine
 10
13.33413026720185
 20
291.6806860297577
 30
0.0
 11
14.16596285837281
 21
289.2298069585478
 31
0.0
  0
LINE
  5
131
330
1F
100
AcDbEntity
  8
1-0ﾚｲﾔ
  6
Continuous
 62
     3
370
     9
100
AcDbLine
 10
15.83491229486984
 20
293.3517001748319
 30
0.0
 11
18.16852291790919
 21
291.904234477061
 31
0.0
  0
LINE
  5
132
330
1F
100
AcDbEntity
  8
1-0ﾚｲﾔ
  6
Continuous
 62
     3
370
     9
100
AcDbLine
 10
2.751903893227418
 20
306.4348485567169
 30
0.0
 11
1.304350707804952
 21
308.7684241846955
 31
0.0
  0
LINE
  5
133
330
1F
100
AcDbEntity
  8
1-0ﾚｲﾔ
  6
Continuous
 62
     3
370
     9
100
AcDbLine
 10
1.080732270380363
 20
303.933961543867
 30
0.0
 11
-1.36997182552634
 21
304.7659691103411
 31
0.0
  0
LINE
  5
134
330
1F
100
AcDbEntity
  8
1-0ﾚｲﾔ
  6
Continuous
 62
     3
370
     9
100
AcDbLine
 10
-1.36997182552634
 20
304.7659691103411
 30
0.0
 11
1.304350707804952
 21
308.7684241846955
 31
0.0
  0
LINE
  5
135
330
1F
100
AcDbEntity
  8
1-0ﾚｲﾔ
  6
Continuous
 62
     3
370
     9
100
AcDbLine
 10
14.16596285837281
 20
289.2298069585478
 30
0.0
 11
18.16852291790919
 21
291.904234477061
 31
0.0
  0
LINE
  5
136
330
1F
100
AcDbEntity
  8
1-0ﾚｲﾔ
  6
Continuous
 62
     3
370
     9
100
AcDbLine
 10
-23.65930580236031
 20
316.3988521896048
 30
0.0
 11
-23.0725086257194
 21
319.3489008056385
 31
0.0
  0
LINE
  5
137
330
1F
100
AcDbEntity
  8
1-0ﾚｲﾔ
  6
Continuous
 62
     3
370
     9
100
AcDbLine
 10
-7.64962548518489
 20
309.7674281804952
 30
0.0
 11
-5.97854134998946
 21
312.2682801982845
 31
0.0
  0
LINE
  5
138
330
1F
100
AcDbEntity
  8
1-0ﾚｲﾔ
  6
Continuous
 62
     3
370
     9
100
AcDbLine
 10
-7.64962548518489
 20
309.7674281804952
 30
0.0
 11
-5.943126348632042
 21
307.8214928391131
 31
0.0
  0
LINE
  5
139
330
1F
100
AcDbEntity
  8
1-0ﾚｲﾔ
  6
Continuous
 62
     3
370
     9
100
AcDbLine
 10
-5.97854134998946
 20
312.2682801982845
 30
0.0
 11
-3.268698830118842
 21
311.8240878937101
 31
0.0
  0
LINE
  5
13A
330
1F
100
AcDbEntity
  8
1-0ﾚｲﾔ
  6
Continuous
 62
     3
370
     9
100
AcDbLine
 10
-23.0725086257194
 20
319.3489008056385
 30
0.0
 11
-25.30288381990076
 21
320.9508347010294
 31
0.0
  0
LINE
  5
13B
330
1F
100
AcDbEntity
  8
1-0ﾚｲﾔ
  6
Continuous
 62
     3
370
     9
100
AcDbLine
 10
-23.65930580236031
 20
316.3988521896048
 30
0.0
 11
-26.24194127684152
 21
316.2296160763989
 31
0.0
  0
LINE
  5
13C
330
1F
100
AcDbEntity
  8
1-0ﾚｲﾔ
  6
Continuous
 62
     3
370
     9
100
AcDbLine
 10
-26.24194127684152
 20
316.2296160763989
 30
0.0
 11
-25.30288381990076
 21
320.9508347010294
 31
0.0
  0
LINE
  5
13D
330
1F
100
AcDbEntity
  8
1-0ﾚｲﾔ
  6
Continuous
 62
     3
370
     9
100
AcDbLine
 10
-5.943126348632042
 20
307.8214928391131
 30
0.0
 11
-3.268698830118842
 21
311.8240878937101
 31
0.0
  0
LINE
  5
13E
330
1F
100
AcDbEntity
  8
1-0ﾚｲﾔ
  6
Continuous
 62
     3
370
     9
100
AcDbLine
 10
-51.28629639681918
 20
318.4472880635717
 30
0.0
 11
-51.87316356358136
 21
321.3973366796054
 31
0.0
  0
LINE
  5
13F
330
1F
100
AcDbEntity
  8
1-0ﾚｲﾔ
  6
Continuous
 62
     3
370
     9
100
AcDbLine
 10
-33.95758225438433
 20
318.4472880635717
 30
0.0
 11
-33.37078507774342
 21
321.3973366796054
 31
0.0
  0
LINE
  5
140
330
1F
100
AcDbEntity
  8
1-0ﾚｲﾔ
  6
Continuous
 62
     3
370
     9
100
AcDbLine
 10
-33.95758225438433
 20
318.4472880635717
 30
0.0
 11
-31.63621990256544
 21
317.3025646353094
 31
0.0
  0
LINE
  5
141
330
1F
100
AcDbEntity
  8
1-0ﾚｲﾔ
  6
Continuous
 62
     3
370
     9
100
AcDbLine
 10
-33.37078507774342
 20
321.3973366796054
 30
0.0
 11
-30.69716244562468
 21
322.0238532500612
 31
0.0
  0
LINE
  5
142
330
1F
100
AcDbEntity
  8
1-0ﾚｲﾔ
  6
Continuous
 62
     3
370
     9
100
AcDbLine
 10
-51.87316356358136
 20
321.3973366796054
 30
0.0
 11
-54.54671620557884
 21
322.0238532500612
 31
0.0
  0
LINE
  5
143
330
1F
100
AcDbEntity
  8
1-0ﾚｲﾔ
  6
Continuous
 62
     3
370
     9
100
AcDbLine
 10
-51.28629639681918
 20
318.4472880635717
 30
0.0
 11
-53.60758875851681
 21
317.3026346254306
 31
0.0
  0
LINE
  5
144
330
1F
100
AcDbEntity
  8
1-0ﾚｲﾔ
  6
Continuous
 62
     3
370
     9
100
AcDbLine
 10
-53.60758875851681
 20
317.3026346254306
 30
0.0
 11
-54.54671620557884
 21
322.0238532500612
 31
0.0
  0
LINE
  5
145
330
1F
100
AcDbEntity
  8
1-0ﾚｲﾔ
  6
Continuous
 62
     3
370
     9
100
AcDbLine
 10
-31.63621990256544
 20
317.3025646353094
 30
0.0
 11
-30.69709245550345
 21
322.0238532500612
 31
0.0
  0
LINE
  5
146
330
1F
100
AcDbEntity
  8
1-0ﾚｲﾔ
  6
Continuous
 62
     3
370
     9
100
AcDbLine
 10
-77.59425316601863
 20
309.7674281804952
 30
0.0
 11
-79.26533730121409
 21
312.2683851834663
 31
0.0
  0
LINE
  5
147
330
1F
100
AcDbEntity
  8
1-0ﾚｲﾔ
  6
Continuous
 62
     3
370
     9
100
AcDbLine
 10
-61.58450285872192
 20
316.3988521896048
 30
0.0
 11
-62.17137002548412
 21
319.3489008056385
 31
0.0
  0
LINE
  5
148
330
1F
100
AcDbEntity
  8
1-0ﾚｲﾔ
  6
Continuous
 62
     3
370
     9
100
AcDbLine
 10
-61.58450285872192
 20
316.3988521896048
 30
0.0
 11
-59.00186738424077
 21
316.2296160763989
 31
0.0
  0
LINE
  5
149
330
1F
100
AcDbEntity
  8
1-0ﾚｲﾔ
  6
Continuous
 62
     3
370
     9
100
AcDbLine
 10
-62.17137002548412
 20
319.3489008056385
 30
0.0
 11
-59.94099483130277
 21
320.9509046911506
 31
0.0
  0
LINE
  5
14A
330
1F
100
AcDbEntity
  8
1-0ﾚｲﾔ
  6
Continuous
 62
     3
370
     9
100
AcDbLine
 10
-79.26533730121409
 20
312.2683851834663
 30
0.0
 11
-81.97510983096342
 21
311.8240179035888
 31
0.0
  0
LINE
  5
14B
330
1F
100
AcDbEntity
  8
1-0ﾚｲﾔ
  6
Continuous
 62
     3
370
     9
100
AcDbLine
 10
-77.59425316601863
 20
309.7674281804952
 30
0.0
 11
-79.30075230257148
 21
307.8215628292344
 31
0.0
  0
LINE
  5
14C
330
1F
100
AcDbEntity
  8
1-0ﾚｲﾔ
  6
Continuous
 62
     3
370
     9
100
AcDbLine
 10
-79.30075230257148
 20
307.8215628292344
 30
0.0
 11
-81.97510983096342
 21
311.8240179035888
 31
0.0
  0
LINE
  5
14D
330
1F
100
AcDbEntity
  8
1-0ﾚｲﾔ
  6
Continuous
 62
     3
370
     9
100
AcDbLine
 10
-59.00186738424077
 20
316.2296160763989
 30
0.0
 11
-59.94099483130277
 21
320.9509046911506
 31
0.0
  0
LINE
  5
14E
330
1F
100
AcDbEntity
  8
1-0ﾚｲﾔ
  6
Continuous
 62
     3
370
     9
100
AcDbLine
 10
-98.57799142087502
 20
291.6806860297577
 30
0.0
 11
-101.0789484238462
 21
293.3517351698925
 31
0.0
  0
LINE
  5
14F
330
1F
100
AcDbEntity
  8
1-0ﾚｲﾔ
  6
Continuous
 62
     3
370
     9
100
AcDbLine
 10
-86.32468091170517
 20
303.933961543867
 30
0.0
 11
-87.99569505677937
 21
306.4348485567169
 31
0.0
  0
LINE
  5
150
330
1F
100
AcDbEntity
  8
1-0ﾚｲﾔ
  6
Continuous
 62
     3
370
     9
100
AcDbLine
 10
-86.32468091170517
 20
303.933961543867
 30
0.0
 11
-83.87383683555592
 21
304.7659691103411
 31
0.0
  0
LINE
  5
151
330
1F
100
AcDbEntity
  8
1-0ﾚｲﾔ
  6
Continuous
 62
     3
370
     9
100
AcDbLine
 10
-87.99569505677937
 20
306.4348485567169
 30
0.0
 11
-86.5482293590085
 21
308.7684241846955
 31
0.0
  0
LINE
  5
152
330
1F
100
AcDbEntity
  8
1-0ﾚｲﾔ
  6
Continuous
 62
     3
370
     9
100
AcDbLine
 10
-101.0789484238462
 20
293.3517351698925
 30
0.0
 11
-103.412419066643
 21
291.904234477061
 31
0.0
  0
LINE
  5
153
330
1F
100
AcDbEntity
  8
1-0ﾚｲﾔ
  6
Continuous
 62
     3
370
     9
100
AcDbLine
 10
-98.57799142087502
 20
291.6806860297577
 30
0.0
 11
-99.40996399228854
 21
289.2299119437297
 31
0.0
  0
LINE
  5
154
330
1F
100
AcDbEntity
  8
1-0ﾚｲﾔ
  6
Continuous
 62
     3
370
     9
100
AcDbLine
 10
-99.40996399228854
 20
289.2299119437297
 30
0.0
 11
-103.412419066643
 21
291.904234477061
 31
0.0
  0
LINE
  5
155
330
1F
100
AcDbEntity
  8
1-0ﾚｲﾔ
  6
Continuous
 62
     3
370
     9
100
AcDbLine
 10
-83.87383683555592
 20
304.7659691103411
 30
0.0
 11
-86.5482293590085
 21
308.7684241846955
 31
0.0
  0
LINE
  5
156
330
1F
100
AcDbEntity
  8
1-0ﾚｲﾔ
  6
Continuous
 62
     3
370
     9
100
AcDbLine
 10
-111.0428820666128
 20
266.9405429718351
 30
0.0
 11
-113.992895687586
 21
267.527340148476
 31
0.0
  0
LINE
  5
157
330
1F
100
AcDbEntity
  8
1-0ﾚｲﾔ
  6
Continuous
 62
     3
370
     9
100
AcDbLine
 10
-104.4114230624427
 20
282.9502232890105
 30
0.0
 11
-106.912275080232
 21
284.6213424192666
 31
0.0
  0
LINE
  5
158
330
1F
100
AcDbEntity
  8
1-0ﾚｲﾔ
  6
Continuous
 62
     3
370
     9
100
AcDbLine
 10
-104.4114230624427
 20
282.9502232890105
 30
0.0
 11
-102.4654877210606
 21
284.6568274107453
 31
0.0
  0
LINE
  5
159
330
1F
100
AcDbEntity
  8
1-0ﾚｲﾔ
  6
Continuous
 62
     3
370
     9
100
AcDbLine
 10
-106.912275080232
 20
284.6213424192666
 30
0.0
 11
-106.4680827756576
 21
287.3311849391372
 31
0.0
  0
LINE
  5
15A
330
1F
100
AcDbEntity
  8
1-0ﾚｲﾔ
  6
Continuous
 62
     3
370
     9
100
AcDbLine
 10
-113.992895687586
 20
267.527340148476
 30
0.0
 11
-115.5948295829769
 21
265.296982451825
 31
0.0
  0
LINE
  5
15B
330
1F
100
AcDbEntity
  8
1-0ﾚｲﾔ
  6
Continuous
 62
     3
370
     9
100
AcDbLine
 10
-111.0428820666128
 20
266.9405429718351
 30
0.0
 11
-110.8736109583464
 21
264.3579249948842
 31
0.0
  0
LINE
  5
15C
330
1F
100
AcDbEntity
  8
1-0ﾚｲﾔ
  6
Continuous
 62
     3
370
     9
100
AcDbLine
 10
-110.8736109583464
 20
264.3579249948842
 30
0.0
 11
-115.5948295829769
 21
265.296982451825
 31
0.0
  0
LINE
  5
15D
330
1F
100
AcDbEntity
  8
1-0ﾚｲﾔ
  6
Continuous
 62
     3
370
     9
100
AcDbLine
 10
-102.4654877210606
 20
284.6568274107453
 30
0.0
 11
-106.4680827756576
 21
287.3311849391372
 31
0.0
  0
LINE
  5
15E
330
1F
100
AcDbEntity
  8
1-0ﾚｲﾔ
  6
Continuous
 62
     3
370
     9
100
AcDbLine
 10
-113.0912829455191
 20
256.6422665198111
 30
0.0
 11
-116.0413315615528
 21
257.2291861791642
 31
0.0
  0
LINE
  5
15F
330
1F
100
AcDbEntity
  8
1-0ﾚｲﾔ
  6
Continuous
 62
     3
370
     9
100
AcDbLine
 10
-113.0912829455191
 20
256.6422665198111
 30
0.0
 11
-111.9465595172569
 21
258.9636463691603
 31
0.0
  0
LINE
  5
160
330
1F
100
AcDbEntity
  8
1-0ﾚｲﾔ
  6
Continuous
 62
     3
370
     9
100
AcDbLine
 10
-116.0413315615528
 20
257.2291861791642
 30
0.0
 11
-116.6678481320086
 21
259.9027038261011
 31
0.0
  0
LINE
  5
161
330
1F
100
AcDbEntity
  8
1-0ﾚｲﾔ
  6
Continuous
 62
     3
370
     9
100
AcDbLine
 10
-111.9465595172569
 20
258.9636463691603
 30
0.0
 11
-116.6678481320086
 21
259.9027913137527
 31
0.0
  0
LINE
  5
162
330
1F
100
AcDbEntity
  8
1-0ﾚｲﾔ
  6
Continuous
 62
     3
370
     9
100
AcDbLine
 10
27.84735180172461
 20
256.6422665198111
 30
0.0
 11
30.79743541281899
 21
257.2291861791642
 31
0.0
  0
LINE
  5
163
330
1F
100
AcDbEntity
  8
1-0ﾚｲﾔ
  6
Continuous
 62
     3
370
     9
100
AcDbLine
 10
30.79743541281899
 20
257.2291861791642
 30
0.0
 11
31.42398697833542
 21
259.9027038261011
 31
0.0
  0
LINE
  5
164
330
1F
100
AcDbEntity
  8
1-0ﾚｲﾔ
  6
Continuous
 62
     3
370
     9
100
AcDbLine
 10
27.84735180172461
 20
256.6422665198111
 30
0.0
 11
26.70269836358366
 21
258.9635938765693
 31
0.0
  0
LINE
  5
165
330
1F
100
AcDbEntity
  8
1-0ﾚｲﾔ
  6
Continuous
 62
     3
370
     9
100
AcDbLine
 10
26.70269836358366
 20
258.9635938765693
 30
0.0
 11
31.42398697833542
 21
259.9027038261011
 31
0.0
  0
LINE
  5
166
330
1F
100
AcDbEntity
  8
1-0ﾚｲﾔ
  6
Continuous
 62
     3
370
     9
100
AcDbLine
 10
-37.32333719563976
 20
176.2129786940389
 30
0.0
 11
-37.73270941488746
 21
174.2906300235213
 31
0.0
  0
LINE
  5
167
330
1F
100
AcDbEntity
  8
1-0ﾚｲﾔ
  6
Continuous
 62
     3
370
     9
100
AcDbLine
 10
-37.62191505293344
 20
179.9779222918988
 30
0.0
 11
-37.62191505293344
 21
190.1938553662608
 31
0.0
  0
LINE
  5
168
330
1F
100
AcDbEntity
  8
1-0ﾚｲﾔ
  6
Continuous
 62
     3
370
     9
100
AcDbLine
 10
-36.12195676421783
 20
179.9779222918988
 30
0.0
 11
-36.12195676421783
 21
191.3497772139245
 31
0.0
  0
LINE
  5
169
330
1F
100
AcDbEntity
  8
1-0ﾚｲﾔ
  6
Continuous
 62
     3
370
     9
100
AcDbLine
 10
-45.62192589315423
 20
168.9779248841255
 30
0.0
 11
-39.62195275804927
 21
168.9779248841255
 31
0.0
  0
LINE
  5
16A
330
1F
100
AcDbEntity
  8
1-0ﾚｲﾔ
  6
Continuous
 62
     3
370
     9
100
AcDbLine
 10
-39.62195275804927
 20
168.9779248841255
 30
0.0
 11
-39.62195275804927
 21
179.9779222918988
 31
0.0
  0
LINE
  5
16B
330
1F
100
AcDbEntity
  8
1-0ﾚｲﾔ
  6
JWW_CENTER1
 62
     3
370
     9
100
AcDbLine
 10
-35.19710730189277
 20
179.9779222918988
 30
0.0
 11
-50.04677134931073
 21
179.9779222918988
 31
0.0
  0
LINE
  5
16C
330
1F
100
AcDbEntity
  8
1-0ﾚｲﾔ
  6
Continuous
 62
     3
370
     9
100
AcDbLine
 10
-47.92054145556374
 20
176.2129786940389
 30
0.0
 11
-47.51116923631604
 21
174.2906300235213
 31
0.0
  0
LINE
  5
16D
330
1F
100
AcDbEntity
  8
1-0ﾚｲﾔ
  6
Continuous
 62
     3
370
     9
100
AcDbLine
 10
-47.62196359827007
 20
179.9779222918988
 30
0.0
 11
-47.62196359827007
 21
190.1938553662608
 31
0.0
  0
LINE
  5
16E
330
1F
100
AcDbEntity
  8
1-0ﾚｲﾔ
  6
Continuous
 62
     3
370
     9
100
AcDbLine
 10
-49.12192188698567
 20
179.9779222918988
 30
0.0
 11
-49.12192188698567
 21
191.3497772139245
 31
0.0
  0
LINE
  5
16F
330
1F
100
AcDbEntity
  8
1-0ﾚｲﾔ
  6
Continuous
 62
     3
370
     9
100
AcDbLine
 10
-45.62192589315423
 20
168.9779248841255
 30
0.0
 11
-45.62192589315423
 21
179.9779222918988
 31
0.0
  0
LINE
  5
170
330
1F
100
AcDbEntity
  8
1-0ﾚｲﾔ
  6
Continuous
 62
     3
370
     9
100
AcDbLine
 10
-39.62195275804927
 20
195.6427787791582
 30
0.0
 11
-39.62195275804927
 21
198.1555291175617
 31
0.0
  0
LINE
  5
171
330
1F
100
AcDbEntity
  8
1-0ﾚｲﾔ
  6
Continuous
 62
     3
370
     9
100
AcDbLine
 10
-45.62192589315423
 20
195.6427787791582
 30
0.0
 11
-45.62192589315423
 21
198.1555291175617
 31
0.0
  0
LINE
  5
172
330
1F
100
AcDbEntity
  8
1-0ﾚｲﾔ
  6
Continuous
 62
     3
370
     9
100
AcDbLine
 10
-38.62193390549134
 20
196.9841569506298
 30
0.0
 11
-39.62195275804927
 21
198.1555291175617
 31
0.0
  0
LINE
  5
173
330
1F
100
AcDbEntity
  8
1-0ﾚｲﾔ
  6
Continuous
 62
     3
370
     9
100
AcDbLine
 10
-38.62193390549134
 20
194.7869570739255
 30
0.0
 11
-38.62193390549134
 21
196.9841569506298
 31
0.0
  0
LINE
  5
174
330
1F
100
AcDbEntity
  8
1-0ﾚｲﾔ
  6
Continuous
 62
     3
370
     9
100
AcDbLine
 10
-38.62193390549134
 20
194.7869570739255
 30
0.0
 11
-39.62195275804927
 21
195.6427787791582
 31
0.0
  0
LINE
  5
175
330
1F
100
AcDbEntity
  8
1-0ﾚｲﾔ
  6
Continuous
 62
     3
370
     9
100
AcDbLine
 10
-46.62194474571217
 20
196.9841569506298
 30
0.0
 11
-45.62192589315423
 21
198.1555291175617
 31
0.0
  0
LINE
  5
176
330
1F
100
AcDbEntity
  8
1-0ﾚｲﾔ
  6
Continuous
 62
     3
370
     9
100
AcDbLine
 10
-46.62194474571217
 20
194.7869570739255
 30
0.0
 11
-46.62194474571217
 21
196.9841569506298
 31
0.0
  0
LINE
  5
177
330
1F
100
AcDbEntity
  8
1-0ﾚｲﾔ
  6
Continuous
 62
     3
370
     9
100
AcDbLine
 10
-46.62194474571217
 20
194.7869570739255
 30
0.0
 11
-45.62192589315423
 21
195.6427787791582
 31
0.0
  0
LINE
  5
178
330
1F
100
AcDbEntity
  8
1-0ﾚｲﾔ
  6
Continuous
 62
     3
370
     9
100
AcDbLine
 10
-38.62193390549134
 20
190.1160088538898
 30
0.0
 11
-39.62195275804927
 21
191.2159735996064
 31
0.0
  0
LINE
  5
179
330
1F
100
AcDbEntity
  8
1-0ﾚｲﾔ
  6
Continuous
 62
     3
370
     9
100
AcDbLine
 10
-46.62194474571217
 20
190.1160088538898
 30
0.0
 11
-45.62192589315423
 21
191.2159735996064
 31
0.0
  0
LINE
  5
17A
330
1F
100
AcDbEntity
  8
1-0ﾚｲﾔ
  6
Continuous
 62
     3
370
     9
100
AcDbLine
 10
-38.62193390549134
 20
191.2776873890272
 30
0.0
 11
-38.62193390549134
 21
190.1160088538898
 31
0.0
  0
LINE
  5
17B
330
1F
100
AcDbEntity
  8
1-0ﾚｲﾔ
  6
Continuous
 62
     3
370
     9
100
AcDbLine
 10
-46.62194474571217
 20
191.2776873890272
 30
0.0
 11
-46.62194474571217
 21
190.1160088538898
 31
0.0
  0
LINE
  5
17C
330
1F
100
AcDbEntity
  8
1-2ﾚｲﾔ
  6
Continuous
 62
     6
370
     9
100
AcDbLine
 10
-97.60617858718474
 20
264.7999826007602
 30
0.0
 11
-91.68074493122134
 21
262.987168470014
 31
0.0
  0
LINE
  5
17D
330
1F
100
AcDbEntity
  8
1-2ﾚｲﾔ
  6
Continuous
 62
     6
370
     9
100
AcDbLine
 10
-86.98321796263724
 20
284.5610459298015
 30
0.0
 11
-82.2025777250573
 21
280.6186773745484
 31
0.0
  0
LINE
  5
17E
330
1F
100
AcDbEntity
  8
1-2ﾚｲﾔ
  6
Continuous
 62
     6
370
     9
100
AcDbLine
 10
-93.3966577390836
 20
274.962618197783
 30
0.0
 11
-87.92490004912523
 21
272.0545986495657
 31
0.0
  0
LINE
  5
17F
330
1F
100
AcDbEntity
  8
1-2ﾚｲﾔ
  6
Continuous
 62
     6
370
     9
100
AcDbLine
 10
-69.60666557232142
 20
298.7526453596058
 30
0.0
 11
-66.69864602410411
 21
293.2808526745868
 31
0.0
  0
LINE
  5
180
330
1F
100
AcDbEntity
  8
1-2ﾚｲﾔ
  6
Continuous
 62
     6
370
     9
100
AcDbLine
 10
-79.20507580680953
 20
292.3392230806897
 30
0.0
 11
-75.26270725155646
 21
287.5585303505189
 31
0.0
  0
LINE
  5
181
330
1F
100
AcDbEntity
  8
1-2ﾚｲﾔ
  6
Continuous
 62
     6
370
     9
100
AcDbLine
 10
-48.1219380294884
 20
305.2142383394788
 30
0.0
 11
-47.52919169254039
 21
299.0461489331082
 31
0.0
  0
LINE
  5
182
330
1F
100
AcDbEntity
  8
1-2ﾚｲﾔ
  6
Continuous
 62
     6
370
     9
100
AcDbLine
 10
-59.4440299752986
 20
302.9621837052373
 30
0.0
 11
-57.63121584455234
 21
297.0367675468042
 31
0.0
  0
LINE
  5
183
330
1F
100
AcDbEntity
  8
1-2ﾚｲﾔ
  6
Continuous
 62
     6
370
     9
100
AcDbLine
 10
-25.79984867590488
 20
302.9621137151161
 30
0.0
 11
-27.61266280665118
 21
297.0367675468042
 31
0.0
  0
LINE
  5
184
330
1F
100
AcDbEntity
  8
1-2ﾚｲﾔ
  6
Continuous
 62
     6
370
     9
100
AcDbLine
 10
-37.12194062171511
 20
305.2143083296001
 30
0.0
 11
-37.71468695866312
 21
299.0461489331082
 31
0.0
  0
LINE
  5
185
330
1F
100
AcDbEntity
  8
1-2ﾚｲﾔ
  6
Continuous
 62
     6
370
     9
100
AcDbLine
 10
-6.038802844393983
 20
292.3392230806897
 30
0.0
 11
-9.981171399647083
 21
287.5585303505189
 31
0.0
  0
LINE
  5
186
330
1F
100
AcDbEntity
  8
1-2ﾚｲﾔ
  6
Continuous
 62
     6
370
     9
100
AcDbLine
 10
-15.63721307888213
 20
298.7526453596058
 30
0.0
 11
-18.54523262709941
 21
293.2809051671778
 31
0.0
  0
LINE
  5
187
330
1F
100
AcDbEntity
  8
1-2ﾚｲﾔ
  6
Continuous
 62
     6
370
     9
100
AcDbLine
 10
8.152691600228502
 20
274.962618197783
 30
0.0
 11
2.681073890512636
 21
272.0545986495657
 31
0.0
  0
LINE
  5
188
330
1F
100
AcDbEntity
  8
1-2ﾚｲﾔ
  6
Continuous
 62
     6
370
     9
100
AcDbLine
 10
1.739356808964006
 20
284.5610459298015
 30
0.0
 11
-3.041300926146249
 21
280.6186773745484
 31
0.0
  0
LINE
  5
189
330
1F
100
AcDbEntity
  8
1-2ﾚｲﾔ
  6
Continuous
 62
     6
370
     9
100
AcDbLine
 10
12.36224744339031
 20
264.7999826007602
 30
0.0
 11
6.436883777548104
 21
262.987168470014
 31
0.0
  0
LINE
  5
18A
330
1F
100
AcDbEntity
  8
1-2ﾚｲﾔ
  6
Continuous
 62
     6
370
     9
100
AcDbLine
 10
24.13318603683868
 20
257.9779229988696
 30
0.0
 11
24.98909522972294
 21
258.977906856367
 31
0.0
  0
LINE
  5
18B
330
1F
100
AcDbEntity
  8
1-2ﾚｲﾔ
  6
Continuous
 62
     6
370
     9
100
AcDbLine
 10
-4.447927388162071
 20
251.4779229399554
 30
0.0
 11
-21.71141073758295
 21
251.4779229399554
 31
0.0
  0
LINE
  5
18C
330
1F
100
AcDbEntity
  8
1-2ﾚｲﾔ
  6
Continuous
 62
     6
370
     9
100
AcDbLine
 10
-7.812282526992332
 20
264.0338357383914
 30
0.0
 11
-22.7629073243273
 21
255.402094063681
 31
0.0
  0
LINE
  5
18D
330
1F
100
AcDbEntity
  8
1-2ﾚｲﾔ
  6
Continuous
 62
     6
370
     9
100
AcDbLine
 10
-11.31231351588443
 20
270.0959950962356
 30
0.0
 11
-26.26290331815877
 21
261.4642534215252
 31
0.0
  0
LINE
  5
18E
330
1F
100
AcDbEntity
  8
1-2ﾚｲﾔ
  6
Continuous
 62
     6
370
     9
100
AcDbLine
 10
-20.50383618042954
 20
279.2875877509019
 30
0.0
 11
-29.13557785513993
 21
264.336962953567
 31
0.0
  0
LINE
  5
18F
330
1F
100
AcDbEntity
  8
1-2ﾚｲﾔ
  6
Continuous
 62
     6
370
     9
100
AcDbLine
 10
-26.56603053333433
 20
282.7875662472031
 30
0.0
 11
-35.19777220804477
 21
267.8369764449287
 31
0.0
  0
LINE
  5
190
330
1F
100
AcDbEntity
  8
1-2ﾚｲﾔ
  6
Continuous
 62
     6
370
     9
100
AcDbLine
 10
-39.12194333177032
 20
286.1519213860333
 30
0.0
 11
-39.12194333177032
 21
268.8884555341428
 31
0.0
  0
LINE
  5
191
330
1F
100
AcDbEntity
  8
1-2ﾚｲﾔ
  6
Continuous
 62
     6
370
     9
100
AcDbLine
 10
-46.12193531943319
 20
286.1519213860333
 30
0.0
 11
-46.12193531943319
 21
268.8884555341428
 31
0.0
  0
LINE
  5
192
330
1F
100
AcDbEntity
  8
1-2ﾚｲﾔ
  6
Continuous
 62
     6
370
     9
100
AcDbLine
 10
-58.67784811786919
 20
282.7875837447334
 30
0.0
 11
-50.04610644315878
 21
267.8369764449287
 31
0.0
  0
LINE
  5
193
330
1F
100
AcDbEntity
  8
1-2ﾚｲﾔ
  6
Continuous
 62
     6
370
     9
100
AcDbLine
 10
-64.740042470774
 20
279.2875702533717
 30
0.0
 11
-56.10830079606355
 21
264.336962953567
 31
0.0
  0
LINE
  5
194
330
1F
100
AcDbEntity
  8
1-2ﾚｲﾔ
  6
Continuous
 62
     6
370
     9
100
AcDbLine
 10
-73.93160013037976
 20
270.0959950962356
 30
0.0
 11
-58.98097533304474
 21
261.4642534215252
 31
0.0
  0
LINE
  5
195
330
1F
100
AcDbEntity
  8
1-2ﾚｲﾔ
  6
Continuous
 62
     6
370
     9
100
AcDbLine
 10
-77.43156112915057
 20
264.0338357383914
 30
0.0
 11
-62.48097132687619
 21
255.402094063681
 31
0.0
  0
LINE
  5
196
330
1F
100
AcDbEntity
  8
1-2ﾚｲﾔ
  6
Continuous
 62
     6
370
     9
100
AcDbLine
 10
-80.7959162679808
 20
251.4779229399554
 30
0.0
 11
-63.53246791362059
 21
251.4779229399554
 31
0.0
  0
LINE
  5
197
330
1F
100
AcDbEntity
  8
1-2ﾚｲﾔ
  6
Continuous
 62
     6
370
     9
100
AcDbLine
 10
13.81608224219579
 20
258.977906856367
 30
0.0
 11
24.98909522972294
 21
258.977906856367
 31
0.0
  0
LINE
  5
198
330
1F
100
AcDbEntity
  8
1-2ﾚｲﾔ
  6
Continuous
 62
     6
370
     9
100
AcDbLine
 10
13.7297144325614
 20
257.9779229988696
 30
0.0
 11
24.13318603683868
 21
257.9779229988696
 31
0.0
  0
LINE
  5
199
330
1F
100
AcDbEntity
  8
1-2ﾚｲﾔ
  6
Continuous
 62
     6
370
     9
100
AcDbLine
 10
13.7297144325614
 20
257.9779229988696
 30
0.0
 11
13.81608224219579
 21
258.9778893588367
 31
0.0
  0
LINE
  5
19A
330
1F
100
AcDbEntity
  8
1-2ﾚｲﾔ
  6
Continuous
 62
     6
370
     9
100
AcDbLine
 10
22.4789695208668
 20
252.977881228671
 30
0.0
 11
23.60686032496604
 21
252.977881228671
 31
0.0
  0
LINE
  5
19B
330
1F
100
AcDbEntity
  8
1-2ﾚｲﾔ
  6
Continuous
 62
     6
370
     9
100
AcDbLine
 10
-109.3770821855725
 20
257.9779229988696
 30
0.0
 11
-110.2329913784568
 21
258.977906856367
 31
0.0
  0
LINE
  5
19C
330
1F
100
AcDbEntity
  8
1-2ﾚｲﾔ
  6
Continuous
 62
     6
370
     9
100
AcDbLine
 10
-98.97357558623459
 20
257.9779229988696
 30
0.0
 11
-99.05997839092964
 21
258.9778893588367
 31
0.0
  0
LINE
  5
19D
330
1F
100
AcDbEntity
  8
1-2ﾚｲﾔ
  6
Continuous
 62
     6
370
     9
100
AcDbLine
 10
-109.5223116871863
 20
251.9779148687041
 30
0.0
 11
-109.9365132248009
 21
251.9779148687041
 31
0.0
  0
LINE
  5
19E
330
1F
100
AcDbEntity
  8
1-2ﾚｲﾔ
  6
Continuous
 62
     6
370
     9
100
AcDbLine
 10
-107.7228656696006
 20
252.977881228671
 30
0.0
 11
-108.8507214786393
 21
252.977881228671
 31
0.0
  0
LINE
  5
19F
330
1F
100
AcDbEntity
  8
1-2ﾚｲﾔ
  6
Continuous
 62
     6
370
     9
100
AcDbLine
 10
-98.97357558623459
 20
257.9779229988696
 30
0.0
 11
-109.3770471905119
 21
257.9779229988696
 31
0.0
  0
LINE
  5
1A0
330
1F
100
AcDbEntity
  8
1-2ﾚｲﾔ
  6
Continuous
 62
     6
370
     9
100
AcDbLine
 10
-52.72144383324834
 20
251.4779229399554
 30
0.0
 11
-32.52243481795514
 21
251.4779229399554
 31
0.0
  0
LINE
  5
1A1
330
1F
100
AcDbEntity
  8
1-2ﾚｲﾔ
  6
Continuous
 62
     6
370
     9
100
AcDbLine
 10
-99.05990840080838
 20
258.977906856367
 30
0.0
 11
-110.2329563833962
 21
258.977906856367
 31
0.0
  0
LINE
  5
1A2
330
1F
100
AcDbEntity
  8
1-2ﾚｲﾔ
  6
Continuous
 62
     6
370
     9
100
AcDbLine
 10
-99.49591186119538
 20
254.4476912726541
 30
0.0
 11
-93.55567529458553
 21
253.8768518436603
 31
0.0
  0
LINE
  5
1A3
330
1F
100
AcDbEntity
  8
1-2ﾚｲﾔ
  6
Continuous
 62
     6
370
     9
100
AcDbLine
 10
14.25205070752216
 20
254.4476912726541
 30
0.0
 11
8.311849135972944
 21
253.8768518436603
 31
0.0
  0
LINE
  5
1A4
330
1F
100
AcDbEntity
  8
1-2ﾚｲﾔ
  6
Continuous
 62
     6
370
     9
100
AcDbLine
 10
24.27841553845243
 20
251.9779148687041
 30
0.0
 11
24.69261707606707
 21
251.9779148687041
 31
0.0
  0
ARC
  5
1A5
330
1F
100
AcDbEntity
  8
1-3ﾚｲﾔ
  6
Continuous
 62
     4
370
     9
100
AcDbCircle
 10
-42.62193932560177
 20
247.977926946124
 30
0.0
 40
56.99998974892162
100
AcDbArc
 50
179.9999847412109
 51
0.0000152587890715
  0
ARC
  5
1A6
330
1F
100
AcDbEntity
  8
1-3ﾚｲﾔ
  6
Continuous
 62
     4
370
     9
100
AcDbCircle
 10
-42.62193932560177
 20
247.977926946124
 30
0.0
 40
53.4999893807076
100
AcDbArc
 50
179.9999847412109
 51
0.0000152587890715
  0
ARC
  5
1A7
330
1F
100
AcDbEntity
  8
1-0ﾚｲﾔ
  6
Continuous
 62
     3
370
     9
100
AcDbCircle
 10
-42.62193932560177
 20
247.977926946124
 30
0.0
 40
74.00000403562566
100
AcDbArc
 50
15.31829833984375
 51
29.68168640136718
  0
ARC
  5
1A8
330
1F
100
AcDbEntity
  8
1-0ﾚｲﾔ
  6
Continuous
 62
     3
370
     9
100
AcDbCircle
 10
-42.62193932560177
 20
247.977926946124
 30
0.0
 40
70.99999997054287
100
AcDbArc
 50
15.49049377441407
 51
29.50942993164063
  0
ARC
  5
1A9
330
1F
100
AcDbEntity
  8
1-0ﾚｲﾔ
  6
Continuous
 62
     3
370
     9
100
AcDbCircle
 10
-42.62193932560177
 20
247.977926946124
 30
0.0
 40
74.99999664188812
100
AcDbArc
 50
13.35130310058594
 51
31.64866638183594
  0
ARC
  5
1AA
330
1F
100
AcDbEntity
  8
1-0ﾚｲﾔ
  6
Continuous
 62
     3
370
     9
100
AcDbCircle
 10
-42.62193932560177
 20
247.977926946124
 30
0.0
 40
70.18971996233729
100
AcDbArc
 50
11.24998474121094
 51
13.49536132812501
  0
ARC
  5
1AB
330
1F
100
AcDbEntity
  8
1-0ﾚｲﾔ
  6
Continuous
 62
     3
370
     9
100
AcDbCircle
 10
-42.62193932560177
 20
247.977926946124
 30
0.0
 40
70.18971996233729
100
AcDbArc
 50
31.50459289550781
 51
33.74998474121093
  0
ARC
  5
1AC
330
1F
100
AcDbEntity
  8
1-0ﾚｲﾔ
  6
Continuous
 62
     3
370
     9
100
AcDbCircle
 10
-42.62193932560177
 20
247.977926946124
 30
0.0
 40
74.00000403562566
100
AcDbArc
 50
37.8182830810547
 51
52.18168640136719
  0
ARC
  5
1AD
330
1F
100
AcDbEntity
  8
1-0ﾚｲﾔ
  6
Continuous
 62
     3
370
     9
100
AcDbCircle
 10
-42.62193932560177
 20
247.977926946124
 30
0.0
 40
70.99999997054287
100
AcDbArc
 50
37.99050903320314
 51
52.0094451904297
  0
ARC
  5
1AE
330
1F
100
AcDbEntity
  8
1-0ﾚｲﾔ
  6
Continuous
 62
     3
370
     9
100
AcDbCircle
 10
-42.62193932560177
 20
247.977926946124
 30
0.0
 40
74.99999664188812
100
AcDbArc
 50
35.85130310058593
 51
54.14866638183593
  0
ARC
  5
1AF
330
1F
100
AcDbEntity
  8
1-0ﾚｲﾔ
  6
Continuous
 62
     3
370
     9
100
AcDbCircle
 10
-42.62193932560177
 20
247.977926946124
 30
0.0
 40
70.18971996233729
100
AcDbArc
 50
33.75000000000001
 51
35.99537658691408
  0
ARC
  5
1B0
330
1F
100
AcDbEntity
  8
1-0ﾚｲﾔ
  6
Continuous
 62
     3
370
     9
100
AcDbCircle
 10
-42.62193932560177
 20
247.977926946124
 30
0.0
 40
70.18971996233729
100
AcDbArc
 50
54.00459289550781
 51
56.24998474121093
  0
ARC
  5
1B1
330
1F
100
AcDbEntity
  8
1-0ﾚｲﾔ
  6
Continuous
 62
     3
370
     9
100
AcDbCircle
 10
-42.62193932560177
 20
247.977926946124
 30
0.0
 40
74.00000403562566
100
AcDbArc
 50
60.31829833984377
 51
74.6816864013672
  0
ARC
  5
1B2
330
1F
100
AcDbEntity
  8
1-0ﾚｲﾔ
  6
Continuous
 62
     3
370
     9
100
AcDbCircle
 10
-42.62193932560177
 20
247.977926946124
 30
0.0
 40
70.99999997054287
100
AcDbArc
 50
60.49050903320314
 51
74.5094451904297
  0
ARC
  5
1B3
330
1F
100
AcDbEntity
  8
1-0ﾚｲﾔ
  6
Continuous
 62
     3
370
     9
100
AcDbCircle
 10
-42.62193932560177
 20
247.977926946124
 30
0.0
 40
74.99999664188812
100
AcDbArc
 50
58.35130310058592
 51
76.64866638183594
  0
ARC
  5
1B4
330
1F
100
AcDbEntity
  8
1-0ﾚｲﾔ
  6
Continuous
 62
     3
370
     9
100
AcDbCircle
 10
-42.62193932560177
 20
247.977926946124
 30
0.0
 40
70.18971996233729
100
AcDbArc
 50
56.25000000000001
 51
58.49537658691408
  0
ARC
  5
1B5
330
1F
100
AcDbEntity
  8
1-0ﾚｲﾔ
  6
Continuous
 62
     3
370
     9
100
AcDbCircle
 10
-42.62193932560177
 20
247.977926946124
 30
0.0
 40
70.18971996233729
100
AcDbArc
 50
76.5045928955078
 51
78.74998474121092
  0
ARC
  5
1B6
330
1F
100
AcDbEntity
  8
1-0ﾚｲﾔ
  6
Continuous
 62
     3
370
     9
100
AcDbCircle
 10
-42.62193932560177
 20
247.977926946124
 30
0.0
 40
74.00000403562566
100
AcDbArc
 50
82.81829833984376
 51
97.1816864013672
  0
ARC
  5
1B7
330
1F
100
AcDbEntity
  8
1-0ﾚｲﾔ
  6
Continuous
 62
     3
370
     9
100
AcDbCircle
 10
-42.62193932560177
 20
247.977926946124
 30
0.0
 40
70.99999997054287
100
AcDbArc
 50
82.99050903320314
 51
97.0094451904297
  0
ARC
  5
1B8
330
1F
100
AcDbEntity
  8
1-0ﾚｲﾔ
  6
Continuous
 62
     3
370
     9
100
AcDbCircle
 10
-42.62193932560177
 20
247.977926946124
 30
0.0
 40
74.99999664188812
100
AcDbArc
 50
80.85130310058595
 51
99.14866638183595
  0
ARC
  5
1B9
330
1F
100
AcDbEntity
  8
1-0ﾚｲﾔ
  6
Continuous
 62
     3
370
     9
100
AcDbCircle
 10
-42.62193932560177
 20
247.977926946124
 30
0.0
 40
70.18971996233729
100
AcDbArc
 50
78.75000000000001
 51
80.99537658691408
  0
ARC
  5
1BA
330
1F
100
AcDbEntity
  8
1-0ﾚｲﾔ
  6
Continuous
 62
     3
370
     9
100
AcDbCircle
 10
-42.62193932560177
 20
247.977926946124
 30
0.0
 40
70.18971996233729
100
AcDbArc
 50
99.00459289550783
 51
101.249984741211
  0
ARC
  5
1BB
330
1F
100
AcDbEntity
  8
1-0ﾚｲﾔ
  6
Continuous
 62
     3
370
     9
100
AcDbCircle
 10
-42.62193932560177
 20
247.977926946124
 30
0.0
 40
74.00000403562566
100
AcDbArc
 50
105.3182983398437
 51
119.6816864013672
  0
ARC
  5
1BC
330
1F
100
AcDbEntity
  8
1-0ﾚｲﾔ
  6
Continuous
 62
     3
370
     9
100
AcDbCircle
 10
-42.62193932560177
 20
247.977926946124
 30
0.0
 40
70.99999997054287
100
AcDbArc
 50
105.4904937744141
 51
119.5094299316406
  0
ARC
  5
1BD
330
1F
100
AcDbEntity
  8
1-0ﾚｲﾔ
  6
Continuous
 62
     3
370
     9
100
AcDbCircle
 10
-42.62193932560177
 20
247.977926946124
 30
0.0
 40
74.99999664188812
100
AcDbArc
 50
103.3512878417969
 51
121.6486511230469
  0
ARC
  5
1BE
330
1F
100
AcDbEntity
  8
1-0ﾚｲﾔ
  6
Continuous
 62
     3
370
     9
100
AcDbCircle
 10
-42.62193932560177
 20
247.977926946124
 30
0.0
 40
70.18971996233729
100
AcDbArc
 50
101.25
 51
103.4953765869141
  0
ARC
  5
1BF
330
1F
100
AcDbEntity
  8
1-0ﾚｲﾔ
  6
Continuous
 62
     3
370
     9
100
AcDbCircle
 10
-42.62193932560177
 20
247.977926946124
 30
0.0
 40
70.18971996233729
100
AcDbArc
 50
121.5045928955079
 51
123.749984741211
  0
ARC
  5
1C0
330
1F
100
AcDbEntity
  8
1-0ﾚｲﾔ
  6
Continuous
 62
     3
370
     9
100
AcDbCircle
 10
-42.62193932560177
 20
247.977926946124
 30
0.0
 40
74.00000403562566
100
AcDbArc
 50
127.8182983398438
 51
142.1816864013672
  0
ARC
  5
1C1
330
1F
100
AcDbEntity
  8
1-0ﾚｲﾔ
  6
Continuous
 62
     3
370
     9
100
AcDbCircle
 10
-42.62193932560177
 20
247.977926946124
 30
0.0
 40
70.99999997054287
100
AcDbArc
 50
127.9905090332032
 51
142.0094451904297
  0
ARC
  5
1C2
330
1F
100
AcDbEntity
  8
1-0ﾚｲﾔ
  6
Continuous
 62
     3
370
     9
100
AcDbCircle
 10
-42.62193932560177
 20
247.977926946124
 30
0.0
 40
74.99999664188812
100
AcDbArc
 50
125.851303100586
 51
144.148666381836
  0
ARC
  5
1C3
330
1F
100
AcDbEntity
  8
1-0ﾚｲﾔ
  6
Continuous
 62
     3
370
     9
100
AcDbCircle
 10
-42.62193932560177
 20
247.977926946124
 30
0.0
 40
70.18971996233729
100
AcDbArc
 50
123.75
 51
125.995376586914
  0
ARC
  5
1C4
330
1F
100
AcDbEntity
  8
1-0ﾚｲﾔ
  6
Continuous
 62
     3
370
     9
100
AcDbCircle
 10
-42.62193932560177
 20
247.977926946124
 30
0.0
 40
70.18971996233729
100
AcDbArc
 50
144.0045928955078
 51
146.2499847412109
  0
ARC
  5
1C5
330
1F
100
AcDbEntity
  8
1-0ﾚｲﾔ
  6
Continuous
 62
     3
370
     9
100
AcDbCircle
 10
-42.62193932560177
 20
247.977926946124
 30
0.0
 40
74.00000403562566
100
AcDbArc
 50
150.3182983398437
 51
164.6816864013672
  0
ARC
  5
1C6
330
1F
100
AcDbEntity
  8
1-0ﾚｲﾔ
  6
Continuous
 62
     3
370
     9
100
AcDbCircle
 10
-42.62193932560177
 20
247.977926946124
 30
0.0
 40
70.99999997054287
100
AcDbArc
 50
150.4905090332031
 51
164.5094451904297
  0
ARC
  5
1C7
330
1F
100
AcDbEntity
  8
1-0ﾚｲﾔ
  6
Continuous
 62
     3
370
     9
100
AcDbCircle
 10
-42.62193932560177
 20
247.977926946124
 30
0.0
 40
74.99999664188812
100
AcDbArc
 50
148.3513031005859
 51
166.648666381836
  0
ARC
  5
1C8
330
1F
100
AcDbEntity
  8
1-0ﾚｲﾔ
  6
Continuous
 62
     3
370
     9
100
AcDbCircle
 10
-42.62193932560177
 20
247.977926946124
 30
0.0
 40
70.18971996233729
100
AcDbArc
 50
146.25
 51
148.4953765869141
  0
ARC
  5
1C9
330
1F
100
AcDbEntity
  8
1-0ﾚｲﾔ
  6
Continuous
 62
     3
370
     9
100
AcDbCircle
 10
-42.62193932560177
 20
247.977926946124
 30
0.0
 40
70.18971996233729
100
AcDbArc
 50
166.5045928955078
 51
168.749984741211
  0
ARC
  5
1CA
330
1F
100
AcDbEntity
  8
1-0ﾚｲﾔ
  6
Continuous
 62
     3
370
     9
100
AcDbCircle
 10
-42.62193932560177
 20
247.977926946124
 30
0.0
 40
70.18971996233729
100
AcDbArc
 50
168.75
 51
170.9953765869141
  0
ARC
  5
1CB
330
1F
100
AcDbEntity
  8
1-0ﾚｲﾔ
  6
Continuous
 62
     3
370
     9
100
AcDbCircle
 10
-42.62193932560177
 20
247.977926946124
 30
0.0
 40
70.18971996233729
100
AcDbArc
 50
9.004592895507818
 51
11.24998474121094
  0
ARC
  5
1CC
330
1F
100
AcDbEntity
  8
1-0ﾚｲﾔ
  6
Continuous
 62
     3
370
     9
100
AcDbCircle
 10
-42.62193932560177
 20
247.977926946124
 30
0.0
 40
74.99999664188812
100
AcDbArc
 50
0.0
 51
9.148666381835938
  0
ARC
  5
1CD
330
1F
100
AcDbEntity
  8
1-0ﾚｲﾔ
  6
Continuous
 62
     3
370
     9
100
AcDbCircle
 10
-42.62193932560177
 20
247.977926946124
 30
0.0
 40
74.00000403562566
100
AcDbArc
 50
0.0
 51
7.181686401367188
  0
ARC
  5
1CE
330
1F
100
AcDbEntity
  8
1-0ﾚｲﾔ
  6
Continuous
 62
     3
370
     9
100
AcDbCircle
 10
-42.62193932560177
 20
247.977926946124
 30
0.0
 40
70.99999997054287
100
AcDbArc
 50
0.0
 51
7.009445190429688
  0
ARC
  5
1CF
330
1F
100
AcDbEntity
  8
1-0ﾚｲﾔ
  6
Continuous
 62
     3
370
     9
100
AcDbCircle
 10
-42.62193932560177
 20
247.977926946124
 30
0.0
 40
70.99999997054287
100
AcDbArc
 50
172.9905090332032
 51
180.0
  0
ARC
  5
1D0
330
1F
100
AcDbEntity
  8
1-0ﾚｲﾔ
  6
Continuous
 62
     3
370
     9
100
AcDbCircle
 10
-42.62193932560177
 20
247.977926946124
 30
0.0
 40
74.00000403562566
100
AcDbArc
 50
172.8182983398438
 51
180.0
  0
ARC
  5
1D1
330
1F
100
AcDbEntity
  8
1-0ﾚｲﾔ
  6
Continuous
 62
     3
370
     9
100
AcDbCircle
 10
-42.62193932560177
 20
247.977926946124
 30
0.0
 40
74.99999664188812
100
AcDbArc
 50
170.8513031005859
 51
180.0
  0
ARC
  5
1D2
330
1F
100
AcDbEntity
  8
1-0ﾚｲﾔ
  6
Continuous
 62
     3
370
     9
100
AcDbCircle
 10
-42.62193932560177
 20
247.977926946124
 30
0.0
 40
92.5000028573408
100
AcDbArc
 50
0.0001525878906262
 51
0.0000000000000568
  0
ARC
  5
1D3
330
1F
100
AcDbEntity
  8
1-0ﾚｲﾔ
  6
Continuous
 62
     3
370
     9
100
AcDbCircle
 10
-42.62193932560177
 20
247.977926946124
 30
0.0
 40
91.50001025107836
100
AcDbArc
 50
0.0001525878906262
 51
0.0000000000000568
  0
ARC
  5
1D4
330
1F
100
AcDbEntity
  8
1-0ﾚｲﾔ
  6
Continuous
 62
     3
370
     9
100
AcDbCircle
 10
-42.62193932560177
 20
247.977926946124
 30
0.0
 40
86.50001222470551
100
AcDbArc
 50
180.0
 51
0.0
  0
ARC
  5
1D5
330
1F
100
AcDbEntity
  8
1-0ﾚｲﾔ
  6
Continuous
 62
     3
370
     9
100
AcDbCircle
 10
-42.62193932560177
 20
179.9779222918988
 30
0.0
 40
6.500000058914242
100
AcDbArc
 50
324.6041412353516
 51
0.0000000000000064
  0
ARC
  5
1D6
330
1F
100
AcDbEntity
  8
1-0ﾚｲﾔ
  6
Continuous
 62
     3
370
     9
100
AcDbCircle
 10
-42.62193932560177
 20
179.9779222918988
 30
0.0
 40
2.999999964099133
100
AcDbArc
 50
0.0
 51
180.0
  0
ARC
  5
1D7
330
1F
100
AcDbEntity
  8
1-0ﾚｲﾔ
  6
Continuous
 62
     3
370
     9
100
AcDbCircle
 10
-42.62193932560177
 20
179.9779222918988
 30
0.0
 40
6.500000058914242
100
AcDbArc
 50
180.0
 51
215.3958587646485
  0
ARC
  5
1D8
330
1F
100
AcDbEntity
  8
1-0ﾚｲﾔ
  6
Continuous
 62
     3
370
     9
100
AcDbCircle
 10
-42.62193932560177
 20
247.977926946124
 30
0.0
 40
73.84934155084912
100
AcDbArc
 50
180.0
 51
266.2039337158203
  0
ARC
  5
1D9
330
1F
100
AcDbEntity
  8
1-0ﾚｲﾔ
  6
Continuous
 62
     3
370
     9
100
AcDbCircle
 10
-42.62193932560177
 20
247.977926946124
 30
0.0
 40
73.84934155084912
100
AcDbArc
 50
273.7960510253906
 51
0.0
  0
ARC
  5
1DA
330
1F
100
AcDbEntity
  8
1-0ﾚｲﾔ
  6
Continuous
 62
     3
370
     9
100
AcDbCircle
 10
-42.62193932560177
 20
247.977926946124
 30
0.0
 40
71.96030380366851
100
AcDbArc
 50
180.0
 51
265.7773590087891
  0
ARC
  5
1DB
330
1F
100
AcDbEntity
  8
1-0ﾚｲﾔ
  6
Continuous
 62
     3
370
     9
100
AcDbCircle
 10
-42.62193932560177
 20
247.977926946124
 30
0.0
 40
71.96030380366851
100
AcDbArc
 50
274.2226409912109
 51
0.0000000000000127
  0
ARC
  5
1DC
330
1F
100
AcDbEntity
  8
1-0ﾚｲﾔ
  6
Continuous
 62
     3
370
     9
100
AcDbCircle
 10
-42.62193932560177
 20
179.9779222918988
 30
0.0
 40
5.000000213564133
100
AcDbArc
 50
180.0
 51
233.1300964355468
  0
ARC
  5
1DD
330
1F
100
AcDbEntity
  8
1-0ﾚｲﾔ
  6
Continuous
 62
     3
370
     9
100
AcDbCircle
 10
-42.62193932560177
 20
179.9779222918988
 30
0.0
 40
7.500000320346198
100
AcDbArc
 50
229.3151397705078
 51
246.4218139648438
  0
ARC
  5
1DE
330
1F
100
AcDbEntity
  8
1-0ﾚｲﾔ
  6
Continuous
 62
     3
370
     9
100
AcDbCircle
 10
-42.62193932560177
 20
179.9779222918988
 30
0.0
 40
7.500000320346198
100
AcDbArc
 50
293.5781860351562
 51
310.6848602294922
  0
ARC
  5
1DF
330
1F
100
AcDbEntity
  8
1-0ﾚｲﾔ
  6
Continuous
 62
     3
370
     9
100
AcDbCircle
 10
-42.62193932560177
 20
179.9779222918988
 30
0.0
 40
5.000000213564133
100
AcDbArc
 50
306.8699035644531
 51
0.0
  0
ARC
  5
1E0
330
1F
100
AcDbEntity
  8
1-0ﾚｲﾔ
  6
Continuous
 62
     3
370
     9
100
AcDbCircle
 10
-42.62193932560177
 20
247.977926946124
 30
0.0
 40
49.50005832510104
100
AcDbArc
 50
180.0
 51
0.0
  0
ARC
  5
1E1
330
1F
100
AcDbEntity
  8
1-0ﾚｲﾔ
  6
Continuous
 62
     3
370
     9
100
AcDbCircle
 10
-42.62193932560177
 20
247.977926946124
 30
0.0
 40
43.76573269523708
100
AcDbArc
 50
180.0
 51
0.0
  0
ARC
  5
1E2
330
1F
100
AcDbEntity
  8
1-0ﾚｲﾔ
  6
Continuous
 62
     3
370
     9
100
AcDbCircle
 10
-42.62193932560177
 20
247.977926946124
 30
0.0
 40
42.23902068266997
100
AcDbArc
 50
180.0
 51
0.0
  0
ARC
  5
1E3
330
1F
100
AcDbEntity
  8
1-0ﾚｲﾔ
  6
Continuous
 62
     3
370
     9
100
AcDbCircle
 10
-42.62193932560177
 20
247.977926946124
 30
0.0
 40
49.91265008992669
100
AcDbArc
 50
266.5541534423829
 51
273.4458465576172
  0
ARC
  5
1E4
330
1F
100
AcDbEntity
  8
1-0ﾚｲﾔ
  6
Continuous
 62
     3
370
     9
100
AcDbCircle
 10
-42.62193932560177
 20
247.977926946124
 30
0.0
 40
52.42107853834233
100
AcDbArc
 50
266.7192230224609
 51
273.2807769775391
  0
ARC
  5
1E5
330
1F
100
AcDbEntity
  8
1-0ﾚｲﾔ
  6
Continuous
 62
     3
370
     9
100
AcDbCircle
 10
-42.62193932560177
 20
247.977926946124
 30
0.0
 40
51.15042538440365
100
AcDbArc
 50
180.0
 51
265.5148468017578
  0
ARC
  5
1E6
330
1F
100
AcDbEntity
  8
1-0ﾚｲﾔ
  6
Continuous
 62
     3
370
     9
100
AcDbCircle
 10
-42.62193932560177
 20
247.977926946124
 30
0.0
 40
51.15042538440365
100
AcDbArc
 50
274.4851531982422
 51
0.0
  0
ARC
  5
1E7
330
1F
100
AcDbEntity
  8
1-0ﾚｲﾔ
  6
Continuous
 62
     3
370
     9
100
AcDbCircle
 10
-42.62193932560177
 20
247.977926946124
 30
0.0
 40
58.00002609900985
100
AcDbArc
 50
266.0454254150391
 51
273.9545745849609
  0
ARC
  5
1E8
330
1F
100
AcDbEntity
  8
1-0ﾚｲﾔ
  6
Continuous
 62
     3
370
     9
100
AcDbCircle
 10
-42.62193932560177
 20
247.977926946124
 30
0.0
 40
69.40384463453844
100
AcDbArc
 50
359.9999694824219
 51
5.96101379394532
  0
ARC
  5
1E9
330
1F
100
AcDbEntity
  8
1-0ﾚｲﾔ
  6
Continuous
 62
     3
370
     9
100
AcDbCircle
 10
-42.62193932560177
 20
247.977926946124
 30
0.0
 40
69.40384463453844
100
AcDbArc
 50
174.0389862060547
 51
180.0000305175781
  0
ARC
  5
1EA
330
1F
100
AcDbEntity
  8
1-0ﾚｲﾔ
  6
Continuous
 62
     3
370
     9
100
AcDbCircle
 10
-42.62193932560177
 20
247.977926946124
 30
0.0
 40
69.40384463453844
100
AcDbArc
 50
86.59785461425783
 51
93.40214538574222
  0
ARC
  5
1EB
330
1F
100
AcDbEntity
  8
1-0ﾚｲﾔ
  6
Continuous
 62
     3
370
     9
100
AcDbCircle
 10
-42.62193932560177
 20
247.977926946124
 30
0.0
 40
68.72850120573891
100
AcDbArc
 50
7.751388549804683
 51
84.84117126464844
  0
ARC
  5
1EC
330
1F
100
AcDbEntity
  8
1-0ﾚｲﾔ
  6
Continuous
 62
     3
370
     9
100
AcDbCircle
 10
24.41741591927413
 20
254.9779364313172
 30
0.0
 40
1.999999976066088
100
AcDbArc
 50
308.488525390625
 51
5.960784912109384
  0
ARC
  5
1ED
330
1F
100
AcDbEntity
  8
1-0ﾚｲﾔ
  6
Continuous
 62
     3
370
     9
100
AcDbCircle
 10
23.4968358543459
 20
256.9779391413724
 30
0.0
 40
1.999999976066088
100
AcDbArc
 50
339.6986999511719
 51
7.7512664794922
  0
ARC
  5
1EE
330
1F
100
AcDbEntity
  8
1-0ﾚｲﾔ
  6
Continuous
 62
     3
370
     9
100
AcDbCircle
 10
-36.62193119543616
 20
314.4361192191203
 30
0.0
 40
1.999999976066088
100
AcDbArc
 50
84.84101867675784
 51
112.8917694091797
  0
ARC
  5
1EF
330
1F
100
AcDbEntity
  8
1-0ﾚｲﾔ
  6
Continuous
 62
     3
370
     9
100
AcDbCircle
 10
-38.62193390549135
 20
315.2629825116818
 30
0.0
 40
1.999999976066088
100
AcDbArc
 50
86.59790039062501
 51
144.0717010498047
  0
ARC
  5
1F0
330
1F
100
AcDbEntity
  8
1-0ﾚｲﾔ
  6
Continuous
 62
     3
370
     9
100
AcDbCircle
 10
-46.62194474571217
 20
315.2629825116818
 30
0.0
 40
1.999999976066088
100
AcDbArc
 50
35.92829895019531
 51
93.402099609375
  0
ARC
  5
1F1
330
1F
100
AcDbEntity
  8
1-0ﾚｲﾔ
  6
Continuous
 62
     3
370
     9
100
AcDbCircle
 10
-48.62194745576735
 20
314.4361367166506
 30
0.0
 40
1.999999976066088
100
AcDbArc
 50
67.10453796386717
 51
95.15898132324219
  0
ARC
  5
1F2
330
1F
100
AcDbEntity
  8
1-0ﾚｲﾔ
  6
Continuous
 62
     3
370
     9
100
AcDbCircle
 10
-42.62193932560177
 20
247.977926946124
 30
0.0
 40
68.72850120573891
100
AcDbArc
 50
95.15881347656249
 51
172.2486114501953
  0
ARC
  5
1F3
330
1F
100
AcDbEntity
  8
1-0ﾚｲﾔ
  6
Continuous
 62
     3
370
     9
100
AcDbCircle
 10
-109.661312068008
 20
254.9779364313172
 30
0.0
 40
1.999999976066088
100
AcDbArc
 50
174.0392150878906
 51
231.511474609375
  0
ARC
  5
1F4
330
1F
100
AcDbEntity
  8
1-0ﾚｲﾔ
  6
Continuous
 62
     3
370
     9
100
AcDbCircle
 10
-108.7407320030797
 20
256.9779391413724
 30
0.0
 40
1.999999976066088
100
AcDbArc
 50
172.2487335205078
 51
200.3014831542969
  0
ARC
  5
1F5
330
1F
100
AcDbEntity
  8
1-0ﾚｲﾔ
  6
Continuous
 62
     3
370
     9
100
AcDbCircle
 10
-42.62193932560177
 20
247.977926946124
 30
0.0
 40
39.66669125354427
100
AcDbArc
 50
180.0
 51
0.0
  0
ARC
  5
1F6
330
1F
100
AcDbEntity
  8
1-2ﾚｲﾔ
  6
Continuous
 62
     6
370
     9
100
AcDbCircle
 10
-92.11958299151934
 20
261.5527909249187
 30
0.0
 40
1.499999982049566
100
AcDbArc
 50
344.6649322509766
 51
72.98951721191412
  0
ARC
  5
1F7
330
1F
100
AcDbEntity
  8
1-2ﾚｲﾔ
  6
Continuous
 62
     6
370
     9
100
AcDbCircle
 10
-42.62193932560177
 20
247.977926946124
 30
0.0
 40
49.82536803433332
100
AcDbArc
 50
142.1635131835938
 51
150.336410522461
  0
ARC
  5
1F8
330
1F
100
AcDbEntity
  8
1-2ﾚｲﾔ
  6
Continuous
 62
     6
370
     9
100
AcDbCircle
 10
-87.22093940949563
 20
273.3791966894653
 30
0.0
 40
1.499999982049566
100
AcDbArc
 50
242.0108795166016
 51
330.3361206054688
  0
ARC
  5
1F9
330
1F
100
AcDbEntity
  8
1-2ﾚｲﾔ
  6
Continuous
 62
     6
370
     9
100
AcDbCircle
 10
-83.1569280234933
 20
279.46139071952
 30
0.0
 40
1.499999982049566
100
AcDbArc
 50
322.1649322509766
 51
50.48951721191411
  0
ARC
  5
1FA
330
1F
100
AcDbEntity
  8
1-2ﾚｲﾔ
  6
Continuous
 62
     6
370
     9
100
AcDbCircle
 10
-42.62193932560177
 20
247.977926946124
 30
0.0
 40
49.82536803433332
100
AcDbArc
 50
119.6635131835938
 51
127.836410522461
  0
ARC
  5
1FB
330
1F
100
AcDbEntity
  8
1-2ﾚｲﾔ
  6
Continuous
 62
     6
370
     9
100
AcDbCircle
 10
-74.10538560146747
 20
288.5129506390762
 30
0.0
 40
1.499999982049566
100
AcDbArc
 50
219.5108795166015
 51
307.8361206054688
  0
ARC
  5
1FC
330
1F
100
AcDbEntity
  8
1-2ﾚｲﾔ
  6
Continuous
 62
     6
370
     9
100
AcDbCircle
 10
-68.02317407388242
 20
292.5769270300178
 30
0.0
 40
1.499999982049566
100
AcDbArc
 50
299.6649322509767
 51
27.98951721191411
  0
ARC
  5
1FD
330
1F
100
AcDbEntity
  8
1-2ﾚｲﾔ
  6
Continuous
 62
     6
370
     9
100
AcDbCircle
 10
-42.62193932560177
 20
247.977926946124
 30
0.0
 40
49.82536803433332
100
AcDbArc
 50
97.16351318359376
 51
105.336410522461
  0
ARC
  5
1FE
330
1F
100
AcDbEntity
  8
1-2ﾚｲﾔ
  6
Continuous
 62
     6
370
     9
100
AcDbCircle
 10
-56.19676830933577
 20
297.4755531145113
 30
0.0
 40
1.499999982049566
100
AcDbArc
 50
197.0108795166016
 51
285.3361206054688
  0
ARC
  5
1FF
330
1F
100
AcDbEntity
  8
1-2ﾚｲﾔ
  6
Continuous
 62
     6
370
     9
100
AcDbCircle
 10
-49.02232594443319
 20
298.9026691845258
 30
0.0
 40
1.499999982049566
100
AcDbArc
 50
277.1649322509766
 51
5.489517211914112
  0
ARC
  5
200
330
1F
100
AcDbEntity
  8
1-2ﾚｲﾔ
  6
Continuous
 62
     6
370
     9
100
AcDbCircle
 10
-42.62193932560177
 20
247.977926946124
 30
0.0
 40
49.82536803433332
100
AcDbArc
 50
74.66351318359376
 51
82.83641052246095
  0
ARC
  5
201
330
1F
100
AcDbEntity
  8
1-2ﾚｲﾔ
  6
Continuous
 62
     6
370
     9
100
AcDbCircle
 10
-36.22151771170968
 20
298.9026691845258
 30
0.0
 40
1.499999982049566
100
AcDbArc
 50
174.5108795166015
 51
262.8361206054688
  0
ARC
  5
202
330
1F
100
AcDbEntity
  8
1-2ﾚｲﾔ
  6
Continuous
 62
     6
370
     9
100
AcDbCircle
 10
-29.04707534680714
 20
297.4755531145113
 30
0.0
 40
1.499999982049566
100
AcDbArc
 50
254.6649322509766
 51
342.9895172119141
  0
ARC
  5
203
330
1F
100
AcDbEntity
  8
1-2ﾚｲﾔ
  6
Continuous
 62
     6
370
     9
100
AcDbCircle
 10
-42.62193932560177
 20
247.977926946124
 30
0.0
 40
49.82536803433332
100
AcDbArc
 50
52.16351318359379
 51
60.33641052246099
  0
ARC
  5
204
330
1F
100
AcDbEntity
  8
1-2ﾚｲﾔ
  6
Continuous
 62
     6
370
     9
100
AcDbCircle
 10
-17.22066958226051
 20
292.5769270300178
 30
0.0
 40
1.499999982049566
100
AcDbArc
 50
152.0108795166016
 51
240.3361206054688
  0
ARC
  5
205
330
1F
100
AcDbEntity
  8
1-2ﾚｲﾔ
  6
Continuous
 62
     6
370
     9
100
AcDbCircle
 10
-11.1384580546754
 20
288.5128631514245
 30
0.0
 40
1.499999982049566
100
AcDbArc
 50
232.1649322509766
 51
320.4895172119141
  0
ARC
  5
206
330
1F
100
AcDbEntity
  8
1-2ﾚｲﾔ
  6
Continuous
 62
     6
370
     9
100
AcDbCircle
 10
-42.62193932560177
 20
247.977926946124
 30
0.0
 40
49.82536803433332
100
AcDbArc
 50
29.66351318359381
 51
37.836410522461
  0
ARC
  5
207
330
1F
100
AcDbEntity
  8
1-2ﾚｲﾔ
  6
Continuous
 62
     6
370
     9
100
AcDbCircle
 10
-2.08691563264958
 20
279.46139071952
 30
0.0
 40
1.499999982049566
100
AcDbArc
 50
129.5108795166016
 51
217.8361206054688
  0
ARC
  5
208
330
1F
100
AcDbEntity
  8
1-2ﾚｲﾔ
  6
Continuous
 62
     6
370
     9
100
AcDbCircle
 10
1.977043260761802
 20
273.379126699344
 30
0.0
 40
1.499999982049566
100
AcDbArc
 50
209.6649322509767
 51
297.9895172119142
  0
ARC
  5
209
330
1F
100
AcDbEntity
  8
1-2ﾚｲﾔ
  6
Continuous
 62
     6
370
     9
100
AcDbCircle
 10
6.875791827967385
 20
261.5527209347974
 30
0.0
 40
1.499999982049566
100
AcDbArc
 50
107.0108795166016
 51
195.3361206054688
  0
ARC
  5
20A
330
1F
100
AcDbEntity
  8
1-2ﾚｲﾔ
  6
Continuous
 62
     6
370
     9
100
AcDbCircle
 10
-4.447927388162071
 20
252.9779162237317
 30
0.0
 40
1.499999982049566
100
AcDbArc
 50
270.0
 51
7.461837768554688
  0
ARC
  5
20B
330
1F
100
AcDbEntity
  8
1-2ﾚｲﾔ
  6
Continuous
 62
     6
370
     9
100
AcDbCircle
 10
-21.71141073758295
 20
252.9779162237317
 30
0.0
 40
1.499999982049566
100
AcDbArc
 50
193.4474792480469
 51
270.0
  0
ARC
  5
20C
330
1F
100
AcDbEntity
  8
1-2ﾚｲﾔ
  6
Continuous
 62
     6
370
     9
100
AcDbCircle
 10
-7.062303382634495
 20
262.734801590282
 30
0.0
 40
1.499999982049566
100
AcDbArc
 50
22.5381317138672
 51
119.9999694824219
  0
ARC
  5
20D
330
1F
100
AcDbEntity
  8
1-2ﾚｲﾔ
  6
Continuous
 62
     6
370
     9
100
AcDbCircle
 10
-22.0128931849089
 20
254.1030774131019
 30
0.0
 40
1.499999982049566
100
AcDbArc
 50
119.9999694824219
 51
196.552490234375
  0
ARC
  5
20E
330
1F
100
AcDbEntity
  8
1-2ﾚｲﾔ
  6
Continuous
 62
     6
370
     9
100
AcDbCircle
 10
-42.62193932560177
 20
247.977926946124
 30
0.0
 40
20.00000960302169
100
AcDbArc
 50
13.44770812988278
 51
16.55229187011716
  0
ARC
  5
20F
330
1F
100
AcDbEntity
  8
1-2ﾚｲﾔ
  6
Continuous
 62
     6
370
     9
100
AcDbCircle
 10
-42.62193932560177
 20
247.977926946124
 30
0.0
 40
40.00005420110401
100
AcDbArc
 50
7.462051391601584
 51
22.5379333496094
  0
ARC
  5
210
330
1F
100
AcDbEntity
  8
1-2ﾚｲﾔ
  6
Continuous
 62
     6
370
     9
100
AcDbCircle
 10
-12.06229266024221
 20
271.3950467418754
 30
0.0
 40
1.499999982049566
100
AcDbArc
 50
300.0
 51
37.46183776855474
  0
ARC
  5
211
330
1F
100
AcDbEntity
  8
1-2ﾚｲﾔ
  6
Continuous
 62
     6
370
     9
100
AcDbCircle
 10
-27.01288246251656
 20
262.7633050671649
 30
0.0
 40
1.499999982049566
100
AcDbArc
 50
223.4474792480469
 51
300.0
  0
ARC
  5
212
330
1F
100
AcDbEntity
  8
1-2ﾚｲﾔ
  6
Continuous
 62
     6
370
     9
100
AcDbCircle
 10
-19.20481952985037
 20
278.5375736114835
 30
0.0
 40
1.499999982049566
100
AcDbArc
 50
52.53813171386721
 51
149.9999694824219
  0
ARC
  5
213
330
1F
100
AcDbEntity
  8
1-2ﾚｲﾔ
  6
Continuous
 62
     6
370
     9
100
AcDbCircle
 10
-27.83656120456081
 20
263.5869838092092
 30
0.0
 40
1.499999982049566
100
AcDbArc
 50
149.9999694824219
 51
226.552490234375
  0
ARC
  5
214
330
1F
100
AcDbEntity
  8
1-2ﾚｲﾔ
  6
Continuous
 62
     6
370
     9
100
AcDbCircle
 10
-42.62193932560177
 20
247.977926946124
 30
0.0
 40
20.00000960302169
100
AcDbArc
 50
43.4477081298828
 51
46.55229187011717
  0
ARC
  5
215
330
1F
100
AcDbEntity
  8
1-2ﾚｲﾔ
  6
Continuous
 62
     6
370
     9
100
AcDbCircle
 10
-42.62193932560177
 20
247.977926946124
 30
0.0
 40
40.00005420110401
100
AcDbArc
 50
37.46205139160161
 51
52.53793334960942
  0
ARC
  5
216
330
1F
100
AcDbEntity
  8
1-2ﾚｲﾔ
  6
Continuous
 62
     6
370
     9
100
AcDbCircle
 10
-27.8650471839135
 20
283.5375628890912
 30
0.0
 40
1.499999982049566
100
AcDbArc
 50
330.0
 51
67.46183776855463
  0
ARC
  5
217
330
1F
100
AcDbEntity
  8
1-2ﾚｲﾔ
  6
Continuous
 62
     6
370
     9
100
AcDbCircle
 10
-36.49678885862389
 20
268.5869730868168
 30
0.0
 40
1.499999982049566
100
AcDbArc
 50
253.4474792480469
 51
330.0
  0
ARC
  5
218
330
1F
100
AcDbEntity
  8
1-2ﾚｲﾔ
  6
Continuous
 62
     6
370
     9
100
AcDbCircle
 10
-37.62195004799406
 20
286.1519213860333
 30
0.0
 40
1.499999982049566
100
AcDbArc
 50
82.53813171386722
 51
179.9999694824219
  0
ARC
  5
219
330
1F
100
AcDbEntity
  8
1-2ﾚｲﾔ
  6
Continuous
 62
     6
370
     9
100
AcDbCircle
 10
-37.62195004799406
 20
268.8884555341428
 30
0.0
 40
1.499999982049566
100
AcDbArc
 50
179.9999694824219
 51
256.552490234375
  0
ARC
  5
21A
330
1F
100
AcDbEntity
  8
1-2ﾚｲﾔ
  6
Continuous
 62
     6
370
     9
100
AcDbCircle
 10
-42.62193932560177
 20
247.977926946124
 30
0.0
 40
20.00000960302169
100
AcDbArc
 50
73.44770812988276
 51
76.55229187011714
  0
ARC
  5
21B
330
1F
100
AcDbEntity
  8
1-2ﾚｲﾔ
  6
Continuous
 62
     6
370
     9
100
AcDbCircle
 10
-42.62193932560177
 20
247.977926946124
 30
0.0
 40
40.00005420110401
100
AcDbArc
 50
67.46205139160156
 51
82.53793334960938
  0
ARC
  5
21C
330
1F
100
AcDbEntity
  8
1-2ﾚｲﾔ
  6
Continuous
 62
     6
370
     9
100
AcDbCircle
 10
-47.62192860320945
 20
286.1519213860333
 30
0.0
 40
1.499999982049566
100
AcDbArc
 50
0.0
 51
97.46183776855469
  0
ARC
  5
21D
330
1F
100
AcDbEntity
  8
1-2ﾚｲﾔ
  6
Continuous
 62
     6
370
     9
100
AcDbCircle
 10
-47.62192860320945
 20
268.8884555341428
 30
0.0
 40
1.499999982049566
100
AcDbArc
 50
283.4474792480469
 51
0.0
  0
ARC
  5
21E
330
1F
100
AcDbEntity
  8
1-2ﾚｲﾔ
  6
Continuous
 62
     6
370
     9
100
AcDbCircle
 10
-57.37883146729004
 20
283.5375803866215
 30
0.0
 40
1.499999982049566
100
AcDbArc
 50
112.5381164550782
 51
209.9999542236328
  0
ARC
  5
21F
330
1F
100
AcDbEntity
  8
1-2ﾚｲﾔ
  6
Continuous
 62
     6
370
     9
100
AcDbCircle
 10
-48.74708979257963
 20
268.5869730868168
 30
0.0
 40
1.499999982049566
100
AcDbArc
 50
209.9999542236328
 51
286.5524749755859
  0
ARC
  5
220
330
1F
100
AcDbEntity
  8
1-2ﾚｲﾔ
  6
Continuous
 62
     6
370
     9
100
AcDbCircle
 10
-42.62193932560177
 20
247.977926946124
 30
0.0
 40
20.00000960302169
100
AcDbArc
 50
103.4477081298828
 51
106.5522918701172
  0
ARC
  5
221
330
1F
100
AcDbEntity
  8
1-2ﾚｲﾔ
  6
Continuous
 62
     6
370
     9
100
AcDbCircle
 10
-42.62193932560177
 20
247.977926946124
 30
0.0
 40
40.00005420110401
100
AcDbArc
 50
97.46205139160158
 51
112.5379333496094
  0
ARC
  5
222
330
1F
100
AcDbEntity
  8
1-2ﾚｲﾔ
  6
Continuous
 62
     6
370
     9
100
AcDbCircle
 10
-66.03905912135315
 20
278.5375736114835
 30
0.0
 40
1.499999982049566
100
AcDbArc
 50
30.00000000000002
 51
127.4618377685547
  0
ARC
  5
223
330
1F
100
AcDbEntity
  8
1-2ﾚｲﾔ
  6
Continuous
 62
     6
370
     9
100
AcDbCircle
 10
-57.40731744664271
 20
263.5869838092092
 30
0.0
 40
1.499999982049566
100
AcDbArc
 50
313.4474792480469
 51
30.00000000000002
  0
ARC
  5
224
330
1F
100
AcDbEntity
  8
1-2ﾚｲﾔ
  6
Continuous
 62
     6
370
     9
100
AcDbCircle
 10
-73.18158599096131
 20
271.3950467418754
 30
0.0
 40
1.499999982049566
100
AcDbArc
 50
142.5381317138672
 51
239.9999694824219
  0
ARC
  5
225
330
1F
100
AcDbEntity
  8
1-2ﾚｲﾔ
  6
Continuous
 62
     6
370
     9
100
AcDbCircle
 10
-58.23099618868692
 20
262.7633050671649
 30
0.0
 40
1.499999982049566
100
AcDbArc
 50
239.9999694824219
 51
316.552490234375
  0
ARC
  5
226
330
1F
100
AcDbEntity
  8
1-2ﾚｲﾔ
  6
Continuous
 62
     6
370
     9
100
AcDbCircle
 10
-42.62193932560177
 20
247.977926946124
 30
0.0
 40
20.00000960302169
100
AcDbArc
 50
133.4477081298828
 51
136.5522918701172
  0
ARC
  5
227
330
1F
100
AcDbEntity
  8
1-2ﾚｲﾔ
  6
Continuous
 62
     6
370
     9
100
AcDbCircle
 10
-42.62193932560177
 20
247.977926946124
 30
0.0
 40
40.00005420110401
100
AcDbArc
 50
127.4620513916016
 51
142.5379333496094
  0
ARC
  5
228
330
1F
100
AcDbEntity
  8
1-2ﾚｲﾔ
  6
Continuous
 62
     6
370
     9
100
AcDbCircle
 10
-78.18157526856899
 20
262.734801590282
 30
0.0
 40
1.499999982049566
100
AcDbArc
 50
59.99999999999999
 51
157.4618377685547
  0
ARC
  5
229
330
1F
100
AcDbEntity
  8
1-2ﾚｲﾔ
  6
Continuous
 62
     6
370
     9
100
AcDbCircle
 10
-63.23098546629464
 20
254.1030774131019
 30
0.0
 40
1.499999982049566
100
AcDbArc
 50
343.4474792480469
 51
59.99999999999999
  0
ARC
  5
22A
330
1F
100
AcDbEntity
  8
1-2ﾚｲﾔ
  6
Continuous
 62
     6
370
     9
100
AcDbCircle
 10
-80.7959162679808
 20
252.977933721262
 30
0.0
 40
1.499999982049566
100
AcDbArc
 50
172.5381317138672
 51
269.9999694824219
  0
ARC
  5
22B
330
1F
100
AcDbEntity
  8
1-2ﾚｲﾔ
  6
Continuous
 62
     6
370
     9
100
AcDbCircle
 10
-63.53246791362059
 20
252.9779162237317
 30
0.0
 40
1.499999982049566
100
AcDbArc
 50
269.9999694824219
 51
346.5524902343749
  0
ARC
  5
22C
330
1F
100
AcDbEntity
  8
1-2ﾚｲﾔ
  6
Continuous
 62
     6
370
     9
100
AcDbCircle
 10
-42.62193932560177
 20
247.977926946124
 30
0.0
 40
20.00000960302169
100
AcDbArc
 50
163.4477081298828
 51
166.5522918701172
  0
ARC
  5
22D
330
1F
100
AcDbEntity
  8
1-2ﾚｲﾔ
  6
Continuous
 62
     6
370
     9
100
AcDbCircle
 10
-42.62193932560177
 20
247.977926946124
 30
0.0
 40
40.00005420110401
100
AcDbArc
 50
157.4620513916016
 51
172.5379333496094
  0
ARC
  5
22E
330
1F
100
AcDbEntity
  8
1-2ﾚｲﾔ
  6
Continuous
 62
     6
370
     9
100
AcDbCircle
 10
-42.62193932560177
 20
247.977926946124
 30
0.0
 40
57.23203762157543
100
AcDbArc
 50
0.0
 51
10.06278991699219
  0
ARC
  5
22F
330
1F
100
AcDbEntity
  8
1-2ﾚｲﾔ
  6
Continuous
 62
     6
370
     9
100
AcDbCircle
 10
24.69261707606707
 20
252.9779162237317
 30
0.0
 40
0.9999999880330441
100
AcDbArc
 50
270.0
 51
4.247619628906258
  0
ARC
  5
230
330
1F
100
AcDbEntity
  8
1-2ﾚｲﾔ
  6
Continuous
 62
     6
370
     9
100
AcDbCircle
 10
-42.62193932560177
 20
247.977926946124
 30
0.0
 40
67.49999960232886
100
AcDbArc
 50
5.176544189453126
 51
8.519638061523438
  0
ARC
  5
231
330
1F
100
AcDbEntity
  8
1-2ﾚｲﾔ
  6
Continuous
 62
     6
370
     9
100
AcDbCircle
 10
23.60686032496604
 20
253.9778825836986
 30
0.0
 40
0.9999999880330441
100
AcDbArc
 50
270.0
 51
5.176101684570324
  0
ARC
  5
232
330
1F
100
AcDbEntity
  8
1-2ﾚｲﾔ
  6
Continuous
 62
     6
370
     9
100
AcDbCircle
 10
-42.62193932560177
 20
247.977926946124
 30
0.0
 40
57.49999917520059
100
AcDbArc
 50
11.02888488769531
 51
168.9710998535157
  0
ARC
  5
233
330
1F
100
AcDbEntity
  8
1-2ﾚｲﾔ
  6
Continuous
 62
     6
370
     9
100
AcDbCircle
 10
-42.62193932560177
 20
247.977926946124
 30
0.0
 40
57.23203762157543
100
AcDbArc
 50
169.9372100830078
 51
180.0
  0
ARC
  5
234
330
1F
100
AcDbEntity
  8
1-2ﾚｲﾔ
  6
Continuous
 62
     6
370
     9
100
AcDbCircle
 10
-109.9365132248009
 20
252.9779162237317
 30
0.0
 40
0.9999999880330441
100
AcDbArc
 50
175.7523803710938
 51
270.0
  0
ARC
  5
235
330
1F
100
AcDbEntity
  8
1-2ﾚｲﾔ
  6
Continuous
 62
     6
370
     9
100
AcDbCircle
 10
-42.62193932560177
 20
247.977926946124
 30
0.0
 40
67.49999960232886
100
AcDbArc
 50
171.4803619384766
 51
174.8234558105469
  0
ARC
  5
236
330
1F
100
AcDbEntity
  8
1-2ﾚｲﾔ
  6
Continuous
 62
     6
370
     9
100
AcDbCircle
 10
-108.8507214786393
 20
253.9778825836986
 30
0.0
 40
0.9999999880330441
100
AcDbArc
 50
174.8238983154297
 51
270.0
  0
ARC
  5
237
330
1F
100
AcDbEntity
  8
1-2ﾚｲﾔ
  6
Continuous
 62
     6
370
     9
100
AcDbCircle
 10
-42.62193932560177
 20
247.977926946124
 30
0.0
 40
68.50000095735643
100
AcDbArc
 50
4.248001098632812
 51
175.7519989013672
  0
ARC
  5
238
330
1F
100
AcDbEntity
  8
1-2ﾚｲﾔ
  6
Continuous
 62
     6
370
     9
100
AcDbCircle
 10
-32.52243481795514
 20
253.4779256500107
 30
0.0
 40
1.999999976066088
100
AcDbArc
 50
270.0
 51
28.57180786132812
  0
ARC
  5
239
330
1F
100
AcDbEntity
  8
1-2ﾚｲﾔ
  6
Continuous
 62
     6
370
     9
100
AcDbCircle
 10
-52.72144383324834
 20
253.4779256500107
 30
0.0
 40
1.999999976066088
100
AcDbArc
 50
151.4281921386719
 51
270.0
  0
ARC
  5
23A
330
1F
100
AcDbEntity
  8
1-2ﾚｲﾔ
  6
Continuous
 62
     6
370
     9
100
AcDbCircle
 10
-42.62193932560177
 20
247.977926946124
 30
0.0
 40
13.49999970174664
100
AcDbArc
 50
28.57186889648438
 51
151.4281311035156
  0
ARC
  5
23B
330
1F
100
AcDbEntity
  8
1-2ﾚｲﾔ
  6
Continuous
 62
     6
370
     9
100
AcDbCircle
 10
-42.62193932560177
 20
247.977926946124
 30
0.0
 40
49.82536803433332
100
AcDbArc
 50
164.6635131835938
 51
171.7192993164063
  0
ARC
  5
23C
330
1F
100
AcDbEntity
  8
1-2ﾚｲﾔ
  6
Continuous
 62
     6
370
     9
100
AcDbCircle
 10
-93.41219554600323
 20
255.3699685980228
 30
0.0
 40
1.499999982049566
100
AcDbArc
 50
264.5110626220703
 51
351.7190399169922
  0
ARC
  5
23D
330
1F
100
AcDbEntity
  8
1-2ﾚｲﾔ
  6
Continuous
 62
     6
370
     9
100
AcDbCircle
 10
8.16829939726941
 20
255.3699685980228
 30
0.0
 40
1.499999982049566
100
AcDbArc
 50
188.2809600830079
 51
275.4889373779297
  0
ARC
  5
23E
330
1F
100
AcDbEntity
  8
1-2ﾚｲﾔ
  6
Continuous
 62
     6
370
     9
100
AcDbCircle
 10
-42.62193932560177
 20
247.977926946124
 30
0.0
 40
49.82536803433332
100
AcDbArc
 50
8.28070068359378
 51
15.33641052246097
  0
TEXT
  5
23F
330
1F
100
AcDbEntity
  8
1-5ﾚｲﾔ
  6
Continuous
 62
     7
370
     9
100
AcDbText
 10
100.6369124776961
 20
20.86843548406727
 30
0.0
 40
6.858000000000001
  1
Ｍ６×１２
 41
1.133333333333333
  7
ＭＳ ゴシック
100
AcDbText
  0
LINE
  5
240
330
1F
100
AcDbEntity
  8
1-5ﾚｲﾔ
  6
Continuous
 62
     7
370
     9
100
AcDbLine
 10
69.77900463637596
 20
30.40064046589788
 30
0.0
 11
191.9202001809563
 21
30.40064046589788
 31
0.0
  0
LINE
  5
241
330
1F
100
AcDbEntity
  8
1-5ﾚｲﾔ
  6
Continuous
 62
     7
370
     9
100
AcDbLine
 10
20.87808547729449
 20
-53.01222237084657
 30
0.0
 11
69.77900463637596
 21
30.40064046589788
 31
0.0
  0
LINE
  5
242
330
1F
100
AcDbEntity
  8
1-5ﾚｲﾔ
  6
Continuous
 62
     7
370
     9
100
AcDbLine
 10
9.462188659882031
 20
-37.70024724710205
 30
0.0
 11
12.0317017915597
 21
-30.65414177910515
 31
0.0
  0
LINE
  5
243
330
1F
100
AcDbEntity
  8
1-5ﾚｲﾔ
  6
Continuous
 62
     7
370
     9
100
AcDbLine
 10
9.462188659882031
 20
-37.70024724710205
 30
0.0
 11
68.61175302288135
 21
75.75348764156377
 31
0.0
  0
LINE
  5
244
330
1F
100
AcDbEntity
  8
1-5ﾚｲﾔ
  6
Continuous
 62
     7
370
     9
100
AcDbLine
 10
9.462188659882031
 20
-37.70024724710205
 30
0.0
 11
13.76781404367705
 21
-31.55927093592644
 31
0.0
  0
LINE
  5
245
330
1F
100
AcDbEntity
  8
1-5ﾚｲﾔ
  6
Continuous
 62
     7
370
     9
100
AcDbLine
 10
20.87808547729449
 20
-53.01222237084657
 30
0.0
 11
23.79422743814825
 21
-46.10236592775401
 31
0.0
  0
LINE
  5
246
330
1F
100
AcDbEntity
  8
1-5ﾚｲﾔ
  6
Continuous
 62
     7
370
     9
100
AcDbLine
 10
20.87808547729449
 20
-53.01222237084657
 30
0.0
 11
25.48326475680514
 21
-47.0925666542051
 31
0.0
  0
LINE
  5
247
330
1F
100
AcDbEntity
  8
1-5ﾚｲﾔ
  6
Continuous
 62
     7
370
     9
100
AcDbLine
 10
-99.62192907452336
 20
-138.9459888426547
 30
0.0
 11
-104.8355999390074
 21
-144.3374298482515
 31
0.0
  0
LINE
  5
248
330
1F
100
AcDbEntity
  8
1-5ﾚｲﾔ
  6
Continuous
 62
     7
370
     9
100
AcDbLine
 10
-99.62192907452336
 20
-138.9459888426547
 30
0.0
 11
-103.2625407995042
 21
-145.5031182654991
 31
0.0
  0
LINE
  5
249
330
1F
100
AcDbEntity
  8
1-5ﾚｲﾔ
  6
Continuous
 62
     7
370
     9
100
AcDbLine
 10
-115.6217757796618
 20
-104.912117284037
 30
0.0
 11
-120.8953241033762
 21
-110.2450046893223
 31
0.0
  0
LINE
  5
24A
330
1F
100
AcDbEntity
  8
1-5ﾚｲﾔ
  6
Continuous
 62
     7
370
     9
100
AcDbLine
 10
-115.6217757796618
 20
-104.912117284037
 30
0.0
 11
-119.3353794758457
 21
-111.4281856989395
 31
0.0
  0
LINE
  5
24B
330
1F
100
AcDbEntity
  8
1-4ﾚｲﾔ
  6
Continuous
 62
     7
370
     9
100
AcDbLine
 10
-84.86097750580203
 20
-181.0999132923495
 30
0.0
 11
-0.3829011454014442
 21
-181.0999132923495
 31
0.0
  0
LINE
  5
24C
330
1F
100
AcDbEntity
  8
1-4ﾚｲﾔ
  6
Continuous
 62
     7
370
     9
100
AcDbLine
 10
-84.86097750580203
 20
-181.0999132923495
 30
0.0
 11
-77.42514104549845
 21
-180.1209668506991
 31
0.0
  0
LINE
  5
24D
330
1F
100
AcDbEntity
  8
1-4ﾚｲﾔ
  6
Continuous
 62
     7
370
     9
100
AcDbLine
 10
-84.86097750580203
 20
-181.0999132923495
 30
0.0
 11
-77.42514104549845
 21
-182.0788597339999
 31
0.0
  0
LINE
  5
24E
330
1F
100
AcDbEntity
  8
1-4ﾚｲﾔ
  6
Continuous
 62
     7
370
     9
100
AcDbLine
 10
-0.3829011454014442
 20
-181.0999132923495
 30
0.0
 11
-7.818737605705023
 21
-180.1209668506991
 31
0.0
  0
LINE
  5
24F
330
1F
100
AcDbEntity
  8
1-4ﾚｲﾔ
  6
Continuous
 62
     7
370
     9
100
AcDbLine
 10
-0.3829011454014442
 20
-181.0999132923495
 30
0.0
 11
-7.818737605705023
 21
-182.0788597339999
 31
0.0
  0
LINE
  5
250
330
1F
100
AcDbEntity
  8
1-4ﾚｲﾔ
  6
Continuous
 62
     7
370
     9
100
AcDbLine
 10
-84.86097750580203
 20
-181.9999132923495
 30
0.0
 11
-84.86097750580203
 21
-115.3854768301829
 31
0.0
  0
LINE
  5
251
330
1F
100
AcDbEntity
  8
1-4ﾚｲﾔ
  6
Continuous
 62
     7
370
     9
100
AcDbLine
 10
-0.3829011454014442
 20
-181.9999132923495
 30
0.0
 11
-0.3829011454014442
 21
-115.3854768301829
 31
0.0
  0
TEXT
  5
252
330
1F
100
AcDbEntity
  8
1-4ﾚｲﾔ
  6
Continuous
 62
     2
370
     9
100
AcDbText
 10
-54.19170395068208
 20
-178.2837928359282
 30
0.0
 40
9.144
  1
RC3
 41
1.083333333333334
  7
ＭＳ ゴシック
100
AcDbText
  0
LINE
  5
253
330
1F
100
AcDbEntity
  8
1-4ﾚｲﾔ
  6
Continuous
 62
     7
370
     9
100
AcDbLine
 10
-99.62192907452336
 20
-205.0999132923496
 30
0.0
 11
14.37803292578957
 21
-205.0999132923496
 31
0.0
  0
LINE
  5
254
330
1F
100
AcDbEntity
  8
1-4ﾚｲﾔ
  6
Continuous
 62
     7
370
     9
100
AcDbLine
 10
-99.62192907452336
 20
-205.0999132923496
 30
0.0
 11
-92.18609261421979
 21
-204.1209668506991
 31
0.0
  0
LINE
  5
255
330
1F
100
AcDbEntity
  8
1-4ﾚｲﾔ
  6
Continuous
 62
     7
370
     9
100
AcDbLine
 10
-99.62192907452336
 20
-205.0999132923496
 30
0.0
 11
-92.18609261421979
 21
-206.078859734
 31
0.0
  0
LINE
  5
256
330
1F
100
AcDbEntity
  8
1-4ﾚｲﾔ
  6
Continuous
 62
     7
370
     9
100
AcDbLine
 10
14.37803292578957
 20
-205.0999132923496
 30
0.0
 11
6.94219646548599
 21
-204.1209668506991
 31
0.0
  0
LINE
  5
257
330
1F
100
AcDbEntity
  8
1-4ﾚｲﾔ
  6
Continuous
 62
     7
370
     9
100
AcDbLine
 10
14.37803292578957
 20
-205.0999132923496
 30
0.0
 11
6.94219646548599
 21
-206.078859734
 31
0.0
  0
LINE
  5
258
330
1F
100
AcDbEntity
  8
1-4ﾚｲﾔ
  6
Continuous
 62
     7
370
     9
100
AcDbLine
 10
-99.62192907452336
 20
-205.9999132923496
 30
0.0
 11
-99.62192907452336
 21
-156.9122255463236
 31
0.0
  0
LINE
  5
259
330
1F
100
AcDbEntity
  8
1-4ﾚｲﾔ
  6
Continuous
 62
     7
370
     9
100
AcDbLine
 10
14.37803292578957
 20
-205.9999132923496
 30
0.0
 11
14.37803292578957
 21
-156.9122255463236
 31
0.0
  0
TEXT
  5
25A
330
1F
100
AcDbEntity
  8
1-4ﾚｲﾔ
  6
Continuous
 62
     2
370
   211
100
AcDbText
 10
-59.1219480743669
 20
-201.9079132923495
 30
0.0
 40
9.144
  1
φ114
 41
1.1
  7
ＭＳ ゴシック
100
AcDbText
  0
LINE
  5
25B
330
1F
100
AcDbEntity
  8
1-4ﾚｲﾔ
  6
Continuous
 62
     7
370
     9
100
AcDbLine
 10
-111.121900913515
 20
13.35296282131794
 30
0.0
 11
25.87796976972054
 21
13.35296282131794
 31
0.0
  0
LINE
  5
25C
330
1F
100
AcDbEntity
  8
1-4ﾚｲﾔ
  6
Continuous
 62
     7
370
     9
100
AcDbLine
 10
-111.121900913515
 20
13.35296282131794
 30
0.0
 11
-103.6860644532114
 21
14.33190926296832
 31
0.0
  0
LINE
  5
25D
330
1F
100
AcDbEntity
  8
1-4ﾚｲﾔ
  6
Continuous
 62
     7
370
     9
100
AcDbLine
 10
-111.121900913515
 20
13.35296282131794
 30
0.0
 11
-103.6860644532114
 21
12.37401637966755
 31
0.0
  0
LINE
  5
25E
330
1F
100
AcDbEntity
  8
1-4ﾚｲﾔ
  6
Continuous
 62
     7
370
     9
100
AcDbLine
 10
25.87796976972054
 20
13.35296282131794
 30
0.0
 11
18.44213330941696
 21
14.33190926296832
 31
0.0
  0
LINE
  5
25F
330
1F
100
AcDbEntity
  8
1-4ﾚｲﾔ
  6
Continuous
 62
     7
370
     9
100
AcDbLine
 10
25.87796976972054
 20
13.35296282131794
 30
0.0
 11
18.44213330941696
 21
12.37401637966755
 31
0.0
  0
LINE
  5
260
330
1F
100
AcDbEntity
  8
1-4ﾚｲﾔ
  6
Continuous
 62
     7
370
     9
100
AcDbLine
 10
-111.121900913515
 20
14.25296282131794
 30
0.0
 11
-111.121900913515
 21
-51.91218701640841
 31
0.0
  0
LINE
  5
261
330
1F
100
AcDbEntity
  8
1-4ﾚｲﾔ
  6
Continuous
 62
     7
370
     9
100
AcDbLine
 10
25.87796976972054
 20
14.25296282131794
 30
0.0
 11
25.87796976972054
 21
-51.91218701640841
 31
0.0
  0
LINE
  5
262
330
1F
100
AcDbEntity
  8
1-4ﾚｲﾔ
  6
Continuous
 62
     7
370
     9
100
AcDbLine
 10
-113.6219830399704
 20
37.35296282131794
 30
0.0
 11
28.37812188629724
 21
37.35296282131794
 31
0.0
  0
LINE
  5
263
330
1F
100
AcDbEntity
  8
1-4ﾚｲﾔ
  6
Continuous
 62
     7
370
     9
100
AcDbLine
 10
-113.6219830399704
 20
37.35296282131794
 30
0.0
 11
-106.1861465796668
 21
38.33190926296832
 31
0.0
  0
LINE
  5
264
330
1F
100
AcDbEntity
  8
1-4ﾚｲﾔ
  6
Continuous
 62
     7
370
     9
100
AcDbLine
 10
-113.6219830399704
 20
37.35296282131794
 30
0.0
 11
-106.1861465796668
 21
36.37401637966755
 31
0.0
  0
LINE
  5
265
330
1F
100
AcDbEntity
  8
1-4ﾚｲﾔ
  6
Continuous
 62
     7
370
     9
100
AcDbLine
 10
28.37812188629724
 20
37.35296282131794
 30
0.0
 11
20.94228542599366
 21
38.33190926296832
 31
0.0
  0
LINE
  5
266
330
1F
100
AcDbEntity
  8
1-4ﾚｲﾔ
  6
Continuous
 62
     7
370
     9
100
AcDbLine
 10
28.37812188629724
 20
37.35296282131794
 30
0.0
 11
20.94228542599366
 21
36.37401637966755
 31
0.0
  0
LINE
  5
267
330
1F
100
AcDbEntity
  8
1-4ﾚｲﾔ
  6
Continuous
 62
     7
370
     9
100
AcDbLine
 10
-113.6219830399704
 20
38.25296282131794
 30
0.0
 11
-113.6219830399704
 21
-44.9122300238062
 31
0.0
  0
LINE
  5
268
330
1F
100
AcDbEntity
  8
1-4ﾚｲﾔ
  6
Continuous
 62
     7
370
     9
100
AcDbLine
 10
28.37812188629724
 20
38.25296282131794
 30
0.0
 11
28.37812188629724
 21
-44.9122300238062
 31
0.0
  0
LINE
  5
269
330
1F
100
AcDbEntity
  8
1-4ﾚｲﾔ
  6
Continuous
 62
     7
370
     9
100
AcDbLine
 10
-135.1219334341774
 20
61.35296282131794
 30
0.0
 11
49.8780722805042
 21
61.35296282131794
 31
0.0
  0
LINE
  5
26A
330
1F
100
AcDbEntity
  8
1-4ﾚｲﾔ
  6
Continuous
 62
     7
370
     9
100
AcDbLine
 10
-135.1219334341774
 20
61.35296282131794
 30
0.0
 11
-127.6860969738738
 21
62.33190926296832
 31
0.0
  0
LINE
  5
26B
330
1F
100
AcDbEntity
  8
1-4ﾚｲﾔ
  6
Continuous
 62
     7
370
     9
100
AcDbLine
 10
-135.1219334341774
 20
61.35296282131794
 30
0.0
 11
-127.6860969738738
 21
60.37401637966755
 31
0.0
  0
LINE
  5
26C
330
1F
100
AcDbEntity
  8
1-4ﾚｲﾔ
  6
Continuous
 62
     7
370
     9
100
AcDbLine
 10
49.8780722805042
 20
61.35296282131794
 30
0.0
 11
42.44223582020062
 21
62.33190926296832
 31
0.0
  0
LINE
  5
26D
330
1F
100
AcDbEntity
  8
1-4ﾚｲﾔ
  6
Continuous
 62
     7
370
     9
100
AcDbLine
 10
49.8780722805042
 20
61.35296282131794
 30
0.0
 11
42.44223582020062
 21
60.37401637966755
 31
0.0
  0
LINE
  5
26E
330
1F
100
AcDbEntity
  8
1-4ﾚｲﾔ
  6
Continuous
 62
     7
370
     9
100
AcDbLine
 10
-135.1219334341774
 20
62.25296282131794
 30
0.0
 11
-135.1219334341774
 21
-52.912240864027
 31
0.0
  0
LINE
  5
26F
330
1F
100
AcDbEntity
  8
1-4ﾚｲﾔ
  6
Continuous
 62
     7
370
     9
100
AcDbLine
 10
49.8780722805042
 20
62.25296282131794
 30
0.0
 11
49.8780722805042
 21
-52.91224086402698
 31
0.0
  0
TEXT
  5
270
330
1F
100
AcDbEntity
  8
1-4ﾚｲﾔ
  6
Continuous
 62
     2
370
   211
100
AcDbText
 10
-59.12196557189722
 20
16.54496282131794
 30
0.0
 40
9.144
  1
φ137
 41
1.1
  7
ＭＳ ゴシック
100
AcDbText
  0
TEXT
  5
271
330
1F
100
AcDbEntity
  8
1-4ﾚｲﾔ
  6
Continuous
 62
     2
370
   211
100
AcDbText
 10
-59.12193057683658
 20
40.54496282131794
 30
0.0
 40
9.144
  1
φ142
 41
1.1
  7
ＭＳ ゴシック
100
AcDbText
  0
TEXT
  5
272
330
1F
100
AcDbEntity
  8
1-4ﾚｲﾔ
  6
Continuous
 62
     2
370
   211
100
AcDbText
 10
-59.12193057683659
 20
64.54496282131794
 30
0.0
 40
9.144
  1
φ185
 41
1.1
  7
ＭＳ ゴシック
100
AcDbText
  0
LINE
  5
273
330
1F
100
AcDbEntity
  8
1-5ﾚｲﾔ
  6
Continuous
 62
     7
370
     9
100
AcDbLine
 10
-133.1218957290616
 20
-50.9122300238062
 30
0.0
 11
-173.2927571212075
 21
6.298250874488737
 31
0.0
  0
LINE
  5
274
330
1F
100
AcDbEntity
  8
1-5ﾚｲﾔ
  6
Continuous
 62
     7
370
     9
100
AcDbLine
 10
-133.1218957290616
 20
-50.9122300238062
 30
0.0
 11
-138.19605249678
 21
-45.38928397150609
 31
0.0
  0
LINE
  5
275
330
1F
100
AcDbEntity
  8
1-5ﾚｲﾔ
  6
Continuous
 62
     7
370
     9
100
AcDbLine
 10
-133.1218957290616
 20
-50.9122300238062
 30
0.0
 11
-136.5937111742312
 21
-44.2641853853669
 31
0.0
  0
LINE
  5
276
330
1F
100
AcDbEntity
  8
1-4ﾚｲﾔ
  6
Continuous
 62
     7
370
     9
100
AcDbLine
 10
-165.2954806434921
 20
-50.9122300238062
 30
0.0
 11
-165.2954806434921
 21
-110.9122130385536
 31
0.0
  0
LINE
  5
277
330
1F
100
AcDbEntity
  8
1-4ﾚｲﾔ
  6
Continuous
 62
     7
370
     9
100
AcDbLine
 10
-165.2954806434921
 20
-50.9122300238062
 30
0.0
 11
-164.3165342018417
 21
-58.34806648410978
 31
0.0
  0
LINE
  5
278
330
1F
100
AcDbEntity
  8
1-4ﾚｲﾔ
  6
Continuous
 62
     7
370
     9
100
AcDbLine
 10
-165.2954806434921
 20
-50.9122300238062
 30
0.0
 11
-166.2744270851425
 21
-58.34806648410978
 31
0.0
  0
LINE
  5
279
330
1F
100
AcDbEntity
  8
1-4ﾚｲﾔ
  6
Continuous
 62
     7
370
     9
100
AcDbLine
 10
-165.2954806434921
 20
-110.9122130385536
 30
0.0
 11
-164.3165342018417
 21
-103.47637657825
 31
0.0
  0
LINE
  5
27A
330
1F
100
AcDbEntity
  8
1-4ﾚｲﾔ
  6
Continuous
 62
     7
370
     9
100
AcDbLine
 10
-165.2954806434921
 20
-110.9122130385536
 30
0.0
 11
-166.2744270851425
 21
-103.47637657825
 31
0.0
  0
LINE
  5
27B
330
1F
100
AcDbEntity
  8
1-4ﾚｲﾔ
  6
Continuous
 62
     7
370
     9
100
AcDbLine
 10
-166.1954806434921
 20
-50.9122300238062
 30
0.0
 11
-139.1218957290616
 21
-50.9122300238062
 31
0.0
  0
LINE
  5
27C
330
1F
100
AcDbEntity
  8
1-4ﾚｲﾔ
  6
Continuous
 62
     7
370
     9
100
AcDbLine
 10
-166.1954806434921
 20
-110.9122130385536
 30
0.0
 11
-96.74063762246163
 21
-110.9122130385536
 31
0.0
  0
TEXT
  5
27D
330
1F
100
AcDbEntity
  8
1-4ﾚｲﾔ
  6
Continuous
 62
     2
370
   211
100
AcDbText
 10
-168.4874806434921
 20
-87.2872215311799
 30
0.0
 40
9.144
  1
60
 50
90.0
 41
1.0625
  7
ＭＳ ゴシック
100
AcDbText
  0
LINE
  5
27E
330
1F
100
AcDbEntity
  8
1-4ﾚｲﾔ
  6
Continuous
 62
     7
370
     9
100
AcDbLine
 10
103.184552796849
 20
-50.9122300238062
 30
0.0
 11
103.184552796849
 21
-90.91224922984956
 31
0.0
  0
LINE
  5
27F
330
1F
100
AcDbEntity
  8
1-4ﾚｲﾔ
  6
Continuous
 62
     7
370
     9
100
AcDbLine
 10
103.184552796849
 20
-50.9122300238062
 30
0.0
 11
104.1634992384994
 21
-58.34806648410978
 31
0.0
  0
LINE
  5
280
330
1F
100
AcDbEntity
  8
1-4ﾚｲﾔ
  6
Continuous
 62
     7
370
     9
100
AcDbLine
 10
103.184552796849
 20
-50.9122300238062
 30
0.0
 11
102.2056063551986
 21
-58.34806648410978
 31
0.0
  0
LINE
  5
281
330
1F
100
AcDbEntity
  8
1-4ﾚｲﾔ
  6
Continuous
 62
     7
370
     9
100
AcDbLine
 10
103.184552796849
 20
-90.91224922984956
 30
0.0
 11
104.1634992384994
 21
-83.47641276954599
 31
0.0
  0
LINE
  5
282
330
1F
100
AcDbEntity
  8
1-4ﾚｲﾔ
  6
Continuous
 62
     7
370
     9
100
AcDbLine
 10
103.184552796849
 20
-90.91224922984956
 30
0.0
 11
102.2056063551986
 21
-83.47641276954599
 31
0.0
  0
LINE
  5
283
330
1F
100
AcDbEntity
  8
1-4ﾚｲﾔ
  6
Continuous
 62
     7
370
     9
100
AcDbLine
 10
128.084552796849
 20
-50.91223002380621
 30
0.0
 11
53.8780345753884
 21
-50.9122300238062
 31
0.0
  0
TEXT
  5
284
330
1F
100
AcDbEntity
  8
1-4ﾚｲﾔ
  6
Continuous
 62
     2
370
   211
100
AcDbText
 10
99.99255279684903
 20
-77.28723962682787
 30
0.0
 40
9.144
  1
40
 50
90.0
 41
1.0625
  7
ＭＳ ゴシック
100
AcDbText
  0
LINE
  5
285
330
1F
100
AcDbEntity
  8
1-4ﾚｲﾔ
  6
Continuous
 62
     7
370
     9
100
AcDbLine
 10
128.084552796849
 20
-150.9122255463236
 30
0.0
 11
20.37803292578957
 21
-150.9122255463236
 31
0.0
  0
LINE
  5
286
330
1F
100
AcDbEntity
  8
1-4ﾚｲﾔ
  6
Continuous
 62
     7
370
     9
100
AcDbLine
 10
127.184552796849
 20
-50.9122300238062
 30
0.0
 11
127.184552796849
 21
-150.9122255463236
 31
0.0
  0
LINE
  5
287
330
1F
100
AcDbEntity
  8
1-4ﾚｲﾔ
  6
Continuous
 62
     7
370
     9
100
AcDbLine
 10
127.184552796849
 20
-18.91208167774107
 30
0.0
 11
127.184552796849
 21
-50.91223002380621
 31
0.0
  0
LINE
  5
288
330
1F
100
AcDbEntity
  8
1-4ﾚｲﾔ
  6
Continuous
 62
     7
370
     9
100
AcDbLine
 10
127.184552796849
 20
-18.91208167774107
 30
0.0
 11
128.1634992384994
 21
-26.34791813804464
 31
0.0
  0
LINE
  5
289
330
1F
100
AcDbEntity
  8
1-4ﾚｲﾔ
  6
Continuous
 62
     7
370
     9
100
AcDbLine
 10
127.184552796849
 20
-18.91208167774107
 30
0.0
 11
126.2056063551987
 21
-26.34791813804464
 31
0.0
  0
LINE
  5
28A
330
1F
100
AcDbEntity
  8
1-4ﾚｲﾔ
  6
Continuous
 62
     7
370
     9
100
AcDbLine
 10
127.184552796849
 20
-50.91223002380621
 30
0.0
 11
128.1634992384994
 21
-43.47639356350263
 31
0.0
  0
LINE
  5
28B
330
1F
100
AcDbEntity
  8
1-4ﾚｲﾔ
  6
Continuous
 62
     7
370
     9
100
AcDbLine
 10
127.184552796849
 20
-50.91223002380621
 30
0.0
 11
126.2056063551987
 21
-43.47639356350263
 31
0.0
  0
LINE
  5
28C
330
1F
100
AcDbEntity
  8
1-4ﾚｲﾔ
  6
Continuous
 62
     7
370
     9
100
AcDbLine
 10
128.084552796849
 20
-18.91208167774107
 30
0.0
 11
-36.62193932560175
 21
-18.91208167774106
 31
0.0
  0
TEXT
  5
28D
330
1F
100
AcDbEntity
  8
1-4ﾚｲﾔ
  6
Continuous
 62
     2
370
   211
100
AcDbText
 10
123.992552796849
 20
-41.28715585077364
 30
0.0
 40
9.144
  1
32
 50
90.0
 41
1.0625
  7
ＭＳ ゴシック
100
AcDbText
  0
LINE
  5
28E
330
1F
100
AcDbEntity
  8
1-4ﾚｲﾔ
  6
Continuous
 62
     7
370
     9
100
AcDbLine
 10
127.184552796849
 20
-50.91223002380621
 30
0.0
 11
128.1634992384994
 21
-58.34806648410979
 31
0.0
  0
LINE
  5
28F
330
1F
100
AcDbEntity
  8
1-4ﾚｲﾔ
  6
Continuous
 62
     7
370
     9
100
AcDbLine
 10
127.184552796849
 20
-50.91223002380621
 30
0.0
 11
126.2056063551987
 21
-58.34806648410979
 31
0.0
  0
LINE
  5
290
330
1F
100
AcDbEntity
  8
1-4ﾚｲﾔ
  6
Continuous
 62
     7
370
     9
100
AcDbLine
 10
127.184552796849
 20
-150.9122255463236
 30
0.0
 11
128.1634992384994
 21
-143.47638908602
 31
0.0
  0
LINE
  5
291
330
1F
100
AcDbEntity
  8
1-4ﾚｲﾔ
  6
Continuous
 62
     7
370
     9
100
AcDbLine
 10
127.184552796849
 20
-150.9122255463236
 30
0.0
 11
126.2056063551987
 21
-143.47638908602
 31
0.0
  0
LINE
  5
292
330
1F
100
AcDbEntity
  8
1-4ﾚｲﾔ
  6
Continuous
 62
     7
370
     9
100
AcDbLine
 10
104.084552796849
 20
-90.91224922984956
 30
0.0
 11
20.37803292578957
 21
-90.91224922984956
 31
0.0
  0
TEXT
  5
293
330
1F
100
AcDbEntity
  8
1-5ﾚｲﾔ
  6
Continuous
 62
     7
370
     9
100
AcDbText
 10
82.14875211582694
 20
64.64538687746963
 30
0.0
 40
6.858000000000001
  1
樹脂系塗装（グレー）
 41
1.149999999999998
  7
ＭＳ ゴシック
100
AcDbText
  0
LINE
  5
294
330
1F
100
AcDbEntity
  8
1-5ﾚｲﾔ
  6
Continuous
 62
     7
370
     9
100
AcDbLine
 10
68.61175302288135
 20
75.75348764156377
 30
0.0
 11
198.4807120776348
 21
75.75348764156377
 31
0.0
  0
TEXT
  5
295
330
1F
100
AcDbEntity
  8
1-5ﾚｲﾔ
  6
Continuous
 62
     7
370
     9
100
AcDbText
 10
71.62592071839211
 20
80.31486004847866
 30
0.0
 40
6.858000000000001
  1
ストレーナー：ＡＤＣ１２
 41
1.152777777777777
  7
ＭＳ ゴシック
100
AcDbText
  0
LINE
  5
296
330
1F
100
AcDbEntity
  8
1-5ﾚｲﾔ
  6
Continuous
 62
     7
370
     9
100
AcDbLine
 10
-115.6217757796618
 20
-104.912117284037
 30
0.0
 11
-150.9794457825357
 21
-151.5288284336022
 31
0.0
  0
LINE
  5
297
330
1F
100
AcDbEntity
  8
1-5ﾚｲﾔ
  6
Continuous
 62
     7
370
     9
100
AcDbLine
 10
-99.62192907452336
 20
-138.9459888426547
 30
0.0
 11
-146.4021047322194
 21
-202.074335815215
 31
0.0
  0
TEXT
  5
298
330
1F
100
AcDbEntity
  8
1-5ﾚｲﾔ
  6
Continuous
 62
     7
370
     9
100
AcDbText
 10
-224.3601457000495
 20
-198.283495049529
 30
0.0
 40
6.858000000000001
  1
スペーサー
 41
1.133333333333333
  7
ＭＳ ゴシック
100
AcDbText
  0
LINE
  5
299
330
1F
100
AcDbEntity
  8
1-5ﾚｲﾔ
  6
Continuous
 62
     7
370
     9
100
AcDbLine
 10
-146.4021047322194
 20
-202.074335815215
 30
0.0
 11
-250.6448072020996
 21
-202.074335815215
 31
0.0
  0
LINE
  5
29A
330
1F
100
AcDbEntity
  8
1-0ﾚｲﾔ
  6
Continuous
 62
     3
370
     9
100
AcDbLine
 10
-133.2390941871108
 20
-50.9122300238062
 30
0.0
 11
-98.24629101778672
 21
-50.9122300238062
 31
0.0
  0
LINE
  5
29B
330
1F
100
AcDbEntity
  8
1-0ﾚｲﾔ
  6
Continuous
 62
     3
370
     9
100
AcDbLine
 10
47.99526802849833
 20
-50.9122300238062
 30
0.0
 11
13.00238946437324
 21
-50.9122300238062
 31
0.0
  0
LINE
  5
29C
330
1F
100
AcDbEntity
  8
1-0ﾚｲﾔ
  6
Continuous
 62
     3
370
     9
100
AcDbLine
 10
-5.325483677186895
 20
-77.91207413671792
 30
0.0
 11
-79.9183949740166
 21
-77.91207413671792
 31
0.0
  0
LINE
  5
29D
330
1F
100
AcDbEntity
  8
1-0ﾚｲﾔ
  6
Continuous
 62
     3
370
     9
100
AcDbLine
 10
4.452031277604661
 20
-70.80594213016477
 30
0.0
 11
-89.69590992880816
 21
-70.80594213016477
 31
0.0
  0
LINE
  5
29E
330
1F
100
AcDbEntity
  8
1-2ﾚｲﾔ
  6
Continuous
 62
     4
370
     9
100
AcDbLine
 10
23.87800205472596
 20
-58.91220586896638
 30
0.0
 11
17.87795892949973
 21
-58.91220586896638
 31
0.0
  0
LINE
  5
29F
330
1F
100
AcDbEntity
  8
1-2ﾚｲﾔ
  6
Continuous
 62
     4
370
     9
100
AcDbLine
 10
18.74797113181788
 20
-58.91220586896638
 30
0.0
 11
17.69598461422468
 21
-57.03976015490687
 31
0.0
  0
LINE
  5
2A0
330
1F
100
AcDbEntity
  8
1-2ﾚｲﾔ
  6
Continuous
 62
     4
370
     9
100
AcDbLine
 10
17.87795892949973
 20
-58.91220586896638
 30
0.0
 11
18.31889669343557
 21
-58.14854365590227
 31
0.0
  0
LINE
  5
2A1
330
1F
100
AcDbEntity
  8
1-2ﾚｲﾔ
  6
Continuous
 62
     4
370
     9
100
AcDbLine
 10
23.00798985240787
 20
-58.91220586896638
 30
0.0
 11
24.06004636012231
 21
-57.03976015490687
 31
0.0
  0
LINE
  5
2A2
330
1F
100
AcDbEntity
  8
1-2ﾚｲﾔ
  6
Continuous
 62
     4
370
     9
100
AcDbLine
 10
23.87800205472596
 20
-58.91220586896638
 30
0.0
 11
23.43706429079018
 21
-58.14854365590227
 31
0.0
  0
LINE
  5
2A3
330
1F
100
AcDbEntity
  8
1-2ﾚｲﾔ
  6
Continuous
 62
     4
370
     9
100
AcDbLine
 10
18.7479711318179
 20
-68.91218442418173
 30
0.0
 11
17.87795892949975
 21
-68.04227720704549
 31
0.0
  0
LINE
  5
2A4
330
1F
100
AcDbEntity
  8
1-2ﾚｲﾔ
  6
Continuous
 62
     4
370
     9
100
AcDbLine
 10
23.00798985240787
 20
-68.91218442418173
 30
0.0
 11
23.87800205472598
 21
-68.04227720704549
 31
0.0
  0
LINE
  5
2A5
330
1F
100
AcDbEntity
  8
1-2ﾚｲﾔ
  6
Continuous
 62
     4
370
     9
100
AcDbLine
 10
23.00798985240787
 20
-58.91220586896638
 30
0.0
 11
23.00798985240787
 21
-68.91218442418173
 31
0.0
  0
LINE
  5
2A6
330
1F
100
AcDbEntity
  8
1-2ﾚｲﾔ
  6
Continuous
 62
     4
370
     9
100
AcDbLine
 10
18.74797113181788
 20
-58.91220586896638
 30
0.0
 11
18.7479711318179
 21
-68.91218442418173
 31
0.0
  0
LINE
  5
2A7
330
1F
100
AcDbEntity
  8
1-2ﾚｲﾔ
  6
Continuous
 62
     4
370
     9
100
AcDbLine
 10
23.00798985240787
 20
-68.91218442418173
 30
0.0
 11
18.7479711318179
 21
-68.91218442418173
 31
0.0
  0
LINE
  5
2A8
330
1F
100
AcDbEntity
  8
1-2ﾚｲﾔ
  6
Continuous
 62
     4
370
     9
100
AcDbLine
 10
23.87800205472598
 20
-68.04227720704549
 30
0.0
 11
17.87795892949975
 21
-68.04227720704549
 31
0.0
  0
LINE
  5
2A9
330
1F
100
AcDbEntity
  8
1-2ﾚｲﾔ
  6
Continuous
 62
     4
370
     9
100
AcDbLine
 10
23.87800205472596
 20
-58.91220586896638
 30
0.0
 11
23.87800205472598
 21
-68.04227720704549
 31
0.0
  0
LINE
  5
2AA
330
1F
100
AcDbEntity
  8
1-2ﾚｲﾔ
  6
Continuous
 62
     4
370
     9
100
AcDbLine
 10
17.87795892949973
 20
-58.91220586896638
 30
0.0
 11
17.87795892949975
 21
-68.04227720704549
 31
0.0
  0
LINE
  5
2AB
330
1F
100
AcDbEntity
  8
1-2ﾚｲﾔ
  6
Continuous
 62
     4
370
     9
100
AcDbLine
 10
26.12804447298127
 20
-56.91223815397181
 30
0.0
 11
25.96153797450459
 21
-55.0090667766793
 31
0.0
  0
LINE
  5
2AC
330
1F
100
AcDbEntity
  8
1-2ﾚｲﾔ
  6
Continuous
 62
     4
370
     9
100
AcDbLine
 10
15.62805649148695
 20
-56.91223815397181
 30
0.0
 11
15.79456298996369
 21
-55.0090667766793
 31
0.0
  0
LINE
  5
2AD
330
1F
100
AcDbEntity
  8
1-2ﾚｲﾔ
  6
Continuous
 62
     4
370
     9
100
AcDbLine
 10
15.62805649148695
 20
-56.91223815397181
 30
0.0
 11
26.12804447298127
 21
-56.91223815397181
 31
0.0
  0
LINE
  5
2AE
330
1F
100
AcDbEntity
  8
1-2ﾚｲﾔ
  6
JWW_CENTER1
 62
     4
370
     9
100
AcDbLine
 10
20.87808547729473
 20
-50.86726137089686
 30
0.0
 11
20.87808547729474
 21
-77.85394734101178
 31
0.0
  0
ARC
  5
2AF
330
1F
100
AcDbEntity
  8
1-2ﾚｲﾔ
  6
Continuous
 62
     4
370
     9
100
AcDbCircle
 10
17.78697177186221
 20
-55.18337717367647
 30
0.0
 40
1.999999976066088
100
AcDbArc
 50
96.33815002441406
 51
175.0000152587891
  0
ARC
  5
2B0
330
1F
100
AcDbEntity
  8
1-2ﾚｲﾔ
  6
Continuous
 62
     4
370
     9
100
AcDbCircle
 10
20.87808547729474
 20
-83.01221927784819
 30
0.0
 40
29.99999690700222
100
AcDbArc
 50
83.66180419921876
 51
96.33819580078126
  0
ARC
  5
2B1
330
1F
100
AcDbEntity
  8
1-2ﾚｲﾔ
  6
Continuous
 62
     4
370
     9
100
AcDbCircle
 10
23.96916418766668
 20
-55.18337717367647
 30
0.0
 40
1.999999976066088
100
AcDbArc
 50
4.999984741210936
 51
83.66183471679688
  0
ARC
  5
2B2
330
1F
100
AcDbEntity
  8
1-2ﾚｲﾔ
  6
Continuous
 62
     4
370
     9
100
AcDbCircle
 10
17.47803537662211
 20
-57.16224286711125
 30
0.0
 40
0.249999997008261
100
AcDbArc
 50
29.32917785644532
 51
90.00000000000001
  0
ARC
  5
2B3
330
1F
100
AcDbEntity
  8
1-2ﾚｲﾔ
  6
Continuous
 62
     4
370
     9
100
AcDbCircle
 10
24.27806558784616
 20
-57.16224286711125
 30
0.0
 40
0.249999997008261
100
AcDbArc
 50
90.0
 51
150.6708221435547
  0
LINE
  5
2B4
330
1F
100
AcDbEntity
  8
1-2ﾚｲﾔ
  6
Continuous
 62
     4
370
     9
100
AcDbLine
 10
20.35970364418515
 20
249.2273555957907
 30
0.0
 11
20.12723145642118
 21
248.7287634694673
 31
0.0
  0
LINE
  5
2B5
330
1F
100
AcDbEntity
  8
1-2ﾚｲﾔ
  6
Continuous
 62
     4
370
     9
100
AcDbLine
 10
-104.8724829862406
 20
248.4962912817033
 30
0.0
 11
-105.3710926100944
 21
248.7287634694673
 31
0.0
  0
LINE
  5
2B6
330
1F
100
AcDbEntity
  8
1-2ﾚｲﾔ
  6
Continuous
 62
     4
370
     9
100
AcDbLine
 10
21.3963623252225
 20
249.2273555957907
 30
0.0
 11
21.62886950804702
 21
248.7287634694673
 31
0.0
  0
LINE
  5
2B7
330
1F
100
AcDbEntity
  8
1-2ﾚｲﾔ
  6
Continuous
 62
     4
370
     9
100
AcDbLine
 10
-107.371340285574
 20
248.4962912817033
 30
0.0
 11
-106.8727656567809
 21
248.7287634694673
 31
0.0
  0
LINE
  5
2B8
330
1F
100
AcDbEntity
  8
1-2ﾚｲﾔ
  6
Continuous
 62
     4
370
     9
100
AcDbLine
 10
-103.6219344946338
 20
248.4744543638703
 30
0.0
 11
-104.8724829862406
 21
248.4962912817033
 31
0.0
  0
LINE
  5
2B9
330
1F
100
AcDbEntity
  8
1-2ﾚｲﾔ
  6
Continuous
 62
     4
370
     9
100
AcDbLine
 10
-108.6219237722415
 20
248.4744543638703
 30
0.0
 11
-107.371340285574
 21
248.4962912817033
 31
0.0
  0
LINE
  5
2BA
330
1F
100
AcDbEntity
  8
1-2ﾚｲﾔ
  6
Continuous
 62
     4
370
     9
100
AcDbLine
 10
-108.6219237722415
 20
248.4744543638703
 30
0.0
 11
-108.6219237722415
 21
247.977926946124
 31
0.0
  0
LINE
  5
2BB
330
1F
100
AcDbEntity
  8
1-2ﾚｲﾔ
  6
Continuous
 62
     4
370
     9
100
AcDbLine
 10
-103.6219344946338
 20
248.4744543638703
 30
0.0
 11
-103.6219344946338
 21
247.977926946124
 31
0.0
  0
LINE
  5
2BC
330
1F
100
AcDbEntity
  8
1-2ﾚｲﾔ
  6
Continuous
 62
     4
370
     9
100
AcDbLine
 10
20.4292388296566
 20
253.2087086485853
 30
0.0
 11
20.35970364418515
 21
249.2273555957907
 31
0.0
  0
LINE
  5
2BD
330
1F
100
AcDbEntity
  8
1-2ﾚｲﾔ
  6
Continuous
 62
     4
370
     9
100
AcDbLine
 10
21.32686213481165
 20
253.2087086485853
 30
0.0
 11
21.3963623252225
 21
249.2273555957907
 31
0.0
  0
LINE
  5
2BE
330
1F
100
AcDbEntity
  8
1-2ﾚｲﾔ
  6
Continuous
 62
     4
370
     9
100
AcDbLine
 10
-105.603599792919
 20
249.2273555957907
 30
0.0
 11
-105.3710926100944
 21
248.7287634694673
 31
0.0
  0
LINE
  5
2BF
330
1F
100
AcDbEntity
  8
1-2ﾚｲﾔ
  6
Continuous
 62
     4
370
     9
100
AcDbLine
 10
19.62858683750678
 20
248.4962912817033
 30
0.0
 11
20.12723145642118
 21
248.7287634694673
 31
0.0
  0
LINE
  5
2C0
330
1F
100
AcDbEntity
  8
1-2ﾚｲﾔ
  6
Continuous
 62
     4
370
     9
100
AcDbLine
 10
-106.6402584739563
 20
249.2273555957907
 30
0.0
 11
-106.8727656567809
 21
248.7287634694673
 31
0.0
  0
LINE
  5
2C1
330
1F
100
AcDbEntity
  8
1-2ﾚｲﾔ
  6
Continuous
 62
     4
370
     9
100
AcDbLine
 10
22.12744413684018
 20
248.4962912817033
 30
0.0
 11
21.62886950804702
 21
248.7287634694673
 31
0.0
  0
LINE
  5
2C2
330
1F
100
AcDbEntity
  8
1-2ﾚｲﾔ
  6
Continuous
 62
     4
370
     9
100
AcDbLine
 10
18.37803834589997
 20
248.4744543638703
 30
0.0
 11
19.62858683750678
 21
248.4962912817033
 31
0.0
  0
LINE
  5
2C3
330
1F
100
AcDbEntity
  8
1-2ﾚｲﾔ
  6
Continuous
 62
     4
370
     9
100
AcDbLine
 10
23.37806261856829
 20
248.4744543638703
 30
0.0
 11
22.12744413684018
 21
248.4962912817033
 31
0.0
  0
LINE
  5
2C4
330
1F
100
AcDbEntity
  8
1-2ﾚｲﾔ
  6
Continuous
 62
     4
370
     9
100
AcDbLine
 10
23.37806261856829
 20
248.4744543638703
 30
0.0
 11
23.37806261856829
 21
247.977926946124
 31
0.0
  0
LINE
  5
2C5
330
1F
100
AcDbEntity
  8
1-2ﾚｲﾔ
  6
Continuous
 62
     4
370
     9
100
AcDbLine
 10
18.37803834589997
 20
248.4744543638703
 30
0.0
 11
18.37803834589997
 21
247.977926946124
 31
0.0
  0
LINE
  5
2C6
330
1F
100
AcDbEntity
  8
1-2ﾚｲﾔ
  6
Continuous
 62
     4
370
     9
100
AcDbLine
 10
-105.6731349783904
 20
253.2087086485853
 30
0.0
 11
-105.603599792919
 21
249.2273555957907
 31
0.0
  0
LINE
  5
2C7
330
1F
100
AcDbEntity
  8
1-2ﾚｲﾔ
  6
Continuous
 62
     4
370
     9
100
AcDbLine
 10
-106.5707232884848
 20
253.2087086485853
 30
0.0
 11
-106.6402584739563
 21
249.2273555957907
 31
0.0
  0
LINE
  5
2C8
330
1F
100
AcDbEntity
  8
1-2ﾚｲﾔ
  6
JWW_CENTER1
 62
     4
370
     9
100
AcDbLine
 10
20.87808547729472
 20
255.5792740556498
 30
0.0
 11
20.87808547729472
 21
241.224405170477
 31
0.0
  0
LINE
  5
2C9
330
1F
100
AcDbEntity
  8
1-2ﾚｲﾔ
  6
JWW_CENTER1
 62
     4
370
     9
100
AcDbLine
 10
-106.121946630968
 20
255.3803971260905
 30
0.0
 11
-106.121946630968
 21
240.8675605372346
 31
0.0
  0
ARC
  5
2CA
330
1F
100
AcDbEntity
  8
1-2ﾚｲﾔ
  6
Continuous
 62
     4
370
     9
100
AcDbCircle
 10
20.87808547729472
 20
247.977926946124
 30
0.0
 40
5.25000000552321
100
AcDbArc
 50
0.0
 51
180.0
  0
ARC
  5
2CB
330
1F
100
AcDbEntity
  8
1-2ﾚｲﾔ
  6
Continuous
 62
     4
370
     9
100
AcDbCircle
 10
-106.121946630968
 20
247.977926946124
 30
0.0
 40
5.25000000552321
100
AcDbArc
 50
0.0
 51
180.0
  0
LINE
  5
2CC
330
1F
100
AcDbEntity
  8
1-3ﾚｲﾔ
  6
Continuous
 62
     4
370
     9
100
AcDbLine
 10
10.87803693195814
 20
-90.91224922984955
 30
0.0
 11
14.37803292578956
 21
-90.91224922984955
 31
0.0
  0
LINE
  5
2CD
330
1F
100
AcDbEntity
  8
1-3ﾚｲﾔ
  6
Continuous
 62
     4
370
     9
100
AcDbLine
 10
-96.12193308069192
 20
-90.91224922984955
 30
0.0
 11
-99.62192907452336
 21
-90.91224922984955
 31
0.0
  0
LINE
  5
2CE
330
1F
100
AcDbEntity
  8
1-3ﾚｲﾔ
  6
Continuous
 62
     4
370
     9
100
AcDbLine
 10
-99.62192907452336
 20
-150.9122255463236
 30
0.0
 11
14.37803292578956
 21
-150.9122255463236
 31
0.0
  0
LINE
  5
2CF
330
1F
100
AcDbEntity
  8
1-3ﾚｲﾔ
  6
Continuous
 62
     4
370
     9
100
AcDbLine
 10
-96.12193308069192
 20
-90.91224922984955
 30
0.0
 11
-96.12193308069192
 21
-125.2065664137427
 31
0.0
  0
LINE
  5
2D0
330
1F
100
AcDbEntity
  8
1-3ﾚｲﾔ
  6
Continuous
 62
     4
370
     9
100
AcDbLine
 10
-96.12193308069192
 20
-129.2682672197453
 30
0.0
 11
-96.12193308069192
 21
-150.9122255463236
 31
0.0
  0
LINE
  5
2D1
330
1F
100
AcDbEntity
  8
1-3ﾚｲﾔ
  6
Continuous
 62
     4
370
     9
100
AcDbLine
 10
-99.62192907452336
 20
-90.91224922984955
 30
0.0
 11
-99.62192907452336
 21
-125.8236836546776
 31
0.0
  0
LINE
  5
2D2
330
1F
100
AcDbEntity
  8
1-3ﾚｲﾔ
  6
Continuous
 62
     4
370
     9
100
AcDbLine
 10
-99.62192907452336
 20
-129.885402378779
 30
0.0
 11
-99.62192907452336
 21
-150.9122255463236
 31
0.0
  0
LINE
  5
2D3
330
1F
100
AcDbEntity
  8
1-3ﾚｲﾔ
  6
Continuous
 62
     4
370
     9
100
AcDbLine
 10
14.37803292578956
 20
-90.91224922984955
 30
0.0
 11
14.37803292578956
 21
-125.2977906233895
 31
0.0
  0
LINE
  5
2D4
330
1F
100
AcDbEntity
  8
1-3ﾚｲﾔ
  6
Continuous
 62
     4
370
     9
100
AcDbLine
 10
14.37803292578956
 20
-129.3594940781018
 30
0.0
 11
14.37803292578956
 21
-150.9122255463236
 31
0.0
  0
LINE
  5
2D5
330
1F
100
AcDbEntity
  8
1-3ﾚｲﾔ
  6
Continuous
 62
     4
370
     9
100
AcDbLine
 10
10.87803693195814
 20
-90.91224922984955
 30
0.0
 11
10.87803693195814
 21
-125.9149078643245
 31
0.0
  0
LINE
  5
2D6
330
1F
100
AcDbEntity
  8
1-3ﾚｲﾔ
  6
Continuous
 62
     4
370
     9
100
AcDbLine
 10
10.87803693195814
 20
-129.9766292371355
 30
0.0
 11
10.87803693195814
 21
-150.9122255463236
 31
0.0
  0
LINE
  5
2D7
330
1F
100
AcDbEntity
  8
1-3ﾚｲﾔ
  6
Continuous
 62
     7
370
     9
100
AcDbLine
 10
-105.6203001251953
 20
-126.8813129203736
 30
0.0
 11
-91.12035126275853
 21
-124.3246904409606
 31
0.0
  0
LINE
  5
2D8
330
1F
100
AcDbEntity
  8
1-3ﾚｲﾔ
  6
Continuous
 62
     7
370
     9
100
AcDbLine
 10
-105.6203001251953
 20
-130.9430623529116
 30
0.0
 11
-91.12035126275853
 21
-128.3863656415518
 31
0.0
  0
LINE
  5
2D9
330
1F
100
AcDbEntity
  8
1-3ﾚｲﾔ
  6
Continuous
 62
     7
370
     9
100
AcDbLine
 10
5.397046286702725
 20
-126.8813129203736
 30
0.0
 11
19.89699514913945
 21
-124.3246904409606
 31
0.0
  0
LINE
  5
2DA
330
1F
100
AcDbEntity
  8
1-3ﾚｲﾔ
  6
Continuous
 62
     7
370
     9
100
AcDbLine
 10
5.397046286702725
 20
-130.9430623529116
 30
0.0
 11
19.89699514913945
 21
-128.3863656415518
 31
0.0
  0
TEXT
  5
2DB
330
1F
100
AcDbEntity
  8
1-2ﾚｲﾔ
  6
Continuous
 62
     6
370
     9
100
AcDbText
 10
-60.19348067554844
 20
311.2076475644465
 30
0.0
 40
5.333999999999976
  1
Ｏ
 50
196.999963107001
 41
1.000000000000004
  7
ＭＳ ゴシック
100
AcDbText
  0
TEXT
  5
2DC
330
1F
100
AcDbEntity
  8
1-2ﾚｲﾔ
  6
Continuous
 62
     6
370
     9
100
AcDbText
 10
-51.88560226880763
 20
312.6497580151207
 30
0.0
 40
5.333999999999997
  1
Ｓ
 50
190.9999855304829
 41
1.000000000000006
  7
ＭＳ ゴシック
100
AcDbText
  0
TEXT
  5
2DD
330
1F
100
AcDbEntity
  8
1-2ﾚｲﾔ
  6
Continuous
 62
     6
370
     9
100
AcDbText
 10
-43.47248715294043
 20
313.2155581903651
 30
0.0
 40
5.333999999999992
  1
Ｅ
 50
184.9999532191955
 41
1.000000000000019
  7
ＭＳ ゴシック
100
AcDbText
  0
TEXT
  5
2DE
330
1F
100
AcDbEntity
  8
1-2ﾚｲﾔ
  6
Continuous
 62
     6
370
     9
100
AcDbText
 10
-35.04629003940257
 20
312.8988614423072
 30
0.0
 40
5.333999999999995
  1
Ｎ
 50
178.9999037577848
 41
0.9999999999999819
  7
ＭＳ ゴシック
100
AcDbText
  0
TEXT
  5
2DF
330
1F
100
AcDbEntity
  8
1-2ﾚｲﾔ
  6
Continuous
 62
     6
370
     9
100
AcDbText
 10
-26.69933420704961
 20
311.7031063239972
 30
0.0
 40
5.334000000000017
  1
Ａ
 50
172.9998730135579
 41
1.000000000000001
  7
ＭＳ ゴシック
100
AcDbText
  0
TEXT
  5
2E0
330
1F
100
AcDbEntity
  8
1-2ﾚｲﾔ
  6
Continuous
 62
     6
370
     9
100
AcDbText
 10
-18.52315139460851
 20
309.6414362177231
 30
0.0
 40
5.333999999999987
  1
Ｋ
 50
167.0000368929983
 41
0.9999999999999843
  7
ＭＳ ゴシック
100
AcDbText
  0
LINE
  5
2E1
330
1F
100
AcDbEntity
  8
1-0ﾚｲﾔ
  6
JWW_CENTER1
 62
     3
370
     9
100
AcDbLine
 10
-42.62193932560178
 20
351.1825601507572
 30
0.0
 11
-42.62193932560176
 21
142.4798574480545
 31
0.0
  0
LINE
  5
2E2
330
1F
100
AcDbEntity
  8
1-0ﾚｲﾔ
  6
JWW_CENTER1
 62
     3
370
     9
100
AcDbLine
 10
-147.7044074836314
 20
247.977926946124
 30
0.0
 11
62.1450308633197
 21
247.977926946124
 31
0.0
  0
LINE
  5
2E3
330
1F
100
AcDbEntity
  8
1-0ﾚｲﾔ
  6
JWW_CENTER1
 62
     3
370
     9
100
AcDbLine
 10
-42.62193932560176
 20
-4.758854331917323
 30
0.0
 11
-42.62193932560175
 21
-121.3878377595762
 31
0.0
  0
TEXT
  5
2E4
330
1F
100
AcDbEntity
  8
1-5ﾚｲﾔ
  6
Continuous
 62
     7
370
     9
100
AcDbText
 10
-244.6555924823345
 20
-213.7836658392583
 30
0.0
 40
6.858000000000001
  1
硬質ポリ塩化ビニル
 41
1.148148148148148
  7
ＭＳ ゴシック
100
AcDbText
  0
TEXT
  5
2E5
330
1F
100
AcDbEntity
  8
1-5ﾚｲﾔ
  6
Continuous
 62
     7
370
     9
100
AcDbText
 10
-256.4981343471075
 20
9.286392396043853
 30
0.0
 40
6.858000000000001
  1
本体：ＦＣ１５０
 41
1.145833333333333
  7
ＭＳ ゴシック
100
AcDbText
  0
TEXT
  5
2E6
330
1F
100
AcDbEntity
  8
1-5ﾚｲﾔ
  6
Continuous
 62
     7
370
     9
100
AcDbText
 10
-255.1953330247934
 20
-3.732953945051149
 30
0.0
 40
6.858000000000001
  1
樹脂系塗装（黒）
 41
1.145833333333333
  7
ＭＳ ゴシック
100
AcDbText
  0
LINE
  5
2E7
330
1F
100
AcDbEntity
  8
1-5ﾚｲﾔ
  6
Continuous
 62
     7
370
     9
100
AcDbLine
 10
-173.2927571212075
 20
6.298250874488737
 30
0.0
 11
-257.4588971900826
 21
6.298250874488737
 31
0.0
  0
TEXT
  5
2E8
330
1F
100
AcDbEntity
  8
F-5ﾚｲﾔ
  6
Continuous
 62
     2
370
     9
100
AcDbText
 10
-34.53364454695728
 20
-331.2532829604616
 30
0.0
 40
9.144
  1
アルミニウム製ルーフドレン（本体：鋳鉄製）たて引き用　打込型
 41
0.6491666666666667
  7
ＭＳ ゴシック
100
AcDbText
  0
TEXT
  5
2E9
330
1F
100
AcDbEntity
  8
F-5ﾚｲﾔ
  6
Continuous
 62
     2
370
     9
100
AcDbText
 10
-31.51782447819947
 20
-279.2205879860779
 30
0.0
 40
9.144
  1
※ご注文の際はＣ寸法をご指示ください。
 41
1.118421052631579
  7
ＭＳ ゴシック
100
AcDbText
  0
TEXT
  5
2EA
330
1F
100
AcDbEntity
  8
F-5ﾚｲﾔ
  6
Continuous
 62
     2
370
     9
100
AcDbText
 10
-35.336815064016
 20
-346.4782938023479
 30
0.0
 40
9.144
  1
ねじ込み式　塗膜・モルタル防水用　　ＥＨＭＲ－２－７５　Ｃ＝指示
 41
0.64921875
  7
ＭＳ ゴシック
100
AcDbText
  0
TEXT
  5
2EB
330
1F
100
AcDbEntity
  8
1-5ﾚｲﾔ
  6
Continuous
 62
     7
370
     9
100
AcDbText
 10
-256.4136232376423
 20
-145.9705771534463
 30
0.0
 40
6.858000000000001
  1
アンカー：ＳＷＲＭ８
 41
1.15
  7
ＭＳ ゴシック
100
AcDbText
  0
LINE
  5
2EC
330
1F
100
AcDbEntity
  8
1-5ﾚｲﾔ
  6
Continuous
 62
     7
370
     9
100
AcDbLine
 10
-255.9146636657041
 20
-151.5288284336022
 30
0.0
 11
-150.9794457825357
 21
-151.5288284336022
 31
0.0
  0
TEXT
  5
2ED
330
1F
100
AcDbEntity
  8
1-5ﾚｲﾔ
  6
Continuous
 62
     7
370
     9
100
AcDbText
 10
-234.1970547241199
 20
-162.929812528292
 30
0.0
 40
6.858000000000001
  1
りん酸塩被膜
 41
1.138888888888889
  7
ＭＳ ゴシック
100
AcDbText
  0
TEXT
  5
2EE
330
1F
100
AcDbEntity
  8
1-5ﾚｲﾔ
  6
Continuous
 62
     7
370
     9
100
AcDbText
 10
72.93759606347044
 20
35.57776617752058
 30
0.0
 40
6.858000000000001
  1
丸小ねじ：Ｃ２７００Ｗ
 41
1.151515151515151
  7
ＭＳ ゴシック
100
AcDbText
  0
TEXT
  5
2EF
330
1F
100
AcDbEntity
  8
1-4ﾚｲﾔ
  6
Continuous
 62
     2
370
   211
100
AcDbText
 10
123.992552796849
 20
-106.9122277850649
 30
0.0
 40
9.144
  1
Ｃ
 50
90.0
  7
ＭＳ ゴシック
100
AcDbText
  0
ENDSEC
  0
SECTION
  2
OBJECTS
  0
DICTIONARY
  5
C
330
0
100
AcDbDictionary
281
     1
  3
ACAD_DETAILVIEWSTYLE
350
335
  3
ACAD_GROUP
350
D
  3
ACAD_LAYOUT
350
1A
  3
ACAD_MATERIAL
350
43
  3
ACAD_MLEADERSTYLE
350
6B
  3
ACAD_MLINESTYLE
350
17
  3
ACAD_PLOTSETTINGS
350
19
  3
ACAD_PLOTSTYLENAME
350
E
  3
ACAD_SCALELIST
350
47
  3
ACAD_SECTIONVIEWSTYLE
350
336
  3
ACAD_TABLESTYLE
350
69
  3
ACAD_VISUALSTYLE
350
2A
  3
ACDB_RECOMPOSE_DATA
350
332
  3
AcDbVariableDictionary
350
2F2
  0
DICTIONARY
  5
2F0
330
8
100
AcDbDictionary
280
     1
281
     1
  3
ACAD_XREC_ROUNDTRIP
360
2F1
  0
DICTIONARY
  5
335
102
{ACAD_REACTORS
330
C
102
}
330
C
100
AcDbDictionary
281
     1
  0
DICTIONARY
  5
D
102
{ACAD_REACTORS
330
C
102
}
330
C
100
AcDbDictionary
281
     1
  0
DICTIONARY
  5
1A
102
{ACAD_REACTORS
330
C
102
}
330
C
100
AcDbDictionary
281
     1
  3
Layout1
350
1E
  3
Layout2
350
26
  3
Model
350
22
  0
DICTIONARY
  5
43
102
{ACAD_REACTORS
330
C
102
}
330
C
100
AcDbDictionary
281
     1
  3
ByBlock
350
45
  3
ByLayer
350
44
  3
Global
350
46
  0
DICTIONARY
  5
6B
102
{ACAD_REACTORS
330
C
102
}
330
C
100
AcDbDictionary
281
     1
  3
Standard
350
6C
  0
DICTIONARY
  5
17
102
{ACAD_REACTORS
330
C
102
}
330
C
100
AcDbDictionary
281
     1
  3
Standard
350
18
  0
DICTIONARY
  5
19
102
{ACAD_REACTORS
330
C
102
}
330
C
100
AcDbDictionary
281
     1
  0
ACDBDICTIONARYWDFLT
  5
E
102
{ACAD_REACTORS
330
C
102
}
330
C
100
AcDbDictionary
281
     1
  3
Normal
350
F
100
AcDbDictionaryWithDefault
340
F
  0
DICTIONARY
  5
47
102
{ACAD_REACTORS
330
C
102
}
330
C
100
AcDbDictionary
281
     1
  3
A0
350
48
  3
A1
350
49
  3
A2
350
4A
  3
A3
350
4B
  3
A4
350
4C
  3
A5
350
4D
  3
A6
350
4E
  3
A7
350
4F
  3
A8
350
50
  3
A9
350
51
  3
B0
350
52
  3
B1
350
53
  3
B2
350
54
  3
B3
350
55
  3
B4
350
56
  3
B5
350
57
  3
B6
350
58
  3
B7
350
59
  3
B8
350
5A
  3
B9
350
5B
  3
C0
350
5C
  3
C1
350
5D
  3
C2
350
5E
  3
C3
350
5F
  3
C4
350
60
  3
C5
350
61
  3
C6
350
62
  3
C7
350
63
  3
C8
350
64
  3
C9
350
65
  3
D0
350
66
  3
D1
350
67
  3
D2
350
68
  0
DICTIONARY
  5
336
102
{ACAD_REACTORS
330
C
102
}
330
C
100
AcDbDictionary
281
     1
  0
DICTIONARY
  5
69
102
{ACAD_REACTORS
330
C
102
}
330
C
100
AcDbDictionary
281
     1
  3
Standard
350
6A
  0
DICTIONARY
  5
2A
102
{ACAD_REACTORS
330
C
102
}
330
C
100
AcDbDictionary
281
     1
  3
2dWireframe
350
2F
  3
Basic
350
32
  3
Brighten
350
36
  3
ColorChange
350
3A
  3
Conceptual
350
34
  3
Dim
350
35
  3
EdgeColorOff
350
3D
  3
Facepattern
350
39
  3
Flat
350
2B
  3
FlatWithEdges
350
2C
  3
Gouraud
350
2D
  3
GouraudWithEdges
350
2E
  3
Hidden
350
31
  3
JitterOff
350
3B
  3
Linepattern
350
38
  3
OverhangOff
350
3C
  3
Realistic
350
33
  3
Shaded
350
42
  3
Shaded with edges
350
41
  3
Shades of Gray
350
3E
  3
Sketchy
350
3F
  3
Thicken
350
37
  3
Wireframe
350
30
  3
X-Ray
350
40
  0
XRECORD
  5
332
102
{ACAD_REACTORS
330
C
102
}
330
C
100
AcDbXrecord
280
     1
 90
        1
330
6A
  0
DICTIONARY
  5
2F2
102
{ACAD_REACTORS
330
C
102
}
330
C
100
AcDbDictionary
281
     1
  3
CANNOSCALE
350
2F3
  3
CENTEREXE
350
337
  3
CENTERLTYPEFILE
350
338
  3
CMLEADERSTYLE
350
334
  3
CTABLESTYLE
350
333
  3
MSLTSCALE
350
2F4
  3
XCLIPFRAME
350
2F5
  0
XRECORD
  5
2F1
102
{ACAD_REACTORS
330
2F0
102
}
330
2F0
100
AcDbXrecord
280
     1
102
VTR_0.000_0.000_1.000_1.000_VISUALSTYLE
340
2F
102
VTR_0.000_0.000_1.000_1.000_GRIDDISPLAY
 70
     3
102
VTR_0.000_0.000_1.000_1.000_GRIDMAJOR
 70
     5
102
VTR_0.000_0.000_1.000_1.000_DEFAULTLIGHTING
280
     1
102
VTR_0.000_0.000_1.000_1.000_DEFAULTLIGHTINGTYPE
 70
     1
102
VTR_0.000_0.000_1.000_1.000_BRIGHTNESS
141
0.0
102
VTR_0.000_0.000_1.000_1.000_CONTRAST
142
0.0
  0
LAYOUT
  5
1E
102
{ACAD_REACTORS
330
1A
102
}
330
1A
100
AcDbPlotSettings
  1

  2
none_device
  4

  6

 40
0.0
 41
0.0
 42
0.0
 43
0.0
 44
0.0
 45
0.0
 46
0.0
 47
0.0
 48
0.0
 49
0.0
140
0.0
141
0.0
142
1.0
143
1.0
 70
   688
 72
     1
 73
     0
 74
     5
  7

 75
    16
 76
     0
 77
     5
 78
   300
147
1.0
148
0.0
149
0.0
100
AcDbLayout
  1
Layout1
 70
     1
 71
     1
 10
0.0
 20
0.0
 11
420.0
 21
297.0
 12
0.0
 22
0.0
 32
0.0
 14
1.000000000000000E+20
 24
1.000000000000000E+20
 34
1.000000000000000E+20
 15
-1.000000000000000E+20
 25
-1.000000000000000E+20
 35
-1.000000000000000E+20
146
0.0
 13
0.0
 23
0.0
 33
0.0
 16
1.0
 26
0.0
 36
0.0
 17
0.0
 27
1.0
 37
0.0
 76
     0
330
1B
  0
LAYOUT
  5
26
102
{ACAD_REACTORS
330
1A
102
}
330
1A
100
AcDbPlotSettings
  1

  2
none_device
  4

  6

 40
0.0
 41
0.0
 42
0.0
 43
0.0
 44
0.0
 45
0.0
 46
0.0
 47
0.0
 48
0.0
 49
0.0
140
0.0
141
0.0
142
1.0
143
1.0
 70
   688
 72
     1
 73
     0
 74
     5
  7

 75
    16
 76
     0
 77
     5
 78
   300
147
1.0
148
0.0
149
0.0
100
AcDbLayout
  1
Layout2
 70
     1
 71
     2
 10
0.0
 20
0.0
 11
0.0
 21
0.0
 12
0.0
 22
0.0
 32
0.0
 14
0.0
 24
0.0
 34
0.0
 15
0.0
 25
0.0
 35
0.0
146
0.0
 13
0.0
 23
0.0
 33
0.0
 16
1.0
 26
0.0
 36
0.0
 17
0.0
 27
1.0
 37
0.0
 76
     0
330
23
  0
LAYOUT
  5
22
102
{ACAD_REACTORS
330
1A
102
}
330
1A
100
AcDbPlotSettings
  1

  2
none_device
  4
Letter_(8.50_x_11.00_Inches)
  6

 40
6.35
 41
6.35
 42
6.35000508
 43
6.35000508
 44
215.9
 45
279.4
 46
0.0
 47
0.0
 48
0.0
 49
0.0
140
0.0
141
0.0
142
1.0
143
1.0
 70
  1712
 72
     1
 73
     0
 74
     0
  7

 75
     0
 76
     0
 77
     5
 78
   300
147
1.0
148
0.0
149
0.0
100
AcDbLayout
  1
Model
 70
     1
 71
     0
 10
-630.0
 20
-445.5
 11
630.0
 21
445.5
 12
0.0
 22
0.0
 32
0.0
 14
-630.0
 24
-445.5
 34
0.0
 15
630.0
 25
445.5
 35
0.0
146
0.0
 13
0.0
 23
0.0
 33
0.0
 16
1.0
 26
0.0
 36
0.0
 17
0.0
 27
1.0
 37
0.0
 76
     0
330
1F
331
29
  0
MATERIAL
  5
45
102
{ACAD_REACTORS
330
43
102
}
102
{ACAD_XDICTIONARY
360
328
102
}
330
43
100
AcDbMaterial
  1
ByBlock
  0
MATERIAL
  5
44
102
{ACAD_REACTORS
330
43
102
}
102
{ACAD_XDICTIONARY
360
326
102
}
330
43
100
AcDbMaterial
  1
ByLayer
  0
MATERIAL
  5
46
102
{ACAD_REACTORS
330
43
102
}
102
{ACAD_XDICTIONARY
360
32A
102
}
330
43
100
AcDbMaterial
  1
Global
  0
MLEADERSTYLE
  5
6C
102
{ACAD_REACTORS
330
6B
102
}
102
{ACAD_XDICTIONARY
360
330
102
}
330
6B
100
AcDbMLeaderStyle
170
     2
171
     1
172
     0
 90
        2
 40
0.0
 41
0.0
173
     1
 91
-1056964608
340
14
 92
       -2
290
     1
 42
2.0
291
     1
 43
8.0
  3
Standard
341
0
 44
4.0
300

342
11
174
     1
178
     6
175
     1
176
     0
 93
-1056964608
 45
4.0
292
     0
297
     0
 46
4.0
343
0
 94
-1056964608
 47
1.0
 49
1.0
140
1.0
293
     1
141
0.0
294
     1
177
     0
142
1.0
295
     0
296
     0
143
3.75
1001
ACAD_MLEADERVER
1070
     2
  0
MLINESTYLE
  5
18
102
{ACAD_REACTORS
330
17
102
}
330
17
100
AcDbMlineStyle
  2
Standard
 70
     0
  3

 62
   256
 51
90.0
 52
90.0
 71
     2
 49
0.5
 62
   256
  6
BYLAYER
 49
-0.5
 62
   256
  6
BYLAYER
  0
ACDBPLACEHOLDER
  5
F
102
{ACAD_REACTORS
330
E
102
}
330
E
  0
SCALE
  5
48
102
{ACAD_REACTORS
330
47
102
}
330
47
100
AcDbScale
 70
     0
300
1:1
140
1.0
141
1.0
290
     1
  0
SCALE
  5
49
102
{ACAD_REACTORS
330
47
102
}
330
47
100
AcDbScale
 70
     0
300
1:2
140
1.0
141
2.0
290
     0
  0
SCALE
  5
4A
102
{ACAD_REACTORS
330
47
102
}
330
47
100
AcDbScale
 70
     0
300
1:4
140
1.0
141
4.0
290
     0
  0
SCALE
  5
4B
102
{ACAD_REACTORS
330
47
102
}
330
47
100
AcDbScale
 70
     0
300
1:5
140
1.0
141
5.0
290
     0
  0
SCALE
  5
4C
102
{ACAD_REACTORS
330
47
102
}
330
47
100
AcDbScale
 70
     0
300
1:8
140
1.0
141
8.0
290
     0
  0
SCALE
  5
4D
102
{ACAD_REACTORS
330
47
102
}
330
47
100
AcDbScale
 70
     0
300
1:10
140
1.0
141
10.0
290
     0
  0
SCALE
  5
4E
102
{ACAD_REACTORS
330
47
102
}
330
47
100
AcDbScale
 70
     0
300
1:16
140
1.0
141
16.0
290
     0
  0
SCALE
  5
4F
102
{ACAD_REACTORS
330
47
102
}
330
47
100
AcDbScale
 70
     0
300
1:20
140
1.0
141
20.0
290
     0
  0
SCALE
  5
50
102
{ACAD_REACTORS
330
47
102
}
330
47
100
AcDbScale
 70
     0
300
1:30
140
1.0
141
30.0
290
     0
  0
SCALE
  5
51
102
{ACAD_REACTORS
330
47
102
}
330
47
100
AcDbScale
 70
     0
300
1:40
140
1.0
141
40.0
290
     0
  0
SCALE
  5
52
102
{ACAD_REACTORS
330
47
102
}
330
47
100
AcDbScale
 70
     0
300
1:50
140
1.0
141
50.0
290
     0
  0
SCALE
  5
53
102
{ACAD_REACTORS
330
47
102
}
330
47
100
AcDbScale
 70
     0
300
1:100
140
1.0
141
100.0
290
     0
  0
SCALE
  5
54
102
{ACAD_REACTORS
330
47
102
}
330
47
100
AcDbScale
 70
     0
300
2:1
140
2.0
141
1.0
290
     0
  0
SCALE
  5
55
102
{ACAD_REACTORS
330
47
102
}
330
47
100
AcDbScale
 70
     0
300
4:1
140
4.0
141
1.0
290
     0
  0
SCALE
  5
56
102
{ACAD_REACTORS
330
47
102
}
330
47
100
AcDbScale
 70
     0
300
8:1
140
8.0
141
1.0
290
     0
  0
SCALE
  5
57
102
{ACAD_REACTORS
330
47
102
}
330
47
100
AcDbScale
 70
     0
300
10:1
140
10.0
141
1.0
290
     0
  0
SCALE
  5
58
102
{ACAD_REACTORS
330
47
102
}
330
47
100
AcDbScale
 70
     0
300
100:1
140
100.0
141
1.0
290
     0
  0
SCALE
  5
59
102
{ACAD_REACTORS
330
47
102
}
330
47
100
AcDbScale
 70
     0
300
1/128" = 1'-0"
140
0.0078125
141
12.0
290
     0
  0
SCALE
  5
5A
102
{ACAD_REACTORS
330
47
102
}
330
47
100
AcDbScale
 70
     0
300
1/64" = 1'-0"
140
0.015625
141
12.0
290
     0
  0
SCALE
  5
5B
102
{ACAD_REACTORS
330
47
102
}
330
47
100
AcDbScale
 70
     0
300
1/32" = 1'-0"
140
0.03125
141
12.0
290
     0
  0
SCALE
  5
5C
102
{ACAD_REACTORS
330
47
102
}
330
47
100
AcDbScale
 70
     0
300
1/16" = 1'-0"
140
0.0625
141
12.0
290
     0
  0
SCALE
  5
5D
102
{ACAD_REACTORS
330
47
102
}
330
47
100
AcDbScale
 70
     0
300
3/32" = 1'-0"
140
0.09375
141
12.0
290
     0
  0
SCALE
  5
5E
102
{ACAD_REACTORS
330
47
102
}
330
47
100
AcDbScale
 70
     0
300
1/8" = 1'-0"
140
0.125
141
12.0
290
     0
  0
SCALE
  5
5F
102
{ACAD_REACTORS
330
47
102
}
330
47
100
AcDbScale
 70
     0
300
3/16" = 1'-0"
140
0.1875
141
12.0
290
     0
  0
SCALE
  5
60
102
{ACAD_REACTORS
330
47
102
}
330
47
100
AcDbScale
 70
     0
300
1/4" = 1'-0"
140
0.25
141
12.0
290
     0
  0
SCALE
  5
61
102
{ACAD_REACTORS
330
47
102
}
330
47
100
AcDbScale
 70
     0
300
3/8" = 1'-0"
140
0.375
141
12.0
290
     0
  0
SCALE
  5
62
102
{ACAD_REACTORS
330
47
102
}
330
47
100
AcDbScale
 70
     0
300
1/2" = 1'-0"
140
0.5
141
12.0
290
     0
  0
SCALE
  5
63
102
{ACAD_REACTORS
330
47
102
}
330
47
100
AcDbScale
 70
     0
300
3/4" = 1'-0"
140
0.75
141
12.0
290
     0
  0
SCALE
  5
64
102
{ACAD_REACTORS
330
47
102
}
330
47
100
AcDbScale
 70
     0
300
1" = 1'-0"
140
1.0
141
12.0
290
     0
  0
SCALE
  5
65
102
{ACAD_REACTORS
330
47
102
}
330
47
100
AcDbScale
 70
     0
300
1-1/2" = 1'-0"
140
1.5
141
12.0
290
     0
  0
SCALE
  5
66
102
{ACAD_REACTORS
330
47
102
}
330
47
100
AcDbScale
 70
     0
300
3" = 1'-0"
140
3.0
141
12.0
290
     0
  0
SCALE
  5
67
102
{ACAD_REACTORS
330
47
102
}
330
47
100
AcDbScale
 70
     0
300
6" = 1'-0"
140
6.0
141
12.0
290
     0
  0
SCALE
  5
68
102
{ACAD_REACTORS
330
47
102
}
330
47
100
AcDbScale
 70
     0
300
1'-0" = 1'-0"
140
12.0
141
12.0
290
     0
  0
TABLESTYLE
  5
6A
102
{ACAD_REACTORS
330
69
102
}
102
{ACAD_XDICTIONARY
360
32C
102
}
330
69
100
AcDbTableStyle
  3
Standard
 70
     0
 71
     0
 40
0.06
 41
0.06
280
     0
281
     0
  7
Standard
140
4.5
170
     2
 62
     0
 63
   257
283
     0
274
    -2
284
     1
 64
     0
275
    -2
285
     1
 65
     0
276
    -2
286
     1
 66
     0
277
    -2
287
     1
 67
     0
278
    -2
288
     1
 68
     0
279
    -2
289
     1
 69
     0
  7
Standard
140
6.0
170
     5
 62
     0
 63
   257
283
     0
274
    -2
284
     1
 64
     0
275
    -2
285
     1
 65
     0
276
    -2
286
     1
 66
     0
277
    -2
287
     1
 67
     0
278
    -2
288
     1
 68
     0
279
    -2
289
     1
 69
     0
  7
Standard
140
4.5
170
     5
 62
     0
 63
   257
283
     0
274
    -2
284
     1
 64
     0
275
    -2
285
     1
 65
     0
276
    -2
286
     1
 66
     0
277
    -2
287
     1
 67
     0
278
    -2
288
     1
 68
     0
279
    -2
289
     1
 69
     0
  0
VISUALSTYLE
  5
2F
102
{ACAD_REACTORS
330
2A
102
}
102
{ACAD_XDICTIONARY
360
2FE
102
}
330
2A
100
AcDbVisualStyle
  2
2dWireframe
 70
     4
 71
     0
 72
     2
 73
     0
 90
        0
 40
0.6
 41
30.0
 62
     5
 63
     7
421
 16777215
 74
     1
 91
        4
 64
     7
 65
   257
 75
     1
175
     1
 42
1.0
 92
        0
 66
   257
 43
1.0
 76
     1
 77
     6
 78
     2
 67
     7
 79
     5
170
     0
171
     0
290
     0
174
     0
 93
        1
 44
0.0
173
     0
291
     0
 45
0.0
1001
ACAD
1000
AcDbSavedByObjectVersion
1070
     0
  0
VISUALSTYLE
  5
32
102
{ACAD_REACTORS
330
2A
102
}
102
{ACAD_XDICTIONARY
360
304
102
}
330
2A
100
AcDbVisualStyle
  2
Basic
 70
     7
 71
     1
 72
     0
 73
     1
 90
        0
 40
0.6
 41
30.0
 62
     5
 63
     7
421
 16777215
 74
     0
 91
        4
 64
     7
 65
   257
 75
     1
175
     1
 42
1.0
 92
        8
 66
     7
 43
1.0
 76
     1
 77
     6
 78
     2
 67
     7
 79
     5
170
     0
171
     0
290
     0
174
     0
 93
        1
 44
0.0
173
     0
291
     1
 45
0.0
1001
ACAD
1000
AcDbSavedByObjectVersion
1070
     0
  0
VISUALSTYLE
  5
36
102
{ACAD_REACTORS
330
2A
102
}
102
{ACAD_XDICTIONARY
360
30C
102
}
330
2A
100
AcDbVisualStyle
  2
Brighten
 70
    12
 71
     2
 72
     2
 73
     0
 90
        0
 40
0.6
 41
30.0
 62
     5
 63
     7
421
 16777215
 74
     1
 91
        4
 64
     7
 65
   257
 75
     1
175
     1
 42
1.0
 92
        8
 66
     7
 43
1.0
 76
     1
 77
     6
 78
     2
 67
     7
 79
     5
170
     0
171
     0
290
     0
174
     0
 93
        1
 44
50.0
173
     0
291
     1
 45
0.0
1001
ACAD
1000
AcDbSavedByObjectVersion
1070
     0
  0
VISUALSTYLE
  5
3A
102
{ACAD_REACTORS
330
2A
102
}
102
{ACAD_XDICTIONARY
360
314
102
}
330
2A
100
AcDbVisualStyle
  2
ColorChange
 70
    16
 71
     2
 72
     2
 73
     3
 90
        0
 40
0.6
 41
30.0
 62
     5
 63
     8
421
  8421504
 74
     1
 91
        4
 64
     7
 65
   257
 75
     1
175
     1
 42
1.0
 92
        8
 66
     8
424
  8421504
 43
1.0
 76
     1
 77
     6
 78
     2
 67
     7
 79
     5
170
     0
171
     0
290
     0
174
     0
 93
        1
 44
0.0
173
     0
291
     1
 45
0.0
1001
ACAD
1000
AcDbSavedByObjectVersion
1070
     0
  0
VISUALSTYLE
  5
34
102
{ACAD_REACTORS
330
2A
102
}
102
{ACAD_XDICTIONARY
360
308
102
}
330
2A
100
AcDbVisualStyle
  2
Conceptual
 70
     9
 71
     3
 72
     2
 73
     0
 90
        0
 40
0.6
 41
30.0
 62
     5
 63
     7
421
 16777215
 74
     2
 91
        2
 64
     7
 65
   257
 75
     1
175
     1
 42
179.0
 92
        8
 66
     7
 43
1.0
 76
     1
 77
     6
 78
     2
 67
     7
 79
     3
170
     0
171
     0
290
     0
174
     0
 93
        1
 44
0.0
173
     0
291
     0
 45
0.0
1001
ACAD
1000
AcDbSavedByObjectVersion
1070
     0
  0
VISUALSTYLE
  5
35
102
{ACAD_REACTORS
330
2A
102
}
102
{ACAD_XDICTIONARY
360
30A
102
}
330
2A
100
AcDbVisualStyle
  2
Dim
 70
    11
 71
     2
 72
     2
 73
     0
 90
        0
 40
0.6
 41
30.0
 62
     5
 63
     7
421
 16777215
 74
     1
 91
        4
 64
     7
 65
   257
 75
     1
175
     1
 42
1.0
 92
        8
 66
     7
 43
1.0
 76
     1
 77
     6
 78
     2
 67
     7
 79
     5
170
     0
171
     0
290
     0
174
     0
 93
        1
 44
-50.0
173
     0
291
     1
 45
0.0
1001
ACAD
1000
AcDbSavedByObjectVersion
1070
     0
  0
VISUALSTYLE
  5
3D
102
{ACAD_REACTORS
330
2A
102
}
102
{ACAD_XDICTIONARY
360
31A
102
}
330
2A
100
AcDbVisualStyle
  2
EdgeColorOff
 70
    22
 71
     2
 72
     2
 73
     0
 90
        0
 40
0.6
 41
30.0
 62
     5
 63
     7
421
 16777215
 74
     1
 91
        4
 64
     7
 65
   257
 75
     1
175
     1
 42
1.0
 92
        8
 66
     7
 43
1.0
 76
     1
 77
     6
 78
     2
 67
     7
 79
     5
170
     0
171
     0
290
     0
174
     0
 93
        1
 44
0.0
173
     0
291
     1
 45
0.0
1001
ACAD
1000
AcDbSavedByObjectVersion
1070
     0
  0
VISUALSTYLE
  5
39
102
{ACAD_REACTORS
330
2A
102
}
102
{ACAD_XDICTIONARY
360
312
102
}
330
2A
100
AcDbVisualStyle
  2
Facepattern
 70
    15
 71
     2
 72
     2
 73
     0
 90
        0
 40
0.6
 41
30.0
 62
     5
 63
     7
421
 16777215
 74
     1
 91
        4
 64
     7
 65
   257
 75
     1
175
     1
 42
1.0
 92
        8
 66
     7
 43
1.0
 76
     1
 77
     6
 78
     2
 67
     7
 79
     5
170
     0
171
     0
290
     0
174
     0
 93
        1
 44
0.0
173
     0
291
     1
 45
0.0
1001
ACAD
1000
AcDbSavedByObjectVersion
1070
     0
  0
VISUALSTYLE
  5
2B
102
{ACAD_REACTORS
330
2A
102
}
102
{ACAD_XDICTIONARY
360
2F6
102
}
330
2A
100
AcDbVisualStyle
  2
Flat
 70
     0
 71
     2
 72
     1
 73
     1
 90
        2
 40
0.6
 41
30.0
 62
     5
 63
     7
421
 16777215
 74
     0
 91
        0
 64
     7
 65
   257
 75
     1
175
     1
 42
1.0
 92
        8
 66
     7
 43
1.0
 76
     1
 77
     6
 78
     2
 67
     7
 79
     5
170
     0
171
     0
290
     0
174
     0
 93
       13
 44
0.0
173
     0
291
     1
 45
0.0
1001
ACAD
1000
AcDbSavedByObjectVersion
1070
     0
  0
VISUALSTYLE
  5
2C
102
{ACAD_REACTORS
330
2A
102
}
102
{ACAD_XDICTIONARY
360
2F8
102
}
330
2A
100
AcDbVisualStyle
  2
FlatWithEdges
 70
     1
 71
     2
 72
     1
 73
     1
 90
        2
 40
0.6
 41
30.0
 62
     5
 63
     7
421
 16777215
 74
     1
 91
        0
 64
     7
 65
   257
 75
     1
175
     1
 42
1.0
 92
        0
 66
   257
 43
1.0
 76
     1
 77
     6
 78
     2
 67
     7
 79
     5
170
     0
171
     0
290
     0
174
     0
 93
       13
 44
0.0
173
     0
291
     1
 45
0.0
1001
ACAD
1000
AcDbSavedByObjectVersion
1070
     0
  0
VISUALSTYLE
  5
2D
102
{ACAD_REACTORS
330
2A
102
}
102
{ACAD_XDICTIONARY
360
2FA
102
}
330
2A
100
AcDbVisualStyle
  2
Gouraud
 70
     2
 71
     2
 72
     2
 73
     1
 90
        2
 40
0.6
 41
30.0
 62
     5
 63
     7
421
 16777215
 74
     0
 91
        0
 64
     7
 65
   257
 75
     1
175
     1
 42
1.0
 92
        0
 66
     7
 43
1.0
 76
     1
 77
     6
 78
     2
 67
     7
 79
     5
170
     0
171
     0
290
     0
174
     0
 93
       13
 44
0.0
173
     0
291
     1
 45
0.0
1001
ACAD
1000
AcDbSavedByObjectVersion
1070
     0
  0
VISUALSTYLE
  5
2E
102
{ACAD_REACTORS
330
2A
102
}
102
{ACAD_XDICTIONARY
360
2FC
102
}
330
2A
100
AcDbVisualStyle
  2
GouraudWithEdges
 70
     3
 71
     2
 72
     2
 73
     1
 90
        2
 40
0.6
 41
30.0
 62
     5
 63
     7
421
 16777215
 74
     1
 91
        0
 64
     7
 65
   257
 75
     1
175
     1
 42
1.0
 92
        0
 66
   257
 43
1.0
 76
     1
 77
     6
 78
     2
 67
     7
 79
     5
170
     0
171
     0
290
     0
174
     0
 93
       13
 44
0.0
173
     0
291
     1
 45
0.0
1001
ACAD
1000
AcDbSavedByObjectVersion
1070
     0
  0
VISUALSTYLE
  5
31
102
{ACAD_REACTORS
330
2A
102
}
102
{ACAD_XDICTIONARY
360
302
102
}
330
2A
100
AcDbVisualStyle
  2
Hidden
 70
     6
 71
     1
 72
     2
 73
     2
 90
        0
 40
0.6
 41
30.0
 62
     5
 63
     7
421
 16777215
 74
     2
 91
        2
 64
     7
 65
   257
 75
     2
175
     1
 42
40.0
 92
        0
 66
   257
 43
1.0
 76
     1
 77
     6
 78
     2
 67
     7
 79
     3
170
     0
171
     0
290
     0
174
     0
 93
        1
 44
0.0
173
     0
291
     0
 45
0.0
1001
ACAD
1000
AcDbSavedByObjectVersion
1070
     0
  0
VISUALSTYLE
  5
3B
102
{ACAD_REACTORS
330
2A
102
}
102
{ACAD_XDICTIONARY
360
316
102
}
330
2A
100
AcDbVisualStyle
  2
JitterOff
 70
    20
 71
     2
 72
     2
 73
     0
 90
        0
 40
0.6
 41
30.0
 62
     5
 63
     7
421
 16777215
 74
     1
 91
        4
 64
     7
 65
   257
 75
     1
175
     1
 42
1.0
 92
       10
 66
     7
 43
1.0
 76
     1
 77
     6
 78
     2
 67
     7
 79
     5
170
     0
171
     0
290
     0
174
     0
 93
        1
 44
0.0
173
     0
291
     1
 45
0.0
1001
ACAD
1000
AcDbSavedByObjectVersion
1070
     0
  0
VISUALSTYLE
  5
38
102
{ACAD_REACTORS
330
2A
102
}
102
{ACAD_XDICTIONARY
360
310
102
}
330
2A
100
AcDbVisualStyle
  2
Linepattern
 70
    14
 71
     2
 72
     2
 73
     0
 90
        0
 40
0.6
 41
30.0
 62
     5
 63
     7
421
 16777215
 74
     1
 91
        4
 64
     7
 65
   257
 75
     7
175
     7
 42
1.0
 92
        8
 66
     7
 43
1.0
 76
     1
 77
     6
 78
     2
 67
     7
 79
     5
170
     0
171
     0
290
     0
174
     0
 93
        1
 44
0.0
173
     0
291
     1
 45
0.0
1001
ACAD
1000
AcDbSavedByObjectVersion
1070
     0
  0
VISUALSTYLE
  5
3C
102
{ACAD_REACTORS
330
2A
102
}
102
{ACAD_XDICTIONARY
360
318
102
}
330
2A
100
AcDbVisualStyle
  2
OverhangOff
 70
    21
 71
     2
 72
     2
 73
     0
 90
        0
 40
0.6
 41
30.0
 62
     5
 63
     7
421
 16777215
 74
     1
 91
        4
 64
     7
 65
   257
 75
     1
175
     1
 42
1.0
 92
        9
 66
     7
 43
1.0
 76
     1
 77
     6
 78
     2
 67
     7
 79
     5
170
     0
171
     0
290
     0
174
     0
 93
        1
 44
0.0
173
     0
291
     1
 45
0.0
1001
ACAD
1000
AcDbSavedByObjectVersion
1070
     0
  0
VISUALSTYLE
  5
33
102
{ACAD_REACTORS
330
2A
102
}
102
{ACAD_XDICTIONARY
360
306
102
}
330
2A
100
AcDbVisualStyle
  2
Realistic
 70
     8
 71
     2
 72
     3
 73
     0
 90
        2
 40
0.6
 41
30.0
 62
     5
 63
     7
421
 16777215
 74
     0
 91
        0
 64
     7
 65
   257
 75
     1
175
     1
 42
1.0
 92
        8
 66
   257
 43
1.0
 76
     1
 77
     6
 78
     2
 67
     7
 79
     3
170
     0
171
     0
290
     0
174
     0
 93
       13
 44
0.0
173
     0
291
     0
 45
0.0
1001
ACAD
1000
AcDbSavedByObjectVersion
1070
     0
  0
VISUALSTYLE
  5
42
102
{ACAD_REACTORS
330
2A
102
}
102
{ACAD_XDICTIONARY
360
324
102
}
330
2A
100
AcDbVisualStyle
  2
Shaded
 70
    27
 71
     2
 72
     2
 73
     1
 90
        2
 40
0.6
 41
30.0
 62
     5
 63
     7
421
 16777215
 74
     0
 91
        4
 64
     7
 65
   257
 75
     1
175
     1
 42
1.0
 92
        8
 66
   257
 43
1.0
 76
     1
 77
     6
 78
     2
 67
     8
425
  7895160
 79
     3
170
     0
171
     0
290
     0
174
     0
 93
        5
 44
0.0
173
     0
291
     0
 45
0.0
1001
ACAD
1000
AcDbSavedByObjectVersion
1070
     0
  0
VISUALSTYLE
  5
41
102
{ACAD_REACTORS
330
2A
102
}
102
{ACAD_XDICTIONARY
360
322
102
}
330
2A
100
AcDbVisualStyle
  2
Shaded with edges
 70
    26
 71
     2
 72
     2
 73
     1
 90
        2
 40
0.6
 41
30.0
 62
     5
 63
     7
421
 16777215
 74
     1
 91
       10
 64
     7
 65
   257
 75
     2
175
     1
 42
1.0
 92
        8
 66
   257
 43
1.0
 76
     1
 77
     6
 78
     2
 67
     7
 79
     3
170
     0
171
     0
290
     0
174
     0
 93
        5
 44
0.0
173
     0
291
     0
 45
0.0
1001
ACAD
1000
AcDbSavedByObjectVersion
1070
     0
  0
VISUALSTYLE
  5
3E
102
{ACAD_REACTORS
330
2A
102
}
102
{ACAD_XDICTIONARY
360
31C
102
}
330
2A
100
AcDbVisualStyle
  2
Shades of Gray
 70
    23
 71
     2
 72
     2
 73
     3
 90
        0
 40
0.6
 41
30.0
 62
     5
 63
     7
421
 16777215
 74
     2
 91
        2
 64
     7
 65
     7
 75
     1
175
     1
 42
40.0
 92
        8
 66
     7
 43
1.0
 76
     1
 77
     6
 78
     2
 67
     7
 79
     3
170
     0
171
     0
290
     0
174
     0
 93
        1
 44
0.0
173
     0
291
     0
 45
0.0
1001
ACAD
1000
AcDbSavedByObjectVersion
1070
     0
  0
VISUALSTYLE
  5
3F
102
{ACAD_REACTORS
330
2A
102
}
102
{ACAD_XDICTIONARY
360
31E
102
}
330
2A
100
AcDbVisualStyle
  2
Sketchy
 70
    24
 71
     1
 72
     2
 73
     2
 90
        0
 40
0.6
 41
30.0
 62
     5
 63
     7
421
 16777215
 74
     2
 91
        2
 64
     7
 65
     7
 75
     1
175
     1
 42
40.0
 92
       11
 66
     7
 43
1.0
 76
     1
 77
     6
 78
     2
 67
     7
 79
     6
170
     0
171
     0
290
     0
174
     0
 93
        1
 44
0.0
173
     0
291
     0
 45
0.0
1001
ACAD
1000
AcDbSavedByObjectVersion
1070
     0
  0
VISUALSTYLE
  5
37
102
{ACAD_REACTORS
330
2A
102
}
102
{ACAD_XDICTIONARY
360
30E
102
}
330
2A
100
AcDbVisualStyle
  2
Thicken
 70
    13
 71
     2
 72
     2
 73
     0
 90
        0
 40
0.6
 41
30.0
 62
     5
 63
     7
421
 16777215
 74
     1
 91
        4
 64
     7
 65
   257
 75
     1
175
     1
 42
1.0
 92
       12
 66
     7
 43
1.0
 76
     1
 77
     6
 78
     2
 67
     7
 79
     5
170
     0
171
     0
290
     0
174
     0
 93
        1
 44
0.0
173
     0
291
     1
 45
0.0
1001
ACAD
1000
AcDbSavedByObjectVersion
1070
     0
  0
VISUALSTYLE
  5
30
102
{ACAD_REACTORS
330
2A
102
}
102
{ACAD_XDICTIONARY
360
300
102
}
330
2A
100
AcDbVisualStyle
  2
Wireframe
 70
     5
 71
     0
 72
     2
 73
     0
 90
        0
 40
0.6
 41
30.0
 62
     5
 63
     7
421
 16777215
 74
     1
 91
        4
 64
     7
 65
   257
 75
     1
175
     1
 42
1.0
 92
        0
 66
   257
 43
1.0
 76
     1
 77
     6
 78
     2
 67
     7
 79
     3
170
     0
171
     0
290
     0
174
     0
 93
        1
 44
0.0
173
     0
291
     0
 45
0.0
1001
ACAD
1000
AcDbSavedByObjectVersion
1070
     0
  0
VISUALSTYLE
  5
40
102
{ACAD_REACTORS
330
2A
102
}
102
{ACAD_XDICTIONARY
360
320
102
}
330
2A
100
AcDbVisualStyle
  2
X-Ray
 70
    25
 71
     2
 72
     2
 73
     1
 90
        1
 40
0.5
 41
30.0
 62
     5
 63
     7
421
 16777215
 74
     1
 91
        0
 64
     7
 65
   257
 75
     1
175
     1
 42
1.0
 92
        8
 66
     7
 43
1.0
 76
     1
 77
     6
 78
     2
 67
     7
 79
     3
170
     0
171
     0
290
     0
174
     0
 93
       13
 44
0.0
173
     0
291
     0
 45
0.0
1001
ACAD
1000
AcDbSavedByObjectVersion
1070
     0
  0
DICTIONARYVAR
  5
2F3
102
{ACAD_REACTORS
330
2F2
102
}
330
2F2
100
DictionaryVariables
280
     0
  1
1:1
  0
DICTIONARYVAR
  5
337
102
{ACAD_REACTORS
330
2F2
102
}
330
2F2
100
DictionaryVariables
280
     0
  1
3.500000
  0
DICTIONARYVAR
  5
338
102
{ACAD_REACTORS
330
2F2
102
}
330
2F2
100
DictionaryVariables
280
     0
  1
acadiso.lin
  0
DICTIONARYVAR
  5
334
102
{ACAD_REACTORS
330
2F2
102
}
330
2F2
100
DictionaryVariables
280
     0
  1
Standard
  0
DICTIONARYVAR
  5
333
102
{ACAD_REACTORS
330
2F2
102
}
330
2F2
100
DictionaryVariables
280
     0
  1
Standard
  0
DICTIONARYVAR
  5
2F4
102
{ACAD_REACTORS
330
2F2
102
}
330
2F2
100
DictionaryVariables
280
     0
  1
1
  0
DICTIONARYVAR
  5
2F5
102
{ACAD_REACTORS
330
2F2
102
}
330
2F2
100
DictionaryVariables
280
     0
  1
2
  0
DICTIONARY
  5
328
330
45
100
AcDbDictionary
280
     1
281
     1
  3
ACAD_XREC_ROUNDTRIP
360
329
  0
DICTIONARY
  5
326
330
44
100
AcDbDictionary
280
     1
281
     1
  3
ACAD_XREC_ROUNDTRIP
360
327
  0
DICTIONARY
  5
32A
330
46
100
AcDbDictionary
280
     1
281
     1
  3
ACAD_XREC_ROUNDTRIP
360
32B
  0
DICTIONARY
  5
330
330
6C
100
AcDbDictionary
280
     1
281
     1
  3
ACAD_XREC_ROUNDTRIP
360
331
  0
DICTIONARY
  5
32C
330
6A
100
AcDbDictionary
280
     1
281
     1
  3
ACAD_ROUNDTRIP_2008_TABLESTYLE_CELLSTYLEMAP
360
32E
  3
ACAD_XREC_ROUNDTRIP
360
32D
  0
DICTIONARY
  5
2FE
330
2F
100
AcDbDictionary
280
     1
281
     1
  3
ACAD_XREC_ROUNDTRIP
360
2FF
  0
DICTIONARY
  5
304
330
32
100
AcDbDictionary
280
     1
281
     1
  3
ACAD_XREC_ROUNDTRIP
360
305
  0
DICTIONARY
  5
30C
330
36
100
AcDbDictionary
280
     1
281
     1
  3
ACAD_XREC_ROUNDTRIP
360
30D
  0
DICTIONARY
  5
314
330
3A
100
AcDbDictionary
280
     1
281
     1
  3
ACAD_XREC_ROUNDTRIP
360
315
  0
DICTIONARY
  5
308
330
34
100
AcDbDictionary
280
     1
281
     1
  3
ACAD_XREC_ROUNDTRIP
360
309
  0
DICTIONARY
  5
30A
330
35
100
AcDbDictionary
280
     1
281
     1
  3
ACAD_XREC_ROUNDTRIP
360
30B
  0
DICTIONARY
  5
31A
330
3D
100
AcDbDictionary
280
     1
281
     1
  3
ACAD_XREC_ROUNDTRIP
360
31B
  0
DICTIONARY
  5
312
330
39
100
AcDbDictionary
280
     1
281
     1
  3
ACAD_XREC_ROUNDTRIP
360
313
  0
DICTIONARY
  5
2F6
330
2B
100
AcDbDictionary
280
     1
281
     1
  3
ACAD_XREC_ROUNDTRIP
360
2F7
  0
DICTIONARY
  5
2F8
330
2C
100
AcDbDictionary
280
     1
281
     1
  3
ACAD_XREC_ROUNDTRIP
360
2F9
  0
DICTIONARY
  5
2FA
330
2D
100
AcDbDictionary
280
     1
281
     1
  3
ACAD_XREC_ROUNDTRIP
360
2FB
  0
DICTIONARY
  5
2FC
330
2E
100
AcDbDictionary
280
     1
281
     1
  3
ACAD_XREC_ROUNDTRIP
360
2FD
  0
DICTIONARY
  5
302
330
31
100
AcDbDictionary
280
     1
281
     1
  3
ACAD_XREC_ROUNDTRIP
360
303
  0
DICTIONARY
  5
316
330
3B
100
AcDbDictionary
280
     1
281
     1
  3
ACAD_XREC_ROUNDTRIP
360
317
  0
DICTIONARY
  5
310
330
38
100
AcDbDictionary
280
     1
281
     1
  3
ACAD_XREC_ROUNDTRIP
360
311
  0
DICTIONARY
  5
318
330
3C
100
AcDbDictionary
280
     1
281
     1
  3
ACAD_XREC_ROUNDTRIP
360
319
  0
DICTIONARY
  5
306
330
33
100
AcDbDictionary
280
     1
281
     1
  3
ACAD_XREC_ROUNDTRIP
360
307
  0
DICTIONARY
  5
324
330
42
100
AcDbDictionary
280
     1
281
     1
  3
ACAD_XREC_ROUNDTRIP
360
325
  0
DICTIONARY
  5
322
330
41
100
AcDbDictionary
280
     1
281
     1
  3
ACAD_XREC_ROUNDTRIP
360
323
  0
DICTIONARY
  5
31C
330
3E
100
AcDbDictionary
280
     1
281
     1
  3
ACAD_XREC_ROUNDTRIP
360
31D
  0
DICTIONARY
  5
31E
330
3F
100
AcDbDictionary
280
     1
281
     1
  3
ACAD_XREC_ROUNDTRIP
360
31F
  0
DICTIONARY
  5
30E
330
37
100
AcDbDictionary
280
     1
281
     1
  3
ACAD_XREC_ROUNDTRIP
360
30F
  0
DICTIONARY
  5
300
330
30
100
AcDbDictionary
280
     1
281
     1
  3
ACAD_XREC_ROUNDTRIP
360
301
  0
DICTIONARY
  5
320
330
40
100
AcDbDictionary
280
     1
281
     1
  3
ACAD_XREC_ROUNDTRIP
360
321
  0
XRECORD
  5
329
102
{ACAD_REACTORS
330
328
102
}
330
328
100
AcDbXrecord
280
     1
102
MATERIAL
148
0.0
149
0.0
149
0.0
 93
        0
 94
      127
282
     0
 72
     1
 77
     1
171
     1
175
     1
179
     1
273
     0
  0
XRECORD
  5
327
102
{ACAD_REACTORS
330
326
102
}
330
326
100
AcDbXrecord
280
     1
102
MATERIAL
148
0.0
149
0.0
149
0.0
 93
        0
 94
      127
282
     0
 72
     1
 77
     1
171
     1
175
     1
179
     1
273
     0
  0
XRECORD
  5
32B
102
{ACAD_REACTORS
330
32A
102
}
330
32A
100
AcDbXrecord
280
     1
102
MATERIAL
148
0.0
149
0.0
149
0.0
 93
        0
 94
      127
282
     0
 72
     1
 77
     1
171
     1
175
     1
179
     1
273
     0
  0
XRECORD
  5
331
102
{ACAD_REACTORS
330
330
102
}
330
330
100
AcDbXrecord
280
     1
102
ACAD_ROUNDTRIP_2010_MLEADER_STYLE
  0
CELLSTYLEMAP
  5
32E
102
{ACAD_REACTORS
330
32C
102
}
330
32C
100
AcDbCellStyleMap
 90
        3
300
CELLSTYLE
  1
TABLEFORMAT_BEGIN
 90
        5
170
     1
 91
        0
 92
    32768
 62
   257
 93
        1
300
CONTENTFORMAT
  1
CONTENTFORMAT_BEGIN
 90
        0
 91
        0
 92
        4
 93
        0
300

 40
0.0
140
1.0
 94
        5
 62
     0
340
11
144
6.0
309
CONTENTFORMAT_END
171
     1
301
MARGIN
  1
CELLMARGIN_BEGIN
 40
1.5
 40
1.5
 40
1.5
 40
1.5
 40
1.5
 40
1.5
309
CELLMARGIN_END
 94
        6
 95
        1
302
GRIDFORMAT
  1
GRIDFORMAT_BEGIN
 90
        0
 91
        1
 62
     0
 92
       -2
340
14
 93
        0
 40
0.045
309
GRIDFORMAT_END
 95
        2
302
GRIDFORMAT
  1
GRIDFORMAT_BEGIN
 90
        0
 91
        1
 62
     0
 92
       -2
340
14
 93
        0
 40
0.045
309
GRIDFORMAT_END
 95
        4
302
GRIDFORMAT
  1
GRIDFORMAT_BEGIN
 90
        0
 91
        1
 62
     0
 92
       -2
340
14
 93
        0
 40
0.045
309
GRIDFORMAT_END
 95
        8
302
GRIDFORMAT
  1
GRIDFORMAT_BEGIN
 90
        0
 91
        1
 62
     0
 92
       -2
340
14
 93
        0
 40
0.045
309
GRIDFORMAT_END
 95
       16
302
GRIDFORMAT
  1
GRIDFORMAT_BEGIN
 90
        0
 91
        1
 62
     0
 92
       -2
340
14
 93
        0
 40
0.045
309
GRIDFORMAT_END
 95
       32
302
GRIDFORMAT
  1
GRIDFORMAT_BEGIN
 90
        0
 91
        1
 62
     0
 92
       -2
340
14
 93
        0
 40
0.045
309
GRIDFORMAT_END
309
TABLEFORMAT_END
  1
CELLSTYLE_BEGIN
 90
        1
 91
        1
300
_TITLE
309
CELLSTYLE_END
300
CELLSTYLE
  1
TABLEFORMAT_BEGIN
 90
        5
170
     1
 91
        0
 92
        0
 62
   257
 93
        1
300
CONTENTFORMAT
  1
CONTENTFORMAT_BEGIN
 90
        0
 91
        0
 92
        4
 93
        0
300

 40
0.0
140
1.0
 94
        5
 62
     0
340
11
144
4.5
309
CONTENTFORMAT_END
171
     1
301
MARGIN
  1
CELLMARGIN_BEGIN
 40
1.5
 40
1.5
 40
1.5
 40
1.5
 40
1.5
 40
1.5
309
CELLMARGIN_END
 94
        6
 95
        1
302
GRIDFORMAT
  1
GRIDFORMAT_BEGIN
 90
        0
 91
        1
 62
     0
 92
       -2
340
14
 93
        0
 40
0.045
309
GRIDFORMAT_END
 95
        2
302
GRIDFORMAT
  1
GRIDFORMAT_BEGIN
 90
        0
 91
        1
 62
     0
 92
       -2
340
14
 93
        0
 40
0.045
309
GRIDFORMAT_END
 95
        4
302
GRIDFORMAT
  1
GRIDFORMAT_BEGIN
 90
        0
 91
        1
 62
     0
 92
       -2
340
14
 93
        0
 40
0.045
309
GRIDFORMAT_END
 95
        8
302
GRIDFORMAT
  1
GRIDFORMAT_BEGIN
 90
        0
 91
        1
 62
     0
 92
       -2
340
14
 93
        0
 40
0.045
309
GRIDFORMAT_END
 95
       16
302
GRIDFORMAT
  1
GRIDFORMAT_BEGIN
 90
        0
 91
        1
 62
     0
 92
       -2
340
14
 93
        0
 40
0.045
309
GRIDFORMAT_END
 95
       32
302
GRIDFORMAT
  1
GRIDFORMAT_BEGIN
 90
        0
 91
        1
 62
     0
 92
       -2
340
14
 93
        0
 40
0.045
309
GRIDFORMAT_END
309
TABLEFORMAT_END
  1
CELLSTYLE_BEGIN
 90
        2
 91
        1
300
_HEADER
309
CELLSTYLE_END
300
CELLSTYLE
  1
TABLEFORMAT_BEGIN
 90
        5
170
     1
 91
        0
 92
        0
 62
   257
 93
        1
300
CONTENTFORMAT
  1
CONTENTFORMAT_BEGIN
 90
        0
 91
        0
 92
        4
 93
        0
300

 40
0.0
140
1.0
 94
        2
 62
     0
340
11
144
4.5
309
CONTENTFORMAT_END
171
     1
301
MARGIN
  1
CELLMARGIN_BEGIN
 40
1.5
 40
1.5
 40
1.5
 40
1.5
 40
1.5
 40
1.5
309
CELLMARGIN_END
 94
        6
 95
        1
302
GRIDFORMAT
  1
GRIDFORMAT_BEGIN
 90
        0
 91
        1
 62
     0
 92
       -2
340
14
 93
        0
 40
0.045
309
GRIDFORMAT_END
 95
        2
302
GRIDFORMAT
  1
GRIDFORMAT_BEGIN
 90
        0
 91
        1
 62
     0
 92
       -2
340
14
 93
        0
 40
0.045
309
GRIDFORMAT_END
 95
        4
302
GRIDFORMAT
  1
GRIDFORMAT_BEGIN
 90
        0
 91
        1
 62
     0
 92
       -2
340
14
 93
        0
 40
0.045
309
GRIDFORMAT_END
 95
        8
302
GRIDFORMAT
  1
GRIDFORMAT_BEGIN
 90
        0
 91
        1
 62
     0
 92
       -2
340
14
 93
        0
 40
0.045
309
GRIDFORMAT_END
 95
       16
302
GRIDFORMAT
  1
GRIDFORMAT_BEGIN
 90
        0
 91
        1
 62
     0
 92
       -2
340
14
 93
        0
 40
0.045
309
GRIDFORMAT_END
 95
       32
302
GRIDFORMAT
  1
GRIDFORMAT_BEGIN
 90
        0
 91
        1
 62
     0
 92
       -2
340
14
 93
        0
 40
0.045
309
GRIDFORMAT_END
309
TABLEFORMAT_END
  1
CELLSTYLE_BEGIN
 90
        3
 91
        2
300
_DATA
309
CELLSTYLE_END
  0
XRECORD
  5
32D
102
{ACAD_REACTORS
330
32C
102
}
330
32C
100
AcDbXrecord
280
     1
102
ACAD_ROUNDTRIP_PRE2007_TABLESTYLE
 90
        4
 91
        0
  1

 92
        4
 93
        0
  2

 94
        4
 95
        0
  3

  0
XRECORD
  5
2FF
102
{ACAD_REACTORS
330
2FE
102
}
330
2FE
100
AcDbXrecord
280
     1
102
RTVSPropertyOp0
 70
     1
102
RTVSPropertyOp1
 70
     1
102
RTVSPropertyOp2
 70
     1
102
RTVSPropertyOp3
 70
     1
102
RTVSPropertyOp4
 70
     1
102
RTVSPropertyOp5
 70
     1
102
RTVSPropertyOp6
 70
     1
102
RTVSPropertyOp7
 70
     1
102
RTVSPropertyOp8
 70
     1
102
RTVSPropertyOp9
 70
     1
102
RTVSPropertyOp10
 70
     1
102
RTVSPropertyOp11
 70
     1
102
RTVSPropertyOp12
 70
     1
102
RTVSPropertyOp13
 70
     1
102
RTVSPropertyOp14
 70
     1
102
RTVSPropertyOp15
 70
     1
102
RTVSPropertyOp16
 70
     1
102
RTVSPropertyOp17
 70
     1
102
RTVSPropertyOp18
 70
     1
102
RTVSPropertyOp19
 70
     1
102
RTVSPropertyOp20
 70
     1
102
RTVSPropertyOp21
 70
     1
102
RTVSPropertyOp22
 70
     1
102
RTVSPropertyOp23
 70
     1
102
RTVSPropertyOp24
 70
     1
102
RTVSPropertyOp25
 70
     1
102
RTVSPropertyOp26
 70
     1
102
RTVSPropertyOp27
 70
     1
102
RTVSPropertyOp28
 70
     1
102
RTVSPropertyOp29
 70
     1
102
RTVSPropertyOp30
 70
     1
102
RTVSPropertyOp31
 70
     1
102
RTVSPropertyOp32
 70
     1
102
RTVSPropertyOp33
 70
     1
102
RTVSPropertyOp34
 70
     1
102
RTVSPropertyOp35
 70
     1
102
RTVSPropertyOp36
 70
     1
102
RTVSPropertyOp37
 70
     1
102
RTVSPropertyOp38
 70
     1
102
RTVSPropertyOp39
 70
     1
102
RTVSPropertyOp40
 70
     1
102
RTVSPropertyOp41
 70
     1
102
RTVSPropertyOp42
 70
     1
102
RTVSPropertyOp43
 70
     1
102
RTVSPropertyOp44
 70
     1
102
RTVSPropertyOp45
 70
     1
102
RTVSPropertyOp46
 70
     1
102
RTVSPropertyOp47
 70
     1
102
RTVSPropertyOp48
 70
     1
102
RTVSPropertyOp49
 70
     1
102
RTVSPropertyOp50
 70
     1
102
RTVSPropertyOp51
 70
     0
102
RTVSPropertyOp52
 70
     0
102
RTVSPropertyOp53
 70
     1
102
RTVSPropertyOp54
 70
     1
102
RTVSPropertyOp55
 70
     1
102
RTVSPropertyOp56
 70
     1
102
RTVSPropertyOp57
 70
     1
102
RTVSPost2010Prop28
280
     1
102
RTVSPost2010PropOp28
 70
     1
102
RTVSPost2010Prop29
280
     1
102
RTVSPost2010PropOp29
 70
     1
102
RTVSPost2010Prop30
280
     0
102
RTVSPost2010PropOp30
 70
     1
102
RTVSPost2010Prop31
280
     0
102
RTVSPost2010PropOp31
 70
     1
102
RTVSPost2010Prop32
280
     0
102
RTVSPost2010PropOp32
 70
     1
102
RTVSPost2010Prop33
280
     0
102
RTVSPost2010PropOp33
 70
     1
102
RTVSPost2010Prop34
280
     0
102
RTVSPost2010PropOp34
 70
     1
102
RTVSPost2010Prop35
280
     0
102
RTVSPost2010PropOp35
 70
     1
102
RTVSPost2010Prop36
280
     0
102
RTVSPost2010PropOp36
 70
     1
102
RTVSPost2010Prop37
 90
       50
102
RTVSPost2010PropOp37
 70
     1
102
RTVSPost2010Prop38
140
0.0
102
RTVSPost2010PropOp38
 70
     1
102
RTVSPost2010Prop39
140
1.0
102
RTVSPost2010PropOp39
 70
     1
102
RTVSPost2010Prop40
 90
        0
102
RTVSPost2010PropOp40
 70
     1
102
RTVSPost2010Prop41ColorIndex
 90
       18
102
RTVSPost2010Prop41ColorRGB
 90
        0
102
RTVSPost2010PropOp41
 70
     1
102
RTVSPost2010Prop42
 90
       50
102
RTVSPost2010PropOp42
 70
     1
102
RTVSPost2010Prop43
 90
        3
102
RTVSPost2010PropOp43
 70
     1
102
RTVSPost2010Prop44ColorIndex
 90
        5
102
RTVSPost2010Prop44ColorRGB
 90
      255
102
RTVSPost2010PropOp44
 70
     1
102
RTVSPost2010Prop45
280
     0
102
RTVSPost2010PropOp45
 70
     1
102
RTVSPost2010Prop46
 90
       50
102
RTVSPost2010PropOp46
 70
     1
102
RTVSPost2010Prop47
 90
       50
102
RTVSPost2010PropOp47
 70
     1
102
RTVSPost2010Prop48
 90
       50
102
RTVSPost2010PropOp48
 70
     1
102
RTVSPost2010Prop49
280
     0
102
RTVSPost2010PropOp49
 70
     1
102
RTVSPost2010Prop50
 90
       50
102
RTVSPost2010PropOp50
 70
     1
102
RTVSPost2010Prop51ColorIndex
 90
      256
102
RTVSPost2010Prop51ColorRGB
 90
-16777216
102
RTVSPost2010PropOp51
 70
     0
102
RTVSPost2010Prop52
140
1.0
102
RTVSPost2010PropOp52
 70
     0
102
RTVSPost2010Prop53
 90
        2
102
RTVSPost2010PropOp53
 70
     1
102
RTVSPost2010Prop54
  1
strokes_ogs.tif
102
RTVSPost2010PropOp54
 70
     1
102
RTVSPost2010Prop55
280
     0
102
RTVSPost2010PropOp55
 70
     1
102
RTVSPost2010Prop56
140
1.0
102
RTVSPost2010PropOp56
 70
     1
102
RTVSPost2010Prop57
140
1.0
102
RTVSPost2010PropOp57
 70
     1
  0
XRECORD
  5
305
102
{ACAD_REACTORS
330
304
102
}
330
304
100
AcDbXrecord
280
     1
102
RTVSPropertyOp0
 70
     1
102
RTVSPropertyOp1
 70
     1
102
RTVSPropertyOp2
 70
     1
102
RTVSPropertyOp3
 70
     1
102
RTVSPropertyOp4
 70
     1
102
RTVSPropertyOp5
 70
     1
102
RTVSPropertyOp6
 70
     1
102
RTVSPropertyOp7
 70
     1
102
RTVSPropertyOp8
 70
     1
102
RTVSPropertyOp9
 70
     1
102
RTVSPropertyOp10
 70
     1
102
RTVSPropertyOp11
 70
     1
102
RTVSPropertyOp12
 70
     1
102
RTVSPropertyOp13
 70
     1
102
RTVSPropertyOp14
 70
     1
102
RTVSPropertyOp15
 70
     1
102
RTVSPropertyOp16
 70
     1
102
RTVSPropertyOp17
 70
     1
102
RTVSPropertyOp18
 70
     1
102
RTVSPropertyOp19
 70
     1
102
RTVSPropertyOp20
 70
     1
102
RTVSPropertyOp21
 70
     1
102
RTVSPropertyOp22
 70
     1
102
RTVSPropertyOp23
 70
     1
102
RTVSPropertyOp24
 70
     1
102
RTVSPropertyOp25
 70
     1
102
RTVSPropertyOp26
 70
     1
102
RTVSPropertyOp27
 70
     1
102
RTVSPropertyOp28
 70
     1
102
RTVSPropertyOp29
 70
     1
102
RTVSPropertyOp30
 70
     1
102
RTVSPropertyOp31
 70
     1
102
RTVSPropertyOp32
 70
     1
102
RTVSPropertyOp33
 70
     1
102
RTVSPropertyOp34
 70
     1
102
RTVSPropertyOp35
 70
     1
102
RTVSPropertyOp36
 70
     1
102
RTVSPropertyOp37
 70
     1
102
RTVSPropertyOp38
 70
     1
102
RTVSPropertyOp39
 70
     1
102
RTVSPropertyOp40
 70
     1
102
RTVSPropertyOp41
 70
     1
102
RTVSPropertyOp42
 70
     1
102
RTVSPropertyOp43
 70
     1
102
RTVSPropertyOp44
 70
     1
102
RTVSPropertyOp45
 70
     1
102
RTVSPropertyOp46
 70
     1
102
RTVSPropertyOp47
 70
     1
102
RTVSPropertyOp48
 70
     1
102
RTVSPropertyOp49
 70
     1
102
RTVSPropertyOp50
 70
     1
102
RTVSPropertyOp51
 70
     0
102
RTVSPropertyOp52
 70
     0
102
RTVSPropertyOp53
 70
     1
102
RTVSPropertyOp54
 70
     1
102
RTVSPropertyOp55
 70
     1
102
RTVSPropertyOp56
 70
     1
102
RTVSPropertyOp57
 70
     1
102
RTVSPost2010Prop28
280
     0
102
RTVSPost2010PropOp28
 70
     1
102
RTVSPost2010Prop29
280
     1
102
RTVSPost2010PropOp29
 70
     1
102
RTVSPost2010Prop30
280
     1
102
RTVSPost2010PropOp30
 70
     1
102
RTVSPost2010Prop31
280
     0
102
RTVSPost2010PropOp31
 70
     1
102
RTVSPost2010Prop32
280
     0
102
RTVSPost2010PropOp32
 70
     1
102
RTVSPost2010Prop33
280
     0
102
RTVSPost2010PropOp33
 70
     1
102
RTVSPost2010Prop34
280
     0
102
RTVSPost2010PropOp34
 70
     1
102
RTVSPost2010Prop35
280
     0
102
RTVSPost2010PropOp35
 70
     1
102
RTVSPost2010Prop36
280
     0
102
RTVSPost2010PropOp36
 70
     1
102
RTVSPost2010Prop37
 90
       50
102
RTVSPost2010PropOp37
 70
     1
102
RTVSPost2010Prop38
140
0.0
102
RTVSPost2010PropOp38
 70
     1
102
RTVSPost2010Prop39
140
1.0
102
RTVSPost2010PropOp39
 70
     1
102
RTVSPost2010Prop40
 90
        0
102
RTVSPost2010PropOp40
 70
     1
102
RTVSPost2010Prop41ColorIndex
 90
       18
102
RTVSPost2010Prop41ColorRGB
 90
        0
102
RTVSPost2010PropOp41
 70
     1
102
RTVSPost2010Prop42
 90
       50
102
RTVSPost2010PropOp42
 70
     1
102
RTVSPost2010Prop43
 90
        3
102
RTVSPost2010PropOp43
 70
     1
102
RTVSPost2010Prop44ColorIndex
 90
        5
102
RTVSPost2010Prop44ColorRGB
 90
      255
102
RTVSPost2010PropOp44
 70
     1
102
RTVSPost2010Prop45
280
     0
102
RTVSPost2010PropOp45
 70
     1
102
RTVSPost2010Prop46
 90
       50
102
RTVSPost2010PropOp46
 70
     1
102
RTVSPost2010Prop47
 90
       50
102
RTVSPost2010PropOp47
 70
     1
102
RTVSPost2010Prop48
 90
       50
102
RTVSPost2010PropOp48
 70
     1
102
RTVSPost2010Prop49
280
     0
102
RTVSPost2010PropOp49
 70
     1
102
RTVSPost2010Prop50
 90
       50
102
RTVSPost2010PropOp50
 70
     1
102
RTVSPost2010Prop51ColorIndex
 90
      256
102
RTVSPost2010Prop51ColorRGB
 90
-16777216
102
RTVSPost2010PropOp51
 70
     0
102
RTVSPost2010Prop52
140
1.0
102
RTVSPost2010PropOp52
 70
     0
102
RTVSPost2010Prop53
 90
        2
102
RTVSPost2010PropOp53
 70
     1
102
RTVSPost2010Prop54
  1
strokes_ogs.tif
102
RTVSPost2010PropOp54
 70
     1
102
RTVSPost2010Prop55
280
     0
102
RTVSPost2010PropOp55
 70
     1
102
RTVSPost2010Prop56
140
1.0
102
RTVSPost2010PropOp56
 70
     1
102
RTVSPost2010Prop57
140
1.0
102
RTVSPost2010PropOp57
 70
     1
  0
XRECORD
  5
30D
102
{ACAD_REACTORS
330
30C
102
}
330
30C
100
AcDbXrecord
280
     1
102
RTVSPropertyOp0
 70
     1
102
RTVSPropertyOp1
 70
     1
102
RTVSPropertyOp2
 70
     1
102
RTVSPropertyOp3
 70
     1
102
RTVSPropertyOp4
 70
     1
102
RTVSPropertyOp5
 70
     1
102
RTVSPropertyOp6
 70
     1
102
RTVSPropertyOp7
 70
     1
102
RTVSPropertyOp8
 70
     1
102
RTVSPropertyOp9
 70
     1
102
RTVSPropertyOp10
 70
     1
102
RTVSPropertyOp11
 70
     1
102
RTVSPropertyOp12
 70
     1
102
RTVSPropertyOp13
 70
     1
102
RTVSPropertyOp14
 70
     1
102
RTVSPropertyOp15
 70
     1
102
RTVSPropertyOp16
 70
     1
102
RTVSPropertyOp17
 70
     1
102
RTVSPropertyOp18
 70
     1
102
RTVSPropertyOp19
 70
     1
102
RTVSPropertyOp20
 70
     1
102
RTVSPropertyOp21
 70
     1
102
RTVSPropertyOp22
 70
     1
102
RTVSPropertyOp23
 70
     1
102
RTVSPropertyOp24
 70
     1
102
RTVSPropertyOp25
 70
     1
102
RTVSPropertyOp26
 70
     1
102
RTVSPropertyOp27
 70
     1
102
RTVSPropertyOp28
 70
     1
102
RTVSPropertyOp29
 70
     1
102
RTVSPropertyOp30
 70
     1
102
RTVSPropertyOp31
 70
     1
102
RTVSPropertyOp32
 70
     1
102
RTVSPropertyOp33
 70
     1
102
RTVSPropertyOp34
 70
     1
102
RTVSPropertyOp35
 70
     1
102
RTVSPropertyOp36
 70
     1
102
RTVSPropertyOp37
 70
     1
102
RTVSPropertyOp38
 70
     1
102
RTVSPropertyOp39
 70
     1
102
RTVSPropertyOp40
 70
     1
102
RTVSPropertyOp41
 70
     1
102
RTVSPropertyOp42
 70
     1
102
RTVSPropertyOp43
 70
     1
102
RTVSPropertyOp44
 70
     1
102
RTVSPropertyOp45
 70
     1
102
RTVSPropertyOp46
 70
     1
102
RTVSPropertyOp47
 70
     1
102
RTVSPropertyOp48
 70
     1
102
RTVSPropertyOp49
 70
     1
102
RTVSPropertyOp50
 70
     1
102
RTVSPropertyOp51
 70
     0
102
RTVSPropertyOp52
 70
     0
102
RTVSPropertyOp53
 70
     1
102
RTVSPropertyOp54
 70
     1
102
RTVSPropertyOp55
 70
     1
102
RTVSPropertyOp56
 70
     1
102
RTVSPropertyOp57
 70
     1
102
RTVSPost2010Prop28
280
     0
102
RTVSPost2010PropOp28
 70
     1
102
RTVSPost2010Prop29
280
     1
102
RTVSPost2010PropOp29
 70
     1
102
RTVSPost2010Prop30
280
     1
102
RTVSPost2010PropOp30
 70
     1
102
RTVSPost2010Prop31
280
     0
102
RTVSPost2010PropOp31
 70
     1
102
RTVSPost2010Prop32
280
     0
102
RTVSPost2010PropOp32
 70
     1
102
RTVSPost2010Prop33
280
     0
102
RTVSPost2010PropOp33
 70
     1
102
RTVSPost2010Prop34
280
     0
102
RTVSPost2010PropOp34
 70
     1
102
RTVSPost2010Prop35
280
     0
102
RTVSPost2010PropOp35
 70
     1
102
RTVSPost2010Prop36
280
     0
102
RTVSPost2010PropOp36
 70
     1
102
RTVSPost2010Prop37
 90
       50
102
RTVSPost2010PropOp37
 70
     1
102
RTVSPost2010Prop38
140
0.0
102
RTVSPost2010PropOp38
 70
     1
102
RTVSPost2010Prop39
140
1.0
102
RTVSPost2010PropOp39
 70
     1
102
RTVSPost2010Prop40
 90
        0
102
RTVSPost2010PropOp40
 70
     1
102
RTVSPost2010Prop41ColorIndex
 90
       18
102
RTVSPost2010Prop41ColorRGB
 90
        0
102
RTVSPost2010PropOp41
 70
     1
102
RTVSPost2010Prop42
 90
       50
102
RTVSPost2010PropOp42
 70
     1
102
RTVSPost2010Prop43
 90
        3
102
RTVSPost2010PropOp43
 70
     1
102
RTVSPost2010Prop44ColorIndex
 90
        5
102
RTVSPost2010Prop44ColorRGB
 90
      255
102
RTVSPost2010PropOp44
 70
     1
102
RTVSPost2010Prop45
280
     0
102
RTVSPost2010PropOp45
 70
     1
102
RTVSPost2010Prop46
 90
       50
102
RTVSPost2010PropOp46
 70
     1
102
RTVSPost2010Prop47
 90
       50
102
RTVSPost2010PropOp47
 70
     1
102
RTVSPost2010Prop48
 90
       50
102
RTVSPost2010PropOp48
 70
     1
102
RTVSPost2010Prop49
280
     0
102
RTVSPost2010PropOp49
 70
     1
102
RTVSPost2010Prop50
 90
       50
102
RTVSPost2010PropOp50
 70
     1
102
RTVSPost2010Prop51ColorIndex
 90
      256
102
RTVSPost2010Prop51ColorRGB
 90
-16777216
102
RTVSPost2010PropOp51
 70
     0
102
RTVSPost2010Prop52
140
1.0
102
RTVSPost2010PropOp52
 70
     0
102
RTVSPost2010Prop53
 90
        2
102
RTVSPost2010PropOp53
 70
     1
102
RTVSPost2010Prop54
  1
strokes_ogs.tif
102
RTVSPost2010PropOp54
 70
     1
102
RTVSPost2010Prop55
280
     0
102
RTVSPost2010PropOp55
 70
     1
102
RTVSPost2010Prop56
140
1.0
102
RTVSPost2010PropOp56
 70
     1
102
RTVSPost2010Prop57
140
1.0
102
RTVSPost2010PropOp57
 70
     1
  0
XRECORD
  5
315
102
{ACAD_REACTORS
330
314
102
}
330
314
100
AcDbXrecord
280
     1
102
RTVSPropertyOp0
 70
     1
102
RTVSPropertyOp1
 70
     1
102
RTVSPropertyOp2
 70
     1
102
RTVSPropertyOp3
 70
     1
102
RTVSPropertyOp4
 70
     1
102
RTVSPropertyOp5
 70
     1
102
RTVSPropertyOp6
 70
     1
102
RTVSPropertyOp7
 70
     1
102
RTVSPropertyOp8
 70
     1
102
RTVSPropertyOp9
 70
     1
102
RTVSPropertyOp10
 70
     1
102
RTVSPropertyOp11
 70
     1
102
RTVSPropertyOp12
 70
     1
102
RTVSPropertyOp13
 70
     1
102
RTVSPropertyOp14
 70
     1
102
RTVSPropertyOp15
 70
     1
102
RTVSPropertyOp16
 70
     1
102
RTVSPropertyOp17
 70
     1
102
RTVSPropertyOp18
 70
     1
102
RTVSPropertyOp19
 70
     1
102
RTVSPropertyOp20
 70
     1
102
RTVSPropertyOp21
 70
     1
102
RTVSPropertyOp22
 70
     1
102
RTVSPropertyOp23
 70
     1
102
RTVSPropertyOp24
 70
     1
102
RTVSPropertyOp25
 70
     1
102
RTVSPropertyOp26
 70
     1
102
RTVSPropertyOp27
 70
     1
102
RTVSPropertyOp28
 70
     1
102
RTVSPropertyOp29
 70
     1
102
RTVSPropertyOp30
 70
     1
102
RTVSPropertyOp31
 70
     1
102
RTVSPropertyOp32
 70
     1
102
RTVSPropertyOp33
 70
     1
102
RTVSPropertyOp34
 70
     1
102
RTVSPropertyOp35
 70
     1
102
RTVSPropertyOp36
 70
     1
102
RTVSPropertyOp37
 70
     1
102
RTVSPropertyOp38
 70
     1
102
RTVSPropertyOp39
 70
     1
102
RTVSPropertyOp40
 70
     1
102
RTVSPropertyOp41
 70
     1
102
RTVSPropertyOp42
 70
     1
102
RTVSPropertyOp43
 70
     1
102
RTVSPropertyOp44
 70
     1
102
RTVSPropertyOp45
 70
     1
102
RTVSPropertyOp46
 70
     1
102
RTVSPropertyOp47
 70
     1
102
RTVSPropertyOp48
 70
     1
102
RTVSPropertyOp49
 70
     1
102
RTVSPropertyOp50
 70
     1
102
RTVSPropertyOp51
 70
     0
102
RTVSPropertyOp52
 70
     0
102
RTVSPropertyOp53
 70
     1
102
RTVSPropertyOp54
 70
     1
102
RTVSPropertyOp55
 70
     1
102
RTVSPropertyOp56
 70
     1
102
RTVSPropertyOp57
 70
     1
102
RTVSPost2010Prop28
280
     0
102
RTVSPost2010PropOp28
 70
     1
102
RTVSPost2010Prop29
280
     1
102
RTVSPost2010PropOp29
 70
     1
102
RTVSPost2010Prop30
280
     1
102
RTVSPost2010PropOp30
 70
     1
102
RTVSPost2010Prop31
280
     0
102
RTVSPost2010PropOp31
 70
     1
102
RTVSPost2010Prop32
280
     0
102
RTVSPost2010PropOp32
 70
     1
102
RTVSPost2010Prop33
280
     0
102
RTVSPost2010PropOp33
 70
     1
102
RTVSPost2010Prop34
280
     0
102
RTVSPost2010PropOp34
 70
     1
102
RTVSPost2010Prop35
280
     0
102
RTVSPost2010PropOp35
 70
     1
102
RTVSPost2010Prop36
280
     0
102
RTVSPost2010PropOp36
 70
     1
102
RTVSPost2010Prop37
 90
       50
102
RTVSPost2010PropOp37
 70
     1
102
RTVSPost2010Prop38
140
0.0
102
RTVSPost2010PropOp38
 70
     1
102
RTVSPost2010Prop39
140
1.0
102
RTVSPost2010PropOp39
 70
     1
102
RTVSPost2010Prop40
 90
        0
102
RTVSPost2010PropOp40
 70
     1
102
RTVSPost2010Prop41ColorIndex
 90
       18
102
RTVSPost2010Prop41ColorRGB
 90
        0
102
RTVSPost2010PropOp41
 70
     1
102
RTVSPost2010Prop42
 90
       50
102
RTVSPost2010PropOp42
 70
     1
102
RTVSPost2010Prop43
 90
        3
102
RTVSPost2010PropOp43
 70
     1
102
RTVSPost2010Prop44ColorIndex
 90
        5
102
RTVSPost2010Prop44ColorRGB
 90
      255
102
RTVSPost2010PropOp44
 70
     1
102
RTVSPost2010Prop45
280
     0
102
RTVSPost2010PropOp45
 70
     1
102
RTVSPost2010Prop46
 90
       50
102
RTVSPost2010PropOp46
 70
     1
102
RTVSPost2010Prop47
 90
       50
102
RTVSPost2010PropOp47
 70
     1
102
RTVSPost2010Prop48
 90
       50
102
RTVSPost2010PropOp48
 70
     1
102
RTVSPost2010Prop49
280
     0
102
RTVSPost2010PropOp49
 70
     1
102
RTVSPost2010Prop50
 90
       50
102
RTVSPost2010PropOp50
 70
     1
102
RTVSPost2010Prop51ColorIndex
 90
      256
102
RTVSPost2010Prop51ColorRGB
 90
-16777216
102
RTVSPost2010PropOp51
 70
     0
102
RTVSPost2010Prop52
140
1.0
102
RTVSPost2010PropOp52
 70
     0
102
RTVSPost2010Prop53
 90
        2
102
RTVSPost2010PropOp53
 70
     1
102
RTVSPost2010Prop54
  1
strokes_ogs.tif
102
RTVSPost2010PropOp54
 70
     1
102
RTVSPost2010Prop55
280
     0
102
RTVSPost2010PropOp55
 70
     1
102
RTVSPost2010Prop56
140
1.0
102
RTVSPost2010PropOp56
 70
     1
102
RTVSPost2010Prop57
140
1.0
102
RTVSPost2010PropOp57
 70
     1
  0
XRECORD
  5
309
102
{ACAD_REACTORS
330
308
102
}
330
308
100
AcDbXrecord
280
     1
102
RTVSPropertyOp0
 70
     1
102
RTVSPropertyOp1
 70
     1
102
RTVSPropertyOp2
 70
     1
102
RTVSPropertyOp3
 70
     1
102
RTVSPropertyOp4
 70
     1
102
RTVSPropertyOp5
 70
     1
102
RTVSPropertyOp6
 70
     1
102
RTVSPropertyOp7
 70
     1
102
RTVSPropertyOp8
 70
     1
102
RTVSPropertyOp9
 70
     1
102
RTVSPropertyOp10
 70
     1
102
RTVSPropertyOp11
 70
     1
102
RTVSPropertyOp12
 70
     1
102
RTVSPropertyOp13
 70
     1
102
RTVSPropertyOp14
 70
     1
102
RTVSPropertyOp15
 70
     1
102
RTVSPropertyOp16
 70
     1
102
RTVSPropertyOp17
 70
     1
102
RTVSPropertyOp18
 70
     1
102
RTVSPropertyOp19
 70
     1
102
RTVSPropertyOp20
 70
     1
102
RTVSPropertyOp21
 70
     1
102
RTVSPropertyOp22
 70
     1
102
RTVSPropertyOp23
 70
     1
102
RTVSPropertyOp24
 70
     1
102
RTVSPropertyOp25
 70
     1
102
RTVSPropertyOp26
 70
     1
102
RTVSPropertyOp27
 70
     1
102
RTVSPropertyOp28
 70
     1
102
RTVSPropertyOp29
 70
     1
102
RTVSPropertyOp30
 70
     1
102
RTVSPropertyOp31
 70
     1
102
RTVSPropertyOp32
 70
     1
102
RTVSPropertyOp33
 70
     1
102
RTVSPropertyOp34
 70
     1
102
RTVSPropertyOp35
 70
     1
102
RTVSPropertyOp36
 70
     1
102
RTVSPropertyOp37
 70
     1
102
RTVSPropertyOp38
 70
     1
102
RTVSPropertyOp39
 70
     1
102
RTVSPropertyOp40
 70
     1
102
RTVSPropertyOp41
 70
     1
102
RTVSPropertyOp42
 70
     1
102
RTVSPropertyOp43
 70
     1
102
RTVSPropertyOp44
 70
     1
102
RTVSPropertyOp45
 70
     1
102
RTVSPropertyOp46
 70
     1
102
RTVSPropertyOp47
 70
     1
102
RTVSPropertyOp48
 70
     1
102
RTVSPropertyOp49
 70
     1
102
RTVSPropertyOp50
 70
     1
102
RTVSPropertyOp51
 70
     0
102
RTVSPropertyOp52
 70
     0
102
RTVSPropertyOp53
 70
     1
102
RTVSPropertyOp54
 70
     1
102
RTVSPropertyOp55
 70
     1
102
RTVSPropertyOp56
 70
     1
102
RTVSPropertyOp57
 70
     1
102
RTVSPost2010Prop28
280
     0
102
RTVSPost2010PropOp28
 70
     1
102
RTVSPost2010Prop29
280
     1
102
RTVSPost2010PropOp29
 70
     1
102
RTVSPost2010Prop30
280
     1
102
RTVSPost2010PropOp30
 70
     1
102
RTVSPost2010Prop31
280
     0
102
RTVSPost2010PropOp31
 70
     1
102
RTVSPost2010Prop32
280
     0
102
RTVSPost2010PropOp32
 70
     1
102
RTVSPost2010Prop33
280
     0
102
RTVSPost2010PropOp33
 70
     1
102
RTVSPost2010Prop34
280
     0
102
RTVSPost2010PropOp34
 70
     1
102
RTVSPost2010Prop35
280
     0
102
RTVSPost2010PropOp35
 70
     1
102
RTVSPost2010Prop36
280
     0
102
RTVSPost2010PropOp36
 70
     1
102
RTVSPost2010Prop37
 90
       50
102
RTVSPost2010PropOp37
 70
     1
102
RTVSPost2010Prop38
140
0.0
102
RTVSPost2010PropOp38
 70
     1
102
RTVSPost2010Prop39
140
1.0
102
RTVSPost2010PropOp39
 70
     1
102
RTVSPost2010Prop40
 90
        0
102
RTVSPost2010PropOp40
 70
     1
102
RTVSPost2010Prop41ColorIndex
 90
       18
102
RTVSPost2010Prop41ColorRGB
 90
        0
102
RTVSPost2010PropOp41
 70
     1
102
RTVSPost2010Prop42
 90
       50
102
RTVSPost2010PropOp42
 70
     1
102
RTVSPost2010Prop43
 90
        3
102
RTVSPost2010PropOp43
 70
     1
102
RTVSPost2010Prop44ColorIndex
 90
        5
102
RTVSPost2010Prop44ColorRGB
 90
      255
102
RTVSPost2010PropOp44
 70
     1
102
RTVSPost2010Prop45
280
     0
102
RTVSPost2010PropOp45
 70
     1
102
RTVSPost2010Prop46
 90
       50
102
RTVSPost2010PropOp46
 70
     1
102
RTVSPost2010Prop47
 90
       50
102
RTVSPost2010PropOp47
 70
     1
102
RTVSPost2010Prop48
 90
       50
102
RTVSPost2010PropOp48
 70
     1
102
RTVSPost2010Prop49
280
     0
102
RTVSPost2010PropOp49
 70
     1
102
RTVSPost2010Prop50
 90
       50
102
RTVSPost2010PropOp50
 70
     1
102
RTVSPost2010Prop51ColorIndex
 90
      256
102
RTVSPost2010Prop51ColorRGB
 90
-16777216
102
RTVSPost2010PropOp51
 70
     0
102
RTVSPost2010Prop52
140
1.0
102
RTVSPost2010PropOp52
 70
     0
102
RTVSPost2010Prop53
 90
        2
102
RTVSPost2010PropOp53
 70
     1
102
RTVSPost2010Prop54
  1
strokes_ogs.tif
102
RTVSPost2010PropOp54
 70
     1
102
RTVSPost2010Prop55
280
     0
102
RTVSPost2010PropOp55
 70
     1
102
RTVSPost2010Prop56
140
1.0
102
RTVSPost2010PropOp56
 70
     1
102
RTVSPost2010Prop57
140
1.0
102
RTVSPost2010PropOp57
 70
     1
  0
XRECORD
  5
30B
102
{ACAD_REACTORS
330
30A
102
}
330
30A
100
AcDbXrecord
280
     1
102
RTVSPropertyOp0
 70
     1
102
RTVSPropertyOp1
 70
     1
102
RTVSPropertyOp2
 70
     1
102
RTVSPropertyOp3
 70
     1
102
RTVSPropertyOp4
 70
     1
102
RTVSPropertyOp5
 70
     1
102
RTVSPropertyOp6
 70
     1
102
RTVSPropertyOp7
 70
     1
102
RTVSPropertyOp8
 70
     1
102
RTVSPropertyOp9
 70
     1
102
RTVSPropertyOp10
 70
     1
102
RTVSPropertyOp11
 70
     1
102
RTVSPropertyOp12
 70
     1
102
RTVSPropertyOp13
 70
     1
102
RTVSPropertyOp14
 70
     1
102
RTVSPropertyOp15
 70
     1
102
RTVSPropertyOp16
 70
     1
102
RTVSPropertyOp17
 70
     1
102
RTVSPropertyOp18
 70
     1
102
RTVSPropertyOp19
 70
     1
102
RTVSPropertyOp20
 70
     1
102
RTVSPropertyOp21
 70
     1
102
RTVSPropertyOp22
 70
     1
102
RTVSPropertyOp23
 70
     1
102
RTVSPropertyOp24
 70
     1
102
RTVSPropertyOp25
 70
     1
102
RTVSPropertyOp26
 70
     1
102
RTVSPropertyOp27
 70
     1
102
RTVSPropertyOp28
 70
     1
102
RTVSPropertyOp29
 70
     1
102
RTVSPropertyOp30
 70
     1
102
RTVSPropertyOp31
 70
     1
102
RTVSPropertyOp32
 70
     1
102
RTVSPropertyOp33
 70
     1
102
RTVSPropertyOp34
 70
     1
102
RTVSPropertyOp35
 70
     1
102
RTVSPropertyOp36
 70
     1
102
RTVSPropertyOp37
 70
     1
102
RTVSPropertyOp38
 70
     1
102
RTVSPropertyOp39
 70
     1
102
RTVSPropertyOp40
 70
     1
102
RTVSPropertyOp41
 70
     1
102
RTVSPropertyOp42
 70
     1
102
RTVSPropertyOp43
 70
     1
102
RTVSPropertyOp44
 70
     1
102
RTVSPropertyOp45
 70
     1
102
RTVSPropertyOp46
 70
     1
102
RTVSPropertyOp47
 70
     1
102
RTVSPropertyOp48
 70
     1
102
RTVSPropertyOp49
 70
     1
102
RTVSPropertyOp50
 70
     1
102
RTVSPropertyOp51
 70
     0
102
RTVSPropertyOp52
 70
     0
102
RTVSPropertyOp53
 70
     1
102
RTVSPropertyOp54
 70
     1
102
RTVSPropertyOp55
 70
     1
102
RTVSPropertyOp56
 70
     1
102
RTVSPropertyOp57
 70
     1
102
RTVSPost2010Prop28
280
     0
102
RTVSPost2010PropOp28
 70
     1
102
RTVSPost2010Prop29
280
     1
102
RTVSPost2010PropOp29
 70
     1
102
RTVSPost2010Prop30
280
     1
102
RTVSPost2010PropOp30
 70
     1
102
RTVSPost2010Prop31
280
     0
102
RTVSPost2010PropOp31
 70
     1
102
RTVSPost2010Prop32
280
     0
102
RTVSPost2010PropOp32
 70
     1
102
RTVSPost2010Prop33
280
     0
102
RTVSPost2010PropOp33
 70
     1
102
RTVSPost2010Prop34
280
     0
102
RTVSPost2010PropOp34
 70
     1
102
RTVSPost2010Prop35
280
     0
102
RTVSPost2010PropOp35
 70
     1
102
RTVSPost2010Prop36
280
     0
102
RTVSPost2010PropOp36
 70
     1
102
RTVSPost2010Prop37
 90
       50
102
RTVSPost2010PropOp37
 70
     1
102
RTVSPost2010Prop38
140
0.0
102
RTVSPost2010PropOp38
 70
     1
102
RTVSPost2010Prop39
140
1.0
102
RTVSPost2010PropOp39
 70
     1
102
RTVSPost2010Prop40
 90
        0
102
RTVSPost2010PropOp40
 70
     1
102
RTVSPost2010Prop41ColorIndex
 90
       18
102
RTVSPost2010Prop41ColorRGB
 90
        0
102
RTVSPost2010PropOp41
 70
     1
102
RTVSPost2010Prop42
 90
       50
102
RTVSPost2010PropOp42
 70
     1
102
RTVSPost2010Prop43
 90
        3
102
RTVSPost2010PropOp43
 70
     1
102
RTVSPost2010Prop44ColorIndex
 90
        5
102
RTVSPost2010Prop44ColorRGB
 90
      255
102
RTVSPost2010PropOp44
 70
     1
102
RTVSPost2010Prop45
280
     0
102
RTVSPost2010PropOp45
 70
     1
102
RTVSPost2010Prop46
 90
       50
102
RTVSPost2010PropOp46
 70
     1
102
RTVSPost2010Prop47
 90
       50
102
RTVSPost2010PropOp47
 70
     1
102
RTVSPost2010Prop48
 90
       50
102
RTVSPost2010PropOp48
 70
     1
102
RTVSPost2010Prop49
280
     0
102
RTVSPost2010PropOp49
 70
     1
102
RTVSPost2010Prop50
 90
       50
102
RTVSPost2010PropOp50
 70
     1
102
RTVSPost2010Prop51ColorIndex
 90
      256
102
RTVSPost2010Prop51ColorRGB
 90
-16777216
102
RTVSPost2010PropOp51
 70
     0
102
RTVSPost2010Prop52
140
1.0
102
RTVSPost2010PropOp52
 70
     0
102
RTVSPost2010Prop53
 90
        2
102
RTVSPost2010PropOp53
 70
     1
102
RTVSPost2010Prop54
  1
strokes_ogs.tif
102
RTVSPost2010PropOp54
 70
     1
102
RTVSPost2010Prop55
280
     0
102
RTVSPost2010PropOp55
 70
     1
102
RTVSPost2010Prop56
140
1.0
102
RTVSPost2010PropOp56
 70
     1
102
RTVSPost2010Prop57
140
1.0
102
RTVSPost2010PropOp57
 70
     1
  0
XRECORD
  5
31B
102
{ACAD_REACTORS
330
31A
102
}
330
31A
100
AcDbXrecord
280
     1
102
RTVSPropertyOp0
 70
     0
102
RTVSPropertyOp1
 70
     0
102
RTVSPropertyOp2
 70
     0
102
RTVSPropertyOp3
 70
     0
102
RTVSPropertyOp4
 70
     0
102
RTVSPropertyOp5
 70
     0
102
RTVSPropertyOp6
 70
     0
102
RTVSPropertyOp7
 70
     0
102
RTVSPropertyOp8
 70
     0
102
RTVSPropertyOp9
 70
     0
102
RTVSPropertyOp10
 70
     0
102
RTVSPropertyOp11
 70
     0
102
RTVSPropertyOp12
 70
     0
102
RTVSPropertyOp13
 70
     0
102
RTVSPropertyOp14
 70
     2
102
RTVSPropertyOp15
 70
     0
102
RTVSPropertyOp16
 70
     0
102
RTVSPropertyOp17
 70
     0
102
RTVSPropertyOp18
 70
     0
102
RTVSPropertyOp19
 70
     0
102
RTVSPropertyOp20
 70
     0
102
RTVSPropertyOp21
 70
     0
102
RTVSPropertyOp22
 70
     0
102
RTVSPropertyOp23
 70
     0
102
RTVSPropertyOp24
 70
     0
102
RTVSPropertyOp25
 70
     0
102
RTVSPropertyOp26
 70
     0
102
RTVSPropertyOp27
 70
     0
102
RTVSPropertyOp28
 70
     0
102
RTVSPropertyOp29
 70
     0
102
RTVSPropertyOp30
 70
     0
102
RTVSPropertyOp31
 70
     0
102
RTVSPropertyOp32
 70
     0
102
RTVSPropertyOp33
 70
     0
102
RTVSPropertyOp34
 70
     0
102
RTVSPropertyOp35
 70
     0
102
RTVSPropertyOp36
 70
     0
102
RTVSPropertyOp37
 70
     0
102
RTVSPropertyOp38
 70
     0
102
RTVSPropertyOp39
 70
     0
102
RTVSPropertyOp40
 70
     0
102
RTVSPropertyOp41
 70
     0
102
RTVSPropertyOp42
 70
     0
102
RTVSPropertyOp43
 70
     0
102
RTVSPropertyOp44
 70
     0
102
RTVSPropertyOp45
 70
     0
102
RTVSPropertyOp46
 70
     0
102
RTVSPropertyOp47
 70
     0
102
RTVSPropertyOp48
 70
     0
102
RTVSPropertyOp49
 70
     0
102
RTVSPropertyOp50
 70
     0
102
RTVSPropertyOp51
 70
     0
102
RTVSPropertyOp52
 70
     0
102
RTVSPropertyOp53
 70
     0
102
RTVSPropertyOp54
 70
     0
102
RTVSPropertyOp55
 70
     0
102
RTVSPropertyOp56
 70
     0
102
RTVSPropertyOp57
 70
     0
102
RTVSPost2010Prop28
280
     0
102
RTVSPost2010PropOp28
 70
     0
102
RTVSPost2010Prop29
280
     1
102
RTVSPost2010PropOp29
 70
     0
102
RTVSPost2010Prop30
280
     1
102
RTVSPost2010PropOp30
 70
     0
102
RTVSPost2010Prop31
280
     0
102
RTVSPost2010PropOp31
 70
     0
102
RTVSPost2010Prop32
280
     0
102
RTVSPost2010PropOp32
 70
     0
102
RTVSPost2010Prop33
280
     0
102
RTVSPost2010PropOp33
 70
     0
102
RTVSPost2010Prop34
280
     0
102
RTVSPost2010PropOp34
 70
     0
102
RTVSPost2010Prop35
280
     0
102
RTVSPost2010PropOp35
 70
     0
102
RTVSPost2010Prop36
280
     0
102
RTVSPost2010PropOp36
 70
     0
102
RTVSPost2010Prop37
 90
       50
102
RTVSPost2010PropOp37
 70
     0
102
RTVSPost2010Prop38
140
0.0
102
RTVSPost2010PropOp38
 70
     0
102
RTVSPost2010Prop39
140
1.0
102
RTVSPost2010PropOp39
 70
     0
102
RTVSPost2010Prop40
 90
        0
102
RTVSPost2010PropOp40
 70
     0
102
RTVSPost2010Prop41ColorIndex
 90
       18
102
RTVSPost2010Prop41ColorRGB
 90
        0
102
RTVSPost2010PropOp41
 70
     0
102
RTVSPost2010Prop42
 90
       50
102
RTVSPost2010PropOp42
 70
     0
102
RTVSPost2010Prop43
 90
        3
102
RTVSPost2010PropOp43
 70
     0
102
RTVSPost2010Prop44ColorIndex
 90
        5
102
RTVSPost2010Prop44ColorRGB
 90
      255
102
RTVSPost2010PropOp44
 70
     0
102
RTVSPost2010Prop45
280
     0
102
RTVSPost2010PropOp45
 70
     0
102
RTVSPost2010Prop46
 90
       50
102
RTVSPost2010PropOp46
 70
     0
102
RTVSPost2010Prop47
 90
       50
102
RTVSPost2010PropOp47
 70
     0
102
RTVSPost2010Prop48
 90
       50
102
RTVSPost2010PropOp48
 70
     0
102
RTVSPost2010Prop49
280
     0
102
RTVSPost2010PropOp49
 70
     0
102
RTVSPost2010Prop50
 90
       50
102
RTVSPost2010PropOp50
 70
     0
102
RTVSPost2010Prop51ColorIndex
 90
      256
102
RTVSPost2010Prop51ColorRGB
 90
-16777216
102
RTVSPost2010PropOp51
 70
     0
102
RTVSPost2010Prop52
140
1.0
102
RTVSPost2010PropOp52
 70
     0
102
RTVSPost2010Prop53
 90
        2
102
RTVSPost2010PropOp53
 70
     0
102
RTVSPost2010Prop54
  1
strokes_ogs.tif
102
RTVSPost2010PropOp54
 70
     0
102
RTVSPost2010Prop55
280
     0
102
RTVSPost2010PropOp55
 70
     0
102
RTVSPost2010Prop56
140
1.0
102
RTVSPost2010PropOp56
 70
     0
102
RTVSPost2010Prop57
140
1.0
102
RTVSPost2010PropOp57
 70
     0
  0
XRECORD
  5
313
102
{ACAD_REACTORS
330
312
102
}
330
312
100
AcDbXrecord
280
     1
102
RTVSPropertyOp0
 70
     1
102
RTVSPropertyOp1
 70
     1
102
RTVSPropertyOp2
 70
     1
102
RTVSPropertyOp3
 70
     1
102
RTVSPropertyOp4
 70
     1
102
RTVSPropertyOp5
 70
     1
102
RTVSPropertyOp6
 70
     1
102
RTVSPropertyOp7
 70
     1
102
RTVSPropertyOp8
 70
     1
102
RTVSPropertyOp9
 70
     1
102
RTVSPropertyOp10
 70
     1
102
RTVSPropertyOp11
 70
     1
102
RTVSPropertyOp12
 70
     1
102
RTVSPropertyOp13
 70
     1
102
RTVSPropertyOp14
 70
     1
102
RTVSPropertyOp15
 70
     1
102
RTVSPropertyOp16
 70
     1
102
RTVSPropertyOp17
 70
     1
102
RTVSPropertyOp18
 70
     1
102
RTVSPropertyOp19
 70
     1
102
RTVSPropertyOp20
 70
     1
102
RTVSPropertyOp21
 70
     1
102
RTVSPropertyOp22
 70
     1
102
RTVSPropertyOp23
 70
     1
102
RTVSPropertyOp24
 70
     1
102
RTVSPropertyOp25
 70
     1
102
RTVSPropertyOp26
 70
     1
102
RTVSPropertyOp27
 70
     1
102
RTVSPropertyOp28
 70
     1
102
RTVSPropertyOp29
 70
     1
102
RTVSPropertyOp30
 70
     1
102
RTVSPropertyOp31
 70
     1
102
RTVSPropertyOp32
 70
     1
102
RTVSPropertyOp33
 70
     1
102
RTVSPropertyOp34
 70
     1
102
RTVSPropertyOp35
 70
     1
102
RTVSPropertyOp36
 70
     1
102
RTVSPropertyOp37
 70
     1
102
RTVSPropertyOp38
 70
     1
102
RTVSPropertyOp39
 70
     1
102
RTVSPropertyOp40
 70
     1
102
RTVSPropertyOp41
 70
     1
102
RTVSPropertyOp42
 70
     1
102
RTVSPropertyOp43
 70
     1
102
RTVSPropertyOp44
 70
     1
102
RTVSPropertyOp45
 70
     1
102
RTVSPropertyOp46
 70
     1
102
RTVSPropertyOp47
 70
     1
102
RTVSPropertyOp48
 70
     1
102
RTVSPropertyOp49
 70
     1
102
RTVSPropertyOp50
 70
     1
102
RTVSPropertyOp51
 70
     0
102
RTVSPropertyOp52
 70
     0
102
RTVSPropertyOp53
 70
     1
102
RTVSPropertyOp54
 70
     1
102
RTVSPropertyOp55
 70
     1
102
RTVSPropertyOp56
 70
     1
102
RTVSPropertyOp57
 70
     1
102
RTVSPost2010Prop28
280
     0
102
RTVSPost2010PropOp28
 70
     1
102
RTVSPost2010Prop29
280
     1
102
RTVSPost2010PropOp29
 70
     1
102
RTVSPost2010Prop30
280
     1
102
RTVSPost2010PropOp30
 70
     1
102
RTVSPost2010Prop31
280
     0
102
RTVSPost2010PropOp31
 70
     1
102
RTVSPost2010Prop32
280
     0
102
RTVSPost2010PropOp32
 70
     1
102
RTVSPost2010Prop33
280
     0
102
RTVSPost2010PropOp33
 70
     1
102
RTVSPost2010Prop34
280
     0
102
RTVSPost2010PropOp34
 70
     1
102
RTVSPost2010Prop35
280
     0
102
RTVSPost2010PropOp35
 70
     1
102
RTVSPost2010Prop36
280
     0
102
RTVSPost2010PropOp36
 70
     1
102
RTVSPost2010Prop37
 90
       50
102
RTVSPost2010PropOp37
 70
     1
102
RTVSPost2010Prop38
140
0.0
102
RTVSPost2010PropOp38
 70
     1
102
RTVSPost2010Prop39
140
1.0
102
RTVSPost2010PropOp39
 70
     1
102
RTVSPost2010Prop40
 90
        0
102
RTVSPost2010PropOp40
 70
     1
102
RTVSPost2010Prop41ColorIndex
 90
       18
102
RTVSPost2010Prop41ColorRGB
 90
        0
102
RTVSPost2010PropOp41
 70
     1
102
RTVSPost2010Prop42
 90
       50
102
RTVSPost2010PropOp42
 70
     1
102
RTVSPost2010Prop43
 90
        3
102
RTVSPost2010PropOp43
 70
     1
102
RTVSPost2010Prop44ColorIndex
 90
        5
102
RTVSPost2010Prop44ColorRGB
 90
      255
102
RTVSPost2010PropOp44
 70
     1
102
RTVSPost2010Prop45
280
     0
102
RTVSPost2010PropOp45
 70
     1
102
RTVSPost2010Prop46
 90
       50
102
RTVSPost2010PropOp46
 70
     1
102
RTVSPost2010Prop47
 90
       50
102
RTVSPost2010PropOp47
 70
     1
102
RTVSPost2010Prop48
 90
       50
102
RTVSPost2010PropOp48
 70
     1
102
RTVSPost2010Prop49
280
     0
102
RTVSPost2010PropOp49
 70
     1
102
RTVSPost2010Prop50
 90
       50
102
RTVSPost2010PropOp50
 70
     1
102
RTVSPost2010Prop51ColorIndex
 90
      256
102
RTVSPost2010Prop51ColorRGB
 90
-16777216
102
RTVSPost2010PropOp51
 70
     0
102
RTVSPost2010Prop52
140
1.0
102
RTVSPost2010PropOp52
 70
     0
102
RTVSPost2010Prop53
 90
        2
102
RTVSPost2010PropOp53
 70
     1
102
RTVSPost2010Prop54
  1
strokes_ogs.tif
102
RTVSPost2010PropOp54
 70
     1
102
RTVSPost2010Prop55
280
     0
102
RTVSPost2010PropOp55
 70
     1
102
RTVSPost2010Prop56
140
1.0
102
RTVSPost2010PropOp56
 70
     1
102
RTVSPost2010Prop57
140
1.0
102
RTVSPost2010PropOp57
 70
     1
  0
XRECORD
  5
2F7
102
{ACAD_REACTORS
330
2F6
102
}
330
2F6
100
AcDbXrecord
280
     1
102
RTVSPropertyOp0
 70
     1
102
RTVSPropertyOp1
 70
     1
102
RTVSPropertyOp2
 70
     1
102
RTVSPropertyOp3
 70
     1
102
RTVSPropertyOp4
 70
     1
102
RTVSPropertyOp5
 70
     1
102
RTVSPropertyOp6
 70
     1
102
RTVSPropertyOp7
 70
     1
102
RTVSPropertyOp8
 70
     1
102
RTVSPropertyOp9
 70
     1
102
RTVSPropertyOp10
 70
     1
102
RTVSPropertyOp11
 70
     1
102
RTVSPropertyOp12
 70
     1
102
RTVSPropertyOp13
 70
     1
102
RTVSPropertyOp14
 70
     1
102
RTVSPropertyOp15
 70
     1
102
RTVSPropertyOp16
 70
     1
102
RTVSPropertyOp17
 70
     1
102
RTVSPropertyOp18
 70
     1
102
RTVSPropertyOp19
 70
     1
102
RTVSPropertyOp20
 70
     1
102
RTVSPropertyOp21
 70
     1
102
RTVSPropertyOp22
 70
     1
102
RTVSPropertyOp23
 70
     1
102
RTVSPropertyOp24
 70
     1
102
RTVSPropertyOp25
 70
     1
102
RTVSPropertyOp26
 70
     1
102
RTVSPropertyOp27
 70
     1
102
RTVSPropertyOp28
 70
     1
102
RTVSPropertyOp29
 70
     1
102
RTVSPropertyOp30
 70
     1
102
RTVSPropertyOp31
 70
     1
102
RTVSPropertyOp32
 70
     1
102
RTVSPropertyOp33
 70
     1
102
RTVSPropertyOp34
 70
     1
102
RTVSPropertyOp35
 70
     1
102
RTVSPropertyOp36
 70
     1
102
RTVSPropertyOp37
 70
     1
102
RTVSPropertyOp38
 70
     1
102
RTVSPropertyOp39
 70
     1
102
RTVSPropertyOp40
 70
     1
102
RTVSPropertyOp41
 70
     1
102
RTVSPropertyOp42
 70
     1
102
RTVSPropertyOp43
 70
     1
102
RTVSPropertyOp44
 70
     1
102
RTVSPropertyOp45
 70
     1
102
RTVSPropertyOp46
 70
     1
102
RTVSPropertyOp47
 70
     1
102
RTVSPropertyOp48
 70
     1
102
RTVSPropertyOp49
 70
     1
102
RTVSPropertyOp50
 70
     1
102
RTVSPropertyOp51
 70
     0
102
RTVSPropertyOp52
 70
     0
102
RTVSPropertyOp53
 70
     1
102
RTVSPropertyOp54
 70
     1
102
RTVSPropertyOp55
 70
     1
102
RTVSPropertyOp56
 70
     1
102
RTVSPropertyOp57
 70
     1
102
RTVSPost2010Prop28
280
     0
102
RTVSPost2010PropOp28
 70
     1
102
RTVSPost2010Prop29
280
     1
102
RTVSPost2010PropOp29
 70
     1
102
RTVSPost2010Prop30
280
     1
102
RTVSPost2010PropOp30
 70
     1
102
RTVSPost2010Prop31
280
     0
102
RTVSPost2010PropOp31
 70
     1
102
RTVSPost2010Prop32
280
     0
102
RTVSPost2010PropOp32
 70
     1
102
RTVSPost2010Prop33
280
     0
102
RTVSPost2010PropOp33
 70
     1
102
RTVSPost2010Prop34
280
     0
102
RTVSPost2010PropOp34
 70
     1
102
RTVSPost2010Prop35
280
     0
102
RTVSPost2010PropOp35
 70
     1
102
RTVSPost2010Prop36
280
     0
102
RTVSPost2010PropOp36
 70
     1
102
RTVSPost2010Prop37
 90
       50
102
RTVSPost2010PropOp37
 70
     1
102
RTVSPost2010Prop38
140
0.0
102
RTVSPost2010PropOp38
 70
     1
102
RTVSPost2010Prop39
140
1.0
102
RTVSPost2010PropOp39
 70
     1
102
RTVSPost2010Prop40
 90
        0
102
RTVSPost2010PropOp40
 70
     1
102
RTVSPost2010Prop41ColorIndex
 90
       18
102
RTVSPost2010Prop41ColorRGB
 90
        0
102
RTVSPost2010PropOp41
 70
     1
102
RTVSPost2010Prop42
 90
       50
102
RTVSPost2010PropOp42
 70
     1
102
RTVSPost2010Prop43
 90
        3
102
RTVSPost2010PropOp43
 70
     1
102
RTVSPost2010Prop44ColorIndex
 90
        5
102
RTVSPost2010Prop44ColorRGB
 90
      255
102
RTVSPost2010PropOp44
 70
     1
102
RTVSPost2010Prop45
280
     0
102
RTVSPost2010PropOp45
 70
     1
102
RTVSPost2010Prop46
 90
       50
102
RTVSPost2010PropOp46
 70
     1
102
RTVSPost2010Prop47
 90
       50
102
RTVSPost2010PropOp47
 70
     1
102
RTVSPost2010Prop48
 90
       50
102
RTVSPost2010PropOp48
 70
     1
102
RTVSPost2010Prop49
280
     0
102
RTVSPost2010PropOp49
 70
     1
102
RTVSPost2010Prop50
 90
       50
102
RTVSPost2010PropOp50
 70
     1
102
RTVSPost2010Prop51ColorIndex
 90
      256
102
RTVSPost2010Prop51ColorRGB
 90
-16777216
102
RTVSPost2010PropOp51
 70
     0
102
RTVSPost2010Prop52
140
1.0
102
RTVSPost2010PropOp52
 70
     0
102
RTVSPost2010Prop53
 90
        2
102
RTVSPost2010PropOp53
 70
     1
102
RTVSPost2010Prop54
  1
strokes_ogs.tif
102
RTVSPost2010PropOp54
 70
     1
102
RTVSPost2010Prop55
280
     0
102
RTVSPost2010PropOp55
 70
     1
102
RTVSPost2010Prop56
140
1.0
102
RTVSPost2010PropOp56
 70
     1
102
RTVSPost2010Prop57
140
1.0
102
RTVSPost2010PropOp57
 70
     1
  0
XRECORD
  5
2F9
102
{ACAD_REACTORS
330
2F8
102
}
330
2F8
100
AcDbXrecord
280
     1
102
RTVSPropertyOp0
 70
     1
102
RTVSPropertyOp1
 70
     1
102
RTVSPropertyOp2
 70
     1
102
RTVSPropertyOp3
 70
     1
102
RTVSPropertyOp4
 70
     1
102
RTVSPropertyOp5
 70
     1
102
RTVSPropertyOp6
 70
     1
102
RTVSPropertyOp7
 70
     1
102
RTVSPropertyOp8
 70
     1
102
RTVSPropertyOp9
 70
     1
102
RTVSPropertyOp10
 70
     1
102
RTVSPropertyOp11
 70
     1
102
RTVSPropertyOp12
 70
     1
102
RTVSPropertyOp13
 70
     1
102
RTVSPropertyOp14
 70
     1
102
RTVSPropertyOp15
 70
     1
102
RTVSPropertyOp16
 70
     1
102
RTVSPropertyOp17
 70
     1
102
RTVSPropertyOp18
 70
     1
102
RTVSPropertyOp19
 70
     1
102
RTVSPropertyOp20
 70
     1
102
RTVSPropertyOp21
 70
     1
102
RTVSPropertyOp22
 70
     1
102
RTVSPropertyOp23
 70
     1
102
RTVSPropertyOp24
 70
     1
102
RTVSPropertyOp25
 70
     1
102
RTVSPropertyOp26
 70
     1
102
RTVSPropertyOp27
 70
     1
102
RTVSPropertyOp28
 70
     1
102
RTVSPropertyOp29
 70
     1
102
RTVSPropertyOp30
 70
     1
102
RTVSPropertyOp31
 70
     1
102
RTVSPropertyOp32
 70
     1
102
RTVSPropertyOp33
 70
     1
102
RTVSPropertyOp34
 70
     1
102
RTVSPropertyOp35
 70
     1
102
RTVSPropertyOp36
 70
     1
102
RTVSPropertyOp37
 70
     1
102
RTVSPropertyOp38
 70
     1
102
RTVSPropertyOp39
 70
     1
102
RTVSPropertyOp40
 70
     1
102
RTVSPropertyOp41
 70
     1
102
RTVSPropertyOp42
 70
     1
102
RTVSPropertyOp43
 70
     1
102
RTVSPropertyOp44
 70
     1
102
RTVSPropertyOp45
 70
     1
102
RTVSPropertyOp46
 70
     1
102
RTVSPropertyOp47
 70
     1
102
RTVSPropertyOp48
 70
     1
102
RTVSPropertyOp49
 70
     1
102
RTVSPropertyOp50
 70
     1
102
RTVSPropertyOp51
 70
     0
102
RTVSPropertyOp52
 70
     0
102
RTVSPropertyOp53
 70
     1
102
RTVSPropertyOp54
 70
     1
102
RTVSPropertyOp55
 70
     1
102
RTVSPropertyOp56
 70
     1
102
RTVSPropertyOp57
 70
     1
102
RTVSPost2010Prop28
280
     0
102
RTVSPost2010PropOp28
 70
     1
102
RTVSPost2010Prop29
280
     1
102
RTVSPost2010PropOp29
 70
     1
102
RTVSPost2010Prop30
280
     1
102
RTVSPost2010PropOp30
 70
     1
102
RTVSPost2010Prop31
280
     0
102
RTVSPost2010PropOp31
 70
     1
102
RTVSPost2010Prop32
280
     0
102
RTVSPost2010PropOp32
 70
     1
102
RTVSPost2010Prop33
280
     0
102
RTVSPost2010PropOp33
 70
     1
102
RTVSPost2010Prop34
280
     0
102
RTVSPost2010PropOp34
 70
     1
102
RTVSPost2010Prop35
280
     0
102
RTVSPost2010PropOp35
 70
     1
102
RTVSPost2010Prop36
280
     0
102
RTVSPost2010PropOp36
 70
     1
102
RTVSPost2010Prop37
 90
       50
102
RTVSPost2010PropOp37
 70
     1
102
RTVSPost2010Prop38
140
0.0
102
RTVSPost2010PropOp38
 70
     1
102
RTVSPost2010Prop39
140
1.0
102
RTVSPost2010PropOp39
 70
     1
102
RTVSPost2010Prop40
 90
        0
102
RTVSPost2010PropOp40
 70
     1
102
RTVSPost2010Prop41ColorIndex
 90
       18
102
RTVSPost2010Prop41ColorRGB
 90
        0
102
RTVSPost2010PropOp41
 70
     1
102
RTVSPost2010Prop42
 90
       50
102
RTVSPost2010PropOp42
 70
     1
102
RTVSPost2010Prop43
 90
        3
102
RTVSPost2010PropOp43
 70
     1
102
RTVSPost2010Prop44ColorIndex
 90
        5
102
RTVSPost2010Prop44ColorRGB
 90
      255
102
RTVSPost2010PropOp44
 70
     1
102
RTVSPost2010Prop45
280
     0
102
RTVSPost2010PropOp45
 70
     1
102
RTVSPost2010Prop46
 90
       50
102
RTVSPost2010PropOp46
 70
     1
102
RTVSPost2010Prop47
 90
       50
102
RTVSPost2010PropOp47
 70
     1
102
RTVSPost2010Prop48
 90
       50
102
RTVSPost2010PropOp48
 70
     1
102
RTVSPost2010Prop49
280
     0
102
RTVSPost2010PropOp49
 70
     1
102
RTVSPost2010Prop50
 90
       50
102
RTVSPost2010PropOp50
 70
     1
102
RTVSPost2010Prop51ColorIndex
 90
      256
102
RTVSPost2010Prop51ColorRGB
 90
-16777216
102
RTVSPost2010PropOp51
 70
     0
102
RTVSPost2010Prop52
140
1.0
102
RTVSPost2010PropOp52
 70
     0
102
RTVSPost2010Prop53
 90
        2
102
RTVSPost2010PropOp53
 70
     1
102
RTVSPost2010Prop54
  1
strokes_ogs.tif
102
RTVSPost2010PropOp54
 70
     1
102
RTVSPost2010Prop55
280
     0
102
RTVSPost2010PropOp55
 70
     1
102
RTVSPost2010Prop56
140
1.0
102
RTVSPost2010PropOp56
 70
     1
102
RTVSPost2010Prop57
140
1.0
102
RTVSPost2010PropOp57
 70
     1
  0
XRECORD
  5
2FB
102
{ACAD_REACTORS
330
2FA
102
}
330
2FA
100
AcDbXrecord
280
     1
102
RTVSPropertyOp0
 70
     1
102
RTVSPropertyOp1
 70
     1
102
RTVSPropertyOp2
 70
     1
102
RTVSPropertyOp3
 70
     1
102
RTVSPropertyOp4
 70
     1
102
RTVSPropertyOp5
 70
     1
102
RTVSPropertyOp6
 70
     1
102
RTVSPropertyOp7
 70
     1
102
RTVSPropertyOp8
 70
     1
102
RTVSPropertyOp9
 70
     1
102
RTVSPropertyOp10
 70
     1
102
RTVSPropertyOp11
 70
     1
102
RTVSPropertyOp12
 70
     1
102
RTVSPropertyOp13
 70
     1
102
RTVSPropertyOp14
 70
     1
102
RTVSPropertyOp15
 70
     1
102
RTVSPropertyOp16
 70
     1
102
RTVSPropertyOp17
 70
     1
102
RTVSPropertyOp18
 70
     1
102
RTVSPropertyOp19
 70
     1
102
RTVSPropertyOp20
 70
     1
102
RTVSPropertyOp21
 70
     1
102
RTVSPropertyOp22
 70
     1
102
RTVSPropertyOp23
 70
     1
102
RTVSPropertyOp24
 70
     1
102
RTVSPropertyOp25
 70
     1
102
RTVSPropertyOp26
 70
     1
102
RTVSPropertyOp27
 70
     1
102
RTVSPropertyOp28
 70
     1
102
RTVSPropertyOp29
 70
     1
102
RTVSPropertyOp30
 70
     1
102
RTVSPropertyOp31
 70
     1
102
RTVSPropertyOp32
 70
     1
102
RTVSPropertyOp33
 70
     1
102
RTVSPropertyOp34
 70
     1
102
RTVSPropertyOp35
 70
     1
102
RTVSPropertyOp36
 70
     1
102
RTVSPropertyOp37
 70
     1
102
RTVSPropertyOp38
 70
     1
102
RTVSPropertyOp39
 70
     1
102
RTVSPropertyOp40
 70
     1
102
RTVSPropertyOp41
 70
     1
102
RTVSPropertyOp42
 70
     1
102
RTVSPropertyOp43
 70
     1
102
RTVSPropertyOp44
 70
     1
102
RTVSPropertyOp45
 70
     1
102
RTVSPropertyOp46
 70
     1
102
RTVSPropertyOp47
 70
     1
102
RTVSPropertyOp48
 70
     1
102
RTVSPropertyOp49
 70
     1
102
RTVSPropertyOp50
 70
     1
102
RTVSPropertyOp51
 70
     0
102
RTVSPropertyOp52
 70
     0
102
RTVSPropertyOp53
 70
     1
102
RTVSPropertyOp54
 70
     1
102
RTVSPropertyOp55
 70
     1
102
RTVSPropertyOp56
 70
     1
102
RTVSPropertyOp57
 70
     1
102
RTVSPost2010Prop28
280
     0
102
RTVSPost2010PropOp28
 70
     1
102
RTVSPost2010Prop29
280
     1
102
RTVSPost2010PropOp29
 70
     1
102
RTVSPost2010Prop30
280
     1
102
RTVSPost2010PropOp30
 70
     1
102
RTVSPost2010Prop31
280
     0
102
RTVSPost2010PropOp31
 70
     1
102
RTVSPost2010Prop32
280
     0
102
RTVSPost2010PropOp32
 70
     1
102
RTVSPost2010Prop33
280
     0
102
RTVSPost2010PropOp33
 70
     1
102
RTVSPost2010Prop34
280
     0
102
RTVSPost2010PropOp34
 70
     1
102
RTVSPost2010Prop35
280
     0
102
RTVSPost2010PropOp35
 70
     1
102
RTVSPost2010Prop36
280
     0
102
RTVSPost2010PropOp36
 70
     1
102
RTVSPost2010Prop37
 90
       50
102
RTVSPost2010PropOp37
 70
     1
102
RTVSPost2010Prop38
140
0.0
102
RTVSPost2010PropOp38
 70
     1
102
RTVSPost2010Prop39
140
1.0
102
RTVSPost2010PropOp39
 70
     1
102
RTVSPost2010Prop40
 90
        0
102
RTVSPost2010PropOp40
 70
     1
102
RTVSPost2010Prop41ColorIndex
 90
       18
102
RTVSPost2010Prop41ColorRGB
 90
        0
102
RTVSPost2010PropOp41
 70
     1
102
RTVSPost2010Prop42
 90
       50
102
RTVSPost2010PropOp42
 70
     1
102
RTVSPost2010Prop43
 90
        3
102
RTVSPost2010PropOp43
 70
     1
102
RTVSPost2010Prop44ColorIndex
 90
        5
102
RTVSPost2010Prop44ColorRGB
 90
      255
102
RTVSPost2010PropOp44
 70
     1
102
RTVSPost2010Prop45
280
     0
102
RTVSPost2010PropOp45
 70
     1
102
RTVSPost2010Prop46
 90
       50
102
RTVSPost2010PropOp46
 70
     1
102
RTVSPost2010Prop47
 90
       50
102
RTVSPost2010PropOp47
 70
     1
102
RTVSPost2010Prop48
 90
       50
102
RTVSPost2010PropOp48
 70
     1
102
RTVSPost2010Prop49
280
     0
102
RTVSPost2010PropOp49
 70
     1
102
RTVSPost2010Prop50
 90
       50
102
RTVSPost2010PropOp50
 70
     1
102
RTVSPost2010Prop51ColorIndex
 90
      256
102
RTVSPost2010Prop51ColorRGB
 90
-16777216
102
RTVSPost2010PropOp51
 70
     0
102
RTVSPost2010Prop52
140
1.0
102
RTVSPost2010PropOp52
 70
     0
102
RTVSPost2010Prop53
 90
        2
102
RTVSPost2010PropOp53
 70
     1
102
RTVSPost2010Prop54
  1
strokes_ogs.tif
102
RTVSPost2010PropOp54
 70
     1
102
RTVSPost2010Prop55
280
     0
102
RTVSPost2010PropOp55
 70
     1
102
RTVSPost2010Prop56
140
1.0
102
RTVSPost2010PropOp56
 70
     1
102
RTVSPost2010Prop57
140
1.0
102
RTVSPost2010PropOp57
 70
     1
  0
XRECORD
  5
2FD
102
{ACAD_REACTORS
330
2FC
102
}
330
2FC
100
AcDbXrecord
280
     1
102
RTVSPropertyOp0
 70
     1
102
RTVSPropertyOp1
 70
     1
102
RTVSPropertyOp2
 70
     1
102
RTVSPropertyOp3
 70
     1
102
RTVSPropertyOp4
 70
     1
102
RTVSPropertyOp5
 70
     1
102
RTVSPropertyOp6
 70
     1
102
RTVSPropertyOp7
 70
     1
102
RTVSPropertyOp8
 70
     1
102
RTVSPropertyOp9
 70
     1
102
RTVSPropertyOp10
 70
     1
102
RTVSPropertyOp11
 70
     1
102
RTVSPropertyOp12
 70
     1
102
RTVSPropertyOp13
 70
     1
102
RTVSPropertyOp14
 70
     1
102
RTVSPropertyOp15
 70
     1
102
RTVSPropertyOp16
 70
     1
102
RTVSPropertyOp17
 70
     1
102
RTVSPropertyOp18
 70
     1
102
RTVSPropertyOp19
 70
     1
102
RTVSPropertyOp20
 70
     1
102
RTVSPropertyOp21
 70
     1
102
RTVSPropertyOp22
 70
     1
102
RTVSPropertyOp23
 70
     1
102
RTVSPropertyOp24
 70
     1
102
RTVSPropertyOp25
 70
     1
102
RTVSPropertyOp26
 70
     1
102
RTVSPropertyOp27
 70
     1
102
RTVSPropertyOp28
 70
     1
102
RTVSPropertyOp29
 70
     1
102
RTVSPropertyOp30
 70
     1
102
RTVSPropertyOp31
 70
     1
102
RTVSPropertyOp32
 70
     1
102
RTVSPropertyOp33
 70
     1
102
RTVSPropertyOp34
 70
     1
102
RTVSPropertyOp35
 70
     1
102
RTVSPropertyOp36
 70
     1
102
RTVSPropertyOp37
 70
     1
102
RTVSPropertyOp38
 70
     1
102
RTVSPropertyOp39
 70
     1
102
RTVSPropertyOp40
 70
     1
102
RTVSPropertyOp41
 70
     1
102
RTVSPropertyOp42
 70
     1
102
RTVSPropertyOp43
 70
     1
102
RTVSPropertyOp44
 70
     1
102
RTVSPropertyOp45
 70
     1
102
RTVSPropertyOp46
 70
     1
102
RTVSPropertyOp47
 70
     1
102
RTVSPropertyOp48
 70
     1
102
RTVSPropertyOp49
 70
     1
102
RTVSPropertyOp50
 70
     1
102
RTVSPropertyOp51
 70
     0
102
RTVSPropertyOp52
 70
     0
102
RTVSPropertyOp53
 70
     1
102
RTVSPropertyOp54
 70
     1
102
RTVSPropertyOp55
 70
     1
102
RTVSPropertyOp56
 70
     1
102
RTVSPropertyOp57
 70
     1
102
RTVSPost2010Prop28
280
     0
102
RTVSPost2010PropOp28
 70
     1
102
RTVSPost2010Prop29
280
     1
102
RTVSPost2010PropOp29
 70
     1
102
RTVSPost2010Prop30
280
     1
102
RTVSPost2010PropOp30
 70
     1
102
RTVSPost2010Prop31
280
     0
102
RTVSPost2010PropOp31
 70
     1
102
RTVSPost2010Prop32
280
     0
102
RTVSPost2010PropOp32
 70
     1
102
RTVSPost2010Prop33
280
     0
102
RTVSPost2010PropOp33
 70
     1
102
RTVSPost2010Prop34
280
     0
102
RTVSPost2010PropOp34
 70
     1
102
RTVSPost2010Prop35
280
     0
102
RTVSPost2010PropOp35
 70
     1
102
RTVSPost2010Prop36
280
     0
102
RTVSPost2010PropOp36
 70
     1
102
RTVSPost2010Prop37
 90
       50
102
RTVSPost2010PropOp37
 70
     1
102
RTVSPost2010Prop38
140
0.0
102
RTVSPost2010PropOp38
 70
     1
102
RTVSPost2010Prop39
140
1.0
102
RTVSPost2010PropOp39
 70
     1
102
RTVSPost2010Prop40
 90
        0
102
RTVSPost2010PropOp40
 70
     1
102
RTVSPost2010Prop41ColorIndex
 90
       18
102
RTVSPost2010Prop41ColorRGB
 90
        0
102
RTVSPost2010PropOp41
 70
     1
102
RTVSPost2010Prop42
 90
       50
102
RTVSPost2010PropOp42
 70
     1
102
RTVSPost2010Prop43
 90
        3
102
RTVSPost2010PropOp43
 70
     1
102
RTVSPost2010Prop44ColorIndex
 90
        5
102
RTVSPost2010Prop44ColorRGB
 90
      255
102
RTVSPost2010PropOp44
 70
     1
102
RTVSPost2010Prop45
280
     0
102
RTVSPost2010PropOp45
 70
     1
102
RTVSPost2010Prop46
 90
       50
102
RTVSPost2010PropOp46
 70
     1
102
RTVSPost2010Prop47
 90
       50
102
RTVSPost2010PropOp47
 70
     1
102
RTVSPost2010Prop48
 90
       50
102
RTVSPost2010PropOp48
 70
     1
102
RTVSPost2010Prop49
280
     0
102
RTVSPost2010PropOp49
 70
     1
102
RTVSPost2010Prop50
 90
       50
102
RTVSPost2010PropOp50
 70
     1
102
RTVSPost2010Prop51ColorIndex
 90
      256
102
RTVSPost2010Prop51ColorRGB
 90
-16777216
102
RTVSPost2010PropOp51
 70
     0
102
RTVSPost2010Prop52
140
1.0
102
RTVSPost2010PropOp52
 70
     0
102
RTVSPost2010Prop53
 90
        2
102
RTVSPost2010PropOp53
 70
     1
102
RTVSPost2010Prop54
  1
strokes_ogs.tif
102
RTVSPost2010PropOp54
 70
     1
102
RTVSPost2010Prop55
280
     0
102
RTVSPost2010PropOp55
 70
     1
102
RTVSPost2010Prop56
140
1.0
102
RTVSPost2010PropOp56
 70
     1
102
RTVSPost2010Prop57
140
1.0
102
RTVSPost2010PropOp57
 70
     1
  0
XRECORD
  5
303
102
{ACAD_REACTORS
330
302
102
}
330
302
100
AcDbXrecord
280
     1
102
RTVSPropertyOp0
 70
     1
102
RTVSPropertyOp1
 70
     1
102
RTVSPropertyOp2
 70
     1
102
RTVSPropertyOp3
 70
     1
102
RTVSPropertyOp4
 70
     1
102
RTVSPropertyOp5
 70
     1
102
RTVSPropertyOp6
 70
     1
102
RTVSPropertyOp7
 70
     1
102
RTVSPropertyOp8
 70
     1
102
RTVSPropertyOp9
 70
     1
102
RTVSPropertyOp10
 70
     1
102
RTVSPropertyOp11
 70
     1
102
RTVSPropertyOp12
 70
     1
102
RTVSPropertyOp13
 70
     1
102
RTVSPropertyOp14
 70
     1
102
RTVSPropertyOp15
 70
     1
102
RTVSPropertyOp16
 70
     1
102
RTVSPropertyOp17
 70
     1
102
RTVSPropertyOp18
 70
     1
102
RTVSPropertyOp19
 70
     1
102
RTVSPropertyOp20
 70
     1
102
RTVSPropertyOp21
 70
     1
102
RTVSPropertyOp22
 70
     1
102
RTVSPropertyOp23
 70
     1
102
RTVSPropertyOp24
 70
     1
102
RTVSPropertyOp25
 70
     1
102
RTVSPropertyOp26
 70
     1
102
RTVSPropertyOp27
 70
     1
102
RTVSPropertyOp28
 70
     1
102
RTVSPropertyOp29
 70
     1
102
RTVSPropertyOp30
 70
     1
102
RTVSPropertyOp31
 70
     1
102
RTVSPropertyOp32
 70
     1
102
RTVSPropertyOp33
 70
     1
102
RTVSPropertyOp34
 70
     1
102
RTVSPropertyOp35
 70
     1
102
RTVSPropertyOp36
 70
     1
102
RTVSPropertyOp37
 70
     1
102
RTVSPropertyOp38
 70
     1
102
RTVSPropertyOp39
 70
     1
102
RTVSPropertyOp40
 70
     1
102
RTVSPropertyOp41
 70
     1
102
RTVSPropertyOp42
 70
     1
102
RTVSPropertyOp43
 70
     1
102
RTVSPropertyOp44
 70
     1
102
RTVSPropertyOp45
 70
     1
102
RTVSPropertyOp46
 70
     1
102
RTVSPropertyOp47
 70
     1
102
RTVSPropertyOp48
 70
     1
102
RTVSPropertyOp49
 70
     1
102
RTVSPropertyOp50
 70
     1
102
RTVSPropertyOp51
 70
     0
102
RTVSPropertyOp52
 70
     0
102
RTVSPropertyOp53
 70
     1
102
RTVSPropertyOp54
 70
     1
102
RTVSPropertyOp55
 70
     1
102
RTVSPropertyOp56
 70
     1
102
RTVSPropertyOp57
 70
     1
102
RTVSPost2010Prop28
280
     0
102
RTVSPost2010PropOp28
 70
     1
102
RTVSPost2010Prop29
280
     1
102
RTVSPost2010PropOp29
 70
     1
102
RTVSPost2010Prop30
280
     1
102
RTVSPost2010PropOp30
 70
     1
102
RTVSPost2010Prop31
280
     0
102
RTVSPost2010PropOp31
 70
     1
102
RTVSPost2010Prop32
280
     0
102
RTVSPost2010PropOp32
 70
     1
102
RTVSPost2010Prop33
280
     0
102
RTVSPost2010PropOp33
 70
     1
102
RTVSPost2010Prop34
280
     0
102
RTVSPost2010PropOp34
 70
     1
102
RTVSPost2010Prop35
280
     0
102
RTVSPost2010PropOp35
 70
     1
102
RTVSPost2010Prop36
280
     0
102
RTVSPost2010PropOp36
 70
     1
102
RTVSPost2010Prop37
 90
       50
102
RTVSPost2010PropOp37
 70
     1
102
RTVSPost2010Prop38
140
0.0
102
RTVSPost2010PropOp38
 70
     1
102
RTVSPost2010Prop39
140
1.0
102
RTVSPost2010PropOp39
 70
     1
102
RTVSPost2010Prop40
 90
        0
102
RTVSPost2010PropOp40
 70
     1
102
RTVSPost2010Prop41ColorIndex
 90
       18
102
RTVSPost2010Prop41ColorRGB
 90
        0
102
RTVSPost2010PropOp41
 70
     1
102
RTVSPost2010Prop42
 90
       50
102
RTVSPost2010PropOp42
 70
     1
102
RTVSPost2010Prop43
 90
        3
102
RTVSPost2010PropOp43
 70
     1
102
RTVSPost2010Prop44ColorIndex
 90
        5
102
RTVSPost2010Prop44ColorRGB
 90
      255
102
RTVSPost2010PropOp44
 70
     1
102
RTVSPost2010Prop45
280
     0
102
RTVSPost2010PropOp45
 70
     1
102
RTVSPost2010Prop46
 90
       50
102
RTVSPost2010PropOp46
 70
     1
102
RTVSPost2010Prop47
 90
       50
102
RTVSPost2010PropOp47
 70
     1
102
RTVSPost2010Prop48
 90
       50
102
RTVSPost2010PropOp48
 70
     1
102
RTVSPost2010Prop49
280
     0
102
RTVSPost2010PropOp49
 70
     1
102
RTVSPost2010Prop50
 90
       50
102
RTVSPost2010PropOp50
 70
     1
102
RTVSPost2010Prop51ColorIndex
 90
      256
102
RTVSPost2010Prop51ColorRGB
 90
-16777216
102
RTVSPost2010PropOp51
 70
     0
102
RTVSPost2010Prop52
140
1.0
102
RTVSPost2010PropOp52
 70
     0
102
RTVSPost2010Prop53
 90
        2
102
RTVSPost2010PropOp53
 70
     1
102
RTVSPost2010Prop54
  1
strokes_ogs.tif
102
RTVSPost2010PropOp54
 70
     1
102
RTVSPost2010Prop55
280
     0
102
RTVSPost2010PropOp55
 70
     1
102
RTVSPost2010Prop56
140
1.0
102
RTVSPost2010PropOp56
 70
     1
102
RTVSPost2010Prop57
140
1.0
102
RTVSPost2010PropOp57
 70
     1
  0
XRECORD
  5
317
102
{ACAD_REACTORS
330
316
102
}
330
316
100
AcDbXrecord
280
     1
102
RTVSPropertyOp0
 70
     0
102
RTVSPropertyOp1
 70
     0
102
RTVSPropertyOp2
 70
     0
102
RTVSPropertyOp3
 70
     0
102
RTVSPropertyOp4
 70
     0
102
RTVSPropertyOp5
 70
     0
102
RTVSPropertyOp6
 70
     0
102
RTVSPropertyOp7
 70
     0
102
RTVSPropertyOp8
 70
     0
102
RTVSPropertyOp9
 70
     0
102
RTVSPropertyOp10
 70
     0
102
RTVSPropertyOp11
 70
     0
102
RTVSPropertyOp12
 70
     0
102
RTVSPropertyOp13
 70
     0
102
RTVSPropertyOp14
 70
     2
102
RTVSPropertyOp15
 70
     0
102
RTVSPropertyOp16
 70
     0
102
RTVSPropertyOp17
 70
     0
102
RTVSPropertyOp18
 70
     0
102
RTVSPropertyOp19
 70
     0
102
RTVSPropertyOp20
 70
     0
102
RTVSPropertyOp21
 70
     0
102
RTVSPropertyOp22
 70
     0
102
RTVSPropertyOp23
 70
     0
102
RTVSPropertyOp24
 70
     0
102
RTVSPropertyOp25
 70
     0
102
RTVSPropertyOp26
 70
     0
102
RTVSPropertyOp27
 70
     0
102
RTVSPropertyOp28
 70
     0
102
RTVSPropertyOp29
 70
     0
102
RTVSPropertyOp30
 70
     0
102
RTVSPropertyOp31
 70
     0
102
RTVSPropertyOp32
 70
     0
102
RTVSPropertyOp33
 70
     0
102
RTVSPropertyOp34
 70
     0
102
RTVSPropertyOp35
 70
     0
102
RTVSPropertyOp36
 70
     0
102
RTVSPropertyOp37
 70
     0
102
RTVSPropertyOp38
 70
     0
102
RTVSPropertyOp39
 70
     0
102
RTVSPropertyOp40
 70
     0
102
RTVSPropertyOp41
 70
     0
102
RTVSPropertyOp42
 70
     0
102
RTVSPropertyOp43
 70
     0
102
RTVSPropertyOp44
 70
     0
102
RTVSPropertyOp45
 70
     0
102
RTVSPropertyOp46
 70
     0
102
RTVSPropertyOp47
 70
     0
102
RTVSPropertyOp48
 70
     0
102
RTVSPropertyOp49
 70
     0
102
RTVSPropertyOp50
 70
     0
102
RTVSPropertyOp51
 70
     0
102
RTVSPropertyOp52
 70
     0
102
RTVSPropertyOp53
 70
     0
102
RTVSPropertyOp54
 70
     0
102
RTVSPropertyOp55
 70
     0
102
RTVSPropertyOp56
 70
     0
102
RTVSPropertyOp57
 70
     0
102
RTVSPost2010Prop28
280
     0
102
RTVSPost2010PropOp28
 70
     0
102
RTVSPost2010Prop29
280
     1
102
RTVSPost2010PropOp29
 70
     0
102
RTVSPost2010Prop30
280
     1
102
RTVSPost2010PropOp30
 70
     0
102
RTVSPost2010Prop31
280
     0
102
RTVSPost2010PropOp31
 70
     0
102
RTVSPost2010Prop32
280
     0
102
RTVSPost2010PropOp32
 70
     0
102
RTVSPost2010Prop33
280
     0
102
RTVSPost2010PropOp33
 70
     0
102
RTVSPost2010Prop34
280
     0
102
RTVSPost2010PropOp34
 70
     0
102
RTVSPost2010Prop35
280
     0
102
RTVSPost2010PropOp35
 70
     0
102
RTVSPost2010Prop36
280
     0
102
RTVSPost2010PropOp36
 70
     0
102
RTVSPost2010Prop37
 90
       50
102
RTVSPost2010PropOp37
 70
     0
102
RTVSPost2010Prop38
140
0.0
102
RTVSPost2010PropOp38
 70
     0
102
RTVSPost2010Prop39
140
1.0
102
RTVSPost2010PropOp39
 70
     0
102
RTVSPost2010Prop40
 90
        0
102
RTVSPost2010PropOp40
 70
     0
102
RTVSPost2010Prop41ColorIndex
 90
       18
102
RTVSPost2010Prop41ColorRGB
 90
        0
102
RTVSPost2010PropOp41
 70
     0
102
RTVSPost2010Prop42
 90
       50
102
RTVSPost2010PropOp42
 70
     0
102
RTVSPost2010Prop43
 90
        3
102
RTVSPost2010PropOp43
 70
     0
102
RTVSPost2010Prop44ColorIndex
 90
        5
102
RTVSPost2010Prop44ColorRGB
 90
      255
102
RTVSPost2010PropOp44
 70
     0
102
RTVSPost2010Prop45
280
     0
102
RTVSPost2010PropOp45
 70
     0
102
RTVSPost2010Prop46
 90
       50
102
RTVSPost2010PropOp46
 70
     0
102
RTVSPost2010Prop47
 90
       50
102
RTVSPost2010PropOp47
 70
     0
102
RTVSPost2010Prop48
 90
       50
102
RTVSPost2010PropOp48
 70
     0
102
RTVSPost2010Prop49
280
     0
102
RTVSPost2010PropOp49
 70
     0
102
RTVSPost2010Prop50
 90
       50
102
RTVSPost2010PropOp50
 70
     0
102
RTVSPost2010Prop51ColorIndex
 90
      256
102
RTVSPost2010Prop51ColorRGB
 90
-16777216
102
RTVSPost2010PropOp51
 70
     0
102
RTVSPost2010Prop52
140
1.0
102
RTVSPost2010PropOp52
 70
     0
102
RTVSPost2010Prop53
 90
        2
102
RTVSPost2010PropOp53
 70
     0
102
RTVSPost2010Prop54
  1
strokes_ogs.tif
102
RTVSPost2010PropOp54
 70
     0
102
RTVSPost2010Prop55
280
     0
102
RTVSPost2010PropOp55
 70
     0
102
RTVSPost2010Prop56
140
1.0
102
RTVSPost2010PropOp56
 70
     0
102
RTVSPost2010Prop57
140
1.0
102
RTVSPost2010PropOp57
 70
     0
  0
XRECORD
  5
311
102
{ACAD_REACTORS
330
310
102
}
330
310
100
AcDbXrecord
280
     1
102
RTVSPropertyOp0
 70
     1
102
RTVSPropertyOp1
 70
     1
102
RTVSPropertyOp2
 70
     1
102
RTVSPropertyOp3
 70
     1
102
RTVSPropertyOp4
 70
     1
102
RTVSPropertyOp5
 70
     1
102
RTVSPropertyOp6
 70
     1
102
RTVSPropertyOp7
 70
     1
102
RTVSPropertyOp8
 70
     1
102
RTVSPropertyOp9
 70
     1
102
RTVSPropertyOp10
 70
     1
102
RTVSPropertyOp11
 70
     1
102
RTVSPropertyOp12
 70
     1
102
RTVSPropertyOp13
 70
     1
102
RTVSPropertyOp14
 70
     1
102
RTVSPropertyOp15
 70
     1
102
RTVSPropertyOp16
 70
     1
102
RTVSPropertyOp17
 70
     1
102
RTVSPropertyOp18
 70
     1
102
RTVSPropertyOp19
 70
     1
102
RTVSPropertyOp20
 70
     1
102
RTVSPropertyOp21
 70
     1
102
RTVSPropertyOp22
 70
     1
102
RTVSPropertyOp23
 70
     1
102
RTVSPropertyOp24
 70
     1
102
RTVSPropertyOp25
 70
     1
102
RTVSPropertyOp26
 70
     1
102
RTVSPropertyOp27
 70
     1
102
RTVSPropertyOp28
 70
     1
102
RTVSPropertyOp29
 70
     1
102
RTVSPropertyOp30
 70
     1
102
RTVSPropertyOp31
 70
     1
102
RTVSPropertyOp32
 70
     1
102
RTVSPropertyOp33
 70
     1
102
RTVSPropertyOp34
 70
     1
102
RTVSPropertyOp35
 70
     1
102
RTVSPropertyOp36
 70
     1
102
RTVSPropertyOp37
 70
     1
102
RTVSPropertyOp38
 70
     1
102
RTVSPropertyOp39
 70
     1
102
RTVSPropertyOp40
 70
     1
102
RTVSPropertyOp41
 70
     1
102
RTVSPropertyOp42
 70
     1
102
RTVSPropertyOp43
 70
     1
102
RTVSPropertyOp44
 70
     1
102
RTVSPropertyOp45
 70
     1
102
RTVSPropertyOp46
 70
     1
102
RTVSPropertyOp47
 70
     1
102
RTVSPropertyOp48
 70
     1
102
RTVSPropertyOp49
 70
     1
102
RTVSPropertyOp50
 70
     1
102
RTVSPropertyOp51
 70
     0
102
RTVSPropertyOp52
 70
     0
102
RTVSPropertyOp53
 70
     1
102
RTVSPropertyOp54
 70
     1
102
RTVSPropertyOp55
 70
     1
102
RTVSPropertyOp56
 70
     1
102
RTVSPropertyOp57
 70
     1
102
RTVSPost2010Prop28
280
     0
102
RTVSPost2010PropOp28
 70
     1
102
RTVSPost2010Prop29
280
     1
102
RTVSPost2010PropOp29
 70
     1
102
RTVSPost2010Prop30
280
     1
102
RTVSPost2010PropOp30
 70
     1
102
RTVSPost2010Prop31
280
     0
102
RTVSPost2010PropOp31
 70
     1
102
RTVSPost2010Prop32
280
     0
102
RTVSPost2010PropOp32
 70
     1
102
RTVSPost2010Prop33
280
     0
102
RTVSPost2010PropOp33
 70
     1
102
RTVSPost2010Prop34
280
     0
102
RTVSPost2010PropOp34
 70
     1
102
RTVSPost2010Prop35
280
     0
102
RTVSPost2010PropOp35
 70
     1
102
RTVSPost2010Prop36
280
     0
102
RTVSPost2010PropOp36
 70
     1
102
RTVSPost2010Prop37
 90
       50
102
RTVSPost2010PropOp37
 70
     1
102
RTVSPost2010Prop38
140
0.0
102
RTVSPost2010PropOp38
 70
     1
102
RTVSPost2010Prop39
140
1.0
102
RTVSPost2010PropOp39
 70
     1
102
RTVSPost2010Prop40
 90
        0
102
RTVSPost2010PropOp40
 70
     1
102
RTVSPost2010Prop41ColorIndex
 90
       18
102
RTVSPost2010Prop41ColorRGB
 90
        0
102
RTVSPost2010PropOp41
 70
     1
102
RTVSPost2010Prop42
 90
       50
102
RTVSPost2010PropOp42
 70
     1
102
RTVSPost2010Prop43
 90
        3
102
RTVSPost2010PropOp43
 70
     1
102
RTVSPost2010Prop44ColorIndex
 90
        5
102
RTVSPost2010Prop44ColorRGB
 90
      255
102
RTVSPost2010PropOp44
 70
     1
102
RTVSPost2010Prop45
280
     0
102
RTVSPost2010PropOp45
 70
     1
102
RTVSPost2010Prop46
 90
       50
102
RTVSPost2010PropOp46
 70
     1
102
RTVSPost2010Prop47
 90
       50
102
RTVSPost2010PropOp47
 70
     1
102
RTVSPost2010Prop48
 90
       50
102
RTVSPost2010PropOp48
 70
     1
102
RTVSPost2010Prop49
280
     0
102
RTVSPost2010PropOp49
 70
     1
102
RTVSPost2010Prop50
 90
       50
102
RTVSPost2010PropOp50
 70
     1
102
RTVSPost2010Prop51ColorIndex
 90
      256
102
RTVSPost2010Prop51ColorRGB
 90
-16777216
102
RTVSPost2010PropOp51
 70
     0
102
RTVSPost2010Prop52
140
1.0
102
RTVSPost2010PropOp52
 70
     0
102
RTVSPost2010Prop53
 90
        2
102
RTVSPost2010PropOp53
 70
     1
102
RTVSPost2010Prop54
  1
strokes_ogs.tif
102
RTVSPost2010PropOp54
 70
     1
102
RTVSPost2010Prop55
280
     0
102
RTVSPost2010PropOp55
 70
     1
102
RTVSPost2010Prop56
140
1.0
102
RTVSPost2010PropOp56
 70
     1
102
RTVSPost2010Prop57
140
1.0
102
RTVSPost2010PropOp57
 70
     1
  0
XRECORD
  5
319
102
{ACAD_REACTORS
330
318
102
}
330
318
100
AcDbXrecord
280
     1
102
RTVSPropertyOp0
 70
     0
102
RTVSPropertyOp1
 70
     0
102
RTVSPropertyOp2
 70
     0
102
RTVSPropertyOp3
 70
     0
102
RTVSPropertyOp4
 70
     0
102
RTVSPropertyOp5
 70
     0
102
RTVSPropertyOp6
 70
     0
102
RTVSPropertyOp7
 70
     0
102
RTVSPropertyOp8
 70
     0
102
RTVSPropertyOp9
 70
     0
102
RTVSPropertyOp10
 70
     0
102
RTVSPropertyOp11
 70
     0
102
RTVSPropertyOp12
 70
     0
102
RTVSPropertyOp13
 70
     0
102
RTVSPropertyOp14
 70
     2
102
RTVSPropertyOp15
 70
     0
102
RTVSPropertyOp16
 70
     0
102
RTVSPropertyOp17
 70
     0
102
RTVSPropertyOp18
 70
     0
102
RTVSPropertyOp19
 70
     0
102
RTVSPropertyOp20
 70
     0
102
RTVSPropertyOp21
 70
     0
102
RTVSPropertyOp22
 70
     0
102
RTVSPropertyOp23
 70
     0
102
RTVSPropertyOp24
 70
     0
102
RTVSPropertyOp25
 70
     0
102
RTVSPropertyOp26
 70
     0
102
RTVSPropertyOp27
 70
     0
102
RTVSPropertyOp28
 70
     0
102
RTVSPropertyOp29
 70
     0
102
RTVSPropertyOp30
 70
     0
102
RTVSPropertyOp31
 70
     0
102
RTVSPropertyOp32
 70
     0
102
RTVSPropertyOp33
 70
     0
102
RTVSPropertyOp34
 70
     0
102
RTVSPropertyOp35
 70
     0
102
RTVSPropertyOp36
 70
     0
102
RTVSPropertyOp37
 70
     0
102
RTVSPropertyOp38
 70
     0
102
RTVSPropertyOp39
 70
     0
102
RTVSPropertyOp40
 70
     0
102
RTVSPropertyOp41
 70
     0
102
RTVSPropertyOp42
 70
     0
102
RTVSPropertyOp43
 70
     0
102
RTVSPropertyOp44
 70
     0
102
RTVSPropertyOp45
 70
     0
102
RTVSPropertyOp46
 70
     0
102
RTVSPropertyOp47
 70
     0
102
RTVSPropertyOp48
 70
     0
102
RTVSPropertyOp49
 70
     0
102
RTVSPropertyOp50
 70
     0
102
RTVSPropertyOp51
 70
     0
102
RTVSPropertyOp52
 70
     0
102
RTVSPropertyOp53
 70
     0
102
RTVSPropertyOp54
 70
     0
102
RTVSPropertyOp55
 70
     0
102
RTVSPropertyOp56
 70
     0
102
RTVSPropertyOp57
 70
     0
102
RTVSPost2010Prop28
280
     0
102
RTVSPost2010PropOp28
 70
     0
102
RTVSPost2010Prop29
280
     1
102
RTVSPost2010PropOp29
 70
     0
102
RTVSPost2010Prop30
280
     1
102
RTVSPost2010PropOp30
 70
     0
102
RTVSPost2010Prop31
280
     0
102
RTVSPost2010PropOp31
 70
     0
102
RTVSPost2010Prop32
280
     0
102
RTVSPost2010PropOp32
 70
     0
102
RTVSPost2010Prop33
280
     0
102
RTVSPost2010PropOp33
 70
     0
102
RTVSPost2010Prop34
280
     0
102
RTVSPost2010PropOp34
 70
     0
102
RTVSPost2010Prop35
280
     0
102
RTVSPost2010PropOp35
 70
     0
102
RTVSPost2010Prop36
280
     0
102
RTVSPost2010PropOp36
 70
     0
102
RTVSPost2010Prop37
 90
       50
102
RTVSPost2010PropOp37
 70
     0
102
RTVSPost2010Prop38
140
0.0
102
RTVSPost2010PropOp38
 70
     0
102
RTVSPost2010Prop39
140
1.0
102
RTVSPost2010PropOp39
 70
     0
102
RTVSPost2010Prop40
 90
        0
102
RTVSPost2010PropOp40
 70
     0
102
RTVSPost2010Prop41ColorIndex
 90
       18
102
RTVSPost2010Prop41ColorRGB
 90
        0
102
RTVSPost2010PropOp41
 70
     0
102
RTVSPost2010Prop42
 90
       50
102
RTVSPost2010PropOp42
 70
     0
102
RTVSPost2010Prop43
 90
        3
102
RTVSPost2010PropOp43
 70
     0
102
RTVSPost2010Prop44ColorIndex
 90
        5
102
RTVSPost2010Prop44ColorRGB
 90
      255
102
RTVSPost2010PropOp44
 70
     0
102
RTVSPost2010Prop45
280
     0
102
RTVSPost2010PropOp45
 70
     0
102
RTVSPost2010Prop46
 90
       50
102
RTVSPost2010PropOp46
 70
     0
102
RTVSPost2010Prop47
 90
       50
102
RTVSPost2010PropOp47
 70
     0
102
RTVSPost2010Prop48
 90
       50
102
RTVSPost2010PropOp48
 70
     0
102
RTVSPost2010Prop49
280
     0
102
RTVSPost2010PropOp49
 70
     0
102
RTVSPost2010Prop50
 90
       50
102
RTVSPost2010PropOp50
 70
     0
102
RTVSPost2010Prop51ColorIndex
 90
      256
102
RTVSPost2010Prop51ColorRGB
 90
-16777216
102
RTVSPost2010PropOp51
 70
     0
102
RTVSPost2010Prop52
140
1.0
102
RTVSPost2010PropOp52
 70
     0
102
RTVSPost2010Prop53
 90
        2
102
RTVSPost2010PropOp53
 70
     0
102
RTVSPost2010Prop54
  1
strokes_ogs.tif
102
RTVSPost2010PropOp54
 70
     0
102
RTVSPost2010Prop55
280
     0
102
RTVSPost2010PropOp55
 70
     0
102
RTVSPost2010Prop56
140
1.0
102
RTVSPost2010PropOp56
 70
     0
102
RTVSPost2010Prop57
140
1.0
102
RTVSPost2010PropOp57
 70
     0
  0
XRECORD
  5
307
102
{ACAD_REACTORS
330
306
102
}
330
306
100
AcDbXrecord
280
     1
102
RTVSPropertyOp0
 70
     1
102
RTVSPropertyOp1
 70
     1
102
RTVSPropertyOp2
 70
     1
102
RTVSPropertyOp3
 70
     1
102
RTVSPropertyOp4
 70
     1
102
RTVSPropertyOp5
 70
     1
102
RTVSPropertyOp6
 70
     1
102
RTVSPropertyOp7
 70
     1
102
RTVSPropertyOp8
 70
     1
102
RTVSPropertyOp9
 70
     1
102
RTVSPropertyOp10
 70
     1
102
RTVSPropertyOp11
 70
     1
102
RTVSPropertyOp12
 70
     1
102
RTVSPropertyOp13
 70
     1
102
RTVSPropertyOp14
 70
     1
102
RTVSPropertyOp15
 70
     1
102
RTVSPropertyOp16
 70
     1
102
RTVSPropertyOp17
 70
     1
102
RTVSPropertyOp18
 70
     1
102
RTVSPropertyOp19
 70
     1
102
RTVSPropertyOp20
 70
     1
102
RTVSPropertyOp21
 70
     1
102
RTVSPropertyOp22
 70
     1
102
RTVSPropertyOp23
 70
     1
102
RTVSPropertyOp24
 70
     1
102
RTVSPropertyOp25
 70
     1
102
RTVSPropertyOp26
 70
     1
102
RTVSPropertyOp27
 70
     1
102
RTVSPropertyOp28
 70
     1
102
RTVSPropertyOp29
 70
     1
102
RTVSPropertyOp30
 70
     1
102
RTVSPropertyOp31
 70
     1
102
RTVSPropertyOp32
 70
     1
102
RTVSPropertyOp33
 70
     1
102
RTVSPropertyOp34
 70
     1
102
RTVSPropertyOp35
 70
     1
102
RTVSPropertyOp36
 70
     1
102
RTVSPropertyOp37
 70
     1
102
RTVSPropertyOp38
 70
     1
102
RTVSPropertyOp39
 70
     1
102
RTVSPropertyOp40
 70
     1
102
RTVSPropertyOp41
 70
     1
102
RTVSPropertyOp42
 70
     1
102
RTVSPropertyOp43
 70
     1
102
RTVSPropertyOp44
 70
     1
102
RTVSPropertyOp45
 70
     1
102
RTVSPropertyOp46
 70
     1
102
RTVSPropertyOp47
 70
     1
102
RTVSPropertyOp48
 70
     1
102
RTVSPropertyOp49
 70
     1
102
RTVSPropertyOp50
 70
     1
102
RTVSPropertyOp51
 70
     0
102
RTVSPropertyOp52
 70
     0
102
RTVSPropertyOp53
 70
     1
102
RTVSPropertyOp54
 70
     1
102
RTVSPropertyOp55
 70
     1
102
RTVSPropertyOp56
 70
     1
102
RTVSPropertyOp57
 70
     1
102
RTVSPost2010Prop28
280
     0
102
RTVSPost2010PropOp28
 70
     1
102
RTVSPost2010Prop29
280
     1
102
RTVSPost2010PropOp29
 70
     1
102
RTVSPost2010Prop30
280
     1
102
RTVSPost2010PropOp30
 70
     1
102
RTVSPost2010Prop31
280
     0
102
RTVSPost2010PropOp31
 70
     1
102
RTVSPost2010Prop32
280
     0
102
RTVSPost2010PropOp32
 70
     1
102
RTVSPost2010Prop33
280
     0
102
RTVSPost2010PropOp33
 70
     1
102
RTVSPost2010Prop34
280
     0
102
RTVSPost2010PropOp34
 70
     1
102
RTVSPost2010Prop35
280
     0
102
RTVSPost2010PropOp35
 70
     1
102
RTVSPost2010Prop36
280
     0
102
RTVSPost2010PropOp36
 70
     1
102
RTVSPost2010Prop37
 90
       50
102
RTVSPost2010PropOp37
 70
     1
102
RTVSPost2010Prop38
140
0.0
102
RTVSPost2010PropOp38
 70
     1
102
RTVSPost2010Prop39
140
1.0
102
RTVSPost2010PropOp39
 70
     1
102
RTVSPost2010Prop40
 90
        0
102
RTVSPost2010PropOp40
 70
     1
102
RTVSPost2010Prop41ColorIndex
 90
       18
102
RTVSPost2010Prop41ColorRGB
 90
        0
102
RTVSPost2010PropOp41
 70
     1
102
RTVSPost2010Prop42
 90
       50
102
RTVSPost2010PropOp42
 70
     1
102
RTVSPost2010Prop43
 90
        3
102
RTVSPost2010PropOp43
 70
     1
102
RTVSPost2010Prop44ColorIndex
 90
        5
102
RTVSPost2010Prop44ColorRGB
 90
      255
102
RTVSPost2010PropOp44
 70
     1
102
RTVSPost2010Prop45
280
     0
102
RTVSPost2010PropOp45
 70
     1
102
RTVSPost2010Prop46
 90
       50
102
RTVSPost2010PropOp46
 70
     1
102
RTVSPost2010Prop47
 90
       50
102
RTVSPost2010PropOp47
 70
     1
102
RTVSPost2010Prop48
 90
       50
102
RTVSPost2010PropOp48
 70
     1
102
RTVSPost2010Prop49
280
     0
102
RTVSPost2010PropOp49
 70
     1
102
RTVSPost2010Prop50
 90
       50
102
RTVSPost2010PropOp50
 70
     1
102
RTVSPost2010Prop51ColorIndex
 90
      256
102
RTVSPost2010Prop51ColorRGB
 90
-16777216
102
RTVSPost2010PropOp51
 70
     0
102
RTVSPost2010Prop52
140
1.0
102
RTVSPost2010PropOp52
 70
     0
102
RTVSPost2010Prop53
 90
        2
102
RTVSPost2010PropOp53
 70
     1
102
RTVSPost2010Prop54
  1
strokes_ogs.tif
102
RTVSPost2010PropOp54
 70
     1
102
RTVSPost2010Prop55
280
     0
102
RTVSPost2010PropOp55
 70
     1
102
RTVSPost2010Prop56
140
1.0
102
RTVSPost2010PropOp56
 70
     1
102
RTVSPost2010Prop57
140
1.0
102
RTVSPost2010PropOp57
 70
     1
  0
XRECORD
  5
325
102
{ACAD_REACTORS
330
324
102
}
330
324
100
AcDbXrecord
280
     1
102
RTVSPropertyOp0
 70
     1
102
RTVSPropertyOp1
 70
     1
102
RTVSPropertyOp2
 70
     1
102
RTVSPropertyOp3
 70
     1
102
RTVSPropertyOp4
 70
     1
102
RTVSPropertyOp5
 70
     1
102
RTVSPropertyOp6
 70
     1
102
RTVSPropertyOp7
 70
     1
102
RTVSPropertyOp8
 70
     1
102
RTVSPropertyOp9
 70
     1
102
RTVSPropertyOp10
 70
     1
102
RTVSPropertyOp11
 70
     1
102
RTVSPropertyOp12
 70
     1
102
RTVSPropertyOp13
 70
     1
102
RTVSPropertyOp14
 70
     1
102
RTVSPropertyOp15
 70
     1
102
RTVSPropertyOp16
 70
     1
102
RTVSPropertyOp17
 70
     1
102
RTVSPropertyOp18
 70
     1
102
RTVSPropertyOp19
 70
     1
102
RTVSPropertyOp20
 70
     1
102
RTVSPropertyOp21
 70
     1
102
RTVSPropertyOp22
 70
     1
102
RTVSPropertyOp23
 70
     1
102
RTVSPropertyOp24
 70
     1
102
RTVSPropertyOp25
 70
     1
102
RTVSPropertyOp26
 70
     1
102
RTVSPropertyOp27
 70
     1
102
RTVSPropertyOp28
 70
     1
102
RTVSPropertyOp29
 70
     1
102
RTVSPropertyOp30
 70
     1
102
RTVSPropertyOp31
 70
     1
102
RTVSPropertyOp32
 70
     1
102
RTVSPropertyOp33
 70
     1
102
RTVSPropertyOp34
 70
     1
102
RTVSPropertyOp35
 70
     1
102
RTVSPropertyOp36
 70
     1
102
RTVSPropertyOp37
 70
     1
102
RTVSPropertyOp38
 70
     1
102
RTVSPropertyOp39
 70
     1
102
RTVSPropertyOp40
 70
     1
102
RTVSPropertyOp41
 70
     1
102
RTVSPropertyOp42
 70
     1
102
RTVSPropertyOp43
 70
     1
102
RTVSPropertyOp44
 70
     1
102
RTVSPropertyOp45
 70
     1
102
RTVSPropertyOp46
 70
     1
102
RTVSPropertyOp47
 70
     1
102
RTVSPropertyOp48
 70
     1
102
RTVSPropertyOp49
 70
     1
102
RTVSPropertyOp50
 70
     1
102
RTVSPropertyOp51
 70
     0
102
RTVSPropertyOp52
 70
     0
102
RTVSPropertyOp53
 70
     1
102
RTVSPropertyOp54
 70
     1
102
RTVSPropertyOp55
 70
     1
102
RTVSPropertyOp56
 70
     1
102
RTVSPropertyOp57
 70
     1
102
RTVSPost2010Prop28
280
     0
102
RTVSPost2010PropOp28
 70
     1
102
RTVSPost2010Prop29
280
     1
102
RTVSPost2010PropOp29
 70
     1
102
RTVSPost2010Prop30
280
     1
102
RTVSPost2010PropOp30
 70
     1
102
RTVSPost2010Prop31
280
     0
102
RTVSPost2010PropOp31
 70
     1
102
RTVSPost2010Prop32
280
     0
102
RTVSPost2010PropOp32
 70
     1
102
RTVSPost2010Prop33
280
     0
102
RTVSPost2010PropOp33
 70
     1
102
RTVSPost2010Prop34
280
     0
102
RTVSPost2010PropOp34
 70
     1
102
RTVSPost2010Prop35
280
     0
102
RTVSPost2010PropOp35
 70
     1
102
RTVSPost2010Prop36
280
     0
102
RTVSPost2010PropOp36
 70
     1
102
RTVSPost2010Prop37
 90
       50
102
RTVSPost2010PropOp37
 70
     1
102
RTVSPost2010Prop38
140
0.0
102
RTVSPost2010PropOp38
 70
     1
102
RTVSPost2010Prop39
140
1.0
102
RTVSPost2010PropOp39
 70
     1
102
RTVSPost2010Prop40
 90
        0
102
RTVSPost2010PropOp40
 70
     1
102
RTVSPost2010Prop41ColorIndex
 90
       18
102
RTVSPost2010Prop41ColorRGB
 90
        0
102
RTVSPost2010PropOp41
 70
     1
102
RTVSPost2010Prop42
 90
       50
102
RTVSPost2010PropOp42
 70
     1
102
RTVSPost2010Prop43
 90
        3
102
RTVSPost2010PropOp43
 70
     1
102
RTVSPost2010Prop44ColorIndex
 90
        5
102
RTVSPost2010Prop44ColorRGB
 90
      255
102
RTVSPost2010PropOp44
 70
     1
102
RTVSPost2010Prop45
280
     0
102
RTVSPost2010PropOp45
 70
     1
102
RTVSPost2010Prop46
 90
       50
102
RTVSPost2010PropOp46
 70
     1
102
RTVSPost2010Prop47
 90
       50
102
RTVSPost2010PropOp47
 70
     1
102
RTVSPost2010Prop48
 90
       50
102
RTVSPost2010PropOp48
 70
     1
102
RTVSPost2010Prop49
280
     0
102
RTVSPost2010PropOp49
 70
     1
102
RTVSPost2010Prop50
 90
       50
102
RTVSPost2010PropOp50
 70
     1
102
RTVSPost2010Prop51ColorIndex
 90
      256
102
RTVSPost2010Prop51ColorRGB
 90
-16777216
102
RTVSPost2010PropOp51
 70
     0
102
RTVSPost2010Prop52
140
1.0
102
RTVSPost2010PropOp52
 70
     0
102
RTVSPost2010Prop53
 90
        2
102
RTVSPost2010PropOp53
 70
     1
102
RTVSPost2010Prop54
  1
strokes_ogs.tif
102
RTVSPost2010PropOp54
 70
     1
102
RTVSPost2010Prop55
280
     0
102
RTVSPost2010PropOp55
 70
     1
102
RTVSPost2010Prop56
140
1.0
102
RTVSPost2010PropOp56
 70
     1
102
RTVSPost2010Prop57
140
1.0
102
RTVSPost2010PropOp57
 70
     1
  0
XRECORD
  5
323
102
{ACAD_REACTORS
330
322
102
}
330
322
100
AcDbXrecord
280
     1
102
RTVSPropertyOp0
 70
     1
102
RTVSPropertyOp1
 70
     1
102
RTVSPropertyOp2
 70
     1
102
RTVSPropertyOp3
 70
     1
102
RTVSPropertyOp4
 70
     1
102
RTVSPropertyOp5
 70
     1
102
RTVSPropertyOp6
 70
     1
102
RTVSPropertyOp7
 70
     1
102
RTVSPropertyOp8
 70
     1
102
RTVSPropertyOp9
 70
     1
102
RTVSPropertyOp10
 70
     1
102
RTVSPropertyOp11
 70
     1
102
RTVSPropertyOp12
 70
     1
102
RTVSPropertyOp13
 70
     1
102
RTVSPropertyOp14
 70
     1
102
RTVSPropertyOp15
 70
     1
102
RTVSPropertyOp16
 70
     1
102
RTVSPropertyOp17
 70
     1
102
RTVSPropertyOp18
 70
     1
102
RTVSPropertyOp19
 70
     1
102
RTVSPropertyOp20
 70
     1
102
RTVSPropertyOp21
 70
     1
102
RTVSPropertyOp22
 70
     1
102
RTVSPropertyOp23
 70
     1
102
RTVSPropertyOp24
 70
     1
102
RTVSPropertyOp25
 70
     1
102
RTVSPropertyOp26
 70
     1
102
RTVSPropertyOp27
 70
     1
102
RTVSPropertyOp28
 70
     1
102
RTVSPropertyOp29
 70
     1
102
RTVSPropertyOp30
 70
     1
102
RTVSPropertyOp31
 70
     1
102
RTVSPropertyOp32
 70
     1
102
RTVSPropertyOp33
 70
     1
102
RTVSPropertyOp34
 70
     1
102
RTVSPropertyOp35
 70
     1
102
RTVSPropertyOp36
 70
     1
102
RTVSPropertyOp37
 70
     1
102
RTVSPropertyOp38
 70
     1
102
RTVSPropertyOp39
 70
     1
102
RTVSPropertyOp40
 70
     1
102
RTVSPropertyOp41
 70
     1
102
RTVSPropertyOp42
 70
     1
102
RTVSPropertyOp43
 70
     1
102
RTVSPropertyOp44
 70
     1
102
RTVSPropertyOp45
 70
     1
102
RTVSPropertyOp46
 70
     1
102
RTVSPropertyOp47
 70
     1
102
RTVSPropertyOp48
 70
     1
102
RTVSPropertyOp49
 70
     1
102
RTVSPropertyOp50
 70
     1
102
RTVSPropertyOp51
 70
     0
102
RTVSPropertyOp52
 70
     0
102
RTVSPropertyOp53
 70
     1
102
RTVSPropertyOp54
 70
     1
102
RTVSPropertyOp55
 70
     1
102
RTVSPropertyOp56
 70
     1
102
RTVSPropertyOp57
 70
     1
102
RTVSPost2010Prop28
280
     0
102
RTVSPost2010PropOp28
 70
     1
102
RTVSPost2010Prop29
280
     1
102
RTVSPost2010PropOp29
 70
     1
102
RTVSPost2010Prop30
280
     1
102
RTVSPost2010PropOp30
 70
     1
102
RTVSPost2010Prop31
280
     0
102
RTVSPost2010PropOp31
 70
     1
102
RTVSPost2010Prop32
280
     0
102
RTVSPost2010PropOp32
 70
     1
102
RTVSPost2010Prop33
280
     0
102
RTVSPost2010PropOp33
 70
     1
102
RTVSPost2010Prop34
280
     0
102
RTVSPost2010PropOp34
 70
     1
102
RTVSPost2010Prop35
280
     0
102
RTVSPost2010PropOp35
 70
     1
102
RTVSPost2010Prop36
280
     0
102
RTVSPost2010PropOp36
 70
     1
102
RTVSPost2010Prop37
 90
       50
102
RTVSPost2010PropOp37
 70
     1
102
RTVSPost2010Prop38
140
0.0
102
RTVSPost2010PropOp38
 70
     1
102
RTVSPost2010Prop39
140
1.0
102
RTVSPost2010PropOp39
 70
     1
102
RTVSPost2010Prop40
 90
        0
102
RTVSPost2010PropOp40
 70
     1
102
RTVSPost2010Prop41ColorIndex
 90
       18
102
RTVSPost2010Prop41ColorRGB
 90
        0
102
RTVSPost2010PropOp41
 70
     1
102
RTVSPost2010Prop42
 90
       50
102
RTVSPost2010PropOp42
 70
     1
102
RTVSPost2010Prop43
 90
        3
102
RTVSPost2010PropOp43
 70
     1
102
RTVSPost2010Prop44ColorIndex
 90
        5
102
RTVSPost2010Prop44ColorRGB
 90
      255
102
RTVSPost2010PropOp44
 70
     1
102
RTVSPost2010Prop45
280
     0
102
RTVSPost2010PropOp45
 70
     1
102
RTVSPost2010Prop46
 90
       50
102
RTVSPost2010PropOp46
 70
     1
102
RTVSPost2010Prop47
 90
       50
102
RTVSPost2010PropOp47
 70
     1
102
RTVSPost2010Prop48
 90
       50
102
RTVSPost2010PropOp48
 70
     1
102
RTVSPost2010Prop49
280
     0
102
RTVSPost2010PropOp49
 70
     1
102
RTVSPost2010Prop50
 90
       50
102
RTVSPost2010PropOp50
 70
     1
102
RTVSPost2010Prop51ColorIndex
 90
      256
102
RTVSPost2010Prop51ColorRGB
 90
-16777216
102
RTVSPost2010PropOp51
 70
     0
102
RTVSPost2010Prop52
140
1.0
102
RTVSPost2010PropOp52
 70
     0
102
RTVSPost2010Prop53
 90
        2
102
RTVSPost2010PropOp53
 70
     1
102
RTVSPost2010Prop54
  1
strokes_ogs.tif
102
RTVSPost2010PropOp54
 70
     1
102
RTVSPost2010Prop55
280
     0
102
RTVSPost2010PropOp55
 70
     1
102
RTVSPost2010Prop56
140
1.0
102
RTVSPost2010PropOp56
 70
     1
102
RTVSPost2010Prop57
140
1.0
102
RTVSPost2010PropOp57
 70
     1
  0
XRECORD
  5
31D
102
{ACAD_REACTORS
330
31C
102
}
330
31C
100
AcDbXrecord
280
     1
102
RTVSPropertyOp0
 70
     1
102
RTVSPropertyOp1
 70
     1
102
RTVSPropertyOp2
 70
     1
102
RTVSPropertyOp3
 70
     1
102
RTVSPropertyOp4
 70
     1
102
RTVSPropertyOp5
 70
     1
102
RTVSPropertyOp6
 70
     1
102
RTVSPropertyOp7
 70
     1
102
RTVSPropertyOp8
 70
     1
102
RTVSPropertyOp9
 70
     1
102
RTVSPropertyOp10
 70
     1
102
RTVSPropertyOp11
 70
     1
102
RTVSPropertyOp12
 70
     1
102
RTVSPropertyOp13
 70
     1
102
RTVSPropertyOp14
 70
     1
102
RTVSPropertyOp15
 70
     1
102
RTVSPropertyOp16
 70
     1
102
RTVSPropertyOp17
 70
     1
102
RTVSPropertyOp18
 70
     1
102
RTVSPropertyOp19
 70
     1
102
RTVSPropertyOp20
 70
     1
102
RTVSPropertyOp21
 70
     1
102
RTVSPropertyOp22
 70
     1
102
RTVSPropertyOp23
 70
     1
102
RTVSPropertyOp24
 70
     1
102
RTVSPropertyOp25
 70
     1
102
RTVSPropertyOp26
 70
     1
102
RTVSPropertyOp27
 70
     1
102
RTVSPropertyOp28
 70
     1
102
RTVSPropertyOp29
 70
     1
102
RTVSPropertyOp30
 70
     1
102
RTVSPropertyOp31
 70
     1
102
RTVSPropertyOp32
 70
     1
102
RTVSPropertyOp33
 70
     1
102
RTVSPropertyOp34
 70
     1
102
RTVSPropertyOp35
 70
     1
102
RTVSPropertyOp36
 70
     1
102
RTVSPropertyOp37
 70
     1
102
RTVSPropertyOp38
 70
     1
102
RTVSPropertyOp39
 70
     1
102
RTVSPropertyOp40
 70
     1
102
RTVSPropertyOp41
 70
     1
102
RTVSPropertyOp42
 70
     1
102
RTVSPropertyOp43
 70
     1
102
RTVSPropertyOp44
 70
     1
102
RTVSPropertyOp45
 70
     1
102
RTVSPropertyOp46
 70
     1
102
RTVSPropertyOp47
 70
     1
102
RTVSPropertyOp48
 70
     1
102
RTVSPropertyOp49
 70
     1
102
RTVSPropertyOp50
 70
     1
102
RTVSPropertyOp51
 70
     0
102
RTVSPropertyOp52
 70
     0
102
RTVSPropertyOp53
 70
     1
102
RTVSPropertyOp54
 70
     1
102
RTVSPropertyOp55
 70
     1
102
RTVSPropertyOp56
 70
     1
102
RTVSPropertyOp57
 70
     1
102
RTVSPost2010Prop28
280
     0
102
RTVSPost2010PropOp28
 70
     1
102
RTVSPost2010Prop29
280
     1
102
RTVSPost2010PropOp29
 70
     1
102
RTVSPost2010Prop30
280
     1
102
RTVSPost2010PropOp30
 70
     1
102
RTVSPost2010Prop31
280
     0
102
RTVSPost2010PropOp31
 70
     1
102
RTVSPost2010Prop32
280
     0
102
RTVSPost2010PropOp32
 70
     1
102
RTVSPost2010Prop33
280
     0
102
RTVSPost2010PropOp33
 70
     1
102
RTVSPost2010Prop34
280
     0
102
RTVSPost2010PropOp34
 70
     1
102
RTVSPost2010Prop35
280
     0
102
RTVSPost2010PropOp35
 70
     1
102
RTVSPost2010Prop36
280
     0
102
RTVSPost2010PropOp36
 70
     1
102
RTVSPost2010Prop37
 90
       50
102
RTVSPost2010PropOp37
 70
     1
102
RTVSPost2010Prop38
140
0.0
102
RTVSPost2010PropOp38
 70
     1
102
RTVSPost2010Prop39
140
1.0
102
RTVSPost2010PropOp39
 70
     1
102
RTVSPost2010Prop40
 90
        0
102
RTVSPost2010PropOp40
 70
     1
102
RTVSPost2010Prop41ColorIndex
 90
       18
102
RTVSPost2010Prop41ColorRGB
 90
        0
102
RTVSPost2010PropOp41
 70
     1
102
RTVSPost2010Prop42
 90
       50
102
RTVSPost2010PropOp42
 70
     1
102
RTVSPost2010Prop43
 90
        3
102
RTVSPost2010PropOp43
 70
     1
102
RTVSPost2010Prop44ColorIndex
 90
        5
102
RTVSPost2010Prop44ColorRGB
 90
      255
102
RTVSPost2010PropOp44
 70
     1
102
RTVSPost2010Prop45
280
     0
102
RTVSPost2010PropOp45
 70
     1
102
RTVSPost2010Prop46
 90
       50
102
RTVSPost2010PropOp46
 70
     1
102
RTVSPost2010Prop47
 90
       50
102
RTVSPost2010PropOp47
 70
     1
102
RTVSPost2010Prop48
 90
       50
102
RTVSPost2010PropOp48
 70
     1
102
RTVSPost2010Prop49
280
     0
102
RTVSPost2010PropOp49
 70
     1
102
RTVSPost2010Prop50
 90
       50
102
RTVSPost2010PropOp50
 70
     1
102
RTVSPost2010Prop51ColorIndex
 90
      256
102
RTVSPost2010Prop51ColorRGB
 90
-16777216
102
RTVSPost2010PropOp51
 70
     0
102
RTVSPost2010Prop52
140
1.0
102
RTVSPost2010PropOp52
 70
     0
102
RTVSPost2010Prop53
 90
        2
102
RTVSPost2010PropOp53
 70
     1
102
RTVSPost2010Prop54
  1
strokes_ogs.tif
102
RTVSPost2010PropOp54
 70
     1
102
RTVSPost2010Prop55
280
     0
102
RTVSPost2010PropOp55
 70
     1
102
RTVSPost2010Prop56
140
1.0
102
RTVSPost2010PropOp56
 70
     1
102
RTVSPost2010Prop57
140
1.0
102
RTVSPost2010PropOp57
 70
     1
  0
XRECORD
  5
31F
102
{ACAD_REACTORS
330
31E
102
}
330
31E
100
AcDbXrecord
280
     1
102
RTVSPropertyOp0
 70
     1
102
RTVSPropertyOp1
 70
     1
102
RTVSPropertyOp2
 70
     1
102
RTVSPropertyOp3
 70
     1
102
RTVSPropertyOp4
 70
     1
102
RTVSPropertyOp5
 70
     1
102
RTVSPropertyOp6
 70
     1
102
RTVSPropertyOp7
 70
     1
102
RTVSPropertyOp8
 70
     1
102
RTVSPropertyOp9
 70
     1
102
RTVSPropertyOp10
 70
     1
102
RTVSPropertyOp11
 70
     1
102
RTVSPropertyOp12
 70
     1
102
RTVSPropertyOp13
 70
     1
102
RTVSPropertyOp14
 70
     1
102
RTVSPropertyOp15
 70
     1
102
RTVSPropertyOp16
 70
     1
102
RTVSPropertyOp17
 70
     1
102
RTVSPropertyOp18
 70
     1
102
RTVSPropertyOp19
 70
     1
102
RTVSPropertyOp20
 70
     1
102
RTVSPropertyOp21
 70
     1
102
RTVSPropertyOp22
 70
     1
102
RTVSPropertyOp23
 70
     1
102
RTVSPropertyOp24
 70
     1
102
RTVSPropertyOp25
 70
     1
102
RTVSPropertyOp26
 70
     1
102
RTVSPropertyOp27
 70
     1
102
RTVSPropertyOp28
 70
     1
102
RTVSPropertyOp29
 70
     1
102
RTVSPropertyOp30
 70
     1
102
RTVSPropertyOp31
 70
     1
102
RTVSPropertyOp32
 70
     1
102
RTVSPropertyOp33
 70
     1
102
RTVSPropertyOp34
 70
     1
102
RTVSPropertyOp35
 70
     1
102
RTVSPropertyOp36
 70
     1
102
RTVSPropertyOp37
 70
     1
102
RTVSPropertyOp38
 70
     1
102
RTVSPropertyOp39
 70
     1
102
RTVSPropertyOp40
 70
     1
102
RTVSPropertyOp41
 70
     1
102
RTVSPropertyOp42
 70
     1
102
RTVSPropertyOp43
 70
     1
102
RTVSPropertyOp44
 70
     1
102
RTVSPropertyOp45
 70
     1
102
RTVSPropertyOp46
 70
     1
102
RTVSPropertyOp47
 70
     1
102
RTVSPropertyOp48
 70
     1
102
RTVSPropertyOp49
 70
     1
102
RTVSPropertyOp50
 70
     1
102
RTVSPropertyOp51
 70
     0
102
RTVSPropertyOp52
 70
     0
102
RTVSPropertyOp53
 70
     1
102
RTVSPropertyOp54
 70
     1
102
RTVSPropertyOp55
 70
     1
102
RTVSPropertyOp56
 70
     1
102
RTVSPropertyOp57
 70
     1
102
RTVSPost2010Prop28
280
     0
102
RTVSPost2010PropOp28
 70
     1
102
RTVSPost2010Prop29
280
     1
102
RTVSPost2010PropOp29
 70
     1
102
RTVSPost2010Prop30
280
     1
102
RTVSPost2010PropOp30
 70
     1
102
RTVSPost2010Prop31
280
     0
102
RTVSPost2010PropOp31
 70
     1
102
RTVSPost2010Prop32
280
     0
102
RTVSPost2010PropOp32
 70
     1
102
RTVSPost2010Prop33
280
     0
102
RTVSPost2010PropOp33
 70
     1
102
RTVSPost2010Prop34
280
     0
102
RTVSPost2010PropOp34
 70
     1
102
RTVSPost2010Prop35
280
     0
102
RTVSPost2010PropOp35
 70
     1
102
RTVSPost2010Prop36
280
     0
102
RTVSPost2010PropOp36
 70
     1
102
RTVSPost2010Prop37
 90
       50
102
RTVSPost2010PropOp37
 70
     1
102
RTVSPost2010Prop38
140
0.0
102
RTVSPost2010PropOp38
 70
     1
102
RTVSPost2010Prop39
140
1.0
102
RTVSPost2010PropOp39
 70
     1
102
RTVSPost2010Prop40
 90
        0
102
RTVSPost2010PropOp40
 70
     1
102
RTVSPost2010Prop41ColorIndex
 90
       18
102
RTVSPost2010Prop41ColorRGB
 90
        0
102
RTVSPost2010PropOp41
 70
     1
102
RTVSPost2010Prop42
 90
       50
102
RTVSPost2010PropOp42
 70
     1
102
RTVSPost2010Prop43
 90
        3
102
RTVSPost2010PropOp43
 70
     1
102
RTVSPost2010Prop44ColorIndex
 90
        5
102
RTVSPost2010Prop44ColorRGB
 90
      255
102
RTVSPost2010PropOp44
 70
     1
102
RTVSPost2010Prop45
280
     0
102
RTVSPost2010PropOp45
 70
     1
102
RTVSPost2010Prop46
 90
       50
102
RTVSPost2010PropOp46
 70
     1
102
RTVSPost2010Prop47
 90
       50
102
RTVSPost2010PropOp47
 70
     1
102
RTVSPost2010Prop48
 90
       50
102
RTVSPost2010PropOp48
 70
     1
102
RTVSPost2010Prop49
280
     0
102
RTVSPost2010PropOp49
 70
     1
102
RTVSPost2010Prop50
 90
       50
102
RTVSPost2010PropOp50
 70
     1
102
RTVSPost2010Prop51ColorIndex
 90
      256
102
RTVSPost2010Prop51ColorRGB
 90
-16777216
102
RTVSPost2010PropOp51
 70
     0
102
RTVSPost2010Prop52
140
1.0
102
RTVSPost2010PropOp52
 70
     0
102
RTVSPost2010Prop53
 90
        2
102
RTVSPost2010PropOp53
 70
     1
102
RTVSPost2010Prop54
  1
strokes_ogs.tif
102
RTVSPost2010PropOp54
 70
     1
102
RTVSPost2010Prop55
280
     0
102
RTVSPost2010PropOp55
 70
     1
102
RTVSPost2010Prop56
140
1.0
102
RTVSPost2010PropOp56
 70
     1
102
RTVSPost2010Prop57
140
1.0
102
RTVSPost2010PropOp57
 70
     1
  0
XRECORD
  5
30F
102
{ACAD_REACTORS
330
30E
102
}
330
30E
100
AcDbXrecord
280
     1
102
RTVSPropertyOp0
 70
     1
102
RTVSPropertyOp1
 70
     1
102
RTVSPropertyOp2
 70
     1
102
RTVSPropertyOp3
 70
     1
102
RTVSPropertyOp4
 70
     1
102
RTVSPropertyOp5
 70
     1
102
RTVSPropertyOp6
 70
     1
102
RTVSPropertyOp7
 70
     1
102
RTVSPropertyOp8
 70
     1
102
RTVSPropertyOp9
 70
     1
102
RTVSPropertyOp10
 70
     1
102
RTVSPropertyOp11
 70
     1
102
RTVSPropertyOp12
 70
     1
102
RTVSPropertyOp13
 70
     1
102
RTVSPropertyOp14
 70
     1
102
RTVSPropertyOp15
 70
     1
102
RTVSPropertyOp16
 70
     1
102
RTVSPropertyOp17
 70
     1
102
RTVSPropertyOp18
 70
     1
102
RTVSPropertyOp19
 70
     1
102
RTVSPropertyOp20
 70
     1
102
RTVSPropertyOp21
 70
     1
102
RTVSPropertyOp22
 70
     1
102
RTVSPropertyOp23
 70
     1
102
RTVSPropertyOp24
 70
     1
102
RTVSPropertyOp25
 70
     1
102
RTVSPropertyOp26
 70
     1
102
RTVSPropertyOp27
 70
     1
102
RTVSPropertyOp28
 70
     1
102
RTVSPropertyOp29
 70
     1
102
RTVSPropertyOp30
 70
     1
102
RTVSPropertyOp31
 70
     1
102
RTVSPropertyOp32
 70
     1
102
RTVSPropertyOp33
 70
     1
102
RTVSPropertyOp34
 70
     1
102
RTVSPropertyOp35
 70
     1
102
RTVSPropertyOp36
 70
     1
102
RTVSPropertyOp37
 70
     1
102
RTVSPropertyOp38
 70
     1
102
RTVSPropertyOp39
 70
     1
102
RTVSPropertyOp40
 70
     1
102
RTVSPropertyOp41
 70
     1
102
RTVSPropertyOp42
 70
     1
102
RTVSPropertyOp43
 70
     1
102
RTVSPropertyOp44
 70
     1
102
RTVSPropertyOp45
 70
     1
102
RTVSPropertyOp46
 70
     1
102
RTVSPropertyOp47
 70
     1
102
RTVSPropertyOp48
 70
     1
102
RTVSPropertyOp49
 70
     1
102
RTVSPropertyOp50
 70
     1
102
RTVSPropertyOp51
 70
     0
102
RTVSPropertyOp52
 70
     0
102
RTVSPropertyOp53
 70
     1
102
RTVSPropertyOp54
 70
     1
102
RTVSPropertyOp55
 70
     1
102
RTVSPropertyOp56
 70
     1
102
RTVSPropertyOp57
 70
     1
102
RTVSPost2010Prop28
280
     0
102
RTVSPost2010PropOp28
 70
     1
102
RTVSPost2010Prop29
280
     1
102
RTVSPost2010PropOp29
 70
     1
102
RTVSPost2010Prop30
280
     1
102
RTVSPost2010PropOp30
 70
     1
102
RTVSPost2010Prop31
280
     0
102
RTVSPost2010PropOp31
 70
     1
102
RTVSPost2010Prop32
280
     0
102
RTVSPost2010PropOp32
 70
     1
102
RTVSPost2010Prop33
280
     0
102
RTVSPost2010PropOp33
 70
     1
102
RTVSPost2010Prop34
280
     0
102
RTVSPost2010PropOp34
 70
     1
102
RTVSPost2010Prop35
280
     0
102
RTVSPost2010PropOp35
 70
     1
102
RTVSPost2010Prop36
280
     0
102
RTVSPost2010PropOp36
 70
     1
102
RTVSPost2010Prop37
 90
       50
102
RTVSPost2010PropOp37
 70
     1
102
RTVSPost2010Prop38
140
0.0
102
RTVSPost2010PropOp38
 70
     1
102
RTVSPost2010Prop39
140
1.0
102
RTVSPost2010PropOp39
 70
     1
102
RTVSPost2010Prop40
 90
        0
102
RTVSPost2010PropOp40
 70
     1
102
RTVSPost2010Prop41ColorIndex
 90
       18
102
RTVSPost2010Prop41ColorRGB
 90
        0
102
RTVSPost2010PropOp41
 70
     1
102
RTVSPost2010Prop42
 90
       50
102
RTVSPost2010PropOp42
 70
     1
102
RTVSPost2010Prop43
 90
        3
102
RTVSPost2010PropOp43
 70
     1
102
RTVSPost2010Prop44ColorIndex
 90
        5
102
RTVSPost2010Prop44ColorRGB
 90
      255
102
RTVSPost2010PropOp44
 70
     1
102
RTVSPost2010Prop45
280
     0
102
RTVSPost2010PropOp45
 70
     1
102
RTVSPost2010Prop46
 90
       50
102
RTVSPost2010PropOp46
 70
     1
102
RTVSPost2010Prop47
 90
       50
102
RTVSPost2010PropOp47
 70
     1
102
RTVSPost2010Prop48
 90
       50
102
RTVSPost2010PropOp48
 70
     1
102
RTVSPost2010Prop49
280
     0
102
RTVSPost2010PropOp49
 70
     1
102
RTVSPost2010Prop50
 90
       50
102
RTVSPost2010PropOp50
 70
     1
102
RTVSPost2010Prop51ColorIndex
 90
      256
102
RTVSPost2010Prop51ColorRGB
 90
-16777216
102
RTVSPost2010PropOp51
 70
     0
102
RTVSPost2010Prop52
140
1.0
102
RTVSPost2010PropOp52
 70
     0
102
RTVSPost2010Prop53
 90
        2
102
RTVSPost2010PropOp53
 70
     1
102
RTVSPost2010Prop54
  1
strokes_ogs.tif
102
RTVSPost2010PropOp54
 70
     1
102
RTVSPost2010Prop55
280
     0
102
RTVSPost2010PropOp55
 70
     1
102
RTVSPost2010Prop56
140
1.0
102
RTVSPost2010PropOp56
 70
     1
102
RTVSPost2010Prop57
140
1.0
102
RTVSPost2010PropOp57
 70
     1
  0
XRECORD
  5
301
102
{ACAD_REACTORS
330
300
102
}
330
300
100
AcDbXrecord
280
     1
102
RTVSPropertyOp0
 70
     1
102
RTVSPropertyOp1
 70
     1
102
RTVSPropertyOp2
 70
     1
102
RTVSPropertyOp3
 70
     1
102
RTVSPropertyOp4
 70
     1
102
RTVSPropertyOp5
 70
     1
102
RTVSPropertyOp6
 70
     1
102
RTVSPropertyOp7
 70
     1
102
RTVSPropertyOp8
 70
     1
102
RTVSPropertyOp9
 70
     1
102
RTVSPropertyOp10
 70
     1
102
RTVSPropertyOp11
 70
     1
102
RTVSPropertyOp12
 70
     1
102
RTVSPropertyOp13
 70
     1
102
RTVSPropertyOp14
 70
     1
102
RTVSPropertyOp15
 70
     1
102
RTVSPropertyOp16
 70
     1
102
RTVSPropertyOp17
 70
     1
102
RTVSPropertyOp18
 70
     1
102
RTVSPropertyOp19
 70
     1
102
RTVSPropertyOp20
 70
     1
102
RTVSPropertyOp21
 70
     1
102
RTVSPropertyOp22
 70
     1
102
RTVSPropertyOp23
 70
     1
102
RTVSPropertyOp24
 70
     1
102
RTVSPropertyOp25
 70
     1
102
RTVSPropertyOp26
 70
     1
102
RTVSPropertyOp27
 70
     1
102
RTVSPropertyOp28
 70
     1
102
RTVSPropertyOp29
 70
     1
102
RTVSPropertyOp30
 70
     1
102
RTVSPropertyOp31
 70
     1
102
RTVSPropertyOp32
 70
     1
102
RTVSPropertyOp33
 70
     1
102
RTVSPropertyOp34
 70
     1
102
RTVSPropertyOp35
 70
     1
102
RTVSPropertyOp36
 70
     1
102
RTVSPropertyOp37
 70
     1
102
RTVSPropertyOp38
 70
     1
102
RTVSPropertyOp39
 70
     1
102
RTVSPropertyOp40
 70
     1
102
RTVSPropertyOp41
 70
     1
102
RTVSPropertyOp42
 70
     1
102
RTVSPropertyOp43
 70
     1
102
RTVSPropertyOp44
 70
     1
102
RTVSPropertyOp45
 70
     1
102
RTVSPropertyOp46
 70
     1
102
RTVSPropertyOp47
 70
     1
102
RTVSPropertyOp48
 70
     1
102
RTVSPropertyOp49
 70
     1
102
RTVSPropertyOp50
 70
     1
102
RTVSPropertyOp51
 70
     0
102
RTVSPropertyOp52
 70
     0
102
RTVSPropertyOp53
 70
     1
102
RTVSPropertyOp54
 70
     1
102
RTVSPropertyOp55
 70
     1
102
RTVSPropertyOp56
 70
     1
102
RTVSPropertyOp57
 70
     1
102
RTVSPost2010Prop28
280
     0
102
RTVSPost2010PropOp28
 70
     1
102
RTVSPost2010Prop29
280
     1
102
RTVSPost2010PropOp29
 70
     1
102
RTVSPost2010Prop30
280
     1
102
RTVSPost2010PropOp30
 70
     1
102
RTVSPost2010Prop31
280
     0
102
RTVSPost2010PropOp31
 70
     1
102
RTVSPost2010Prop32
280
     0
102
RTVSPost2010PropOp32
 70
     1
102
RTVSPost2010Prop33
280
     0
102
RTVSPost2010PropOp33
 70
     1
102
RTVSPost2010Prop34
280
     0
102
RTVSPost2010PropOp34
 70
     1
102
RTVSPost2010Prop35
280
     0
102
RTVSPost2010PropOp35
 70
     1
102
RTVSPost2010Prop36
280
     0
102
RTVSPost2010PropOp36
 70
     1
102
RTVSPost2010Prop37
 90
       50
102
RTVSPost2010PropOp37
 70
     1
102
RTVSPost2010Prop38
140
0.0
102
RTVSPost2010PropOp38
 70
     1
102
RTVSPost2010Prop39
140
1.0
102
RTVSPost2010PropOp39
 70
     1
102
RTVSPost2010Prop40
 90
        0
102
RTVSPost2010PropOp40
 70
     1
102
RTVSPost2010Prop41ColorIndex
 90
       18
102
RTVSPost2010Prop41ColorRGB
 90
        0
102
RTVSPost2010PropOp41
 70
     1
102
RTVSPost2010Prop42
 90
       50
102
RTVSPost2010PropOp42
 70
     1
102
RTVSPost2010Prop43
 90
        3
102
RTVSPost2010PropOp43
 70
     1
102
RTVSPost2010Prop44ColorIndex
 90
        5
102
RTVSPost2010Prop44ColorRGB
 90
      255
102
RTVSPost2010PropOp44
 70
     1
102
RTVSPost2010Prop45
280
     0
102
RTVSPost2010PropOp45
 70
     1
102
RTVSPost2010Prop46
 90
       50
102
RTVSPost2010PropOp46
 70
     1
102
RTVSPost2010Prop47
 90
       50
102
RTVSPost2010PropOp47
 70
     1
102
RTVSPost2010Prop48
 90
       50
102
RTVSPost2010PropOp48
 70
     1
102
RTVSPost2010Prop49
280
     0
102
RTVSPost2010PropOp49
 70
     1
102
RTVSPost2010Prop50
 90
       50
102
RTVSPost2010PropOp50
 70
     1
102
RTVSPost2010Prop51ColorIndex
 90
      256
102
RTVSPost2010Prop51ColorRGB
 90
-16777216
102
RTVSPost2010PropOp51
 70
     0
102
RTVSPost2010Prop52
140
1.0
102
RTVSPost2010PropOp52
 70
     0
102
RTVSPost2010Prop53
 90
        2
102
RTVSPost2010PropOp53
 70
     1
102
RTVSPost2010Prop54
  1
strokes_ogs.tif
102
RTVSPost2010PropOp54
 70
     1
102
RTVSPost2010Prop55
280
     0
102
RTVSPost2010PropOp55
 70
     1
102
RTVSPost2010Prop56
140
1.0
102
RTVSPost2010PropOp56
 70
     1
102
RTVSPost2010Prop57
140
1.0
102
RTVSPost2010PropOp57
 70
     1
  0
XRECORD
  5
321
102
{ACAD_REACTORS
330
320
102
}
330
320
100
AcDbXrecord
280
     1
102
RTVSPropertyOp0
 70
     1
102
RTVSPropertyOp1
 70
     1
102
RTVSPropertyOp2
 70
     1
102
RTVSPropertyOp3
 70
     1
102
RTVSPropertyOp4
 70
     1
102
RTVSPropertyOp5
 70
     1
102
RTVSPropertyOp6
 70
     1
102
RTVSPropertyOp7
 70
     1
102
RTVSPropertyOp8
 70
     1
102
RTVSPropertyOp9
 70
     1
102
RTVSPropertyOp10
 70
     1
102
RTVSPropertyOp11
 70
     1
102
RTVSPropertyOp12
 70
     1
102
RTVSPropertyOp13
 70
     1
102
RTVSPropertyOp14
 70
     1
102
RTVSPropertyOp15
 70
     1
102
RTVSPropertyOp16
 70
     1
102
RTVSPropertyOp17
 70
     1
102
RTVSPropertyOp18
 70
     1
102
RTVSPropertyOp19
 70
     1
102
RTVSPropertyOp20
 70
     1
102
RTVSPropertyOp21
 70
     1
102
RTVSPropertyOp22
 70
     1
102
RTVSPropertyOp23
 70
     1
102
RTVSPropertyOp24
 70
     1
102
RTVSPropertyOp25
 70
     1
102
RTVSPropertyOp26
 70
     1
102
RTVSPropertyOp27
 70
     1
102
RTVSPropertyOp28
 70
     1
102
RTVSPropertyOp29
 70
     1
102
RTVSPropertyOp30
 70
     1
102
RTVSPropertyOp31
 70
     1
102
RTVSPropertyOp32
 70
     1
102
RTVSPropertyOp33
 70
     1
102
RTVSPropertyOp34
 70
     1
102
RTVSPropertyOp35
 70
     1
102
RTVSPropertyOp36
 70
     1
102
RTVSPropertyOp37
 70
     1
102
RTVSPropertyOp38
 70
     1
102
RTVSPropertyOp39
 70
     1
102
RTVSPropertyOp40
 70
     1
102
RTVSPropertyOp41
 70
     1
102
RTVSPropertyOp42
 70
     1
102
RTVSPropertyOp43
 70
     1
102
RTVSPropertyOp44
 70
     1
102
RTVSPropertyOp45
 70
     1
102
RTVSPropertyOp46
 70
     1
102
RTVSPropertyOp47
 70
     1
102
RTVSPropertyOp48
 70
     1
102
RTVSPropertyOp49
 70
     1
102
RTVSPropertyOp50
 70
     1
102
RTVSPropertyOp51
 70
     0
102
RTVSPropertyOp52
 70
     0
102
RTVSPropertyOp53
 70
     1
102
RTVSPropertyOp54
 70
     1
102
RTVSPropertyOp55
 70
     1
102
RTVSPropertyOp56
 70
     1
102
RTVSPropertyOp57
 70
     1
102
RTVSPost2010Prop28
280
     0
102
RTVSPost2010PropOp28
 70
     1
102
RTVSPost2010Prop29
280
     1
102
RTVSPost2010PropOp29
 70
     1
102
RTVSPost2010Prop30
280
     1
102
RTVSPost2010PropOp30
 70
     1
102
RTVSPost2010Prop31
280
     0
102
RTVSPost2010PropOp31
 70
     1
102
RTVSPost2010Prop32
280
     0
102
RTVSPost2010PropOp32
 70
     1
102
RTVSPost2010Prop33
280
     0
102
RTVSPost2010PropOp33
 70
     1
102
RTVSPost2010Prop34
280
     0
102
RTVSPost2010PropOp34
 70
     1
102
RTVSPost2010Prop35
280
     0
102
RTVSPost2010PropOp35
 70
     1
102
RTVSPost2010Prop36
280
     0
102
RTVSPost2010PropOp36
 70
     1
102
RTVSPost2010Prop37
 90
       50
102
RTVSPost2010PropOp37
 70
     1
102
RTVSPost2010Prop38
140
0.0
102
RTVSPost2010PropOp38
 70
     1
102
RTVSPost2010Prop39
140
1.0
102
RTVSPost2010PropOp39
 70
     1
102
RTVSPost2010Prop40
 90
        0
102
RTVSPost2010PropOp40
 70
     1
102
RTVSPost2010Prop41ColorIndex
 90
       18
102
RTVSPost2010Prop41ColorRGB
 90
        0
102
RTVSPost2010PropOp41
 70
     1
102
RTVSPost2010Prop42
 90
       50
102
RTVSPost2010PropOp42
 70
     1
102
RTVSPost2010Prop43
 90
        3
102
RTVSPost2010PropOp43
 70
     1
102
RTVSPost2010Prop44ColorIndex
 90
        5
102
RTVSPost2010Prop44ColorRGB
 90
      255
102
RTVSPost2010PropOp44
 70
     1
102
RTVSPost2010Prop45
280
     0
102
RTVSPost2010PropOp45
 70
     1
102
RTVSPost2010Prop46
 90
       50
102
RTVSPost2010PropOp46
 70
     1
102
RTVSPost2010Prop47
 90
       50
102
RTVSPost2010PropOp47
 70
     1
102
RTVSPost2010Prop48
 90
       50
102
RTVSPost2010PropOp48
 70
     1
102
RTVSPost2010Prop49
280
     0
102
RTVSPost2010PropOp49
 70
     1
102
RTVSPost2010Prop50
 90
       50
102
RTVSPost2010PropOp50
 70
     1
102
RTVSPost2010Prop51ColorIndex
 90
      256
102
RTVSPost2010Prop51ColorRGB
 90
-16777216
102
RTVSPost2010PropOp51
 70
     0
102
RTVSPost2010Prop52
140
1.0
102
RTVSPost2010PropOp52
 70
     0
102
RTVSPost2010Prop53
 90
        2
102
RTVSPost2010PropOp53
 70
     1
102
RTVSPost2010Prop54
  1
strokes_ogs.tif
102
RTVSPost2010PropOp54
 70
     1
102
RTVSPost2010Prop55
280
     0
102
RTVSPost2010PropOp55
 70
     1
102
RTVSPost2010Prop56
140
1.0
102
RTVSPost2010PropOp56
 70
     1
102
RTVSPost2010Prop57
140
1.0
102
RTVSPost2010PropOp57
 70
     1
  0
ENDSEC
  0
EOF
