  0
SECTION
  2
HEADER
  9
$ACADVER
  1
AC1018
  9
$ACADMAINTVER
 70
     0
  9
$DWGCODEPAGE
  3
ANSI_932
  9
$INSBASE
 10
0.0
 20
0.0
 30
0.0
  9
$EXTMIN
 10
-2100.0
 20
-1485.0
 30
0.0
  9
$EXTMAX
 10
2100.0
 20
1485.0
 30
0.0
  9
$LIMMIN
 10
-2100.0
 20
-1485.0
  9
$LIMMAX
 10
2100.0
 20
1485.0
  9
$ORTHOMODE
 70
     0
  9
$REGENMODE
 70
     1
  9
$FILLMODE
 70
     1
  9
$QTEXTMODE
 70
     0
  9
$MIRRTEXT
 70
     1
  9
$LTSCALE
 40
10.0
  9
$ATTMODE
 70
     1
  9
$TEXTSIZE
 40
2.5
  9
$TRACEWID
 40
1.0
  9
$TEXTSTYLE
  7
Standard
  9
$CLAYER
  8
0
  9
$CELTYPE
  6
ByLayer
  9
$CECOLOR
 62
   256
  9
$CELTSCALE
 40
1.0
  9
$DISPSILH
 70
     0
  9
$DIMSCALE
 40
1.0
  9
$DIMASZ
 40
2.5
  9
$DIMEXO
 40
0.625
  9
$DIMDLI
 40
3.75
  9
$DIMRND
 40
0.0
  9
$DIMDLE
 40
0.0
  9
$DIMEXE
 40
1.25
  9
$DIMTP
 40
0.0
  9
$DIMTM
 40
0.0
  9
$DIMTXT
 40
2.5
  9
$DIMCEN
 40
2.5
  9
$DIMTSZ
 40
0.0
  9
$DIMTOL
 70
     0
  9
$DIMLIM
 70
     0
  9
$DIMTIH
 70
     0
  9
$DIMTOH
 70
     0
  9
$DIMSE1
 70
     0
  9
$DIMSE2
 70
     0
  9
$DIMTAD
 70
     1
  9
$DIMZIN
 70
     8
  9
$DIMBLK
  1

  9
$DIMASO
 70
     1
  9
$DIMSHO
 70
     1
  9
$DIMPOST
  1

  9
$DIMAPOST
  1

  9
$DIMALT
 70
     0
  9
$DIMALTD
 70
     3
  9
$DIMALTF
 40
0.03937007874016
  9
$DIMLFAC
 40
1.0
  9
$DIMTOFL
 70
     1
  9
$DIMTVP
 40
0.0
  9
$DIMTIX
 70
     0
  9
$DIMSOXD
 70
     0
  9
$DIMSAH
 70
     0
  9
$DIMBLK1
  1

  9
$DIMBLK2
  1

  9
$DIMSTYLE
  2
ISO-25
  9
$DIMCLRD
 70
     0
  9
$DIMCLRE
 70
     0
  9
$DIMCLRT
 70
     0
  9
$DIMTFAC
 40
1.0
  9
$DIMGAP
 40
0.625
  9
$DIMJUST
 70
     0
  9
$DIMSD1
 70
     0
  9
$DIMSD2
 70
     0
  9
$DIMTOLJ
 70
     0
  9
$DIMTZIN
 70
     8
  9
$DIMALTZ
 70
     0
  9
$DIMALTTZ
 70
     0
  9
$DIMUPT
 70
     0
  9
$DIMDEC
 70
     2
  9
$DIMTDEC
 70
     2
  9
$DIMALTU
 70
     2
  9
$DIMALTTD
 70
     3
  9
$DIMTXSTY
  7
Standard
  9
$DIMAUNIT
 70
     0
  9
$DIMADEC
 70
     0
  9
$DIMALTRND
 40
0.0
  9
$DIMAZIN
 70
     0
  9
$DIMDSEP
 70
    44
  9
$DIMATFIT
 70
     3
  9
$DIMFRAC
 70
     0
  9
$DIMLDRBLK
  1

  9
$DIMLUNIT
 70
     2
  9
$DIMLWD
 70
    -2
  9
$DIMLWE
 70
    -2
  9
$DIMTMOVE
 70
     0
  9
$LUNITS
 70
     2
  9
$LUPREC
 70
     4
  9
$SKETCHINC
 40
1.0
  9
$FILLETRAD
 40
10.0
  9
$AUNITS
 70
     0
  9
$AUPREC
 70
     0
  9
$MENU
  1
.
  9
$ELEVATION
 40
0.0
  9
$PELEVATION
 40
0.0
  9
$THICKNESS
 40
0.0
  9
$LIMCHECK
 70
     0
  9
$CHAMFERA
 40
0.0
  9
$CHAMFERB
 40
0.0
  9
$CHAMFERC
 40
0.0
  9
$CHAMFERD
 40
0.0
  9
$SKPOLY
 70
     0
  9
$TDCREATE
 40
2459205.440326076
  9
$TDUCREATE
 40
2459205.065326076
  9
$TDUPDATE
 40
2459205.440326169
  9
$TDUUPDATE
 40
2459205.065326169
  9
$TDINDWG
 40
0.0000000116
  9
$TDUSRTIMER
 40
0.0000000116
  9
$USRTIMER
 70
     1
  9
$ANGBASE
 50
0.0
  9
$ANGDIR
 70
     0
  9
$PDMODE
 70
     0
  9
$PDSIZE
 40
0.0
  9
$PLINEWID
 40
0.0
  9
$SPLFRAME
 70
     0
  9
$SPLINETYPE
 70
     6
  9
$SPLINESEGS
 70
     8
  9
$HANDSEED
  5
396
  9
$SURFTAB1
 70
     6
  9
$SURFTAB2
 70
     6
  9
$SURFTYPE
 70
     6
  9
$SURFU
 70
     6
  9
$SURFV
 70
     6
  9
$UCSBASE
  2

  9
$UCSNAME
  2

  9
$UCSORG
 10
0.0
 20
0.0
 30
0.0
  9
$UCSXDIR
 10
1.0
 20
0.0
 30
0.0
  9
$UCSYDIR
 10
0.0
 20
1.0
 30
0.0
  9
$UCSORTHOREF
  2

  9
$UCSORTHOVIEW
 70
     0
  9
$UCSORGTOP
 10
0.0
 20
0.0
 30
0.0
  9
$UCSORGBOTTOM
 10
0.0
 20
0.0
 30
0.0
  9
$UCSORGLEFT
 10
0.0
 20
0.0
 30
0.0
  9
$UCSORGRIGHT
 10
0.0
 20
0.0
 30
0.0
  9
$UCSORGFRONT
 10
0.0
 20
0.0
 30
0.0
  9
$UCSORGBACK
 10
0.0
 20
0.0
 30
0.0
  9
$PUCSBASE
  2

  9
$PUCSNAME
  2

  9
$PUCSORG
 10
0.0
 20
0.0
 30
0.0
  9
$PUCSXDIR
 10
1.0
 20
0.0
 30
0.0
  9
$PUCSYDIR
 10
0.0
 20
1.0
 30
0.0
  9
$PUCSORTHOREF
  2

  9
$PUCSORTHOVIEW
 70
     0
  9
$PUCSORGTOP
 10
0.0
 20
0.0
 30
0.0
  9
$PUCSORGBOTTOM
 10
0.0
 20
0.0
 30
0.0
  9
$PUCSORGLEFT
 10
0.0
 20
0.0
 30
0.0
  9
$PUCSORGRIGHT
 10
0.0
 20
0.0
 30
0.0
  9
$PUCSORGFRONT
 10
0.0
 20
0.0
 30
0.0
  9
$PUCSORGBACK
 10
0.0
 20
0.0
 30
0.0
  9
$USERI1
 70
     0
  9
$USERI2
 70
     0
  9
$USERI3
 70
     0
  9
$USERI4
 70
     0
  9
$USERI5
 70
     0
  9
$USERR1
 40
0.0
  9
$USERR2
 40
0.0
  9
$USERR3
 40
0.0
  9
$USERR4
 40
0.0
  9
$USERR5
 40
0.0
  9
$WORLDVIEW
 70
     1
  9
$SHADEDGE
 70
     3
  9
$SHADEDIF
 70
    70
  9
$TILEMODE
 70
     1
  9
$MAXACTVP
 70
    64
  9
$PINSBASE
 10
0.0
 20
0.0
 30
0.0
  9
$PLIMCHECK
 70
     0
  9
$PEXTMIN
 10
1.000000000000000E+20
 20
1.000000000000000E+20
 30
1.000000000000000E+20
  9
$PEXTMAX
 10
-1.000000000000000E+20
 20
-1.000000000000000E+20
 30
-1.000000000000000E+20
  9
$PLIMMIN
 10
0.0
 20
0.0
  9
$PLIMMAX
 10
420.0
 20
297.0
  9
$UNITMODE
 70
     0
  9
$VISRETAIN
 70
     1
  9
$PLINEGEN
 70
     0
  9
$PSLTSCALE
 70
     1
  9
$TREEDEPTH
 70
  3020
  9
$CMLSTYLE
  2
Standard
  9
$CMLJUST
 70
     0
  9
$CMLSCALE
 40
20.0
  9
$PROXYGRAPHICS
 70
     1
  9
$MEASUREMENT
 70
     1
  9
$CELWEIGHT
370
    -1
  9
$ENDCAPS
280
     0
  9
$JOINSTYLE
280
     0
  9
$LWDISPLAY
290
     0
  9
$INSUNITS
 70
     4
  9
$HYPERLINKBASE
  1

  9
$STYLESHEET
  1

  9
$XEDIT
290
     1
  9
$CEPSNTYPE
380
     0
  9
$PSTYLEMODE
290
     1
  9
$FINGERPRINTGUID
  2
{28327D66-665C-448D-A59B-049A10ABF25D}
  9
$VERSIONGUID
  2
{FAEB1C32-E019-11D5-929B-00C0DF256EC4}
  9
$EXTNAMES
290
     1
  9
$PSVPSCALE
 40
0.0
  9
$OLESTARTUP
290
     0
  9
$SORTENTS
280
   127
  9
$INDEXCTL
280
     0
  9
$HIDETEXT
280
     1
  9
$XCLIPFRAME
290
     0
  9
$HALOGAP
280
     0
  9
$OBSCOLOR
 70
   257
  9
$OBSLTYPE
280
     0
  9
$INTERSECTIONDISPLAY
280
     0
  9
$INTERSECTIONCOLOR
 70
   257
  9
$DIMASSOC
280
     2
  9
$PROJECTNAME
  1

  0
ENDSEC
  0
SECTION
  2
CLASSES
  0
CLASS
  1
ACDBDICTIONARYWDFLT
  2
AcDbDictionaryWithDefault
  3
ObjectDBX Classes
 90
        0
 91
        4
280
     0
281
     0
  0
CLASS
  1
VISUALSTYLE
  2
AcDbVisualStyle
  3
ObjectDBX Classes
 90
     4095
 91
        4
280
     0
281
     0
  0
CLASS
  1
MATERIAL
  2
AcDbMaterial
  3
ObjectDBX Classes
 90
     1153
 91
        4
280
     0
281
     0
  0
CLASS
  1
SCALE
  2
AcDbScale
  3
ObjectDBX Classes
 90
     1153
 91
        4
280
     0
281
     0
  0
CLASS
  1
TABLESTYLE
  2
AcDbTableStyle
  3
ObjectDBX Classes
 90
     4095
 91
        4
280
     0
281
     0
  0
CLASS
  1
MLEADERSTYLE
  2
AcDbMLeaderStyle
  3
ACDB_MLEADERSTYLE_CLASS
 90
     4095
 91
        4
280
     0
281
     0
  0
CLASS
  1
SUN
  2
AcDbSun
  3
SCENEOE
 90
     1153
 91
        4
280
     0
281
     0
  0
CLASS
  1
DICTIONARYVAR
  2
AcDbDictionaryVar
  3
ObjectDBX Classes
 90
        0
 91
        4
280
     0
281
     0
  0
CLASS
  1
CELLSTYLEMAP
  2
AcDbCellStyleMap
  3
ObjectDBX Classes
 90
     1152
 91
        4
280
     0
281
     0
  0
ENDSEC
  0
SECTION
  2
TABLES
  0
TABLE
  2
VPORT
  5
8
102
{ACAD_XDICTIONARY
360
34D
102
}
330
0
100
AcDbSymbolTable
 70
     1
  0
VPORT
  5
29
330
8
100
AcDbSymbolTableRecord
100
AcDbViewportTableRecord
  2
*Active
 70
     0
 10
0.0
 20
0.0
 11
1.0
 21
1.0
 12
0.0
 22
0.0
 13
0.0
 23
0.0
 14
10.0
 24
10.0
 15
10.0
 25
10.0
 16
0.0
 26
0.0
 36
1.0
 17
0.0
 27
0.0
 37
0.0
 40
3267.0
 41
1.414141414141414
 42
50.0
 43
0.0
 44
0.0
 50
0.0
 51
0.0
 71
     0
 72
 10000
 73
     1
 74
     3
 75
     0
 76
     0
 77
     0
 78
     0
281
     0
 65
     1
110
0.0
120
0.0
130
0.0
111
1.0
121
0.0
131
0.0
112
0.0
122
1.0
132
0.0
 79
     0
146
0.0
  0
ENDTAB
  0
TABLE
  2
LTYPE
  5
5
330
0
100
AcDbSymbolTable
 70
     3
  0
LTYPE
  5
14
330
5
100
AcDbSymbolTableRecord
100
AcDbLinetypeTableRecord
  2
ByBlock
 70
     0
  3

 72
    65
 73
     0
 40
0.0
  0
LTYPE
  5
15
330
5
100
AcDbSymbolTableRecord
100
AcDbLinetypeTableRecord
  2
ByLayer
 70
     0
  3

 72
    65
 73
     0
 40
0.0
  0
LTYPE
  5
16
330
5
100
AcDbSymbolTableRecord
100
AcDbLinetypeTableRecord
  2
Continuous
 70
     0
  3
Solid line
 72
    65
 73
     0
 40
0.0
  0
LTYPE
  5
6F
330
5
100
AcDbSymbolTableRecord
100
AcDbLinetypeTableRecord
  2
JWW_CENTER2
 70
     0
  3
-------------  --  -------------
 72
    65
 73
     4
 40
13.54666666666667
 49
11.00666666666667
 74
     0
 49
-0.8466666666666667
 74
     0
 49
0.8466666666666667
 74
     0
 49
-0.8466666666666667
 74
     0
  0
LTYPE
  5
70
330
5
100
AcDbSymbolTableRecord
100
AcDbLinetypeTableRecord
  2
JWW_DASHED1
 70
     0
  3
-  --  --  --  --  --  --  --  -
 72
    65
 73
     2
 40
1.693333333333333
 49
0.8466666666666667
 74
     0
 49
-0.8466666666666667
 74
     0
  0
ENDTAB
  0
TABLE
  2
LAYER
  5
2
330
0
100
AcDbSymbolTable
 70
     8
  0
LAYER
  5
10
330
2
100
AcDbSymbolTableRecord
100
AcDbLayerTableRecord
  2
0
 70
     0
 62
     7
  6
Continuous
370
    -3
390
F
  0
LAYER
  5
71
330
2
100
AcDbSymbolTableRecord
100
AcDbLayerTableRecord
  2
その他
 70
     0
 62
     7
  6
Continuous
370
    -3
390
F
  0
LAYER
  5
72
330
2
100
AcDbSymbolTableRecord
100
AcDbLayerTableRecord
  2
寸法
 70
     0
 62
     7
  6
Continuous
370
    -3
390
F
  0
LAYER
  5
73
330
2
100
AcDbSymbolTableRecord
100
AcDbLayerTableRecord
  2
躯体
 70
     0
 62
     7
  6
Continuous
370
    -3
390
F
  0
LAYER
  5
74
330
2
100
AcDbSymbolTableRecord
100
AcDbLayerTableRecord
  2
通り芯
 70
     0
 62
     7
  6
Continuous
370
    -3
390
F
  0
LAYER
  5
75
330
2
100
AcDbSymbolTableRecord
100
AcDbLayerTableRecord
  2
ハッチ
 70
     0
 62
     7
  6
Continuous
370
    -3
390
F
  0
LAYER
  5
76
330
2
100
AcDbSymbolTableRecord
100
AcDbLayerTableRecord
  2
F-5ﾚｲﾔ
 70
     0
 62
     7
  6
Continuous
370
    -3
390
F
  0
LAYER
  5
77
330
2
100
AcDbSymbolTableRecord
100
AcDbLayerTableRecord
  2
F-0ﾚｲﾔ
 70
     0
 62
     7
  6
Continuous
370
    -3
390
F
  0
ENDTAB
  0
TABLE
  2
STYLE
  5
3
330
0
100
AcDbSymbolTable
 70
     2
  0
STYLE
  5
11
330
3
100
AcDbSymbolTableRecord
100
AcDbTextStyleTableRecord
  2
Standard
 70
     0
 40
0.0
 41
1.0
 50
0.0
 71
     0
 42
2.5
  3
txt
  4

  0
STYLE
  5
6E
330
3
100
AcDbSymbolTableRecord
100
AcDbTextStyleTableRecord
  2
ＭＳ ゴシック
 70
     0
 40
1.0
 41
1.0
 50
0.0
 71
     0
 42
2.5
  3

  4

1001
ACAD
1000
MS Gothic
1071
    32817
  0
ENDTAB
  0
TABLE
  2
VIEW
  5
6
330
0
100
AcDbSymbolTable
 70
     0
  0
ENDTAB
  0
TABLE
  2
UCS
  5
7
330
0
100
AcDbSymbolTable
 70
     0
  0
ENDTAB
  0
TABLE
  2
APPID
  5
9
330
0
100
AcDbSymbolTable
 70
     2
  0
APPID
  5
12
330
9
100
AcDbSymbolTableRecord
100
AcDbRegAppTableRecord
  2
ACAD
 70
     0
  0
APPID
  5
38C
330
9
100
AcDbSymbolTableRecord
100
AcDbRegAppTableRecord
  2
ACAD_MLEADERVER
 70
     0
  0
ENDTAB
  0
TABLE
  2
DIMSTYLE
  5
A
330
0
100
AcDbSymbolTable
 70
     1
100
AcDbDimStyleTable
  0
DIMSTYLE
105
27
330
A
100
AcDbSymbolTableRecord
100
AcDbDimStyleTableRecord
  2
ISO-25
 70
     0
 41
2.5
 42
0.625
 43
3.75
 44
1.25
 73
     0
 74
     0
 77
     1
 78
     8
140
2.5
141
2.5
143
0.03937007874016
147
0.625
171
     3
172
     1
178
     0
271
     2
272
     2
274
     3
278
    44
283
     0
284
     8
340
11
  0
ENDTAB
  0
TABLE
  2
BLOCK_RECORD
  5
1
330
0
100
AcDbSymbolTable
 70
     1
  0
BLOCK_RECORD
  5
1F
330
1
100
AcDbSymbolTableRecord
100
AcDbBlockTableRecord
  2
*Model_Space
340
22
  0
BLOCK_RECORD
  5
1B
330
1
100
AcDbSymbolTableRecord
100
AcDbBlockTableRecord
  2
*Paper_Space
340
1E
  0
BLOCK_RECORD
  5
23
330
1
100
AcDbSymbolTableRecord
100
AcDbBlockTableRecord
  2
*Paper_Space0
340
26
  0
ENDTAB
  0
ENDSEC
  0
SECTION
  2
BLOCKS
  0
BLOCK
  5
20
330
1F
100
AcDbEntity
  8
0
100
AcDbBlockBegin
  2
*Model_Space
 70
     0
 10
0.0
 20
0.0
 30
0.0
  3
*Model_Space
  1

  0
ENDBLK
  5
21
330
1F
100
AcDbEntity
  8
0
100
AcDbBlockEnd
  0
BLOCK
  5
1C
330
1B
100
AcDbEntity
 67
     1
  8
0
100
AcDbBlockBegin
  2
*Paper_Space
 70
     0
 10
0.0
 20
0.0
 30
0.0
  3
*Paper_Space
  1

  0
ENDBLK
  5
1D
330
1B
100
AcDbEntity
 67
     1
  8
0
100
AcDbBlockEnd
  0
BLOCK
  5
24
330
23
100
AcDbEntity
  8
0
100
AcDbBlockBegin
  2
*Paper_Space0
 70
     0
 10
0.0
 20
0.0
 30
0.0
  3
*Paper_Space0
  1

  0
ENDBLK
  5
25
330
23
100
AcDbEntity
  8
0
100
AcDbBlockEnd
  0
ENDSEC
  0
SECTION
  2
ENTITIES
  0
LINE
  5
78
330
1F
100
AcDbEntity
  8
その他
  6
Continuous
 62
     7
370
     9
100
AcDbLine
 10
-375.0848274394031
 20
429.4470388411605
 30
0.0
 11
-375.1242539325635
 21
430.0737050047346
 31
0.0
  0
LINE
  5
79
330
1F
100
AcDbEntity
  8
その他
  6
Continuous
 62
     7
370
     9
100
AcDbLine
 10
-375.1242539325635
 20
430.0737050047346
 30
0.0
 11
-375.2419116326953
 21
430.6904882685568
 31
0.0
  0
LINE
  5
7A
330
1F
100
AcDbEntity
  8
その他
  6
Continuous
 62
     7
370
     9
100
AcDbLine
 10
-375.2419116326953
 20
430.6904882685568
 30
0.0
 11
-375.4359450075821
 21
431.2876615921083
 31
0.0
  0
LINE
  5
7B
330
1F
100
AcDbEntity
  8
その他
  6
Continuous
 62
     7
370
     9
100
AcDbLine
 10
-375.4359450075821
 20
431.2876615921083
 30
0.0
 11
-375.7032940349919
 21
431.8558071953427
 31
0.0
  0
LINE
  5
7C
330
1F
100
AcDbEntity
  8
その他
  6
Continuous
 62
     7
370
     9
100
AcDbLine
 10
-375.7032940349919
 20
431.8558071953427
 30
0.0
 11
-376.039742461056
 21
432.385965082703
 31
0.0
  0
LINE
  5
7D
330
1F
100
AcDbEntity
  8
その他
  6
Continuous
 62
     7
370
     9
100
AcDbLine
 10
-376.039742461056
 20
432.385965082703
 30
0.0
 11
-376.4399842931109
 21
432.8697743476049
 31
0.0
  0
LINE
  5
7E
330
1F
100
AcDbEntity
  8
寸法
  6
Continuous
 62
     7
370
     9
100
AcDbLine
 10
-240.284828353069
 20
229.4470401967487
 30
0.0
 11
-234.5927574205807
 21
243.3250921295462
 31
0.0
  0
LINE
  5
7F
330
1F
100
AcDbEntity
  8
寸法
  6
Continuous
 62
     7
370
     9
100
AcDbLine
 10
-240.284828353069
 20
229.4470401967487
 30
0.0
 11
-231.1948058851791
 21
241.3789926138168
 31
0.0
  0
LINE
  5
80
330
1F
100
AcDbEntity
  8
寸法
  6
Continuous
 62
     7
370
     9
100
AcDbLine
 10
-240.284828353069
 20
229.4470401967487
 30
0.0
 11
-114.2848292070891
 21
449.4470387056026
 31
0.0
  0
LINE
  5
81
330
1F
100
AcDbEntity
  8
躯体
  6
Continuous
 62
     3
370
     9
100
AcDbLine
 10
-240.284828353069
 20
349.4470393833956
 30
0.0
 11
-240.284828353069
 21
-726.9129533211037
 31
0.0
  0
LINE
  5
82
330
1F
100
AcDbEntity
  8
躯体
  6
Continuous
 62
     3
370
     9
100
AcDbLine
 10
-240.284828353069
 20
349.4470393833956
 30
0.0
 11
-380.0848274055135
 21
349.4470393833956
 31
0.0
  0
LINE
  5
83
330
1F
100
AcDbEntity
  8
通り芯
  6
JWW_CENTER2
 62
     7
370
     9
100
AcDbLine
 10
-310.1848278792912
 20
397.2869217492621
 30
0.0
 11
-310.1848278792912
 21
-772.1990156894105
 31
0.0
  0
CIRCLE
  5
84
330
1F
100
AcDbEntity
  8
躯体
  6
Continuous
 62
     3
370
     9
100
AcDbCircle
 10
-310.184846437278
 20
850.6832112322331
 30
0.0
 40
69.89999952622219
  0
LINE
  5
85
330
1F
100
AcDbEntity
  8
通り芯
  6
JWW_CENTER2
 62
     7
370
     9
100
AcDbLine
 10
-170.1586028023891
 20
850.6832112322331
 30
0.0
 11
-450.2110900721669
 21
850.6832112322331
 31
0.0
  0
LINE
  5
86
330
1F
100
AcDbEntity
  8
通り芯
  6
JWW_CENTER2
 62
     7
370
     9
100
AcDbLine
 10
-310.184846437278
 20
956.8113654216836
 30
0.0
 11
-310.184846437278
 21
744.5550570427838
 31
0.0
  0
LINE
  5
87
330
1F
100
AcDbEntity
  8
寸法
  6
Continuous
 62
     7
370
     9
100
AcDbLine
 10
-383.0848273851796
 20
-570.9139543784556
 30
0.0
 11
-530.0848263888229
 21
-315.9139561068287
 31
0.0
  0
LINE
  5
88
330
1F
100
AcDbEntity
  8
寸法
  6
Continuous
 62
     7
370
     9
100
AcDbLine
 10
-383.0848273851796
 20
-570.9139543784556
 30
0.0
 11
-392.2083924289504
 21
-559.0076300992325
 31
0.0
  0
LINE
  5
89
330
1F
100
AcDbEntity
  8
寸法
  6
Continuous
 62
     7
370
     9
100
AcDbLine
 10
-383.0848273851796
 20
-570.9139543784556
 30
0.0
 11
-388.8159310081566
 21
-557.0519758684213
 31
0.0
  0
LINE
  5
8A
330
1F
100
AcDbEntity
  8
寸法
  6
Continuous
 62
     7
370
     9
100
AcDbLine
 10
-216.2848285157395
 20
-579.9129543174604
 30
0.0
 11
-212.6942408600358
 21
-594.4768712781081
 31
0.0
  0
LINE
  5
8B
330
1F
100
AcDbEntity
  8
寸法
  6
Continuous
 62
     7
370
     9
100
AcDbLine
 10
-216.2848285157395
 20
-579.9129543174604
 30
0.0
 11
-209.0471680868334
 21
-593.0513053732727
 31
0.0
  0
LINE
  5
8C
330
1F
100
AcDbEntity
  8
寸法
  6
Continuous
 62
     7
370
     9
100
AcDbLine
 10
-216.2848285157395
 20
-579.9129543174604
 30
0.0
 11
-96.28482932909196
 21
-886.9129522366336
 31
0.0
  0
LINE
  5
8D
330
1F
100
AcDbEntity
  8
通り芯
  6
JWW_CENTER2
 62
     7
370
     9
100
AcDbLine
 10
-180.2848287597453
 20
-576.9129543377937
 30
0.0
 11
-440.0848269988371
 21
-576.9139543377878
 31
0.0
  0
LINE
  5
8E
330
1F
100
AcDbEntity
  8
その他
  6
Continuous
 62
     7
370
     9
100
AcDbLine
 10
-380.0848274055135
 20
379.4470391800576
 30
0.0
 11
-380.0848274055135
 21
439.4470387733816
 31
0.0
  0
LINE
  5
8F
330
1F
100
AcDbEntity
  8
その他
  6
Continuous
 62
     7
370
     9
100
AcDbLine
 10
-240.284828353069
 20
379.4470391800576
 30
0.0
 11
-240.284828353069
 21
439.4470387733816
 31
0.0
  0
LINE
  5
90
330
1F
100
AcDbEntity
  8
その他
  6
Continuous
 62
     7
370
     9
100
AcDbLine
 10
-380.0848274055135
 20
429.4470388411605
 30
0.0
 11
-240.284828353069
 21
429.4470388411605
 31
0.0
  0
LINE
  5
91
330
1F
100
AcDbEntity
  8
その他
  6
Continuous
 62
     7
370
     9
100
AcDbLine
 10
-210.2848285564071
 20
373.0870392231657
 30
0.0
 11
169.7151688679792
 21
373.0870392231657
 31
0.0
  0
LINE
  5
92
330
1F
100
AcDbEntity
  8
その他
  6
Continuous
 62
     7
370
     9
100
AcDbLine
 10
-210.2848285564071
 20
-476.9129550155878
 30
0.0
 11
169.7151688679821
 21
-476.9129550155878
 31
0.0
  0
LINE
  5
93
330
1F
100
AcDbEntity
  8
その他
  6
Continuous
 62
     7
370
     9
100
AcDbLine
 10
159.7151689357586
 20
373.0870392231657
 30
0.0
 11
159.7151689357616
 21
-726.9129533211037
 31
0.0
  0
LINE
  5
94
330
1F
100
AcDbEntity
  8
その他
  6
Continuous
 62
     7
370
     9
100
AcDbLine
 10
-30.18482977711347
 20
-726.9129533211037
 30
0.0
 11
169.7151688679822
 21
-726.9129533211037
 31
0.0
  0
LINE
  5
95
330
1F
100
AcDbEntity
  8
その他
  6
Continuous
 62
     7
370
     9
100
AcDbLine
 10
-155.2848289291936
 20
-576.9129543377949
 30
0.0
 11
49.81516968065264
 21
-576.9129543377949
 31
0.0
  0
LINE
  5
96
330
1F
100
AcDbEntity
  8
その他
  6
Continuous
 62
     7
370
     9
100
AcDbLine
 10
39.81516974843203
 20
-576.9129543377949
 30
0.0
 11
39.81516974843203
 21
-726.9129533211037
 31
0.0
  0
LINE
  5
97
330
1F
100
AcDbEntity
  8
ハッチ
  6
Continuous
 62
     6
370
     5
100
AcDbLine
 10
-380.0848274055135
 20
-476.9139550155808
 30
0.0
 11
-680.0848253721322
 21
-476.9139550155808
 31
0.0
  0
LINE
  5
98
330
1F
100
AcDbEntity
  8
ハッチ
  6
Continuous
 62
     6
370
     5
100
AcDbLine
 10
-240.284828353069
 20
-476.9129550155878
 30
0.0
 11
59.71516961354979
 21
-476.9129550155878
 31
0.0
  0
LINE
  5
99
330
1F
100
AcDbEntity
  8
ハッチ
  6
Continuous
 62
     6
370
     9
100
AcDbLine
 10
-110.1848292348787
 20
-576.9129543377937
 30
0.0
 11
-240.284828353069
 21
-707.0127918735352
 31
0.0
  0
LINE
  5
9A
330
1F
100
AcDbEntity
  8
ハッチ
  6
Continuous
 62
     6
370
     9
100
AcDbLine
 10
-510.1848265237038
 20
-633.628682705978
 30
0.0
 11
-380.0848274055135
 21
-503.5288451703423
 31
0.0
  0
LINE
  5
9B
330
1F
100
AcDbEntity
  8
ハッチ
  6
Continuous
 62
     6
370
     9
100
AcDbLine
 10
-510.1848265237038
 20
-647.7708182338245
 30
0.0
 11
-380.0848274055135
 21
-517.6709806981876
 31
0.0
  0
LINE
  5
9C
330
1F
100
AcDbEntity
  8
ハッチ
  6
Continuous
 62
     6
370
     9
100
AcDbLine
 10
-510.1848265237038
 20
-661.9129537616698
 30
0.0
 11
-422.9341584885129
 21
-574.6623940907045
 31
0.0
  0
LINE
  5
9D
330
1F
100
AcDbEntity
  8
ハッチ
  6
Continuous
 62
     6
370
     9
100
AcDbLine
 10
-110.1848292348787
 20
-548.6286832821031
 30
0.0
 11
-240.284828353069
 21
-678.728520817765
 31
0.0
  0
LINE
  5
9E
330
1F
100
AcDbEntity
  8
ハッチ
  6
Continuous
 62
     6
370
     9
100
AcDbLine
 10
-110.1848292348787
 20
-562.7708188099484
 30
0.0
 11
-240.284828353069
 21
-692.8706563456615
 31
0.0
  0
LINE
  5
9F
330
1F
100
AcDbEntity
  8
ハッチ
  6
Continuous
 62
     6
370
     9
100
AcDbLine
 10
-510.1848265237038
 20
-726.9129533211037
 30
0.0
 11
-510.1848265237038
 21
-476.9129550155878
 31
0.0
  0
LINE
  5
A0
330
1F
100
AcDbEntity
  8
ハッチ
  6
Continuous
 62
     6
370
     9
100
AcDbLine
 10
-228.4167096260104
 20
-476.9129550155878
 30
0.0
 11
-240.284828353069
 21
-488.1966401961506
 31
0.0
  0
LINE
  5
A1
330
1F
100
AcDbEntity
  8
ハッチ
  6
Continuous
 62
     6
370
     9
100
AcDbLine
 10
-214.1848285299732
 20
-476.9129550155878
 30
0.0
 11
-240.284828353069
 21
-501.957395259775
 31
0.0
  0
LINE
  5
A2
330
1F
100
AcDbEntity
  8
ハッチ
  6
Continuous
 62
     6
370
     9
100
AcDbLine
 10
-200.1848286248643
 20
-476.9129550155878
 30
0.0
 11
-240.284828353069
 21
-515.6308926278916
 31
0.0
  0
LINE
  5
A3
330
1F
100
AcDbEntity
  8
ハッチ
  6
Continuous
 62
     6
370
     9
100
AcDbLine
 10
-110.1848292348787
 20
-726.9129533211037
 30
0.0
 11
-110.1848292348787
 21
-476.9129550155878
 31
0.0
  0
LINE
  5
A4
330
1F
100
AcDbEntity
  8
躯体
  6
Continuous
 62
     3
370
     9
100
AcDbLine
 10
-380.0848274055135
 20
349.4470393833956
 30
0.0
 11
-380.0848274055135
 21
-726.9139533210966
 31
0.0
  0
LINE
  5
A5
330
1F
100
AcDbEntity
  8
躯体
  6
JWW_DASHED1
 62
     3
370
     9
100
AcDbLine
 10
-380.0848459635001
 20
853.6832112118998
 30
0.0
 11
-240.2848469110558
 21
853.6832112118998
 31
0.0
  0
LINE
  5
A6
330
1F
100
AcDbEntity
  8
躯体
  6
JWW_DASHED1
 62
     3
370
     9
100
AcDbLine
 10
-380.0848459635001
 20
847.6832112525676
 30
0.0
 11
-240.2848469110558
 21
847.6832112525676
 31
0.0
  0
LINE
  5
A7
330
1F
100
AcDbEntity
  8
躯体
  6
JWW_DASHED1
 62
     3
370
     9
100
AcDbLine
 10
-310.184846437278
 20
853.1432112155596
 30
0.0
 11
-380.0848459635001
 21
853.1432112155596
 31
0.0
  0
LINE
  5
A8
330
1F
100
AcDbEntity
  8
躯体
  6
JWW_DASHED1
 62
     3
370
     9
100
AcDbLine
 10
-310.184846437278
 20
848.2232112489078
 30
0.0
 11
-380.0848459635001
 21
848.2232112489078
 31
0.0
  0
LINE
  5
A9
330
1F
100
AcDbEntity
  8
躯体
  6
JWW_DASHED1
 62
     3
370
     9
100
AcDbLine
 10
-240.284828353069
 20
-573.9129543581282
 30
0.0
 11
-310.1848278792912
 21
-573.9139543581211
 31
0.0
  0
LINE
  5
AA
330
1F
100
AcDbEntity
  8
躯体
  6
JWW_DASHED1
 62
     3
370
     9
100
AcDbLine
 10
-240.284828353069
 20
-579.9129543174604
 30
0.0
 11
-310.1848278792912
 21
-579.9139543174533
 31
0.0
  0
LINE
  5
AB
330
1F
100
AcDbEntity
  8
躯体
  6
JWW_DASHED1
 62
     3
370
     9
100
AcDbLine
 10
-380.0848274055135
 20
-573.9139543581211
 30
0.0
 11
-310.1848278792912
 21
-573.9139543581211
 31
0.0
  0
LINE
  5
AC
330
1F
100
AcDbEntity
  8
躯体
  6
JWW_DASHED1
 62
     3
370
     9
100
AcDbLine
 10
-380.0848274055135
 20
-574.4539543544613
 30
0.0
 11
-310.1848278792912
 21
-574.4539543544613
 31
0.0
  0
LINE
  5
AD
330
1F
100
AcDbEntity
  8
躯体
  6
JWW_DASHED1
 62
     3
370
     9
100
AcDbLine
 10
-380.0848274055135
 20
-579.9139543174533
 30
0.0
 11
-310.1848278792912
 21
-579.9139543174533
 31
0.0
  0
LINE
  5
AE
330
1F
100
AcDbEntity
  8
躯体
  6
JWW_DASHED1
 62
     3
370
     9
100
AcDbLine
 10
-380.0848274055135
 20
-579.3739543211143
 30
0.0
 11
-310.1848278792912
 21
-579.3739543211143
 31
0.0
  0
LINE
  5
AF
330
1F
100
AcDbEntity
  8
ハッチ
  6
Continuous
 62
     6
370
     9
100
AcDbLine
 10
-422.1624489297632
 20
-573.8906854904087
 30
0.0
 11
-380.0848274055135
 21
-531.8131162260329
 31
0.0
  0
LINE
  5
B0
330
1F
100
AcDbEntity
  8
その他
  6
Continuous
 62
     7
370
     9
100
AcDbLine
 10
-376.4399842931109
 20
432.8697743476049
 30
0.0
 11
-376.8977074783721
 21
433.299605028927
 31
0.0
  0
LINE
  5
B1
330
1F
100
AcDbEntity
  8
その他
  6
Continuous
 62
     7
370
     9
100
AcDbLine
 10
-376.8977074783721
 20
433.299605028927
 30
0.0
 11
-377.4056934487775
 21
433.6686784400566
 31
0.0
  0
LINE
  5
B2
330
1F
100
AcDbEntity
  8
その他
  6
Continuous
 62
     7
370
     9
100
AcDbLine
 10
-377.4056934487775
 20
433.6686784400566
 30
0.0
 11
-377.9559309621176
 21
433.9711740728263
 31
0.0
  0
LINE
  5
B3
330
1F
100
AcDbEntity
  8
その他
  6
Continuous
 62
     7
370
     9
100
AcDbLine
 10
-377.9559309621176
 20
433.9711740728263
 30
0.0
 11
-378.5397424441112
 21
434.2023213904053
 31
0.0
  0
LINE
  5
B4
330
1F
100
AcDbEntity
  8
その他
  6
Continuous
 62
     7
370
     9
100
AcDbLine
 10
-378.5397424441112
 20
434.2023213904053
 30
0.0
 11
-379.1479208389351
 21
434.3584750615145
 31
0.0
  0
LINE
  5
B5
330
1F
100
AcDbEntity
  8
その他
  6
Continuous
 62
     7
370
     9
100
AcDbLine
 10
-379.1479208389351
 20
434.3584750615145
 30
0.0
 11
-379.7708748099949
 21
434.437172449479
 31
0.0
  0
LINE
  5
B6
330
1F
100
AcDbEntity
  8
その他
  6
Continuous
 62
     7
370
     9
100
AcDbLine
 10
-379.7708748099949
 20
434.437172449479
 30
0.0
 11
-380.3987800010321
 21
434.437172449479
 31
0.0
  0
LINE
  5
B7
330
1F
100
AcDbEntity
  8
その他
  6
Continuous
 62
     7
370
     9
100
AcDbLine
 10
-380.3987800010321
 20
434.437172449479
 30
0.0
 11
-381.0217339720918
 21
434.3584750615145
 31
0.0
  0
LINE
  5
B8
330
1F
100
AcDbEntity
  8
その他
  6
Continuous
 62
     7
370
     9
100
AcDbLine
 10
-381.0217339720918
 20
434.3584750615145
 30
0.0
 11
-381.6299123669157
 21
434.2023213904053
 31
0.0
  0
LINE
  5
B9
330
1F
100
AcDbEntity
  8
その他
  6
Continuous
 62
     7
370
     9
100
AcDbLine
 10
-381.6299123669157
 20
434.2023213904053
 30
0.0
 11
-382.2137238489092
 21
433.9711740728263
 31
0.0
  0
LINE
  5
BA
330
1F
100
AcDbEntity
  8
その他
  6
Continuous
 62
     7
370
     9
100
AcDbLine
 10
-382.2137238489092
 20
433.9711740728263
 30
0.0
 11
-382.7639613622495
 21
433.6686784400566
 31
0.0
  0
LINE
  5
BB
330
1F
100
AcDbEntity
  8
その他
  6
Continuous
 62
     7
370
     9
100
AcDbLine
 10
-382.7639613622495
 20
433.6686784400566
 30
0.0
 11
-383.2719473326548
 21
433.299605028927
 31
0.0
  0
LINE
  5
BC
330
1F
100
AcDbEntity
  8
その他
  6
Continuous
 62
     7
370
     9
100
AcDbLine
 10
-383.2719473326548
 20
433.299605028927
 30
0.0
 11
-383.729670517916
 21
432.8697743476049
 31
0.0
  0
LINE
  5
BD
330
1F
100
AcDbEntity
  8
その他
  6
Continuous
 62
     7
370
     9
100
AcDbLine
 10
-383.729670517916
 20
432.8697743476049
 30
0.0
 11
-384.1299123499709
 21
432.385965082703
 31
0.0
  0
LINE
  5
BE
330
1F
100
AcDbEntity
  8
その他
  6
Continuous
 62
     7
370
     9
100
AcDbLine
 10
-384.1299123499709
 20
432.385965082703
 30
0.0
 11
-384.466360776035
 21
431.8558071953425
 31
0.0
  0
LINE
  5
BF
330
1F
100
AcDbEntity
  8
その他
  6
Continuous
 62
     7
370
     9
100
AcDbLine
 10
-384.466360776035
 20
431.8558071953425
 30
0.0
 11
-384.7337098034449
 21
431.2876615921083
 31
0.0
  0
LINE
  5
C0
330
1F
100
AcDbEntity
  8
その他
  6
Continuous
 62
     7
370
     9
100
AcDbLine
 10
-384.7337098034449
 20
431.2876615921083
 30
0.0
 11
-384.9277431783316
 21
430.6904882685568
 31
0.0
  0
LINE
  5
C1
330
1F
100
AcDbEntity
  8
その他
  6
Continuous
 62
     7
370
     9
100
AcDbLine
 10
-384.9277431783316
 20
430.6904882685568
 30
0.0
 11
-385.0454008784634
 21
430.0737050047345
 31
0.0
  0
LINE
  5
C2
330
1F
100
AcDbEntity
  8
その他
  6
Continuous
 62
     7
370
     9
100
AcDbLine
 10
-385.0454008784634
 20
430.0737050047345
 30
0.0
 11
-385.0848273716238
 21
429.4470388411605
 31
0.0
  0
LINE
  5
C3
330
1F
100
AcDbEntity
  8
その他
  6
Continuous
 62
     7
370
     9
100
AcDbLine
 10
-385.0848273716238
 20
429.4470388411605
 30
0.0
 11
-375.0848274394031
 21
429.4470388411605
 31
0.0
  0
LINE
  5
C4
330
1F
100
AcDbEntity
  8
その他
  6
Continuous
 62
     7
370
     0
100
AcDbLine
 10
-384.2243390168841
 20
432.2371724643905
 30
0.0
 11
-375.9453157941428
 21
432.2371724643905
 31
0.0
  0
LINE
  5
C5
330
1F
100
AcDbEntity
  8
その他
  6
Continuous
 62
     7
370
     0
100
AcDbLine
 10
-384.4751296135353
 20
431.8371724671017
 30
0.0
 11
-375.6945251974917
 21
431.8371724671017
 31
0.0
  0
LINE
  5
C6
330
1F
100
AcDbEntity
  8
その他
  6
Continuous
 62
     7
370
     0
100
AcDbLine
 10
-384.6633553247444
 20
431.4371724698129
 30
0.0
 11
-375.5062994862825
 21
431.4371724698129
 31
0.0
  0
LINE
  5
C7
330
1F
100
AcDbEntity
  8
その他
  6
Continuous
 62
     7
370
     0
100
AcDbLine
 10
-384.8150986520898
 20
431.037172472524
 30
0.0
 11
-375.354556158937
 21
431.037172472524
 31
0.0
  0
LINE
  5
C8
330
1F
100
AcDbEntity
  8
その他
  6
Continuous
 62
     7
370
     0
100
AcDbLine
 10
-384.9379137098471
 20
430.6371724752352
 30
0.0
 11
-375.2317411011798
 21
430.6371724752352
 31
0.0
  0
LINE
  5
C9
330
1F
100
AcDbEntity
  8
その他
  6
Continuous
 62
     7
370
     0
100
AcDbLine
 10
-385.0142177902173
 20
430.2371724779464
 30
0.0
 11
-375.1554370208095
 21
430.2371724779464
 31
0.0
  0
LINE
  5
CA
330
1F
100
AcDbEntity
  8
その他
  6
Continuous
 62
     7
370
     0
100
AcDbLine
 10
-385.0602822435104
 20
429.8371724806576
 30
0.0
 11
-375.1093725675165
 21
429.8371724806576
 31
0.0
  0
LINE
  5
CB
330
1F
100
AcDbEntity
  8
その他
  6
Continuous
 62
     7
370
     0
100
AcDbLine
 10
-383.9220955327224
 20
432.6371724616794
 30
0.0
 11
-376.2475592783044
 21
432.6371724616794
 31
0.0
  0
LINE
  5
CC
330
1F
100
AcDbEntity
  8
その他
  6
Continuous
 62
     7
370
     0
100
AcDbLine
 10
-383.5514096350394
 20
433.0371724589682
 30
0.0
 11
-376.6182451759875
 21
433.0371724589682
 31
0.0
  0
LINE
  5
CD
330
1F
100
AcDbEntity
  8
その他
  6
Continuous
 62
     7
370
     0
100
AcDbLine
 10
-383.082602012832
 20
433.437172456257
 30
0.0
 11
-377.0870527981948
 21
433.437172456257
 31
0.0
  0
LINE
  5
CE
330
1F
100
AcDbEntity
  8
その他
  6
Continuous
 62
     7
370
     0
100
AcDbLine
 10
-382.4574718895052
 20
433.8371724535458
 30
0.0
 11
-377.7121829215217
 21
433.8371724535458
 31
0.0
  0
LINE
  5
CF
330
1F
100
AcDbEntity
  8
その他
  6
Continuous
 62
     7
370
     0
100
AcDbLine
 10
-381.4941764483216
 20
434.2371724508347
 30
0.0
 11
-378.6754783627052
 21
434.2371724508347
 31
0.0
  0
LINE
  5
D0
330
1F
100
AcDbEntity
  8
その他
  6
Continuous
 62
     7
370
     9
100
AcDbLine
 10
-385.0848273716238
 20
429.4470388411605
 30
0.0
 11
-385.0454008784634
 21
428.8203726775865
 31
0.0
  0
LINE
  5
D1
330
1F
100
AcDbEntity
  8
その他
  6
Continuous
 62
     7
370
     9
100
AcDbLine
 10
-385.0454008784634
 20
428.8203726775865
 30
0.0
 11
-384.9277431783316
 21
428.2035894137642
 31
0.0
  0
LINE
  5
D2
330
1F
100
AcDbEntity
  8
その他
  6
Continuous
 62
     7
370
     9
100
AcDbLine
 10
-384.9277431783316
 20
428.2035894137642
 30
0.0
 11
-384.7337098034449
 21
427.6064160902127
 31
0.0
  0
LINE
  5
D3
330
1F
100
AcDbEntity
  8
その他
  6
Continuous
 62
     7
370
     9
100
AcDbLine
 10
-384.7337098034449
 20
427.6064160902127
 30
0.0
 11
-384.466360776035
 21
427.0382704869784
 31
0.0
  0
LINE
  5
D4
330
1F
100
AcDbEntity
  8
その他
  6
Continuous
 62
     7
370
     9
100
AcDbLine
 10
-384.466360776035
 20
427.0382704869784
 30
0.0
 11
-384.1299123499709
 21
426.508112599618
 31
0.0
  0
LINE
  5
D5
330
1F
100
AcDbEntity
  8
その他
  6
Continuous
 62
     7
370
     9
100
AcDbLine
 10
-384.1299123499709
 20
426.508112599618
 30
0.0
 11
-383.729670517916
 21
426.0243033347161
 31
0.0
  0
LINE
  5
D6
330
1F
100
AcDbEntity
  8
その他
  6
Continuous
 62
     7
370
     9
100
AcDbLine
 10
-383.729670517916
 20
426.0243033347161
 30
0.0
 11
-383.2719473326548
 21
425.594472653394
 31
0.0
  0
LINE
  5
D7
330
1F
100
AcDbEntity
  8
その他
  6
Continuous
 62
     7
370
     9
100
AcDbLine
 10
-383.2719473326548
 20
425.594472653394
 30
0.0
 11
-382.7639613622494
 21
425.2253992422644
 31
0.0
  0
LINE
  5
D8
330
1F
100
AcDbEntity
  8
その他
  6
Continuous
 62
     7
370
     9
100
AcDbLine
 10
-382.7639613622494
 20
425.2253992422644
 30
0.0
 11
-382.2137238489092
 21
424.9229036094948
 31
0.0
  0
LINE
  5
D9
330
1F
100
AcDbEntity
  8
その他
  6
Continuous
 62
     7
370
     9
100
AcDbLine
 10
-382.2137238489092
 20
424.9229036094948
 30
0.0
 11
-381.6299123669157
 21
424.6917562919157
 31
0.0
  0
LINE
  5
DA
330
1F
100
AcDbEntity
  8
その他
  6
Continuous
 62
     7
370
     9
100
AcDbLine
 10
-381.6299123669157
 20
424.6917562919157
 30
0.0
 11
-381.0217339720918
 21
424.5356026208065
 31
0.0
  0
LINE
  5
DB
330
1F
100
AcDbEntity
  8
その他
  6
Continuous
 62
     7
370
     9
100
AcDbLine
 10
-381.0217339720918
 20
424.5356026208065
 30
0.0
 11
-380.3987800010321
 21
424.456905232842
 31
0.0
  0
LINE
  5
DC
330
1F
100
AcDbEntity
  8
その他
  6
Continuous
 62
     7
370
     9
100
AcDbLine
 10
-380.3987800010321
 20
424.456905232842
 30
0.0
 11
-379.7708748099948
 21
424.456905232842
 31
0.0
  0
LINE
  5
DD
330
1F
100
AcDbEntity
  8
その他
  6
Continuous
 62
     7
370
     9
100
AcDbLine
 10
-379.7708748099948
 20
424.456905232842
 30
0.0
 11
-379.1479208389351
 21
424.5356026208065
 31
0.0
  0
LINE
  5
DE
330
1F
100
AcDbEntity
  8
その他
  6
Continuous
 62
     7
370
     9
100
AcDbLine
 10
-379.1479208389351
 20
424.5356026208065
 30
0.0
 11
-378.5397424441112
 21
424.6917562919157
 31
0.0
  0
LINE
  5
DF
330
1F
100
AcDbEntity
  8
その他
  6
Continuous
 62
     7
370
     9
100
AcDbLine
 10
-378.5397424441112
 20
424.6917562919157
 30
0.0
 11
-377.9559309621176
 21
424.9229036094948
 31
0.0
  0
LINE
  5
E0
330
1F
100
AcDbEntity
  8
その他
  6
Continuous
 62
     7
370
     9
100
AcDbLine
 10
-377.9559309621176
 20
424.9229036094948
 30
0.0
 11
-377.4056934487775
 21
425.2253992422644
 31
0.0
  0
LINE
  5
E1
330
1F
100
AcDbEntity
  8
その他
  6
Continuous
 62
     7
370
     9
100
AcDbLine
 10
-377.4056934487775
 20
425.2253992422644
 30
0.0
 11
-376.8977074783721
 21
425.594472653394
 31
0.0
  0
LINE
  5
E2
330
1F
100
AcDbEntity
  8
その他
  6
Continuous
 62
     7
370
     9
100
AcDbLine
 10
-376.8977074783721
 20
425.594472653394
 30
0.0
 11
-376.4399842931109
 21
426.0243033347161
 31
0.0
  0
LINE
  5
E3
330
1F
100
AcDbEntity
  8
その他
  6
Continuous
 62
     7
370
     9
100
AcDbLine
 10
-376.4399842931109
 20
426.0243033347161
 30
0.0
 11
-376.039742461056
 21
426.508112599618
 31
0.0
  0
LINE
  5
E4
330
1F
100
AcDbEntity
  8
その他
  6
Continuous
 62
     7
370
     9
100
AcDbLine
 10
-376.039742461056
 20
426.508112599618
 30
0.0
 11
-375.7032940349919
 21
427.0382704869784
 31
0.0
  0
LINE
  5
E5
330
1F
100
AcDbEntity
  8
その他
  6
Continuous
 62
     7
370
     9
100
AcDbLine
 10
-375.7032940349919
 20
427.0382704869784
 30
0.0
 11
-375.4359450075821
 21
427.6064160902127
 31
0.0
  0
LINE
  5
E6
330
1F
100
AcDbEntity
  8
その他
  6
Continuous
 62
     7
370
     9
100
AcDbLine
 10
-375.4359450075821
 20
427.6064160902127
 30
0.0
 11
-375.2419116326953
 21
428.2035894137642
 31
0.0
  0
LINE
  5
E7
330
1F
100
AcDbEntity
  8
その他
  6
Continuous
 62
     7
370
     9
100
AcDbLine
 10
-375.2419116326953
 20
428.2035894137642
 30
0.0
 11
-375.1242539325635
 21
428.8203726775865
 31
0.0
  0
LINE
  5
E8
330
1F
100
AcDbEntity
  8
その他
  6
Continuous
 62
     7
370
     9
100
AcDbLine
 10
-375.1242539325635
 20
428.8203726775865
 30
0.0
 11
-375.0848274394031
 21
429.4470388411605
 31
0.0
  0
LINE
  5
E9
330
1F
100
AcDbEntity
  8
その他
  6
Continuous
 62
     7
370
     0
100
AcDbLine
 10
-384.5645997135774
 20
427.247038856072
 30
0.0
 11
-375.6050550974495
 21
427.247038856072
 31
0.0
  0
LINE
  5
EA
330
1F
100
AcDbEntity
  8
その他
  6
Continuous
 62
     7
370
     0
100
AcDbLine
 10
-384.3450014944815
 20
426.8470388587832
 30
0.0
 11
-375.8246533165454
 21
426.8470388587832
 31
0.0
  0
LINE
  5
EB
330
1F
100
AcDbEntity
  8
その他
  6
Continuous
 62
     7
370
     0
100
AcDbLine
 10
-384.0793877597854
 20
426.4470388614944
 30
0.0
 11
-376.0902670512414
 21
426.4470388614944
 31
0.0
  0
LINE
  5
EC
330
1F
100
AcDbEntity
  8
その他
  6
Continuous
 62
     7
370
     0
100
AcDbLine
 10
-383.7484789836393
 20
426.0470388642055
 30
0.0
 11
-376.4211758273876
 21
426.0470388642055
 31
0.0
  0
LINE
  5
ED
330
1F
100
AcDbEntity
  8
その他
  6
Continuous
 62
     7
370
     0
100
AcDbLine
 10
-383.3279246645118
 20
425.6470388669167
 30
0.0
 11
-376.841730146515
 21
425.6470388669167
 31
0.0
  0
LINE
  5
EE
330
1F
100
AcDbEntity
  8
その他
  6
Continuous
 62
     7
370
     0
100
AcDbLine
 10
-382.7937457541182
 20
425.2470388696278
 30
0.0
 11
-377.3759090569087
 21
425.2470388696278
 31
0.0
  0
LINE
  5
EF
330
1F
100
AcDbEntity
  8
その他
  6
Continuous
 62
     7
370
     0
100
AcDbLine
 10
-382.0221113954583
 20
424.8470388723391
 30
0.0
 11
-378.1475434155686
 21
424.8470388723391
 31
0.0
  0
LINE
  5
F0
330
1F
100
AcDbEntity
  8
その他
  6
Continuous
 62
     7
370
     0
100
AcDbLine
 10
-384.746908939307
 20
427.6470388533608
 30
0.0
 11
-375.4227458717198
 21
427.6470388533608
 31
0.0
  0
LINE
  5
F1
330
1F
100
AcDbEntity
  8
その他
  6
Continuous
 62
     7
370
     0
100
AcDbLine
 10
-384.8768768169193
 20
428.0470388506496
 30
0.0
 11
-375.2927779941076
 21
428.0470388506496
 31
0.0
  0
LINE
  5
F2
330
1F
100
AcDbEntity
  8
その他
  6
Continuous
 62
     7
370
     0
100
AcDbLine
 10
-384.9741836416247
 20
428.4470388479384
 30
0.0
 11
-375.1954711694021
 21
428.4470388479384
 31
0.0
  0
LINE
  5
F3
330
1F
100
AcDbEntity
  8
その他
  6
Continuous
 62
     7
370
     0
100
AcDbLine
 10
-385.0470785715274
 20
428.8470388452273
 30
0.0
 11
-375.1225762394994
 21
428.8470388452273
 31
0.0
  0
LINE
  5
F4
330
1F
100
AcDbEntity
  8
その他
  6
Continuous
 62
     7
370
     0
100
AcDbLine
 10
-385.0722444382583
 20
429.2470388425161
 30
0.0
 11
-375.0974103727685
 21
429.2470388425161
 31
0.0
  0
LINE
  5
F5
330
1F
100
AcDbEntity
  8
その他
  6
Continuous
 62
     7
370
     9
100
AcDbLine
 10
-245.2848283191793
 20
429.4470388411605
 30
0.0
 11
-245.245401826019
 21
428.8203726775865
 31
0.0
  0
LINE
  5
F6
330
1F
100
AcDbEntity
  8
その他
  6
Continuous
 62
     7
370
     9
100
AcDbLine
 10
-245.245401826019
 20
428.8203726775865
 30
0.0
 11
-245.1277441258872
 21
428.2035894137642
 31
0.0
  0
LINE
  5
F7
330
1F
100
AcDbEntity
  8
その他
  6
Continuous
 62
     7
370
     9
100
AcDbLine
 10
-245.1277441258872
 20
428.2035894137642
 30
0.0
 11
-244.9337107510005
 21
427.6064160902127
 31
0.0
  0
LINE
  5
F8
330
1F
100
AcDbEntity
  8
その他
  6
Continuous
 62
     7
370
     9
100
AcDbLine
 10
-244.9337107510005
 20
427.6064160902127
 30
0.0
 11
-244.6663617235906
 21
427.0382704869784
 31
0.0
  0
LINE
  5
F9
330
1F
100
AcDbEntity
  8
その他
  6
Continuous
 62
     7
370
     9
100
AcDbLine
 10
-244.6663617235906
 20
427.0382704869784
 30
0.0
 11
-244.3299132975264
 21
426.508112599618
 31
0.0
  0
LINE
  5
FA
330
1F
100
AcDbEntity
  8
その他
  6
Continuous
 62
     7
370
     9
100
AcDbLine
 10
-244.3299132975264
 20
426.508112599618
 30
0.0
 11
-243.9296714654716
 21
426.0243033347161
 31
0.0
  0
LINE
  5
FB
330
1F
100
AcDbEntity
  8
その他
  6
Continuous
 62
     7
370
     9
100
AcDbLine
 10
-243.9296714654716
 20
426.0243033347161
 30
0.0
 11
-243.4719482802104
 21
425.594472653394
 31
0.0
  0
LINE
  5
FC
330
1F
100
AcDbEntity
  8
その他
  6
Continuous
 62
     7
370
     9
100
AcDbLine
 10
-243.4719482802104
 20
425.594472653394
 30
0.0
 11
-242.963962309805
 21
425.2253992422644
 31
0.0
  0
LINE
  5
FD
330
1F
100
AcDbEntity
  8
その他
  6
Continuous
 62
     7
370
     9
100
AcDbLine
 10
-242.963962309805
 20
425.2253992422644
 30
0.0
 11
-242.4137247964649
 21
424.9229036094948
 31
0.0
  0
LINE
  5
FE
330
1F
100
AcDbEntity
  8
その他
  6
Continuous
 62
     7
370
     9
100
AcDbLine
 10
-242.4137247964649
 20
424.9229036094948
 30
0.0
 11
-241.8299133144713
 21
424.6917562919157
 31
0.0
  0
LINE
  5
FF
330
1F
100
AcDbEntity
  8
その他
  6
Continuous
 62
     7
370
     9
100
AcDbLine
 10
-241.8299133144713
 20
424.6917562919157
 30
0.0
 11
-241.2217349196473
 21
424.5356026208065
 31
0.0
  0
LINE
  5
100
330
1F
100
AcDbEntity
  8
その他
  6
Continuous
 62
     7
370
     9
100
AcDbLine
 10
-241.2217349196473
 20
424.5356026208065
 30
0.0
 11
-240.5987809485876
 21
424.456905232842
 31
0.0
  0
LINE
  5
101
330
1F
100
AcDbEntity
  8
その他
  6
Continuous
 62
     7
370
     9
100
AcDbLine
 10
-240.5987809485876
 20
424.456905232842
 30
0.0
 11
-239.9708757575504
 21
424.456905232842
 31
0.0
  0
LINE
  5
102
330
1F
100
AcDbEntity
  8
その他
  6
Continuous
 62
     7
370
     9
100
AcDbLine
 10
-239.9708757575504
 20
424.456905232842
 30
0.0
 11
-239.3479217864907
 21
424.5356026208065
 31
0.0
  0
LINE
  5
103
330
1F
100
AcDbEntity
  8
その他
  6
Continuous
 62
     7
370
     9
100
AcDbLine
 10
-239.3479217864907
 20
424.5356026208065
 30
0.0
 11
-238.7397433916668
 21
424.6917562919157
 31
0.0
  0
LINE
  5
104
330
1F
100
AcDbEntity
  8
その他
  6
Continuous
 62
     7
370
     9
100
AcDbLine
 10
-238.7397433916668
 20
424.6917562919157
 30
0.0
 11
-238.1559319096732
 21
424.9229036094948
 31
0.0
  0
LINE
  5
105
330
1F
100
AcDbEntity
  8
その他
  6
Continuous
 62
     7
370
     9
100
AcDbLine
 10
-238.1559319096732
 20
424.9229036094948
 30
0.0
 11
-237.605694396333
 21
425.2253992422644
 31
0.0
  0
LINE
  5
106
330
1F
100
AcDbEntity
  8
その他
  6
Continuous
 62
     7
370
     9
100
AcDbLine
 10
-237.605694396333
 20
425.2253992422644
 30
0.0
 11
-237.0977084259277
 21
425.594472653394
 31
0.0
  0
LINE
  5
107
330
1F
100
AcDbEntity
  8
その他
  6
Continuous
 62
     7
370
     9
100
AcDbLine
 10
-237.0977084259277
 20
425.594472653394
 30
0.0
 11
-236.6399852406665
 21
426.0243033347161
 31
0.0
  0
LINE
  5
108
330
1F
100
AcDbEntity
  8
その他
  6
Continuous
 62
     7
370
     9
100
AcDbLine
 10
-236.6399852406665
 20
426.0243033347161
 30
0.0
 11
-236.2397434086116
 21
426.5081125996181
 31
0.0
  0
LINE
  5
109
330
1F
100
AcDbEntity
  8
その他
  6
Continuous
 62
     7
370
     9
100
AcDbLine
 10
-236.2397434086116
 20
426.5081125996181
 30
0.0
 11
-235.9032949825475
 21
427.0382704869785
 31
0.0
  0
LINE
  5
10A
330
1F
100
AcDbEntity
  8
その他
  6
Continuous
 62
     7
370
     9
100
AcDbLine
 10
-235.9032949825475
 20
427.0382704869785
 30
0.0
 11
-235.6359459551376
 21
427.6064160902127
 31
0.0
  0
LINE
  5
10B
330
1F
100
AcDbEntity
  8
その他
  6
Continuous
 62
     7
370
     9
100
AcDbLine
 10
-235.6359459551376
 20
427.6064160902127
 30
0.0
 11
-235.4419125802508
 21
428.2035894137642
 31
0.0
  0
LINE
  5
10C
330
1F
100
AcDbEntity
  8
その他
  6
Continuous
 62
     7
370
     9
100
AcDbLine
 10
-235.4419125802508
 20
428.2035894137642
 30
0.0
 11
-235.3242548801191
 21
428.8203726775865
 31
0.0
  0
LINE
  5
10D
330
1F
100
AcDbEntity
  8
その他
  6
Continuous
 62
     7
370
     9
100
AcDbLine
 10
-235.3242548801191
 20
428.8203726775865
 30
0.0
 11
-235.2848283869587
 21
429.4470388411605
 31
0.0
  0
LINE
  5
10E
330
1F
100
AcDbEntity
  8
その他
  6
Continuous
 62
     7
370
     9
100
AcDbLine
 10
-235.2848283869587
 20
429.4470388411605
 30
0.0
 11
-245.2848283191793
 21
429.4470388411605
 31
0.0
  0
LINE
  5
10F
330
1F
100
AcDbEntity
  8
その他
  6
Continuous
 62
     7
370
     0
100
AcDbLine
 10
-236.1453167416984
 20
426.6569052179306
 30
0.0
 11
-244.4243399644397
 21
426.6569052179306
 31
0.0
  0
LINE
  5
110
330
1F
100
AcDbEntity
  8
その他
  6
Continuous
 62
     7
370
     0
100
AcDbLine
 10
-235.8945261450472
 20
427.0569052152193
 30
0.0
 11
-244.6751305610909
 21
427.0569052152193
 31
0.0
  0
LINE
  5
111
330
1F
100
AcDbEntity
  8
その他
  6
Continuous
 62
     7
370
     0
100
AcDbLine
 10
-235.7063004338381
 20
427.4569052125082
 30
0.0
 11
-244.8633562723
 21
427.4569052125082
 31
0.0
  0
LINE
  5
112
330
1F
100
AcDbEntity
  8
その他
  6
Continuous
 62
     7
370
     0
100
AcDbLine
 10
-235.5545571064927
 20
427.856905209797
 30
0.0
 11
-245.0150995996454
 21
427.856905209797
 31
0.0
  0
LINE
  5
113
330
1F
100
AcDbEntity
  8
その他
  6
Continuous
 62
     7
370
     0
100
AcDbLine
 10
-235.4317420487354
 20
428.2569052070858
 30
0.0
 11
-245.1379146574027
 21
428.2569052070858
 31
0.0
  0
LINE
  5
114
330
1F
100
AcDbEntity
  8
その他
  6
Continuous
 62
     7
370
     0
100
AcDbLine
 10
-235.3554379683652
 20
428.6569052043746
 30
0.0
 11
-245.2142187377729
 21
428.6569052043746
 31
0.0
  0
LINE
  5
115
330
1F
100
AcDbEntity
  8
その他
  6
Continuous
 62
     7
370
     0
100
AcDbLine
 10
-235.3093735150721
 20
429.0569052016634
 30
0.0
 11
-245.2602831910659
 21
429.0569052016634
 31
0.0
  0
LINE
  5
116
330
1F
100
AcDbEntity
  8
その他
  6
Continuous
 62
     7
370
     0
100
AcDbLine
 10
-236.44756022586
 20
426.2569052206417
 30
0.0
 11
-244.1220964802781
 21
426.2569052206417
 31
0.0
  0
LINE
  5
117
330
1F
100
AcDbEntity
  8
その他
  6
Continuous
 62
     7
370
     0
100
AcDbLine
 10
-236.818246123543
 20
425.8569052233528
 30
0.0
 11
-243.751410582595
 21
425.8569052233528
 31
0.0
  0
LINE
  5
118
330
1F
100
AcDbEntity
  8
その他
  6
Continuous
 62
     7
370
     0
100
AcDbLine
 10
-237.2870537457504
 20
425.4569052260641
 30
0.0
 11
-243.2826029603877
 21
425.4569052260641
 31
0.0
  0
LINE
  5
119
330
1F
100
AcDbEntity
  8
その他
  6
Continuous
 62
     7
370
     0
100
AcDbLine
 10
-237.9121838690773
 20
425.0569052287752
 30
0.0
 11
-242.6574728370608
 21
425.0569052287752
 31
0.0
  0
LINE
  5
11A
330
1F
100
AcDbEntity
  8
その他
  6
Continuous
 62
     7
370
     0
100
AcDbLine
 10
-238.8754793102608
 20
424.6569052314863
 30
0.0
 11
-241.6941773958773
 21
424.6569052314863
 31
0.0
  0
LINE
  5
11B
330
1F
100
AcDbEntity
  8
その他
  6
Continuous
 62
     7
370
     9
100
AcDbLine
 10
-235.2848283869587
 20
429.4470388411605
 30
0.0
 11
-235.3242548801191
 21
430.0737050047346
 31
0.0
  0
LINE
  5
11C
330
1F
100
AcDbEntity
  8
その他
  6
Continuous
 62
     7
370
     9
100
AcDbLine
 10
-235.3242548801191
 20
430.0737050047346
 30
0.0
 11
-235.4419125802509
 21
430.6904882685568
 31
0.0
  0
LINE
  5
11D
330
1F
100
AcDbEntity
  8
その他
  6
Continuous
 62
     7
370
     9
100
AcDbLine
 10
-235.4419125802509
 20
430.6904882685568
 30
0.0
 11
-235.6359459551376
 21
431.2876615921083
 31
0.0
  0
LINE
  5
11E
330
1F
100
AcDbEntity
  8
その他
  6
Continuous
 62
     7
370
     9
100
AcDbLine
 10
-235.6359459551376
 20
431.2876615921083
 30
0.0
 11
-235.9032949825475
 21
431.8558071953427
 31
0.0
  0
LINE
  5
11F
330
1F
100
AcDbEntity
  8
その他
  6
Continuous
 62
     7
370
     9
100
AcDbLine
 10
-235.9032949825475
 20
431.8558071953427
 30
0.0
 11
-236.2397434086116
 21
432.385965082703
 31
0.0
  0
LINE
  5
120
330
1F
100
AcDbEntity
  8
その他
  6
Continuous
 62
     7
370
     9
100
AcDbLine
 10
-236.2397434086116
 20
432.385965082703
 30
0.0
 11
-236.6399852406665
 21
432.8697743476049
 31
0.0
  0
LINE
  5
121
330
1F
100
AcDbEntity
  8
その他
  6
Continuous
 62
     7
370
     9
100
AcDbLine
 10
-236.6399852406665
 20
432.8697743476049
 30
0.0
 11
-237.0977084259277
 21
433.299605028927
 31
0.0
  0
LINE
  5
122
330
1F
100
AcDbEntity
  8
その他
  6
Continuous
 62
     7
370
     9
100
AcDbLine
 10
-237.0977084259277
 20
433.299605028927
 30
0.0
 11
-237.605694396333
 21
433.6686784400566
 31
0.0
  0
LINE
  5
123
330
1F
100
AcDbEntity
  8
その他
  6
Continuous
 62
     7
370
     9
100
AcDbLine
 10
-237.605694396333
 20
433.6686784400566
 30
0.0
 11
-238.1559319096732
 21
433.9711740728263
 31
0.0
  0
LINE
  5
124
330
1F
100
AcDbEntity
  8
その他
  6
Continuous
 62
     7
370
     9
100
AcDbLine
 10
-238.1559319096732
 20
433.9711740728263
 30
0.0
 11
-238.7397433916668
 21
434.2023213904053
 31
0.0
  0
LINE
  5
125
330
1F
100
AcDbEntity
  8
その他
  6
Continuous
 62
     7
370
     9
100
AcDbLine
 10
-238.7397433916668
 20
434.2023213904053
 30
0.0
 11
-239.3479217864907
 21
434.3584750615145
 31
0.0
  0
LINE
  5
126
330
1F
100
AcDbEntity
  8
その他
  6
Continuous
 62
     7
370
     9
100
AcDbLine
 10
-239.3479217864907
 20
434.3584750615145
 30
0.0
 11
-239.9708757575504
 21
434.437172449479
 31
0.0
  0
LINE
  5
127
330
1F
100
AcDbEntity
  8
その他
  6
Continuous
 62
     7
370
     9
100
AcDbLine
 10
-239.9708757575504
 20
434.437172449479
 30
0.0
 11
-240.5987809485876
 21
434.437172449479
 31
0.0
  0
LINE
  5
128
330
1F
100
AcDbEntity
  8
その他
  6
Continuous
 62
     7
370
     9
100
AcDbLine
 10
-240.5987809485876
 20
434.437172449479
 30
0.0
 11
-241.2217349196474
 21
434.3584750615145
 31
0.0
  0
LINE
  5
129
330
1F
100
AcDbEntity
  8
その他
  6
Continuous
 62
     7
370
     9
100
AcDbLine
 10
-241.2217349196474
 20
434.3584750615145
 30
0.0
 11
-241.8299133144713
 21
434.2023213904053
 31
0.0
  0
LINE
  5
12A
330
1F
100
AcDbEntity
  8
その他
  6
Continuous
 62
     7
370
     9
100
AcDbLine
 10
-241.8299133144713
 20
434.2023213904053
 30
0.0
 11
-242.4137247964649
 21
433.9711740728263
 31
0.0
  0
LINE
  5
12B
330
1F
100
AcDbEntity
  8
その他
  6
Continuous
 62
     7
370
     9
100
AcDbLine
 10
-242.4137247964649
 20
433.9711740728263
 30
0.0
 11
-242.963962309805
 21
433.6686784400566
 31
0.0
  0
LINE
  5
12C
330
1F
100
AcDbEntity
  8
その他
  6
Continuous
 62
     7
370
     9
100
AcDbLine
 10
-242.963962309805
 20
433.6686784400566
 30
0.0
 11
-243.4719482802104
 21
433.299605028927
 31
0.0
  0
LINE
  5
12D
330
1F
100
AcDbEntity
  8
その他
  6
Continuous
 62
     7
370
     9
100
AcDbLine
 10
-243.4719482802104
 20
433.299605028927
 30
0.0
 11
-243.9296714654716
 21
432.8697743476049
 31
0.0
  0
LINE
  5
12E
330
1F
100
AcDbEntity
  8
その他
  6
Continuous
 62
     7
370
     9
100
AcDbLine
 10
-243.9296714654716
 20
432.8697743476049
 30
0.0
 11
-244.3299132975264
 21
432.385965082703
 31
0.0
  0
LINE
  5
12F
330
1F
100
AcDbEntity
  8
その他
  6
Continuous
 62
     7
370
     9
100
AcDbLine
 10
-244.3299132975264
 20
432.385965082703
 30
0.0
 11
-244.6663617235906
 21
431.8558071953425
 31
0.0
  0
LINE
  5
130
330
1F
100
AcDbEntity
  8
その他
  6
Continuous
 62
     7
370
     9
100
AcDbLine
 10
-244.6663617235906
 20
431.8558071953425
 30
0.0
 11
-244.9337107510005
 21
431.2876615921083
 31
0.0
  0
LINE
  5
131
330
1F
100
AcDbEntity
  8
その他
  6
Continuous
 62
     7
370
     9
100
AcDbLine
 10
-244.9337107510005
 20
431.2876615921083
 30
0.0
 11
-245.1277441258872
 21
430.6904882685568
 31
0.0
  0
LINE
  5
132
330
1F
100
AcDbEntity
  8
その他
  6
Continuous
 62
     7
370
     9
100
AcDbLine
 10
-245.1277441258872
 20
430.6904882685568
 30
0.0
 11
-245.245401826019
 21
430.0737050047346
 31
0.0
  0
LINE
  5
133
330
1F
100
AcDbEntity
  8
その他
  6
Continuous
 62
     7
370
     9
100
AcDbLine
 10
-245.245401826019
 20
430.0737050047346
 30
0.0
 11
-245.2848283191793
 21
429.4470388411605
 31
0.0
  0
LINE
  5
134
330
1F
100
AcDbEntity
  8
その他
  6
Continuous
 62
     7
370
     0
100
AcDbLine
 10
-235.8050560450051
 20
431.6470388262491
 30
0.0
 11
-244.7646006611329
 21
431.6470388262491
 31
0.0
  0
LINE
  5
135
330
1F
100
AcDbEntity
  8
その他
  6
Continuous
 62
     7
370
     0
100
AcDbLine
 10
-236.024654264101
 20
432.0470388235379
 30
0.0
 11
-244.5450024420371
 21
432.0470388235379
 31
0.0
  0
LINE
  5
136
330
1F
100
AcDbEntity
  8
その他
  6
Continuous
 62
     7
370
     0
100
AcDbLine
 10
-236.290267998797
 20
432.4470388208267
 30
0.0
 11
-244.2793887073411
 21
432.4470388208267
 31
0.0
  0
LINE
  5
137
330
1F
100
AcDbEntity
  8
その他
  6
Continuous
 62
     7
370
     0
100
AcDbLine
 10
-236.6211767749431
 20
432.8470388181155
 30
0.0
 11
-243.948479931195
 21
432.8470388181155
 31
0.0
  0
LINE
  5
138
330
1F
100
AcDbEntity
  8
その他
  6
Continuous
 62
     7
370
     0
100
AcDbLine
 10
-237.0417310940706
 20
433.2470388154044
 30
0.0
 11
-243.5279256120674
 21
433.2470388154044
 31
0.0
  0
LINE
  5
139
330
1F
100
AcDbEntity
  8
その他
  6
Continuous
 62
     7
370
     0
100
AcDbLine
 10
-237.5759100044643
 20
433.6470388126932
 30
0.0
 11
-242.9937467016737
 21
433.6470388126932
 31
0.0
  0
LINE
  5
13A
330
1F
100
AcDbEntity
  8
その他
  6
Continuous
 62
     7
370
     0
100
AcDbLine
 10
-238.3475443631242
 20
434.047038809982
 30
0.0
 11
-242.2221123430139
 21
434.047038809982
 31
0.0
  0
LINE
  5
13B
330
1F
100
AcDbEntity
  8
その他
  6
Continuous
 62
     7
370
     0
100
AcDbLine
 10
-235.6227468192754
 20
431.2470388289602
 30
0.0
 11
-244.9469098868627
 21
431.2470388289602
 31
0.0
  0
LINE
  5
13C
330
1F
100
AcDbEntity
  8
その他
  6
Continuous
 62
     7
370
     0
100
AcDbLine
 10
-235.4927789416632
 20
430.8470388316715
 30
0.0
 11
-245.0768777644749
 21
430.8470388316715
 31
0.0
  0
LINE
  5
13D
330
1F
100
AcDbEntity
  8
その他
  6
Continuous
 62
     7
370
     0
100
AcDbLine
 10
-235.3954721169578
 20
430.4470388343826
 30
0.0
 11
-245.1741845891803
 21
430.4470388343826
 31
0.0
  0
LINE
  5
13E
330
1F
100
AcDbEntity
  8
その他
  6
Continuous
 62
     7
370
     0
100
AcDbLine
 10
-235.3225771870551
 20
430.0470388370937
 30
0.0
 11
-245.247079519083
 21
430.0470388370937
 31
0.0
  0
LINE
  5
13F
330
1F
100
AcDbEntity
  8
その他
  6
Continuous
 62
     7
370
     0
100
AcDbLine
 10
-235.2974113203242
 20
429.6470388398049
 30
0.0
 11
-245.2722453858139
 21
429.6470388398049
 31
0.0
  0
LINE
  5
140
330
1F
100
AcDbEntity
  8
その他
  6
Continuous
 62
     7
370
     9
100
AcDbLine
 10
159.7151689357586
 20
368.0870392570554
 30
0.0
 11
160.3418350993326
 21
368.1264657502157
 31
0.0
  0
LINE
  5
141
330
1F
100
AcDbEntity
  8
その他
  6
Continuous
 62
     7
370
     9
100
AcDbLine
 10
160.3418350993326
 20
368.1264657502157
 30
0.0
 11
160.9586183631549
 21
368.2441234503475
 31
0.0
  0
LINE
  5
142
330
1F
100
AcDbEntity
  8
その他
  6
Continuous
 62
     7
370
     9
100
AcDbLine
 10
160.9586183631549
 20
368.2441234503475
 30
0.0
 11
161.5557916867064
 21
368.4381568252343
 31
0.0
  0
LINE
  5
143
330
1F
100
AcDbEntity
  8
その他
  6
Continuous
 62
     7
370
     9
100
AcDbLine
 10
161.5557916867064
 20
368.4381568252343
 30
0.0
 11
162.1239372899407
 21
368.7055058526441
 31
0.0
  0
LINE
  5
144
330
1F
100
AcDbEntity
  8
その他
  6
Continuous
 62
     7
370
     9
100
AcDbLine
 10
162.1239372899407
 20
368.7055058526441
 30
0.0
 11
162.6540951773011
 21
369.0419542787083
 31
0.0
  0
LINE
  5
145
330
1F
100
AcDbEntity
  8
その他
  6
Continuous
 62
     7
370
     9
100
AcDbLine
 10
162.6540951773011
 20
369.0419542787083
 30
0.0
 11
163.137904442203
 21
369.4421961107631
 31
0.0
  0
LINE
  5
146
330
1F
100
AcDbEntity
  8
その他
  6
Continuous
 62
     7
370
     9
100
AcDbLine
 10
163.137904442203
 20
369.4421961107631
 30
0.0
 11
163.5677351235251
 21
369.8999192960243
 31
0.0
  0
LINE
  5
147
330
1F
100
AcDbEntity
  8
その他
  6
Continuous
 62
     7
370
     9
100
AcDbLine
 10
163.5677351235251
 20
369.8999192960243
 30
0.0
 11
163.9368085346547
 21
370.4079052664297
 31
0.0
  0
LINE
  5
148
330
1F
100
AcDbEntity
  8
その他
  6
Continuous
 62
     7
370
     9
100
AcDbLine
 10
163.9368085346547
 20
370.4079052664297
 30
0.0
 11
164.2393041674244
 21
370.9581427797698
 31
0.0
  0
LINE
  5
149
330
1F
100
AcDbEntity
  8
その他
  6
Continuous
 62
     7
370
     9
100
AcDbLine
 10
164.2393041674244
 20
370.9581427797698
 30
0.0
 11
164.4704514850034
 21
371.5419542617634
 31
0.0
  0
LINE
  5
14A
330
1F
100
AcDbEntity
  8
その他
  6
Continuous
 62
     7
370
     9
100
AcDbLine
 10
164.4704514850034
 20
371.5419542617634
 30
0.0
 11
164.6266051561126
 21
372.1501326565873
 31
0.0
  0
LINE
  5
14B
330
1F
100
AcDbEntity
  8
その他
  6
Continuous
 62
     7
370
     9
100
AcDbLine
 10
164.6266051561126
 20
372.1501326565873
 30
0.0
 11
164.7053025440771
 21
372.7730866276471
 31
0.0
  0
LINE
  5
14C
330
1F
100
AcDbEntity
  8
その他
  6
Continuous
 62
     7
370
     9
100
AcDbLine
 10
164.7053025440771
 20
372.7730866276471
 30
0.0
 11
164.7053025440771
 21
373.4009918186843
 31
0.0
  0
LINE
  5
14D
330
1F
100
AcDbEntity
  8
その他
  6
Continuous
 62
     7
370
     9
100
AcDbLine
 10
164.7053025440771
 20
373.4009918186843
 30
0.0
 11
164.6266051561126
 21
374.023945789744
 31
0.0
  0
LINE
  5
14E
330
1F
100
AcDbEntity
  8
その他
  6
Continuous
 62
     7
370
     9
100
AcDbLine
 10
164.6266051561126
 20
374.023945789744
 30
0.0
 11
164.4704514850034
 21
374.6321241845679
 31
0.0
  0
LINE
  5
14F
330
1F
100
AcDbEntity
  8
その他
  6
Continuous
 62
     7
370
     9
100
AcDbLine
 10
164.4704514850034
 20
374.6321241845679
 30
0.0
 11
164.2393041674244
 21
375.2159356665615
 31
0.0
  0
LINE
  5
150
330
1F
100
AcDbEntity
  8
その他
  6
Continuous
 62
     7
370
     9
100
AcDbLine
 10
164.2393041674244
 20
375.2159356665615
 30
0.0
 11
163.9368085346547
 21
375.7661731799017
 31
0.0
  0
LINE
  5
151
330
1F
100
AcDbEntity
  8
その他
  6
Continuous
 62
     7
370
     9
100
AcDbLine
 10
163.9368085346547
 20
375.7661731799017
 30
0.0
 11
163.5677351235251
 21
376.274159150307
 31
0.0
  0
LINE
  5
152
330
1F
100
AcDbEntity
  8
その他
  6
Continuous
 62
     7
370
     9
100
AcDbLine
 10
163.5677351235251
 20
376.274159150307
 30
0.0
 11
163.137904442203
 21
376.7318823355682
 31
0.0
  0
LINE
  5
153
330
1F
100
AcDbEntity
  8
その他
  6
Continuous
 62
     7
370
     9
100
AcDbLine
 10
163.137904442203
 20
376.7318823355682
 30
0.0
 11
162.6540951773011
 21
377.1321241676231
 31
0.0
  0
LINE
  5
154
330
1F
100
AcDbEntity
  8
その他
  6
Continuous
 62
     7
370
     9
100
AcDbLine
 10
162.6540951773011
 20
377.1321241676231
 30
0.0
 11
162.1239372899407
 21
377.4685725936872
 31
0.0
  0
LINE
  5
155
330
1F
100
AcDbEntity
  8
その他
  6
Continuous
 62
     7
370
     9
100
AcDbLine
 10
162.1239372899407
 20
377.4685725936872
 30
0.0
 11
161.5557916867064
 21
377.7359216210971
 31
0.0
  0
LINE
  5
156
330
1F
100
AcDbEntity
  8
その他
  6
Continuous
 62
     7
370
     9
100
AcDbLine
 10
161.5557916867064
 20
377.7359216210971
 30
0.0
 11
160.9586183631548
 21
377.9299549959838
 31
0.0
  0
LINE
  5
157
330
1F
100
AcDbEntity
  8
その他
  6
Continuous
 62
     7
370
     9
100
AcDbLine
 10
160.9586183631548
 20
377.9299549959838
 30
0.0
 11
160.3418350993326
 21
378.0476126961156
 31
0.0
  0
LINE
  5
158
330
1F
100
AcDbEntity
  8
その他
  6
Continuous
 62
     7
370
     9
100
AcDbLine
 10
160.3418350993326
 20
378.0476126961156
 30
0.0
 11
159.7151689357586
 21
378.087039189276
 31
0.0
  0
LINE
  5
159
330
1F
100
AcDbEntity
  8
その他
  6
Continuous
 62
     7
370
     9
100
AcDbLine
 10
159.7151689357586
 20
378.087039189276
 30
0.0
 11
159.7151689357586
 21
368.0870392570554
 31
0.0
  0
LINE
  5
15A
330
1F
100
AcDbEntity
  8
その他
  6
Continuous
 62
     7
370
     0
100
AcDbLine
 10
162.5053025589886
 20
377.2265508345363
 30
0.0
 11
162.5053025589886
 21
368.9475276117951
 31
0.0
  0
LINE
  5
15B
330
1F
100
AcDbEntity
  8
その他
  6
Continuous
 62
     7
370
     0
100
AcDbLine
 10
162.1053025616998
 20
377.4773414311875
 30
0.0
 11
162.1053025616998
 21
368.6967370151439
 31
0.0
  0
LINE
  5
15C
330
1F
100
AcDbEntity
  8
その他
  6
Continuous
 62
     7
370
     0
100
AcDbLine
 10
161.705302564411
 20
377.6655671423966
 30
0.0
 11
161.705302564411
 21
368.5085113039347
 31
0.0
  0
LINE
  5
15D
330
1F
100
AcDbEntity
  8
その他
  6
Continuous
 62
     7
370
     0
100
AcDbLine
 10
161.3053025671221
 20
377.8173104697421
 30
0.0
 11
161.3053025671221
 21
368.3567679765893
 31
0.0
  0
LINE
  5
15E
330
1F
100
AcDbEntity
  8
その他
  6
Continuous
 62
     7
370
     0
100
AcDbLine
 10
160.9053025698333
 20
377.9401255274993
 30
0.0
 11
160.9053025698333
 21
368.233952918832
 31
0.0
  0
LINE
  5
15F
330
1F
100
AcDbEntity
  8
その他
  6
Continuous
 62
     7
370
     0
100
AcDbLine
 10
160.5053025725445
 20
378.0164296078696
 30
0.0
 11
160.5053025725445
 21
368.1576488384618
 31
0.0
  0
LINE
  5
160
330
1F
100
AcDbEntity
  8
その他
  6
Continuous
 62
     7
370
     0
100
AcDbLine
 10
160.1053025752557
 20
378.0624940611626
 30
0.0
 11
160.1053025752557
 21
368.1115843851688
 31
0.0
  0
LINE
  5
161
330
1F
100
AcDbEntity
  8
その他
  6
Continuous
 62
     7
370
     0
100
AcDbLine
 10
162.9053025562774
 20
376.9243073503747
 30
0.0
 11
162.9053025562774
 21
369.2497710959566
 31
0.0
  0
LINE
  5
162
330
1F
100
AcDbEntity
  8
その他
  6
Continuous
 62
     7
370
     0
100
AcDbLine
 10
163.3053025535662
 20
376.5536214526917
 30
0.0
 11
163.3053025535662
 21
369.6204569936397
 31
0.0
  0
LINE
  5
163
330
1F
100
AcDbEntity
  8
その他
  6
Continuous
 62
     7
370
     0
100
AcDbLine
 10
163.7053025508551
 20
376.0848138304843
 30
0.0
 11
163.7053025508551
 21
370.0892646158471
 31
0.0
  0
LINE
  5
164
330
1F
100
AcDbEntity
  8
その他
  6
Continuous
 62
     7
370
     0
100
AcDbLine
 10
164.1053025481439
 20
375.4596837071574
 30
0.0
 11
164.1053025481439
 21
370.7143947391739
 31
0.0
  0
LINE
  5
165
330
1F
100
AcDbEntity
  8
その他
  6
Continuous
 62
     7
370
     0
100
AcDbLine
 10
164.5053025454328
 20
374.4963882659738
 30
0.0
 11
164.5053025454328
 21
371.6776901803574
 31
0.0
  0
LINE
  5
166
330
1F
100
AcDbEntity
  8
その他
  6
Continuous
 62
     7
370
     9
100
AcDbLine
 10
159.7151689357586
 20
378.087039189276
 30
0.0
 11
159.0885027721846
 21
378.0476126961156
 31
0.0
  0
LINE
  5
167
330
1F
100
AcDbEntity
  8
その他
  6
Continuous
 62
     7
370
     9
100
AcDbLine
 10
159.0885027721846
 20
378.0476126961156
 30
0.0
 11
158.4717195083624
 21
377.9299549959838
 31
0.0
  0
LINE
  5
168
330
1F
100
AcDbEntity
  8
その他
  6
Continuous
 62
     7
370
     9
100
AcDbLine
 10
158.4717195083624
 20
377.9299549959838
 30
0.0
 11
157.8745461848108
 21
377.7359216210971
 31
0.0
  0
LINE
  5
169
330
1F
100
AcDbEntity
  8
その他
  6
Continuous
 62
     7
370
     9
100
AcDbLine
 10
157.8745461848108
 20
377.7359216210971
 30
0.0
 11
157.3064005815765
 21
377.4685725936872
 31
0.0
  0
LINE
  5
16A
330
1F
100
AcDbEntity
  8
その他
  6
Continuous
 62
     7
370
     9
100
AcDbLine
 10
157.3064005815765
 20
377.4685725936872
 30
0.0
 11
156.7762426942161
 21
377.1321241676231
 31
0.0
  0
LINE
  5
16B
330
1F
100
AcDbEntity
  8
その他
  6
Continuous
 62
     7
370
     9
100
AcDbLine
 10
156.7762426942161
 20
377.1321241676231
 30
0.0
 11
156.2924334293143
 21
376.7318823355682
 31
0.0
  0
LINE
  5
16C
330
1F
100
AcDbEntity
  8
その他
  6
Continuous
 62
     7
370
     9
100
AcDbLine
 10
156.2924334293143
 20
376.7318823355682
 30
0.0
 11
155.8626027479921
 21
376.274159150307
 31
0.0
  0
LINE
  5
16D
330
1F
100
AcDbEntity
  8
その他
  6
Continuous
 62
     7
370
     9
100
AcDbLine
 10
155.8626027479921
 20
376.274159150307
 30
0.0
 11
155.4935293368625
 21
375.7661731799016
 31
0.0
  0
LINE
  5
16E
330
1F
100
AcDbEntity
  8
その他
  6
Continuous
 62
     7
370
     9
100
AcDbLine
 10
155.4935293368625
 20
375.7661731799016
 30
0.0
 11
155.1910337040928
 21
375.2159356665615
 31
0.0
  0
LINE
  5
16F
330
1F
100
AcDbEntity
  8
その他
  6
Continuous
 62
     7
370
     9
100
AcDbLine
 10
155.1910337040928
 20
375.2159356665615
 30
0.0
 11
154.9598863865138
 21
374.6321241845679
 31
0.0
  0
LINE
  5
170
330
1F
100
AcDbEntity
  8
その他
  6
Continuous
 62
     7
370
     9
100
AcDbLine
 10
154.9598863865138
 20
374.6321241845679
 30
0.0
 11
154.8037327154045
 21
374.023945789744
 31
0.0
  0
LINE
  5
171
330
1F
100
AcDbEntity
  8
その他
  6
Continuous
 62
     7
370
     9
100
AcDbLine
 10
154.8037327154045
 20
374.023945789744
 30
0.0
 11
154.7250353274401
 21
373.4009918186843
 31
0.0
  0
LINE
  5
172
330
1F
100
AcDbEntity
  8
その他
  6
Continuous
 62
     7
370
     9
100
AcDbLine
 10
154.7250353274401
 20
373.4009918186843
 30
0.0
 11
154.7250353274401
 21
372.773086627647
 31
0.0
  0
LINE
  5
173
330
1F
100
AcDbEntity
  8
その他
  6
Continuous
 62
     7
370
     9
100
AcDbLine
 10
154.7250353274401
 20
372.773086627647
 30
0.0
 11
154.8037327154045
 21
372.1501326565873
 31
0.0
  0
LINE
  5
174
330
1F
100
AcDbEntity
  8
その他
  6
Continuous
 62
     7
370
     9
100
AcDbLine
 10
154.8037327154045
 20
372.1501326565873
 30
0.0
 11
154.9598863865138
 21
371.5419542617634
 31
0.0
  0
LINE
  5
175
330
1F
100
AcDbEntity
  8
その他
  6
Continuous
 62
     7
370
     9
100
AcDbLine
 10
154.9598863865138
 20
371.5419542617634
 30
0.0
 11
155.1910337040928
 21
370.9581427797698
 31
0.0
  0
LINE
  5
176
330
1F
100
AcDbEntity
  8
その他
  6
Continuous
 62
     7
370
     9
100
AcDbLine
 10
155.1910337040928
 20
370.9581427797698
 30
0.0
 11
155.4935293368625
 21
370.4079052664297
 31
0.0
  0
LINE
  5
177
330
1F
100
AcDbEntity
  8
その他
  6
Continuous
 62
     7
370
     9
100
AcDbLine
 10
155.4935293368625
 20
370.4079052664297
 30
0.0
 11
155.8626027479921
 21
369.8999192960243
 31
0.0
  0
LINE
  5
178
330
1F
100
AcDbEntity
  8
その他
  6
Continuous
 62
     7
370
     9
100
AcDbLine
 10
155.8626027479921
 20
369.8999192960243
 30
0.0
 11
156.2924334293143
 21
369.4421961107631
 31
0.0
  0
LINE
  5
179
330
1F
100
AcDbEntity
  8
その他
  6
Continuous
 62
     7
370
     9
100
AcDbLine
 10
156.2924334293143
 20
369.4421961107631
 30
0.0
 11
156.7762426942161
 21
369.0419542787083
 31
0.0
  0
LINE
  5
17A
330
1F
100
AcDbEntity
  8
その他
  6
Continuous
 62
     7
370
     9
100
AcDbLine
 10
156.7762426942161
 20
369.0419542787083
 30
0.0
 11
157.3064005815765
 21
368.7055058526441
 31
0.0
  0
LINE
  5
17B
330
1F
100
AcDbEntity
  8
その他
  6
Continuous
 62
     7
370
     9
100
AcDbLine
 10
157.3064005815765
 20
368.7055058526441
 30
0.0
 11
157.8745461848108
 21
368.4381568252343
 31
0.0
  0
LINE
  5
17C
330
1F
100
AcDbEntity
  8
その他
  6
Continuous
 62
     7
370
     9
100
AcDbLine
 10
157.8745461848108
 20
368.4381568252343
 30
0.0
 11
158.4717195083624
 21
368.2441234503475
 31
0.0
  0
LINE
  5
17D
330
1F
100
AcDbEntity
  8
その他
  6
Continuous
 62
     7
370
     9
100
AcDbLine
 10
158.4717195083624
 20
368.2441234503475
 30
0.0
 11
159.0885027721846
 21
368.1264657502157
 31
0.0
  0
LINE
  5
17E
330
1F
100
AcDbEntity
  8
その他
  6
Continuous
 62
     7
370
     9
100
AcDbLine
 10
159.0885027721846
 20
368.1264657502157
 30
0.0
 11
159.7151689357586
 21
368.0870392570554
 31
0.0
  0
LINE
  5
17F
330
1F
100
AcDbEntity
  8
その他
  6
Continuous
 62
     7
370
     0
100
AcDbLine
 10
157.51516895067
 20
377.5668115312296
 30
0.0
 11
157.51516895067
 21
368.6072669151017
 31
0.0
  0
LINE
  5
180
330
1F
100
AcDbEntity
  8
その他
  6
Continuous
 62
     7
370
     0
100
AcDbLine
 10
157.1151689533812
 20
377.3472133121337
 30
0.0
 11
157.1151689533812
 21
368.8268651341976
 31
0.0
  0
LINE
  5
181
330
1F
100
AcDbEntity
  8
その他
  6
Continuous
 62
     7
370
     0
100
AcDbLine
 10
156.7151689560924
 20
377.0815995774377
 30
0.0
 11
156.7151689560924
 21
369.0924788688937
 31
0.0
  0
LINE
  5
182
330
1F
100
AcDbEntity
  8
その他
  6
Continuous
 62
     7
370
     0
100
AcDbLine
 10
156.3151689588036
 20
376.7506908012916
 30
0.0
 11
156.3151689588036
 21
369.4233876450398
 31
0.0
  0
LINE
  5
183
330
1F
100
AcDbEntity
  8
その他
  6
Continuous
 62
     7
370
     0
100
AcDbLine
 10
155.9151689615148
 20
376.3301364821641
 30
0.0
 11
155.9151689615148
 21
369.8439419641673
 31
0.0
  0
LINE
  5
184
330
1F
100
AcDbEntity
  8
その他
  6
Continuous
 62
     7
370
     0
100
AcDbLine
 10
155.5151689642259
 20
375.7959575717704
 30
0.0
 11
155.5151689642259
 21
370.378120874561
 31
0.0
  0
LINE
  5
185
330
1F
100
AcDbEntity
  8
その他
  6
Continuous
 62
     7
370
     0
100
AcDbLine
 10
155.1151689669371
 20
375.0243232131106
 30
0.0
 11
155.1151689669371
 21
371.1497552332208
 31
0.0
  0
LINE
  5
186
330
1F
100
AcDbEntity
  8
その他
  6
Continuous
 62
     7
370
     0
100
AcDbLine
 10
157.9151689479589
 20
377.7491207569593
 30
0.0
 11
157.9151689479589
 21
368.424957689372
 31
0.0
  0
LINE
  5
187
330
1F
100
AcDbEntity
  8
その他
  6
Continuous
 62
     7
370
     0
100
AcDbLine
 10
158.3151689452477
 20
377.8790886345715
 30
0.0
 11
158.3151689452477
 21
368.2949898117598
 31
0.0
  0
LINE
  5
188
330
1F
100
AcDbEntity
  8
その他
  6
Continuous
 62
     7
370
     0
100
AcDbLine
 10
158.7151689425365
 20
377.9763954592769
 30
0.0
 11
158.7151689425365
 21
368.1976829870544
 31
0.0
  0
LINE
  5
189
330
1F
100
AcDbEntity
  8
その他
  6
Continuous
 62
     7
370
     0
100
AcDbLine
 10
159.1151689398254
 20
378.0492903891797
 30
0.0
 11
159.1151689398254
 21
368.1247880571516
 31
0.0
  0
LINE
  5
18A
330
1F
100
AcDbEntity
  8
その他
  6
Continuous
 62
     7
370
     0
100
AcDbLine
 10
159.5151689371142
 20
378.0744562559106
 30
0.0
 11
159.5151689371142
 21
368.0996221904207
 31
0.0
  0
LINE
  5
18B
330
1F
100
AcDbEntity
  8
その他
  6
Continuous
 62
     7
370
     9
100
AcDbLine
 10
159.7151689357614
 20
-471.9129550494775
 30
0.0
 11
159.0885027721848
 21
-471.9523815426379
 31
0.0
  0
LINE
  5
18C
330
1F
100
AcDbEntity
  8
その他
  6
Continuous
 62
     7
370
     9
100
AcDbLine
 10
159.0885027721874
 20
-471.9523815426379
 30
0.0
 11
158.4717195083626
 21
-472.0700392427697
 31
0.0
  0
LINE
  5
18D
330
1F
100
AcDbEntity
  8
その他
  6
Continuous
 62
     7
370
     9
100
AcDbLine
 10
158.4717195083652
 20
-472.0700392427697
 30
0.0
 11
157.874546184811
 21
-472.2640726176564
 31
0.0
  0
LINE
  5
18E
330
1F
100
AcDbEntity
  8
その他
  6
Continuous
 62
     7
370
     9
100
AcDbLine
 10
157.8745461848137
 20
-472.2640726176564
 30
0.0
 11
157.3064005815767
 21
-472.5314216450663
 31
0.0
  0
LINE
  5
18F
330
1F
100
AcDbEntity
  8
その他
  6
Continuous
 62
     7
370
     9
100
AcDbLine
 10
157.3064005815793
 20
-472.5314216450663
 30
0.0
 11
156.7762426942163
 21
-472.8678700711304
 31
0.0
  0
LINE
  5
190
330
1F
100
AcDbEntity
  8
その他
  6
Continuous
 62
     7
370
     9
100
AcDbLine
 10
156.7762426942189
 20
-472.8678700711304
 30
0.0
 11
156.2924334293145
 21
-473.2681119031853
 31
0.0
  0
LINE
  5
191
330
1F
100
AcDbEntity
  8
その他
  6
Continuous
 62
     7
370
     9
100
AcDbLine
 10
156.2924334293171
 20
-473.2681119031853
 30
0.0
 11
155.8626027479923
 21
-473.7258350884465
 31
0.0
  0
LINE
  5
192
330
1F
100
AcDbEntity
  8
その他
  6
Continuous
 62
     7
370
     9
100
AcDbLine
 10
155.8626027479949
 20
-473.7258350884465
 30
0.0
 11
155.4935293368627
 21
-474.2338210588519
 31
0.0
  0
LINE
  5
193
330
1F
100
AcDbEntity
  8
その他
  6
Continuous
 62
     7
370
     9
100
AcDbLine
 10
155.4935293368654
 20
-474.2338210588519
 30
0.0
 11
155.191033704093
 21
-474.784058572192
 31
0.0
  0
LINE
  5
194
330
1F
100
AcDbEntity
  8
その他
  6
Continuous
 62
     7
370
     9
100
AcDbLine
 10
155.1910337040956
 20
-474.784058572192
 30
0.0
 11
154.959886386514
 21
-475.3678700541856
 31
0.0
  0
LINE
  5
195
330
1F
100
AcDbEntity
  8
その他
  6
Continuous
 62
     7
370
     9
100
AcDbLine
 10
154.9598863865167
 20
-475.3678700541856
 30
0.0
 11
154.8037327154048
 21
-475.9760484490095
 31
0.0
  0
LINE
  5
196
330
1F
100
AcDbEntity
  8
その他
  6
Continuous
 62
     7
370
     9
100
AcDbLine
 10
154.8037327154074
 20
-475.9760484490095
 30
0.0
 11
154.7250353274403
 21
-476.5990024200693
 31
0.0
  0
LINE
  5
197
330
1F
100
AcDbEntity
  8
その他
  6
Continuous
 62
     7
370
     9
100
AcDbLine
 10
154.7250353274429
 20
-476.5990024200692
 30
0.0
 11
154.7250353274403
 21
-477.2269076111065
 31
0.0
  0
LINE
  5
198
330
1F
100
AcDbEntity
  8
その他
  6
Continuous
 62
     7
370
     9
100
AcDbLine
 10
154.7250353274403
 20
-477.2269076111065
 30
0.0
 11
154.8037327154074
 21
-477.8498615821662
 31
0.0
  0
LINE
  5
199
330
1F
100
AcDbEntity
  8
その他
  6
Continuous
 62
     7
370
     9
100
AcDbLine
 10
154.8037327154048
 20
-477.8498615821662
 30
0.0
 11
154.9598863865167
 21
-478.4580399769901
 31
0.0
  0
LINE
  5
19A
330
1F
100
AcDbEntity
  8
その他
  6
Continuous
 62
     7
370
     9
100
AcDbLine
 10
154.9598863865141
 20
-478.4580399769901
 30
0.0
 11
155.1910337040956
 21
-479.0418514589837
 31
0.0
  0
LINE
  5
19B
330
1F
100
AcDbEntity
  8
その他
  6
Continuous
 62
     7
370
     9
100
AcDbLine
 10
155.191033704093
 20
-479.0418514589837
 30
0.0
 11
155.4935293368654
 21
-479.5920889723238
 31
0.0
  0
LINE
  5
19C
330
1F
100
AcDbEntity
  8
その他
  6
Continuous
 62
     7
370
     9
100
AcDbLine
 10
155.4935293368628
 20
-479.5920889723238
 30
0.0
 11
155.8626027479949
 21
-480.1000749427292
 31
0.0
  0
LINE
  5
19D
330
1F
100
AcDbEntity
  8
その他
  6
Continuous
 62
     7
370
     9
100
AcDbLine
 10
155.8626027479923
 20
-480.1000749427292
 30
0.0
 11
156.2924334293171
 21
-480.5577981279904
 31
0.0
  0
LINE
  5
19E
330
1F
100
AcDbEntity
  8
その他
  6
Continuous
 62
     7
370
     9
100
AcDbLine
 10
156.2924334293145
 20
-480.5577981279904
 30
0.0
 11
156.7762426942189
 21
-480.9580399600453
 31
0.0
  0
LINE
  5
19F
330
1F
100
AcDbEntity
  8
その他
  6
Continuous
 62
     7
370
     9
100
AcDbLine
 10
156.7762426942163
 20
-480.9580399600453
 30
0.0
 11
157.3064005815793
 21
-481.2944883861094
 31
0.0
  0
LINE
  5
1A0
330
1F
100
AcDbEntity
  8
その他
  6
Continuous
 62
     7
370
     9
100
AcDbLine
 10
157.3064005815767
 20
-481.2944883861094
 30
0.0
 11
157.8745461848137
 21
-481.5618374135192
 31
0.0
  0
LINE
  5
1A1
330
1F
100
AcDbEntity
  8
その他
  6
Continuous
 62
     7
370
     9
100
AcDbLine
 10
157.8745461848111
 20
-481.5618374135192
 30
0.0
 11
158.4717195083652
 21
-481.755870788406
 31
0.0
  0
LINE
  5
1A2
330
1F
100
AcDbEntity
  8
その他
  6
Continuous
 62
     7
370
     9
100
AcDbLine
 10
158.4717195083626
 20
-481.755870788406
 30
0.0
 11
159.0885027721874
 21
-481.8735284885378
 31
0.0
  0
LINE
  5
1A3
330
1F
100
AcDbEntity
  8
その他
  6
Continuous
 62
     7
370
     9
100
AcDbLine
 10
159.0885027721848
 20
-481.8735284885378
 30
0.0
 11
159.7151689357614
 21
-481.9129549816981
 31
0.0
  0
LINE
  5
1A4
330
1F
100
AcDbEntity
  8
その他
  6
Continuous
 62
     7
370
     9
100
AcDbLine
 10
159.7151689357588
 20
-481.9129549816981
 30
0.0
 11
159.7151689357588
 21
-471.9129550494775
 31
0.0
  0
LINE
  5
1A5
330
1F
100
AcDbEntity
  8
その他
  6
Continuous
 62
     7
370
     0
100
AcDbLine
 10
156.9250353125288
 20
-481.0524666269584
 30
0.0
 11
156.9250353125288
 21
-472.7734434042172
 31
0.0
  0
LINE
  5
1A6
330
1F
100
AcDbEntity
  8
その他
  6
Continuous
 62
     7
370
     0
100
AcDbLine
 10
157.3250353098176
 20
-481.3032572236096
 30
0.0
 11
157.3250353098176
 21
-472.522652807566
 31
0.0
  0
LINE
  5
1A7
330
1F
100
AcDbEntity
  8
その他
  6
Continuous
 62
     7
370
     0
100
AcDbLine
 10
157.7250353071065
 20
-481.4914829348188
 30
0.0
 11
157.7250353071065
 21
-472.3344270963569
 31
0.0
  0
LINE
  5
1A8
330
1F
100
AcDbEntity
  8
その他
  6
Continuous
 62
     7
370
     0
100
AcDbLine
 10
158.1250353043953
 20
-481.6432262621643
 30
0.0
 11
158.1250353043953
 21
-472.1826837690114
 31
0.0
  0
LINE
  5
1A9
330
1F
100
AcDbEntity
  8
その他
  6
Continuous
 62
     7
370
     0
100
AcDbLine
 10
158.5250353016841
 20
-481.7660413199215
 30
0.0
 11
158.5250353016841
 21
-472.0598687112542
 31
0.0
  0
LINE
  5
1AA
330
1F
100
AcDbEntity
  8
その他
  6
Continuous
 62
     7
370
     0
100
AcDbLine
 10
158.9250352989729
 20
-481.8423454002917
 30
0.0
 11
158.9250352989729
 21
-471.983564630884
 31
0.0
  0
LINE
  5
1AB
330
1F
100
AcDbEntity
  8
その他
  6
Continuous
 62
     7
370
     0
100
AcDbLine
 10
159.3250352962617
 20
-481.8884098535847
 30
0.0
 11
159.3250352962618
 21
-471.9375001775909
 31
0.0
  0
LINE
  5
1AC
330
1F
100
AcDbEntity
  8
その他
  6
Continuous
 62
     7
370
     0
100
AcDbLine
 10
156.52503531524
 20
-480.7502231427969
 30
0.0
 11
156.52503531524
 21
-473.0756868883788
 31
0.0
  0
LINE
  5
1AD
330
1F
100
AcDbEntity
  8
その他
  6
Continuous
 62
     7
370
     0
100
AcDbLine
 10
156.1250353179512
 20
-480.3795372451139
 30
0.0
 11
156.1250353179512
 21
-473.4463727860618
 31
0.0
  0
LINE
  5
1AE
330
1F
100
AcDbEntity
  8
その他
  6
Continuous
 62
     7
370
     0
100
AcDbLine
 10
155.7250353206623
 20
-479.9107296229064
 30
0.0
 11
155.7250353206623
 21
-473.9151804082692
 31
0.0
  0
LINE
  5
1AF
330
1F
100
AcDbEntity
  8
その他
  6
Continuous
 62
     7
370
     0
100
AcDbLine
 10
155.3250353233735
 20
-479.2855994995796
 30
0.0
 11
155.3250353233735
 21
-474.5403105315961
 31
0.0
  0
LINE
  5
1B0
330
1F
100
AcDbEntity
  8
その他
  6
Continuous
 62
     7
370
     0
100
AcDbLine
 10
154.9250353260847
 20
-478.322304058396
 30
0.0
 11
154.9250353260847
 21
-475.5036059727796
 31
0.0
  0
LINE
  5
1B1
330
1F
100
AcDbEntity
  8
その他
  6
Continuous
 62
     7
370
     9
100
AcDbLine
 10
159.7151689357588
 20
-481.9129549816981
 30
0.0
 11
160.3418350993354
 21
-481.8735284885378
 31
0.0
  0
LINE
  5
1B2
330
1F
100
AcDbEntity
  8
その他
  6
Continuous
 62
     7
370
     9
100
AcDbLine
 10
160.3418350993328
 20
-481.8735284885378
 30
0.0
 11
160.9586183631577
 21
-481.755870788406
 31
0.0
  0
LINE
  5
1B3
330
1F
100
AcDbEntity
  8
その他
  6
Continuous
 62
     7
370
     9
100
AcDbLine
 10
160.9586183631551
 20
-481.755870788406
 30
0.0
 11
161.5557916867092
 21
-481.5618374135192
 31
0.0
  0
LINE
  5
1B4
330
1F
100
AcDbEntity
  8
その他
  6
Continuous
 62
     7
370
     9
100
AcDbLine
 10
161.5557916867066
 20
-481.5618374135192
 30
0.0
 11
162.1239372899435
 21
-481.2944883861094
 31
0.0
  0
LINE
  5
1B5
330
1F
100
AcDbEntity
  8
その他
  6
Continuous
 62
     7
370
     9
100
AcDbLine
 10
162.1239372899409
 20
-481.2944883861094
 30
0.0
 11
162.6540951773039
 21
-480.9580399600453
 31
0.0
  0
LINE
  5
1B6
330
1F
100
AcDbEntity
  8
その他
  6
Continuous
 62
     7
370
     9
100
AcDbLine
 10
162.6540951773013
 20
-480.9580399600453
 30
0.0
 11
163.1379044422058
 21
-480.5577981279904
 31
0.0
  0
LINE
  5
1B7
330
1F
100
AcDbEntity
  8
その他
  6
Continuous
 62
     7
370
     9
100
AcDbLine
 10
163.1379044422032
 20
-480.5577981279904
 30
0.0
 11
163.5677351235279
 21
-480.1000749427292
 31
0.0
  0
LINE
  5
1B8
330
1F
100
AcDbEntity
  8
その他
  6
Continuous
 62
     7
370
     9
100
AcDbLine
 10
163.5677351235253
 20
-480.1000749427292
 30
0.0
 11
163.9368085346575
 21
-479.5920889723238
 31
0.0
  0
LINE
  5
1B9
330
1F
100
AcDbEntity
  8
その他
  6
Continuous
 62
     7
370
     9
100
AcDbLine
 10
163.9368085346549
 20
-479.5920889723238
 30
0.0
 11
164.2393041674272
 21
-479.0418514589837
 31
0.0
  0
LINE
  5
1BA
330
1F
100
AcDbEntity
  8
その他
  6
Continuous
 62
     7
370
     9
100
AcDbLine
 10
164.2393041674246
 20
-479.0418514589837
 30
0.0
 11
164.4704514850062
 21
-478.4580399769901
 31
0.0
  0
LINE
  5
1BB
330
1F
100
AcDbEntity
  8
その他
  6
Continuous
 62
     7
370
     9
100
AcDbLine
 10
164.4704514850036
 20
-478.4580399769901
 30
0.0
 11
164.6266051561155
 21
-477.8498615821662
 31
0.0
  0
LINE
  5
1BC
330
1F
100
AcDbEntity
  8
その他
  6
Continuous
 62
     7
370
     9
100
AcDbLine
 10
164.6266051561128
 20
-477.8498615821662
 30
0.0
 11
164.70530254408
 21
-477.2269076111064
 31
0.0
  0
LINE
  5
1BD
330
1F
100
AcDbEntity
  8
その他
  6
Continuous
 62
     7
370
     9
100
AcDbLine
 10
164.7053025440773
 20
-477.2269076111065
 30
0.0
 11
164.7053025440773
 21
-476.5990024200692
 31
0.0
  0
LINE
  5
1BE
330
1F
100
AcDbEntity
  8
その他
  6
Continuous
 62
     7
370
     9
100
AcDbLine
 10
164.70530254408
 20
-476.5990024200692
 30
0.0
 11
164.6266051561128
 21
-475.9760484490095
 31
0.0
  0
LINE
  5
1BF
330
1F
100
AcDbEntity
  8
その他
  6
Continuous
 62
     7
370
     9
100
AcDbLine
 10
164.6266051561155
 20
-475.9760484490095
 30
0.0
 11
164.4704514850036
 21
-475.3678700541856
 31
0.0
  0
LINE
  5
1C0
330
1F
100
AcDbEntity
  8
その他
  6
Continuous
 62
     7
370
     9
100
AcDbLine
 10
164.4704514850062
 20
-475.3678700541856
 30
0.0
 11
164.2393041674246
 21
-474.784058572192
 31
0.0
  0
LINE
  5
1C1
330
1F
100
AcDbEntity
  8
その他
  6
Continuous
 62
     7
370
     9
100
AcDbLine
 10
164.2393041674272
 20
-474.784058572192
 30
0.0
 11
163.9368085346549
 21
-474.2338210588519
 31
0.0
  0
LINE
  5
1C2
330
1F
100
AcDbEntity
  8
その他
  6
Continuous
 62
     7
370
     9
100
AcDbLine
 10
163.9368085346575
 20
-474.2338210588518
 30
0.0
 11
163.5677351235253
 21
-473.7258350884465
 31
0.0
  0
LINE
  5
1C3
330
1F
100
AcDbEntity
  8
その他
  6
Continuous
 62
     7
370
     9
100
AcDbLine
 10
163.5677351235279
 20
-473.7258350884465
 30
0.0
 11
163.1379044422032
 21
-473.2681119031853
 31
0.0
  0
LINE
  5
1C4
330
1F
100
AcDbEntity
  8
その他
  6
Continuous
 62
     7
370
     9
100
AcDbLine
 10
163.1379044422058
 20
-473.2681119031853
 30
0.0
 11
162.6540951773013
 21
-472.8678700711304
 31
0.0
  0
LINE
  5
1C5
330
1F
100
AcDbEntity
  8
その他
  6
Continuous
 62
     7
370
     9
100
AcDbLine
 10
162.6540951773039
 20
-472.8678700711304
 30
0.0
 11
162.1239372899409
 21
-472.5314216450663
 31
0.0
  0
LINE
  5
1C6
330
1F
100
AcDbEntity
  8
その他
  6
Continuous
 62
     7
370
     9
100
AcDbLine
 10
162.1239372899435
 20
-472.5314216450663
 30
0.0
 11
161.5557916867066
 21
-472.2640726176564
 31
0.0
  0
LINE
  5
1C7
330
1F
100
AcDbEntity
  8
その他
  6
Continuous
 62
     7
370
     9
100
AcDbLine
 10
161.5557916867092
 20
-472.2640726176564
 30
0.0
 11
160.9586183631551
 21
-472.0700392427697
 31
0.0
  0
LINE
  5
1C8
330
1F
100
AcDbEntity
  8
その他
  6
Continuous
 62
     7
370
     9
100
AcDbLine
 10
160.9586183631577
 20
-472.0700392427697
 30
0.0
 11
160.3418350993328
 21
-471.9523815426379
 31
0.0
  0
LINE
  5
1C9
330
1F
100
AcDbEntity
  8
その他
  6
Continuous
 62
     7
370
     9
100
AcDbLine
 10
160.3418350993354
 20
-471.9523815426379
 30
0.0
 11
159.7151689357588
 21
-471.9129550494775
 31
0.0
  0
LINE
  5
1CA
330
1F
100
AcDbEntity
  8
その他
  6
Continuous
 62
     7
370
     0
100
AcDbLine
 10
161.9151689208473
 20
-481.3927273236518
 30
0.0
 11
161.9151689208473
 21
-472.4331827075239
 31
0.0
  0
LINE
  5
1CB
330
1F
100
AcDbEntity
  8
その他
  6
Continuous
 62
     7
370
     0
100
AcDbLine
 10
162.3151689181362
 20
-481.1731291045559
 30
0.0
 11
162.3151689181362
 21
-472.6527809266198
 31
0.0
  0
LINE
  5
1CC
330
1F
100
AcDbEntity
  8
その他
  6
Continuous
 62
     7
370
     0
100
AcDbLine
 10
162.715168915425
 20
-480.9075153698598
 30
0.0
 11
162.715168915425
 21
-472.9183946613159
 31
0.0
  0
LINE
  5
1CD
330
1F
100
AcDbEntity
  8
その他
  6
Continuous
 62
     7
370
     0
100
AcDbLine
 10
163.1151689127138
 20
-480.5766065937137
 30
0.0
 11
163.1151689127138
 21
-473.2493034374619
 31
0.0
  0
LINE
  5
1CE
330
1F
100
AcDbEntity
  8
その他
  6
Continuous
 62
     7
370
     0
100
AcDbLine
 10
163.5151689100027
 20
-480.1560522745862
 30
0.0
 11
163.5151689100027
 21
-473.6698577565895
 31
0.0
  0
LINE
  5
1CF
330
1F
100
AcDbEntity
  8
その他
  6
Continuous
 62
     7
370
     0
100
AcDbLine
 10
163.9151689072915
 20
-479.6218733641925
 30
0.0
 11
163.9151689072915
 21
-474.2040366669831
 31
0.0
  0
LINE
  5
1D0
330
1F
100
AcDbEntity
  8
その他
  6
Continuous
 62
     7
370
     0
100
AcDbLine
 10
164.3151689045803
 20
-478.8502390055327
 30
0.0
 11
164.3151689045803
 21
-474.975671025643
 31
0.0
  0
LINE
  5
1D1
330
1F
100
AcDbEntity
  8
その他
  6
Continuous
 62
     7
370
     0
100
AcDbLine
 10
161.5151689235585
 20
-481.5750365493815
 30
0.0
 11
161.5151689235585
 21
-472.2508734817942
 31
0.0
  0
LINE
  5
1D2
330
1F
100
AcDbEntity
  8
その他
  6
Continuous
 62
     7
370
     0
100
AcDbLine
 10
161.1151689262697
 20
-481.7050044269937
 30
0.0
 11
161.1151689262697
 21
-472.120905604182
 31
0.0
  0
LINE
  5
1D3
330
1F
100
AcDbEntity
  8
その他
  6
Continuous
 62
     7
370
     0
100
AcDbLine
 10
160.7151689289809
 20
-481.8023112516991
 30
0.0
 11
160.7151689289809
 21
-472.0235987794766
 31
0.0
  0
LINE
  5
1D4
330
1F
100
AcDbEntity
  8
その他
  6
Continuous
 62
     7
370
     0
100
AcDbLine
 10
160.315168931692
 20
-481.8752061816019
 30
0.0
 11
160.315168931692
 21
-471.9507038495738
 31
0.0
  0
LINE
  5
1D5
330
1F
100
AcDbEntity
  8
その他
  6
Continuous
 62
     7
370
     0
100
AcDbLine
 10
159.9151689344032
 20
-481.9003720483328
 30
0.0
 11
159.9151689344032
 21
-471.9255379828429
 31
0.0
  0
LINE
  5
1D6
330
1F
100
AcDbEntity
  8
その他
  6
Continuous
 62
     7
370
     0
100
AcDbLine
 10
162.5053025589914
 20
-472.7734434042172
 30
0.0
 11
162.5053025589914
 21
-481.0524666269584
 31
0.0
  0
LINE
  5
1D7
330
1F
100
AcDbEntity
  8
その他
  6
Continuous
 62
     7
370
     0
100
AcDbLine
 10
162.1053025617026
 20
-472.522652807566
 30
0.0
 11
162.1053025617026
 21
-481.3032572236096
 31
0.0
  0
LINE
  5
1D8
330
1F
100
AcDbEntity
  8
その他
  6
Continuous
 62
     7
370
     0
100
AcDbLine
 10
161.7053025644138
 20
-472.3344270963569
 30
0.0
 11
161.7053025644138
 21
-481.4914829348188
 31
0.0
  0
LINE
  5
1D9
330
1F
100
AcDbEntity
  8
その他
  6
Continuous
 62
     7
370
     0
100
AcDbLine
 10
161.305302567125
 20
-472.1826837690114
 30
0.0
 11
161.305302567125
 21
-481.6432262621643
 31
0.0
  0
LINE
  5
1DA
330
1F
100
AcDbEntity
  8
その他
  6
Continuous
 62
     7
370
     0
100
AcDbLine
 10
160.9053025698362
 20
-472.0598687112542
 30
0.0
 11
160.9053025698362
 21
-481.7660413199215
 31
0.0
  0
LINE
  5
1DB
330
1F
100
AcDbEntity
  8
その他
  6
Continuous
 62
     7
370
     0
100
AcDbLine
 10
160.5053025725473
 20
-471.983564630884
 30
0.0
 11
160.5053025725473
 21
-481.8423454002917
 31
0.0
  0
LINE
  5
1DC
330
1F
100
AcDbEntity
  8
その他
  6
Continuous
 62
     7
370
     0
100
AcDbLine
 10
160.1053025752585
 20
-471.9375001775909
 30
0.0
 11
160.1053025752585
 21
-481.8884098535847
 31
0.0
  0
LINE
  5
1DD
330
1F
100
AcDbEntity
  8
その他
  6
Continuous
 62
     7
370
     0
100
AcDbLine
 10
162.9053025562803
 20
-473.0756868883788
 30
0.0
 11
162.9053025562803
 21
-480.7502231427969
 31
0.0
  0
LINE
  5
1DE
330
1F
100
AcDbEntity
  8
その他
  6
Continuous
 62
     7
370
     0
100
AcDbLine
 10
163.3053025535691
 20
-473.4463727860618
 30
0.0
 11
163.3053025535691
 21
-480.3795372451139
 31
0.0
  0
LINE
  5
1DF
330
1F
100
AcDbEntity
  8
その他
  6
Continuous
 62
     7
370
     0
100
AcDbLine
 10
163.7053025508579
 20
-473.9151804082692
 30
0.0
 11
163.7053025508579
 21
-479.9107296229064
 31
0.0
  0
LINE
  5
1E0
330
1F
100
AcDbEntity
  8
その他
  6
Continuous
 62
     7
370
     0
100
AcDbLine
 10
164.1053025481467
 20
-474.5403105315961
 30
0.0
 11
164.1053025481467
 21
-479.2855994995796
 31
0.0
  0
LINE
  5
1E1
330
1F
100
AcDbEntity
  8
その他
  6
Continuous
 62
     7
370
     0
100
AcDbLine
 10
164.5053025454356
 20
-475.5036059727797
 30
0.0
 11
164.5053025454356
 21
-478.3223040583961
 31
0.0
  0
LINE
  5
1E2
330
1F
100
AcDbEntity
  8
その他
  6
Continuous
 62
     7
370
     0
100
AcDbLine
 10
157.5151689506729
 20
-472.4331827075239
 30
0.0
 11
157.5151689506729
 21
-481.3927273236518
 31
0.0
  0
LINE
  5
1E3
330
1F
100
AcDbEntity
  8
その他
  6
Continuous
 62
     7
370
     0
100
AcDbLine
 10
157.1151689533841
 20
-472.6527809266198
 30
0.0
 11
157.1151689533841
 21
-481.1731291045559
 31
0.0
  0
LINE
  5
1E4
330
1F
100
AcDbEntity
  8
その他
  6
Continuous
 62
     7
370
     0
100
AcDbLine
 10
156.7151689560953
 20
-472.9183946613159
 30
0.0
 11
156.7151689560953
 21
-480.9075153698598
 31
0.0
  0
LINE
  5
1E5
330
1F
100
AcDbEntity
  8
その他
  6
Continuous
 62
     7
370
     0
100
AcDbLine
 10
156.3151689588064
 20
-473.2493034374619
 30
0.0
 11
156.3151689588064
 21
-480.5766065937137
 31
0.0
  0
LINE
  5
1E6
330
1F
100
AcDbEntity
  8
その他
  6
Continuous
 62
     7
370
     0
100
AcDbLine
 10
155.9151689615176
 20
-473.6698577565895
 30
0.0
 11
155.9151689615176
 21
-480.1560522745862
 31
0.0
  0
LINE
  5
1E7
330
1F
100
AcDbEntity
  8
その他
  6
Continuous
 62
     7
370
     0
100
AcDbLine
 10
155.5151689642288
 20
-474.2040366669831
 30
0.0
 11
155.5151689642288
 21
-479.6218733641925
 31
0.0
  0
LINE
  5
1E8
330
1F
100
AcDbEntity
  8
その他
  6
Continuous
 62
     7
370
     0
100
AcDbLine
 10
155.11516896694
 20
-474.975671025643
 30
0.0
 11
155.11516896694
 21
-478.8502390055327
 31
0.0
  0
LINE
  5
1E9
330
1F
100
AcDbEntity
  8
その他
  6
Continuous
 62
     7
370
     0
100
AcDbLine
 10
157.9151689479617
 20
-472.2508734817942
 30
0.0
 11
157.9151689479617
 21
-481.5750365493815
 31
0.0
  0
LINE
  5
1EA
330
1F
100
AcDbEntity
  8
その他
  6
Continuous
 62
     7
370
     0
100
AcDbLine
 10
158.3151689452505
 20
-472.120905604182
 30
0.0
 11
158.3151689452505
 21
-481.7050044269937
 31
0.0
  0
LINE
  5
1EB
330
1F
100
AcDbEntity
  8
その他
  6
Continuous
 62
     7
370
     0
100
AcDbLine
 10
158.7151689425394
 20
-472.0235987794766
 30
0.0
 11
158.7151689425394
 21
-481.8023112516991
 31
0.0
  0
LINE
  5
1EC
330
1F
100
AcDbEntity
  8
その他
  6
Continuous
 62
     7
370
     0
100
AcDbLine
 10
159.1151689398282
 20
-471.9507038495738
 30
0.0
 11
159.1151689398282
 21
-481.8752061816019
 31
0.0
  0
LINE
  5
1ED
330
1F
100
AcDbEntity
  8
その他
  6
Continuous
 62
     7
370
     0
100
AcDbLine
 10
159.515168937117
 20
-471.9255379828429
 30
0.0
 11
159.515168937117
 21
-481.9003720483328
 31
0.0
  0
LINE
  5
1EE
330
1F
100
AcDbEntity
  8
その他
  6
Continuous
 62
     7
370
     9
100
AcDbLine
 10
159.7151689357616
 20
-721.9129533549933
 30
0.0
 11
159.0885027721876
 21
-721.9523798481538
 31
0.0
  0
LINE
  5
1EF
330
1F
100
AcDbEntity
  8
その他
  6
Continuous
 62
     7
370
     9
100
AcDbLine
 10
159.0885027721876
 20
-721.9523798481538
 30
0.0
 11
158.4717195083653
 21
-722.0700375482854
 31
0.0
  0
LINE
  5
1F0
330
1F
100
AcDbEntity
  8
その他
  6
Continuous
 62
     7
370
     9
100
AcDbLine
 10
158.4717195083653
 20
-722.0700375482854
 30
0.0
 11
157.8745461848138
 21
-722.2640709231723
 31
0.0
  0
LINE
  5
1F1
330
1F
100
AcDbEntity
  8
その他
  6
Continuous
 62
     7
370
     9
100
AcDbLine
 10
157.8745461848138
 20
-722.2640709231723
 30
0.0
 11
157.3064005815795
 21
-722.5314199505822
 31
0.0
  0
LINE
  5
1F2
330
1F
100
AcDbEntity
  8
その他
  6
Continuous
 62
     7
370
     9
100
AcDbLine
 10
157.3064005815795
 20
-722.5314199505822
 30
0.0
 11
156.7762426942191
 21
-722.8678683766464
 31
0.0
  0
LINE
  5
1F3
330
1F
100
AcDbEntity
  8
その他
  6
Continuous
 62
     7
370
     9
100
AcDbLine
 10
156.7762426942191
 20
-722.8678683766464
 30
0.0
 11
156.2924334293172
 21
-723.2681102087013
 31
0.0
  0
LINE
  5
1F4
330
1F
100
AcDbEntity
  8
その他
  6
Continuous
 62
     7
370
     9
100
AcDbLine
 10
156.2924334293172
 20
-723.2681102087013
 30
0.0
 11
155.8626027479951
 21
-723.7258333939624
 31
0.0
  0
LINE
  5
1F5
330
1F
100
AcDbEntity
  8
その他
  6
Continuous
 62
     7
370
     9
100
AcDbLine
 10
155.8626027479951
 20
-723.7258333939624
 30
0.0
 11
155.4935293368655
 21
-724.2338193643677
 31
0.0
  0
LINE
  5
1F6
330
1F
100
AcDbEntity
  8
その他
  6
Continuous
 62
     7
370
     9
100
AcDbLine
 10
155.4935293368655
 20
-724.2338193643677
 30
0.0
 11
155.1910337040958
 21
-724.7840568777078
 31
0.0
  0
LINE
  5
1F7
330
1F
100
AcDbEntity
  8
その他
  6
Continuous
 62
     7
370
     9
100
AcDbLine
 10
155.1910337040958
 20
-724.7840568777078
 30
0.0
 11
154.9598863865168
 21
-725.3678683597014
 31
0.0
  0
LINE
  5
1F8
330
1F
100
AcDbEntity
  8
その他
  6
Continuous
 62
     7
370
     9
100
AcDbLine
 10
154.9598863865168
 20
-725.3678683597014
 30
0.0
 11
154.8037327154075
 21
-725.9760467545254
 31
0.0
  0
LINE
  5
1F9
330
1F
100
AcDbEntity
  8
その他
  6
Continuous
 62
     7
370
     9
100
AcDbLine
 10
154.8037327154075
 20
-725.9760467545254
 30
0.0
 11
154.725035327443
 21
-726.5990007255851
 31
0.0
  0
LINE
  5
1FA
330
1F
100
AcDbEntity
  8
その他
  6
Continuous
 62
     7
370
     9
100
AcDbLine
 10
154.725035327443
 20
-726.5990007255851
 30
0.0
 11
154.725035327443
 21
-727.2269059166223
 31
0.0
  0
LINE
  5
1FB
330
1F
100
AcDbEntity
  8
その他
  6
Continuous
 62
     7
370
     9
100
AcDbLine
 10
154.725035327443
 20
-727.2269059166223
 30
0.0
 11
154.8037327154075
 21
-727.849859887682
 31
0.0
  0
LINE
  5
1FC
330
1F
100
AcDbEntity
  8
その他
  6
Continuous
 62
     7
370
     9
100
AcDbLine
 10
154.8037327154075
 20
-727.849859887682
 30
0.0
 11
154.9598863865168
 21
-728.458038282506
 31
0.0
  0
LINE
  5
1FD
330
1F
100
AcDbEntity
  8
その他
  6
Continuous
 62
     7
370
     9
100
AcDbLine
 10
154.9598863865168
 20
-728.458038282506
 30
0.0
 11
155.1910337040958
 21
-729.0418497644996
 31
0.0
  0
LINE
  5
1FE
330
1F
100
AcDbEntity
  8
その他
  6
Continuous
 62
     7
370
     9
100
AcDbLine
 10
155.1910337040958
 20
-729.0418497644996
 30
0.0
 11
155.4935293368655
 21
-729.5920872778397
 31
0.0
  0
LINE
  5
1FF
330
1F
100
AcDbEntity
  8
その他
  6
Continuous
 62
     7
370
     9
100
AcDbLine
 10
155.4935293368655
 20
-729.5920872778397
 30
0.0
 11
155.8626027479951
 21
-730.1000732482452
 31
0.0
  0
LINE
  5
200
330
1F
100
AcDbEntity
  8
その他
  6
Continuous
 62
     7
370
     9
100
AcDbLine
 10
155.8626027479951
 20
-730.1000732482452
 30
0.0
 11
156.2924334293172
 21
-730.5577964335064
 31
0.0
  0
LINE
  5
201
330
1F
100
AcDbEntity
  8
その他
  6
Continuous
 62
     7
370
     9
100
AcDbLine
 10
156.2924334293172
 20
-730.5577964335064
 30
0.0
 11
156.7762426942191
 21
-730.9580382655611
 31
0.0
  0
LINE
  5
202
330
1F
100
AcDbEntity
  8
その他
  6
Continuous
 62
     7
370
     9
100
AcDbLine
 10
156.7762426942191
 20
-730.9580382655611
 30
0.0
 11
157.3064005815795
 21
-731.2944866916253
 31
0.0
  0
LINE
  5
203
330
1F
100
AcDbEntity
  8
その他
  6
Continuous
 62
     7
370
     9
100
AcDbLine
 10
157.3064005815795
 20
-731.2944866916253
 30
0.0
 11
157.8745461848138
 21
-731.5618357190351
 31
0.0
  0
LINE
  5
204
330
1F
100
AcDbEntity
  8
その他
  6
Continuous
 62
     7
370
     9
100
AcDbLine
 10
157.8745461848138
 20
-731.5618357190351
 30
0.0
 11
158.4717195083653
 21
-731.755869093922
 31
0.0
  0
LINE
  5
205
330
1F
100
AcDbEntity
  8
その他
  6
Continuous
 62
     7
370
     9
100
AcDbLine
 10
158.4717195083653
 20
-731.755869093922
 30
0.0
 11
159.0885027721876
 21
-731.8735267940536
 31
0.0
  0
LINE
  5
206
330
1F
100
AcDbEntity
  8
その他
  6
Continuous
 62
     7
370
     9
100
AcDbLine
 10
159.0885027721876
 20
-731.8735267940536
 30
0.0
 11
159.7151689357616
 21
-731.9129532872141
 31
0.0
  0
LINE
  5
207
330
1F
100
AcDbEntity
  8
その他
  6
Continuous
 62
     7
370
     9
100
AcDbLine
 10
159.7151689357616
 20
-731.9129532872141
 30
0.0
 11
159.7151689357616
 21
-721.9129533549933
 31
0.0
  0
LINE
  5
208
330
1F
100
AcDbEntity
  8
その他
  6
Continuous
 62
     7
370
     0
100
AcDbLine
 10
156.9250353125316
 20
-731.0524649324743
 30
0.0
 11
156.9250353125316
 21
-722.7734417097331
 31
0.0
  0
LINE
  5
209
330
1F
100
AcDbEntity
  8
その他
  6
Continuous
 62
     7
370
     0
100
AcDbLine
 10
157.3250353098204
 20
-731.3032555291255
 30
0.0
 11
157.3250353098204
 21
-722.5226511130819
 31
0.0
  0
LINE
  5
20A
330
1F
100
AcDbEntity
  8
その他
  6
Continuous
 62
     7
370
     0
100
AcDbLine
 10
157.7250353071092
 20
-731.4914812403346
 30
0.0
 11
157.7250353071092
 21
-722.3344254018729
 31
0.0
  0
LINE
  5
20B
330
1F
100
AcDbEntity
  8
その他
  6
Continuous
 62
     7
370
     0
100
AcDbLine
 10
158.1250353043981
 20
-731.64322456768
 30
0.0
 11
158.1250353043981
 21
-722.1826820745274
 31
0.0
  0
LINE
  5
20C
330
1F
100
AcDbEntity
  8
その他
  6
Continuous
 62
     7
370
     0
100
AcDbLine
 10
158.5250353016869
 20
-731.7660396254373
 30
0.0
 11
158.5250353016869
 21
-722.0598670167701
 31
0.0
  0
LINE
  5
20D
330
1F
100
AcDbEntity
  8
その他
  6
Continuous
 62
     7
370
     0
100
AcDbLine
 10
158.9250352989757
 20
-731.8423437058075
 30
0.0
 11
158.9250352989757
 21
-721.9835629364
 31
0.0
  0
LINE
  5
20E
330
1F
100
AcDbEntity
  8
その他
  6
Continuous
 62
     7
370
     0
100
AcDbLine
 10
159.3250352962645
 20
-731.8884081591005
 30
0.0
 11
159.3250352962645
 21
-721.9374984831069
 31
0.0
  0
LINE
  5
20F
330
1F
100
AcDbEntity
  8
その他
  6
Continuous
 62
     7
370
     0
100
AcDbLine
 10
156.5250353152427
 20
-730.7502214483127
 30
0.0
 11
156.5250353152427
 21
-723.0756851938946
 31
0.0
  0
LINE
  5
210
330
1F
100
AcDbEntity
  8
その他
  6
Continuous
 62
     7
370
     0
100
AcDbLine
 10
156.1250353179539
 20
-730.3795355506297
 30
0.0
 11
156.1250353179539
 21
-723.4463710915777
 31
0.0
  0
LINE
  5
211
330
1F
100
AcDbEntity
  8
その他
  6
Continuous
 62
     7
370
     0
100
AcDbLine
 10
155.7250353206651
 20
-729.9107279284224
 30
0.0
 11
155.7250353206651
 21
-723.915178713785
 31
0.0
  0
LINE
  5
212
330
1F
100
AcDbEntity
  8
その他
  6
Continuous
 62
     7
370
     0
100
AcDbLine
 10
155.3250353233763
 20
-729.2855978050954
 30
0.0
 11
155.3250353233763
 21
-724.540308837112
 31
0.0
  0
LINE
  5
213
330
1F
100
AcDbEntity
  8
その他
  6
Continuous
 62
     7
370
     0
100
AcDbLine
 10
154.9250353260875
 20
-728.322302363912
 30
0.0
 11
154.9250353260875
 21
-725.5036042782955
 31
0.0
  0
LINE
  5
214
330
1F
100
AcDbEntity
  8
その他
  6
Continuous
 62
     7
370
     9
100
AcDbLine
 10
159.7151689357616
 20
-731.9129532872141
 30
0.0
 11
160.3418350993356
 21
-731.8735267940536
 31
0.0
  0
LINE
  5
215
330
1F
100
AcDbEntity
  8
その他
  6
Continuous
 62
     7
370
     9
100
AcDbLine
 10
160.3418350993356
 20
-731.8735267940536
 30
0.0
 11
160.9586183631578
 21
-731.755869093922
 31
0.0
  0
LINE
  5
216
330
1F
100
AcDbEntity
  8
その他
  6
Continuous
 62
     7
370
     9
100
AcDbLine
 10
160.9586183631578
 20
-731.755869093922
 30
0.0
 11
161.5557916867094
 21
-731.5618357190351
 31
0.0
  0
LINE
  5
217
330
1F
100
AcDbEntity
  8
その他
  6
Continuous
 62
     7
370
     9
100
AcDbLine
 10
161.5557916867094
 20
-731.5618357190351
 30
0.0
 11
162.1239372899437
 21
-731.2944866916253
 31
0.0
  0
LINE
  5
218
330
1F
100
AcDbEntity
  8
その他
  6
Continuous
 62
     7
370
     9
100
AcDbLine
 10
162.1239372899437
 20
-731.2944866916253
 30
0.0
 11
162.6540951773041
 21
-730.9580382655611
 31
0.0
  0
LINE
  5
219
330
1F
100
AcDbEntity
  8
その他
  6
Continuous
 62
     7
370
     9
100
AcDbLine
 10
162.6540951773041
 20
-730.9580382655611
 30
0.0
 11
163.1379044422059
 21
-730.5577964335064
 31
0.0
  0
LINE
  5
21A
330
1F
100
AcDbEntity
  8
その他
  6
Continuous
 62
     7
370
     9
100
AcDbLine
 10
163.1379044422059
 20
-730.5577964335064
 30
0.0
 11
163.5677351235281
 21
-730.100073248245
 31
0.0
  0
LINE
  5
21B
330
1F
100
AcDbEntity
  8
その他
  6
Continuous
 62
     7
370
     9
100
AcDbLine
 10
163.5677351235281
 20
-730.100073248245
 30
0.0
 11
163.9368085346576
 21
-729.5920872778397
 31
0.0
  0
LINE
  5
21C
330
1F
100
AcDbEntity
  8
その他
  6
Continuous
 62
     7
370
     9
100
AcDbLine
 10
163.9368085346576
 20
-729.5920872778397
 30
0.0
 11
164.2393041674274
 21
-729.0418497644996
 31
0.0
  0
LINE
  5
21D
330
1F
100
AcDbEntity
  8
その他
  6
Continuous
 62
     7
370
     9
100
AcDbLine
 10
164.2393041674274
 20
-729.0418497644996
 30
0.0
 11
164.4704514850064
 21
-728.458038282506
 31
0.0
  0
LINE
  5
21E
330
1F
100
AcDbEntity
  8
その他
  6
Continuous
 62
     7
370
     9
100
AcDbLine
 10
164.4704514850064
 20
-728.458038282506
 30
0.0
 11
164.6266051561156
 21
-727.849859887682
 31
0.0
  0
LINE
  5
21F
330
1F
100
AcDbEntity
  8
その他
  6
Continuous
 62
     7
370
     9
100
AcDbLine
 10
164.6266051561156
 20
-727.849859887682
 30
0.0
 11
164.7053025440801
 21
-727.2269059166223
 31
0.0
  0
LINE
  5
220
330
1F
100
AcDbEntity
  8
その他
  6
Continuous
 62
     7
370
     9
100
AcDbLine
 10
164.7053025440801
 20
-727.2269059166223
 30
0.0
 11
164.7053025440801
 21
-726.5990007255851
 31
0.0
  0
LINE
  5
221
330
1F
100
AcDbEntity
  8
その他
  6
Continuous
 62
     7
370
     9
100
AcDbLine
 10
164.7053025440801
 20
-726.5990007255851
 30
0.0
 11
164.6266051561156
 21
-725.9760467545254
 31
0.0
  0
LINE
  5
222
330
1F
100
AcDbEntity
  8
その他
  6
Continuous
 62
     7
370
     9
100
AcDbLine
 10
164.6266051561156
 20
-725.9760467545254
 30
0.0
 11
164.4704514850064
 21
-725.3678683597014
 31
0.0
  0
LINE
  5
223
330
1F
100
AcDbEntity
  8
その他
  6
Continuous
 62
     7
370
     9
100
AcDbLine
 10
164.4704514850064
 20
-725.3678683597014
 30
0.0
 11
164.2393041674274
 21
-724.7840568777078
 31
0.0
  0
LINE
  5
224
330
1F
100
AcDbEntity
  8
その他
  6
Continuous
 62
     7
370
     9
100
AcDbLine
 10
164.2393041674274
 20
-724.7840568777078
 30
0.0
 11
163.9368085346576
 21
-724.2338193643677
 31
0.0
  0
LINE
  5
225
330
1F
100
AcDbEntity
  8
その他
  6
Continuous
 62
     7
370
     9
100
AcDbLine
 10
163.9368085346576
 20
-724.2338193643677
 30
0.0
 11
163.5677351235281
 21
-723.7258333939624
 31
0.0
  0
LINE
  5
226
330
1F
100
AcDbEntity
  8
その他
  6
Continuous
 62
     7
370
     9
100
AcDbLine
 10
163.5677351235281
 20
-723.7258333939624
 30
0.0
 11
163.1379044422059
 21
-723.2681102087013
 31
0.0
  0
LINE
  5
227
330
1F
100
AcDbEntity
  8
その他
  6
Continuous
 62
     7
370
     9
100
AcDbLine
 10
163.1379044422059
 20
-723.2681102087013
 30
0.0
 11
162.6540951773041
 21
-722.8678683766464
 31
0.0
  0
LINE
  5
228
330
1F
100
AcDbEntity
  8
その他
  6
Continuous
 62
     7
370
     9
100
AcDbLine
 10
162.6540951773041
 20
-722.8678683766464
 30
0.0
 11
162.1239372899437
 21
-722.5314199505822
 31
0.0
  0
LINE
  5
229
330
1F
100
AcDbEntity
  8
その他
  6
Continuous
 62
     7
370
     9
100
AcDbLine
 10
162.1239372899437
 20
-722.5314199505822
 30
0.0
 11
161.5557916867093
 21
-722.2640709231723
 31
0.0
  0
LINE
  5
22A
330
1F
100
AcDbEntity
  8
その他
  6
Continuous
 62
     7
370
     9
100
AcDbLine
 10
161.5557916867093
 20
-722.2640709231723
 30
0.0
 11
160.9586183631578
 21
-722.0700375482854
 31
0.0
  0
LINE
  5
22B
330
1F
100
AcDbEntity
  8
その他
  6
Continuous
 62
     7
370
     9
100
AcDbLine
 10
160.9586183631578
 20
-722.0700375482854
 30
0.0
 11
160.3418350993356
 21
-721.9523798481538
 31
0.0
  0
LINE
  5
22C
330
1F
100
AcDbEntity
  8
その他
  6
Continuous
 62
     7
370
     9
100
AcDbLine
 10
160.3418350993356
 20
-721.9523798481538
 30
0.0
 11
159.7151689357616
 21
-721.9129533549933
 31
0.0
  0
LINE
  5
22D
330
1F
100
AcDbEntity
  8
その他
  6
Continuous
 62
     7
370
     0
100
AcDbLine
 10
161.9151689208501
 20
-731.3927256291676
 30
0.0
 11
161.9151689208501
 21
-722.4331810130399
 31
0.0
  0
LINE
  5
22E
330
1F
100
AcDbEntity
  8
その他
  6
Continuous
 62
     7
370
     0
100
AcDbLine
 10
162.3151689181389
 20
-731.1731274100719
 30
0.0
 11
162.3151689181389
 21
-722.6527792321356
 31
0.0
  0
LINE
  5
22F
330
1F
100
AcDbEntity
  8
その他
  6
Continuous
 62
     7
370
     0
100
AcDbLine
 10
162.7151689154278
 20
-730.9075136753758
 30
0.0
 11
162.7151689154278
 21
-722.9183929668317
 31
0.0
  0
LINE
  5
230
330
1F
100
AcDbEntity
  8
その他
  6
Continuous
 62
     7
370
     0
100
AcDbLine
 10
163.1151689127166
 20
-730.5766048992297
 30
0.0
 11
163.1151689127166
 21
-723.2493017429778
 31
0.0
  0
LINE
  5
231
330
1F
100
AcDbEntity
  8
その他
  6
Continuous
 62
     7
370
     0
100
AcDbLine
 10
163.5151689100054
 20
-730.1560505801021
 30
0.0
 11
163.5151689100054
 21
-723.6698560621053
 31
0.0
  0
LINE
  5
232
330
1F
100
AcDbEntity
  8
その他
  6
Continuous
 62
     7
370
     0
100
AcDbLine
 10
163.9151689072942
 20
-729.6218716697083
 30
0.0
 11
163.9151689072942
 21
-724.2040349724991
 31
0.0
  0
LINE
  5
233
330
1F
100
AcDbEntity
  8
その他
  6
Continuous
 62
     7
370
     0
100
AcDbLine
 10
164.3151689045831
 20
-728.8502373110485
 30
0.0
 11
164.3151689045831
 21
-724.9756693311589
 31
0.0
  0
LINE
  5
234
330
1F
100
AcDbEntity
  8
その他
  6
Continuous
 62
     7
370
     0
100
AcDbLine
 10
161.5151689235613
 20
-731.5750348548975
 30
0.0
 11
161.5151689235613
 21
-722.25087178731
 31
0.0
  0
LINE
  5
235
330
1F
100
AcDbEntity
  8
その他
  6
Continuous
 62
     7
370
     0
100
AcDbLine
 10
161.1151689262725
 20
-731.7050027325097
 30
0.0
 11
161.1151689262725
 21
-722.1209039096977
 31
0.0
  0
LINE
  5
236
330
1F
100
AcDbEntity
  8
その他
  6
Continuous
 62
     7
370
     0
100
AcDbLine
 10
160.7151689289836
 20
-731.802309557215
 30
0.0
 11
160.7151689289836
 21
-722.0235970849924
 31
0.0
  0
LINE
  5
237
330
1F
100
AcDbEntity
  8
その他
  6
Continuous
 62
     7
370
     0
100
AcDbLine
 10
160.3151689316948
 20
-731.8752044871177
 30
0.0
 11
160.3151689316948
 21
-721.9507021550897
 31
0.0
  0
LINE
  5
238
330
1F
100
AcDbEntity
  8
その他
  6
Continuous
 62
     7
370
     0
100
AcDbLine
 10
159.915168934406
 20
-731.9003703538486
 30
0.0
 11
159.915168934406
 21
-721.9255362883588
 31
0.0
  0
LINE
  5
239
330
1F
100
AcDbEntity
  8
その他
  6
Continuous
 62
     7
370
     9
100
AcDbLine
 10
39.81516974843203
 20
-581.9129543039052
 30
0.0
 11
40.44183591200604
 21
-581.8735278107448
 31
0.0
  0
LINE
  5
23A
330
1F
100
AcDbEntity
  8
その他
  6
Continuous
 62
     7
370
     9
100
AcDbLine
 10
40.44183591200604
 20
-581.8735278107448
 30
0.0
 11
41.05861917582828
 21
-581.755870110613
 31
0.0
  0
LINE
  5
23B
330
1F
100
AcDbEntity
  8
その他
  6
Continuous
 62
     7
370
     9
100
AcDbLine
 10
41.05861917582828
 20
-581.755870110613
 30
0.0
 11
41.65579249937979
 21
-581.5618367357263
 31
0.0
  0
LINE
  5
23C
330
1F
100
AcDbEntity
  8
その他
  6
Continuous
 62
     7
370
     9
100
AcDbLine
 10
41.65579249937979
 20
-581.5618367357263
 30
0.0
 11
42.22393810261412
 21
-581.2944877083164
 31
0.0
  0
LINE
  5
23D
330
1F
100
AcDbEntity
  8
その他
  6
Continuous
 62
     7
370
     9
100
AcDbLine
 10
42.22393810261412
 20
-581.2944877083164
 30
0.0
 11
42.75409598997454
 21
-580.9580392822523
 31
0.0
  0
LINE
  5
23E
330
1F
100
AcDbEntity
  8
その他
  6
Continuous
 62
     7
370
     9
100
AcDbLine
 10
42.75409598997454
 20
-580.9580392822523
 30
0.0
 11
43.23790525487639
 21
-580.5577974501974
 31
0.0
  0
LINE
  5
23F
330
1F
100
AcDbEntity
  8
その他
  6
Continuous
 62
     7
370
     9
100
AcDbLine
 10
43.23790525487639
 20
-580.5577974501974
 30
0.0
 11
43.66773593619853
 21
-580.1000742649362
 31
0.0
  0
LINE
  5
240
330
1F
100
AcDbEntity
  8
その他
  6
Continuous
 62
     7
370
     9
100
AcDbLine
 10
43.66773593619853
 20
-580.1000742649362
 30
0.0
 11
44.0368093473281
 21
-579.5920882945309
 31
0.0
  0
LINE
  5
241
330
1F
100
AcDbEntity
  8
その他
  6
Continuous
 62
     7
370
     9
100
AcDbLine
 10
44.0368093473281
 20
-579.5920882945309
 30
0.0
 11
44.33930498009782
 21
-579.0418507811908
 31
0.0
  0
LINE
  5
242
330
1F
100
AcDbEntity
  8
その他
  6
Continuous
 62
     7
370
     9
100
AcDbLine
 10
44.33930498009782
 20
-579.0418507811908
 30
0.0
 11
44.57045229767679
 21
-578.4580392991971
 31
0.0
  0
LINE
  5
243
330
1F
100
AcDbEntity
  8
その他
  6
Continuous
 62
     7
370
     9
100
AcDbLine
 10
44.57045229767679
 20
-578.4580392991971
 30
0.0
 11
44.72660596878606
 21
-577.8498609043733
 31
0.0
  0
LINE
  5
244
330
1F
100
AcDbEntity
  8
その他
  6
Continuous
 62
     7
370
     9
100
AcDbLine
 10
44.72660596878606
 20
-577.8498609043733
 30
0.0
 11
44.80530335675057
 21
-577.2269069333134
 31
0.0
  0
LINE
  5
245
330
1F
100
AcDbEntity
  8
その他
  6
Continuous
 62
     7
370
     9
100
AcDbLine
 10
44.80530335675057
 20
-577.2269069333134
 30
0.0
 11
44.80530335675057
 21
-576.5990017422762
 31
0.0
  0
LINE
  5
246
330
1F
100
AcDbEntity
  8
その他
  6
Continuous
 62
     7
370
     9
100
AcDbLine
 10
44.80530335675057
 20
-576.5990017422762
 30
0.0
 11
44.72660596878606
 21
-575.9760477712165
 31
0.0
  0
LINE
  5
247
330
1F
100
AcDbEntity
  8
その他
  6
Continuous
 62
     7
370
     9
100
AcDbLine
 10
44.72660596878606
 20
-575.9760477712165
 30
0.0
 11
44.57045229767679
 21
-575.3678693763926
 31
0.0
  0
LINE
  5
248
330
1F
100
AcDbEntity
  8
その他
  6
Continuous
 62
     7
370
     9
100
AcDbLine
 10
44.57045229767679
 20
-575.3678693763926
 30
0.0
 11
44.33930498009781
 21
-574.784057894399
 31
0.0
  0
LINE
  5
249
330
1F
100
AcDbEntity
  8
その他
  6
Continuous
 62
     7
370
     9
100
AcDbLine
 10
44.33930498009781
 20
-574.784057894399
 30
0.0
 11
44.03680934732809
 21
-574.2338203810589
 31
0.0
  0
LINE
  5
24A
330
1F
100
AcDbEntity
  8
その他
  6
Continuous
 62
     7
370
     9
100
AcDbLine
 10
44.03680934732809
 20
-574.2338203810589
 30
0.0
 11
43.66773593619851
 21
-573.7258344106535
 31
0.0
  0
LINE
  5
24B
330
1F
100
AcDbEntity
  8
その他
  6
Continuous
 62
     7
370
     9
100
AcDbLine
 10
43.66773593619851
 20
-573.7258344106535
 30
0.0
 11
43.23790525487637
 21
-573.2681112253923
 31
0.0
  0
LINE
  5
24C
330
1F
100
AcDbEntity
  8
その他
  6
Continuous
 62
     7
370
     9
100
AcDbLine
 10
43.23790525487637
 20
-573.2681112253923
 30
0.0
 11
42.75409598997452
 21
-572.8678693933374
 31
0.0
  0
LINE
  5
24D
330
1F
100
AcDbEntity
  8
その他
  6
Continuous
 62
     7
370
     9
100
AcDbLine
 10
42.75409598997452
 20
-572.8678693933374
 30
0.0
 11
42.22393810261411
 21
-572.5314209672733
 31
0.0
  0
LINE
  5
24E
330
1F
100
AcDbEntity
  8
その他
  6
Continuous
 62
     7
370
     9
100
AcDbLine
 10
42.22393810261411
 20
-572.5314209672733
 30
0.0
 11
41.65579249937977
 21
-572.2640719398635
 31
0.0
  0
LINE
  5
24F
330
1F
100
AcDbEntity
  8
その他
  6
Continuous
 62
     7
370
     9
100
AcDbLine
 10
41.65579249937977
 20
-572.2640719398635
 30
0.0
 11
41.05861917582826
 21
-572.0700385649767
 31
0.0
  0
LINE
  5
250
330
1F
100
AcDbEntity
  8
その他
  6
Continuous
 62
     7
370
     9
100
AcDbLine
 10
41.05861917582826
 20
-572.0700385649767
 30
0.0
 11
40.44183591200603
 21
-571.9523808648449
 31
0.0
  0
LINE
  5
251
330
1F
100
AcDbEntity
  8
その他
  6
Continuous
 62
     7
370
     9
100
AcDbLine
 10
40.44183591200603
 20
-571.9523808648449
 30
0.0
 11
39.81516974843203
 21
-571.9129543716846
 31
0.0
  0
LINE
  5
252
330
1F
100
AcDbEntity
  8
その他
  6
Continuous
 62
     7
370
     9
100
AcDbLine
 10
39.81516974843203
 20
-571.9129543716846
 30
0.0
 11
39.81516974843203
 21
-581.9129543039052
 31
0.0
  0
LINE
  5
253
330
1F
100
AcDbEntity
  8
その他
  6
Continuous
 62
     7
370
     0
100
AcDbLine
 10
42.60530337166203
 20
-572.7734427264243
 30
0.0
 11
42.60530337166203
 21
-581.0524659491655
 31
0.0
  0
LINE
  5
254
330
1F
100
AcDbEntity
  8
その他
  6
Continuous
 62
     7
370
     0
100
AcDbLine
 10
42.20530337437321
 20
-572.5226521297731
 30
0.0
 11
42.20530337437321
 21
-581.3032565458167
 31
0.0
  0
LINE
  5
255
330
1F
100
AcDbEntity
  8
その他
  6
Continuous
 62
     7
370
     0
100
AcDbLine
 10
41.80530337708439
 20
-572.3344264185639
 30
0.0
 11
41.80530337708439
 21
-581.4914822570258
 31
0.0
  0
LINE
  5
256
330
1F
100
AcDbEntity
  8
その他
  6
Continuous
 62
     7
370
     0
100
AcDbLine
 10
41.40530337979555
 20
-572.1826830912185
 30
0.0
 11
41.40530337979555
 21
-581.6432255843713
 31
0.0
  0
LINE
  5
257
330
1F
100
AcDbEntity
  8
その他
  6
Continuous
 62
     7
370
     0
100
AcDbLine
 10
41.00530338250674
 20
-572.0598680334613
 30
0.0
 11
41.00530338250674
 21
-581.7660406421285
 31
0.0
  0
LINE
  5
258
330
1F
100
AcDbEntity
  8
その他
  6
Continuous
 62
     7
370
     0
100
AcDbLine
 10
40.60530338521791
 20
-571.983563953091
 30
0.0
 11
40.60530338521791
 21
-581.8423447224988
 31
0.0
  0
LINE
  5
259
330
1F
100
AcDbEntity
  8
その他
  6
Continuous
 62
     7
370
     0
100
AcDbLine
 10
40.20530338792909
 20
-571.9374994997979
 30
0.0
 11
40.20530338792909
 21
-581.8884091757918
 31
0.0
  0
LINE
  5
25A
330
1F
100
AcDbEntity
  8
その他
  6
Continuous
 62
     7
370
     0
100
AcDbLine
 10
43.00530336895086
 20
-573.0756862105859
 30
0.0
 11
43.00530336895086
 21
-580.7502224650038
 31
0.0
  0
LINE
  5
25B
330
1F
100
AcDbEntity
  8
その他
  6
Continuous
 62
     7
370
     0
100
AcDbLine
 10
43.40530336623968
 20
-573.4463721082689
 30
0.0
 11
43.40530336623968
 21
-580.3795365673209
 31
0.0
  0
LINE
  5
25C
330
1F
100
AcDbEntity
  8
その他
  6
Continuous
 62
     7
370
     0
100
AcDbLine
 10
43.80530336352851
 20
-573.9151797304762
 30
0.0
 11
43.80530336352851
 21
-579.9107289451135
 31
0.0
  0
LINE
  5
25D
330
1F
100
AcDbEntity
  8
その他
  6
Continuous
 62
     7
370
     0
100
AcDbLine
 10
44.20530336081733
 20
-574.5403098538031
 30
0.0
 11
44.20530336081733
 21
-579.2855988217866
 31
0.0
  0
LINE
  5
25E
330
1F
100
AcDbEntity
  8
その他
  6
Continuous
 62
     7
370
     0
100
AcDbLine
 10
44.60530335810616
 20
-575.5036052949866
 30
0.0
 11
44.60530335810616
 21
-578.3223033806031
 31
0.0
  0
LINE
  5
25F
330
1F
100
AcDbEntity
  8
その他
  6
Continuous
 62
     7
370
     9
100
AcDbLine
 10
39.81516974843203
 20
-571.9129543716846
 30
0.0
 11
39.18850358485801
 21
-571.9523808648449
 31
0.0
  0
LINE
  5
260
330
1F
100
AcDbEntity
  8
その他
  6
Continuous
 62
     7
370
     9
100
AcDbLine
 10
39.18850358485801
 20
-571.9523808648449
 30
0.0
 11
38.57172032103578
 21
-572.0700385649767
 31
0.0
  0
LINE
  5
261
330
1F
100
AcDbEntity
  8
その他
  6
Continuous
 62
     7
370
     9
100
AcDbLine
 10
38.57172032103578
 20
-572.0700385649767
 30
0.0
 11
37.97454699748427
 21
-572.2640719398635
 31
0.0
  0
LINE
  5
262
330
1F
100
AcDbEntity
  8
その他
  6
Continuous
 62
     7
370
     9
100
AcDbLine
 10
37.97454699748427
 20
-572.2640719398635
 30
0.0
 11
37.40640139424993
 21
-572.5314209672733
 31
0.0
  0
LINE
  5
263
330
1F
100
AcDbEntity
  8
その他
  6
Continuous
 62
     7
370
     9
100
AcDbLine
 10
37.40640139424993
 20
-572.5314209672733
 30
0.0
 11
36.87624350688952
 21
-572.8678693933374
 31
0.0
  0
LINE
  5
264
330
1F
100
AcDbEntity
  8
その他
  6
Continuous
 62
     7
370
     9
100
AcDbLine
 10
36.87624350688952
 20
-572.8678693933374
 30
0.0
 11
36.39243424198767
 21
-573.2681112253923
 31
0.0
  0
LINE
  5
265
330
1F
100
AcDbEntity
  8
その他
  6
Continuous
 62
     7
370
     9
100
AcDbLine
 10
36.39243424198767
 20
-573.2681112253923
 30
0.0
 11
35.96260356066553
 21
-573.7258344106535
 31
0.0
  0
LINE
  5
266
330
1F
100
AcDbEntity
  8
その他
  6
Continuous
 62
     7
370
     9
100
AcDbLine
 10
35.96260356066553
 20
-573.7258344106535
 30
0.0
 11
35.59353014953596
 21
-574.2338203810589
 31
0.0
  0
LINE
  5
267
330
1F
100
AcDbEntity
  8
その他
  6
Continuous
 62
     7
370
     9
100
AcDbLine
 10
35.59353014953596
 20
-574.2338203810589
 30
0.0
 11
35.29103451676623
 21
-574.784057894399
 31
0.0
  0
LINE
  5
268
330
1F
100
AcDbEntity
  8
その他
  6
Continuous
 62
     7
370
     9
100
AcDbLine
 10
35.29103451676623
 20
-574.784057894399
 30
0.0
 11
35.05988719918727
 21
-575.3678693763926
 31
0.0
  0
LINE
  5
269
330
1F
100
AcDbEntity
  8
その他
  6
Continuous
 62
     7
370
     9
100
AcDbLine
 10
35.05988719918727
 20
-575.3678693763926
 30
0.0
 11
34.90373352807799
 21
-575.9760477712165
 31
0.0
  0
LINE
  5
26A
330
1F
100
AcDbEntity
  8
その他
  6
Continuous
 62
     7
370
     9
100
AcDbLine
 10
34.90373352807799
 20
-575.9760477712165
 30
0.0
 11
34.82503614011348
 21
-576.5990017422762
 31
0.0
  0
LINE
  5
26B
330
1F
100
AcDbEntity
  8
その他
  6
Continuous
 62
     7
370
     9
100
AcDbLine
 10
34.82503614011348
 20
-576.5990017422762
 30
0.0
 11
34.82503614011348
 21
-577.2269069333136
 31
0.0
  0
LINE
  5
26C
330
1F
100
AcDbEntity
  8
その他
  6
Continuous
 62
     7
370
     9
100
AcDbLine
 10
34.82503614011348
 20
-577.2269069333136
 30
0.0
 11
34.90373352807799
 21
-577.8498609043733
 31
0.0
  0
LINE
  5
26D
330
1F
100
AcDbEntity
  8
その他
  6
Continuous
 62
     7
370
     9
100
AcDbLine
 10
34.90373352807799
 20
-577.8498609043733
 30
0.0
 11
35.05988719918727
 21
-578.4580392991971
 31
0.0
  0
LINE
  5
26E
330
1F
100
AcDbEntity
  8
その他
  6
Continuous
 62
     7
370
     9
100
AcDbLine
 10
35.05988719918727
 20
-578.4580392991971
 30
0.0
 11
35.29103451676623
 21
-579.0418507811908
 31
0.0
  0
LINE
  5
26F
330
1F
100
AcDbEntity
  8
その他
  6
Continuous
 62
     7
370
     9
100
AcDbLine
 10
35.29103451676623
 20
-579.0418507811908
 30
0.0
 11
35.59353014953596
 21
-579.5920882945309
 31
0.0
  0
LINE
  5
270
330
1F
100
AcDbEntity
  8
その他
  6
Continuous
 62
     7
370
     9
100
AcDbLine
 10
35.59353014953596
 20
-579.5920882945309
 30
0.0
 11
35.96260356066553
 21
-580.1000742649362
 31
0.0
  0
LINE
  5
271
330
1F
100
AcDbEntity
  8
その他
  6
Continuous
 62
     7
370
     9
100
AcDbLine
 10
35.96260356066553
 20
-580.1000742649362
 30
0.0
 11
36.39243424198767
 21
-580.5577974501974
 31
0.0
  0
LINE
  5
272
330
1F
100
AcDbEntity
  8
その他
  6
Continuous
 62
     7
370
     9
100
AcDbLine
 10
36.39243424198767
 20
-580.5577974501974
 30
0.0
 11
36.87624350688952
 21
-580.9580392822523
 31
0.0
  0
LINE
  5
273
330
1F
100
AcDbEntity
  8
その他
  6
Continuous
 62
     7
370
     9
100
AcDbLine
 10
36.87624350688952
 20
-580.9580392822523
 30
0.0
 11
37.40640139424993
 21
-581.2944877083164
 31
0.0
  0
LINE
  5
274
330
1F
100
AcDbEntity
  8
その他
  6
Continuous
 62
     7
370
     9
100
AcDbLine
 10
37.40640139424993
 20
-581.2944877083164
 30
0.0
 11
37.97454699748427
 21
-581.5618367357263
 31
0.0
  0
LINE
  5
275
330
1F
100
AcDbEntity
  8
その他
  6
Continuous
 62
     7
370
     9
100
AcDbLine
 10
37.97454699748427
 20
-581.5618367357263
 30
0.0
 11
38.57172032103578
 21
-581.755870110613
 31
0.0
  0
LINE
  5
276
330
1F
100
AcDbEntity
  8
その他
  6
Continuous
 62
     7
370
     9
100
AcDbLine
 10
38.57172032103578
 20
-581.755870110613
 30
0.0
 11
39.18850358485801
 21
-581.8735278107448
 31
0.0
  0
LINE
  5
277
330
1F
100
AcDbEntity
  8
その他
  6
Continuous
 62
     7
370
     9
100
AcDbLine
 10
39.18850358485801
 20
-581.8735278107448
 30
0.0
 11
39.81516974843203
 21
-581.9129543039052
 31
0.0
  0
LINE
  5
278
330
1F
100
AcDbEntity
  8
その他
  6
Continuous
 62
     7
370
     0
100
AcDbLine
 10
37.61516976334349
 20
-572.4331820297309
 30
0.0
 11
37.61516976334349
 21
-581.3927266458588
 31
0.0
  0
LINE
  5
279
330
1F
100
AcDbEntity
  8
その他
  6
Continuous
 62
     7
370
     0
100
AcDbLine
 10
37.21516976605466
 20
-572.6527802488268
 30
0.0
 11
37.21516976605466
 21
-581.1731284267629
 31
0.0
  0
LINE
  5
27A
330
1F
100
AcDbEntity
  8
その他
  6
Continuous
 62
     7
370
     0
100
AcDbLine
 10
36.81516976876584
 20
-572.9183939835228
 30
0.0
 11
36.81516976876584
 21
-580.9075146920669
 31
0.0
  0
LINE
  5
27B
330
1F
100
AcDbEntity
  8
その他
  6
Continuous
 62
     7
370
     0
100
AcDbLine
 10
36.41516977147701
 20
-573.249302759669
 30
0.0
 11
36.41516977147702
 21
-580.5766059159207
 31
0.0
  0
LINE
  5
27C
330
1F
100
AcDbEntity
  8
その他
  6
Continuous
 62
     7
370
     0
100
AcDbLine
 10
36.01516977418819
 20
-573.6698570787964
 30
0.0
 11
36.01516977418819
 21
-580.1560515967933
 31
0.0
  0
LINE
  5
27D
330
1F
100
AcDbEntity
  8
その他
  6
Continuous
 62
     7
370
     0
100
AcDbLine
 10
35.61516977689936
 20
-574.2040359891902
 30
0.0
 11
35.61516977689936
 21
-579.6218726863996
 31
0.0
  0
LINE
  5
27E
330
1F
100
AcDbEntity
  8
その他
  6
Continuous
 62
     7
370
     0
100
AcDbLine
 10
35.21516977961054
 20
-574.97567034785
 30
0.0
 11
35.21516977961054
 21
-578.8502383277397
 31
0.0
  0
LINE
  5
27F
330
1F
100
AcDbEntity
  8
その他
  6
Continuous
 62
     7
370
     0
100
AcDbLine
 10
38.01516976063232
 20
-572.2508728040012
 30
0.0
 11
38.01516976063232
 21
-581.5750358715885
 31
0.0
  0
LINE
  5
280
330
1F
100
AcDbEntity
  8
その他
  6
Continuous
 62
     7
370
     0
100
AcDbLine
 10
38.41516975792113
 20
-572.120904926389
 30
0.0
 11
38.41516975792113
 21
-581.7050037492007
 31
0.0
  0
LINE
  5
281
330
1F
100
AcDbEntity
  8
その他
  6
Continuous
 62
     7
370
     0
100
AcDbLine
 10
38.81516975520996
 20
-572.0235981016835
 30
0.0
 11
38.81516975520996
 21
-581.8023105739062
 31
0.0
  0
LINE
  5
282
330
1F
100
AcDbEntity
  8
その他
  6
Continuous
 62
     7
370
     0
100
AcDbLine
 10
39.21516975249879
 20
-571.9507031717809
 30
0.0
 11
39.21516975249879
 21
-581.8752055038088
 31
0.0
  0
LINE
  5
283
330
1F
100
AcDbEntity
  8
その他
  6
Continuous
 62
     7
370
     0
100
AcDbLine
 10
39.61516974978761
 20
-571.9255373050499
 30
0.0
 11
39.61516974978761
 21
-581.9003713705398
 31
0.0
  0
LINE
  5
284
330
1F
100
AcDbEntity
  8
その他
  6
Continuous
 62
     7
370
     9
100
AcDbLine
 10
39.81516974843203
 20
-721.9129533549933
 30
0.0
 11
39.18850358485801
 21
-721.9523798481538
 31
0.0
  0
LINE
  5
285
330
1F
100
AcDbEntity
  8
その他
  6
Continuous
 62
     7
370
     9
100
AcDbLine
 10
39.18850358485801
 20
-721.9523798481538
 30
0.0
 11
38.57172032103578
 21
-722.0700375482854
 31
0.0
  0
LINE
  5
286
330
1F
100
AcDbEntity
  8
その他
  6
Continuous
 62
     7
370
     9
100
AcDbLine
 10
38.57172032103578
 20
-722.0700375482854
 30
0.0
 11
37.97454699748426
 21
-722.2640709231723
 31
0.0
  0
LINE
  5
287
330
1F
100
AcDbEntity
  8
その他
  6
Continuous
 62
     7
370
     9
100
AcDbLine
 10
37.97454699748426
 20
-722.2640709231723
 30
0.0
 11
37.40640139424993
 21
-722.5314199505822
 31
0.0
  0
LINE
  5
288
330
1F
100
AcDbEntity
  8
その他
  6
Continuous
 62
     7
370
     9
100
AcDbLine
 10
37.40640139424993
 20
-722.5314199505822
 30
0.0
 11
36.87624350688952
 21
-722.8678683766464
 31
0.0
  0
LINE
  5
289
330
1F
100
AcDbEntity
  8
その他
  6
Continuous
 62
     7
370
     9
100
AcDbLine
 10
36.87624350688952
 20
-722.8678683766464
 30
0.0
 11
36.39243424198767
 21
-723.2681102087013
 31
0.0
  0
LINE
  5
28A
330
1F
100
AcDbEntity
  8
その他
  6
Continuous
 62
     7
370
     9
100
AcDbLine
 10
36.39243424198767
 20
-723.2681102087013
 30
0.0
 11
35.96260356066553
 21
-723.7258333939624
 31
0.0
  0
LINE
  5
28B
330
1F
100
AcDbEntity
  8
その他
  6
Continuous
 62
     7
370
     9
100
AcDbLine
 10
35.96260356066553
 20
-723.7258333939624
 30
0.0
 11
35.59353014953595
 21
-724.2338193643677
 31
0.0
  0
LINE
  5
28C
330
1F
100
AcDbEntity
  8
その他
  6
Continuous
 62
     7
370
     9
100
AcDbLine
 10
35.59353014953595
 20
-724.2338193643677
 30
0.0
 11
35.29103451676623
 21
-724.7840568777078
 31
0.0
  0
LINE
  5
28D
330
1F
100
AcDbEntity
  8
その他
  6
Continuous
 62
     7
370
     9
100
AcDbLine
 10
35.29103451676623
 20
-724.7840568777078
 30
0.0
 11
35.05988719918727
 21
-725.3678683597014
 31
0.0
  0
LINE
  5
28E
330
1F
100
AcDbEntity
  8
その他
  6
Continuous
 62
     7
370
     9
100
AcDbLine
 10
35.05988719918727
 20
-725.3678683597014
 30
0.0
 11
34.90373352807799
 21
-725.9760467545254
 31
0.0
  0
LINE
  5
28F
330
1F
100
AcDbEntity
  8
その他
  6
Continuous
 62
     7
370
     9
100
AcDbLine
 10
34.90373352807799
 20
-725.9760467545254
 30
0.0
 11
34.82503614011348
 21
-726.5990007255851
 31
0.0
  0
LINE
  5
290
330
1F
100
AcDbEntity
  8
その他
  6
Continuous
 62
     7
370
     9
100
AcDbLine
 10
34.82503614011348
 20
-726.5990007255851
 30
0.0
 11
34.82503614011348
 21
-727.2269059166223
 31
0.0
  0
LINE
  5
291
330
1F
100
AcDbEntity
  8
その他
  6
Continuous
 62
     7
370
     9
100
AcDbLine
 10
34.82503614011348
 20
-727.2269059166223
 30
0.0
 11
34.90373352807799
 21
-727.849859887682
 31
0.0
  0
LINE
  5
292
330
1F
100
AcDbEntity
  8
その他
  6
Continuous
 62
     7
370
     9
100
AcDbLine
 10
34.90373352807799
 20
-727.849859887682
 30
0.0
 11
35.05988719918727
 21
-728.458038282506
 31
0.0
  0
LINE
  5
293
330
1F
100
AcDbEntity
  8
その他
  6
Continuous
 62
     7
370
     9
100
AcDbLine
 10
35.05988719918727
 20
-728.458038282506
 30
0.0
 11
35.29103451676624
 21
-729.0418497644996
 31
0.0
  0
LINE
  5
294
330
1F
100
AcDbEntity
  8
その他
  6
Continuous
 62
     7
370
     9
100
AcDbLine
 10
35.29103451676624
 20
-729.0418497644996
 30
0.0
 11
35.59353014953597
 21
-729.5920872778397
 31
0.0
  0
LINE
  5
295
330
1F
100
AcDbEntity
  8
その他
  6
Continuous
 62
     7
370
     9
100
AcDbLine
 10
35.59353014953597
 20
-729.5920872778397
 30
0.0
 11
35.96260356066554
 21
-730.1000732482452
 31
0.0
  0
LINE
  5
296
330
1F
100
AcDbEntity
  8
その他
  6
Continuous
 62
     7
370
     9
100
AcDbLine
 10
35.96260356066554
 20
-730.1000732482452
 30
0.0
 11
36.39243424198768
 21
-730.5577964335064
 31
0.0
  0
LINE
  5
297
330
1F
100
AcDbEntity
  8
その他
  6
Continuous
 62
     7
370
     9
100
AcDbLine
 10
36.39243424198768
 20
-730.5577964335064
 30
0.0
 11
36.87624350688953
 21
-730.9580382655611
 31
0.0
  0
LINE
  5
298
330
1F
100
AcDbEntity
  8
その他
  6
Continuous
 62
     7
370
     9
100
AcDbLine
 10
36.87624350688953
 20
-730.9580382655611
 30
0.0
 11
37.40640139424995
 21
-731.2944866916253
 31
0.0
  0
LINE
  5
299
330
1F
100
AcDbEntity
  8
その他
  6
Continuous
 62
     7
370
     9
100
AcDbLine
 10
37.40640139424995
 20
-731.2944866916253
 30
0.0
 11
37.97454699748427
 21
-731.5618357190351
 31
0.0
  0
LINE
  5
29A
330
1F
100
AcDbEntity
  8
その他
  6
Continuous
 62
     7
370
     9
100
AcDbLine
 10
37.97454699748427
 20
-731.5618357190351
 30
0.0
 11
38.57172032103579
 21
-731.755869093922
 31
0.0
  0
LINE
  5
29B
330
1F
100
AcDbEntity
  8
その他
  6
Continuous
 62
     7
370
     9
100
AcDbLine
 10
38.57172032103579
 20
-731.755869093922
 30
0.0
 11
39.18850358485803
 21
-731.8735267940536
 31
0.0
  0
LINE
  5
29C
330
1F
100
AcDbEntity
  8
その他
  6
Continuous
 62
     7
370
     9
100
AcDbLine
 10
39.18850358485803
 20
-731.8735267940536
 30
0.0
 11
39.81516974843203
 21
-731.9129532872141
 31
0.0
  0
LINE
  5
29D
330
1F
100
AcDbEntity
  8
その他
  6
Continuous
 62
     7
370
     9
100
AcDbLine
 10
39.81516974843203
 20
-731.9129532872141
 30
0.0
 11
39.81516974843203
 21
-721.9129533549933
 31
0.0
  0
LINE
  5
29E
330
1F
100
AcDbEntity
  8
その他
  6
Continuous
 62
     7
370
     0
100
AcDbLine
 10
37.02503612520202
 20
-731.0524649324743
 30
0.0
 11
37.02503612520202
 21
-722.7734417097331
 31
0.0
  0
LINE
  5
29F
330
1F
100
AcDbEntity
  8
その他
  6
Continuous
 62
     7
370
     0
100
AcDbLine
 10
37.42503612249084
 20
-731.3032555291255
 30
0.0
 11
37.42503612249084
 21
-722.5226511130819
 31
0.0
  0
LINE
  5
2A0
330
1F
100
AcDbEntity
  8
その他
  6
Continuous
 62
     7
370
     0
100
AcDbLine
 10
37.82503611977967
 20
-731.4914812403346
 30
0.0
 11
37.82503611977967
 21
-722.3344254018729
 31
0.0
  0
LINE
  5
2A1
330
1F
100
AcDbEntity
  8
その他
  6
Continuous
 62
     7
370
     0
100
AcDbLine
 10
38.22503611706849
 20
-731.64322456768
 30
0.0
 11
38.22503611706849
 21
-722.1826820745274
 31
0.0
  0
LINE
  5
2A2
330
1F
100
AcDbEntity
  8
その他
  6
Continuous
 62
     7
370
     0
100
AcDbLine
 10
38.62503611435732
 20
-731.7660396254373
 30
0.0
 11
38.62503611435732
 21
-722.0598670167701
 31
0.0
  0
LINE
  5
2A3
330
1F
100
AcDbEntity
  8
その他
  6
Continuous
 62
     7
370
     0
100
AcDbLine
 10
39.02503611164614
 20
-731.8423437058075
 30
0.0
 11
39.02503611164614
 21
-721.9835629364
 31
0.0
  0
LINE
  5
2A4
330
1F
100
AcDbEntity
  8
その他
  6
Continuous
 62
     7
370
     0
100
AcDbLine
 10
39.42503610893497
 20
-731.8884081591005
 30
0.0
 11
39.42503610893497
 21
-721.9374984831069
 31
0.0
  0
LINE
  5
2A5
330
1F
100
AcDbEntity
  8
その他
  6
Continuous
 62
     7
370
     0
100
AcDbLine
 10
36.62503612791319
 20
-730.7502214483127
 30
0.0
 11
36.6250361279132
 21
-723.0756851938946
 31
0.0
  0
LINE
  5
2A6
330
1F
100
AcDbEntity
  8
その他
  6
Continuous
 62
     7
370
     0
100
AcDbLine
 10
36.22503613062437
 20
-730.3795355506297
 30
0.0
 11
36.22503613062437
 21
-723.4463710915777
 31
0.0
  0
LINE
  5
2A7
330
1F
100
AcDbEntity
  8
その他
  6
Continuous
 62
     7
370
     0
100
AcDbLine
 10
35.82503613333554
 20
-729.9107279284224
 30
0.0
 11
35.82503613333554
 21
-723.915178713785
 31
0.0
  0
LINE
  5
2A8
330
1F
100
AcDbEntity
  8
その他
  6
Continuous
 62
     7
370
     0
100
AcDbLine
 10
35.42503613604672
 20
-729.2855978050954
 30
0.0
 11
35.42503613604672
 21
-724.540308837112
 31
0.0
  0
LINE
  5
2A9
330
1F
100
AcDbEntity
  8
その他
  6
Continuous
 62
     7
370
     0
100
AcDbLine
 10
35.02503613875789
 20
-728.322302363912
 30
0.0
 11
35.02503613875789
 21
-725.5036042782955
 31
0.0
  0
LINE
  5
2AA
330
1F
100
AcDbEntity
  8
その他
  6
Continuous
 62
     7
370
     9
100
AcDbLine
 10
39.81516974843203
 20
-731.9129532872141
 30
0.0
 11
40.44183591200604
 21
-731.8735267940536
 31
0.0
  0
LINE
  5
2AB
330
1F
100
AcDbEntity
  8
その他
  6
Continuous
 62
     7
370
     9
100
AcDbLine
 10
40.44183591200604
 20
-731.8735267940536
 30
0.0
 11
41.05861917582828
 21
-731.755869093922
 31
0.0
  0
LINE
  5
2AC
330
1F
100
AcDbEntity
  8
その他
  6
Continuous
 62
     7
370
     9
100
AcDbLine
 10
41.05861917582828
 20
-731.755869093922
 30
0.0
 11
41.65579249937979
 21
-731.5618357190351
 31
0.0
  0
LINE
  5
2AD
330
1F
100
AcDbEntity
  8
その他
  6
Continuous
 62
     7
370
     9
100
AcDbLine
 10
41.65579249937979
 20
-731.5618357190351
 30
0.0
 11
42.22393810261412
 21
-731.2944866916253
 31
0.0
  0
LINE
  5
2AE
330
1F
100
AcDbEntity
  8
その他
  6
Continuous
 62
     7
370
     9
100
AcDbLine
 10
42.22393810261412
 20
-731.2944866916253
 30
0.0
 11
42.75409598997453
 21
-730.9580382655611
 31
0.0
  0
LINE
  5
2AF
330
1F
100
AcDbEntity
  8
その他
  6
Continuous
 62
     7
370
     9
100
AcDbLine
 10
42.75409598997453
 20
-730.9580382655611
 30
0.0
 11
43.23790525487638
 21
-730.5577964335064
 31
0.0
  0
LINE
  5
2B0
330
1F
100
AcDbEntity
  8
その他
  6
Continuous
 62
     7
370
     9
100
AcDbLine
 10
43.23790525487638
 20
-730.5577964335064
 30
0.0
 11
43.66773593619853
 21
-730.100073248245
 31
0.0
  0
LINE
  5
2B1
330
1F
100
AcDbEntity
  8
その他
  6
Continuous
 62
     7
370
     9
100
AcDbLine
 10
43.66773593619853
 20
-730.100073248245
 30
0.0
 11
44.03680934732809
 21
-729.5920872778397
 31
0.0
  0
LINE
  5
2B2
330
1F
100
AcDbEntity
  8
その他
  6
Continuous
 62
     7
370
     9
100
AcDbLine
 10
44.03680934732809
 20
-729.5920872778397
 30
0.0
 11
44.33930498009782
 21
-729.0418497644996
 31
0.0
  0
LINE
  5
2B3
330
1F
100
AcDbEntity
  8
その他
  6
Continuous
 62
     7
370
     9
100
AcDbLine
 10
44.33930498009782
 20
-729.0418497644996
 30
0.0
 11
44.57045229767679
 21
-728.458038282506
 31
0.0
  0
LINE
  5
2B4
330
1F
100
AcDbEntity
  8
その他
  6
Continuous
 62
     7
370
     9
100
AcDbLine
 10
44.57045229767679
 20
-728.458038282506
 30
0.0
 11
44.72660596878606
 21
-727.849859887682
 31
0.0
  0
LINE
  5
2B5
330
1F
100
AcDbEntity
  8
その他
  6
Continuous
 62
     7
370
     9
100
AcDbLine
 10
44.72660596878606
 20
-727.849859887682
 30
0.0
 11
44.80530335675057
 21
-727.2269059166223
 31
0.0
  0
LINE
  5
2B6
330
1F
100
AcDbEntity
  8
その他
  6
Continuous
 62
     7
370
     9
100
AcDbLine
 10
44.80530335675057
 20
-727.2269059166223
 30
0.0
 11
44.80530335675057
 21
-726.5990007255851
 31
0.0
  0
LINE
  5
2B7
330
1F
100
AcDbEntity
  8
その他
  6
Continuous
 62
     7
370
     9
100
AcDbLine
 10
44.80530335675057
 20
-726.5990007255851
 30
0.0
 11
44.72660596878606
 21
-725.9760467545254
 31
0.0
  0
LINE
  5
2B8
330
1F
100
AcDbEntity
  8
その他
  6
Continuous
 62
     7
370
     9
100
AcDbLine
 10
44.72660596878606
 20
-725.9760467545254
 30
0.0
 11
44.57045229767679
 21
-725.3678683597014
 31
0.0
  0
LINE
  5
2B9
330
1F
100
AcDbEntity
  8
その他
  6
Continuous
 62
     7
370
     9
100
AcDbLine
 10
44.57045229767679
 20
-725.3678683597014
 30
0.0
 11
44.33930498009782
 21
-724.7840568777078
 31
0.0
  0
LINE
  5
2BA
330
1F
100
AcDbEntity
  8
その他
  6
Continuous
 62
     7
370
     9
100
AcDbLine
 10
44.33930498009782
 20
-724.7840568777078
 30
0.0
 11
44.0368093473281
 21
-724.2338193643677
 31
0.0
  0
LINE
  5
2BB
330
1F
100
AcDbEntity
  8
その他
  6
Continuous
 62
     7
370
     9
100
AcDbLine
 10
44.0368093473281
 20
-724.2338193643677
 30
0.0
 11
43.66773593619853
 21
-723.7258333939624
 31
0.0
  0
LINE
  5
2BC
330
1F
100
AcDbEntity
  8
その他
  6
Continuous
 62
     7
370
     9
100
AcDbLine
 10
43.66773593619853
 20
-723.7258333939624
 30
0.0
 11
43.23790525487638
 21
-723.2681102087013
 31
0.0
  0
LINE
  5
2BD
330
1F
100
AcDbEntity
  8
その他
  6
Continuous
 62
     7
370
     9
100
AcDbLine
 10
43.23790525487638
 20
-723.2681102087013
 30
0.0
 11
42.75409598997453
 21
-722.8678683766464
 31
0.0
  0
LINE
  5
2BE
330
1F
100
AcDbEntity
  8
その他
  6
Continuous
 62
     7
370
     9
100
AcDbLine
 10
42.75409598997453
 20
-722.8678683766464
 30
0.0
 11
42.22393810261412
 21
-722.5314199505822
 31
0.0
  0
LINE
  5
2BF
330
1F
100
AcDbEntity
  8
その他
  6
Continuous
 62
     7
370
     9
100
AcDbLine
 10
42.22393810261412
 20
-722.5314199505822
 30
0.0
 11
41.65579249937979
 21
-722.2640709231723
 31
0.0
  0
LINE
  5
2C0
330
1F
100
AcDbEntity
  8
その他
  6
Continuous
 62
     7
370
     9
100
AcDbLine
 10
41.65579249937979
 20
-722.2640709231723
 30
0.0
 11
41.05861917582828
 21
-722.0700375482854
 31
0.0
  0
LINE
  5
2C1
330
1F
100
AcDbEntity
  8
その他
  6
Continuous
 62
     7
370
     9
100
AcDbLine
 10
41.05861917582828
 20
-722.0700375482854
 30
0.0
 11
40.44183591200604
 21
-721.9523798481538
 31
0.0
  0
LINE
  5
2C2
330
1F
100
AcDbEntity
  8
その他
  6
Continuous
 62
     7
370
     9
100
AcDbLine
 10
40.44183591200604
 20
-721.9523798481538
 30
0.0
 11
39.81516974843203
 21
-721.9129533549933
 31
0.0
  0
LINE
  5
2C3
330
1F
100
AcDbEntity
  8
その他
  6
Continuous
 62
     7
370
     0
100
AcDbLine
 10
42.01516973352057
 20
-731.3927256291676
 30
0.0
 11
42.01516973352057
 21
-722.4331810130399
 31
0.0
  0
LINE
  5
2C4
330
1F
100
AcDbEntity
  8
その他
  6
Continuous
 62
     7
370
     0
100
AcDbLine
 10
42.4151697308094
 20
-731.1731274100719
 30
0.0
 11
42.4151697308094
 21
-722.6527792321356
 31
0.0
  0
LINE
  5
2C5
330
1F
100
AcDbEntity
  8
その他
  6
Continuous
 62
     7
370
     0
100
AcDbLine
 10
42.81516972809822
 20
-730.9075136753758
 30
0.0
 11
42.81516972809822
 21
-722.9183929668317
 31
0.0
  0
LINE
  5
2C6
330
1F
100
AcDbEntity
  8
その他
  6
Continuous
 62
     7
370
     0
100
AcDbLine
 10
43.21516972538704
 20
-730.5766048992297
 30
0.0
 11
43.21516972538704
 21
-723.2493017429778
 31
0.0
  0
LINE
  5
2C7
330
1F
100
AcDbEntity
  8
その他
  6
Continuous
 62
     7
370
     0
100
AcDbLine
 10
43.61516972267587
 20
-730.1560505801021
 30
0.0
 11
43.61516972267587
 21
-723.6698560621053
 31
0.0
  0
LINE
  5
2C8
330
1F
100
AcDbEntity
  8
その他
  6
Continuous
 62
     7
370
     0
100
AcDbLine
 10
44.01516971996469
 20
-729.6218716697083
 30
0.0
 11
44.01516971996469
 21
-724.2040349724991
 31
0.0
  0
LINE
  5
2C9
330
1F
100
AcDbEntity
  8
その他
  6
Continuous
 62
     7
370
     0
100
AcDbLine
 10
44.41516971725352
 20
-728.8502373110485
 30
0.0
 11
44.41516971725352
 21
-724.9756693311589
 31
0.0
  0
LINE
  5
2CA
330
1F
100
AcDbEntity
  8
その他
  6
Continuous
 62
     7
370
     0
100
AcDbLine
 10
41.61516973623173
 20
-731.5750348548975
 30
0.0
 11
41.61516973623173
 21
-722.25087178731
 31
0.0
  0
LINE
  5
2CB
330
1F
100
AcDbEntity
  8
その他
  6
Continuous
 62
     7
370
     0
100
AcDbLine
 10
41.21516973894291
 20
-731.7050027325097
 30
0.0
 11
41.21516973894291
 21
-722.1209039096977
 31
0.0
  0
LINE
  5
2CC
330
1F
100
AcDbEntity
  8
その他
  6
Continuous
 62
     7
370
     0
100
AcDbLine
 10
40.81516974165409
 20
-731.802309557215
 30
0.0
 11
40.8151697416541
 21
-722.0235970849924
 31
0.0
  0
LINE
  5
2CD
330
1F
100
AcDbEntity
  8
その他
  6
Continuous
 62
     7
370
     0
100
AcDbLine
 10
40.41516974436527
 20
-731.8752044871177
 30
0.0
 11
40.41516974436527
 21
-721.9507021550897
 31
0.0
  0
LINE
  5
2CE
330
1F
100
AcDbEntity
  8
その他
  6
Continuous
 62
     7
370
     0
100
AcDbLine
 10
40.01516974707644
 20
-731.9003703538486
 30
0.0
 11
40.01516974707644
 21
-721.9255362883588
 31
0.0
  0
LINE
  5
2CF
330
1F
100
AcDbEntity
  8
ハッチ
  6
Continuous
 62
     6
370
     5
100
AcDbLine
 10
-673.0848254195778
 20
-476.9139550155808
 30
0.0
 11
-686.5527337328513
 21
-453.5858698465212
 31
0.0
  0
LINE
  5
2D0
330
1F
100
AcDbEntity
  8
ハッチ
  6
Continuous
 62
     6
370
     5
100
AcDbLine
 10
-673.0848254195778
 20
-476.9139550155808
 30
0.0
 11
-659.6166476216142
 21
-453.585886573665
 31
0.0
  0
LINE
  5
2D1
330
1F
100
AcDbEntity
  8
ハッチ
  6
Continuous
 62
     6
370
     5
100
AcDbLine
 10
-686.5527337328513
 20
-453.5858698465212
 30
0.0
 11
-659.6166476216142
 21
-453.585886573665
 31
0.0
  0
LINE
  5
2D2
330
1F
100
AcDbEntity
  8
ハッチ
  6
Continuous
 62
     6
370
     9
100
AcDbLine
 10
-560.1848261847585
 20
-726.9127980726428
 30
0.0
 11
-60.18482957382396
 21
-726.9131085695647
 31
0.0
  0
LINE
  5
2D3
330
1F
100
AcDbEntity
  8
ハッチ
  6
Continuous
 62
     6
370
     9
100
AcDbLine
 10
-560.1848882841429
 20
-826.9127973948298
 30
0.0
 11
-560.1848261847585
 21
-726.9127980726428
 31
0.0
  0
LINE
  5
2D4
330
1F
100
AcDbEntity
  8
ハッチ
  6
Continuous
 62
     6
370
     9
100
AcDbLine
 10
-560.1848882841429
 20
-826.9127973948298
 30
0.0
 11
-60.1848916732083
 21
-826.9131078917515
 31
0.0
  0
LINE
  5
2D5
330
1F
100
AcDbEntity
  8
ハッチ
  6
Continuous
 62
     6
370
     9
100
AcDbLine
 10
-360.1848275403847
 20
-726.9129222714115
 30
0.0
 11
-386.979808701262
 21
-826.9129049541186
 31
0.0
  0
LINE
  5
2D6
330
1F
100
AcDbEntity
  8
ハッチ
  6
Continuous
 62
     6
370
     9
100
AcDbLine
 10
-373.9304399761724
 20
-826.9129130576962
 30
0.0
 11
-380.4551092172355
 21
-802.5624554615399
 31
0.0
  0
LINE
  5
2D7
330
1F
100
AcDbEntity
  8
ハッチ
  6
Continuous
 62
     6
370
     9
100
AcDbLine
 10
-373.2341962654746
 20
-726.9129141678338
 30
0.0
 11
-366.7095270244116
 21
-751.2633717639902
 31
0.0
  0
LINE
  5
2D8
330
1F
100
AcDbEntity
  8
ハッチ
  6
Continuous
 62
     6
370
     9
100
AcDbLine
 10
-410.1848272014782
 20
-726.9128912217194
 30
0.0
 11
-436.9798083623556
 21
-826.9128739044264
 31
0.0
  0
LINE
  5
2D9
330
1F
100
AcDbEntity
  8
ハッチ
  6
Continuous
 62
     6
370
     9
100
AcDbLine
 10
-423.9304396372659
 20
-826.9128820080041
 30
0.0
 11
-430.455108878329
 21
-802.5624244118478
 31
0.0
  0
LINE
  5
2DA
330
1F
100
AcDbEntity
  8
ハッチ
  6
Continuous
 62
     6
370
     9
100
AcDbLine
 10
-423.2341959265682
 20
-726.9128831181416
 30
0.0
 11
-416.7095266855051
 21
-751.263340714298
 31
0.0
  0
LINE
  5
2DB
330
1F
100
AcDbEntity
  8
ハッチ
  6
Continuous
 62
     6
370
     9
100
AcDbLine
 10
-460.1848268625718
 20
-726.9128601720272
 30
0.0
 11
-486.979808023449
 21
-826.9128428547343
 31
0.0
  0
LINE
  5
2DC
330
1F
100
AcDbEntity
  8
ハッチ
  6
Continuous
 62
     6
370
     9
100
AcDbLine
 10
-473.9304392983593
 20
-826.9128509583119
 30
0.0
 11
-480.4551085394224
 21
-802.5623933621556
 31
0.0
  0
LINE
  5
2DD
330
1F
100
AcDbEntity
  8
ハッチ
  6
Continuous
 62
     6
370
     9
100
AcDbLine
 10
-473.2341955876616
 20
-726.9128520684495
 30
0.0
 11
-466.7095263465985
 21
-751.2633096646059
 31
0.0
  0
LINE
  5
2DE
330
1F
100
AcDbEntity
  8
ハッチ
  6
Continuous
 62
     6
370
     9
100
AcDbLine
 10
-510.1848265236657
 20
-726.9128291223351
 30
0.0
 11
-536.979807684542
 21
-826.9128118050421
 31
0.0
  0
LINE
  5
2DF
330
1F
100
AcDbEntity
  8
ハッチ
  6
Continuous
 62
     6
370
     9
100
AcDbLine
 10
-523.9304389594532
 20
-826.9128199086198
 30
0.0
 11
-530.4551082005153
 21
-802.5623623124634
 31
0.0
  0
LINE
  5
2E0
330
1F
100
AcDbEntity
  8
ハッチ
  6
Continuous
 62
     6
370
     9
100
AcDbLine
 10
-523.2341952487549
 20
-726.9128210187573
 30
0.0
 11
-516.7095260076925
 21
-751.2632786149136
 31
0.0
  0
LINE
  5
2E1
330
1F
100
AcDbEntity
  8
ハッチ
  6
Continuous
 62
     6
370
     9
100
AcDbLine
 10
-210.1848285571045
 20
-726.913015420488
 30
0.0
 11
-236.9798097179816
 21
-826.912998103195
 31
0.0
  0
LINE
  5
2E2
330
1F
100
AcDbEntity
  8
ハッチ
  6
Continuous
 62
     6
370
     9
100
AcDbLine
 10
-223.9304409928918
 20
-826.9130062067728
 30
0.0
 11
-230.455110233955
 21
-802.5625486106164
 31
0.0
  0
LINE
  5
2E3
330
1F
100
AcDbEntity
  8
ハッチ
  6
Continuous
 62
     6
370
     9
100
AcDbLine
 10
-223.2341972821942
 20
-726.9130073169105
 30
0.0
 11
-216.7095280411311
 21
-751.2634649130667
 31
0.0
  0
LINE
  5
2E4
330
1F
100
AcDbEntity
  8
ハッチ
  6
Continuous
 62
     6
370
     9
100
AcDbLine
 10
-160.184828896011
 20
-726.9130464701802
 30
0.0
 11
-186.9798100568881
 21
-826.9130291528872
 31
0.0
  0
LINE
  5
2E5
330
1F
100
AcDbEntity
  8
ハッチ
  6
Continuous
 62
     6
370
     9
100
AcDbLine
 10
-173.9304413317984
 20
-826.9130372564649
 30
0.0
 11
-180.4551105728615
 21
-802.5625796603085
 31
0.0
  0
LINE
  5
2E6
330
1F
100
AcDbEntity
  8
ハッチ
  6
Continuous
 62
     6
370
     9
100
AcDbLine
 10
-173.2341976211004
 20
-726.9130383666026
 30
0.0
 11
-166.7095283800376
 21
-751.2634959627588
 31
0.0
  0
LINE
  5
2E7
330
1F
100
AcDbEntity
  8
ハッチ
  6
Continuous
 62
     6
370
     9
100
AcDbLine
 10
-110.1848292349175
 20
-726.9130775198723
 30
0.0
 11
-136.9798103957945
 21
-826.9130602025793
 31
0.0
  0
LINE
  5
2E8
330
1F
100
AcDbEntity
  8
ハッチ
  6
Continuous
 62
     6
370
     9
100
AcDbLine
 10
-123.9304416707049
 20
-826.9130683061571
 30
0.0
 11
-130.4551109117677
 21
-802.5626107100009
 31
0.0
  0
LINE
  5
2E9
330
1F
100
AcDbEntity
  8
ハッチ
  6
Continuous
 62
     6
370
     9
100
AcDbLine
 10
-123.2341979600072
 20
-726.9130694162948
 30
0.0
 11
-116.709528718944
 21
-751.263527012451
 31
0.0
  0
LINE
  5
2EA
330
1F
100
AcDbEntity
  8
ハッチ
  6
Continuous
 62
     6
370
     9
100
AcDbLine
 10
-60.18482957382396
 20
-726.9131085695647
 30
0.0
 11
-86.97981073470106
 21
-826.9130912522717
 31
0.0
  0
LINE
  5
2EB
330
1F
100
AcDbEntity
  8
ハッチ
  6
Continuous
 62
     6
370
     9
100
AcDbLine
 10
-73.93044200961135
 20
-826.9130993558495
 30
0.0
 11
-80.45511125067424
 21
-802.562641759693
 31
0.0
  0
LINE
  5
2EC
330
1F
100
AcDbEntity
  8
ハッチ
  6
Continuous
 62
     6
370
     9
100
AcDbLine
 10
-73.23419829891364
 20
-726.9131004659869
 30
0.0
 11
-66.70952905785057
 21
-751.2635580621431
 31
0.0
  0
LINE
  5
2ED
330
1F
100
AcDbEntity
  8
ハッチ
  6
Continuous
 62
     6
370
     9
100
AcDbLine
 10
-60.1848916732083
 20
-826.9131078917515
 30
0.0
 11
-60.18482957382396
 21
-726.9131085695647
 31
0.0
  0
LINE
  5
2EE
330
1F
100
AcDbEntity
  8
ハッチ
  6
Continuous
 62
     6
370
     9
100
AcDbLine
 10
-260.1848282181977
 20
-726.9129843707959
 30
0.0
 11
-286.979809379075
 21
-826.9129670535029
 31
0.0
  0
LINE
  5
2EF
330
1F
100
AcDbEntity
  8
ハッチ
  6
Continuous
 62
     6
370
     9
100
AcDbLine
 10
-273.9304406539854
 20
-826.9129751570806
 30
0.0
 11
-280.4551098950485
 21
-802.5625175609242
 31
0.0
  0
LINE
  5
2F0
330
1F
100
AcDbEntity
  8
ハッチ
  6
Continuous
 62
     6
370
     9
100
AcDbLine
 10
-273.2341969432877
 20
-726.9129762672183
 30
0.0
 11
-266.7095277022245
 21
-751.2634338633745
 31
0.0
  0
LINE
  5
2F1
330
1F
100
AcDbEntity
  8
ハッチ
  6
Continuous
 62
     6
370
     9
100
AcDbLine
 10
-310.1848278792912
 20
-726.9129533211037
 30
0.0
 11
-336.9798090401686
 21
-826.9129360038107
 31
0.0
  0
LINE
  5
2F2
330
1F
100
AcDbEntity
  8
ハッチ
  6
Continuous
 62
     6
370
     9
100
AcDbLine
 10
-323.9304403150788
 20
-826.9129441073885
 30
0.0
 11
-330.455109556142
 21
-802.5624865112321
 31
0.0
  0
LINE
  5
2F3
330
1F
100
AcDbEntity
  8
ハッチ
  6
Continuous
 62
     6
370
     9
100
AcDbLine
 10
-323.2341966043811
 20
-726.9129452175259
 30
0.0
 11
-316.709527363318
 21
-751.2634028136824
 31
0.0
  0
LINE
  5
2F4
330
1F
100
AcDbEntity
  8
躯体
  6
Continuous
 62
     3
370
     9
100
AcDbLine
 10
-422.9341769035549
 20
853.1649585106718
 30
0.0
 11
-422.934179956905
 21
848.248081828416
 31
0.0
  0
LINE
  5
2F5
330
1F
100
AcDbEntity
  8
躯体
  6
Continuous
 62
     3
370
     9
100
AcDbLine
 10
-422.9341769035549
 20
853.1649585106718
 30
0.0
 11
-422.3926545191065
 21
853.7064802225565
 31
0.0
  0
LINE
  5
2F6
330
1F
100
AcDbEntity
  8
躯体
  6
Continuous
 62
     3
370
     9
100
AcDbLine
 10
-422.934179956905
 20
848.248081828416
 30
0.0
 11
-422.3925963850651
 21
847.7065594439293
 31
0.0
  0
LINE
  5
2F7
330
1F
100
AcDbEntity
  8
躯体
  6
Continuous
 62
     3
370
     9
100
AcDbLine
 10
-422.3926545191065
 20
853.7064802225565
 30
0.0
 11
-422.3926582450205
 21
847.7065594439676
 31
0.0
  0
LINE
  5
2F8
330
1F
100
AcDbEntity
  8
躯体
  6
Continuous
 62
     3
370
     9
100
AcDbLine
 10
-384.5934983219865
 20
856.4565029196406
 30
0.0
 11
-380.087194523083
 21
856.4276220401041
 31
0.0
  0
LINE
  5
2F9
330
1F
100
AcDbEntity
  8
躯体
  6
Continuous
 62
     3
370
     9
100
AcDbLine
 10
-384.593505463424
 20
844.9564898007987
 30
0.0
 11
-380.0824974039173
 21
844.9388004243622
 31
0.0
  0
LINE
  5
2FA
330
1F
100
AcDbEntity
  8
躯体
  6
Continuous
 62
     3
370
     9
100
AcDbLine
 10
-385.0842342431921
 20
855.0131867487362
 30
0.0
 11
-385.0842395919714
 21
846.3999303011005
 31
0.0
  0
LINE
  5
2FB
330
1F
100
AcDbEntity
  8
躯体
  6
Continuous
 62
     3
370
     9
100
AcDbLine
 10
-384.5935036707658
 20
847.8432464720045
 30
0.0
 11
-380.0836820833882
 21
847.8364427094227
 31
0.0
  0
LINE
  5
2FC
330
1F
100
AcDbEntity
  8
躯体
  6
Continuous
 62
     3
370
     9
100
AcDbLine
 10
-384.5935001146447
 20
853.5697462484349
 30
0.0
 11
-380.0860273210345
 21
853.5727282952441
 31
0.0
  0
ARC
  5
2FD
330
1F
100
AcDbEntity
  8
躯体
  6
Continuous
 62
     3
370
     9
100
AcDbCircle
 10
-382.7162970165796
 20
855.0131852782617
 30
0.0
 40
2.367928769197099
100
AcDbArc
 50
142.4427439606947
 51
217.5571848786522
  0
ARC
  5
2FE
330
1F
100
AcDbEntity
  8
躯体
  6
Continuous
 62
     3
370
     9
100
AcDbCircle
 10
-376.4863217388836
 20
850.7064913257104
 30
0.0
 40
8.59791807842363
100
AcDbArc
 50
160.5479685700747
 51
199.4519602692721
  0
ARC
  5
2FF
330
1F
100
AcDbEntity
  8
躯体
  6
Continuous
 62
     3
370
     9
100
AcDbCircle
 10
-382.7163023653589
 20
846.3999288306261
 30
0.0
 40
2.367928769197099
100
AcDbArc
 50
142.4427439606947
 51
217.5571848786522
  0
LINE
  5
300
330
1F
100
AcDbEntity
  8
躯体
  6
Continuous
 62
     3
370
     9
100
AcDbLine
 10
-422.3926545191065
 20
853.7064802225565
 30
0.0
 11
-385.0842350546632
 21
853.7064570542576
 31
0.0
  0
LINE
  5
301
330
1F
100
AcDbEntity
  8
躯体
  6
Continuous
 62
     3
370
     9
100
AcDbLine
 10
-385.0842353912378
 20
853.164463616423
 30
0.0
 11
-422.9341769035549
 21
853.1649585106718
 31
0.0
  0
LINE
  5
302
330
1F
100
AcDbEntity
  8
躯体
  6
Continuous
 62
     3
370
     9
100
AcDbLine
 10
-422.3925963850651
 20
847.7065594439293
 30
0.0
 11
-385.0842387805772
 21
847.7065362756689
 31
0.0
  0
LINE
  5
303
330
1F
100
AcDbEntity
  8
躯体
  6
Continuous
 62
     3
370
     9
100
AcDbLine
 10
-385.0842384442952
 20
848.248058323835
 30
0.0
 11
-422.934179956905
 21
848.248081828416
 31
0.0
  0
LINE
  5
304
330
1F
100
AcDbEntity
  8
躯体
  6
Continuous
 62
     3
370
     9
100
AcDbLine
 10
-380.087194523083
 20
856.4276220401041
 30
0.0
 11
-380.0824974039173
 21
844.9388004243622
 31
0.0
  0
LINE
  5
305
330
1F
100
AcDbEntity
  8
躯体
  6
Continuous
 62
     3
370
     9
100
AcDbLine
 10
-197.4355128887345
 20
853.1649052923281
 30
0.0
 11
-197.4355159420847
 21
848.2480286100724
 31
0.0
  0
LINE
  5
306
330
1F
100
AcDbEntity
  8
躯体
  6
Continuous
 62
     3
370
     9
100
AcDbLine
 10
-197.4355128887345
 20
853.1649052923281
 30
0.0
 11
-197.9770346006191
 21
853.7064276767765
 31
0.0
  0
LINE
  5
307
330
1F
100
AcDbEntity
  8
躯体
  6
Continuous
 62
     3
370
     9
100
AcDbLine
 10
-197.4355159420847
 20
848.2480286100724
 30
0.0
 11
-197.9771001864883
 21
847.706506898226
 31
0.0
  0
LINE
  5
308
330
1F
100
AcDbEntity
  8
躯体
  6
Continuous
 62
     3
370
     9
100
AcDbLine
 10
-197.9770346006191
 20
853.7064276767765
 30
0.0
 11
-197.977038326533
 21
847.7065068981876
 31
0.0
  0
LINE
  5
309
330
1F
100
AcDbEntity
  8
躯体
  6
Continuous
 62
     3
370
     9
100
AcDbLine
 10
-235.7761873822156
 20
856.4564973199454
 30
0.0
 11
-240.2824912169854
 21
856.4276220371828
 31
0.0
  0
LINE
  5
30A
330
1F
100
AcDbEntity
  8
躯体
  6
Continuous
 62
     3
370
     9
100
AcDbLine
 10
-235.776194523653
 20
844.9564842011035
 30
0.0
 11
-240.2872026051262
 21
844.9388004272835
 31
0.0
  0
LINE
  5
30B
330
1F
100
AcDbEntity
  8
躯体
  6
Continuous
 62
     3
370
     9
100
AcDbLine
 10
-235.2854532535914
 20
855.0131805395541
 30
0.0
 11
-235.2854586023706
 21
846.3999240919185
 31
0.0
  0
LINE
  5
30C
330
1F
100
AcDbEntity
  8
躯体
  6
Continuous
 62
     3
370
     9
100
AcDbLine
 10
-235.7761927309949
 20
847.8432408723093
 30
0.0
 11
-240.2860143268193
 21
847.8364427108704
 31
0.0
  0
LINE
  5
30D
330
1F
100
AcDbEntity
  8
躯体
  6
Continuous
 62
     3
370
     9
100
AcDbLine
 10
-235.7761891748737
 20
853.5697406487398
 30
0.0
 11
-240.2836619647768
 21
853.5727282937748
 31
0.0
  0
ARC
  5
30E
330
1F
100
AcDbEntity
  8
躯体
  6
Continuous
 62
     3
370
     9
100
AcDbCircle
 10
-237.6533904802039
 20
855.0131820100286
 30
0.0
 40
2.367928769197099
100
AcDbArc
 50
322.4427439606947
 51
37.55718487865224
  0
ARC
  5
30F
330
1F
100
AcDbEntity
  8
躯体
  6
Continuous
 62
     3
370
     9
100
AcDbCircle
 10
-243.883371106756
 20
850.7064957950332
 30
0.0
 40
8.59791807842363
100
AcDbArc
 50
340.5479685700747
 51
19.45196026927215
  0
ARC
  5
310
330
1F
100
AcDbEntity
  8
躯体
  6
Continuous
 62
     3
370
     9
100
AcDbCircle
 10
-237.6533958289831
 20
846.3999255623929
 30
0.0
 40
2.367928769197099
100
AcDbArc
 50
322.4427439606947
 51
37.55718487865224
  0
LINE
  5
311
330
1F
100
AcDbEntity
  8
躯体
  6
Continuous
 62
     3
370
     9
100
AcDbLine
 10
-197.9770346006191
 20
853.7064276767765
 30
0.0
 11
-235.2854540650625
 21
853.7064508450754
 31
0.0
  0
LINE
  5
312
330
1F
100
AcDbEntity
  8
躯体
  6
Continuous
 62
     3
370
     9
100
AcDbLine
 10
-235.2854544016371
 20
853.1644574072409
 30
0.0
 11
-197.4355128887345
 21
853.1649052923281
 31
0.0
  0
LINE
  5
313
330
1F
100
AcDbEntity
  8
躯体
  6
Continuous
 62
     3
370
     9
100
AcDbLine
 10
-197.9771001864883
 20
847.706506898226
 30
0.0
 11
-235.2854577909764
 21
847.7065300664868
 31
0.0
  0
LINE
  5
314
330
1F
100
AcDbEntity
  8
躯体
  6
Continuous
 62
     3
370
     9
100
AcDbLine
 10
-235.2854574546945
 20
848.2480521146531
 30
0.0
 11
-197.4355159420847
 21
848.2480286100724
 31
0.0
  0
LINE
  5
315
330
1F
100
AcDbEntity
  8
躯体
  6
Continuous
 62
     3
370
     9
100
AcDbLine
 10
-240.2824912169854
 20
856.4276220371828
 30
0.0
 11
-240.2872026051262
 21
844.9388004272835
 31
0.0
  0
LINE
  5
316
330
1F
100
AcDbEntity
  8
躯体
  6
Continuous
 62
     3
370
     9
100
AcDbLine
 10
-422.9341583455682
 20
-574.4322070593491
 30
0.0
 11
-422.9341613989183
 21
-579.3490837416049
 31
0.0
  0
LINE
  5
317
330
1F
100
AcDbEntity
  8
躯体
  6
Continuous
 62
     3
370
     9
100
AcDbLine
 10
-422.9341583455682
 20
-574.4322070593491
 30
0.0
 11
-422.3926359611198
 21
-573.8906853474645
 31
0.0
  0
LINE
  5
318
330
1F
100
AcDbEntity
  8
躯体
  6
Continuous
 62
     3
370
     9
100
AcDbLine
 10
-422.9341613989183
 20
-579.3490837416049
 30
0.0
 11
-422.3925778270784
 21
-579.8906061260917
 31
0.0
  0
LINE
  5
319
330
1F
100
AcDbEntity
  8
躯体
  6
Continuous
 62
     3
370
     9
100
AcDbLine
 10
-422.3926359611198
 20
-573.8906853474645
 30
0.0
 11
-422.3926396870337
 21
-579.8906061260533
 31
0.0
  0
LINE
  5
31A
330
1F
100
AcDbEntity
  8
躯体
  6
Continuous
 62
     3
370
     9
100
AcDbLine
 10
-384.5934797639998
 20
-571.1406626503804
 30
0.0
 11
-380.0871759650963
 21
-571.1695435299168
 31
0.0
  0
LINE
  5
31B
330
1F
100
AcDbEntity
  8
躯体
  6
Continuous
 62
     3
370
     9
100
AcDbLine
 10
-384.5934869054373
 20
-582.6406757692222
 30
0.0
 11
-380.0824788459306
 21
-582.6583651456588
 31
0.0
  0
LINE
  5
31C
330
1F
100
AcDbEntity
  8
躯体
  6
Continuous
 62
     3
370
     9
100
AcDbLine
 10
-385.0842156852054
 20
-572.5839788212847
 30
0.0
 11
-385.0842210339846
 21
-581.1972352689204
 31
0.0
  0
LINE
  5
31D
330
1F
100
AcDbEntity
  8
躯体
  6
Continuous
 62
     3
370
     9
100
AcDbLine
 10
-384.5934851127791
 20
-579.7539190980165
 30
0.0
 11
-380.0836635254014
 21
-579.7607228605982
 31
0.0
  0
LINE
  5
31E
330
1F
100
AcDbEntity
  8
躯体
  6
Continuous
 62
     3
370
     9
100
AcDbLine
 10
-384.593481556658
 20
-574.027419321586
 30
0.0
 11
-380.0860087630477
 21
-574.0244372747768
 31
0.0
  0
ARC
  5
31F
330
1F
100
AcDbEntity
  8
躯体
  6
Continuous
 62
     3
370
     9
100
AcDbCircle
 10
-382.7162784585929
 20
-572.5839802917592
 30
0.0
 40
2.367928769197099
100
AcDbArc
 50
142.4427439606947
 51
217.5571848786522
  0
ARC
  5
320
330
1F
100
AcDbEntity
  8
躯体
  6
Continuous
 62
     3
370
     9
100
AcDbCircle
 10
-376.4863031808969
 20
-576.8906742443105
 30
0.0
 40
8.59791807842363
100
AcDbArc
 50
160.5479685700747
 51
199.4519602692721
  0
ARC
  5
321
330
1F
100
AcDbEntity
  8
躯体
  6
Continuous
 62
     3
370
     9
100
AcDbCircle
 10
-382.7162838073722
 20
-581.1972367393948
 30
0.0
 40
2.367928769197099
100
AcDbArc
 50
142.4427439606947
 51
217.5571848786522
  0
LINE
  5
322
330
1F
100
AcDbEntity
  8
躯体
  6
Continuous
 62
     3
370
     9
100
AcDbLine
 10
-422.3926359611198
 20
-573.8906853474645
 30
0.0
 11
-385.0842164966764
 21
-573.8907085157633
 31
0.0
  0
LINE
  5
323
330
1F
100
AcDbEntity
  8
躯体
  6
Continuous
 62
     3
370
     9
100
AcDbLine
 10
-385.0842168332511
 20
-574.432701953598
 30
0.0
 11
-422.9341583455682
 21
-574.4322070593491
 31
0.0
  0
LINE
  5
324
330
1F
100
AcDbEntity
  8
躯体
  6
Continuous
 62
     3
370
     9
100
AcDbLine
 10
-422.3925778270784
 20
-579.8906061260917
 30
0.0
 11
-385.0842202225904
 21
-579.890629294352
 31
0.0
  0
LINE
  5
325
330
1F
100
AcDbEntity
  8
躯体
  6
Continuous
 62
     3
370
     9
100
AcDbLine
 10
-385.0842198863085
 20
-579.3491072461859
 30
0.0
 11
-422.9341613989183
 21
-579.3490837416049
 31
0.0
  0
LINE
  5
326
330
1F
100
AcDbEntity
  8
躯体
  6
Continuous
 62
     3
370
     9
100
AcDbLine
 10
-380.0871759650963
 20
-571.1695435299168
 30
0.0
 11
-380.0824788459306
 21
-582.6583651456588
 31
0.0
  0
LINE
  5
327
330
1F
100
AcDbEntity
  8
躯体
  6
Continuous
 62
     3
370
     9
100
AcDbLine
 10
-197.4354943307478
 20
-574.4312602776988
 30
0.0
 11
-197.4354973840979
 21
-579.3481369599544
 31
0.0
  0
LINE
  5
328
330
1F
100
AcDbEntity
  8
躯体
  6
Continuous
 62
     3
370
     9
100
AcDbLine
 10
-197.4354943307478
 20
-574.4312602776988
 30
0.0
 11
-197.9770160426324
 21
-573.8897378932504
 31
0.0
  0
LINE
  5
329
330
1F
100
AcDbEntity
  8
躯体
  6
Continuous
 62
     3
370
     9
100
AcDbLine
 10
-197.4354973840979
 20
-579.3481369599544
 30
0.0
 11
-197.9770816285016
 21
-579.8896586718008
 31
0.0
  0
LINE
  5
32A
330
1F
100
AcDbEntity
  8
躯体
  6
Continuous
 62
     3
370
     9
100
AcDbLine
 10
-197.9770160426324
 20
-573.8897378932504
 30
0.0
 11
-197.9770197685463
 21
-579.8896586718392
 31
0.0
  0
LINE
  5
32B
330
1F
100
AcDbEntity
  8
躯体
  6
Continuous
 62
     3
370
     9
100
AcDbLine
 10
-235.7761688242288
 20
-571.1396682500815
 30
0.0
 11
-240.2824726589986
 21
-571.1685435328441
 31
0.0
  0
LINE
  5
32C
330
1F
100
AcDbEntity
  8
躯体
  6
Continuous
 62
     3
370
     9
100
AcDbLine
 10
-235.7761759656663
 20
-582.6396813689233
 30
0.0
 11
-240.2871840471394
 21
-582.6573651427434
 31
0.0
  0
LINE
  5
32D
330
1F
100
AcDbEntity
  8
躯体
  6
Continuous
 62
     3
370
     9
100
AcDbLine
 10
-235.2854346956046
 20
-572.5829850304727
 30
0.0
 11
-235.2854400443839
 21
-581.1962414781085
 31
0.0
  0
LINE
  5
32E
330
1F
100
AcDbEntity
  8
躯体
  6
Continuous
 62
     3
370
     9
100
AcDbLine
 10
-235.7761741730081
 20
-579.7529246977176
 30
0.0
 11
-240.2859957688325
 21
-579.7597228591563
 31
0.0
  0
LINE
  5
32F
330
1F
100
AcDbEntity
  8
躯体
  6
Continuous
 62
     3
370
     9
100
AcDbLine
 10
-235.776170616887
 20
-574.0264249212871
 30
0.0
 11
-240.28364340679
 21
-574.0234372762521
 31
0.0
  0
ARC
  5
330
330
1F
100
AcDbEntity
  8
躯体
  6
Continuous
 62
     3
370
     9
100
AcDbCircle
 10
-237.6533719222171
 20
-572.5829835599983
 30
0.0
 40
2.367928769197099
100
AcDbArc
 50
322.4427439606947
 51
37.55718487865224
  0
ARC
  5
331
330
1F
100
AcDbEntity
  8
躯体
  6
Continuous
 62
     3
370
     9
100
AcDbCircle
 10
-243.8833525487692
 20
-576.8896697749936
 30
0.0
 40
8.59791807842363
100
AcDbArc
 50
340.5479685700747
 51
19.45196026927215
  0
ARC
  5
332
330
1F
100
AcDbEntity
  8
躯体
  6
Continuous
 62
     3
370
     9
100
AcDbCircle
 10
-237.6533772709963
 20
-581.1962400076341
 30
0.0
 40
2.367928769197099
100
AcDbArc
 50
322.4427439606947
 51
37.55718487865224
  0
LINE
  5
333
330
1F
100
AcDbEntity
  8
躯体
  6
Continuous
 62
     3
370
     9
100
AcDbLine
 10
-197.9770160426324
 20
-573.8897378932504
 30
0.0
 11
-235.2854355070757
 21
-573.8897147249513
 31
0.0
  0
LINE
  5
334
330
1F
100
AcDbEntity
  8
躯体
  6
Continuous
 62
     3
370
     9
100
AcDbLine
 10
-235.2854358436503
 20
-574.431708162786
 30
0.0
 11
-197.4354943307478
 21
-574.4312602776988
 31
0.0
  0
LINE
  5
335
330
1F
100
AcDbEntity
  8
躯体
  6
Continuous
 62
     3
370
     9
100
AcDbLine
 10
-197.9770816285016
 20
-579.8896586718008
 30
0.0
 11
-235.2854392329896
 21
-579.88963550354
 31
0.0
  0
LINE
  5
336
330
1F
100
AcDbEntity
  8
躯体
  6
Continuous
 62
     3
370
     9
100
AcDbLine
 10
-235.2854388967077
 20
-579.3481134553739
 30
0.0
 11
-197.4354973840979
 21
-579.3481369599544
 31
0.0
  0
LINE
  5
337
330
1F
100
AcDbEntity
  8
躯体
  6
Continuous
 62
     3
370
     9
100
AcDbLine
 10
-240.2824726589986
 20
-571.1685435328441
 30
0.0
 11
-240.2871840471394
 21
-582.6573651427434
 31
0.0
  0
ARC
  5
338
330
1F
100
AcDbEntity
  8
躯体
  6
Continuous
 62
     3
370
     9
100
AcDbCircle
 10
-310.1847969493136
 20
249.4512877781158
 30
0.0
 40
123.6399100918883
100
AcDbArc
 50
55.57331848144489
 51
124.4266967773629
  0
LINE
  5
339
330
1F
100
AcDbEntity
  8
躯体
  6
Continuous
 62
     3
370
     9
100
AcDbLine
 10
-240.2848277238585
 20
351.4357065380943
 30
0.0
 11
-240.2848414673795
 21
349.4470393833956
 31
0.0
  0
LINE
  5
33A
330
1F
100
AcDbEntity
  8
躯体
  6
Continuous
 62
     3
370
     9
100
AcDbLine
 10
-380.0847933348684
 20
351.4356879225969
 30
0.0
 11
-380.0848142912028
 21
349.4470393833956
 31
0.0
  0
TEXT
  5
33B
330
1F
100
AcDbEntity
  8
F-5ﾚｲﾔ
  6
Continuous
 62
     2
370
     9
100
AcDbText
 10
-1143.34118791143
 20
-1380.019294147582
 30
0.0
 40
30.48
  1
車止め　Ｅシリーズ　スチール製　固定式　先付タイプ　ＥＰ１４８５－Ｋ
 41
0.8749999999999999
  7
ＭＳ ゴシック
100
AcDbText
  0
TEXT
  5
33C
330
1F
100
AcDbEntity
  8
F-5ﾚｲﾔ
  6
Continuous
 62
     2
370
     9
100
AcDbText
 10
574.6900597574052
 20
-1372.516515282488
 30
0.0
 40
30.48
  1
１：１０
 41
1.09375
  7
ＭＳ ゴシック
100
AcDbText
  0
TEXT
  5
33D
330
1F
100
AcDbEntity
  8
F-0ﾚｲﾔ
  6
Continuous
 62
     2
370
     9
100
AcDbText
 10
934.5615493366336
 20
-936.3992609004648
 30
0.0
 40
30.48
  1
色　：黄
 41
1.09375
  7
ＭＳ ゴシック
100
AcDbText
  0
TEXT
  5
33E
330
1F
100
AcDbEntity
  8
F-0ﾚｲﾔ
  6
Continuous
 62
     2
370
     9
100
AcDbText
 10
776.4802699406641
 20
-1026.705228954788
 30
0.0
 40
30.48
  1
支柱質量　：13.1kg
 41
1.118055555555555
  7
ＭＳ ゴシック
100
AcDbText
  0
TEXT
  5
33F
330
1F
100
AcDbEntity
  8
寸法
  6
Continuous
 62
     2
370
     9
100
AcDbText
 10
-91.28482936298167
 20
-872.34895229712
 30
0.0
 40
30.48
  1
長ねじボルト：M6×200
 41
1.119047619047619
  7
ＭＳ ゴシック
100
AcDbText
  0
LINE
  5
340
330
1F
100
AcDbEntity
  8
寸法
  6
Continuous
 62
     7
370
     9
100
AcDbLine
 10
-96.28482932909196
 20
-886.9129522366336
 30
0.0
 11
399.8479647361303
 21
-886.9129522366336
 31
0.0
  0
TEXT
  5
341
330
1F
100
AcDbEntity
  8
寸法
  6
Continuous
 62
     2
370
     9
100
AcDbText
 10
-91.28482936298167
 20
-930.3949203182834
 30
0.0
 40
30.48
  1
SS400　電気亜鉛めっき
 41
1.113095238095238
  7
ＭＳ ゴシック
100
AcDbText
  0
TEXT
  5
342
330
1F
100
AcDbEntity
  8
その他
  6
Continuous
 62
     2
370
     9
100
AcDbText
 10
150.4179099144381
 20
-84.41295789621108
 30
0.0
 40
30.48
  1
850
 50
90.0
 41
1.083333333333333
  7
ＭＳ ゴシック
100
AcDbText
  0
TEXT
  5
343
330
1F
100
AcDbEntity
  8
その他
  6
Continuous
 62
     2
370
     9
100
AcDbText
 10
150.4179099144409
 20
-634.4129541683458
 30
0.0
 40
30.48
  1
250
 50
90.0
 41
1.083333333333333
  7
ＭＳ ゴシック
100
AcDbText
  0
TEXT
  5
344
330
1F
100
AcDbEntity
  8
その他
  6
Continuous
 62
     2
370
     9
100
AcDbText
 10
30.5179107271136
 20
-684.4129538294493
 30
0.0
 40
30.48
  1
150
 50
90.0
 41
1.083333333333333
  7
ＭＳ ゴシック
100
AcDbText
  0
TEXT
  5
345
330
1F
100
AcDbEntity
  8
寸法
  6
Continuous
 62
     2
370
     9
100
AcDbText
 10
-1002.45230456369
 20
-303.92928652171
 30
0.0
 40
30.48
  1
六角ナット：M6
 41
1.116071428571428
  7
ＭＳ ゴシック
100
AcDbText
  0
TEXT
  5
346
330
1F
100
AcDbEntity
  8
寸法
  6
Continuous
 62
     2
370
     9
100
AcDbText
 10
-1001.652304569112
 20
-357.5498729968745
 30
0.0
 40
30.48
  1
SWRCH　電気亜鉛めっき
 41
1.113095238095238
  7
ＭＳ ゴシック
100
AcDbText
  0
LINE
  5
347
330
1F
100
AcDbEntity
  8
寸法
  6
Continuous
 62
     7
370
     9
100
AcDbLine
 10
-530.0848263888229
 20
-315.9139561068287
 30
0.0
 11
-1011.439354899484
 21
-315.9139561068287
 31
0.0
  0
TEXT
  5
348
330
1F
100
AcDbEntity
  8
ハッチ
  6
Continuous
 62
     2
370
     9
100
AcDbText
 10
-648.845159259767
 20
-468.2345097848079
 30
0.0
 40
30.48
  1
Ｇ.Ｌ.
 50
359.9999644196735
 41
1.104166666666666
  7
ＭＳ ゴシック
100
AcDbText
  0
TEXT
  5
349
330
1F
100
AcDbEntity
  8
寸法
  6
Continuous
 62
     2
370
     9
100
AcDbText
 10
-110.0406674128746
 20
406.5693429675441
 30
0.0
 40
30.48
  1
STK　電気亜鉛めっき＋焼付塗装
 41
1.116379310344827
  7
ＭＳ ゴシック
100
AcDbText
  0
TEXT
  5
34A
330
1F
100
AcDbEntity
  8
寸法
  6
Continuous
 62
     2
370
     9
100
AcDbText
 10
-110.7906674077912
 20
464.0110386451162
 30
0.0
 40
30.48
  1
本体：φ139.8×3.5
 41
1.118055555555555
  7
ＭＳ ゴシック
100
AcDbText
  0
LINE
  5
34B
330
1F
100
AcDbEntity
  8
寸法
  6
Continuous
 62
     7
370
     9
100
AcDbLine
 10
-114.2848292070891
 20
449.4470387056026
 30
0.0
 11
549.0862415128073
 21
449.4470387056026
 31
0.0
  0
TEXT
  5
34C
330
1F
100
AcDbEntity
  8
その他
  6
Continuous
 62
     2
370
     9
100
AcDbText
 10
-387.6848278792912
 20
444.7670250943842
 30
0.0
 40
30.48
  1
φ139.8
 41
1.107142857142857
  7
ＭＳ ゴシック
100
AcDbText
  0
ENDSEC
  0
SECTION
  2
OBJECTS
  0
DICTIONARY
  5
C
330
0
100
AcDbDictionary
281
     1
  3
ACAD_DETAILVIEWSTYLE
350
392
  3
ACAD_GROUP
350
D
  3
ACAD_LAYOUT
350
1A
  3
ACAD_MATERIAL
350
43
  3
ACAD_MLEADERSTYLE
350
6B
  3
ACAD_MLINESTYLE
350
17
  3
ACAD_PLOTSETTINGS
350
19
  3
ACAD_PLOTSTYLENAME
350
E
  3
ACAD_SCALELIST
350
47
  3
ACAD_SECTIONVIEWSTYLE
350
393
  3
ACAD_TABLESTYLE
350
69
  3
ACAD_VISUALSTYLE
350
2A
  3
ACDB_RECOMPOSE_DATA
350
38F
  3
AcDbVariableDictionary
350
34F
  0
DICTIONARY
  5
34D
330
8
100
AcDbDictionary
280
     1
281
     1
  3
ACAD_XREC_ROUNDTRIP
360
34E
  0
DICTIONARY
  5
392
102
{ACAD_REACTORS
330
C
102
}
330
C
100
AcDbDictionary
281
     1
  0
DICTIONARY
  5
D
102
{ACAD_REACTORS
330
C
102
}
330
C
100
AcDbDictionary
281
     1
  0
DICTIONARY
  5
1A
102
{ACAD_REACTORS
330
C
102
}
330
C
100
AcDbDictionary
281
     1
  3
Layout1
350
1E
  3
Layout2
350
26
  3
Model
350
22
  0
DICTIONARY
  5
43
102
{ACAD_REACTORS
330
C
102
}
330
C
100
AcDbDictionary
281
     1
  3
ByBlock
350
45
  3
ByLayer
350
44
  3
Global
350
46
  0
DICTIONARY
  5
6B
102
{ACAD_REACTORS
330
C
102
}
330
C
100
AcDbDictionary
281
     1
  3
Standard
350
6C
  0
DICTIONARY
  5
17
102
{ACAD_REACTORS
330
C
102
}
330
C
100
AcDbDictionary
281
     1
  3
Standard
350
18
  0
DICTIONARY
  5
19
102
{ACAD_REACTORS
330
C
102
}
330
C
100
AcDbDictionary
281
     1
  0
ACDBDICTIONARYWDFLT
  5
E
102
{ACAD_REACTORS
330
C
102
}
330
C
100
AcDbDictionary
281
     1
  3
Normal
350
F
100
AcDbDictionaryWithDefault
340
F
  0
DICTIONARY
  5
47
102
{ACAD_REACTORS
330
C
102
}
330
C
100
AcDbDictionary
281
     1
  3
A0
350
48
  3
A1
350
49
  3
A2
350
4A
  3
A3
350
4B
  3
A4
350
4C
  3
A5
350
4D
  3
A6
350
4E
  3
A7
350
4F
  3
A8
350
50
  3
A9
350
51
  3
B0
350
52
  3
B1
350
53
  3
B2
350
54
  3
B3
350
55
  3
B4
350
56
  3
B5
350
57
  3
B6
350
58
  3
B7
350
59
  3
B8
350
5A
  3
B9
350
5B
  3
C0
350
5C
  3
C1
350
5D
  3
C2
350
5E
  3
C3
350
5F
  3
C4
350
60
  3
C5
350
61
  3
C6
350
62
  3
C7
350
63
  3
C8
350
64
  3
C9
350
65
  3
D0
350
66
  3
D1
350
67
  3
D2
350
68
  0
DICTIONARY
  5
393
102
{ACAD_REACTORS
330
C
102
}
330
C
100
AcDbDictionary
281
     1
  0
DICTIONARY
  5
69
102
{ACAD_REACTORS
330
C
102
}
330
C
100
AcDbDictionary
281
     1
  3
Standard
350
6A
  0
DICTIONARY
  5
2A
102
{ACAD_REACTORS
330
C
102
}
330
C
100
AcDbDictionary
281
     1
  3
2dWireframe
350
2F
  3
Basic
350
32
  3
Brighten
350
36
  3
ColorChange
350
3A
  3
Conceptual
350
34
  3
Dim
350
35
  3
EdgeColorOff
350
3D
  3
Facepattern
350
39
  3
Flat
350
2B
  3
FlatWithEdges
350
2C
  3
Gouraud
350
2D
  3
GouraudWithEdges
350
2E
  3
Hidden
350
31
  3
JitterOff
350
3B
  3
Linepattern
350
38
  3
OverhangOff
350
3C
  3
Realistic
350
33
  3
Shaded
350
42
  3
Shaded with edges
350
41
  3
Shades of Gray
350
3E
  3
Sketchy
350
3F
  3
Thicken
350
37
  3
Wireframe
350
30
  3
X-Ray
350
40
  0
XRECORD
  5
38F
102
{ACAD_REACTORS
330
C
102
}
330
C
100
AcDbXrecord
280
     1
 90
        1
330
6A
  0
DICTIONARY
  5
34F
102
{ACAD_REACTORS
330
C
102
}
330
C
100
AcDbDictionary
281
     1
  3
CANNOSCALE
350
350
  3
CENTEREXE
350
394
  3
CENTERLTYPEFILE
350
395
  3
CMLEADERSTYLE
350
391
  3
CTABLESTYLE
350
390
  3
MSLTSCALE
350
351
  3
XCLIPFRAME
350
352
  0
XRECORD
  5
34E
102
{ACAD_REACTORS
330
34D
102
}
330
34D
100
AcDbXrecord
280
     1
102
VTR_0.000_0.000_1.000_1.000_VISUALSTYLE
340
2F
102
VTR_0.000_0.000_1.000_1.000_GRIDDISPLAY
 70
     3
102
VTR_0.000_0.000_1.000_1.000_GRIDMAJOR
 70
     5
102
VTR_0.000_0.000_1.000_1.000_DEFAULTLIGHTING
280
     1
102
VTR_0.000_0.000_1.000_1.000_DEFAULTLIGHTINGTYPE
 70
     1
102
VTR_0.000_0.000_1.000_1.000_BRIGHTNESS
141
0.0
102
VTR_0.000_0.000_1.000_1.000_CONTRAST
142
0.0
  0
LAYOUT
  5
1E
102
{ACAD_REACTORS
330
1A
102
}
330
1A
100
AcDbPlotSettings
  1

  2
none_device
  4

  6

 40
0.0
 41
0.0
 42
0.0
 43
0.0
 44
0.0
 45
0.0
 46
0.0
 47
0.0
 48
0.0
 49
0.0
140
0.0
141
0.0
142
1.0
143
1.0
 70
   688
 72
     1
 73
     0
 74
     5
  7

 75
    16
 76
     0
 77
     5
 78
   300
147
1.0
148
0.0
149
0.0
100
AcDbLayout
  1
Layout1
 70
     1
 71
     1
 10
0.0
 20
0.0
 11
420.0
 21
297.0
 12
0.0
 22
0.0
 32
0.0
 14
1.000000000000000E+20
 24
1.000000000000000E+20
 34
1.000000000000000E+20
 15
-1.000000000000000E+20
 25
-1.000000000000000E+20
 35
-1.000000000000000E+20
146
0.0
 13
0.0
 23
0.0
 33
0.0
 16
1.0
 26
0.0
 36
0.0
 17
0.0
 27
1.0
 37
0.0
 76
     0
330
1B
  0
LAYOUT
  5
26
102
{ACAD_REACTORS
330
1A
102
}
330
1A
100
AcDbPlotSettings
  1

  2
none_device
  4

  6

 40
0.0
 41
0.0
 42
0.0
 43
0.0
 44
0.0
 45
0.0
 46
0.0
 47
0.0
 48
0.0
 49
0.0
140
0.0
141
0.0
142
1.0
143
1.0
 70
   688
 72
     1
 73
     0
 74
     5
  7

 75
    16
 76
     0
 77
     5
 78
   300
147
1.0
148
0.0
149
0.0
100
AcDbLayout
  1
Layout2
 70
     1
 71
     2
 10
0.0
 20
0.0
 11
0.0
 21
0.0
 12
0.0
 22
0.0
 32
0.0
 14
0.0
 24
0.0
 34
0.0
 15
0.0
 25
0.0
 35
0.0
146
0.0
 13
0.0
 23
0.0
 33
0.0
 16
1.0
 26
0.0
 36
0.0
 17
0.0
 27
1.0
 37
0.0
 76
     0
330
23
  0
LAYOUT
  5
22
102
{ACAD_REACTORS
330
1A
102
}
330
1A
100
AcDbPlotSettings
  1

  2
none_device
  4
Letter_(8.50_x_11.00_Inches)
  6

 40
6.35
 41
6.35
 42
6.35000508
 43
6.35000508
 44
215.9
 45
279.4
 46
0.0
 47
0.0
 48
0.0
 49
0.0
140
0.0
141
0.0
142
1.0
143
1.0
 70
  1712
 72
     1
 73
     0
 74
     0
  7

 75
     0
 76
     0
 77
     5
 78
   300
147
1.0
148
0.0
149
0.0
100
AcDbLayout
  1
Model
 70
     1
 71
     0
 10
-2100.0
 20
-1485.0
 11
2100.0
 21
1485.0
 12
0.0
 22
0.0
 32
0.0
 14
-2100.0
 24
-1485.0
 34
0.0
 15
2100.0
 25
1485.0
 35
0.0
146
0.0
 13
0.0
 23
0.0
 33
0.0
 16
1.0
 26
0.0
 36
0.0
 17
0.0
 27
1.0
 37
0.0
 76
     0
330
1F
331
29
  0
MATERIAL
  5
45
102
{ACAD_REACTORS
330
43
102
}
102
{ACAD_XDICTIONARY
360
385
102
}
330
43
100
AcDbMaterial
  1
ByBlock
  0
MATERIAL
  5
44
102
{ACAD_REACTORS
330
43
102
}
102
{ACAD_XDICTIONARY
360
383
102
}
330
43
100
AcDbMaterial
  1
ByLayer
  0
MATERIAL
  5
46
102
{ACAD_REACTORS
330
43
102
}
102
{ACAD_XDICTIONARY
360
387
102
}
330
43
100
AcDbMaterial
  1
Global
  0
MLEADERSTYLE
  5
6C
102
{ACAD_REACTORS
330
6B
102
}
102
{ACAD_XDICTIONARY
360
38D
102
}
330
6B
100
AcDbMLeaderStyle
170
     2
171
     1
172
     0
 90
        2
 40
0.0
 41
0.0
173
     1
 91
-1056964608
340
14
 92
       -2
290
     1
 42
2.0
291
     1
 43
8.0
  3
Standard
341
0
 44
4.0
300

342
11
174
     1
178
     6
175
     1
176
     0
 93
-1056964608
 45
4.0
292
     0
297
     0
 46
4.0
343
0
 94
-1056964608
 47
1.0
 49
1.0
140
1.0
293
     1
141
0.0
294
     1
177
     0
142
1.0
295
     0
296
     0
143
3.75
1001
ACAD_MLEADERVER
1070
     2
  0
MLINESTYLE
  5
18
102
{ACAD_REACTORS
330
17
102
}
330
17
100
AcDbMlineStyle
  2
Standard
 70
     0
  3

 62
   256
 51
90.0
 52
90.0
 71
     2
 49
0.5
 62
   256
  6
BYLAYER
 49
-0.5
 62
   256
  6
BYLAYER
  0
ACDBPLACEHOLDER
  5
F
102
{ACAD_REACTORS
330
E
102
}
330
E
  0
SCALE
  5
48
102
{ACAD_REACTORS
330
47
102
}
330
47
100
AcDbScale
 70
     0
300
1:1
140
1.0
141
1.0
290
     1
  0
SCALE
  5
49
102
{ACAD_REACTORS
330
47
102
}
330
47
100
AcDbScale
 70
     0
300
1:2
140
1.0
141
2.0
290
     0
  0
SCALE
  5
4A
102
{ACAD_REACTORS
330
47
102
}
330
47
100
AcDbScale
 70
     0
300
1:4
140
1.0
141
4.0
290
     0
  0
SCALE
  5
4B
102
{ACAD_REACTORS
330
47
102
}
330
47
100
AcDbScale
 70
     0
300
1:5
140
1.0
141
5.0
290
     0
  0
SCALE
  5
4C
102
{ACAD_REACTORS
330
47
102
}
330
47
100
AcDbScale
 70
     0
300
1:8
140
1.0
141
8.0
290
     0
  0
SCALE
  5
4D
102
{ACAD_REACTORS
330
47
102
}
330
47
100
AcDbScale
 70
     0
300
1:10
140
1.0
141
10.0
290
     0
  0
SCALE
  5
4E
102
{ACAD_REACTORS
330
47
102
}
330
47
100
AcDbScale
 70
     0
300
1:16
140
1.0
141
16.0
290
     0
  0
SCALE
  5
4F
102
{ACAD_REACTORS
330
47
102
}
330
47
100
AcDbScale
 70
     0
300
1:20
140
1.0
141
20.0
290
     0
  0
SCALE
  5
50
102
{ACAD_REACTORS
330
47
102
}
330
47
100
AcDbScale
 70
     0
300
1:30
140
1.0
141
30.0
290
     0
  0
SCALE
  5
51
102
{ACAD_REACTORS
330
47
102
}
330
47
100
AcDbScale
 70
     0
300
1:40
140
1.0
141
40.0
290
     0
  0
SCALE
  5
52
102
{ACAD_REACTORS
330
47
102
}
330
47
100
AcDbScale
 70
     0
300
1:50
140
1.0
141
50.0
290
     0
  0
SCALE
  5
53
102
{ACAD_REACTORS
330
47
102
}
330
47
100
AcDbScale
 70
     0
300
1:100
140
1.0
141
100.0
290
     0
  0
SCALE
  5
54
102
{ACAD_REACTORS
330
47
102
}
330
47
100
AcDbScale
 70
     0
300
2:1
140
2.0
141
1.0
290
     0
  0
SCALE
  5
55
102
{ACAD_REACTORS
330
47
102
}
330
47
100
AcDbScale
 70
     0
300
4:1
140
4.0
141
1.0
290
     0
  0
SCALE
  5
56
102
{ACAD_REACTORS
330
47
102
}
330
47
100
AcDbScale
 70
     0
300
8:1
140
8.0
141
1.0
290
     0
  0
SCALE
  5
57
102
{ACAD_REACTORS
330
47
102
}
330
47
100
AcDbScale
 70
     0
300
10:1
140
10.0
141
1.0
290
     0
  0
SCALE
  5
58
102
{ACAD_REACTORS
330
47
102
}
330
47
100
AcDbScale
 70
     0
300
100:1
140
100.0
141
1.0
290
     0
  0
SCALE
  5
59
102
{ACAD_REACTORS
330
47
102
}
330
47
100
AcDbScale
 70
     0
300
1/128" = 1'-0"
140
0.0078125
141
12.0
290
     0
  0
SCALE
  5
5A
102
{ACAD_REACTORS
330
47
102
}
330
47
100
AcDbScale
 70
     0
300
1/64" = 1'-0"
140
0.015625
141
12.0
290
     0
  0
SCALE
  5
5B
102
{ACAD_REACTORS
330
47
102
}
330
47
100
AcDbScale
 70
     0
300
1/32" = 1'-0"
140
0.03125
141
12.0
290
     0
  0
SCALE
  5
5C
102
{ACAD_REACTORS
330
47
102
}
330
47
100
AcDbScale
 70
     0
300
1/16" = 1'-0"
140
0.0625
141
12.0
290
     0
  0
SCALE
  5
5D
102
{ACAD_REACTORS
330
47
102
}
330
47
100
AcDbScale
 70
     0
300
3/32" = 1'-0"
140
0.09375
141
12.0
290
     0
  0
SCALE
  5
5E
102
{ACAD_REACTORS
330
47
102
}
330
47
100
AcDbScale
 70
     0
300
1/8" = 1'-0"
140
0.125
141
12.0
290
     0
  0
SCALE
  5
5F
102
{ACAD_REACTORS
330
47
102
}
330
47
100
AcDbScale
 70
     0
300
3/16" = 1'-0"
140
0.1875
141
12.0
290
     0
  0
SCALE
  5
60
102
{ACAD_REACTORS
330
47
102
}
330
47
100
AcDbScale
 70
     0
300
1/4" = 1'-0"
140
0.25
141
12.0
290
     0
  0
SCALE
  5
61
102
{ACAD_REACTORS
330
47
102
}
330
47
100
AcDbScale
 70
     0
300
3/8" = 1'-0"
140
0.375
141
12.0
290
     0
  0
SCALE
  5
62
102
{ACAD_REACTORS
330
47
102
}
330
47
100
AcDbScale
 70
     0
300
1/2" = 1'-0"
140
0.5
141
12.0
290
     0
  0
SCALE
  5
63
102
{ACAD_REACTORS
330
47
102
}
330
47
100
AcDbScale
 70
     0
300
3/4" = 1'-0"
140
0.75
141
12.0
290
     0
  0
SCALE
  5
64
102
{ACAD_REACTORS
330
47
102
}
330
47
100
AcDbScale
 70
     0
300
1" = 1'-0"
140
1.0
141
12.0
290
     0
  0
SCALE
  5
65
102
{ACAD_REACTORS
330
47
102
}
330
47
100
AcDbScale
 70
     0
300
1-1/2" = 1'-0"
140
1.5
141
12.0
290
     0
  0
SCALE
  5
66
102
{ACAD_REACTORS
330
47
102
}
330
47
100
AcDbScale
 70
     0
300
3" = 1'-0"
140
3.0
141
12.0
290
     0
  0
SCALE
  5
67
102
{ACAD_REACTORS
330
47
102
}
330
47
100
AcDbScale
 70
     0
300
6" = 1'-0"
140
6.0
141
12.0
290
     0
  0
SCALE
  5
68
102
{ACAD_REACTORS
330
47
102
}
330
47
100
AcDbScale
 70
     0
300
1'-0" = 1'-0"
140
12.0
141
12.0
290
     0
  0
TABLESTYLE
  5
6A
102
{ACAD_REACTORS
330
69
102
}
102
{ACAD_XDICTIONARY
360
389
102
}
330
69
100
AcDbTableStyle
  3
Standard
 70
     0
 71
     0
 40
0.06
 41
0.06
280
     0
281
     0
  7
Standard
140
4.5
170
     2
 62
     0
 63
   257
283
     0
274
    -2
284
     1
 64
     0
275
    -2
285
     1
 65
     0
276
    -2
286
     1
 66
     0
277
    -2
287
     1
 67
     0
278
    -2
288
     1
 68
     0
279
    -2
289
     1
 69
     0
  7
Standard
140
6.0
170
     5
 62
     0
 63
   257
283
     0
274
    -2
284
     1
 64
     0
275
    -2
285
     1
 65
     0
276
    -2
286
     1
 66
     0
277
    -2
287
     1
 67
     0
278
    -2
288
     1
 68
     0
279
    -2
289
     1
 69
     0
  7
Standard
140
4.5
170
     5
 62
     0
 63
   257
283
     0
274
    -2
284
     1
 64
     0
275
    -2
285
     1
 65
     0
276
    -2
286
     1
 66
     0
277
    -2
287
     1
 67
     0
278
    -2
288
     1
 68
     0
279
    -2
289
     1
 69
     0
  0
VISUALSTYLE
  5
2F
102
{ACAD_REACTORS
330
2A
102
}
102
{ACAD_XDICTIONARY
360
35B
102
}
330
2A
100
AcDbVisualStyle
  2
2dWireframe
 70
     4
 71
     0
 72
     2
 73
     0
 90
        0
 40
0.6
 41
30.0
 62
     5
 63
     7
421
 16777215
 74
     1
 91
        4
 64
     7
 65
   257
 75
     1
175
     1
 42
1.0
 92
        0
 66
   257
 43
1.0
 76
     1
 77
     6
 78
     2
 67
     7
 79
     5
170
     0
171
     0
290
     0
174
     0
 93
        1
 44
0.0
173
     0
291
     0
 45
0.0
1001
ACAD
1000
AcDbSavedByObjectVersion
1070
     0
  0
VISUALSTYLE
  5
32
102
{ACAD_REACTORS
330
2A
102
}
102
{ACAD_XDICTIONARY
360
361
102
}
330
2A
100
AcDbVisualStyle
  2
Basic
 70
     7
 71
     1
 72
     0
 73
     1
 90
        0
 40
0.6
 41
30.0
 62
     5
 63
     7
421
 16777215
 74
     0
 91
        4
 64
     7
 65
   257
 75
     1
175
     1
 42
1.0
 92
        8
 66
     7
 43
1.0
 76
     1
 77
     6
 78
     2
 67
     7
 79
     5
170
     0
171
     0
290
     0
174
     0
 93
        1
 44
0.0
173
     0
291
     1
 45
0.0
1001
ACAD
1000
AcDbSavedByObjectVersion
1070
     0
  0
VISUALSTYLE
  5
36
102
{ACAD_REACTORS
330
2A
102
}
102
{ACAD_XDICTIONARY
360
369
102
}
330
2A
100
AcDbVisualStyle
  2
Brighten
 70
    12
 71
     2
 72
     2
 73
     0
 90
        0
 40
0.6
 41
30.0
 62
     5
 63
     7
421
 16777215
 74
     1
 91
        4
 64
     7
 65
   257
 75
     1
175
     1
 42
1.0
 92
        8
 66
     7
 43
1.0
 76
     1
 77
     6
 78
     2
 67
     7
 79
     5
170
     0
171
     0
290
     0
174
     0
 93
        1
 44
50.0
173
     0
291
     1
 45
0.0
1001
ACAD
1000
AcDbSavedByObjectVersion
1070
     0
  0
VISUALSTYLE
  5
3A
102
{ACAD_REACTORS
330
2A
102
}
102
{ACAD_XDICTIONARY
360
371
102
}
330
2A
100
AcDbVisualStyle
  2
ColorChange
 70
    16
 71
     2
 72
     2
 73
     3
 90
        0
 40
0.6
 41
30.0
 62
     5
 63
     8
421
  8421504
 74
     1
 91
        4
 64
     7
 65
   257
 75
     1
175
     1
 42
1.0
 92
        8
 66
     8
424
  8421504
 43
1.0
 76
     1
 77
     6
 78
     2
 67
     7
 79
     5
170
     0
171
     0
290
     0
174
     0
 93
        1
 44
0.0
173
     0
291
     1
 45
0.0
1001
ACAD
1000
AcDbSavedByObjectVersion
1070
     0
  0
VISUALSTYLE
  5
34
102
{ACAD_REACTORS
330
2A
102
}
102
{ACAD_XDICTIONARY
360
365
102
}
330
2A
100
AcDbVisualStyle
  2
Conceptual
 70
     9
 71
     3
 72
     2
 73
     0
 90
        0
 40
0.6
 41
30.0
 62
     5
 63
     7
421
 16777215
 74
     2
 91
        2
 64
     7
 65
   257
 75
     1
175
     1
 42
179.0
 92
        8
 66
     7
 43
1.0
 76
     1
 77
     6
 78
     2
 67
     7
 79
     3
170
     0
171
     0
290
     0
174
     0
 93
        1
 44
0.0
173
     0
291
     0
 45
0.0
1001
ACAD
1000
AcDbSavedByObjectVersion
1070
     0
  0
VISUALSTYLE
  5
35
102
{ACAD_REACTORS
330
2A
102
}
102
{ACAD_XDICTIONARY
360
367
102
}
330
2A
100
AcDbVisualStyle
  2
Dim
 70
    11
 71
     2
 72
     2
 73
     0
 90
        0
 40
0.6
 41
30.0
 62
     5
 63
     7
421
 16777215
 74
     1
 91
        4
 64
     7
 65
   257
 75
     1
175
     1
 42
1.0
 92
        8
 66
     7
 43
1.0
 76
     1
 77
     6
 78
     2
 67
     7
 79
     5
170
     0
171
     0
290
     0
174
     0
 93
        1
 44
-50.0
173
     0
291
     1
 45
0.0
1001
ACAD
1000
AcDbSavedByObjectVersion
1070
     0
  0
VISUALSTYLE
  5
3D
102
{ACAD_REACTORS
330
2A
102
}
102
{ACAD_XDICTIONARY
360
377
102
}
330
2A
100
AcDbVisualStyle
  2
EdgeColorOff
 70
    22
 71
     2
 72
     2
 73
     0
 90
        0
 40
0.6
 41
30.0
 62
     5
 63
     7
421
 16777215
 74
     1
 91
        4
 64
     7
 65
   257
 75
     1
175
     1
 42
1.0
 92
        8
 66
     7
 43
1.0
 76
     1
 77
     6
 78
     2
 67
     7
 79
     5
170
     0
171
     0
290
     0
174
     0
 93
        1
 44
0.0
173
     0
291
     1
 45
0.0
1001
ACAD
1000
AcDbSavedByObjectVersion
1070
     0
  0
VISUALSTYLE
  5
39
102
{ACAD_REACTORS
330
2A
102
}
102
{ACAD_XDICTIONARY
360
36F
102
}
330
2A
100
AcDbVisualStyle
  2
Facepattern
 70
    15
 71
     2
 72
     2
 73
     0
 90
        0
 40
0.6
 41
30.0
 62
     5
 63
     7
421
 16777215
 74
     1
 91
        4
 64
     7
 65
   257
 75
     1
175
     1
 42
1.0
 92
        8
 66
     7
 43
1.0
 76
     1
 77
     6
 78
     2
 67
     7
 79
     5
170
     0
171
     0
290
     0
174
     0
 93
        1
 44
0.0
173
     0
291
     1
 45
0.0
1001
ACAD
1000
AcDbSavedByObjectVersion
1070
     0
  0
VISUALSTYLE
  5
2B
102
{ACAD_REACTORS
330
2A
102
}
102
{ACAD_XDICTIONARY
360
353
102
}
330
2A
100
AcDbVisualStyle
  2
Flat
 70
     0
 71
     2
 72
     1
 73
     1
 90
        2
 40
0.6
 41
30.0
 62
     5
 63
     7
421
 16777215
 74
     0
 91
        0
 64
     7
 65
   257
 75
     1
175
     1
 42
1.0
 92
        8
 66
     7
 43
1.0
 76
     1
 77
     6
 78
     2
 67
     7
 79
     5
170
     0
171
     0
290
     0
174
     0
 93
       13
 44
0.0
173
     0
291
     1
 45
0.0
1001
ACAD
1000
AcDbSavedByObjectVersion
1070
     0
  0
VISUALSTYLE
  5
2C
102
{ACAD_REACTORS
330
2A
102
}
102
{ACAD_XDICTIONARY
360
355
102
}
330
2A
100
AcDbVisualStyle
  2
FlatWithEdges
 70
     1
 71
     2
 72
     1
 73
     1
 90
        2
 40
0.6
 41
30.0
 62
     5
 63
     7
421
 16777215
 74
     1
 91
        0
 64
     7
 65
   257
 75
     1
175
     1
 42
1.0
 92
        0
 66
   257
 43
1.0
 76
     1
 77
     6
 78
     2
 67
     7
 79
     5
170
     0
171
     0
290
     0
174
     0
 93
       13
 44
0.0
173
     0
291
     1
 45
0.0
1001
ACAD
1000
AcDbSavedByObjectVersion
1070
     0
  0
VISUALSTYLE
  5
2D
102
{ACAD_REACTORS
330
2A
102
}
102
{ACAD_XDICTIONARY
360
357
102
}
330
2A
100
AcDbVisualStyle
  2
Gouraud
 70
     2
 71
     2
 72
     2
 73
     1
 90
        2
 40
0.6
 41
30.0
 62
     5
 63
     7
421
 16777215
 74
     0
 91
        0
 64
     7
 65
   257
 75
     1
175
     1
 42
1.0
 92
        0
 66
     7
 43
1.0
 76
     1
 77
     6
 78
     2
 67
     7
 79
     5
170
     0
171
     0
290
     0
174
     0
 93
       13
 44
0.0
173
     0
291
     1
 45
0.0
1001
ACAD
1000
AcDbSavedByObjectVersion
1070
     0
  0
VISUALSTYLE
  5
2E
102
{ACAD_REACTORS
330
2A
102
}
102
{ACAD_XDICTIONARY
360
359
102
}
330
2A
100
AcDbVisualStyle
  2
GouraudWithEdges
 70
     3
 71
     2
 72
     2
 73
     1
 90
        2
 40
0.6
 41
30.0
 62
     5
 63
     7
421
 16777215
 74
     1
 91
        0
 64
     7
 65
   257
 75
     1
175
     1
 42
1.0
 92
        0
 66
   257
 43
1.0
 76
     1
 77
     6
 78
     2
 67
     7
 79
     5
170
     0
171
     0
290
     0
174
     0
 93
       13
 44
0.0
173
     0
291
     1
 45
0.0
1001
ACAD
1000
AcDbSavedByObjectVersion
1070
     0
  0
VISUALSTYLE
  5
31
102
{ACAD_REACTORS
330
2A
102
}
102
{ACAD_XDICTIONARY
360
35F
102
}
330
2A
100
AcDbVisualStyle
  2
Hidden
 70
     6
 71
     1
 72
     2
 73
     2
 90
        0
 40
0.6
 41
30.0
 62
     5
 63
     7
421
 16777215
 74
     2
 91
        2
 64
     7
 65
   257
 75
     2
175
     1
 42
40.0
 92
        0
 66
   257
 43
1.0
 76
     1
 77
     6
 78
     2
 67
     7
 79
     3
170
     0
171
     0
290
     0
174
     0
 93
        1
 44
0.0
173
     0
291
     0
 45
0.0
1001
ACAD
1000
AcDbSavedByObjectVersion
1070
     0
  0
VISUALSTYLE
  5
3B
102
{ACAD_REACTORS
330
2A
102
}
102
{ACAD_XDICTIONARY
360
373
102
}
330
2A
100
AcDbVisualStyle
  2
JitterOff
 70
    20
 71
     2
 72
     2
 73
     0
 90
        0
 40
0.6
 41
30.0
 62
     5
 63
     7
421
 16777215
 74
     1
 91
        4
 64
     7
 65
   257
 75
     1
175
     1
 42
1.0
 92
       10
 66
     7
 43
1.0
 76
     1
 77
     6
 78
     2
 67
     7
 79
     5
170
     0
171
     0
290
     0
174
     0
 93
        1
 44
0.0
173
     0
291
     1
 45
0.0
1001
ACAD
1000
AcDbSavedByObjectVersion
1070
     0
  0
VISUALSTYLE
  5
38
102
{ACAD_REACTORS
330
2A
102
}
102
{ACAD_XDICTIONARY
360
36D
102
}
330
2A
100
AcDbVisualStyle
  2
Linepattern
 70
    14
 71
     2
 72
     2
 73
     0
 90
        0
 40
0.6
 41
30.0
 62
     5
 63
     7
421
 16777215
 74
     1
 91
        4
 64
     7
 65
   257
 75
     7
175
     7
 42
1.0
 92
        8
 66
     7
 43
1.0
 76
     1
 77
     6
 78
     2
 67
     7
 79
     5
170
     0
171
     0
290
     0
174
     0
 93
        1
 44
0.0
173
     0
291
     1
 45
0.0
1001
ACAD
1000
AcDbSavedByObjectVersion
1070
     0
  0
VISUALSTYLE
  5
3C
102
{ACAD_REACTORS
330
2A
102
}
102
{ACAD_XDICTIONARY
360
375
102
}
330
2A
100
AcDbVisualStyle
  2
OverhangOff
 70
    21
 71
     2
 72
     2
 73
     0
 90
        0
 40
0.6
 41
30.0
 62
     5
 63
     7
421
 16777215
 74
     1
 91
        4
 64
     7
 65
   257
 75
     1
175
     1
 42
1.0
 92
        9
 66
     7
 43
1.0
 76
     1
 77
     6
 78
     2
 67
     7
 79
     5
170
     0
171
     0
290
     0
174
     0
 93
        1
 44
0.0
173
     0
291
     1
 45
0.0
1001
ACAD
1000
AcDbSavedByObjectVersion
1070
     0
  0
VISUALSTYLE
  5
33
102
{ACAD_REACTORS
330
2A
102
}
102
{ACAD_XDICTIONARY
360
363
102
}
330
2A
100
AcDbVisualStyle
  2
Realistic
 70
     8
 71
     2
 72
     3
 73
     0
 90
        2
 40
0.6
 41
30.0
 62
     5
 63
     7
421
 16777215
 74
     0
 91
        0
 64
     7
 65
   257
 75
     1
175
     1
 42
1.0
 92
        8
 66
   257
 43
1.0
 76
     1
 77
     6
 78
     2
 67
     7
 79
     3
170
     0
171
     0
290
     0
174
     0
 93
       13
 44
0.0
173
     0
291
     0
 45
0.0
1001
ACAD
1000
AcDbSavedByObjectVersion
1070
     0
  0
VISUALSTYLE
  5
42
102
{ACAD_REACTORS
330
2A
102
}
102
{ACAD_XDICTIONARY
360
381
102
}
330
2A
100
AcDbVisualStyle
  2
Shaded
 70
    27
 71
     2
 72
     2
 73
     1
 90
        2
 40
0.6
 41
30.0
 62
     5
 63
     7
421
 16777215
 74
     0
 91
        4
 64
     7
 65
   257
 75
     1
175
     1
 42
1.0
 92
        8
 66
   257
 43
1.0
 76
     1
 77
     6
 78
     2
 67
     8
425
  7895160
 79
     3
170
     0
171
     0
290
     0
174
     0
 93
        5
 44
0.0
173
     0
291
     0
 45
0.0
1001
ACAD
1000
AcDbSavedByObjectVersion
1070
     0
  0
VISUALSTYLE
  5
41
102
{ACAD_REACTORS
330
2A
102
}
102
{ACAD_XDICTIONARY
360
37F
102
}
330
2A
100
AcDbVisualStyle
  2
Shaded with edges
 70
    26
 71
     2
 72
     2
 73
     1
 90
        2
 40
0.6
 41
30.0
 62
     5
 63
     7
421
 16777215
 74
     1
 91
       10
 64
     7
 65
   257
 75
     2
175
     1
 42
1.0
 92
        8
 66
   257
 43
1.0
 76
     1
 77
     6
 78
     2
 67
     7
 79
     3
170
     0
171
     0
290
     0
174
     0
 93
        5
 44
0.0
173
     0
291
     0
 45
0.0
1001
ACAD
1000
AcDbSavedByObjectVersion
1070
     0
  0
VISUALSTYLE
  5
3E
102
{ACAD_REACTORS
330
2A
102
}
102
{ACAD_XDICTIONARY
360
379
102
}
330
2A
100
AcDbVisualStyle
  2
Shades of Gray
 70
    23
 71
     2
 72
     2
 73
     3
 90
        0
 40
0.6
 41
30.0
 62
     5
 63
     7
421
 16777215
 74
     2
 91
        2
 64
     7
 65
     7
 75
     1
175
     1
 42
40.0
 92
        8
 66
     7
 43
1.0
 76
     1
 77
     6
 78
     2
 67
     7
 79
     3
170
     0
171
     0
290
     0
174
     0
 93
        1
 44
0.0
173
     0
291
     0
 45
0.0
1001
ACAD
1000
AcDbSavedByObjectVersion
1070
     0
  0
VISUALSTYLE
  5
3F
102
{ACAD_REACTORS
330
2A
102
}
102
{ACAD_XDICTIONARY
360
37B
102
}
330
2A
100
AcDbVisualStyle
  2
Sketchy
 70
    24
 71
     1
 72
     2
 73
     2
 90
        0
 40
0.6
 41
30.0
 62
     5
 63
     7
421
 16777215
 74
     2
 91
        2
 64
     7
 65
     7
 75
     1
175
     1
 42
40.0
 92
       11
 66
     7
 43
1.0
 76
     1
 77
     6
 78
     2
 67
     7
 79
     6
170
     0
171
     0
290
     0
174
     0
 93
        1
 44
0.0
173
     0
291
     0
 45
0.0
1001
ACAD
1000
AcDbSavedByObjectVersion
1070
     0
  0
VISUALSTYLE
  5
37
102
{ACAD_REACTORS
330
2A
102
}
102
{ACAD_XDICTIONARY
360
36B
102
}
330
2A
100
AcDbVisualStyle
  2
Thicken
 70
    13
 71
     2
 72
     2
 73
     0
 90
        0
 40
0.6
 41
30.0
 62
     5
 63
     7
421
 16777215
 74
     1
 91
        4
 64
     7
 65
   257
 75
     1
175
     1
 42
1.0
 92
       12
 66
     7
 43
1.0
 76
     1
 77
     6
 78
     2
 67
     7
 79
     5
170
     0
171
     0
290
     0
174
     0
 93
        1
 44
0.0
173
     0
291
     1
 45
0.0
1001
ACAD
1000
AcDbSavedByObjectVersion
1070
     0
  0
VISUALSTYLE
  5
30
102
{ACAD_REACTORS
330
2A
102
}
102
{ACAD_XDICTIONARY
360
35D
102
}
330
2A
100
AcDbVisualStyle
  2
Wireframe
 70
     5
 71
     0
 72
     2
 73
     0
 90
        0
 40
0.6
 41
30.0
 62
     5
 63
     7
421
 16777215
 74
     1
 91
        4
 64
     7
 65
   257
 75
     1
175
     1
 42
1.0
 92
        0
 66
   257
 43
1.0
 76
     1
 77
     6
 78
     2
 67
     7
 79
     3
170
     0
171
     0
290
     0
174
     0
 93
        1
 44
0.0
173
     0
291
     0
 45
0.0
1001
ACAD
1000
AcDbSavedByObjectVersion
1070
     0
  0
VISUALSTYLE
  5
40
102
{ACAD_REACTORS
330
2A
102
}
102
{ACAD_XDICTIONARY
360
37D
102
}
330
2A
100
AcDbVisualStyle
  2
X-Ray
 70
    25
 71
     2
 72
     2
 73
     1
 90
        1
 40
0.5
 41
30.0
 62
     5
 63
     7
421
 16777215
 74
     1
 91
        0
 64
     7
 65
   257
 75
     1
175
     1
 42
1.0
 92
        8
 66
     7
 43
1.0
 76
     1
 77
     6
 78
     2
 67
     7
 79
     3
170
     0
171
     0
290
     0
174
     0
 93
       13
 44
0.0
173
     0
291
     0
 45
0.0
1001
ACAD
1000
AcDbSavedByObjectVersion
1070
     0
  0
DICTIONARYVAR
  5
350
102
{ACAD_REACTORS
330
34F
102
}
330
34F
100
DictionaryVariables
280
     0
  1
1:1
  0
DICTIONARYVAR
  5
394
102
{ACAD_REACTORS
330
34F
102
}
330
34F
100
DictionaryVariables
280
     0
  1
3.500000
  0
DICTIONARYVAR
  5
395
102
{ACAD_REACTORS
330
34F
102
}
330
34F
100
DictionaryVariables
280
     0
  1
acadiso.lin
  0
DICTIONARYVAR
  5
391
102
{ACAD_REACTORS
330
34F
102
}
330
34F
100
DictionaryVariables
280
     0
  1
Standard
  0
DICTIONARYVAR
  5
390
102
{ACAD_REACTORS
330
34F
102
}
330
34F
100
DictionaryVariables
280
     0
  1
Standard
  0
DICTIONARYVAR
  5
351
102
{ACAD_REACTORS
330
34F
102
}
330
34F
100
DictionaryVariables
280
     0
  1
1
  0
DICTIONARYVAR
  5
352
102
{ACAD_REACTORS
330
34F
102
}
330
34F
100
DictionaryVariables
280
     0
  1
2
  0
DICTIONARY
  5
385
330
45
100
AcDbDictionary
280
     1
281
     1
  3
ACAD_XREC_ROUNDTRIP
360
386
  0
DICTIONARY
  5
383
330
44
100
AcDbDictionary
280
     1
281
     1
  3
ACAD_XREC_ROUNDTRIP
360
384
  0
DICTIONARY
  5
387
330
46
100
AcDbDictionary
280
     1
281
     1
  3
ACAD_XREC_ROUNDTRIP
360
388
  0
DICTIONARY
  5
38D
330
6C
100
AcDbDictionary
280
     1
281
     1
  3
ACAD_XREC_ROUNDTRIP
360
38E
  0
DICTIONARY
  5
389
330
6A
100
AcDbDictionary
280
     1
281
     1
  3
ACAD_ROUNDTRIP_2008_TABLESTYLE_CELLSTYLEMAP
360
38B
  3
ACAD_XREC_ROUNDTRIP
360
38A
  0
DICTIONARY
  5
35B
330
2F
100
AcDbDictionary
280
     1
281
     1
  3
ACAD_XREC_ROUNDTRIP
360
35C
  0
DICTIONARY
  5
361
330
32
100
AcDbDictionary
280
     1
281
     1
  3
ACAD_XREC_ROUNDTRIP
360
362
  0
DICTIONARY
  5
369
330
36
100
AcDbDictionary
280
     1
281
     1
  3
ACAD_XREC_ROUNDTRIP
360
36A
  0
DICTIONARY
  5
371
330
3A
100
AcDbDictionary
280
     1
281
     1
  3
ACAD_XREC_ROUNDTRIP
360
372
  0
DICTIONARY
  5
365
330
34
100
AcDbDictionary
280
     1
281
     1
  3
ACAD_XREC_ROUNDTRIP
360
366
  0
DICTIONARY
  5
367
330
35
100
AcDbDictionary
280
     1
281
     1
  3
ACAD_XREC_ROUNDTRIP
360
368
  0
DICTIONARY
  5
377
330
3D
100
AcDbDictionary
280
     1
281
     1
  3
ACAD_XREC_ROUNDTRIP
360
378
  0
DICTIONARY
  5
36F
330
39
100
AcDbDictionary
280
     1
281
     1
  3
ACAD_XREC_ROUNDTRIP
360
370
  0
DICTIONARY
  5
353
330
2B
100
AcDbDictionary
280
     1
281
     1
  3
ACAD_XREC_ROUNDTRIP
360
354
  0
DICTIONARY
  5
355
330
2C
100
AcDbDictionary
280
     1
281
     1
  3
ACAD_XREC_ROUNDTRIP
360
356
  0
DICTIONARY
  5
357
330
2D
100
AcDbDictionary
280
     1
281
     1
  3
ACAD_XREC_ROUNDTRIP
360
358
  0
DICTIONARY
  5
359
330
2E
100
AcDbDictionary
280
     1
281
     1
  3
ACAD_XREC_ROUNDTRIP
360
35A
  0
DICTIONARY
  5
35F
330
31
100
AcDbDictionary
280
     1
281
     1
  3
ACAD_XREC_ROUNDTRIP
360
360
  0
DICTIONARY
  5
373
330
3B
100
AcDbDictionary
280
     1
281
     1
  3
ACAD_XREC_ROUNDTRIP
360
374
  0
DICTIONARY
  5
36D
330
38
100
AcDbDictionary
280
     1
281
     1
  3
ACAD_XREC_ROUNDTRIP
360
36E
  0
DICTIONARY
  5
375
330
3C
100
AcDbDictionary
280
     1
281
     1
  3
ACAD_XREC_ROUNDTRIP
360
376
  0
DICTIONARY
  5
363
330
33
100
AcDbDictionary
280
     1
281
     1
  3
ACAD_XREC_ROUNDTRIP
360
364
  0
DICTIONARY
  5
381
330
42
100
AcDbDictionary
280
     1
281
     1
  3
ACAD_XREC_ROUNDTRIP
360
382
  0
DICTIONARY
  5
37F
330
41
100
AcDbDictionary
280
     1
281
     1
  3
ACAD_XREC_ROUNDTRIP
360
380
  0
DICTIONARY
  5
379
330
3E
100
AcDbDictionary
280
     1
281
     1
  3
ACAD_XREC_ROUNDTRIP
360
37A
  0
DICTIONARY
  5
37B
330
3F
100
AcDbDictionary
280
     1
281
     1
  3
ACAD_XREC_ROUNDTRIP
360
37C
  0
DICTIONARY
  5
36B
330
37
100
AcDbDictionary
280
     1
281
     1
  3
ACAD_XREC_ROUNDTRIP
360
36C
  0
DICTIONARY
  5
35D
330
30
100
AcDbDictionary
280
     1
281
     1
  3
ACAD_XREC_ROUNDTRIP
360
35E
  0
DICTIONARY
  5
37D
330
40
100
AcDbDictionary
280
     1
281
     1
  3
ACAD_XREC_ROUNDTRIP
360
37E
  0
XRECORD
  5
386
102
{ACAD_REACTORS
330
385
102
}
330
385
100
AcDbXrecord
280
     1
102
MATERIAL
148
0.0
149
0.0
149
0.0
 93
        0
 94
      127
282
     0
 72
     1
 77
     1
171
     1
175
     1
179
     1
273
     0
  0
XRECORD
  5
384
102
{ACAD_REACTORS
330
383
102
}
330
383
100
AcDbXrecord
280
     1
102
MATERIAL
148
0.0
149
0.0
149
0.0
 93
        0
 94
      127
282
     0
 72
     1
 77
     1
171
     1
175
     1
179
     1
273
     0
  0
XRECORD
  5
388
102
{ACAD_REACTORS
330
387
102
}
330
387
100
AcDbXrecord
280
     1
102
MATERIAL
148
0.0
149
0.0
149
0.0
 93
        0
 94
      127
282
     0
 72
     1
 77
     1
171
     1
175
     1
179
     1
273
     0
  0
XRECORD
  5
38E
102
{ACAD_REACTORS
330
38D
102
}
330
38D
100
AcDbXrecord
280
     1
102
ACAD_ROUNDTRIP_2010_MLEADER_STYLE
  0
CELLSTYLEMAP
  5
38B
102
{ACAD_REACTORS
330
389
102
}
330
389
100
AcDbCellStyleMap
 90
        3
300
CELLSTYLE
  1
TABLEFORMAT_BEGIN
 90
        5
170
     1
 91
        0
 92
    32768
 62
   257
 93
        1
300
CONTENTFORMAT
  1
CONTENTFORMAT_BEGIN
 90
        0
 91
        0
 92
        4
 93
        0
300

 40
0.0
140
1.0
 94
        5
 62
     0
340
11
144
6.0
309
CONTENTFORMAT_END
171
     1
301
MARGIN
  1
CELLMARGIN_BEGIN
 40
1.5
 40
1.5
 40
1.5
 40
1.5
 40
1.5
 40
1.5
309
CELLMARGIN_END
 94
        6
 95
        1
302
GRIDFORMAT
  1
GRIDFORMAT_BEGIN
 90
        0
 91
        1
 62
     0
 92
       -2
340
14
 93
        0
 40
0.045
309
GRIDFORMAT_END
 95
        2
302
GRIDFORMAT
  1
GRIDFORMAT_BEGIN
 90
        0
 91
        1
 62
     0
 92
       -2
340
14
 93
        0
 40
0.045
309
GRIDFORMAT_END
 95
        4
302
GRIDFORMAT
  1
GRIDFORMAT_BEGIN
 90
        0
 91
        1
 62
     0
 92
       -2
340
14
 93
        0
 40
0.045
309
GRIDFORMAT_END
 95
        8
302
GRIDFORMAT
  1
GRIDFORMAT_BEGIN
 90
        0
 91
        1
 62
     0
 92
       -2
340
14
 93
        0
 40
0.045
309
GRIDFORMAT_END
 95
       16
302
GRIDFORMAT
  1
GRIDFORMAT_BEGIN
 90
        0
 91
        1
 62
     0
 92
       -2
340
14
 93
        0
 40
0.045
309
GRIDFORMAT_END
 95
       32
302
GRIDFORMAT
  1
GRIDFORMAT_BEGIN
 90
        0
 91
        1
 62
     0
 92
       -2
340
14
 93
        0
 40
0.045
309
GRIDFORMAT_END
309
TABLEFORMAT_END
  1
CELLSTYLE_BEGIN
 90
        1
 91
        1
300
_TITLE
309
CELLSTYLE_END
300
CELLSTYLE
  1
TABLEFORMAT_BEGIN
 90
        5
170
     1
 91
        0
 92
        0
 62
   257
 93
        1
300
CONTENTFORMAT
  1
CONTENTFORMAT_BEGIN
 90
        0
 91
        0
 92
        4
 93
        0
300

 40
0.0
140
1.0
 94
        5
 62
     0
340
11
144
4.5
309
CONTENTFORMAT_END
171
     1
301
MARGIN
  1
CELLMARGIN_BEGIN
 40
1.5
 40
1.5
 40
1.5
 40
1.5
 40
1.5
 40
1.5
309
CELLMARGIN_END
 94
        6
 95
        1
302
GRIDFORMAT
  1
GRIDFORMAT_BEGIN
 90
        0
 91
        1
 62
     0
 92
       -2
340
14
 93
        0
 40
0.045
309
GRIDFORMAT_END
 95
        2
302
GRIDFORMAT
  1
GRIDFORMAT_BEGIN
 90
        0
 91
        1
 62
     0
 92
       -2
340
14
 93
        0
 40
0.045
309
GRIDFORMAT_END
 95
        4
302
GRIDFORMAT
  1
GRIDFORMAT_BEGIN
 90
        0
 91
        1
 62
     0
 92
       -2
340
14
 93
        0
 40
0.045
309
GRIDFORMAT_END
 95
        8
302
GRIDFORMAT
  1
GRIDFORMAT_BEGIN
 90
        0
 91
        1
 62
     0
 92
       -2
340
14
 93
        0
 40
0.045
309
GRIDFORMAT_END
 95
       16
302
GRIDFORMAT
  1
GRIDFORMAT_BEGIN
 90
        0
 91
        1
 62
     0
 92
       -2
340
14
 93
        0
 40
0.045
309
GRIDFORMAT_END
 95
       32
302
GRIDFORMAT
  1
GRIDFORMAT_BEGIN
 90
        0
 91
        1
 62
     0
 92
       -2
340
14
 93
        0
 40
0.045
309
GRIDFORMAT_END
309
TABLEFORMAT_END
  1
CELLSTYLE_BEGIN
 90
        2
 91
        1
300
_HEADER
309
CELLSTYLE_END
300
CELLSTYLE
  1
TABLEFORMAT_BEGIN
 90
        5
170
     1
 91
        0
 92
        0
 62
   257
 93
        1
300
CONTENTFORMAT
  1
CONTENTFORMAT_BEGIN
 90
        0
 91
        0
 92
        4
 93
        0
300

 40
0.0
140
1.0
 94
        2
 62
     0
340
11
144
4.5
309
CONTENTFORMAT_END
171
     1
301
MARGIN
  1
CELLMARGIN_BEGIN
 40
1.5
 40
1.5
 40
1.5
 40
1.5
 40
1.5
 40
1.5
309
CELLMARGIN_END
 94
        6
 95
        1
302
GRIDFORMAT
  1
GRIDFORMAT_BEGIN
 90
        0
 91
        1
 62
     0
 92
       -2
340
14
 93
        0
 40
0.045
309
GRIDFORMAT_END
 95
        2
302
GRIDFORMAT
  1
GRIDFORMAT_BEGIN
 90
        0
 91
        1
 62
     0
 92
       -2
340
14
 93
        0
 40
0.045
309
GRIDFORMAT_END
 95
        4
302
GRIDFORMAT
  1
GRIDFORMAT_BEGIN
 90
        0
 91
        1
 62
     0
 92
       -2
340
14
 93
        0
 40
0.045
309
GRIDFORMAT_END
 95
        8
302
GRIDFORMAT
  1
GRIDFORMAT_BEGIN
 90
        0
 91
        1
 62
     0
 92
       -2
340
14
 93
        0
 40
0.045
309
GRIDFORMAT_END
 95
       16
302
GRIDFORMAT
  1
GRIDFORMAT_BEGIN
 90
        0
 91
        1
 62
     0
 92
       -2
340
14
 93
        0
 40
0.045
309
GRIDFORMAT_END
 95
       32
302
GRIDFORMAT
  1
GRIDFORMAT_BEGIN
 90
        0
 91
        1
 62
     0
 92
       -2
340
14
 93
        0
 40
0.045
309
GRIDFORMAT_END
309
TABLEFORMAT_END
  1
CELLSTYLE_BEGIN
 90
        3
 91
        2
300
_DATA
309
CELLSTYLE_END
  0
XRECORD
  5
38A
102
{ACAD_REACTORS
330
389
102
}
330
389
100
AcDbXrecord
280
     1
102
ACAD_ROUNDTRIP_PRE2007_TABLESTYLE
 90
        4
 91
        0
  1

 92
        4
 93
        0
  2

 94
        4
 95
        0
  3

  0
XRECORD
  5
35C
102
{ACAD_REACTORS
330
35B
102
}
330
35B
100
AcDbXrecord
280
     1
102
RTVSPropertyOp0
 70
     1
102
RTVSPropertyOp1
 70
     1
102
RTVSPropertyOp2
 70
     1
102
RTVSPropertyOp3
 70
     1
102
RTVSPropertyOp4
 70
     1
102
RTVSPropertyOp5
 70
     1
102
RTVSPropertyOp6
 70
     1
102
RTVSPropertyOp7
 70
     1
102
RTVSPropertyOp8
 70
     1
102
RTVSPropertyOp9
 70
     1
102
RTVSPropertyOp10
 70
     1
102
RTVSPropertyOp11
 70
     1
102
RTVSPropertyOp12
 70
     1
102
RTVSPropertyOp13
 70
     1
102
RTVSPropertyOp14
 70
     1
102
RTVSPropertyOp15
 70
     1
102
RTVSPropertyOp16
 70
     1
102
RTVSPropertyOp17
 70
     1
102
RTVSPropertyOp18
 70
     1
102
RTVSPropertyOp19
 70
     1
102
RTVSPropertyOp20
 70
     1
102
RTVSPropertyOp21
 70
     1
102
RTVSPropertyOp22
 70
     1
102
RTVSPropertyOp23
 70
     1
102
RTVSPropertyOp24
 70
     1
102
RTVSPropertyOp25
 70
     1
102
RTVSPropertyOp26
 70
     1
102
RTVSPropertyOp27
 70
     1
102
RTVSPropertyOp28
 70
     1
102
RTVSPropertyOp29
 70
     1
102
RTVSPropertyOp30
 70
     1
102
RTVSPropertyOp31
 70
     1
102
RTVSPropertyOp32
 70
     1
102
RTVSPropertyOp33
 70
     1
102
RTVSPropertyOp34
 70
     1
102
RTVSPropertyOp35
 70
     1
102
RTVSPropertyOp36
 70
     1
102
RTVSPropertyOp37
 70
     1
102
RTVSPropertyOp38
 70
     1
102
RTVSPropertyOp39
 70
     1
102
RTVSPropertyOp40
 70
     1
102
RTVSPropertyOp41
 70
     1
102
RTVSPropertyOp42
 70
     1
102
RTVSPropertyOp43
 70
     1
102
RTVSPropertyOp44
 70
     1
102
RTVSPropertyOp45
 70
     1
102
RTVSPropertyOp46
 70
     1
102
RTVSPropertyOp47
 70
     1
102
RTVSPropertyOp48
 70
     1
102
RTVSPropertyOp49
 70
     1
102
RTVSPropertyOp50
 70
     1
102
RTVSPropertyOp51
 70
     0
102
RTVSPropertyOp52
 70
     0
102
RTVSPropertyOp53
 70
     1
102
RTVSPropertyOp54
 70
     1
102
RTVSPropertyOp55
 70
     1
102
RTVSPropertyOp56
 70
     1
102
RTVSPropertyOp57
 70
     1
102
RTVSPost2010Prop28
280
     1
102
RTVSPost2010PropOp28
 70
     1
102
RTVSPost2010Prop29
280
     1
102
RTVSPost2010PropOp29
 70
     1
102
RTVSPost2010Prop30
280
     0
102
RTVSPost2010PropOp30
 70
     1
102
RTVSPost2010Prop31
280
     0
102
RTVSPost2010PropOp31
 70
     1
102
RTVSPost2010Prop32
280
     0
102
RTVSPost2010PropOp32
 70
     1
102
RTVSPost2010Prop33
280
     0
102
RTVSPost2010PropOp33
 70
     1
102
RTVSPost2010Prop34
280
     0
102
RTVSPost2010PropOp34
 70
     1
102
RTVSPost2010Prop35
280
     0
102
RTVSPost2010PropOp35
 70
     1
102
RTVSPost2010Prop36
280
     0
102
RTVSPost2010PropOp36
 70
     1
102
RTVSPost2010Prop37
 90
       50
102
RTVSPost2010PropOp37
 70
     1
102
RTVSPost2010Prop38
140
0.0
102
RTVSPost2010PropOp38
 70
     1
102
RTVSPost2010Prop39
140
1.0
102
RTVSPost2010PropOp39
 70
     1
102
RTVSPost2010Prop40
 90
        0
102
RTVSPost2010PropOp40
 70
     1
102
RTVSPost2010Prop41ColorIndex
 90
       18
102
RTVSPost2010Prop41ColorRGB
 90
        0
102
RTVSPost2010PropOp41
 70
     1
102
RTVSPost2010Prop42
 90
       50
102
RTVSPost2010PropOp42
 70
     1
102
RTVSPost2010Prop43
 90
        3
102
RTVSPost2010PropOp43
 70
     1
102
RTVSPost2010Prop44ColorIndex
 90
        5
102
RTVSPost2010Prop44ColorRGB
 90
      255
102
RTVSPost2010PropOp44
 70
     1
102
RTVSPost2010Prop45
280
     0
102
RTVSPost2010PropOp45
 70
     1
102
RTVSPost2010Prop46
 90
       50
102
RTVSPost2010PropOp46
 70
     1
102
RTVSPost2010Prop47
 90
       50
102
RTVSPost2010PropOp47
 70
     1
102
RTVSPost2010Prop48
 90
       50
102
RTVSPost2010PropOp48
 70
     1
102
RTVSPost2010Prop49
280
     0
102
RTVSPost2010PropOp49
 70
     1
102
RTVSPost2010Prop50
 90
       50
102
RTVSPost2010PropOp50
 70
     1
102
RTVSPost2010Prop51ColorIndex
 90
      256
102
RTVSPost2010Prop51ColorRGB
 90
-16777216
102
RTVSPost2010PropOp51
 70
     0
102
RTVSPost2010Prop52
140
1.0
102
RTVSPost2010PropOp52
 70
     0
102
RTVSPost2010Prop53
 90
        2
102
RTVSPost2010PropOp53
 70
     1
102
RTVSPost2010Prop54
  1
strokes_ogs.tif
102
RTVSPost2010PropOp54
 70
     1
102
RTVSPost2010Prop55
280
     0
102
RTVSPost2010PropOp55
 70
     1
102
RTVSPost2010Prop56
140
1.0
102
RTVSPost2010PropOp56
 70
     1
102
RTVSPost2010Prop57
140
1.0
102
RTVSPost2010PropOp57
 70
     1
  0
XRECORD
  5
362
102
{ACAD_REACTORS
330
361
102
}
330
361
100
AcDbXrecord
280
     1
102
RTVSPropertyOp0
 70
     1
102
RTVSPropertyOp1
 70
     1
102
RTVSPropertyOp2
 70
     1
102
RTVSPropertyOp3
 70
     1
102
RTVSPropertyOp4
 70
     1
102
RTVSPropertyOp5
 70
     1
102
RTVSPropertyOp6
 70
     1
102
RTVSPropertyOp7
 70
     1
102
RTVSPropertyOp8
 70
     1
102
RTVSPropertyOp9
 70
     1
102
RTVSPropertyOp10
 70
     1
102
RTVSPropertyOp11
 70
     1
102
RTVSPropertyOp12
 70
     1
102
RTVSPropertyOp13
 70
     1
102
RTVSPropertyOp14
 70
     1
102
RTVSPropertyOp15
 70
     1
102
RTVSPropertyOp16
 70
     1
102
RTVSPropertyOp17
 70
     1
102
RTVSPropertyOp18
 70
     1
102
RTVSPropertyOp19
 70
     1
102
RTVSPropertyOp20
 70
     1
102
RTVSPropertyOp21
 70
     1
102
RTVSPropertyOp22
 70
     1
102
RTVSPropertyOp23
 70
     1
102
RTVSPropertyOp24
 70
     1
102
RTVSPropertyOp25
 70
     1
102
RTVSPropertyOp26
 70
     1
102
RTVSPropertyOp27
 70
     1
102
RTVSPropertyOp28
 70
     1
102
RTVSPropertyOp29
 70
     1
102
RTVSPropertyOp30
 70
     1
102
RTVSPropertyOp31
 70
     1
102
RTVSPropertyOp32
 70
     1
102
RTVSPropertyOp33
 70
     1
102
RTVSPropertyOp34
 70
     1
102
RTVSPropertyOp35
 70
     1
102
RTVSPropertyOp36
 70
     1
102
RTVSPropertyOp37
 70
     1
102
RTVSPropertyOp38
 70
     1
102
RTVSPropertyOp39
 70
     1
102
RTVSPropertyOp40
 70
     1
102
RTVSPropertyOp41
 70
     1
102
RTVSPropertyOp42
 70
     1
102
RTVSPropertyOp43
 70
     1
102
RTVSPropertyOp44
 70
     1
102
RTVSPropertyOp45
 70
     1
102
RTVSPropertyOp46
 70
     1
102
RTVSPropertyOp47
 70
     1
102
RTVSPropertyOp48
 70
     1
102
RTVSPropertyOp49
 70
     1
102
RTVSPropertyOp50
 70
     1
102
RTVSPropertyOp51
 70
     0
102
RTVSPropertyOp52
 70
     0
102
RTVSPropertyOp53
 70
     1
102
RTVSPropertyOp54
 70
     1
102
RTVSPropertyOp55
 70
     1
102
RTVSPropertyOp56
 70
     1
102
RTVSPropertyOp57
 70
     1
102
RTVSPost2010Prop28
280
     0
102
RTVSPost2010PropOp28
 70
     1
102
RTVSPost2010Prop29
280
     1
102
RTVSPost2010PropOp29
 70
     1
102
RTVSPost2010Prop30
280
     1
102
RTVSPost2010PropOp30
 70
     1
102
RTVSPost2010Prop31
280
     0
102
RTVSPost2010PropOp31
 70
     1
102
RTVSPost2010Prop32
280
     0
102
RTVSPost2010PropOp32
 70
     1
102
RTVSPost2010Prop33
280
     0
102
RTVSPost2010PropOp33
 70
     1
102
RTVSPost2010Prop34
280
     0
102
RTVSPost2010PropOp34
 70
     1
102
RTVSPost2010Prop35
280
     0
102
RTVSPost2010PropOp35
 70
     1
102
RTVSPost2010Prop36
280
     0
102
RTVSPost2010PropOp36
 70
     1
102
RTVSPost2010Prop37
 90
       50
102
RTVSPost2010PropOp37
 70
     1
102
RTVSPost2010Prop38
140
0.0
102
RTVSPost2010PropOp38
 70
     1
102
RTVSPost2010Prop39
140
1.0
102
RTVSPost2010PropOp39
 70
     1
102
RTVSPost2010Prop40
 90
        0
102
RTVSPost2010PropOp40
 70
     1
102
RTVSPost2010Prop41ColorIndex
 90
       18
102
RTVSPost2010Prop41ColorRGB
 90
        0
102
RTVSPost2010PropOp41
 70
     1
102
RTVSPost2010Prop42
 90
       50
102
RTVSPost2010PropOp42
 70
     1
102
RTVSPost2010Prop43
 90
        3
102
RTVSPost2010PropOp43
 70
     1
102
RTVSPost2010Prop44ColorIndex
 90
        5
102
RTVSPost2010Prop44ColorRGB
 90
      255
102
RTVSPost2010PropOp44
 70
     1
102
RTVSPost2010Prop45
280
     0
102
RTVSPost2010PropOp45
 70
     1
102
RTVSPost2010Prop46
 90
       50
102
RTVSPost2010PropOp46
 70
     1
102
RTVSPost2010Prop47
 90
       50
102
RTVSPost2010PropOp47
 70
     1
102
RTVSPost2010Prop48
 90
       50
102
RTVSPost2010PropOp48
 70
     1
102
RTVSPost2010Prop49
280
     0
102
RTVSPost2010PropOp49
 70
     1
102
RTVSPost2010Prop50
 90
       50
102
RTVSPost2010PropOp50
 70
     1
102
RTVSPost2010Prop51ColorIndex
 90
      256
102
RTVSPost2010Prop51ColorRGB
 90
-16777216
102
RTVSPost2010PropOp51
 70
     0
102
RTVSPost2010Prop52
140
1.0
102
RTVSPost2010PropOp52
 70
     0
102
RTVSPost2010Prop53
 90
        2
102
RTVSPost2010PropOp53
 70
     1
102
RTVSPost2010Prop54
  1
strokes_ogs.tif
102
RTVSPost2010PropOp54
 70
     1
102
RTVSPost2010Prop55
280
     0
102
RTVSPost2010PropOp55
 70
     1
102
RTVSPost2010Prop56
140
1.0
102
RTVSPost2010PropOp56
 70
     1
102
RTVSPost2010Prop57
140
1.0
102
RTVSPost2010PropOp57
 70
     1
  0
XRECORD
  5
36A
102
{ACAD_REACTORS
330
369
102
}
330
369
100
AcDbXrecord
280
     1
102
RTVSPropertyOp0
 70
     1
102
RTVSPropertyOp1
 70
     1
102
RTVSPropertyOp2
 70
     1
102
RTVSPropertyOp3
 70
     1
102
RTVSPropertyOp4
 70
     1
102
RTVSPropertyOp5
 70
     1
102
RTVSPropertyOp6
 70
     1
102
RTVSPropertyOp7
 70
     1
102
RTVSPropertyOp8
 70
     1
102
RTVSPropertyOp9
 70
     1
102
RTVSPropertyOp10
 70
     1
102
RTVSPropertyOp11
 70
     1
102
RTVSPropertyOp12
 70
     1
102
RTVSPropertyOp13
 70
     1
102
RTVSPropertyOp14
 70
     1
102
RTVSPropertyOp15
 70
     1
102
RTVSPropertyOp16
 70
     1
102
RTVSPropertyOp17
 70
     1
102
RTVSPropertyOp18
 70
     1
102
RTVSPropertyOp19
 70
     1
102
RTVSPropertyOp20
 70
     1
102
RTVSPropertyOp21
 70
     1
102
RTVSPropertyOp22
 70
     1
102
RTVSPropertyOp23
 70
     1
102
RTVSPropertyOp24
 70
     1
102
RTVSPropertyOp25
 70
     1
102
RTVSPropertyOp26
 70
     1
102
RTVSPropertyOp27
 70
     1
102
RTVSPropertyOp28
 70
     1
102
RTVSPropertyOp29
 70
     1
102
RTVSPropertyOp30
 70
     1
102
RTVSPropertyOp31
 70
     1
102
RTVSPropertyOp32
 70
     1
102
RTVSPropertyOp33
 70
     1
102
RTVSPropertyOp34
 70
     1
102
RTVSPropertyOp35
 70
     1
102
RTVSPropertyOp36
 70
     1
102
RTVSPropertyOp37
 70
     1
102
RTVSPropertyOp38
 70
     1
102
RTVSPropertyOp39
 70
     1
102
RTVSPropertyOp40
 70
     1
102
RTVSPropertyOp41
 70
     1
102
RTVSPropertyOp42
 70
     1
102
RTVSPropertyOp43
 70
     1
102
RTVSPropertyOp44
 70
     1
102
RTVSPropertyOp45
 70
     1
102
RTVSPropertyOp46
 70
     1
102
RTVSPropertyOp47
 70
     1
102
RTVSPropertyOp48
 70
     1
102
RTVSPropertyOp49
 70
     1
102
RTVSPropertyOp50
 70
     1
102
RTVSPropertyOp51
 70
     0
102
RTVSPropertyOp52
 70
     0
102
RTVSPropertyOp53
 70
     1
102
RTVSPropertyOp54
 70
     1
102
RTVSPropertyOp55
 70
     1
102
RTVSPropertyOp56
 70
     1
102
RTVSPropertyOp57
 70
     1
102
RTVSPost2010Prop28
280
     0
102
RTVSPost2010PropOp28
 70
     1
102
RTVSPost2010Prop29
280
     1
102
RTVSPost2010PropOp29
 70
     1
102
RTVSPost2010Prop30
280
     1
102
RTVSPost2010PropOp30
 70
     1
102
RTVSPost2010Prop31
280
     0
102
RTVSPost2010PropOp31
 70
     1
102
RTVSPost2010Prop32
280
     0
102
RTVSPost2010PropOp32
 70
     1
102
RTVSPost2010Prop33
280
     0
102
RTVSPost2010PropOp33
 70
     1
102
RTVSPost2010Prop34
280
     0
102
RTVSPost2010PropOp34
 70
     1
102
RTVSPost2010Prop35
280
     0
102
RTVSPost2010PropOp35
 70
     1
102
RTVSPost2010Prop36
280
     0
102
RTVSPost2010PropOp36
 70
     1
102
RTVSPost2010Prop37
 90
       50
102
RTVSPost2010PropOp37
 70
     1
102
RTVSPost2010Prop38
140
0.0
102
RTVSPost2010PropOp38
 70
     1
102
RTVSPost2010Prop39
140
1.0
102
RTVSPost2010PropOp39
 70
     1
102
RTVSPost2010Prop40
 90
        0
102
RTVSPost2010PropOp40
 70
     1
102
RTVSPost2010Prop41ColorIndex
 90
       18
102
RTVSPost2010Prop41ColorRGB
 90
        0
102
RTVSPost2010PropOp41
 70
     1
102
RTVSPost2010Prop42
 90
       50
102
RTVSPost2010PropOp42
 70
     1
102
RTVSPost2010Prop43
 90
        3
102
RTVSPost2010PropOp43
 70
     1
102
RTVSPost2010Prop44ColorIndex
 90
        5
102
RTVSPost2010Prop44ColorRGB
 90
      255
102
RTVSPost2010PropOp44
 70
     1
102
RTVSPost2010Prop45
280
     0
102
RTVSPost2010PropOp45
 70
     1
102
RTVSPost2010Prop46
 90
       50
102
RTVSPost2010PropOp46
 70
     1
102
RTVSPost2010Prop47
 90
       50
102
RTVSPost2010PropOp47
 70
     1
102
RTVSPost2010Prop48
 90
       50
102
RTVSPost2010PropOp48
 70
     1
102
RTVSPost2010Prop49
280
     0
102
RTVSPost2010PropOp49
 70
     1
102
RTVSPost2010Prop50
 90
       50
102
RTVSPost2010PropOp50
 70
     1
102
RTVSPost2010Prop51ColorIndex
 90
      256
102
RTVSPost2010Prop51ColorRGB
 90
-16777216
102
RTVSPost2010PropOp51
 70
     0
102
RTVSPost2010Prop52
140
1.0
102
RTVSPost2010PropOp52
 70
     0
102
RTVSPost2010Prop53
 90
        2
102
RTVSPost2010PropOp53
 70
     1
102
RTVSPost2010Prop54
  1
strokes_ogs.tif
102
RTVSPost2010PropOp54
 70
     1
102
RTVSPost2010Prop55
280
     0
102
RTVSPost2010PropOp55
 70
     1
102
RTVSPost2010Prop56
140
1.0
102
RTVSPost2010PropOp56
 70
     1
102
RTVSPost2010Prop57
140
1.0
102
RTVSPost2010PropOp57
 70
     1
  0
XRECORD
  5
372
102
{ACAD_REACTORS
330
371
102
}
330
371
100
AcDbXrecord
280
     1
102
RTVSPropertyOp0
 70
     1
102
RTVSPropertyOp1
 70
     1
102
RTVSPropertyOp2
 70
     1
102
RTVSPropertyOp3
 70
     1
102
RTVSPropertyOp4
 70
     1
102
RTVSPropertyOp5
 70
     1
102
RTVSPropertyOp6
 70
     1
102
RTVSPropertyOp7
 70
     1
102
RTVSPropertyOp8
 70
     1
102
RTVSPropertyOp9
 70
     1
102
RTVSPropertyOp10
 70
     1
102
RTVSPropertyOp11
 70
     1
102
RTVSPropertyOp12
 70
     1
102
RTVSPropertyOp13
 70
     1
102
RTVSPropertyOp14
 70
     1
102
RTVSPropertyOp15
 70
     1
102
RTVSPropertyOp16
 70
     1
102
RTVSPropertyOp17
 70
     1
102
RTVSPropertyOp18
 70
     1
102
RTVSPropertyOp19
 70
     1
102
RTVSPropertyOp20
 70
     1
102
RTVSPropertyOp21
 70
     1
102
RTVSPropertyOp22
 70
     1
102
RTVSPropertyOp23
 70
     1
102
RTVSPropertyOp24
 70
     1
102
RTVSPropertyOp25
 70
     1
102
RTVSPropertyOp26
 70
     1
102
RTVSPropertyOp27
 70
     1
102
RTVSPropertyOp28
 70
     1
102
RTVSPropertyOp29
 70
     1
102
RTVSPropertyOp30
 70
     1
102
RTVSPropertyOp31
 70
     1
102
RTVSPropertyOp32
 70
     1
102
RTVSPropertyOp33
 70
     1
102
RTVSPropertyOp34
 70
     1
102
RTVSPropertyOp35
 70
     1
102
RTVSPropertyOp36
 70
     1
102
RTVSPropertyOp37
 70
     1
102
RTVSPropertyOp38
 70
     1
102
RTVSPropertyOp39
 70
     1
102
RTVSPropertyOp40
 70
     1
102
RTVSPropertyOp41
 70
     1
102
RTVSPropertyOp42
 70
     1
102
RTVSPropertyOp43
 70
     1
102
RTVSPropertyOp44
 70
     1
102
RTVSPropertyOp45
 70
     1
102
RTVSPropertyOp46
 70
     1
102
RTVSPropertyOp47
 70
     1
102
RTVSPropertyOp48
 70
     1
102
RTVSPropertyOp49
 70
     1
102
RTVSPropertyOp50
 70
     1
102
RTVSPropertyOp51
 70
     0
102
RTVSPropertyOp52
 70
     0
102
RTVSPropertyOp53
 70
     1
102
RTVSPropertyOp54
 70
     1
102
RTVSPropertyOp55
 70
     1
102
RTVSPropertyOp56
 70
     1
102
RTVSPropertyOp57
 70
     1
102
RTVSPost2010Prop28
280
     0
102
RTVSPost2010PropOp28
 70
     1
102
RTVSPost2010Prop29
280
     1
102
RTVSPost2010PropOp29
 70
     1
102
RTVSPost2010Prop30
280
     1
102
RTVSPost2010PropOp30
 70
     1
102
RTVSPost2010Prop31
280
     0
102
RTVSPost2010PropOp31
 70
     1
102
RTVSPost2010Prop32
280
     0
102
RTVSPost2010PropOp32
 70
     1
102
RTVSPost2010Prop33
280
     0
102
RTVSPost2010PropOp33
 70
     1
102
RTVSPost2010Prop34
280
     0
102
RTVSPost2010PropOp34
 70
     1
102
RTVSPost2010Prop35
280
     0
102
RTVSPost2010PropOp35
 70
     1
102
RTVSPost2010Prop36
280
     0
102
RTVSPost2010PropOp36
 70
     1
102
RTVSPost2010Prop37
 90
       50
102
RTVSPost2010PropOp37
 70
     1
102
RTVSPost2010Prop38
140
0.0
102
RTVSPost2010PropOp38
 70
     1
102
RTVSPost2010Prop39
140
1.0
102
RTVSPost2010PropOp39
 70
     1
102
RTVSPost2010Prop40
 90
        0
102
RTVSPost2010PropOp40
 70
     1
102
RTVSPost2010Prop41ColorIndex
 90
       18
102
RTVSPost2010Prop41ColorRGB
 90
        0
102
RTVSPost2010PropOp41
 70
     1
102
RTVSPost2010Prop42
 90
       50
102
RTVSPost2010PropOp42
 70
     1
102
RTVSPost2010Prop43
 90
        3
102
RTVSPost2010PropOp43
 70
     1
102
RTVSPost2010Prop44ColorIndex
 90
        5
102
RTVSPost2010Prop44ColorRGB
 90
      255
102
RTVSPost2010PropOp44
 70
     1
102
RTVSPost2010Prop45
280
     0
102
RTVSPost2010PropOp45
 70
     1
102
RTVSPost2010Prop46
 90
       50
102
RTVSPost2010PropOp46
 70
     1
102
RTVSPost2010Prop47
 90
       50
102
RTVSPost2010PropOp47
 70
     1
102
RTVSPost2010Prop48
 90
       50
102
RTVSPost2010PropOp48
 70
     1
102
RTVSPost2010Prop49
280
     0
102
RTVSPost2010PropOp49
 70
     1
102
RTVSPost2010Prop50
 90
       50
102
RTVSPost2010PropOp50
 70
     1
102
RTVSPost2010Prop51ColorIndex
 90
      256
102
RTVSPost2010Prop51ColorRGB
 90
-16777216
102
RTVSPost2010PropOp51
 70
     0
102
RTVSPost2010Prop52
140
1.0
102
RTVSPost2010PropOp52
 70
     0
102
RTVSPost2010Prop53
 90
        2
102
RTVSPost2010PropOp53
 70
     1
102
RTVSPost2010Prop54
  1
strokes_ogs.tif
102
RTVSPost2010PropOp54
 70
     1
102
RTVSPost2010Prop55
280
     0
102
RTVSPost2010PropOp55
 70
     1
102
RTVSPost2010Prop56
140
1.0
102
RTVSPost2010PropOp56
 70
     1
102
RTVSPost2010Prop57
140
1.0
102
RTVSPost2010PropOp57
 70
     1
  0
XRECORD
  5
366
102
{ACAD_REACTORS
330
365
102
}
330
365
100
AcDbXrecord
280
     1
102
RTVSPropertyOp0
 70
     1
102
RTVSPropertyOp1
 70
     1
102
RTVSPropertyOp2
 70
     1
102
RTVSPropertyOp3
 70
     1
102
RTVSPropertyOp4
 70
     1
102
RTVSPropertyOp5
 70
     1
102
RTVSPropertyOp6
 70
     1
102
RTVSPropertyOp7
 70
     1
102
RTVSPropertyOp8
 70
     1
102
RTVSPropertyOp9
 70
     1
102
RTVSPropertyOp10
 70
     1
102
RTVSPropertyOp11
 70
     1
102
RTVSPropertyOp12
 70
     1
102
RTVSPropertyOp13
 70
     1
102
RTVSPropertyOp14
 70
     1
102
RTVSPropertyOp15
 70
     1
102
RTVSPropertyOp16
 70
     1
102
RTVSPropertyOp17
 70
     1
102
RTVSPropertyOp18
 70
     1
102
RTVSPropertyOp19
 70
     1
102
RTVSPropertyOp20
 70
     1
102
RTVSPropertyOp21
 70
     1
102
RTVSPropertyOp22
 70
     1
102
RTVSPropertyOp23
 70
     1
102
RTVSPropertyOp24
 70
     1
102
RTVSPropertyOp25
 70
     1
102
RTVSPropertyOp26
 70
     1
102
RTVSPropertyOp27
 70
     1
102
RTVSPropertyOp28
 70
     1
102
RTVSPropertyOp29
 70
     1
102
RTVSPropertyOp30
 70
     1
102
RTVSPropertyOp31
 70
     1
102
RTVSPropertyOp32
 70
     1
102
RTVSPropertyOp33
 70
     1
102
RTVSPropertyOp34
 70
     1
102
RTVSPropertyOp35
 70
     1
102
RTVSPropertyOp36
 70
     1
102
RTVSPropertyOp37
 70
     1
102
RTVSPropertyOp38
 70
     1
102
RTVSPropertyOp39
 70
     1
102
RTVSPropertyOp40
 70
     1
102
RTVSPropertyOp41
 70
     1
102
RTVSPropertyOp42
 70
     1
102
RTVSPropertyOp43
 70
     1
102
RTVSPropertyOp44
 70
     1
102
RTVSPropertyOp45
 70
     1
102
RTVSPropertyOp46
 70
     1
102
RTVSPropertyOp47
 70
     1
102
RTVSPropertyOp48
 70
     1
102
RTVSPropertyOp49
 70
     1
102
RTVSPropertyOp50
 70
     1
102
RTVSPropertyOp51
 70
     0
102
RTVSPropertyOp52
 70
     0
102
RTVSPropertyOp53
 70
     1
102
RTVSPropertyOp54
 70
     1
102
RTVSPropertyOp55
 70
     1
102
RTVSPropertyOp56
 70
     1
102
RTVSPropertyOp57
 70
     1
102
RTVSPost2010Prop28
280
     0
102
RTVSPost2010PropOp28
 70
     1
102
RTVSPost2010Prop29
280
     1
102
RTVSPost2010PropOp29
 70
     1
102
RTVSPost2010Prop30
280
     1
102
RTVSPost2010PropOp30
 70
     1
102
RTVSPost2010Prop31
280
     0
102
RTVSPost2010PropOp31
 70
     1
102
RTVSPost2010Prop32
280
     0
102
RTVSPost2010PropOp32
 70
     1
102
RTVSPost2010Prop33
280
     0
102
RTVSPost2010PropOp33
 70
     1
102
RTVSPost2010Prop34
280
     0
102
RTVSPost2010PropOp34
 70
     1
102
RTVSPost2010Prop35
280
     0
102
RTVSPost2010PropOp35
 70
     1
102
RTVSPost2010Prop36
280
     0
102
RTVSPost2010PropOp36
 70
     1
102
RTVSPost2010Prop37
 90
       50
102
RTVSPost2010PropOp37
 70
     1
102
RTVSPost2010Prop38
140
0.0
102
RTVSPost2010PropOp38
 70
     1
102
RTVSPost2010Prop39
140
1.0
102
RTVSPost2010PropOp39
 70
     1
102
RTVSPost2010Prop40
 90
        0
102
RTVSPost2010PropOp40
 70
     1
102
RTVSPost2010Prop41ColorIndex
 90
       18
102
RTVSPost2010Prop41ColorRGB
 90
        0
102
RTVSPost2010PropOp41
 70
     1
102
RTVSPost2010Prop42
 90
       50
102
RTVSPost2010PropOp42
 70
     1
102
RTVSPost2010Prop43
 90
        3
102
RTVSPost2010PropOp43
 70
     1
102
RTVSPost2010Prop44ColorIndex
 90
        5
102
RTVSPost2010Prop44ColorRGB
 90
      255
102
RTVSPost2010PropOp44
 70
     1
102
RTVSPost2010Prop45
280
     0
102
RTVSPost2010PropOp45
 70
     1
102
RTVSPost2010Prop46
 90
       50
102
RTVSPost2010PropOp46
 70
     1
102
RTVSPost2010Prop47
 90
       50
102
RTVSPost2010PropOp47
 70
     1
102
RTVSPost2010Prop48
 90
       50
102
RTVSPost2010PropOp48
 70
     1
102
RTVSPost2010Prop49
280
     0
102
RTVSPost2010PropOp49
 70
     1
102
RTVSPost2010Prop50
 90
       50
102
RTVSPost2010PropOp50
 70
     1
102
RTVSPost2010Prop51ColorIndex
 90
      256
102
RTVSPost2010Prop51ColorRGB
 90
-16777216
102
RTVSPost2010PropOp51
 70
     0
102
RTVSPost2010Prop52
140
1.0
102
RTVSPost2010PropOp52
 70
     0
102
RTVSPost2010Prop53
 90
        2
102
RTVSPost2010PropOp53
 70
     1
102
RTVSPost2010Prop54
  1
strokes_ogs.tif
102
RTVSPost2010PropOp54
 70
     1
102
RTVSPost2010Prop55
280
     0
102
RTVSPost2010PropOp55
 70
     1
102
RTVSPost2010Prop56
140
1.0
102
RTVSPost2010PropOp56
 70
     1
102
RTVSPost2010Prop57
140
1.0
102
RTVSPost2010PropOp57
 70
     1
  0
XRECORD
  5
368
102
{ACAD_REACTORS
330
367
102
}
330
367
100
AcDbXrecord
280
     1
102
RTVSPropertyOp0
 70
     1
102
RTVSPropertyOp1
 70
     1
102
RTVSPropertyOp2
 70
     1
102
RTVSPropertyOp3
 70
     1
102
RTVSPropertyOp4
 70
     1
102
RTVSPropertyOp5
 70
     1
102
RTVSPropertyOp6
 70
     1
102
RTVSPropertyOp7
 70
     1
102
RTVSPropertyOp8
 70
     1
102
RTVSPropertyOp9
 70
     1
102
RTVSPropertyOp10
 70
     1
102
RTVSPropertyOp11
 70
     1
102
RTVSPropertyOp12
 70
     1
102
RTVSPropertyOp13
 70
     1
102
RTVSPropertyOp14
 70
     1
102
RTVSPropertyOp15
 70
     1
102
RTVSPropertyOp16
 70
     1
102
RTVSPropertyOp17
 70
     1
102
RTVSPropertyOp18
 70
     1
102
RTVSPropertyOp19
 70
     1
102
RTVSPropertyOp20
 70
     1
102
RTVSPropertyOp21
 70
     1
102
RTVSPropertyOp22
 70
     1
102
RTVSPropertyOp23
 70
     1
102
RTVSPropertyOp24
 70
     1
102
RTVSPropertyOp25
 70
     1
102
RTVSPropertyOp26
 70
     1
102
RTVSPropertyOp27
 70
     1
102
RTVSPropertyOp28
 70
     1
102
RTVSPropertyOp29
 70
     1
102
RTVSPropertyOp30
 70
     1
102
RTVSPropertyOp31
 70
     1
102
RTVSPropertyOp32
 70
     1
102
RTVSPropertyOp33
 70
     1
102
RTVSPropertyOp34
 70
     1
102
RTVSPropertyOp35
 70
     1
102
RTVSPropertyOp36
 70
     1
102
RTVSPropertyOp37
 70
     1
102
RTVSPropertyOp38
 70
     1
102
RTVSPropertyOp39
 70
     1
102
RTVSPropertyOp40
 70
     1
102
RTVSPropertyOp41
 70
     1
102
RTVSPropertyOp42
 70
     1
102
RTVSPropertyOp43
 70
     1
102
RTVSPropertyOp44
 70
     1
102
RTVSPropertyOp45
 70
     1
102
RTVSPropertyOp46
 70
     1
102
RTVSPropertyOp47
 70
     1
102
RTVSPropertyOp48
 70
     1
102
RTVSPropertyOp49
 70
     1
102
RTVSPropertyOp50
 70
     1
102
RTVSPropertyOp51
 70
     0
102
RTVSPropertyOp52
 70
     0
102
RTVSPropertyOp53
 70
     1
102
RTVSPropertyOp54
 70
     1
102
RTVSPropertyOp55
 70
     1
102
RTVSPropertyOp56
 70
     1
102
RTVSPropertyOp57
 70
     1
102
RTVSPost2010Prop28
280
     0
102
RTVSPost2010PropOp28
 70
     1
102
RTVSPost2010Prop29
280
     1
102
RTVSPost2010PropOp29
 70
     1
102
RTVSPost2010Prop30
280
     1
102
RTVSPost2010PropOp30
 70
     1
102
RTVSPost2010Prop31
280
     0
102
RTVSPost2010PropOp31
 70
     1
102
RTVSPost2010Prop32
280
     0
102
RTVSPost2010PropOp32
 70
     1
102
RTVSPost2010Prop33
280
     0
102
RTVSPost2010PropOp33
 70
     1
102
RTVSPost2010Prop34
280
     0
102
RTVSPost2010PropOp34
 70
     1
102
RTVSPost2010Prop35
280
     0
102
RTVSPost2010PropOp35
 70
     1
102
RTVSPost2010Prop36
280
     0
102
RTVSPost2010PropOp36
 70
     1
102
RTVSPost2010Prop37
 90
       50
102
RTVSPost2010PropOp37
 70
     1
102
RTVSPost2010Prop38
140
0.0
102
RTVSPost2010PropOp38
 70
     1
102
RTVSPost2010Prop39
140
1.0
102
RTVSPost2010PropOp39
 70
     1
102
RTVSPost2010Prop40
 90
        0
102
RTVSPost2010PropOp40
 70
     1
102
RTVSPost2010Prop41ColorIndex
 90
       18
102
RTVSPost2010Prop41ColorRGB
 90
        0
102
RTVSPost2010PropOp41
 70
     1
102
RTVSPost2010Prop42
 90
       50
102
RTVSPost2010PropOp42
 70
     1
102
RTVSPost2010Prop43
 90
        3
102
RTVSPost2010PropOp43
 70
     1
102
RTVSPost2010Prop44ColorIndex
 90
        5
102
RTVSPost2010Prop44ColorRGB
 90
      255
102
RTVSPost2010PropOp44
 70
     1
102
RTVSPost2010Prop45
280
     0
102
RTVSPost2010PropOp45
 70
     1
102
RTVSPost2010Prop46
 90
       50
102
RTVSPost2010PropOp46
 70
     1
102
RTVSPost2010Prop47
 90
       50
102
RTVSPost2010PropOp47
 70
     1
102
RTVSPost2010Prop48
 90
       50
102
RTVSPost2010PropOp48
 70
     1
102
RTVSPost2010Prop49
280
     0
102
RTVSPost2010PropOp49
 70
     1
102
RTVSPost2010Prop50
 90
       50
102
RTVSPost2010PropOp50
 70
     1
102
RTVSPost2010Prop51ColorIndex
 90
      256
102
RTVSPost2010Prop51ColorRGB
 90
-16777216
102
RTVSPost2010PropOp51
 70
     0
102
RTVSPost2010Prop52
140
1.0
102
RTVSPost2010PropOp52
 70
     0
102
RTVSPost2010Prop53
 90
        2
102
RTVSPost2010PropOp53
 70
     1
102
RTVSPost2010Prop54
  1
strokes_ogs.tif
102
RTVSPost2010PropOp54
 70
     1
102
RTVSPost2010Prop55
280
     0
102
RTVSPost2010PropOp55
 70
     1
102
RTVSPost2010Prop56
140
1.0
102
RTVSPost2010PropOp56
 70
     1
102
RTVSPost2010Prop57
140
1.0
102
RTVSPost2010PropOp57
 70
     1
  0
XRECORD
  5
378
102
{ACAD_REACTORS
330
377
102
}
330
377
100
AcDbXrecord
280
     1
102
RTVSPropertyOp0
 70
     0
102
RTVSPropertyOp1
 70
     0
102
RTVSPropertyOp2
 70
     0
102
RTVSPropertyOp3
 70
     0
102
RTVSPropertyOp4
 70
     0
102
RTVSPropertyOp5
 70
     0
102
RTVSPropertyOp6
 70
     0
102
RTVSPropertyOp7
 70
     0
102
RTVSPropertyOp8
 70
     0
102
RTVSPropertyOp9
 70
     0
102
RTVSPropertyOp10
 70
     0
102
RTVSPropertyOp11
 70
     0
102
RTVSPropertyOp12
 70
     0
102
RTVSPropertyOp13
 70
     0
102
RTVSPropertyOp14
 70
     2
102
RTVSPropertyOp15
 70
     0
102
RTVSPropertyOp16
 70
     0
102
RTVSPropertyOp17
 70
     0
102
RTVSPropertyOp18
 70
     0
102
RTVSPropertyOp19
 70
     0
102
RTVSPropertyOp20
 70
     0
102
RTVSPropertyOp21
 70
     0
102
RTVSPropertyOp22
 70
     0
102
RTVSPropertyOp23
 70
     0
102
RTVSPropertyOp24
 70
     0
102
RTVSPropertyOp25
 70
     0
102
RTVSPropertyOp26
 70
     0
102
RTVSPropertyOp27
 70
     0
102
RTVSPropertyOp28
 70
     0
102
RTVSPropertyOp29
 70
     0
102
RTVSPropertyOp30
 70
     0
102
RTVSPropertyOp31
 70
     0
102
RTVSPropertyOp32
 70
     0
102
RTVSPropertyOp33
 70
     0
102
RTVSPropertyOp34
 70
     0
102
RTVSPropertyOp35
 70
     0
102
RTVSPropertyOp36
 70
     0
102
RTVSPropertyOp37
 70
     0
102
RTVSPropertyOp38
 70
     0
102
RTVSPropertyOp39
 70
     0
102
RTVSPropertyOp40
 70
     0
102
RTVSPropertyOp41
 70
     0
102
RTVSPropertyOp42
 70
     0
102
RTVSPropertyOp43
 70
     0
102
RTVSPropertyOp44
 70
     0
102
RTVSPropertyOp45
 70
     0
102
RTVSPropertyOp46
 70
     0
102
RTVSPropertyOp47
 70
     0
102
RTVSPropertyOp48
 70
     0
102
RTVSPropertyOp49
 70
     0
102
RTVSPropertyOp50
 70
     0
102
RTVSPropertyOp51
 70
     0
102
RTVSPropertyOp52
 70
     0
102
RTVSPropertyOp53
 70
     0
102
RTVSPropertyOp54
 70
     0
102
RTVSPropertyOp55
 70
     0
102
RTVSPropertyOp56
 70
     0
102
RTVSPropertyOp57
 70
     0
102
RTVSPost2010Prop28
280
     0
102
RTVSPost2010PropOp28
 70
     0
102
RTVSPost2010Prop29
280
     1
102
RTVSPost2010PropOp29
 70
     0
102
RTVSPost2010Prop30
280
     1
102
RTVSPost2010PropOp30
 70
     0
102
RTVSPost2010Prop31
280
     0
102
RTVSPost2010PropOp31
 70
     0
102
RTVSPost2010Prop32
280
     0
102
RTVSPost2010PropOp32
 70
     0
102
RTVSPost2010Prop33
280
     0
102
RTVSPost2010PropOp33
 70
     0
102
RTVSPost2010Prop34
280
     0
102
RTVSPost2010PropOp34
 70
     0
102
RTVSPost2010Prop35
280
     0
102
RTVSPost2010PropOp35
 70
     0
102
RTVSPost2010Prop36
280
     0
102
RTVSPost2010PropOp36
 70
     0
102
RTVSPost2010Prop37
 90
       50
102
RTVSPost2010PropOp37
 70
     0
102
RTVSPost2010Prop38
140
0.0
102
RTVSPost2010PropOp38
 70
     0
102
RTVSPost2010Prop39
140
1.0
102
RTVSPost2010PropOp39
 70
     0
102
RTVSPost2010Prop40
 90
        0
102
RTVSPost2010PropOp40
 70
     0
102
RTVSPost2010Prop41ColorIndex
 90
       18
102
RTVSPost2010Prop41ColorRGB
 90
        0
102
RTVSPost2010PropOp41
 70
     0
102
RTVSPost2010Prop42
 90
       50
102
RTVSPost2010PropOp42
 70
     0
102
RTVSPost2010Prop43
 90
        3
102
RTVSPost2010PropOp43
 70
     0
102
RTVSPost2010Prop44ColorIndex
 90
        5
102
RTVSPost2010Prop44ColorRGB
 90
      255
102
RTVSPost2010PropOp44
 70
     0
102
RTVSPost2010Prop45
280
     0
102
RTVSPost2010PropOp45
 70
     0
102
RTVSPost2010Prop46
 90
       50
102
RTVSPost2010PropOp46
 70
     0
102
RTVSPost2010Prop47
 90
       50
102
RTVSPost2010PropOp47
 70
     0
102
RTVSPost2010Prop48
 90
       50
102
RTVSPost2010PropOp48
 70
     0
102
RTVSPost2010Prop49
280
     0
102
RTVSPost2010PropOp49
 70
     0
102
RTVSPost2010Prop50
 90
       50
102
RTVSPost2010PropOp50
 70
     0
102
RTVSPost2010Prop51ColorIndex
 90
      256
102
RTVSPost2010Prop51ColorRGB
 90
-16777216
102
RTVSPost2010PropOp51
 70
     0
102
RTVSPost2010Prop52
140
1.0
102
RTVSPost2010PropOp52
 70
     0
102
RTVSPost2010Prop53
 90
        2
102
RTVSPost2010PropOp53
 70
     0
102
RTVSPost2010Prop54
  1
strokes_ogs.tif
102
RTVSPost2010PropOp54
 70
     0
102
RTVSPost2010Prop55
280
     0
102
RTVSPost2010PropOp55
 70
     0
102
RTVSPost2010Prop56
140
1.0
102
RTVSPost2010PropOp56
 70
     0
102
RTVSPost2010Prop57
140
1.0
102
RTVSPost2010PropOp57
 70
     0
  0
XRECORD
  5
370
102
{ACAD_REACTORS
330
36F
102
}
330
36F
100
AcDbXrecord
280
     1
102
RTVSPropertyOp0
 70
     1
102
RTVSPropertyOp1
 70
     1
102
RTVSPropertyOp2
 70
     1
102
RTVSPropertyOp3
 70
     1
102
RTVSPropertyOp4
 70
     1
102
RTVSPropertyOp5
 70
     1
102
RTVSPropertyOp6
 70
     1
102
RTVSPropertyOp7
 70
     1
102
RTVSPropertyOp8
 70
     1
102
RTVSPropertyOp9
 70
     1
102
RTVSPropertyOp10
 70
     1
102
RTVSPropertyOp11
 70
     1
102
RTVSPropertyOp12
 70
     1
102
RTVSPropertyOp13
 70
     1
102
RTVSPropertyOp14
 70
     1
102
RTVSPropertyOp15
 70
     1
102
RTVSPropertyOp16
 70
     1
102
RTVSPropertyOp17
 70
     1
102
RTVSPropertyOp18
 70
     1
102
RTVSPropertyOp19
 70
     1
102
RTVSPropertyOp20
 70
     1
102
RTVSPropertyOp21
 70
     1
102
RTVSPropertyOp22
 70
     1
102
RTVSPropertyOp23
 70
     1
102
RTVSPropertyOp24
 70
     1
102
RTVSPropertyOp25
 70
     1
102
RTVSPropertyOp26
 70
     1
102
RTVSPropertyOp27
 70
     1
102
RTVSPropertyOp28
 70
     1
102
RTVSPropertyOp29
 70
     1
102
RTVSPropertyOp30
 70
     1
102
RTVSPropertyOp31
 70
     1
102
RTVSPropertyOp32
 70
     1
102
RTVSPropertyOp33
 70
     1
102
RTVSPropertyOp34
 70
     1
102
RTVSPropertyOp35
 70
     1
102
RTVSPropertyOp36
 70
     1
102
RTVSPropertyOp37
 70
     1
102
RTVSPropertyOp38
 70
     1
102
RTVSPropertyOp39
 70
     1
102
RTVSPropertyOp40
 70
     1
102
RTVSPropertyOp41
 70
     1
102
RTVSPropertyOp42
 70
     1
102
RTVSPropertyOp43
 70
     1
102
RTVSPropertyOp44
 70
     1
102
RTVSPropertyOp45
 70
     1
102
RTVSPropertyOp46
 70
     1
102
RTVSPropertyOp47
 70
     1
102
RTVSPropertyOp48
 70
     1
102
RTVSPropertyOp49
 70
     1
102
RTVSPropertyOp50
 70
     1
102
RTVSPropertyOp51
 70
     0
102
RTVSPropertyOp52
 70
     0
102
RTVSPropertyOp53
 70
     1
102
RTVSPropertyOp54
 70
     1
102
RTVSPropertyOp55
 70
     1
102
RTVSPropertyOp56
 70
     1
102
RTVSPropertyOp57
 70
     1
102
RTVSPost2010Prop28
280
     0
102
RTVSPost2010PropOp28
 70
     1
102
RTVSPost2010Prop29
280
     1
102
RTVSPost2010PropOp29
 70
     1
102
RTVSPost2010Prop30
280
     1
102
RTVSPost2010PropOp30
 70
     1
102
RTVSPost2010Prop31
280
     0
102
RTVSPost2010PropOp31
 70
     1
102
RTVSPost2010Prop32
280
     0
102
RTVSPost2010PropOp32
 70
     1
102
RTVSPost2010Prop33
280
     0
102
RTVSPost2010PropOp33
 70
     1
102
RTVSPost2010Prop34
280
     0
102
RTVSPost2010PropOp34
 70
     1
102
RTVSPost2010Prop35
280
     0
102
RTVSPost2010PropOp35
 70
     1
102
RTVSPost2010Prop36
280
     0
102
RTVSPost2010PropOp36
 70
     1
102
RTVSPost2010Prop37
 90
       50
102
RTVSPost2010PropOp37
 70
     1
102
RTVSPost2010Prop38
140
0.0
102
RTVSPost2010PropOp38
 70
     1
102
RTVSPost2010Prop39
140
1.0
102
RTVSPost2010PropOp39
 70
     1
102
RTVSPost2010Prop40
 90
        0
102
RTVSPost2010PropOp40
 70
     1
102
RTVSPost2010Prop41ColorIndex
 90
       18
102
RTVSPost2010Prop41ColorRGB
 90
        0
102
RTVSPost2010PropOp41
 70
     1
102
RTVSPost2010Prop42
 90
       50
102
RTVSPost2010PropOp42
 70
     1
102
RTVSPost2010Prop43
 90
        3
102
RTVSPost2010PropOp43
 70
     1
102
RTVSPost2010Prop44ColorIndex
 90
        5
102
RTVSPost2010Prop44ColorRGB
 90
      255
102
RTVSPost2010PropOp44
 70
     1
102
RTVSPost2010Prop45
280
     0
102
RTVSPost2010PropOp45
 70
     1
102
RTVSPost2010Prop46
 90
       50
102
RTVSPost2010PropOp46
 70
     1
102
RTVSPost2010Prop47
 90
       50
102
RTVSPost2010PropOp47
 70
     1
102
RTVSPost2010Prop48
 90
       50
102
RTVSPost2010PropOp48
 70
     1
102
RTVSPost2010Prop49
280
     0
102
RTVSPost2010PropOp49
 70
     1
102
RTVSPost2010Prop50
 90
       50
102
RTVSPost2010PropOp50
 70
     1
102
RTVSPost2010Prop51ColorIndex
 90
      256
102
RTVSPost2010Prop51ColorRGB
 90
-16777216
102
RTVSPost2010PropOp51
 70
     0
102
RTVSPost2010Prop52
140
1.0
102
RTVSPost2010PropOp52
 70
     0
102
RTVSPost2010Prop53
 90
        2
102
RTVSPost2010PropOp53
 70
     1
102
RTVSPost2010Prop54
  1
strokes_ogs.tif
102
RTVSPost2010PropOp54
 70
     1
102
RTVSPost2010Prop55
280
     0
102
RTVSPost2010PropOp55
 70
     1
102
RTVSPost2010Prop56
140
1.0
102
RTVSPost2010PropOp56
 70
     1
102
RTVSPost2010Prop57
140
1.0
102
RTVSPost2010PropOp57
 70
     1
  0
XRECORD
  5
354
102
{ACAD_REACTORS
330
353
102
}
330
353
100
AcDbXrecord
280
     1
102
RTVSPropertyOp0
 70
     1
102
RTVSPropertyOp1
 70
     1
102
RTVSPropertyOp2
 70
     1
102
RTVSPropertyOp3
 70
     1
102
RTVSPropertyOp4
 70
     1
102
RTVSPropertyOp5
 70
     1
102
RTVSPropertyOp6
 70
     1
102
RTVSPropertyOp7
 70
     1
102
RTVSPropertyOp8
 70
     1
102
RTVSPropertyOp9
 70
     1
102
RTVSPropertyOp10
 70
     1
102
RTVSPropertyOp11
 70
     1
102
RTVSPropertyOp12
 70
     1
102
RTVSPropertyOp13
 70
     1
102
RTVSPropertyOp14
 70
     1
102
RTVSPropertyOp15
 70
     1
102
RTVSPropertyOp16
 70
     1
102
RTVSPropertyOp17
 70
     1
102
RTVSPropertyOp18
 70
     1
102
RTVSPropertyOp19
 70
     1
102
RTVSPropertyOp20
 70
     1
102
RTVSPropertyOp21
 70
     1
102
RTVSPropertyOp22
 70
     1
102
RTVSPropertyOp23
 70
     1
102
RTVSPropertyOp24
 70
     1
102
RTVSPropertyOp25
 70
     1
102
RTVSPropertyOp26
 70
     1
102
RTVSPropertyOp27
 70
     1
102
RTVSPropertyOp28
 70
     1
102
RTVSPropertyOp29
 70
     1
102
RTVSPropertyOp30
 70
     1
102
RTVSPropertyOp31
 70
     1
102
RTVSPropertyOp32
 70
     1
102
RTVSPropertyOp33
 70
     1
102
RTVSPropertyOp34
 70
     1
102
RTVSPropertyOp35
 70
     1
102
RTVSPropertyOp36
 70
     1
102
RTVSPropertyOp37
 70
     1
102
RTVSPropertyOp38
 70
     1
102
RTVSPropertyOp39
 70
     1
102
RTVSPropertyOp40
 70
     1
102
RTVSPropertyOp41
 70
     1
102
RTVSPropertyOp42
 70
     1
102
RTVSPropertyOp43
 70
     1
102
RTVSPropertyOp44
 70
     1
102
RTVSPropertyOp45
 70
     1
102
RTVSPropertyOp46
 70
     1
102
RTVSPropertyOp47
 70
     1
102
RTVSPropertyOp48
 70
     1
102
RTVSPropertyOp49
 70
     1
102
RTVSPropertyOp50
 70
     1
102
RTVSPropertyOp51
 70
     0
102
RTVSPropertyOp52
 70
     0
102
RTVSPropertyOp53
 70
     1
102
RTVSPropertyOp54
 70
     1
102
RTVSPropertyOp55
 70
     1
102
RTVSPropertyOp56
 70
     1
102
RTVSPropertyOp57
 70
     1
102
RTVSPost2010Prop28
280
     0
102
RTVSPost2010PropOp28
 70
     1
102
RTVSPost2010Prop29
280
     1
102
RTVSPost2010PropOp29
 70
     1
102
RTVSPost2010Prop30
280
     1
102
RTVSPost2010PropOp30
 70
     1
102
RTVSPost2010Prop31
280
     0
102
RTVSPost2010PropOp31
 70
     1
102
RTVSPost2010Prop32
280
     0
102
RTVSPost2010PropOp32
 70
     1
102
RTVSPost2010Prop33
280
     0
102
RTVSPost2010PropOp33
 70
     1
102
RTVSPost2010Prop34
280
     0
102
RTVSPost2010PropOp34
 70
     1
102
RTVSPost2010Prop35
280
     0
102
RTVSPost2010PropOp35
 70
     1
102
RTVSPost2010Prop36
280
     0
102
RTVSPost2010PropOp36
 70
     1
102
RTVSPost2010Prop37
 90
       50
102
RTVSPost2010PropOp37
 70
     1
102
RTVSPost2010Prop38
140
0.0
102
RTVSPost2010PropOp38
 70
     1
102
RTVSPost2010Prop39
140
1.0
102
RTVSPost2010PropOp39
 70
     1
102
RTVSPost2010Prop40
 90
        0
102
RTVSPost2010PropOp40
 70
     1
102
RTVSPost2010Prop41ColorIndex
 90
       18
102
RTVSPost2010Prop41ColorRGB
 90
        0
102
RTVSPost2010PropOp41
 70
     1
102
RTVSPost2010Prop42
 90
       50
102
RTVSPost2010PropOp42
 70
     1
102
RTVSPost2010Prop43
 90
        3
102
RTVSPost2010PropOp43
 70
     1
102
RTVSPost2010Prop44ColorIndex
 90
        5
102
RTVSPost2010Prop44ColorRGB
 90
      255
102
RTVSPost2010PropOp44
 70
     1
102
RTVSPost2010Prop45
280
     0
102
RTVSPost2010PropOp45
 70
     1
102
RTVSPost2010Prop46
 90
       50
102
RTVSPost2010PropOp46
 70
     1
102
RTVSPost2010Prop47
 90
       50
102
RTVSPost2010PropOp47
 70
     1
102
RTVSPost2010Prop48
 90
       50
102
RTVSPost2010PropOp48
 70
     1
102
RTVSPost2010Prop49
280
     0
102
RTVSPost2010PropOp49
 70
     1
102
RTVSPost2010Prop50
 90
       50
102
RTVSPost2010PropOp50
 70
     1
102
RTVSPost2010Prop51ColorIndex
 90
      256
102
RTVSPost2010Prop51ColorRGB
 90
-16777216
102
RTVSPost2010PropOp51
 70
     0
102
RTVSPost2010Prop52
140
1.0
102
RTVSPost2010PropOp52
 70
     0
102
RTVSPost2010Prop53
 90
        2
102
RTVSPost2010PropOp53
 70
     1
102
RTVSPost2010Prop54
  1
strokes_ogs.tif
102
RTVSPost2010PropOp54
 70
     1
102
RTVSPost2010Prop55
280
     0
102
RTVSPost2010PropOp55
 70
     1
102
RTVSPost2010Prop56
140
1.0
102
RTVSPost2010PropOp56
 70
     1
102
RTVSPost2010Prop57
140
1.0
102
RTVSPost2010PropOp57
 70
     1
  0
XRECORD
  5
356
102
{ACAD_REACTORS
330
355
102
}
330
355
100
AcDbXrecord
280
     1
102
RTVSPropertyOp0
 70
     1
102
RTVSPropertyOp1
 70
     1
102
RTVSPropertyOp2
 70
     1
102
RTVSPropertyOp3
 70
     1
102
RTVSPropertyOp4
 70
     1
102
RTVSPropertyOp5
 70
     1
102
RTVSPropertyOp6
 70
     1
102
RTVSPropertyOp7
 70
     1
102
RTVSPropertyOp8
 70
     1
102
RTVSPropertyOp9
 70
     1
102
RTVSPropertyOp10
 70
     1
102
RTVSPropertyOp11
 70
     1
102
RTVSPropertyOp12
 70
     1
102
RTVSPropertyOp13
 70
     1
102
RTVSPropertyOp14
 70
     1
102
RTVSPropertyOp15
 70
     1
102
RTVSPropertyOp16
 70
     1
102
RTVSPropertyOp17
 70
     1
102
RTVSPropertyOp18
 70
     1
102
RTVSPropertyOp19
 70
     1
102
RTVSPropertyOp20
 70
     1
102
RTVSPropertyOp21
 70
     1
102
RTVSPropertyOp22
 70
     1
102
RTVSPropertyOp23
 70
     1
102
RTVSPropertyOp24
 70
     1
102
RTVSPropertyOp25
 70
     1
102
RTVSPropertyOp26
 70
     1
102
RTVSPropertyOp27
 70
     1
102
RTVSPropertyOp28
 70
     1
102
RTVSPropertyOp29
 70
     1
102
RTVSPropertyOp30
 70
     1
102
RTVSPropertyOp31
 70
     1
102
RTVSPropertyOp32
 70
     1
102
RTVSPropertyOp33
 70
     1
102
RTVSPropertyOp34
 70
     1
102
RTVSPropertyOp35
 70
     1
102
RTVSPropertyOp36
 70
     1
102
RTVSPropertyOp37
 70
     1
102
RTVSPropertyOp38
 70
     1
102
RTVSPropertyOp39
 70
     1
102
RTVSPropertyOp40
 70
     1
102
RTVSPropertyOp41
 70
     1
102
RTVSPropertyOp42
 70
     1
102
RTVSPropertyOp43
 70
     1
102
RTVSPropertyOp44
 70
     1
102
RTVSPropertyOp45
 70
     1
102
RTVSPropertyOp46
 70
     1
102
RTVSPropertyOp47
 70
     1
102
RTVSPropertyOp48
 70
     1
102
RTVSPropertyOp49
 70
     1
102
RTVSPropertyOp50
 70
     1
102
RTVSPropertyOp51
 70
     0
102
RTVSPropertyOp52
 70
     0
102
RTVSPropertyOp53
 70
     1
102
RTVSPropertyOp54
 70
     1
102
RTVSPropertyOp55
 70
     1
102
RTVSPropertyOp56
 70
     1
102
RTVSPropertyOp57
 70
     1
102
RTVSPost2010Prop28
280
     0
102
RTVSPost2010PropOp28
 70
     1
102
RTVSPost2010Prop29
280
     1
102
RTVSPost2010PropOp29
 70
     1
102
RTVSPost2010Prop30
280
     1
102
RTVSPost2010PropOp30
 70
     1
102
RTVSPost2010Prop31
280
     0
102
RTVSPost2010PropOp31
 70
     1
102
RTVSPost2010Prop32
280
     0
102
RTVSPost2010PropOp32
 70
     1
102
RTVSPost2010Prop33
280
     0
102
RTVSPost2010PropOp33
 70
     1
102
RTVSPost2010Prop34
280
     0
102
RTVSPost2010PropOp34
 70
     1
102
RTVSPost2010Prop35
280
     0
102
RTVSPost2010PropOp35
 70
     1
102
RTVSPost2010Prop36
280
     0
102
RTVSPost2010PropOp36
 70
     1
102
RTVSPost2010Prop37
 90
       50
102
RTVSPost2010PropOp37
 70
     1
102
RTVSPost2010Prop38
140
0.0
102
RTVSPost2010PropOp38
 70
     1
102
RTVSPost2010Prop39
140
1.0
102
RTVSPost2010PropOp39
 70
     1
102
RTVSPost2010Prop40
 90
        0
102
RTVSPost2010PropOp40
 70
     1
102
RTVSPost2010Prop41ColorIndex
 90
       18
102
RTVSPost2010Prop41ColorRGB
 90
        0
102
RTVSPost2010PropOp41
 70
     1
102
RTVSPost2010Prop42
 90
       50
102
RTVSPost2010PropOp42
 70
     1
102
RTVSPost2010Prop43
 90
        3
102
RTVSPost2010PropOp43
 70
     1
102
RTVSPost2010Prop44ColorIndex
 90
        5
102
RTVSPost2010Prop44ColorRGB
 90
      255
102
RTVSPost2010PropOp44
 70
     1
102
RTVSPost2010Prop45
280
     0
102
RTVSPost2010PropOp45
 70
     1
102
RTVSPost2010Prop46
 90
       50
102
RTVSPost2010PropOp46
 70
     1
102
RTVSPost2010Prop47
 90
       50
102
RTVSPost2010PropOp47
 70
     1
102
RTVSPost2010Prop48
 90
       50
102
RTVSPost2010PropOp48
 70
     1
102
RTVSPost2010Prop49
280
     0
102
RTVSPost2010PropOp49
 70
     1
102
RTVSPost2010Prop50
 90
       50
102
RTVSPost2010PropOp50
 70
     1
102
RTVSPost2010Prop51ColorIndex
 90
      256
102
RTVSPost2010Prop51ColorRGB
 90
-16777216
102
RTVSPost2010PropOp51
 70
     0
102
RTVSPost2010Prop52
140
1.0
102
RTVSPost2010PropOp52
 70
     0
102
RTVSPost2010Prop53
 90
        2
102
RTVSPost2010PropOp53
 70
     1
102
RTVSPost2010Prop54
  1
strokes_ogs.tif
102
RTVSPost2010PropOp54
 70
     1
102
RTVSPost2010Prop55
280
     0
102
RTVSPost2010PropOp55
 70
     1
102
RTVSPost2010Prop56
140
1.0
102
RTVSPost2010PropOp56
 70
     1
102
RTVSPost2010Prop57
140
1.0
102
RTVSPost2010PropOp57
 70
     1
  0
XRECORD
  5
358
102
{ACAD_REACTORS
330
357
102
}
330
357
100
AcDbXrecord
280
     1
102
RTVSPropertyOp0
 70
     1
102
RTVSPropertyOp1
 70
     1
102
RTVSPropertyOp2
 70
     1
102
RTVSPropertyOp3
 70
     1
102
RTVSPropertyOp4
 70
     1
102
RTVSPropertyOp5
 70
     1
102
RTVSPropertyOp6
 70
     1
102
RTVSPropertyOp7
 70
     1
102
RTVSPropertyOp8
 70
     1
102
RTVSPropertyOp9
 70
     1
102
RTVSPropertyOp10
 70
     1
102
RTVSPropertyOp11
 70
     1
102
RTVSPropertyOp12
 70
     1
102
RTVSPropertyOp13
 70
     1
102
RTVSPropertyOp14
 70
     1
102
RTVSPropertyOp15
 70
     1
102
RTVSPropertyOp16
 70
     1
102
RTVSPropertyOp17
 70
     1
102
RTVSPropertyOp18
 70
     1
102
RTVSPropertyOp19
 70
     1
102
RTVSPropertyOp20
 70
     1
102
RTVSPropertyOp21
 70
     1
102
RTVSPropertyOp22
 70
     1
102
RTVSPropertyOp23
 70
     1
102
RTVSPropertyOp24
 70
     1
102
RTVSPropertyOp25
 70
     1
102
RTVSPropertyOp26
 70
     1
102
RTVSPropertyOp27
 70
     1
102
RTVSPropertyOp28
 70
     1
102
RTVSPropertyOp29
 70
     1
102
RTVSPropertyOp30
 70
     1
102
RTVSPropertyOp31
 70
     1
102
RTVSPropertyOp32
 70
     1
102
RTVSPropertyOp33
 70
     1
102
RTVSPropertyOp34
 70
     1
102
RTVSPropertyOp35
 70
     1
102
RTVSPropertyOp36
 70
     1
102
RTVSPropertyOp37
 70
     1
102
RTVSPropertyOp38
 70
     1
102
RTVSPropertyOp39
 70
     1
102
RTVSPropertyOp40
 70
     1
102
RTVSPropertyOp41
 70
     1
102
RTVSPropertyOp42
 70
     1
102
RTVSPropertyOp43
 70
     1
102
RTVSPropertyOp44
 70
     1
102
RTVSPropertyOp45
 70
     1
102
RTVSPropertyOp46
 70
     1
102
RTVSPropertyOp47
 70
     1
102
RTVSPropertyOp48
 70
     1
102
RTVSPropertyOp49
 70
     1
102
RTVSPropertyOp50
 70
     1
102
RTVSPropertyOp51
 70
     0
102
RTVSPropertyOp52
 70
     0
102
RTVSPropertyOp53
 70
     1
102
RTVSPropertyOp54
 70
     1
102
RTVSPropertyOp55
 70
     1
102
RTVSPropertyOp56
 70
     1
102
RTVSPropertyOp57
 70
     1
102
RTVSPost2010Prop28
280
     0
102
RTVSPost2010PropOp28
 70
     1
102
RTVSPost2010Prop29
280
     1
102
RTVSPost2010PropOp29
 70
     1
102
RTVSPost2010Prop30
280
     1
102
RTVSPost2010PropOp30
 70
     1
102
RTVSPost2010Prop31
280
     0
102
RTVSPost2010PropOp31
 70
     1
102
RTVSPost2010Prop32
280
     0
102
RTVSPost2010PropOp32
 70
     1
102
RTVSPost2010Prop33
280
     0
102
RTVSPost2010PropOp33
 70
     1
102
RTVSPost2010Prop34
280
     0
102
RTVSPost2010PropOp34
 70
     1
102
RTVSPost2010Prop35
280
     0
102
RTVSPost2010PropOp35
 70
     1
102
RTVSPost2010Prop36
280
     0
102
RTVSPost2010PropOp36
 70
     1
102
RTVSPost2010Prop37
 90
       50
102
RTVSPost2010PropOp37
 70
     1
102
RTVSPost2010Prop38
140
0.0
102
RTVSPost2010PropOp38
 70
     1
102
RTVSPost2010Prop39
140
1.0
102
RTVSPost2010PropOp39
 70
     1
102
RTVSPost2010Prop40
 90
        0
102
RTVSPost2010PropOp40
 70
     1
102
RTVSPost2010Prop41ColorIndex
 90
       18
102
RTVSPost2010Prop41ColorRGB
 90
        0
102
RTVSPost2010PropOp41
 70
     1
102
RTVSPost2010Prop42
 90
       50
102
RTVSPost2010PropOp42
 70
     1
102
RTVSPost2010Prop43
 90
        3
102
RTVSPost2010PropOp43
 70
     1
102
RTVSPost2010Prop44ColorIndex
 90
        5
102
RTVSPost2010Prop44ColorRGB
 90
      255
102
RTVSPost2010PropOp44
 70
     1
102
RTVSPost2010Prop45
280
     0
102
RTVSPost2010PropOp45
 70
     1
102
RTVSPost2010Prop46
 90
       50
102
RTVSPost2010PropOp46
 70
     1
102
RTVSPost2010Prop47
 90
       50
102
RTVSPost2010PropOp47
 70
     1
102
RTVSPost2010Prop48
 90
       50
102
RTVSPost2010PropOp48
 70
     1
102
RTVSPost2010Prop49
280
     0
102
RTVSPost2010PropOp49
 70
     1
102
RTVSPost2010Prop50
 90
       50
102
RTVSPost2010PropOp50
 70
     1
102
RTVSPost2010Prop51ColorIndex
 90
      256
102
RTVSPost2010Prop51ColorRGB
 90
-16777216
102
RTVSPost2010PropOp51
 70
     0
102
RTVSPost2010Prop52
140
1.0
102
RTVSPost2010PropOp52
 70
     0
102
RTVSPost2010Prop53
 90
        2
102
RTVSPost2010PropOp53
 70
     1
102
RTVSPost2010Prop54
  1
strokes_ogs.tif
102
RTVSPost2010PropOp54
 70
     1
102
RTVSPost2010Prop55
280
     0
102
RTVSPost2010PropOp55
 70
     1
102
RTVSPost2010Prop56
140
1.0
102
RTVSPost2010PropOp56
 70
     1
102
RTVSPost2010Prop57
140
1.0
102
RTVSPost2010PropOp57
 70
     1
  0
XRECORD
  5
35A
102
{ACAD_REACTORS
330
359
102
}
330
359
100
AcDbXrecord
280
     1
102
RTVSPropertyOp0
 70
     1
102
RTVSPropertyOp1
 70
     1
102
RTVSPropertyOp2
 70
     1
102
RTVSPropertyOp3
 70
     1
102
RTVSPropertyOp4
 70
     1
102
RTVSPropertyOp5
 70
     1
102
RTVSPropertyOp6
 70
     1
102
RTVSPropertyOp7
 70
     1
102
RTVSPropertyOp8
 70
     1
102
RTVSPropertyOp9
 70
     1
102
RTVSPropertyOp10
 70
     1
102
RTVSPropertyOp11
 70
     1
102
RTVSPropertyOp12
 70
     1
102
RTVSPropertyOp13
 70
     1
102
RTVSPropertyOp14
 70
     1
102
RTVSPropertyOp15
 70
     1
102
RTVSPropertyOp16
 70
     1
102
RTVSPropertyOp17
 70
     1
102
RTVSPropertyOp18
 70
     1
102
RTVSPropertyOp19
 70
     1
102
RTVSPropertyOp20
 70
     1
102
RTVSPropertyOp21
 70
     1
102
RTVSPropertyOp22
 70
     1
102
RTVSPropertyOp23
 70
     1
102
RTVSPropertyOp24
 70
     1
102
RTVSPropertyOp25
 70
     1
102
RTVSPropertyOp26
 70
     1
102
RTVSPropertyOp27
 70
     1
102
RTVSPropertyOp28
 70
     1
102
RTVSPropertyOp29
 70
     1
102
RTVSPropertyOp30
 70
     1
102
RTVSPropertyOp31
 70
     1
102
RTVSPropertyOp32
 70
     1
102
RTVSPropertyOp33
 70
     1
102
RTVSPropertyOp34
 70
     1
102
RTVSPropertyOp35
 70
     1
102
RTVSPropertyOp36
 70
     1
102
RTVSPropertyOp37
 70
     1
102
RTVSPropertyOp38
 70
     1
102
RTVSPropertyOp39
 70
     1
102
RTVSPropertyOp40
 70
     1
102
RTVSPropertyOp41
 70
     1
102
RTVSPropertyOp42
 70
     1
102
RTVSPropertyOp43
 70
     1
102
RTVSPropertyOp44
 70
     1
102
RTVSPropertyOp45
 70
     1
102
RTVSPropertyOp46
 70
     1
102
RTVSPropertyOp47
 70
     1
102
RTVSPropertyOp48
 70
     1
102
RTVSPropertyOp49
 70
     1
102
RTVSPropertyOp50
 70
     1
102
RTVSPropertyOp51
 70
     0
102
RTVSPropertyOp52
 70
     0
102
RTVSPropertyOp53
 70
     1
102
RTVSPropertyOp54
 70
     1
102
RTVSPropertyOp55
 70
     1
102
RTVSPropertyOp56
 70
     1
102
RTVSPropertyOp57
 70
     1
102
RTVSPost2010Prop28
280
     0
102
RTVSPost2010PropOp28
 70
     1
102
RTVSPost2010Prop29
280
     1
102
RTVSPost2010PropOp29
 70
     1
102
RTVSPost2010Prop30
280
     1
102
RTVSPost2010PropOp30
 70
     1
102
RTVSPost2010Prop31
280
     0
102
RTVSPost2010PropOp31
 70
     1
102
RTVSPost2010Prop32
280
     0
102
RTVSPost2010PropOp32
 70
     1
102
RTVSPost2010Prop33
280
     0
102
RTVSPost2010PropOp33
 70
     1
102
RTVSPost2010Prop34
280
     0
102
RTVSPost2010PropOp34
 70
     1
102
RTVSPost2010Prop35
280
     0
102
RTVSPost2010PropOp35
 70
     1
102
RTVSPost2010Prop36
280
     0
102
RTVSPost2010PropOp36
 70
     1
102
RTVSPost2010Prop37
 90
       50
102
RTVSPost2010PropOp37
 70
     1
102
RTVSPost2010Prop38
140
0.0
102
RTVSPost2010PropOp38
 70
     1
102
RTVSPost2010Prop39
140
1.0
102
RTVSPost2010PropOp39
 70
     1
102
RTVSPost2010Prop40
 90
        0
102
RTVSPost2010PropOp40
 70
     1
102
RTVSPost2010Prop41ColorIndex
 90
       18
102
RTVSPost2010Prop41ColorRGB
 90
        0
102
RTVSPost2010PropOp41
 70
     1
102
RTVSPost2010Prop42
 90
       50
102
RTVSPost2010PropOp42
 70
     1
102
RTVSPost2010Prop43
 90
        3
102
RTVSPost2010PropOp43
 70
     1
102
RTVSPost2010Prop44ColorIndex
 90
        5
102
RTVSPost2010Prop44ColorRGB
 90
      255
102
RTVSPost2010PropOp44
 70
     1
102
RTVSPost2010Prop45
280
     0
102
RTVSPost2010PropOp45
 70
     1
102
RTVSPost2010Prop46
 90
       50
102
RTVSPost2010PropOp46
 70
     1
102
RTVSPost2010Prop47
 90
       50
102
RTVSPost2010PropOp47
 70
     1
102
RTVSPost2010Prop48
 90
       50
102
RTVSPost2010PropOp48
 70
     1
102
RTVSPost2010Prop49
280
     0
102
RTVSPost2010PropOp49
 70
     1
102
RTVSPost2010Prop50
 90
       50
102
RTVSPost2010PropOp50
 70
     1
102
RTVSPost2010Prop51ColorIndex
 90
      256
102
RTVSPost2010Prop51ColorRGB
 90
-16777216
102
RTVSPost2010PropOp51
 70
     0
102
RTVSPost2010Prop52
140
1.0
102
RTVSPost2010PropOp52
 70
     0
102
RTVSPost2010Prop53
 90
        2
102
RTVSPost2010PropOp53
 70
     1
102
RTVSPost2010Prop54
  1
strokes_ogs.tif
102
RTVSPost2010PropOp54
 70
     1
102
RTVSPost2010Prop55
280
     0
102
RTVSPost2010PropOp55
 70
     1
102
RTVSPost2010Prop56
140
1.0
102
RTVSPost2010PropOp56
 70
     1
102
RTVSPost2010Prop57
140
1.0
102
RTVSPost2010PropOp57
 70
     1
  0
XRECORD
  5
360
102
{ACAD_REACTORS
330
35F
102
}
330
35F
100
AcDbXrecord
280
     1
102
RTVSPropertyOp0
 70
     1
102
RTVSPropertyOp1
 70
     1
102
RTVSPropertyOp2
 70
     1
102
RTVSPropertyOp3
 70
     1
102
RTVSPropertyOp4
 70
     1
102
RTVSPropertyOp5
 70
     1
102
RTVSPropertyOp6
 70
     1
102
RTVSPropertyOp7
 70
     1
102
RTVSPropertyOp8
 70
     1
102
RTVSPropertyOp9
 70
     1
102
RTVSPropertyOp10
 70
     1
102
RTVSPropertyOp11
 70
     1
102
RTVSPropertyOp12
 70
     1
102
RTVSPropertyOp13
 70
     1
102
RTVSPropertyOp14
 70
     1
102
RTVSPropertyOp15
 70
     1
102
RTVSPropertyOp16
 70
     1
102
RTVSPropertyOp17
 70
     1
102
RTVSPropertyOp18
 70
     1
102
RTVSPropertyOp19
 70
     1
102
RTVSPropertyOp20
 70
     1
102
RTVSPropertyOp21
 70
     1
102
RTVSPropertyOp22
 70
     1
102
RTVSPropertyOp23
 70
     1
102
RTVSPropertyOp24
 70
     1
102
RTVSPropertyOp25
 70
     1
102
RTVSPropertyOp26
 70
     1
102
RTVSPropertyOp27
 70
     1
102
RTVSPropertyOp28
 70
     1
102
RTVSPropertyOp29
 70
     1
102
RTVSPropertyOp30
 70
     1
102
RTVSPropertyOp31
 70
     1
102
RTVSPropertyOp32
 70
     1
102
RTVSPropertyOp33
 70
     1
102
RTVSPropertyOp34
 70
     1
102
RTVSPropertyOp35
 70
     1
102
RTVSPropertyOp36
 70
     1
102
RTVSPropertyOp37
 70
     1
102
RTVSPropertyOp38
 70
     1
102
RTVSPropertyOp39
 70
     1
102
RTVSPropertyOp40
 70
     1
102
RTVSPropertyOp41
 70
     1
102
RTVSPropertyOp42
 70
     1
102
RTVSPropertyOp43
 70
     1
102
RTVSPropertyOp44
 70
     1
102
RTVSPropertyOp45
 70
     1
102
RTVSPropertyOp46
 70
     1
102
RTVSPropertyOp47
 70
     1
102
RTVSPropertyOp48
 70
     1
102
RTVSPropertyOp49
 70
     1
102
RTVSPropertyOp50
 70
     1
102
RTVSPropertyOp51
 70
     0
102
RTVSPropertyOp52
 70
     0
102
RTVSPropertyOp53
 70
     1
102
RTVSPropertyOp54
 70
     1
102
RTVSPropertyOp55
 70
     1
102
RTVSPropertyOp56
 70
     1
102
RTVSPropertyOp57
 70
     1
102
RTVSPost2010Prop28
280
     0
102
RTVSPost2010PropOp28
 70
     1
102
RTVSPost2010Prop29
280
     1
102
RTVSPost2010PropOp29
 70
     1
102
RTVSPost2010Prop30
280
     1
102
RTVSPost2010PropOp30
 70
     1
102
RTVSPost2010Prop31
280
     0
102
RTVSPost2010PropOp31
 70
     1
102
RTVSPost2010Prop32
280
     0
102
RTVSPost2010PropOp32
 70
     1
102
RTVSPost2010Prop33
280
     0
102
RTVSPost2010PropOp33
 70
     1
102
RTVSPost2010Prop34
280
     0
102
RTVSPost2010PropOp34
 70
     1
102
RTVSPost2010Prop35
280
     0
102
RTVSPost2010PropOp35
 70
     1
102
RTVSPost2010Prop36
280
     0
102
RTVSPost2010PropOp36
 70
     1
102
RTVSPost2010Prop37
 90
       50
102
RTVSPost2010PropOp37
 70
     1
102
RTVSPost2010Prop38
140
0.0
102
RTVSPost2010PropOp38
 70
     1
102
RTVSPost2010Prop39
140
1.0
102
RTVSPost2010PropOp39
 70
     1
102
RTVSPost2010Prop40
 90
        0
102
RTVSPost2010PropOp40
 70
     1
102
RTVSPost2010Prop41ColorIndex
 90
       18
102
RTVSPost2010Prop41ColorRGB
 90
        0
102
RTVSPost2010PropOp41
 70
     1
102
RTVSPost2010Prop42
 90
       50
102
RTVSPost2010PropOp42
 70
     1
102
RTVSPost2010Prop43
 90
        3
102
RTVSPost2010PropOp43
 70
     1
102
RTVSPost2010Prop44ColorIndex
 90
        5
102
RTVSPost2010Prop44ColorRGB
 90
      255
102
RTVSPost2010PropOp44
 70
     1
102
RTVSPost2010Prop45
280
     0
102
RTVSPost2010PropOp45
 70
     1
102
RTVSPost2010Prop46
 90
       50
102
RTVSPost2010PropOp46
 70
     1
102
RTVSPost2010Prop47
 90
       50
102
RTVSPost2010PropOp47
 70
     1
102
RTVSPost2010Prop48
 90
       50
102
RTVSPost2010PropOp48
 70
     1
102
RTVSPost2010Prop49
280
     0
102
RTVSPost2010PropOp49
 70
     1
102
RTVSPost2010Prop50
 90
       50
102
RTVSPost2010PropOp50
 70
     1
102
RTVSPost2010Prop51ColorIndex
 90
      256
102
RTVSPost2010Prop51ColorRGB
 90
-16777216
102
RTVSPost2010PropOp51
 70
     0
102
RTVSPost2010Prop52
140
1.0
102
RTVSPost2010PropOp52
 70
     0
102
RTVSPost2010Prop53
 90
        2
102
RTVSPost2010PropOp53
 70
     1
102
RTVSPost2010Prop54
  1
strokes_ogs.tif
102
RTVSPost2010PropOp54
 70
     1
102
RTVSPost2010Prop55
280
     0
102
RTVSPost2010PropOp55
 70
     1
102
RTVSPost2010Prop56
140
1.0
102
RTVSPost2010PropOp56
 70
     1
102
RTVSPost2010Prop57
140
1.0
102
RTVSPost2010PropOp57
 70
     1
  0
XRECORD
  5
374
102
{ACAD_REACTORS
330
373
102
}
330
373
100
AcDbXrecord
280
     1
102
RTVSPropertyOp0
 70
     0
102
RTVSPropertyOp1
 70
     0
102
RTVSPropertyOp2
 70
     0
102
RTVSPropertyOp3
 70
     0
102
RTVSPropertyOp4
 70
     0
102
RTVSPropertyOp5
 70
     0
102
RTVSPropertyOp6
 70
     0
102
RTVSPropertyOp7
 70
     0
102
RTVSPropertyOp8
 70
     0
102
RTVSPropertyOp9
 70
     0
102
RTVSPropertyOp10
 70
     0
102
RTVSPropertyOp11
 70
     0
102
RTVSPropertyOp12
 70
     0
102
RTVSPropertyOp13
 70
     0
102
RTVSPropertyOp14
 70
     2
102
RTVSPropertyOp15
 70
     0
102
RTVSPropertyOp16
 70
     0
102
RTVSPropertyOp17
 70
     0
102
RTVSPropertyOp18
 70
     0
102
RTVSPropertyOp19
 70
     0
102
RTVSPropertyOp20
 70
     0
102
RTVSPropertyOp21
 70
     0
102
RTVSPropertyOp22
 70
     0
102
RTVSPropertyOp23
 70
     0
102
RTVSPropertyOp24
 70
     0
102
RTVSPropertyOp25
 70
     0
102
RTVSPropertyOp26
 70
     0
102
RTVSPropertyOp27
 70
     0
102
RTVSPropertyOp28
 70
     0
102
RTVSPropertyOp29
 70
     0
102
RTVSPropertyOp30
 70
     0
102
RTVSPropertyOp31
 70
     0
102
RTVSPropertyOp32
 70
     0
102
RTVSPropertyOp33
 70
     0
102
RTVSPropertyOp34
 70
     0
102
RTVSPropertyOp35
 70
     0
102
RTVSPropertyOp36
 70
     0
102
RTVSPropertyOp37
 70
     0
102
RTVSPropertyOp38
 70
     0
102
RTVSPropertyOp39
 70
     0
102
RTVSPropertyOp40
 70
     0
102
RTVSPropertyOp41
 70
     0
102
RTVSPropertyOp42
 70
     0
102
RTVSPropertyOp43
 70
     0
102
RTVSPropertyOp44
 70
     0
102
RTVSPropertyOp45
 70
     0
102
RTVSPropertyOp46
 70
     0
102
RTVSPropertyOp47
 70
     0
102
RTVSPropertyOp48
 70
     0
102
RTVSPropertyOp49
 70
     0
102
RTVSPropertyOp50
 70
     0
102
RTVSPropertyOp51
 70
     0
102
RTVSPropertyOp52
 70
     0
102
RTVSPropertyOp53
 70
     0
102
RTVSPropertyOp54
 70
     0
102
RTVSPropertyOp55
 70
     0
102
RTVSPropertyOp56
 70
     0
102
RTVSPropertyOp57
 70
     0
102
RTVSPost2010Prop28
280
     0
102
RTVSPost2010PropOp28
 70
     0
102
RTVSPost2010Prop29
280
     1
102
RTVSPost2010PropOp29
 70
     0
102
RTVSPost2010Prop30
280
     1
102
RTVSPost2010PropOp30
 70
     0
102
RTVSPost2010Prop31
280
     0
102
RTVSPost2010PropOp31
 70
     0
102
RTVSPost2010Prop32
280
     0
102
RTVSPost2010PropOp32
 70
     0
102
RTVSPost2010Prop33
280
     0
102
RTVSPost2010PropOp33
 70
     0
102
RTVSPost2010Prop34
280
     0
102
RTVSPost2010PropOp34
 70
     0
102
RTVSPost2010Prop35
280
     0
102
RTVSPost2010PropOp35
 70
     0
102
RTVSPost2010Prop36
280
     0
102
RTVSPost2010PropOp36
 70
     0
102
RTVSPost2010Prop37
 90
       50
102
RTVSPost2010PropOp37
 70
     0
102
RTVSPost2010Prop38
140
0.0
102
RTVSPost2010PropOp38
 70
     0
102
RTVSPost2010Prop39
140
1.0
102
RTVSPost2010PropOp39
 70
     0
102
RTVSPost2010Prop40
 90
        0
102
RTVSPost2010PropOp40
 70
     0
102
RTVSPost2010Prop41ColorIndex
 90
       18
102
RTVSPost2010Prop41ColorRGB
 90
        0
102
RTVSPost2010PropOp41
 70
     0
102
RTVSPost2010Prop42
 90
       50
102
RTVSPost2010PropOp42
 70
     0
102
RTVSPost2010Prop43
 90
        3
102
RTVSPost2010PropOp43
 70
     0
102
RTVSPost2010Prop44ColorIndex
 90
        5
102
RTVSPost2010Prop44ColorRGB
 90
      255
102
RTVSPost2010PropOp44
 70
     0
102
RTVSPost2010Prop45
280
     0
102
RTVSPost2010PropOp45
 70
     0
102
RTVSPost2010Prop46
 90
       50
102
RTVSPost2010PropOp46
 70
     0
102
RTVSPost2010Prop47
 90
       50
102
RTVSPost2010PropOp47
 70
     0
102
RTVSPost2010Prop48
 90
       50
102
RTVSPost2010PropOp48
 70
     0
102
RTVSPost2010Prop49
280
     0
102
RTVSPost2010PropOp49
 70
     0
102
RTVSPost2010Prop50
 90
       50
102
RTVSPost2010PropOp50
 70
     0
102
RTVSPost2010Prop51ColorIndex
 90
      256
102
RTVSPost2010Prop51ColorRGB
 90
-16777216
102
RTVSPost2010PropOp51
 70
     0
102
RTVSPost2010Prop52
140
1.0
102
RTVSPost2010PropOp52
 70
     0
102
RTVSPost2010Prop53
 90
        2
102
RTVSPost2010PropOp53
 70
     0
102
RTVSPost2010Prop54
  1
strokes_ogs.tif
102
RTVSPost2010PropOp54
 70
     0
102
RTVSPost2010Prop55
280
     0
102
RTVSPost2010PropOp55
 70
     0
102
RTVSPost2010Prop56
140
1.0
102
RTVSPost2010PropOp56
 70
     0
102
RTVSPost2010Prop57
140
1.0
102
RTVSPost2010PropOp57
 70
     0
  0
XRECORD
  5
36E
102
{ACAD_REACTORS
330
36D
102
}
330
36D
100
AcDbXrecord
280
     1
102
RTVSPropertyOp0
 70
     1
102
RTVSPropertyOp1
 70
     1
102
RTVSPropertyOp2
 70
     1
102
RTVSPropertyOp3
 70
     1
102
RTVSPropertyOp4
 70
     1
102
RTVSPropertyOp5
 70
     1
102
RTVSPropertyOp6
 70
     1
102
RTVSPropertyOp7
 70
     1
102
RTVSPropertyOp8
 70
     1
102
RTVSPropertyOp9
 70
     1
102
RTVSPropertyOp10
 70
     1
102
RTVSPropertyOp11
 70
     1
102
RTVSPropertyOp12
 70
     1
102
RTVSPropertyOp13
 70
     1
102
RTVSPropertyOp14
 70
     1
102
RTVSPropertyOp15
 70
     1
102
RTVSPropertyOp16
 70
     1
102
RTVSPropertyOp17
 70
     1
102
RTVSPropertyOp18
 70
     1
102
RTVSPropertyOp19
 70
     1
102
RTVSPropertyOp20
 70
     1
102
RTVSPropertyOp21
 70
     1
102
RTVSPropertyOp22
 70
     1
102
RTVSPropertyOp23
 70
     1
102
RTVSPropertyOp24
 70
     1
102
RTVSPropertyOp25
 70
     1
102
RTVSPropertyOp26
 70
     1
102
RTVSPropertyOp27
 70
     1
102
RTVSPropertyOp28
 70
     1
102
RTVSPropertyOp29
 70
     1
102
RTVSPropertyOp30
 70
     1
102
RTVSPropertyOp31
 70
     1
102
RTVSPropertyOp32
 70
     1
102
RTVSPropertyOp33
 70
     1
102
RTVSPropertyOp34
 70
     1
102
RTVSPropertyOp35
 70
     1
102
RTVSPropertyOp36
 70
     1
102
RTVSPropertyOp37
 70
     1
102
RTVSPropertyOp38
 70
     1
102
RTVSPropertyOp39
 70
     1
102
RTVSPropertyOp40
 70
     1
102
RTVSPropertyOp41
 70
     1
102
RTVSPropertyOp42
 70
     1
102
RTVSPropertyOp43
 70
     1
102
RTVSPropertyOp44
 70
     1
102
RTVSPropertyOp45
 70
     1
102
RTVSPropertyOp46
 70
     1
102
RTVSPropertyOp47
 70
     1
102
RTVSPropertyOp48
 70
     1
102
RTVSPropertyOp49
 70
     1
102
RTVSPropertyOp50
 70
     1
102
RTVSPropertyOp51
 70
     0
102
RTVSPropertyOp52
 70
     0
102
RTVSPropertyOp53
 70
     1
102
RTVSPropertyOp54
 70
     1
102
RTVSPropertyOp55
 70
     1
102
RTVSPropertyOp56
 70
     1
102
RTVSPropertyOp57
 70
     1
102
RTVSPost2010Prop28
280
     0
102
RTVSPost2010PropOp28
 70
     1
102
RTVSPost2010Prop29
280
     1
102
RTVSPost2010PropOp29
 70
     1
102
RTVSPost2010Prop30
280
     1
102
RTVSPost2010PropOp30
 70
     1
102
RTVSPost2010Prop31
280
     0
102
RTVSPost2010PropOp31
 70
     1
102
RTVSPost2010Prop32
280
     0
102
RTVSPost2010PropOp32
 70
     1
102
RTVSPost2010Prop33
280
     0
102
RTVSPost2010PropOp33
 70
     1
102
RTVSPost2010Prop34
280
     0
102
RTVSPost2010PropOp34
 70
     1
102
RTVSPost2010Prop35
280
     0
102
RTVSPost2010PropOp35
 70
     1
102
RTVSPost2010Prop36
280
     0
102
RTVSPost2010PropOp36
 70
     1
102
RTVSPost2010Prop37
 90
       50
102
RTVSPost2010PropOp37
 70
     1
102
RTVSPost2010Prop38
140
0.0
102
RTVSPost2010PropOp38
 70
     1
102
RTVSPost2010Prop39
140
1.0
102
RTVSPost2010PropOp39
 70
     1
102
RTVSPost2010Prop40
 90
        0
102
RTVSPost2010PropOp40
 70
     1
102
RTVSPost2010Prop41ColorIndex
 90
       18
102
RTVSPost2010Prop41ColorRGB
 90
        0
102
RTVSPost2010PropOp41
 70
     1
102
RTVSPost2010Prop42
 90
       50
102
RTVSPost2010PropOp42
 70
     1
102
RTVSPost2010Prop43
 90
        3
102
RTVSPost2010PropOp43
 70
     1
102
RTVSPost2010Prop44ColorIndex
 90
        5
102
RTVSPost2010Prop44ColorRGB
 90
      255
102
RTVSPost2010PropOp44
 70
     1
102
RTVSPost2010Prop45
280
     0
102
RTVSPost2010PropOp45
 70
     1
102
RTVSPost2010Prop46
 90
       50
102
RTVSPost2010PropOp46
 70
     1
102
RTVSPost2010Prop47
 90
       50
102
RTVSPost2010PropOp47
 70
     1
102
RTVSPost2010Prop48
 90
       50
102
RTVSPost2010PropOp48
 70
     1
102
RTVSPost2010Prop49
280
     0
102
RTVSPost2010PropOp49
 70
     1
102
RTVSPost2010Prop50
 90
       50
102
RTVSPost2010PropOp50
 70
     1
102
RTVSPost2010Prop51ColorIndex
 90
      256
102
RTVSPost2010Prop51ColorRGB
 90
-16777216
102
RTVSPost2010PropOp51
 70
     0
102
RTVSPost2010Prop52
140
1.0
102
RTVSPost2010PropOp52
 70
     0
102
RTVSPost2010Prop53
 90
        2
102
RTVSPost2010PropOp53
 70
     1
102
RTVSPost2010Prop54
  1
strokes_ogs.tif
102
RTVSPost2010PropOp54
 70
     1
102
RTVSPost2010Prop55
280
     0
102
RTVSPost2010PropOp55
 70
     1
102
RTVSPost2010Prop56
140
1.0
102
RTVSPost2010PropOp56
 70
     1
102
RTVSPost2010Prop57
140
1.0
102
RTVSPost2010PropOp57
 70
     1
  0
XRECORD
  5
376
102
{ACAD_REACTORS
330
375
102
}
330
375
100
AcDbXrecord
280
     1
102
RTVSPropertyOp0
 70
     0
102
RTVSPropertyOp1
 70
     0
102
RTVSPropertyOp2
 70
     0
102
RTVSPropertyOp3
 70
     0
102
RTVSPropertyOp4
 70
     0
102
RTVSPropertyOp5
 70
     0
102
RTVSPropertyOp6
 70
     0
102
RTVSPropertyOp7
 70
     0
102
RTVSPropertyOp8
 70
     0
102
RTVSPropertyOp9
 70
     0
102
RTVSPropertyOp10
 70
     0
102
RTVSPropertyOp11
 70
     0
102
RTVSPropertyOp12
 70
     0
102
RTVSPropertyOp13
 70
     0
102
RTVSPropertyOp14
 70
     2
102
RTVSPropertyOp15
 70
     0
102
RTVSPropertyOp16
 70
     0
102
RTVSPropertyOp17
 70
     0
102
RTVSPropertyOp18
 70
     0
102
RTVSPropertyOp19
 70
     0
102
RTVSPropertyOp20
 70
     0
102
RTVSPropertyOp21
 70
     0
102
RTVSPropertyOp22
 70
     0
102
RTVSPropertyOp23
 70
     0
102
RTVSPropertyOp24
 70
     0
102
RTVSPropertyOp25
 70
     0
102
RTVSPropertyOp26
 70
     0
102
RTVSPropertyOp27
 70
     0
102
RTVSPropertyOp28
 70
     0
102
RTVSPropertyOp29
 70
     0
102
RTVSPropertyOp30
 70
     0
102
RTVSPropertyOp31
 70
     0
102
RTVSPropertyOp32
 70
     0
102
RTVSPropertyOp33
 70
     0
102
RTVSPropertyOp34
 70
     0
102
RTVSPropertyOp35
 70
     0
102
RTVSPropertyOp36
 70
     0
102
RTVSPropertyOp37
 70
     0
102
RTVSPropertyOp38
 70
     0
102
RTVSPropertyOp39
 70
     0
102
RTVSPropertyOp40
 70
     0
102
RTVSPropertyOp41
 70
     0
102
RTVSPropertyOp42
 70
     0
102
RTVSPropertyOp43
 70
     0
102
RTVSPropertyOp44
 70
     0
102
RTVSPropertyOp45
 70
     0
102
RTVSPropertyOp46
 70
     0
102
RTVSPropertyOp47
 70
     0
102
RTVSPropertyOp48
 70
     0
102
RTVSPropertyOp49
 70
     0
102
RTVSPropertyOp50
 70
     0
102
RTVSPropertyOp51
 70
     0
102
RTVSPropertyOp52
 70
     0
102
RTVSPropertyOp53
 70
     0
102
RTVSPropertyOp54
 70
     0
102
RTVSPropertyOp55
 70
     0
102
RTVSPropertyOp56
 70
     0
102
RTVSPropertyOp57
 70
     0
102
RTVSPost2010Prop28
280
     0
102
RTVSPost2010PropOp28
 70
     0
102
RTVSPost2010Prop29
280
     1
102
RTVSPost2010PropOp29
 70
     0
102
RTVSPost2010Prop30
280
     1
102
RTVSPost2010PropOp30
 70
     0
102
RTVSPost2010Prop31
280
     0
102
RTVSPost2010PropOp31
 70
     0
102
RTVSPost2010Prop32
280
     0
102
RTVSPost2010PropOp32
 70
     0
102
RTVSPost2010Prop33
280
     0
102
RTVSPost2010PropOp33
 70
     0
102
RTVSPost2010Prop34
280
     0
102
RTVSPost2010PropOp34
 70
     0
102
RTVSPost2010Prop35
280
     0
102
RTVSPost2010PropOp35
 70
     0
102
RTVSPost2010Prop36
280
     0
102
RTVSPost2010PropOp36
 70
     0
102
RTVSPost2010Prop37
 90
       50
102
RTVSPost2010PropOp37
 70
     0
102
RTVSPost2010Prop38
140
0.0
102
RTVSPost2010PropOp38
 70
     0
102
RTVSPost2010Prop39
140
1.0
102
RTVSPost2010PropOp39
 70
     0
102
RTVSPost2010Prop40
 90
        0
102
RTVSPost2010PropOp40
 70
     0
102
RTVSPost2010Prop41ColorIndex
 90
       18
102
RTVSPost2010Prop41ColorRGB
 90
        0
102
RTVSPost2010PropOp41
 70
     0
102
RTVSPost2010Prop42
 90
       50
102
RTVSPost2010PropOp42
 70
     0
102
RTVSPost2010Prop43
 90
        3
102
RTVSPost2010PropOp43
 70
     0
102
RTVSPost2010Prop44ColorIndex
 90
        5
102
RTVSPost2010Prop44ColorRGB
 90
      255
102
RTVSPost2010PropOp44
 70
     0
102
RTVSPost2010Prop45
280
     0
102
RTVSPost2010PropOp45
 70
     0
102
RTVSPost2010Prop46
 90
       50
102
RTVSPost2010PropOp46
 70
     0
102
RTVSPost2010Prop47
 90
       50
102
RTVSPost2010PropOp47
 70
     0
102
RTVSPost2010Prop48
 90
       50
102
RTVSPost2010PropOp48
 70
     0
102
RTVSPost2010Prop49
280
     0
102
RTVSPost2010PropOp49
 70
     0
102
RTVSPost2010Prop50
 90
       50
102
RTVSPost2010PropOp50
 70
     0
102
RTVSPost2010Prop51ColorIndex
 90
      256
102
RTVSPost2010Prop51ColorRGB
 90
-16777216
102
RTVSPost2010PropOp51
 70
     0
102
RTVSPost2010Prop52
140
1.0
102
RTVSPost2010PropOp52
 70
     0
102
RTVSPost2010Prop53
 90
        2
102
RTVSPost2010PropOp53
 70
     0
102
RTVSPost2010Prop54
  1
strokes_ogs.tif
102
RTVSPost2010PropOp54
 70
     0
102
RTVSPost2010Prop55
280
     0
102
RTVSPost2010PropOp55
 70
     0
102
RTVSPost2010Prop56
140
1.0
102
RTVSPost2010PropOp56
 70
     0
102
RTVSPost2010Prop57
140
1.0
102
RTVSPost2010PropOp57
 70
     0
  0
XRECORD
  5
364
102
{ACAD_REACTORS
330
363
102
}
330
363
100
AcDbXrecord
280
     1
102
RTVSPropertyOp0
 70
     1
102
RTVSPropertyOp1
 70
     1
102
RTVSPropertyOp2
 70
     1
102
RTVSPropertyOp3
 70
     1
102
RTVSPropertyOp4
 70
     1
102
RTVSPropertyOp5
 70
     1
102
RTVSPropertyOp6
 70
     1
102
RTVSPropertyOp7
 70
     1
102
RTVSPropertyOp8
 70
     1
102
RTVSPropertyOp9
 70
     1
102
RTVSPropertyOp10
 70
     1
102
RTVSPropertyOp11
 70
     1
102
RTVSPropertyOp12
 70
     1
102
RTVSPropertyOp13
 70
     1
102
RTVSPropertyOp14
 70
     1
102
RTVSPropertyOp15
 70
     1
102
RTVSPropertyOp16
 70
     1
102
RTVSPropertyOp17
 70
     1
102
RTVSPropertyOp18
 70
     1
102
RTVSPropertyOp19
 70
     1
102
RTVSPropertyOp20
 70
     1
102
RTVSPropertyOp21
 70
     1
102
RTVSPropertyOp22
 70
     1
102
RTVSPropertyOp23
 70
     1
102
RTVSPropertyOp24
 70
     1
102
RTVSPropertyOp25
 70
     1
102
RTVSPropertyOp26
 70
     1
102
RTVSPropertyOp27
 70
     1
102
RTVSPropertyOp28
 70
     1
102
RTVSPropertyOp29
 70
     1
102
RTVSPropertyOp30
 70
     1
102
RTVSPropertyOp31
 70
     1
102
RTVSPropertyOp32
 70
     1
102
RTVSPropertyOp33
 70
     1
102
RTVSPropertyOp34
 70
     1
102
RTVSPropertyOp35
 70
     1
102
RTVSPropertyOp36
 70
     1
102
RTVSPropertyOp37
 70
     1
102
RTVSPropertyOp38
 70
     1
102
RTVSPropertyOp39
 70
     1
102
RTVSPropertyOp40
 70
     1
102
RTVSPropertyOp41
 70
     1
102
RTVSPropertyOp42
 70
     1
102
RTVSPropertyOp43
 70
     1
102
RTVSPropertyOp44
 70
     1
102
RTVSPropertyOp45
 70
     1
102
RTVSPropertyOp46
 70
     1
102
RTVSPropertyOp47
 70
     1
102
RTVSPropertyOp48
 70
     1
102
RTVSPropertyOp49
 70
     1
102
RTVSPropertyOp50
 70
     1
102
RTVSPropertyOp51
 70
     0
102
RTVSPropertyOp52
 70
     0
102
RTVSPropertyOp53
 70
     1
102
RTVSPropertyOp54
 70
     1
102
RTVSPropertyOp55
 70
     1
102
RTVSPropertyOp56
 70
     1
102
RTVSPropertyOp57
 70
     1
102
RTVSPost2010Prop28
280
     0
102
RTVSPost2010PropOp28
 70
     1
102
RTVSPost2010Prop29
280
     1
102
RTVSPost2010PropOp29
 70
     1
102
RTVSPost2010Prop30
280
     1
102
RTVSPost2010PropOp30
 70
     1
102
RTVSPost2010Prop31
280
     0
102
RTVSPost2010PropOp31
 70
     1
102
RTVSPost2010Prop32
280
     0
102
RTVSPost2010PropOp32
 70
     1
102
RTVSPost2010Prop33
280
     0
102
RTVSPost2010PropOp33
 70
     1
102
RTVSPost2010Prop34
280
     0
102
RTVSPost2010PropOp34
 70
     1
102
RTVSPost2010Prop35
280
     0
102
RTVSPost2010PropOp35
 70
     1
102
RTVSPost2010Prop36
280
     0
102
RTVSPost2010PropOp36
 70
     1
102
RTVSPost2010Prop37
 90
       50
102
RTVSPost2010PropOp37
 70
     1
102
RTVSPost2010Prop38
140
0.0
102
RTVSPost2010PropOp38
 70
     1
102
RTVSPost2010Prop39
140
1.0
102
RTVSPost2010PropOp39
 70
     1
102
RTVSPost2010Prop40
 90
        0
102
RTVSPost2010PropOp40
 70
     1
102
RTVSPost2010Prop41ColorIndex
 90
       18
102
RTVSPost2010Prop41ColorRGB
 90
        0
102
RTVSPost2010PropOp41
 70
     1
102
RTVSPost2010Prop42
 90
       50
102
RTVSPost2010PropOp42
 70
     1
102
RTVSPost2010Prop43
 90
        3
102
RTVSPost2010PropOp43
 70
     1
102
RTVSPost2010Prop44ColorIndex
 90
        5
102
RTVSPost2010Prop44ColorRGB
 90
      255
102
RTVSPost2010PropOp44
 70
     1
102
RTVSPost2010Prop45
280
     0
102
RTVSPost2010PropOp45
 70
     1
102
RTVSPost2010Prop46
 90
       50
102
RTVSPost2010PropOp46
 70
     1
102
RTVSPost2010Prop47
 90
       50
102
RTVSPost2010PropOp47
 70
     1
102
RTVSPost2010Prop48
 90
       50
102
RTVSPost2010PropOp48
 70
     1
102
RTVSPost2010Prop49
280
     0
102
RTVSPost2010PropOp49
 70
     1
102
RTVSPost2010Prop50
 90
       50
102
RTVSPost2010PropOp50
 70
     1
102
RTVSPost2010Prop51ColorIndex
 90
      256
102
RTVSPost2010Prop51ColorRGB
 90
-16777216
102
RTVSPost2010PropOp51
 70
     0
102
RTVSPost2010Prop52
140
1.0
102
RTVSPost2010PropOp52
 70
     0
102
RTVSPost2010Prop53
 90
        2
102
RTVSPost2010PropOp53
 70
     1
102
RTVSPost2010Prop54
  1
strokes_ogs.tif
102
RTVSPost2010PropOp54
 70
     1
102
RTVSPost2010Prop55
280
     0
102
RTVSPost2010PropOp55
 70
     1
102
RTVSPost2010Prop56
140
1.0
102
RTVSPost2010PropOp56
 70
     1
102
RTVSPost2010Prop57
140
1.0
102
RTVSPost2010PropOp57
 70
     1
  0
XRECORD
  5
382
102
{ACAD_REACTORS
330
381
102
}
330
381
100
AcDbXrecord
280
     1
102
RTVSPropertyOp0
 70
     1
102
RTVSPropertyOp1
 70
     1
102
RTVSPropertyOp2
 70
     1
102
RTVSPropertyOp3
 70
     1
102
RTVSPropertyOp4
 70
     1
102
RTVSPropertyOp5
 70
     1
102
RTVSPropertyOp6
 70
     1
102
RTVSPropertyOp7
 70
     1
102
RTVSPropertyOp8
 70
     1
102
RTVSPropertyOp9
 70
     1
102
RTVSPropertyOp10
 70
     1
102
RTVSPropertyOp11
 70
     1
102
RTVSPropertyOp12
 70
     1
102
RTVSPropertyOp13
 70
     1
102
RTVSPropertyOp14
 70
     1
102
RTVSPropertyOp15
 70
     1
102
RTVSPropertyOp16
 70
     1
102
RTVSPropertyOp17
 70
     1
102
RTVSPropertyOp18
 70
     1
102
RTVSPropertyOp19
 70
     1
102
RTVSPropertyOp20
 70
     1
102
RTVSPropertyOp21
 70
     1
102
RTVSPropertyOp22
 70
     1
102
RTVSPropertyOp23
 70
     1
102
RTVSPropertyOp24
 70
     1
102
RTVSPropertyOp25
 70
     1
102
RTVSPropertyOp26
 70
     1
102
RTVSPropertyOp27
 70
     1
102
RTVSPropertyOp28
 70
     1
102
RTVSPropertyOp29
 70
     1
102
RTVSPropertyOp30
 70
     1
102
RTVSPropertyOp31
 70
     1
102
RTVSPropertyOp32
 70
     1
102
RTVSPropertyOp33
 70
     1
102
RTVSPropertyOp34
 70
     1
102
RTVSPropertyOp35
 70
     1
102
RTVSPropertyOp36
 70
     1
102
RTVSPropertyOp37
 70
     1
102
RTVSPropertyOp38
 70
     1
102
RTVSPropertyOp39
 70
     1
102
RTVSPropertyOp40
 70
     1
102
RTVSPropertyOp41
 70
     1
102
RTVSPropertyOp42
 70
     1
102
RTVSPropertyOp43
 70
     1
102
RTVSPropertyOp44
 70
     1
102
RTVSPropertyOp45
 70
     1
102
RTVSPropertyOp46
 70
     1
102
RTVSPropertyOp47
 70
     1
102
RTVSPropertyOp48
 70
     1
102
RTVSPropertyOp49
 70
     1
102
RTVSPropertyOp50
 70
     1
102
RTVSPropertyOp51
 70
     0
102
RTVSPropertyOp52
 70
     0
102
RTVSPropertyOp53
 70
     1
102
RTVSPropertyOp54
 70
     1
102
RTVSPropertyOp55
 70
     1
102
RTVSPropertyOp56
 70
     1
102
RTVSPropertyOp57
 70
     1
102
RTVSPost2010Prop28
280
     0
102
RTVSPost2010PropOp28
 70
     1
102
RTVSPost2010Prop29
280
     1
102
RTVSPost2010PropOp29
 70
     1
102
RTVSPost2010Prop30
280
     1
102
RTVSPost2010PropOp30
 70
     1
102
RTVSPost2010Prop31
280
     0
102
RTVSPost2010PropOp31
 70
     1
102
RTVSPost2010Prop32
280
     0
102
RTVSPost2010PropOp32
 70
     1
102
RTVSPost2010Prop33
280
     0
102
RTVSPost2010PropOp33
 70
     1
102
RTVSPost2010Prop34
280
     0
102
RTVSPost2010PropOp34
 70
     1
102
RTVSPost2010Prop35
280
     0
102
RTVSPost2010PropOp35
 70
     1
102
RTVSPost2010Prop36
280
     0
102
RTVSPost2010PropOp36
 70
     1
102
RTVSPost2010Prop37
 90
       50
102
RTVSPost2010PropOp37
 70
     1
102
RTVSPost2010Prop38
140
0.0
102
RTVSPost2010PropOp38
 70
     1
102
RTVSPost2010Prop39
140
1.0
102
RTVSPost2010PropOp39
 70
     1
102
RTVSPost2010Prop40
 90
        0
102
RTVSPost2010PropOp40
 70
     1
102
RTVSPost2010Prop41ColorIndex
 90
       18
102
RTVSPost2010Prop41ColorRGB
 90
        0
102
RTVSPost2010PropOp41
 70
     1
102
RTVSPost2010Prop42
 90
       50
102
RTVSPost2010PropOp42
 70
     1
102
RTVSPost2010Prop43
 90
        3
102
RTVSPost2010PropOp43
 70
     1
102
RTVSPost2010Prop44ColorIndex
 90
        5
102
RTVSPost2010Prop44ColorRGB
 90
      255
102
RTVSPost2010PropOp44
 70
     1
102
RTVSPost2010Prop45
280
     0
102
RTVSPost2010PropOp45
 70
     1
102
RTVSPost2010Prop46
 90
       50
102
RTVSPost2010PropOp46
 70
     1
102
RTVSPost2010Prop47
 90
       50
102
RTVSPost2010PropOp47
 70
     1
102
RTVSPost2010Prop48
 90
       50
102
RTVSPost2010PropOp48
 70
     1
102
RTVSPost2010Prop49
280
     0
102
RTVSPost2010PropOp49
 70
     1
102
RTVSPost2010Prop50
 90
       50
102
RTVSPost2010PropOp50
 70
     1
102
RTVSPost2010Prop51ColorIndex
 90
      256
102
RTVSPost2010Prop51ColorRGB
 90
-16777216
102
RTVSPost2010PropOp51
 70
     0
102
RTVSPost2010Prop52
140
1.0
102
RTVSPost2010PropOp52
 70
     0
102
RTVSPost2010Prop53
 90
        2
102
RTVSPost2010PropOp53
 70
     1
102
RTVSPost2010Prop54
  1
strokes_ogs.tif
102
RTVSPost2010PropOp54
 70
     1
102
RTVSPost2010Prop55
280
     0
102
RTVSPost2010PropOp55
 70
     1
102
RTVSPost2010Prop56
140
1.0
102
RTVSPost2010PropOp56
 70
     1
102
RTVSPost2010Prop57
140
1.0
102
RTVSPost2010PropOp57
 70
     1
  0
XRECORD
  5
380
102
{ACAD_REACTORS
330
37F
102
}
330
37F
100
AcDbXrecord
280
     1
102
RTVSPropertyOp0
 70
     1
102
RTVSPropertyOp1
 70
     1
102
RTVSPropertyOp2
 70
     1
102
RTVSPropertyOp3
 70
     1
102
RTVSPropertyOp4
 70
     1
102
RTVSPropertyOp5
 70
     1
102
RTVSPropertyOp6
 70
     1
102
RTVSPropertyOp7
 70
     1
102
RTVSPropertyOp8
 70
     1
102
RTVSPropertyOp9
 70
     1
102
RTVSPropertyOp10
 70
     1
102
RTVSPropertyOp11
 70
     1
102
RTVSPropertyOp12
 70
     1
102
RTVSPropertyOp13
 70
     1
102
RTVSPropertyOp14
 70
     1
102
RTVSPropertyOp15
 70
     1
102
RTVSPropertyOp16
 70
     1
102
RTVSPropertyOp17
 70
     1
102
RTVSPropertyOp18
 70
     1
102
RTVSPropertyOp19
 70
     1
102
RTVSPropertyOp20
 70
     1
102
RTVSPropertyOp21
 70
     1
102
RTVSPropertyOp22
 70
     1
102
RTVSPropertyOp23
 70
     1
102
RTVSPropertyOp24
 70
     1
102
RTVSPropertyOp25
 70
     1
102
RTVSPropertyOp26
 70
     1
102
RTVSPropertyOp27
 70
     1
102
RTVSPropertyOp28
 70
     1
102
RTVSPropertyOp29
 70
     1
102
RTVSPropertyOp30
 70
     1
102
RTVSPropertyOp31
 70
     1
102
RTVSPropertyOp32
 70
     1
102
RTVSPropertyOp33
 70
     1
102
RTVSPropertyOp34
 70
     1
102
RTVSPropertyOp35
 70
     1
102
RTVSPropertyOp36
 70
     1
102
RTVSPropertyOp37
 70
     1
102
RTVSPropertyOp38
 70
     1
102
RTVSPropertyOp39
 70
     1
102
RTVSPropertyOp40
 70
     1
102
RTVSPropertyOp41
 70
     1
102
RTVSPropertyOp42
 70
     1
102
RTVSPropertyOp43
 70
     1
102
RTVSPropertyOp44
 70
     1
102
RTVSPropertyOp45
 70
     1
102
RTVSPropertyOp46
 70
     1
102
RTVSPropertyOp47
 70
     1
102
RTVSPropertyOp48
 70
     1
102
RTVSPropertyOp49
 70
     1
102
RTVSPropertyOp50
 70
     1
102
RTVSPropertyOp51
 70
     0
102
RTVSPropertyOp52
 70
     0
102
RTVSPropertyOp53
 70
     1
102
RTVSPropertyOp54
 70
     1
102
RTVSPropertyOp55
 70
     1
102
RTVSPropertyOp56
 70
     1
102
RTVSPropertyOp57
 70
     1
102
RTVSPost2010Prop28
280
     0
102
RTVSPost2010PropOp28
 70
     1
102
RTVSPost2010Prop29
280
     1
102
RTVSPost2010PropOp29
 70
     1
102
RTVSPost2010Prop30
280
     1
102
RTVSPost2010PropOp30
 70
     1
102
RTVSPost2010Prop31
280
     0
102
RTVSPost2010PropOp31
 70
     1
102
RTVSPost2010Prop32
280
     0
102
RTVSPost2010PropOp32
 70
     1
102
RTVSPost2010Prop33
280
     0
102
RTVSPost2010PropOp33
 70
     1
102
RTVSPost2010Prop34
280
     0
102
RTVSPost2010PropOp34
 70
     1
102
RTVSPost2010Prop35
280
     0
102
RTVSPost2010PropOp35
 70
     1
102
RTVSPost2010Prop36
280
     0
102
RTVSPost2010PropOp36
 70
     1
102
RTVSPost2010Prop37
 90
       50
102
RTVSPost2010PropOp37
 70
     1
102
RTVSPost2010Prop38
140
0.0
102
RTVSPost2010PropOp38
 70
     1
102
RTVSPost2010Prop39
140
1.0
102
RTVSPost2010PropOp39
 70
     1
102
RTVSPost2010Prop40
 90
        0
102
RTVSPost2010PropOp40
 70
     1
102
RTVSPost2010Prop41ColorIndex
 90
       18
102
RTVSPost2010Prop41ColorRGB
 90
        0
102
RTVSPost2010PropOp41
 70
     1
102
RTVSPost2010Prop42
 90
       50
102
RTVSPost2010PropOp42
 70
     1
102
RTVSPost2010Prop43
 90
        3
102
RTVSPost2010PropOp43
 70
     1
102
RTVSPost2010Prop44ColorIndex
 90
        5
102
RTVSPost2010Prop44ColorRGB
 90
      255
102
RTVSPost2010PropOp44
 70
     1
102
RTVSPost2010Prop45
280
     0
102
RTVSPost2010PropOp45
 70
     1
102
RTVSPost2010Prop46
 90
       50
102
RTVSPost2010PropOp46
 70
     1
102
RTVSPost2010Prop47
 90
       50
102
RTVSPost2010PropOp47
 70
     1
102
RTVSPost2010Prop48
 90
       50
102
RTVSPost2010PropOp48
 70
     1
102
RTVSPost2010Prop49
280
     0
102
RTVSPost2010PropOp49
 70
     1
102
RTVSPost2010Prop50
 90
       50
102
RTVSPost2010PropOp50
 70
     1
102
RTVSPost2010Prop51ColorIndex
 90
      256
102
RTVSPost2010Prop51ColorRGB
 90
-16777216
102
RTVSPost2010PropOp51
 70
     0
102
RTVSPost2010Prop52
140
1.0
102
RTVSPost2010PropOp52
 70
     0
102
RTVSPost2010Prop53
 90
        2
102
RTVSPost2010PropOp53
 70
     1
102
RTVSPost2010Prop54
  1
strokes_ogs.tif
102
RTVSPost2010PropOp54
 70
     1
102
RTVSPost2010Prop55
280
     0
102
RTVSPost2010PropOp55
 70
     1
102
RTVSPost2010Prop56
140
1.0
102
RTVSPost2010PropOp56
 70
     1
102
RTVSPost2010Prop57
140
1.0
102
RTVSPost2010PropOp57
 70
     1
  0
XRECORD
  5
37A
102
{ACAD_REACTORS
330
379
102
}
330
379
100
AcDbXrecord
280
     1
102
RTVSPropertyOp0
 70
     1
102
RTVSPropertyOp1
 70
     1
102
RTVSPropertyOp2
 70
     1
102
RTVSPropertyOp3
 70
     1
102
RTVSPropertyOp4
 70
     1
102
RTVSPropertyOp5
 70
     1
102
RTVSPropertyOp6
 70
     1
102
RTVSPropertyOp7
 70
     1
102
RTVSPropertyOp8
 70
     1
102
RTVSPropertyOp9
 70
     1
102
RTVSPropertyOp10
 70
     1
102
RTVSPropertyOp11
 70
     1
102
RTVSPropertyOp12
 70
     1
102
RTVSPropertyOp13
 70
     1
102
RTVSPropertyOp14
 70
     1
102
RTVSPropertyOp15
 70
     1
102
RTVSPropertyOp16
 70
     1
102
RTVSPropertyOp17
 70
     1
102
RTVSPropertyOp18
 70
     1
102
RTVSPropertyOp19
 70
     1
102
RTVSPropertyOp20
 70
     1
102
RTVSPropertyOp21
 70
     1
102
RTVSPropertyOp22
 70
     1
102
RTVSPropertyOp23
 70
     1
102
RTVSPropertyOp24
 70
     1
102
RTVSPropertyOp25
 70
     1
102
RTVSPropertyOp26
 70
     1
102
RTVSPropertyOp27
 70
     1
102
RTVSPropertyOp28
 70
     1
102
RTVSPropertyOp29
 70
     1
102
RTVSPropertyOp30
 70
     1
102
RTVSPropertyOp31
 70
     1
102
RTVSPropertyOp32
 70
     1
102
RTVSPropertyOp33
 70
     1
102
RTVSPropertyOp34
 70
     1
102
RTVSPropertyOp35
 70
     1
102
RTVSPropertyOp36
 70
     1
102
RTVSPropertyOp37
 70
     1
102
RTVSPropertyOp38
 70
     1
102
RTVSPropertyOp39
 70
     1
102
RTVSPropertyOp40
 70
     1
102
RTVSPropertyOp41
 70
     1
102
RTVSPropertyOp42
 70
     1
102
RTVSPropertyOp43
 70
     1
102
RTVSPropertyOp44
 70
     1
102
RTVSPropertyOp45
 70
     1
102
RTVSPropertyOp46
 70
     1
102
RTVSPropertyOp47
 70
     1
102
RTVSPropertyOp48
 70
     1
102
RTVSPropertyOp49
 70
     1
102
RTVSPropertyOp50
 70
     1
102
RTVSPropertyOp51
 70
     0
102
RTVSPropertyOp52
 70
     0
102
RTVSPropertyOp53
 70
     1
102
RTVSPropertyOp54
 70
     1
102
RTVSPropertyOp55
 70
     1
102
RTVSPropertyOp56
 70
     1
102
RTVSPropertyOp57
 70
     1
102
RTVSPost2010Prop28
280
     0
102
RTVSPost2010PropOp28
 70
     1
102
RTVSPost2010Prop29
280
     1
102
RTVSPost2010PropOp29
 70
     1
102
RTVSPost2010Prop30
280
     1
102
RTVSPost2010PropOp30
 70
     1
102
RTVSPost2010Prop31
280
     0
102
RTVSPost2010PropOp31
 70
     1
102
RTVSPost2010Prop32
280
     0
102
RTVSPost2010PropOp32
 70
     1
102
RTVSPost2010Prop33
280
     0
102
RTVSPost2010PropOp33
 70
     1
102
RTVSPost2010Prop34
280
     0
102
RTVSPost2010PropOp34
 70
     1
102
RTVSPost2010Prop35
280
     0
102
RTVSPost2010PropOp35
 70
     1
102
RTVSPost2010Prop36
280
     0
102
RTVSPost2010PropOp36
 70
     1
102
RTVSPost2010Prop37
 90
       50
102
RTVSPost2010PropOp37
 70
     1
102
RTVSPost2010Prop38
140
0.0
102
RTVSPost2010PropOp38
 70
     1
102
RTVSPost2010Prop39
140
1.0
102
RTVSPost2010PropOp39
 70
     1
102
RTVSPost2010Prop40
 90
        0
102
RTVSPost2010PropOp40
 70
     1
102
RTVSPost2010Prop41ColorIndex
 90
       18
102
RTVSPost2010Prop41ColorRGB
 90
        0
102
RTVSPost2010PropOp41
 70
     1
102
RTVSPost2010Prop42
 90
       50
102
RTVSPost2010PropOp42
 70
     1
102
RTVSPost2010Prop43
 90
        3
102
RTVSPost2010PropOp43
 70
     1
102
RTVSPost2010Prop44ColorIndex
 90
        5
102
RTVSPost2010Prop44ColorRGB
 90
      255
102
RTVSPost2010PropOp44
 70
     1
102
RTVSPost2010Prop45
280
     0
102
RTVSPost2010PropOp45
 70
     1
102
RTVSPost2010Prop46
 90
       50
102
RTVSPost2010PropOp46
 70
     1
102
RTVSPost2010Prop47
 90
       50
102
RTVSPost2010PropOp47
 70
     1
102
RTVSPost2010Prop48
 90
       50
102
RTVSPost2010PropOp48
 70
     1
102
RTVSPost2010Prop49
280
     0
102
RTVSPost2010PropOp49
 70
     1
102
RTVSPost2010Prop50
 90
       50
102
RTVSPost2010PropOp50
 70
     1
102
RTVSPost2010Prop51ColorIndex
 90
      256
102
RTVSPost2010Prop51ColorRGB
 90
-16777216
102
RTVSPost2010PropOp51
 70
     0
102
RTVSPost2010Prop52
140
1.0
102
RTVSPost2010PropOp52
 70
     0
102
RTVSPost2010Prop53
 90
        2
102
RTVSPost2010PropOp53
 70
     1
102
RTVSPost2010Prop54
  1
strokes_ogs.tif
102
RTVSPost2010PropOp54
 70
     1
102
RTVSPost2010Prop55
280
     0
102
RTVSPost2010PropOp55
 70
     1
102
RTVSPost2010Prop56
140
1.0
102
RTVSPost2010PropOp56
 70
     1
102
RTVSPost2010Prop57
140
1.0
102
RTVSPost2010PropOp57
 70
     1
  0
XRECORD
  5
37C
102
{ACAD_REACTORS
330
37B
102
}
330
37B
100
AcDbXrecord
280
     1
102
RTVSPropertyOp0
 70
     1
102
RTVSPropertyOp1
 70
     1
102
RTVSPropertyOp2
 70
     1
102
RTVSPropertyOp3
 70
     1
102
RTVSPropertyOp4
 70
     1
102
RTVSPropertyOp5
 70
     1
102
RTVSPropertyOp6
 70
     1
102
RTVSPropertyOp7
 70
     1
102
RTVSPropertyOp8
 70
     1
102
RTVSPropertyOp9
 70
     1
102
RTVSPropertyOp10
 70
     1
102
RTVSPropertyOp11
 70
     1
102
RTVSPropertyOp12
 70
     1
102
RTVSPropertyOp13
 70
     1
102
RTVSPropertyOp14
 70
     1
102
RTVSPropertyOp15
 70
     1
102
RTVSPropertyOp16
 70
     1
102
RTVSPropertyOp17
 70
     1
102
RTVSPropertyOp18
 70
     1
102
RTVSPropertyOp19
 70
     1
102
RTVSPropertyOp20
 70
     1
102
RTVSPropertyOp21
 70
     1
102
RTVSPropertyOp22
 70
     1
102
RTVSPropertyOp23
 70
     1
102
RTVSPropertyOp24
 70
     1
102
RTVSPropertyOp25
 70
     1
102
RTVSPropertyOp26
 70
     1
102
RTVSPropertyOp27
 70
     1
102
RTVSPropertyOp28
 70
     1
102
RTVSPropertyOp29
 70
     1
102
RTVSPropertyOp30
 70
     1
102
RTVSPropertyOp31
 70
     1
102
RTVSPropertyOp32
 70
     1
102
RTVSPropertyOp33
 70
     1
102
RTVSPropertyOp34
 70
     1
102
RTVSPropertyOp35
 70
     1
102
RTVSPropertyOp36
 70
     1
102
RTVSPropertyOp37
 70
     1
102
RTVSPropertyOp38
 70
     1
102
RTVSPropertyOp39
 70
     1
102
RTVSPropertyOp40
 70
     1
102
RTVSPropertyOp41
 70
     1
102
RTVSPropertyOp42
 70
     1
102
RTVSPropertyOp43
 70
     1
102
RTVSPropertyOp44
 70
     1
102
RTVSPropertyOp45
 70
     1
102
RTVSPropertyOp46
 70
     1
102
RTVSPropertyOp47
 70
     1
102
RTVSPropertyOp48
 70
     1
102
RTVSPropertyOp49
 70
     1
102
RTVSPropertyOp50
 70
     1
102
RTVSPropertyOp51
 70
     0
102
RTVSPropertyOp52
 70
     0
102
RTVSPropertyOp53
 70
     1
102
RTVSPropertyOp54
 70
     1
102
RTVSPropertyOp55
 70
     1
102
RTVSPropertyOp56
 70
     1
102
RTVSPropertyOp57
 70
     1
102
RTVSPost2010Prop28
280
     0
102
RTVSPost2010PropOp28
 70
     1
102
RTVSPost2010Prop29
280
     1
102
RTVSPost2010PropOp29
 70
     1
102
RTVSPost2010Prop30
280
     1
102
RTVSPost2010PropOp30
 70
     1
102
RTVSPost2010Prop31
280
     0
102
RTVSPost2010PropOp31
 70
     1
102
RTVSPost2010Prop32
280
     0
102
RTVSPost2010PropOp32
 70
     1
102
RTVSPost2010Prop33
280
     0
102
RTVSPost2010PropOp33
 70
     1
102
RTVSPost2010Prop34
280
     0
102
RTVSPost2010PropOp34
 70
     1
102
RTVSPost2010Prop35
280
     0
102
RTVSPost2010PropOp35
 70
     1
102
RTVSPost2010Prop36
280
     0
102
RTVSPost2010PropOp36
 70
     1
102
RTVSPost2010Prop37
 90
       50
102
RTVSPost2010PropOp37
 70
     1
102
RTVSPost2010Prop38
140
0.0
102
RTVSPost2010PropOp38
 70
     1
102
RTVSPost2010Prop39
140
1.0
102
RTVSPost2010PropOp39
 70
     1
102
RTVSPost2010Prop40
 90
        0
102
RTVSPost2010PropOp40
 70
     1
102
RTVSPost2010Prop41ColorIndex
 90
       18
102
RTVSPost2010Prop41ColorRGB
 90
        0
102
RTVSPost2010PropOp41
 70
     1
102
RTVSPost2010Prop42
 90
       50
102
RTVSPost2010PropOp42
 70
     1
102
RTVSPost2010Prop43
 90
        3
102
RTVSPost2010PropOp43
 70
     1
102
RTVSPost2010Prop44ColorIndex
 90
        5
102
RTVSPost2010Prop44ColorRGB
 90
      255
102
RTVSPost2010PropOp44
 70
     1
102
RTVSPost2010Prop45
280
     0
102
RTVSPost2010PropOp45
 70
     1
102
RTVSPost2010Prop46
 90
       50
102
RTVSPost2010PropOp46
 70
     1
102
RTVSPost2010Prop47
 90
       50
102
RTVSPost2010PropOp47
 70
     1
102
RTVSPost2010Prop48
 90
       50
102
RTVSPost2010PropOp48
 70
     1
102
RTVSPost2010Prop49
280
     0
102
RTVSPost2010PropOp49
 70
     1
102
RTVSPost2010Prop50
 90
       50
102
RTVSPost2010PropOp50
 70
     1
102
RTVSPost2010Prop51ColorIndex
 90
      256
102
RTVSPost2010Prop51ColorRGB
 90
-16777216
102
RTVSPost2010PropOp51
 70
     0
102
RTVSPost2010Prop52
140
1.0
102
RTVSPost2010PropOp52
 70
     0
102
RTVSPost2010Prop53
 90
        2
102
RTVSPost2010PropOp53
 70
     1
102
RTVSPost2010Prop54
  1
strokes_ogs.tif
102
RTVSPost2010PropOp54
 70
     1
102
RTVSPost2010Prop55
280
     0
102
RTVSPost2010PropOp55
 70
     1
102
RTVSPost2010Prop56
140
1.0
102
RTVSPost2010PropOp56
 70
     1
102
RTVSPost2010Prop57
140
1.0
102
RTVSPost2010PropOp57
 70
     1
  0
XRECORD
  5
36C
102
{ACAD_REACTORS
330
36B
102
}
330
36B
100
AcDbXrecord
280
     1
102
RTVSPropertyOp0
 70
     1
102
RTVSPropertyOp1
 70
     1
102
RTVSPropertyOp2
 70
     1
102
RTVSPropertyOp3
 70
     1
102
RTVSPropertyOp4
 70
     1
102
RTVSPropertyOp5
 70
     1
102
RTVSPropertyOp6
 70
     1
102
RTVSPropertyOp7
 70
     1
102
RTVSPropertyOp8
 70
     1
102
RTVSPropertyOp9
 70
     1
102
RTVSPropertyOp10
 70
     1
102
RTVSPropertyOp11
 70
     1
102
RTVSPropertyOp12
 70
     1
102
RTVSPropertyOp13
 70
     1
102
RTVSPropertyOp14
 70
     1
102
RTVSPropertyOp15
 70
     1
102
RTVSPropertyOp16
 70
     1
102
RTVSPropertyOp17
 70
     1
102
RTVSPropertyOp18
 70
     1
102
RTVSPropertyOp19
 70
     1
102
RTVSPropertyOp20
 70
     1
102
RTVSPropertyOp21
 70
     1
102
RTVSPropertyOp22
 70
     1
102
RTVSPropertyOp23
 70
     1
102
RTVSPropertyOp24
 70
     1
102
RTVSPropertyOp25
 70
     1
102
RTVSPropertyOp26
 70
     1
102
RTVSPropertyOp27
 70
     1
102
RTVSPropertyOp28
 70
     1
102
RTVSPropertyOp29
 70
     1
102
RTVSPropertyOp30
 70
     1
102
RTVSPropertyOp31
 70
     1
102
RTVSPropertyOp32
 70
     1
102
RTVSPropertyOp33
 70
     1
102
RTVSPropertyOp34
 70
     1
102
RTVSPropertyOp35
 70
     1
102
RTVSPropertyOp36
 70
     1
102
RTVSPropertyOp37
 70
     1
102
RTVSPropertyOp38
 70
     1
102
RTVSPropertyOp39
 70
     1
102
RTVSPropertyOp40
 70
     1
102
RTVSPropertyOp41
 70
     1
102
RTVSPropertyOp42
 70
     1
102
RTVSPropertyOp43
 70
     1
102
RTVSPropertyOp44
 70
     1
102
RTVSPropertyOp45
 70
     1
102
RTVSPropertyOp46
 70
     1
102
RTVSPropertyOp47
 70
     1
102
RTVSPropertyOp48
 70
     1
102
RTVSPropertyOp49
 70
     1
102
RTVSPropertyOp50
 70
     1
102
RTVSPropertyOp51
 70
     0
102
RTVSPropertyOp52
 70
     0
102
RTVSPropertyOp53
 70
     1
102
RTVSPropertyOp54
 70
     1
102
RTVSPropertyOp55
 70
     1
102
RTVSPropertyOp56
 70
     1
102
RTVSPropertyOp57
 70
     1
102
RTVSPost2010Prop28
280
     0
102
RTVSPost2010PropOp28
 70
     1
102
RTVSPost2010Prop29
280
     1
102
RTVSPost2010PropOp29
 70
     1
102
RTVSPost2010Prop30
280
     1
102
RTVSPost2010PropOp30
 70
     1
102
RTVSPost2010Prop31
280
     0
102
RTVSPost2010PropOp31
 70
     1
102
RTVSPost2010Prop32
280
     0
102
RTVSPost2010PropOp32
 70
     1
102
RTVSPost2010Prop33
280
     0
102
RTVSPost2010PropOp33
 70
     1
102
RTVSPost2010Prop34
280
     0
102
RTVSPost2010PropOp34
 70
     1
102
RTVSPost2010Prop35
280
     0
102
RTVSPost2010PropOp35
 70
     1
102
RTVSPost2010Prop36
280
     0
102
RTVSPost2010PropOp36
 70
     1
102
RTVSPost2010Prop37
 90
       50
102
RTVSPost2010PropOp37
 70
     1
102
RTVSPost2010Prop38
140
0.0
102
RTVSPost2010PropOp38
 70
     1
102
RTVSPost2010Prop39
140
1.0
102
RTVSPost2010PropOp39
 70
     1
102
RTVSPost2010Prop40
 90
        0
102
RTVSPost2010PropOp40
 70
     1
102
RTVSPost2010Prop41ColorIndex
 90
       18
102
RTVSPost2010Prop41ColorRGB
 90
        0
102
RTVSPost2010PropOp41
 70
     1
102
RTVSPost2010Prop42
 90
       50
102
RTVSPost2010PropOp42
 70
     1
102
RTVSPost2010Prop43
 90
        3
102
RTVSPost2010PropOp43
 70
     1
102
RTVSPost2010Prop44ColorIndex
 90
        5
102
RTVSPost2010Prop44ColorRGB
 90
      255
102
RTVSPost2010PropOp44
 70
     1
102
RTVSPost2010Prop45
280
     0
102
RTVSPost2010PropOp45
 70
     1
102
RTVSPost2010Prop46
 90
       50
102
RTVSPost2010PropOp46
 70
     1
102
RTVSPost2010Prop47
 90
       50
102
RTVSPost2010PropOp47
 70
     1
102
RTVSPost2010Prop48
 90
       50
102
RTVSPost2010PropOp48
 70
     1
102
RTVSPost2010Prop49
280
     0
102
RTVSPost2010PropOp49
 70
     1
102
RTVSPost2010Prop50
 90
       50
102
RTVSPost2010PropOp50
 70
     1
102
RTVSPost2010Prop51ColorIndex
 90
      256
102
RTVSPost2010Prop51ColorRGB
 90
-16777216
102
RTVSPost2010PropOp51
 70
     0
102
RTVSPost2010Prop52
140
1.0
102
RTVSPost2010PropOp52
 70
     0
102
RTVSPost2010Prop53
 90
        2
102
RTVSPost2010PropOp53
 70
     1
102
RTVSPost2010Prop54
  1
strokes_ogs.tif
102
RTVSPost2010PropOp54
 70
     1
102
RTVSPost2010Prop55
280
     0
102
RTVSPost2010PropOp55
 70
     1
102
RTVSPost2010Prop56
140
1.0
102
RTVSPost2010PropOp56
 70
     1
102
RTVSPost2010Prop57
140
1.0
102
RTVSPost2010PropOp57
 70
     1
  0
XRECORD
  5
35E
102
{ACAD_REACTORS
330
35D
102
}
330
35D
100
AcDbXrecord
280
     1
102
RTVSPropertyOp0
 70
     1
102
RTVSPropertyOp1
 70
     1
102
RTVSPropertyOp2
 70
     1
102
RTVSPropertyOp3
 70
     1
102
RTVSPropertyOp4
 70
     1
102
RTVSPropertyOp5
 70
     1
102
RTVSPropertyOp6
 70
     1
102
RTVSPropertyOp7
 70
     1
102
RTVSPropertyOp8
 70
     1
102
RTVSPropertyOp9
 70
     1
102
RTVSPropertyOp10
 70
     1
102
RTVSPropertyOp11
 70
     1
102
RTVSPropertyOp12
 70
     1
102
RTVSPropertyOp13
 70
     1
102
RTVSPropertyOp14
 70
     1
102
RTVSPropertyOp15
 70
     1
102
RTVSPropertyOp16
 70
     1
102
RTVSPropertyOp17
 70
     1
102
RTVSPropertyOp18
 70
     1
102
RTVSPropertyOp19
 70
     1
102
RTVSPropertyOp20
 70
     1
102
RTVSPropertyOp21
 70
     1
102
RTVSPropertyOp22
 70
     1
102
RTVSPropertyOp23
 70
     1
102
RTVSPropertyOp24
 70
     1
102
RTVSPropertyOp25
 70
     1
102
RTVSPropertyOp26
 70
     1
102
RTVSPropertyOp27
 70
     1
102
RTVSPropertyOp28
 70
     1
102
RTVSPropertyOp29
 70
     1
102
RTVSPropertyOp30
 70
     1
102
RTVSPropertyOp31
 70
     1
102
RTVSPropertyOp32
 70
     1
102
RTVSPropertyOp33
 70
     1
102
RTVSPropertyOp34
 70
     1
102
RTVSPropertyOp35
 70
     1
102
RTVSPropertyOp36
 70
     1
102
RTVSPropertyOp37
 70
     1
102
RTVSPropertyOp38
 70
     1
102
RTVSPropertyOp39
 70
     1
102
RTVSPropertyOp40
 70
     1
102
RTVSPropertyOp41
 70
     1
102
RTVSPropertyOp42
 70
     1
102
RTVSPropertyOp43
 70
     1
102
RTVSPropertyOp44
 70
     1
102
RTVSPropertyOp45
 70
     1
102
RTVSPropertyOp46
 70
     1
102
RTVSPropertyOp47
 70
     1
102
RTVSPropertyOp48
 70
     1
102
RTVSPropertyOp49
 70
     1
102
RTVSPropertyOp50
 70
     1
102
RTVSPropertyOp51
 70
     0
102
RTVSPropertyOp52
 70
     0
102
RTVSPropertyOp53
 70
     1
102
RTVSPropertyOp54
 70
     1
102
RTVSPropertyOp55
 70
     1
102
RTVSPropertyOp56
 70
     1
102
RTVSPropertyOp57
 70
     1
102
RTVSPost2010Prop28
280
     0
102
RTVSPost2010PropOp28
 70
     1
102
RTVSPost2010Prop29
280
     1
102
RTVSPost2010PropOp29
 70
     1
102
RTVSPost2010Prop30
280
     1
102
RTVSPost2010PropOp30
 70
     1
102
RTVSPost2010Prop31
280
     0
102
RTVSPost2010PropOp31
 70
     1
102
RTVSPost2010Prop32
280
     0
102
RTVSPost2010PropOp32
 70
     1
102
RTVSPost2010Prop33
280
     0
102
RTVSPost2010PropOp33
 70
     1
102
RTVSPost2010Prop34
280
     0
102
RTVSPost2010PropOp34
 70
     1
102
RTVSPost2010Prop35
280
     0
102
RTVSPost2010PropOp35
 70
     1
102
RTVSPost2010Prop36
280
     0
102
RTVSPost2010PropOp36
 70
     1
102
RTVSPost2010Prop37
 90
       50
102
RTVSPost2010PropOp37
 70
     1
102
RTVSPost2010Prop38
140
0.0
102
RTVSPost2010PropOp38
 70
     1
102
RTVSPost2010Prop39
140
1.0
102
RTVSPost2010PropOp39
 70
     1
102
RTVSPost2010Prop40
 90
        0
102
RTVSPost2010PropOp40
 70
     1
102
RTVSPost2010Prop41ColorIndex
 90
       18
102
RTVSPost2010Prop41ColorRGB
 90
        0
102
RTVSPost2010PropOp41
 70
     1
102
RTVSPost2010Prop42
 90
       50
102
RTVSPost2010PropOp42
 70
     1
102
RTVSPost2010Prop43
 90
        3
102
RTVSPost2010PropOp43
 70
     1
102
RTVSPost2010Prop44ColorIndex
 90
        5
102
RTVSPost2010Prop44ColorRGB
 90
      255
102
RTVSPost2010PropOp44
 70
     1
102
RTVSPost2010Prop45
280
     0
102
RTVSPost2010PropOp45
 70
     1
102
RTVSPost2010Prop46
 90
       50
102
RTVSPost2010PropOp46
 70
     1
102
RTVSPost2010Prop47
 90
       50
102
RTVSPost2010PropOp47
 70
     1
102
RTVSPost2010Prop48
 90
       50
102
RTVSPost2010PropOp48
 70
     1
102
RTVSPost2010Prop49
280
     0
102
RTVSPost2010PropOp49
 70
     1
102
RTVSPost2010Prop50
 90
       50
102
RTVSPost2010PropOp50
 70
     1
102
RTVSPost2010Prop51ColorIndex
 90
      256
102
RTVSPost2010Prop51ColorRGB
 90
-16777216
102
RTVSPost2010PropOp51
 70
     0
102
RTVSPost2010Prop52
140
1.0
102
RTVSPost2010PropOp52
 70
     0
102
RTVSPost2010Prop53
 90
        2
102
RTVSPost2010PropOp53
 70
     1
102
RTVSPost2010Prop54
  1
strokes_ogs.tif
102
RTVSPost2010PropOp54
 70
     1
102
RTVSPost2010Prop55
280
     0
102
RTVSPost2010PropOp55
 70
     1
102
RTVSPost2010Prop56
140
1.0
102
RTVSPost2010PropOp56
 70
     1
102
RTVSPost2010Prop57
140
1.0
102
RTVSPost2010PropOp57
 70
     1
  0
XRECORD
  5
37E
102
{ACAD_REACTORS
330
37D
102
}
330
37D
100
AcDbXrecord
280
     1
102
RTVSPropertyOp0
 70
     1
102
RTVSPropertyOp1
 70
     1
102
RTVSPropertyOp2
 70
     1
102
RTVSPropertyOp3
 70
     1
102
RTVSPropertyOp4
 70
     1
102
RTVSPropertyOp5
 70
     1
102
RTVSPropertyOp6
 70
     1
102
RTVSPropertyOp7
 70
     1
102
RTVSPropertyOp8
 70
     1
102
RTVSPropertyOp9
 70
     1
102
RTVSPropertyOp10
 70
     1
102
RTVSPropertyOp11
 70
     1
102
RTVSPropertyOp12
 70
     1
102
RTVSPropertyOp13
 70
     1
102
RTVSPropertyOp14
 70
     1
102
RTVSPropertyOp15
 70
     1
102
RTVSPropertyOp16
 70
     1
102
RTVSPropertyOp17
 70
     1
102
RTVSPropertyOp18
 70
     1
102
RTVSPropertyOp19
 70
     1
102
RTVSPropertyOp20
 70
     1
102
RTVSPropertyOp21
 70
     1
102
RTVSPropertyOp22
 70
     1
102
RTVSPropertyOp23
 70
     1
102
RTVSPropertyOp24
 70
     1
102
RTVSPropertyOp25
 70
     1
102
RTVSPropertyOp26
 70
     1
102
RTVSPropertyOp27
 70
     1
102
RTVSPropertyOp28
 70
     1
102
RTVSPropertyOp29
 70
     1
102
RTVSPropertyOp30
 70
     1
102
RTVSPropertyOp31
 70
     1
102
RTVSPropertyOp32
 70
     1
102
RTVSPropertyOp33
 70
     1
102
RTVSPropertyOp34
 70
     1
102
RTVSPropertyOp35
 70
     1
102
RTVSPropertyOp36
 70
     1
102
RTVSPropertyOp37
 70
     1
102
RTVSPropertyOp38
 70
     1
102
RTVSPropertyOp39
 70
     1
102
RTVSPropertyOp40
 70
     1
102
RTVSPropertyOp41
 70
     1
102
RTVSPropertyOp42
 70
     1
102
RTVSPropertyOp43
 70
     1
102
RTVSPropertyOp44
 70
     1
102
RTVSPropertyOp45
 70
     1
102
RTVSPropertyOp46
 70
     1
102
RTVSPropertyOp47
 70
     1
102
RTVSPropertyOp48
 70
     1
102
RTVSPropertyOp49
 70
     1
102
RTVSPropertyOp50
 70
     1
102
RTVSPropertyOp51
 70
     0
102
RTVSPropertyOp52
 70
     0
102
RTVSPropertyOp53
 70
     1
102
RTVSPropertyOp54
 70
     1
102
RTVSPropertyOp55
 70
     1
102
RTVSPropertyOp56
 70
     1
102
RTVSPropertyOp57
 70
     1
102
RTVSPost2010Prop28
280
     0
102
RTVSPost2010PropOp28
 70
     1
102
RTVSPost2010Prop29
280
     1
102
RTVSPost2010PropOp29
 70
     1
102
RTVSPost2010Prop30
280
     1
102
RTVSPost2010PropOp30
 70
     1
102
RTVSPost2010Prop31
280
     0
102
RTVSPost2010PropOp31
 70
     1
102
RTVSPost2010Prop32
280
     0
102
RTVSPost2010PropOp32
 70
     1
102
RTVSPost2010Prop33
280
     0
102
RTVSPost2010PropOp33
 70
     1
102
RTVSPost2010Prop34
280
     0
102
RTVSPost2010PropOp34
 70
     1
102
RTVSPost2010Prop35
280
     0
102
RTVSPost2010PropOp35
 70
     1
102
RTVSPost2010Prop36
280
     0
102
RTVSPost2010PropOp36
 70
     1
102
RTVSPost2010Prop37
 90
       50
102
RTVSPost2010PropOp37
 70
     1
102
RTVSPost2010Prop38
140
0.0
102
RTVSPost2010PropOp38
 70
     1
102
RTVSPost2010Prop39
140
1.0
102
RTVSPost2010PropOp39
 70
     1
102
RTVSPost2010Prop40
 90
        0
102
RTVSPost2010PropOp40
 70
     1
102
RTVSPost2010Prop41ColorIndex
 90
       18
102
RTVSPost2010Prop41ColorRGB
 90
        0
102
RTVSPost2010PropOp41
 70
     1
102
RTVSPost2010Prop42
 90
       50
102
RTVSPost2010PropOp42
 70
     1
102
RTVSPost2010Prop43
 90
        3
102
RTVSPost2010PropOp43
 70
     1
102
RTVSPost2010Prop44ColorIndex
 90
        5
102
RTVSPost2010Prop44ColorRGB
 90
      255
102
RTVSPost2010PropOp44
 70
     1
102
RTVSPost2010Prop45
280
     0
102
RTVSPost2010PropOp45
 70
     1
102
RTVSPost2010Prop46
 90
       50
102
RTVSPost2010PropOp46
 70
     1
102
RTVSPost2010Prop47
 90
       50
102
RTVSPost2010PropOp47
 70
     1
102
RTVSPost2010Prop48
 90
       50
102
RTVSPost2010PropOp48
 70
     1
102
RTVSPost2010Prop49
280
     0
102
RTVSPost2010PropOp49
 70
     1
102
RTVSPost2010Prop50
 90
       50
102
RTVSPost2010PropOp50
 70
     1
102
RTVSPost2010Prop51ColorIndex
 90
      256
102
RTVSPost2010Prop51ColorRGB
 90
-16777216
102
RTVSPost2010PropOp51
 70
     0
102
RTVSPost2010Prop52
140
1.0
102
RTVSPost2010PropOp52
 70
     0
102
RTVSPost2010Prop53
 90
        2
102
RTVSPost2010PropOp53
 70
     1
102
RTVSPost2010Prop54
  1
strokes_ogs.tif
102
RTVSPost2010PropOp54
 70
     1
102
RTVSPost2010Prop55
280
     0
102
RTVSPost2010PropOp55
 70
     1
102
RTVSPost2010Prop56
140
1.0
102
RTVSPost2010PropOp56
 70
     1
102
RTVSPost2010Prop57
140
1.0
102
RTVSPost2010PropOp57
 70
     1
  0
ENDSEC
  0
EOF
