  0
SECTION
  2
HEADER
  9
$ACADVER
  1
AC1018
  9
$ACADMAINTVER
 70
     0
  9
$DWGCODEPAGE
  3
ANSI_932
  9
$INSBASE
 10
0.0
 20
0.0
 30
0.0
  9
$EXTMIN
 10
-630.0
 20
-445.5
 30
0.0
  9
$EXTMAX
 10
630.0
 20
445.5
 30
0.0
  9
$LIMMIN
 10
-630.0
 20
-445.5
  9
$LIMMAX
 10
630.0
 20
445.5
  9
$ORTHOMODE
 70
     0
  9
$REGENMODE
 70
     1
  9
$FILLMODE
 70
     1
  9
$QTEXTMODE
 70
     0
  9
$MIRRTEXT
 70
     1
  9
$LTSCALE
 40
3.0
  9
$ATTMODE
 70
     1
  9
$TEXTSIZE
 40
2.5
  9
$TRACEWID
 40
1.0
  9
$TEXTSTYLE
  7
Standard
  9
$CLAYER
  8
0
  9
$CELTYPE
  6
ByLayer
  9
$CECOLOR
 62
   256
  9
$CELTSCALE
 40
1.0
  9
$DISPSILH
 70
     0
  9
$DIMSCALE
 40
1.0
  9
$DIMASZ
 40
2.5
  9
$DIMEXO
 40
0.625
  9
$DIMDLI
 40
3.75
  9
$DIMRND
 40
0.0
  9
$DIMDLE
 40
0.0
  9
$DIMEXE
 40
1.25
  9
$DIMTP
 40
0.0
  9
$DIMTM
 40
0.0
  9
$DIMTXT
 40
2.5
  9
$DIMCEN
 40
2.5
  9
$DIMTSZ
 40
0.0
  9
$DIMTOL
 70
     0
  9
$DIMLIM
 70
     0
  9
$DIMTIH
 70
     0
  9
$DIMTOH
 70
     0
  9
$DIMSE1
 70
     0
  9
$DIMSE2
 70
     0
  9
$DIMTAD
 70
     1
  9
$DIMZIN
 70
     8
  9
$DIMBLK
  1

  9
$DIMASO
 70
     1
  9
$DIMSHO
 70
     1
  9
$DIMPOST
  1

  9
$DIMAPOST
  1

  9
$DIMALT
 70
     0
  9
$DIMALTD
 70
     3
  9
$DIMALTF
 40
0.03937007874016
  9
$DIMLFAC
 40
1.0
  9
$DIMTOFL
 70
     1
  9
$DIMTVP
 40
0.0
  9
$DIMTIX
 70
     0
  9
$DIMSOXD
 70
     0
  9
$DIMSAH
 70
     0
  9
$DIMBLK1
  1

  9
$DIMBLK2
  1

  9
$DIMSTYLE
  2
ISO-25
  9
$DIMCLRD
 70
     0
  9
$DIMCLRE
 70
     0
  9
$DIMCLRT
 70
     0
  9
$DIMTFAC
 40
1.0
  9
$DIMGAP
 40
0.625
  9
$DIMJUST
 70
     0
  9
$DIMSD1
 70
     0
  9
$DIMSD2
 70
     0
  9
$DIMTOLJ
 70
     0
  9
$DIMTZIN
 70
     8
  9
$DIMALTZ
 70
     0
  9
$DIMALTTZ
 70
     0
  9
$DIMUPT
 70
     0
  9
$DIMDEC
 70
     2
  9
$DIMTDEC
 70
     2
  9
$DIMALTU
 70
     2
  9
$DIMALTTD
 70
     3
  9
$DIMTXSTY
  7
Standard
  9
$DIMAUNIT
 70
     0
  9
$DIMADEC
 70
     0
  9
$DIMALTRND
 40
0.0
  9
$DIMAZIN
 70
     0
  9
$DIMDSEP
 70
    44
  9
$DIMATFIT
 70
     3
  9
$DIMFRAC
 70
     0
  9
$DIMLDRBLK
  1

  9
$DIMLUNIT
 70
     2
  9
$DIMLWD
 70
    -2
  9
$DIMLWE
 70
    -2
  9
$DIMTMOVE
 70
     0
  9
$LUNITS
 70
     2
  9
$LUPREC
 70
     4
  9
$SKETCHINC
 40
1.0
  9
$FILLETRAD
 40
10.0
  9
$AUNITS
 70
     0
  9
$AUPREC
 70
     0
  9
$MENU
  1
.
  9
$ELEVATION
 40
0.0
  9
$PELEVATION
 40
0.0
  9
$THICKNESS
 40
0.0
  9
$LIMCHECK
 70
     0
  9
$CHAMFERA
 40
0.0
  9
$CHAMFERB
 40
0.0
  9
$CHAMFERC
 40
0.0
  9
$CHAMFERD
 40
0.0
  9
$SKPOLY
 70
     0
  9
$TDCREATE
 40
2460032.634850937
  9
$TDUCREATE
 40
2460032.259850937
  9
$TDUPDATE
 40
2460032.634851053
  9
$TDUUPDATE
 40
2460032.259851053
  9
$TDINDWG
 40
0.0000000116
  9
$TDUSRTIMER
 40
0.0000000116
  9
$USRTIMER
 70
     1
  9
$ANGBASE
 50
0.0
  9
$ANGDIR
 70
     0
  9
$PDMODE
 70
     0
  9
$PDSIZE
 40
0.0
  9
$PLINEWID
 40
0.0
  9
$SPLFRAME
 70
     0
  9
$SPLINETYPE
 70
     6
  9
$SPLINESEGS
 70
     8
  9
$HANDSEED
  5
2F0
  9
$SURFTAB1
 70
     6
  9
$SURFTAB2
 70
     6
  9
$SURFTYPE
 70
     6
  9
$SURFU
 70
     6
  9
$SURFV
 70
     6
  9
$UCSBASE
  2

  9
$UCSNAME
  2

  9
$UCSORG
 10
0.0
 20
0.0
 30
0.0
  9
$UCSXDIR
 10
1.0
 20
0.0
 30
0.0
  9
$UCSYDIR
 10
0.0
 20
1.0
 30
0.0
  9
$UCSORTHOREF
  2

  9
$UCSORTHOVIEW
 70
     0
  9
$UCSORGTOP
 10
0.0
 20
0.0
 30
0.0
  9
$UCSORGBOTTOM
 10
0.0
 20
0.0
 30
0.0
  9
$UCSORGLEFT
 10
0.0
 20
0.0
 30
0.0
  9
$UCSORGRIGHT
 10
0.0
 20
0.0
 30
0.0
  9
$UCSORGFRONT
 10
0.0
 20
0.0
 30
0.0
  9
$UCSORGBACK
 10
0.0
 20
0.0
 30
0.0
  9
$PUCSBASE
  2

  9
$PUCSNAME
  2

  9
$PUCSORG
 10
0.0
 20
0.0
 30
0.0
  9
$PUCSXDIR
 10
1.0
 20
0.0
 30
0.0
  9
$PUCSYDIR
 10
0.0
 20
1.0
 30
0.0
  9
$PUCSORTHOREF
  2

  9
$PUCSORTHOVIEW
 70
     0
  9
$PUCSORGTOP
 10
0.0
 20
0.0
 30
0.0
  9
$PUCSORGBOTTOM
 10
0.0
 20
0.0
 30
0.0
  9
$PUCSORGLEFT
 10
0.0
 20
0.0
 30
0.0
  9
$PUCSORGRIGHT
 10
0.0
 20
0.0
 30
0.0
  9
$PUCSORGFRONT
 10
0.0
 20
0.0
 30
0.0
  9
$PUCSORGBACK
 10
0.0
 20
0.0
 30
0.0
  9
$USERI1
 70
     0
  9
$USERI2
 70
     0
  9
$USERI3
 70
     0
  9
$USERI4
 70
     0
  9
$USERI5
 70
     0
  9
$USERR1
 40
0.0
  9
$USERR2
 40
0.0
  9
$USERR3
 40
0.0
  9
$USERR4
 40
0.0
  9
$USERR5
 40
0.0
  9
$WORLDVIEW
 70
     1
  9
$SHADEDGE
 70
     3
  9
$SHADEDIF
 70
    70
  9
$TILEMODE
 70
     1
  9
$MAXACTVP
 70
    64
  9
$PINSBASE
 10
0.0
 20
0.0
 30
0.0
  9
$PLIMCHECK
 70
     0
  9
$PEXTMIN
 10
1.000000000000000E+20
 20
1.000000000000000E+20
 30
1.000000000000000E+20
  9
$PEXTMAX
 10
-1.000000000000000E+20
 20
-1.000000000000000E+20
 30
-1.000000000000000E+20
  9
$PLIMMIN
 10
0.0
 20
0.0
  9
$PLIMMAX
 10
420.0
 20
297.0
  9
$UNITMODE
 70
     0
  9
$VISRETAIN
 70
     1
  9
$PLINEGEN
 70
     0
  9
$PSLTSCALE
 70
     1
  9
$TREEDEPTH
 70
  3020
  9
$CMLSTYLE
  2
Standard
  9
$CMLJUST
 70
     0
  9
$CMLSCALE
 40
20.0
  9
$PROXYGRAPHICS
 70
     1
  9
$MEASUREMENT
 70
     1
  9
$CELWEIGHT
370
    -1
  9
$ENDCAPS
280
     0
  9
$JOINSTYLE
280
     0
  9
$LWDISPLAY
290
     0
  9
$INSUNITS
 70
     4
  9
$HYPERLINKBASE
  1

  9
$STYLESHEET
  1

  9
$XEDIT
290
     1
  9
$CEPSNTYPE
380
     0
  9
$PSTYLEMODE
290
     1
  9
$FINGERPRINTGUID
  2
{2AADCB40-CC77-41A7-8843-DB2D6B1F088F}
  9
$VERSIONGUID
  2
{FAEB1C32-E019-11D5-929B-00C0DF256EC4}
  9
$EXTNAMES
290
     1
  9
$PSVPSCALE
 40
0.0
  9
$OLESTARTUP
290
     0
  9
$SORTENTS
280
   127
  9
$INDEXCTL
280
     0
  9
$HIDETEXT
280
     1
  9
$XCLIPFRAME
290
     0
  9
$HALOGAP
280
     0
  9
$OBSCOLOR
 70
   257
  9
$OBSLTYPE
280
     0
  9
$INTERSECTIONDISPLAY
280
     0
  9
$INTERSECTIONCOLOR
 70
   257
  9
$DIMASSOC
280
     2
  9
$PROJECTNAME
  1

  0
ENDSEC
  0
SECTION
  2
CLASSES
  0
CLASS
  1
ACDBDICTIONARYWDFLT
  2
AcDbDictionaryWithDefault
  3
ObjectDBX Classes
 90
        0
 91
        4
280
     0
281
     0
  0
CLASS
  1
VISUALSTYLE
  2
AcDbVisualStyle
  3
ObjectDBX Classes
 90
     4095
 91
        4
280
     0
281
     0
  0
CLASS
  1
MATERIAL
  2
AcDbMaterial
  3
ObjectDBX Classes
 90
     1153
 91
        4
280
     0
281
     0
  0
CLASS
  1
SCALE
  2
AcDbScale
  3
ObjectDBX Classes
 90
     1153
 91
        4
280
     0
281
     0
  0
CLASS
  1
TABLESTYLE
  2
AcDbTableStyle
  3
ObjectDBX Classes
 90
     4095
 91
        4
280
     0
281
     0
  0
CLASS
  1
MLEADERSTYLE
  2
AcDbMLeaderStyle
  3
ACDB_MLEADERSTYLE_CLASS
 90
     4095
 91
        4
280
     0
281
     0
  0
CLASS
  1
SUN
  2
AcDbSun
  3
SCENEOE
 90
     1153
 91
        4
280
     0
281
     0
  0
CLASS
  1
DICTIONARYVAR
  2
AcDbDictionaryVar
  3
ObjectDBX Classes
 90
        0
 91
        4
280
     0
281
     0
  0
CLASS
  1
CELLSTYLEMAP
  2
AcDbCellStyleMap
  3
ObjectDBX Classes
 90
     1152
 91
        4
280
     0
281
     0
  0
ENDSEC
  0
SECTION
  2
TABLES
  0
TABLE
  2
VPORT
  5
8
102
{ACAD_XDICTIONARY
360
2A7
102
}
330
0
100
AcDbSymbolTable
 70
     1
  0
VPORT
  5
29
330
8
100
AcDbSymbolTableRecord
100
AcDbViewportTableRecord
  2
*Active
 70
     0
 10
0.0
 20
0.0
 11
1.0
 21
1.0
 12
0.0
 22
0.0
 13
0.0
 23
0.0
 14
10.0
 24
10.0
 15
10.0
 25
10.0
 16
0.0
 26
0.0
 36
1.0
 17
0.0
 27
0.0
 37
0.0
 40
980.1
 41
1.414141414141414
 42
50.0
 43
0.0
 44
0.0
 50
0.0
 51
0.0
 71
     0
 72
 10000
 73
     1
 74
     3
 75
     0
 76
     0
 77
     0
 78
     0
281
     0
 65
     1
110
0.0
120
0.0
130
0.0
111
1.0
121
0.0
131
0.0
112
0.0
122
1.0
132
0.0
 79
     0
146
0.0
  0
ENDTAB
  0
TABLE
  2
LTYPE
  5
5
330
0
100
AcDbSymbolTable
 70
     3
  0
LTYPE
  5
14
330
5
100
AcDbSymbolTableRecord
100
AcDbLinetypeTableRecord
  2
ByBlock
 70
     0
  3

 72
    65
 73
     0
 40
0.0
  0
LTYPE
  5
15
330
5
100
AcDbSymbolTableRecord
100
AcDbLinetypeTableRecord
  2
ByLayer
 70
     0
  3

 72
    65
 73
     0
 40
0.0
  0
LTYPE
  5
16
330
5
100
AcDbSymbolTableRecord
100
AcDbLinetypeTableRecord
  2
Continuous
 70
     0
  3
Solid line
 72
    65
 73
     0
 40
0.0
  0
LTYPE
  5
6F
330
5
100
AcDbSymbolTableRecord
100
AcDbLinetypeTableRecord
  2
JWW_DASHED1
 70
     0
  3
-  --  --  --  --  --  --  --  -
 72
    65
 73
     2
 40
1.693333333333333
 49
0.8466666666666667
 74
     0
 49
-0.8466666666666667
 74
     0
  0
LTYPE
  5
70
330
5
100
AcDbSymbolTableRecord
100
AcDbLinetypeTableRecord
  2
JWW_CENTER1
 70
     0
  3
-----  --  ----------  --  -----
 72
    65
 73
     4
 40
6.773333333333333
 49
4.233333333333333
 74
     0
 49
-0.8466666666666667
 74
     0
 49
0.8466666666666667
 74
     0
 49
-0.8466666666666667
 74
     0
  0
ENDTAB
  0
TABLE
  2
LAYER
  5
2
330
0
100
AcDbSymbolTable
 70
     7
  0
LAYER
  5
10
330
2
100
AcDbSymbolTableRecord
100
AcDbLayerTableRecord
  2
0
 70
     0
 62
     7
  6
Continuous
370
    -3
390
F
  0
LAYER
  5
71
330
2
100
AcDbSymbolTableRecord
100
AcDbLayerTableRecord
  2
躯体
 70
     0
 62
     7
  6
Continuous
370
    -3
390
F
  0
LAYER
  5
72
330
2
100
AcDbSymbolTableRecord
100
AcDbLayerTableRecord
  2
仕上
 70
     0
 62
     7
  6
Continuous
370
    -3
390
F
  0
LAYER
  5
73
330
2
100
AcDbSymbolTableRecord
100
AcDbLayerTableRecord
  2
その他
 70
     0
 62
     7
  6
Continuous
370
    -3
390
F
  0
LAYER
  5
74
330
2
100
AcDbSymbolTableRecord
100
AcDbLayerTableRecord
  2
通り芯
 70
     0
 62
     7
  6
Continuous
370
    -3
390
F
  0
LAYER
  5
75
330
2
100
AcDbSymbolTableRecord
100
AcDbLayerTableRecord
  2
寸法
 70
     0
 62
     7
  6
Continuous
370
    -3
390
F
  0
LAYER
  5
76
330
2
100
AcDbSymbolTableRecord
100
AcDbLayerTableRecord
  2
F-4ﾚｲﾔ
 70
     0
 62
     7
  6
Continuous
370
    -3
390
F
  0
ENDTAB
  0
TABLE
  2
STYLE
  5
3
330
0
100
AcDbSymbolTable
 70
     2
  0
STYLE
  5
11
330
3
100
AcDbSymbolTableRecord
100
AcDbTextStyleTableRecord
  2
Standard
 70
     0
 40
0.0
 41
1.0
 50
0.0
 71
     0
 42
2.5
  3
txt
  4

  0
STYLE
  5
6E
330
3
100
AcDbSymbolTableRecord
100
AcDbTextStyleTableRecord
  2
ＭＳ ゴシック
 70
     0
 40
1.0
 41
1.0
 50
0.0
 71
     0
 42
2.5
  3

  4

1001
ACAD
1000
MS Gothic
1071
    32817
  0
ENDTAB
  0
TABLE
  2
VIEW
  5
6
330
0
100
AcDbSymbolTable
 70
     0
  0
ENDTAB
  0
TABLE
  2
UCS
  5
7
330
0
100
AcDbSymbolTable
 70
     0
  0
ENDTAB
  0
TABLE
  2
APPID
  5
9
330
0
100
AcDbSymbolTable
 70
     2
  0
APPID
  5
12
330
9
100
AcDbSymbolTableRecord
100
AcDbRegAppTableRecord
  2
ACAD
 70
     0
  0
APPID
  5
2E6
330
9
100
AcDbSymbolTableRecord
100
AcDbRegAppTableRecord
  2
ACAD_MLEADERVER
 70
     0
  0
ENDTAB
  0
TABLE
  2
DIMSTYLE
  5
A
330
0
100
AcDbSymbolTable
 70
     1
100
AcDbDimStyleTable
  0
DIMSTYLE
105
27
330
A
100
AcDbSymbolTableRecord
100
AcDbDimStyleTableRecord
  2
ISO-25
 70
     0
 41
2.5
 42
0.625
 43
3.75
 44
1.25
 73
     0
 74
     0
 77
     1
 78
     8
140
2.5
141
2.5
143
0.03937007874016
147
0.625
171
     3
172
     1
178
     0
271
     2
272
     2
274
     3
278
    44
283
     0
284
     8
340
11
  0
ENDTAB
  0
TABLE
  2
BLOCK_RECORD
  5
1
330
0
100
AcDbSymbolTable
 70
     1
  0
BLOCK_RECORD
  5
1F
330
1
100
AcDbSymbolTableRecord
100
AcDbBlockTableRecord
  2
*Model_Space
340
22
  0
BLOCK_RECORD
  5
1B
330
1
100
AcDbSymbolTableRecord
100
AcDbBlockTableRecord
  2
*Paper_Space
340
1E
  0
BLOCK_RECORD
  5
23
330
1
100
AcDbSymbolTableRecord
100
AcDbBlockTableRecord
  2
*Paper_Space0
340
26
  0
ENDTAB
  0
ENDSEC
  0
SECTION
  2
BLOCKS
  0
BLOCK
  5
20
330
1F
100
AcDbEntity
  8
0
100
AcDbBlockBegin
  2
*Model_Space
 70
     0
 10
0.0
 20
0.0
 30
0.0
  3
*Model_Space
  1

  0
ENDBLK
  5
21
330
1F
100
AcDbEntity
  8
0
100
AcDbBlockEnd
  0
BLOCK
  5
1C
330
1B
100
AcDbEntity
 67
     1
  8
0
100
AcDbBlockBegin
  2
*Paper_Space
 70
     0
 10
0.0
 20
0.0
 30
0.0
  3
*Paper_Space
  1

  0
ENDBLK
  5
1D
330
1B
100
AcDbEntity
 67
     1
  8
0
100
AcDbBlockEnd
  0
BLOCK
  5
24
330
23
100
AcDbEntity
  8
0
100
AcDbBlockBegin
  2
*Paper_Space0
 70
     0
 10
0.0
 20
0.0
 30
0.0
  3
*Paper_Space0
  1

  0
ENDBLK
  5
25
330
23
100
AcDbEntity
  8
0
100
AcDbBlockEnd
  0
ENDSEC
  0
SECTION
  2
ENTITIES
  0
LINE
  5
77
330
1F
100
AcDbEntity
  8
躯体
  6
Continuous
 62
     2
370
     9
100
AcDbLine
 10
-127.827391013877
 20
-13.73916532184727
 30
0.0
 11
-127.3274017362694
 21
-11.7391710954431
 31
0.0
  0
LINE
  5
78
330
1F
100
AcDbEntity
  8
躯体
  6
Continuous
 62
     2
370
     9
100
AcDbLine
 10
-121.7684310529395
 20
-11.7391710954431
 30
0.0
 11
-127.3274017362694
 21
-11.7391710954431
 31
0.0
  0
LINE
  5
79
330
1F
100
AcDbEntity
  8
躯体
  6
Continuous
 62
     2
370
     9
100
AcDbLine
 10
-108.32740091147
 20
-7.739219758608264
 30
0.0
 11
-111.3273736930894
 21
-7.739219758608264
 31
0.0
  0
LINE
  5
7A
330
1F
100
AcDbEntity
  8
躯体
  6
Continuous
 62
     2
370
     9
100
AcDbLine
 10
-111.8204222836722
 20
-10.95843659507357
 30
0.0
 11
-111.3273736930894
 21
-7.739219758608264
 31
0.0
  0
LINE
  5
7B
330
1F
100
AcDbEntity
  8
躯体
  6
Continuous
 62
     2
370
     9
100
AcDbLine
 10
-108.32740091147
 20
-7.739219758608264
 30
0.0
 11
-107.0592965644472
 21
-14.50509054883201
 31
0.0
  0
LINE
  5
7C
330
1F
100
AcDbEntity
  8
躯体
  6
Continuous
 62
     2
370
     9
100
AcDbLine
 10
52.17260898612298
 20
-13.73916532184727
 30
0.0
 11
51.67258259254189
 21
-11.7391710954431
 31
0.0
  0
LINE
  5
7D
330
1F
100
AcDbEntity
  8
躯体
  6
Continuous
 62
     2
370
     9
100
AcDbLine
 10
46.11364902518548
 20
-11.7391710954431
 30
0.0
 11
51.67258259254189
 21
-11.7391710954431
 31
0.0
  0
LINE
  5
7E
330
1F
100
AcDbEntity
  8
躯体
  6
Continuous
 62
     2
370
     9
100
AcDbLine
 10
36.16567737189158
 20
-10.95843659507357
 30
0.0
 11
35.67262878130876
 21
-7.739219758608264
 31
0.0
  0
LINE
  5
7F
330
1F
100
AcDbEntity
  8
躯体
  6
Continuous
 62
     2
370
     9
100
AcDbLine
 10
-86.82737946668529
 20
-19.23919583942539
 30
0.0
 11
-85.82740091146998
 21
-24.23919996342242
 31
0.0
  0
LINE
  5
80
330
1F
100
AcDbEntity
  8
躯体
  6
Continuous
 62
     2
370
     9
100
AcDbLine
 10
-74.82737699228707
 20
-19.23919583942539
 30
0.0
 11
-75.82739266347582
 21
-24.23919996342242
 31
0.0
  0
LINE
  5
81
330
1F
100
AcDbEntity
  8
躯体
  6
Continuous
 62
     2
370
     9
100
AcDbLine
 10
-68.58621471795223
 20
-20.4450566990643
 30
0.0
 11
-67.82734152591247
 21
-24.23919996342242
 31
0.0
  0
LINE
  5
82
330
1F
100
AcDbEntity
  8
躯体
  6
Continuous
 62
     2
370
     9
100
AcDbLine
 10
-70.05704651165998
 20
-19.23919583942539
 30
0.0
 11
-93.77786510857723
 21
-19.23919583942539
 31
0.0
  0
LINE
  5
83
330
1F
100
AcDbEntity
  8
躯体
  6
Continuous
 62
     2
370
     9
100
AcDbLine
 10
-93.77786510857723
 20
-19.23919583942539
 30
0.0
 11
-105.6111055145104
 21
-16.06848958018764
 31
0.0
  0
LINE
  5
84
330
1F
100
AcDbEntity
  8
躯体
  6
Continuous
 62
     2
370
     9
100
AcDbLine
 10
-115.5623062574898
 20
-13.4021522834182
 30
0.0
 11
-121.7684310529395
 21
-11.7391710954431
 31
0.0
  0
LINE
  5
85
330
1F
100
AcDbEntity
  8
躯体
  6
JWW_DASHED1
 62
     2
370
     9
100
AcDbLine
 10
-105.6111055145104
 20
-16.06848958018764
 30
0.0
 11
-115.5623062574898
 21
-13.4021522834182
 31
0.0
  0
LINE
  5
86
330
1F
100
AcDbEntity
  8
躯体
  6
Continuous
 62
     2
370
     9
100
AcDbLine
 10
18.45252446067954
 20
-14.97646341095201
 30
0.0
 11
17.89541370001658
 21
-18.10760404255039
 31
0.0
  0
LINE
  5
87
330
1F
100
AcDbEntity
  8
躯体
  6
JWW_DASHED1
 62
     2
370
     9
100
AcDbLine
 10
31.77745583736877
 20
-12.51552591095201
 30
0.0
 11
31.40451453669306
 21
-14.50509054883201
 31
0.0
  0
LINE
  5
88
330
1F
100
AcDbEntity
  8
躯体
  6
Continuous
 62
     2
370
     9
100
AcDbLine
 10
12.52495504556135
 20
-20.73920078822186
 30
0.0
 11
16.44395644442111
 21
-19.68911566892289
 31
0.0
  0
LINE
  5
89
330
1F
100
AcDbEntity
  8
躯体
  6
JWW_DASHED1
 62
     2
370
     9
100
AcDbLine
 10
16.44395644442111
 20
-19.68911566892289
 30
0.0
 11
39.90756134570907
 21
-13.40207805147138
 31
0.0
  0
LINE
  5
8A
330
1F
100
AcDbEntity
  8
躯体
  6
Continuous
 62
     2
370
     9
100
AcDbLine
 10
39.90756134570907
 20
-13.40207805147138
 30
0.0
 11
46.11364902518548
 21
-11.7391710954431
 31
0.0
  0
LINE
  5
8B
330
1F
100
AcDbEntity
  8
躯体
  6
Continuous
 62
     2
370
     9
100
AcDbLine
 10
32.67261888371587
 20
-7.739219758608264
 30
0.0
 11
31.77745583736877
 21
-12.51552591095201
 31
0.0
  0
LINE
  5
8C
330
1F
100
AcDbEntity
  8
躯体
  6
Continuous
 62
     2
370
     9
100
AcDbLine
 10
32.67261888371587
 20
-7.739219758608264
 30
0.0
 11
35.67262878130876
 21
-7.739219758608264
 31
0.0
  0
LINE
  5
8D
330
1F
100
AcDbEntity
  8
躯体
  6
Continuous
 62
     4
370
     9
100
AcDbLine
 10
-76.82740833466457
 20
-35.40275686138482
 30
0.0
 11
-84.82734812430779
 21
-35.40275686138482
 31
0.0
  0
LINE
  5
8E
330
1F
100
AcDbEntity
  8
躯体
  6
Continuous
 62
     4
370
     9
100
AcDbLine
 10
-84.82734812430779
 20
-35.40275686138482
 30
0.0
 11
-84.15094662515239
 21
-36.07919547651368
 31
0.0
  0
LINE
  5
8F
330
1F
100
AcDbEntity
  8
躯体
  6
Continuous
 62
     4
370
     9
100
AcDbLine
 10
-84.15094662515239
 20
-36.07919547651368
 30
0.0
 11
-77.50388406576685
 21
-36.07919547651368
 31
0.0
  0
LINE
  5
90
330
1F
100
AcDbEntity
  8
躯体
  6
Continuous
 62
     4
370
     9
100
AcDbLine
 10
-77.50388406576685
 20
-36.07919547651368
 30
0.0
 11
-76.82740833466457
 21
-35.40275686138482
 31
0.0
  0
LINE
  5
91
330
1F
100
AcDbEntity
  8
躯体
  6
Continuous
 62
     4
370
     9
100
AcDbLine
 10
-88.32738441548176
 20
-13.46090686930289
 30
0.0
 11
-88.32738441548176
 21
-19.23919583942539
 31
0.0
  0
LINE
  5
92
330
1F
100
AcDbEntity
  8
躯体
  6
Continuous
 62
     4
370
     9
100
AcDbLine
 10
-73.3273720434906
 20
-13.46090686930289
 30
0.0
 11
-73.3273720434906
 21
-19.23919583942539
 31
0.0
  0
LINE
  5
93
330
1F
100
AcDbEntity
  8
躯体
  6
Continuous
 62
     4
370
     9
100
AcDbLine
 10
-88.32738441548176
 20
-19.23919583942539
 30
0.0
 11
-73.3273720434906
 21
-19.23919583942539
 31
0.0
  0
LINE
  5
94
330
1F
100
AcDbEntity
  8
躯体
  6
Continuous
 62
     4
370
     9
100
AcDbLine
 10
-84.57462546145935
 20
-13.46090686930289
 30
0.0
 11
-84.57462546145935
 21
-19.23919583942539
 31
0.0
  0
LINE
  5
95
330
1F
100
AcDbEntity
  8
躯体
  6
Continuous
 62
     4
370
     9
100
AcDbLine
 10
-77.08013099751301
 20
-13.46090686930289
 30
0.0
 11
-77.08013099751301
 21
-19.23919583942539
 31
0.0
  0
LINE
  5
96
330
1F
100
AcDbEntity
  8
躯体
  6
Continuous
 62
     4
370
     9
100
AcDbLine
 10
-86.45094926451044
 20
-12.73918676663185
 30
0.0
 11
-75.20380719446192
 21
-12.73918676663185
 31
0.0
  0
LINE
  5
97
330
1F
100
AcDbEntity
  8
躯体
  6
Continuous
 62
     4
370
     9
100
AcDbLine
 10
-84.15094662515239
 20
-19.23919583942539
 30
0.0
 11
-84.15094662515239
 21
-36.07919547651368
 31
0.0
  0
LINE
  5
98
330
1F
100
AcDbEntity
  8
躯体
  6
Continuous
 62
     4
370
     9
100
AcDbLine
 10
-84.82734812430779
 20
-19.23919583942539
 30
0.0
 11
-84.82734812430779
 21
-35.40275686138482
 31
0.0
  0
LINE
  5
99
330
1F
100
AcDbEntity
  8
躯体
  6
Continuous
 62
     4
370
     9
100
AcDbLine
 10
-77.50388406576685
 20
-19.23919583942539
 30
0.0
 11
-77.50388406576685
 21
-36.07919547651368
 31
0.0
  0
LINE
  5
9A
330
1F
100
AcDbEntity
  8
躯体
  6
Continuous
 62
     4
370
     9
100
AcDbLine
 10
-76.82740833466457
 20
-19.23919583942539
 30
0.0
 11
-76.82740833466457
 21
-35.40275686138482
 31
0.0
  0
LINE
  5
9B
330
1F
100
AcDbEntity
  8
躯体
  6
Continuous
 62
     4
370
     9
100
AcDbLine
 10
-76.82740833466457
 20
3.244250436440311
 30
0.0
 11
-84.82734812430779
 21
3.244250436440311
 31
0.0
  0
LINE
  5
9C
330
1F
100
AcDbEntity
  8
躯体
  6
Continuous
 62
     4
370
     9
100
AcDbLine
 10
-84.82734812430779
 20
3.244250436440311
 30
0.0
 11
-84.15094662515239
 21
3.920800399489295
 31
0.0
  0
LINE
  5
9D
330
1F
100
AcDbEntity
  8
躯体
  6
Continuous
 62
     4
370
     9
100
AcDbLine
 10
-84.15094662515239
 20
3.920800399489295
 30
0.0
 11
-77.50388406576685
 21
3.920800399489295
 31
0.0
  0
LINE
  5
9E
330
1F
100
AcDbEntity
  8
躯体
  6
Continuous
 62
     4
370
     9
100
AcDbLine
 10
-77.50388406576685
 20
3.920800399489295
 30
0.0
 11
-76.82740833466457
 21
3.244250436440311
 31
0.0
  0
LINE
  5
9F
330
1F
100
AcDbEntity
  8
躯体
  6
Continuous
 62
     4
370
     9
100
AcDbLine
 10
-84.15094662515239
 20
-12.73918676663185
 30
0.0
 11
-84.15094662515239
 21
3.920800399489295
 31
0.0
  0
LINE
  5
A0
330
1F
100
AcDbEntity
  8
躯体
  6
Continuous
 62
     4
370
     9
100
AcDbLine
 10
-84.82734812430779
 20
-12.73918676663185
 30
0.0
 11
-84.82734812430779
 21
3.244250436440311
 31
0.0
  0
LINE
  5
A1
330
1F
100
AcDbEntity
  8
躯体
  6
Continuous
 62
     4
370
     9
100
AcDbLine
 10
-77.50388406576685
 20
-12.73918676663185
 30
0.0
 11
-77.50388406576685
 21
3.920800399489295
 31
0.0
  0
LINE
  5
A2
330
1F
100
AcDbEntity
  8
躯体
  6
Continuous
 62
     4
370
     9
100
AcDbLine
 10
-76.82740833466457
 20
-12.73918676663185
 30
0.0
 11
-76.82740833466457
 21
3.244250436440311
 31
0.0
  0
LINE
  5
A3
330
1F
100
AcDbEntity
  8
躯体
  6
JWW_CENTER1
 62
     4
370
     9
100
AcDbLine
 10
-80.82739678747285
 20
6.060721845593591
 30
0.0
 11
-80.82739678747285
 21
-40.30514597535232
 31
0.0
  0
LINE
  5
A4
330
1F
100
AcDbEntity
  8
躯体
  6
Continuous
 62
     2
370
     9
100
AcDbLine
 10
-84.82734812430779
 20
-24.23919996342242
 30
0.0
 11
-88.64049476704426
 21
-24.23919996342242
 31
0.0
  0
LINE
  5
A5
330
1F
100
AcDbEntity
  8
躯体
  6
Continuous
 62
     2
370
     9
100
AcDbLine
 10
-91.41565609780864
 20
300.1603831829564
 30
0.0
 11
-93.54314369282551
 21
302.2878707779733
 31
0.0
  0
LINE
  5
A6
330
1F
100
AcDbEntity
  8
躯体
  6
Continuous
 62
     2
370
     9
100
AcDbLine
 10
-89.36414490033185
 20
300.230309676833
 30
0.0
 11
-93.25931784427185
 21
304.1254083888263
 31
0.0
  0
LINE
  5
A7
330
1F
100
AcDbEntity
  8
躯体
  6
Continuous
 62
     2
370
     9
100
AcDbLine
 10
-104.2941194305261
 20
277.8541285640797
 30
0.0
 11
-107.2003372633492
 21
278.6328216859124
 31
0.0
  0
LINE
  5
A8
330
1F
100
AcDbEntity
  8
躯体
  6
Continuous
 62
     2
370
     9
100
AcDbLine
 10
-103.3289185423821
 20
276.0425721346033
 30
0.0
 11
-108.6497902563812
 21
277.4682709046624
 31
0.0
  0
LINE
  5
A9
330
1F
100
AcDbEntity
  8
躯体
  6
Continuous
 62
     2
370
     9
100
AcDbLine
 10
-108.6497902563812
 20
277.4682709046624
 30
0.0
 11
-107.2003372633492
 21
278.6328216859124
 31
0.0
  0
LINE
  5
AA
330
1F
100
AcDbEntity
  8
躯体
  6
Continuous
 62
     2
370
     9
100
AcDbLine
 10
-104.2941194305261
 20
277.8541285640797
 30
0.0
 11
-103.3289185423821
 21
276.0425721346033
 31
0.0
  0
LINE
  5
AB
330
1F
100
AcDbEntity
  8
躯体
  6
Continuous
 62
     2
370
     9
100
AcDbLine
 10
-91.41565609780864
 20
300.1603831829564
 30
0.0
 11
-89.36414490033185
 21
300.230309676833
 31
0.0
  0
LINE
  5
AC
330
1F
100
AcDbEntity
  8
躯体
  6
Continuous
 62
     2
370
     9
100
AcDbLine
 10
-93.25931784427185
 20
304.1254083888263
 30
0.0
 11
-93.54314369282551
 21
302.2878707779733
 31
0.0
  0
LINE
  5
AD
330
1F
100
AcDbEntity
  8
躯体
  6
Continuous
 62
     2
370
     9
100
AcDbLine
 10
-61.33115539837873
 20
320.8170554802537
 30
0.0
 11
-62.10984852021144
 21
323.7233846609969
 31
0.0
  0
LINE
  5
AE
330
1F
100
AcDbEntity
  8
躯体
  6
Continuous
 62
     2
370
     9
100
AcDbLine
 10
-59.51959896890238
 20
319.851891708083
 30
0.0
 11
-60.94529773896144
 21
325.172837654029
 31
0.0
  0
LINE
  5
AF
330
1F
100
AcDbEntity
  8
躯体
  6
Continuous
 62
     2
370
     9
100
AcDbLine
 10
-83.63741001725545
 20
307.9385550315628
 30
0.0
 11
-85.76493472824566
 21
310.0660426265797
 31
0.0
  0
LINE
  5
B0
330
1F
100
AcDbEntity
  8
躯体
  6
Continuous
 62
     2
370
     9
100
AcDbLine
 10
-83.70726227918529
 20
305.8870809500594
 30
0.0
 11
-87.60243522312535
 21
309.7823281259463
 31
0.0
  0
LINE
  5
B1
330
1F
100
AcDbEntity
  8
躯体
  6
Continuous
 62
     2
370
     9
100
AcDbLine
 10
-87.60243522312535
 20
309.7823281259463
 30
0.0
 11
-85.76493472824566
 21
310.0660426265797
 31
0.0
  0
LINE
  5
B2
330
1F
100
AcDbEntity
  8
躯体
  6
Continuous
 62
     2
370
     9
100
AcDbLine
 10
-83.63741001725545
 20
307.9385550315628
 30
0.0
 11
-83.70726227918529
 21
305.8870809500594
 31
0.0
  0
LINE
  5
B3
330
1F
100
AcDbEntity
  8
躯体
  6
Continuous
 62
     2
370
     9
100
AcDbLine
 10
-61.33115539837873
 20
320.8170554802537
 30
0.0
 11
-59.51959896890238
 21
319.851891708083
 31
0.0
  0
LINE
  5
B4
330
1F
100
AcDbEntity
  8
躯体
  6
Continuous
 62
     2
370
     9
100
AcDbLine
 10
-60.94529773896144
 20
325.172837654029
 30
0.0
 11
-62.10984852021144
 21
323.7233846609969
 31
0.0
  0
LINE
  5
B5
330
1F
100
AcDbEntity
  8
躯体
  6
Continuous
 62
     2
370
     9
100
AcDbLine
 10
-24.94889056518615
 20
323.664147567458
 30
0.0
 11
-24.17019744335342
 21
326.5704767482013
 31
0.0
  0
LINE
  5
B6
330
1F
100
AcDbEntity
  8
躯体
  6
Continuous
 62
     2
370
     9
100
AcDbLine
 10
-23.86258025585342
 20
321.9225176318585
 30
0.0
 11
-22.43688148579427
 21
327.2433151139108
 31
0.0
  0
LINE
  5
B7
330
1F
100
AcDbEntity
  8
躯体
  6
Continuous
 62
     2
370
     9
100
AcDbLine
 10
-50.70589146256795
 20
323.664147567458
 30
0.0
 11
-51.48465881634748
 21
326.5703282843077
 31
0.0
  0
LINE
  5
B8
330
1F
100
AcDbEntity
  8
躯体
  6
Continuous
 62
     2
370
     9
100
AcDbLine
 10
-51.79220177190066
 20
321.9225176318585
 30
0.0
 11
-53.21790054195982
 21
327.2433151139108
 31
0.0
  0
LINE
  5
B9
330
1F
100
AcDbEntity
  8
躯体
  6
Continuous
 62
     2
370
     9
100
AcDbLine
 10
-53.21790054195982
 20
327.2433151139108
 30
0.0
 11
-51.48465881634748
 21
326.5703282843077
 31
0.0
  0
LINE
  5
BA
330
1F
100
AcDbEntity
  8
躯体
  6
Continuous
 62
     2
370
     9
100
AcDbLine
 10
-50.70589146256795
 20
323.664147567458
 30
0.0
 11
-51.79220177190066
 21
321.9225176318585
 31
0.0
  0
LINE
  5
BB
330
1F
100
AcDbEntity
  8
躯体
  6
Continuous
 62
     2
370
     9
100
AcDbLine
 10
-24.94889056518615
 20
323.664147567458
 30
0.0
 11
-23.86258025585342
 21
321.9225176318585
 31
0.0
  0
LINE
  5
BC
330
1F
100
AcDbEntity
  8
躯体
  6
Continuous
 62
     2
370
     9
100
AcDbLine
 10
-22.43688148579427
 20
327.2433151139108
 30
0.0
 11
-24.17019744335342
 21
326.5704767482013
 31
0.0
  0
LINE
  5
BD
330
1F
100
AcDbEntity
  8
躯体
  6
Continuous
 62
     2
370
     9
100
AcDbLine
 10
7.982553757554545
 20
307.9385550315628
 30
0.0
 11
10.11011558451822
 21
310.0661910904733
 31
0.0
  0
LINE
  5
BE
330
1F
100
AcDbEntity
  8
躯体
  6
Continuous
 62
     2
370
     9
100
AcDbLine
 10
8.052480251431266
 20
305.8870809500594
 30
0.0
 11
11.94765319537126
 21
309.7823281259463
 31
0.0
  0
LINE
  5
BF
330
1F
100
AcDbEntity
  8
躯体
  6
Continuous
 62
     2
370
     9
100
AcDbLine
 10
-14.32362662937538
 20
320.8170554802537
 30
0.0
 11
-13.54493350754256
 21
323.7233846609969
 31
0.0
  0
LINE
  5
C0
330
1F
100
AcDbEntity
  8
躯体
  6
Continuous
 62
     2
370
     9
100
AcDbLine
 10
-16.13518305885171
 20
319.851891708083
 30
0.0
 11
-14.70948428879256
 21
325.172837654029
 31
0.0
  0
LINE
  5
C1
330
1F
100
AcDbEntity
  8
躯体
  6
Continuous
 62
     2
370
     9
100
AcDbLine
 10
-14.70948428879256
 20
325.172837654029
 30
0.0
 11
-13.54493350754256
 21
323.7233846609969
 31
0.0
  0
LINE
  5
C2
330
1F
100
AcDbEntity
  8
躯体
  6
Continuous
 62
     2
370
     9
100
AcDbLine
 10
-14.32362662937538
 20
320.8170554802537
 30
0.0
 11
-16.13518305885171
 21
319.851891708083
 31
0.0
  0
LINE
  5
C3
330
1F
100
AcDbEntity
  8
躯体
  6
Continuous
 62
     2
370
     9
100
AcDbLine
 10
7.982553757554545
 20
307.9385550315628
 30
0.0
 11
8.052480251431266
 21
305.8870809500594
 31
0.0
  0
LINE
  5
C4
330
1F
100
AcDbEntity
  8
躯体
  6
Continuous
 62
     2
370
     9
100
AcDbLine
 10
11.94765319537126
 20
309.7823281259463
 30
0.0
 11
10.11011558451822
 21
310.0661910904733
 31
0.0
  0
LINE
  5
C5
330
1F
100
AcDbEntity
  8
躯体
  6
Continuous
 62
     2
370
     9
100
AcDbLine
 10
28.6393002867986
 20
277.8541285640797
 30
0.0
 11
31.54555523559509
 21
278.6328216859124
 31
0.0
  0
LINE
  5
C6
330
1F
100
AcDbEntity
  8
躯体
  6
Continuous
 62
     2
370
     9
100
AcDbLine
 10
27.67413651462806
 20
276.0425721346033
 30
0.0
 11
32.9950082286272
 21
277.4682709046624
 31
0.0
  0
LINE
  5
C7
330
1F
100
AcDbEntity
  8
躯体
  6
Continuous
 62
     2
370
     9
100
AcDbLine
 10
15.76079983810775
 20
300.1603831829564
 30
0.0
 11
17.88828743312462
 21
302.2878707779733
 31
0.0
  0
LINE
  5
C8
330
1F
100
AcDbEntity
  8
躯体
  6
Continuous
 62
     2
370
     9
100
AcDbLine
 10
13.70932575660439
 20
300.230309676833
 30
0.0
 11
17.60449870054439
 21
304.1254083888263
 31
0.0
  0
LINE
  5
C9
330
1F
100
AcDbEntity
  8
躯体
  6
Continuous
 62
     2
370
     9
100
AcDbLine
 10
17.60449870054439
 20
304.1254083888263
 30
0.0
 11
17.88828743312462
 21
302.2878707779733
 31
0.0
  0
LINE
  5
CA
330
1F
100
AcDbEntity
  8
躯体
  6
Continuous
 62
     2
370
     9
100
AcDbLine
 10
15.76079983810775
 20
300.1603831829564
 30
0.0
 11
13.70932575660439
 21
300.230309676833
 31
0.0
  0
LINE
  5
CB
330
1F
100
AcDbEntity
  8
躯体
  6
Continuous
 62
     2
370
     9
100
AcDbLine
 10
28.6393002867986
 20
277.8541285640797
 30
0.0
 11
27.67413651462806
 21
276.0425721346033
 31
0.0
  0
LINE
  5
CC
330
1F
100
AcDbEntity
  8
躯体
  6
Continuous
 62
     2
370
     9
100
AcDbLine
 10
32.9950082286272
 20
277.4682709046624
 30
0.0
 11
31.54555523559509
 21
278.6328216859124
 31
0.0
  0
LINE
  5
CD
330
1F
100
AcDbEntity
  8
躯体
  6
Continuous
 62
     2
370
     9
100
AcDbLine
 10
31.48631814205627
 20
267.2288646282689
 30
0.0
 11
34.39257309085266
 21
268.0077062139952
 31
0.0
  0
LINE
  5
CE
330
1F
100
AcDbEntity
  8
躯体
  6
Continuous
 62
     2
370
     9
100
AcDbLine
 10
29.74468820645658
 20
268.3151749376016
 30
0.0
 11
35.06555992045571
 21
269.7408737076608
 31
0.0
  0
LINE
  5
CF
330
1F
100
AcDbEntity
  8
躯体
  6
Continuous
 62
     2
370
     9
100
AcDbLine
 10
35.06555992045571
 20
269.7408737076608
 30
0.0
 11
34.39257309085266
 21
268.0077062139952
 31
0.0
  0
LINE
  5
D0
330
1F
100
AcDbEntity
  8
躯体
  6
Continuous
 62
     2
370
     9
100
AcDbLine
 10
31.48631814205627
 20
267.2288646282689
 30
0.0
 11
29.74468820645658
 21
268.3151749376016
 31
0.0
  0
LINE
  5
D1
330
1F
100
AcDbEntity
  8
躯体
  6
Continuous
 62
     2
370
     9
100
AcDbLine
 10
31.67256609655368
 20
-19.74972605347732
 30
0.0
 11
33.67259743893126
 21
-19.21380851362305
 31
0.0
  0
LINE
  5
D2
330
1F
100
AcDbEntity
  8
躯体
  6
Continuous
 62
     2
370
     9
100
AcDbLine
 10
31.67256609655368
 20
-19.74972605347732
 30
0.0
 11
30.67251330939158
 21
-19.50008401642076
 31
0.0
  0
LINE
  5
D3
330
1F
100
AcDbEntity
  8
躯体
  6
Continuous
 62
     2
370
     9
100
AcDbLine
 10
12.98571273929017
 20
-24.23919996342242
 30
0.0
 11
30.67251330939158
 21
-19.50008401642076
 31
0.0
  0
LINE
  5
D4
330
1F
100
AcDbEntity
  8
躯体
  6
Continuous
 62
     2
370
     9
100
AcDbLine
 10
33.67259743893126
 20
-19.21380851362305
 30
0.0
 11
34.67272445804016
 21
-18.42821182073873
 31
0.0
  0
LINE
  5
D5
330
1F
100
AcDbEntity
  8
躯体
  6
Continuous
 62
     2
370
     9
100
AcDbLine
 10
34.67272445804016
 20
-18.42821182073873
 30
0.0
 11
52.17260898612298
 21
-13.73916532184727
 31
0.0
  0
LINE
  5
D6
330
1F
100
AcDbEntity
  8
躯体
  6
Continuous
 62
     2
370
     9
100
AcDbLine
 10
-107.3273481243078
 20
-19.74972605347732
 30
0.0
 11
-109.3273794666853
 21
-19.21380851362305
 31
0.0
  0
LINE
  5
D7
330
1F
100
AcDbEntity
  8
躯体
  6
Continuous
 62
     2
370
     9
100
AcDbLine
 10
-109.3273794666853
 20
-19.21380851362305
 30
0.0
 11
-110.3274322538475
 21
-18.42824893671211
 31
0.0
  0
LINE
  5
D8
330
1F
100
AcDbEntity
  8
躯体
  6
Continuous
 62
     2
370
     9
100
AcDbLine
 10
-110.3274322538475
 20
-18.42824893671211
 30
0.0
 11
-127.827391013877
 21
-13.73916532184727
 31
0.0
  0
LINE
  5
D9
330
1F
100
AcDbEntity
  8
躯体
  6
Continuous
 62
     2
370
     9
100
AcDbLine
 10
-107.3273481243078
 20
-19.74972605347732
 30
0.0
 11
-106.3274066850658
 21
-19.50008401642076
 31
0.0
  0
LINE
  5
DA
330
1F
100
AcDbEntity
  8
躯体
  6
Continuous
 62
     2
370
     9
100
AcDbLine
 10
-88.64049476704426
 20
-24.23919996342242
 30
0.0
 11
-106.3274066850658
 21
-19.50008401642076
 31
0.0
  0
LINE
  5
DB
330
1F
100
AcDbEntity
  8
躯体
  6
Continuous
 62
     2
370
     9
100
AcDbLine
 10
-107.1411001698103
 20
267.2288646282689
 30
0.0
 11
-110.0473551186068
 21
268.0077062139952
 31
0.0
  0
LINE
  5
DC
330
1F
100
AcDbEntity
  8
躯体
  6
Continuous
 62
     2
370
     9
100
AcDbLine
 10
-105.3994702342107
 20
268.3151749376016
 30
0.0
 11
-110.7203419482098
 21
269.7408737076608
 31
0.0
  0
LINE
  5
DD
330
1F
100
AcDbEntity
  8
躯体
  6
Continuous
 62
     2
370
     9
100
AcDbLine
 10
-110.7203419482098
 20
269.7408737076608
 30
0.0
 11
-110.0473551186068
 21
268.0077062139952
 31
0.0
  0
LINE
  5
DE
330
1F
100
AcDbEntity
  8
躯体
  6
Continuous
 62
     2
370
     9
100
AcDbLine
 10
-107.1411001698103
 20
267.2288646282689
 30
0.0
 11
-105.3994702342107
 21
268.3151749376016
 31
0.0
  0
LINE
  5
DF
330
1F
100
AcDbEntity
  8
躯体
  6
Continuous
 62
     2
370
     9
100
AcDbLine
 10
-76.82740833466457
 20
-24.23919996342242
 30
0.0
 11
12.98571273929017
 21
-24.23919996342242
 31
0.0
  0
LINE
  5
E0
330
1F
100
AcDbEntity
  8
躯体
  6
Continuous
 62
     2
370
     9
100
AcDbLine
 10
5.965449067415168
 20
-21.46448402433883
 30
0.0
 11
5.1726518756922
 21
-24.23919996342242
 31
0.0
  0
LINE
  5
E1
330
1F
100
AcDbEntity
  8
躯体
  6
Continuous
 62
     2
370
     9
100
AcDbLine
 10
-68.52734878414732
 20
-20.73920078822186
 30
0.0
 11
12.52495504556135
 21
-20.73920078822186
 31
0.0
  0
LINE
  5
E2
330
1F
100
AcDbEntity
  8
躯体
  6
Continuous
 62
     4
370
     9
100
AcDbLine
 10
-19.42284175025796
 20
290.3797303377283
 30
0.0
 11
-13.73184954956116
 21
293.6653847665713
 31
0.0
  0
LINE
  5
E3
330
1F
100
AcDbEntity
  8
躯体
  6
Continuous
 62
     4
370
     9
100
AcDbLine
 10
-18.92281535667686
 20
289.5137404464699
 30
0.0
 11
-13.23189738792686
 21
292.7993948753128
 31
0.0
  0
LINE
  5
E4
330
1F
100
AcDbEntity
  8
躯体
  6
JWW_CENTER1
 62
     4
370
     9
100
AcDbLine
 10
-24.5504134748145
 20
296.3371409954564
 30
0.0
 11
-8.1043256633703
 21
286.8419842175847
 31
0.0
  0
LINE
  5
E5
330
1F
100
AcDbEntity
  8
躯体
  6
Continuous
 62
     4
370
     9
100
AcDbLine
 10
-79.82745534823091
 20
254.350364179578
 30
0.0
 11
-83.42287969103076
 21
256.4261863396287
 31
0.0
  0
LINE
  5
E6
330
1F
100
AcDbEntity
  8
躯体
  6
Continuous
 62
     4
370
     9
100
AcDbLine
 10
-81.82737534268826
 20
254.350364179578
 30
0.0
 11
-83.92286896863841
 21
255.5601964483702
 31
0.0
  0
LINE
  5
E7
330
1F
100
AcDbEntity
  8
躯体
  6
Continuous
 62
     4
370
     9
100
AcDbLine
 10
-73.32740915946404
 20
254.350364179578
 30
0.0
 11
-73.32466257743279
 21
254.3551150241726
 31
0.0
  0
LINE
  5
E8
330
1F
100
AcDbEntity
  8
仕上
  6
Continuous
 62
     6
370
     9
100
AcDbLine
 10
-37.827391013877
 20
56.26085529813795
 30
0.0
 11
13.6926235685765
 21
56.26085529813795
 31
0.0
  0
LINE
  5
E9
330
1F
100
AcDbEntity
  8
仕上
  6
Continuous
 62
     6
370
     9
100
AcDbLine
 10
14.69520024192954
 20
-11.00668736048748
 30
0.0
 11
8.672613934919386
 21
56.26085529813795
 31
0.0
  0
LINE
  5
EA
330
1F
100
AcDbEntity
  8
仕上
  6
Continuous
 62
     6
370
     9
100
AcDbLine
 10
30.67258754133829
 20
-8.239171920242477
 30
0.0
 11
29.67268321806978
 21
-13.73916532184727
 31
0.0
  0
LINE
  5
EB
330
1F
100
AcDbEntity
  8
仕上
  6
JWW_DASHED1
 62
     6
370
     9
100
AcDbLine
 10
15.12515167774032
 20
40.26082725495803
 30
0.0
 11
10.01561831625384
 21
41.26080581017342
 31
0.0
  0
LINE
  5
EC
330
1F
100
AcDbEntity
  8
仕上
  6
Continuous
 62
     6
370
     9
100
AcDbLine
 10
-37.827391013877
 20
56.26085529813795
 30
0.0
 11
-89.3474055963306
 21
56.26085529813795
 31
0.0
  0
LINE
  5
ED
330
1F
100
AcDbEntity
  8
仕上
  6
Continuous
 62
     6
370
     9
100
AcDbLine
 10
-96.82464113264817
 20
-7.816792143004356
 30
0.0
 11
-106.3273695690924
 21
-8.239171920242477
 31
0.0
  0
LINE
  5
EE
330
1F
100
AcDbEntity
  8
仕上
  6
Continuous
 62
     6
370
     9
100
AcDbLine
 10
-106.3273695690924
 20
-8.239171920242477
 30
0.0
 11
-105.327391013877
 21
-13.73916532184727
 31
0.0
  0
LINE
  5
EF
330
1F
100
AcDbEntity
  8
仕上
  6
Continuous
 62
     6
370
     9
100
AcDbLine
 10
-90.77985947354763
 20
40.26082725495803
 30
0.0
 11
-85.67032611206113
 21
41.26080581017342
 31
0.0
  0
LINE
  5
F0
330
1F
100
AcDbEntity
  8
仕上
  6
Continuous
 62
     6
370
     9
100
AcDbLine
 10
29.67268321806978
 20
-7.193763413591327
 30
0.0
 11
30.67258754133829
 21
-8.239171920242477
 31
0.0
  0
LINE
  5
F1
330
1F
100
AcDbEntity
  8
仕上
  6
Continuous
 62
     6
370
     9
100
AcDbLine
 10
21.92257104535017
 20
-7.850233635033518
 30
0.0
 11
20.42264032850048
 21
-13.73916532184727
 31
0.0
  0
LINE
  5
F2
330
1F
100
AcDbEntity
  8
仕上
  6
Continuous
 62
     6
370
     9
100
AcDbLine
 10
14.16755956414235
 20
269.9343221609969
 30
0.0
 11
16.92483099573025
 21
271.0763064304225
 31
0.0
  0
LINE
  5
F3
330
1F
100
AcDbEntity
  8
仕上
  6
Continuous
 62
     6
370
     9
100
AcDbLine
 10
16.17345523031634
 20
259.8503575811827
 30
0.0
 11
19.1578764190833
 21
259.8503575811827
 31
0.0
  0
LINE
  5
F4
330
1F
100
AcDbEntity
  8
仕上
  6
Continuous
 62
     6
370
     9
100
AcDbLine
 10
4.246088715852668
 20
288.6456720607013
 30
0.0
 11
6.356280267267355
 21
290.7559378440628
 31
0.0
  0
LINE
  5
F5
330
1F
100
AcDbEntity
  8
仕上
  6
Continuous
 62
     6
370
     9
100
AcDbLine
 10
9.958162789437981
 20
280.0969726044091
 30
0.0
 11
12.71528575713228
 21
281.2389568738347
 31
0.0
  0
LINE
  5
F6
330
1F
100
AcDbEntity
  8
仕上
  6
Continuous
 62
     6
370
     9
100
AcDbLine
 10
-12.08093105293952
 20
302.1358437509463
 30
0.0
 11
-10.9387983196203
 21
304.8931151825341
 31
0.0
  0
LINE
  5
F7
330
1F
100
AcDbEntity
  8
仕上
  6
Continuous
 62
     6
370
     9
100
AcDbLine
 10
-3.532083132753737
 20
296.4238439093077
 30
0.0
 11
-1.421817349392253
 21
298.5341096926692
 31
0.0
  0
LINE
  5
F8
330
1F
100
AcDbEntity
  8
仕上
  6
Continuous
 62
     6
370
     9
100
AcDbLine
 10
-22.2435072644049
 20
306.3453889895442
 30
0.0
 11
-21.10144876303248
 21
309.102660421132
 31
0.0
  0
LINE
  5
F9
330
1F
100
AcDbEntity
  8
仕上
  6
Continuous
 62
     6
370
     9
100
AcDbLine
 10
-53.4112747633492
 20
306.3453889895442
 30
0.0
 11
-54.55333326472159
 21
309.102660421132
 31
0.0
  0
LINE
  5
FA
330
1F
100
AcDbEntity
  8
仕上
  6
Continuous
 62
     6
370
     9
100
AcDbLine
 10
-72.12262466305357
 20
296.4236954454141
 30
0.0
 11
-74.23296467836185
 21
298.5341096926692
 31
0.0
  0
LINE
  5
FB
330
1F
100
AcDbEntity
  8
仕上
  6
Continuous
 62
     6
370
     9
100
AcDbLine
 10
-63.57392520676128
 20
302.1358437509463
 30
0.0
 11
-64.71598370813379
 21
304.8931151825341
 31
0.0
  0
LINE
  5
FC
330
1F
100
AcDbEntity
  8
仕上
  6
Continuous
 62
     6
370
     9
100
AcDbLine
 10
-85.61287058524529
 20
280.0968241405155
 30
0.0
 11
-88.3701420168331
 21
281.2389568738347
 31
0.0
  0
LINE
  5
FD
330
1F
100
AcDbEntity
  8
仕上
  6
Continuous
 62
     6
370
     9
100
AcDbLine
 10
-79.90079651165998
 20
288.6456720607013
 30
0.0
 11
-82.01113652696826
 21
290.7559378440628
 31
0.0
  0
LINE
  5
FE
330
1F
100
AcDbEntity
  8
仕上
  6
Continuous
 62
     6
370
     9
100
AcDbLine
 10
-91.82816302612363
 20
259.8503575811827
 30
0.0
 11
-94.8125842148905
 21
259.8503575811827
 31
0.0
  0
LINE
  5
FF
330
1F
100
AcDbEntity
  8
仕上
  6
Continuous
 62
     6
370
     9
100
AcDbLine
 10
-89.82241582384326
 20
269.9343221609969
 30
0.0
 11
-92.57961302348426
 21
271.0763064304225
 31
0.0
  0
LINE
  5
100
330
1F
100
AcDbEntity
  8
仕上
  6
Continuous
 62
     6
370
     9
100
AcDbLine
 10
28.67263043090759
 20
-13.73916532184727
 30
0.0
 11
29.67268321806978
 21
-13.73916532184727
 31
0.0
  0
LINE
  5
101
330
1F
100
AcDbEntity
  8
仕上
  6
Continuous
 62
     6
370
     9
100
AcDbLine
 10
29.48725181498697
 20
259.3503311876016
 30
0.0
 11
30.55574645709001
 21
258.350426864333
 31
0.0
  0
LINE
  5
102
330
1F
100
AcDbEntity
  8
仕上
  6
Continuous
 62
     6
370
     9
100
AcDbLine
 10
18.3558744659583
 20
265.3503509827874
 30
0.0
 11
29.78373421046837
 21
265.3503509827874
 31
0.0
  0
LINE
  5
103
330
1F
100
AcDbEntity
  8
仕上
  6
Continuous
 62
     6
370
     9
100
AcDbLine
 10
18.5424935801897
 20
264.3504466595189
 30
0.0
 11
28.92783986397345
 21
264.3504466595189
 31
0.0
  0
LINE
  5
104
330
1F
100
AcDbEntity
  8
仕上
  6
Continuous
 62
     6
370
     9
100
AcDbLine
 10
29.78373421046837
 20
265.3503509827874
 30
0.0
 11
28.92783986397345
 21
264.3504466595189
 31
0.0
  0
LINE
  5
105
330
1F
100
AcDbEntity
  8
仕上
  6
Continuous
 62
     6
370
     9
100
AcDbLine
 10
-105.1419596107943
 20
259.3503311876016
 30
0.0
 11
-106.2105284848441
 21
258.350426864333
 31
0.0
  0
LINE
  5
106
330
1F
100
AcDbEntity
  8
仕上
  6
Continuous
 62
     6
370
     9
100
AcDbLine
 10
-94.01065649371232
 20
265.3503509827874
 30
0.0
 11
-105.4384420062757
 21
265.3503509827874
 31
0.0
  0
LINE
  5
107
330
1F
100
AcDbEntity
  8
仕上
  6
Continuous
 62
     6
370
     9
100
AcDbLine
 10
-94.19727560794372
 20
264.3504466595189
 30
0.0
 11
-104.5825476597808
 21
264.3504466595189
 31
0.0
  0
LINE
  5
108
330
1F
100
AcDbEntity
  8
仕上
  6
Continuous
 62
     6
370
     9
100
AcDbLine
 10
-105.4384420062757
 20
265.3503509827874
 30
0.0
 11
-104.5825476597808
 21
264.3504466595189
 31
0.0
  0
LINE
  5
109
330
1F
100
AcDbEntity
  8
仕上
  6
Continuous
 62
     6
370
     9
100
AcDbLine
 10
20.42264032850048
 20
-6.669463173409767
 30
0.0
 11
30.92260073812884
 21
-6.669463173409767
 31
0.0
  0
LINE
  5
10A
330
1F
100
AcDbEntity
  8
仕上
  6
Continuous
 62
     6
370
     9
100
AcDbLine
 10
25.17259413973361
 20
-5.669447502221018
 30
0.0
 11
26.1726469268958
 21
-5.669447502221018
 31
0.0
  0
LINE
  5
10B
330
1F
100
AcDbEntity
  8
仕上
  6
Continuous
 62
     6
370
     9
100
AcDbLine
 10
26.1726469268958
 20
-2.787503515998417
 30
0.0
 11
26.1726469268958
 21
-5.669447502221018
 31
0.0
  0
LINE
  5
10C
330
1F
100
AcDbEntity
  8
仕上
  6
Continuous
 62
     6
370
     9
100
AcDbLine
 10
25.17259413973361
 20
-2.787503515998417
 30
0.0
 11
25.17259413973361
 21
-5.669447502221018
 31
0.0
  0
LINE
  5
10D
330
1F
100
AcDbEntity
  8
仕上
  6
Continuous
 62
     6
370
     9
100
AcDbLine
 10
23.17263702930282
 20
-18.66950276378139
 30
0.0
 11
28.1726040373265
 21
-18.66950276378139
 31
0.0
  0
LINE
  5
10E
330
1F
100
AcDbEntity
  8
仕上
  6
Continuous
 62
     6
370
     9
100
AcDbLine
 10
22.67261063572181
 20
-18.16943925422696
 30
0.0
 11
28.67263043090759
 21
-18.16943925422696
 31
0.0
  0
LINE
  5
10F
330
1F
100
AcDbEntity
  8
仕上
  6
Continuous
 62
     6
370
     9
100
AcDbLine
 10
22.67261063572181
 20
-18.16943925422696
 30
0.0
 11
23.17263702930282
 21
-18.66950276378139
 31
0.0
  0
LINE
  5
110
330
1F
100
AcDbEntity
  8
仕上
  6
Continuous
 62
     6
370
     9
100
AcDbLine
 10
28.67263043090759
 20
-18.16943925422696
 30
0.0
 11
28.1726040373265
 21
-18.66950276378139
 31
0.0
  0
LINE
  5
111
330
1F
100
AcDbEntity
  8
仕上
  6
Continuous
 62
     6
370
     9
100
AcDbLine
 10
28.67263043090759
 20
-6.669463173409767
 30
0.0
 11
28.67263043090759
 21
-18.16943925422696
 31
0.0
  0
LINE
  5
112
330
1F
100
AcDbEntity
  8
仕上
  6
Continuous
 62
     6
370
     9
100
AcDbLine
 10
28.1726040373265
 20
-6.669463173409767
 30
0.0
 11
28.1726040373265
 21
-18.66950276378139
 31
0.0
  0
LINE
  5
113
330
1F
100
AcDbEntity
  8
仕上
  6
Continuous
 62
     6
370
     9
100
AcDbLine
 10
23.17263702930282
 20
-6.669463173409767
 30
0.0
 11
23.17263702930282
 21
-18.66950276378139
 31
0.0
  0
LINE
  5
114
330
1F
100
AcDbEntity
  8
仕上
  6
Continuous
 62
     6
370
     9
100
AcDbLine
 10
22.67261063572181
 20
-6.669463173409767
 30
0.0
 11
22.67261063572181
 21
-18.16943925422696
 31
0.0
  0
LINE
  5
115
330
1F
100
AcDbEntity
  8
仕上
  6
Continuous
 62
     6
370
     9
100
AcDbLine
 10
21.16985910489408
 20
-7.816792143004356
 30
0.0
 11
22.67261063572181
 21
-7.88356377914242
 31
0.0
  0
LINE
  5
116
330
1F
100
AcDbEntity
  8
仕上
  6
Continuous
 62
     6
370
     9
100
AcDbLine
 10
21.07988998538392
 20
-6.811840047354046
 30
0.0
 11
22.67261063572181
 21
-6.882620208618832
 31
0.0
  0
LINE
  5
117
330
1F
100
AcDbEntity
  8
仕上
  6
Continuous
 62
     6
370
     9
100
AcDbLine
 10
28.67263043090759
 20
-8.15027916396086
 30
0.0
 11
30.67258754133829
 21
-8.239171920242477
 31
0.0
  0
LINE
  5
118
330
1F
100
AcDbEntity
  8
仕上
  6
Continuous
 62
     6
370
     9
100
AcDbLine
 10
28.67263043090759
 20
-7.14929847746383
 30
0.0
 11
29.67268321806978
 21
-7.193763413591327
 31
0.0
  0
LINE
  5
119
330
1F
100
AcDbEntity
  8
仕上
  6
Continuous
 62
     6
370
     9
100
AcDbLine
 10
-94.97069826155442
 20
44.43719081334061
 30
0.0
 11
-94.03433648473847
 21
54.89532152095256
 31
0.0
  0
LINE
  5
11A
330
1F
100
AcDbEntity
  8
仕上
  6
Continuous
 62
     6
370
     9
100
AcDbLine
 10
-95.543175035203
 20
49.257405162211
 30
0.0
 11
-95.45394823516082
 21
50.25348654021982
 31
0.0
  0
LINE
  5
11B
330
1F
100
AcDbEntity
  8
仕上
  6
Continuous
 62
     6
370
     9
100
AcDbLine
 10
-98.32442338560419
 20
50.51047754000874
 30
0.0
 11
-95.45394823516082
 21
50.25348654021982
 31
0.0
  0
LINE
  5
11C
330
1F
100
AcDbEntity
  8
仕上
  6
Continuous
 62
     6
370
     9
100
AcDbLine
 10
-98.41357595369966
 20
49.51443327797327
 30
0.0
 11
-95.543175035203
 21
49.257405162211
 31
0.0
  0
LINE
  5
11D
330
1F
100
AcDbEntity
  8
仕上
  6
Continuous
 62
     6
370
     9
100
AcDbLine
 10
-82.77327592466669
 20
46.10607344108561
 30
0.0
 11
-82.32736462029598
 21
51.08614628736936
 31
0.0
  0
LINE
  5
11E
330
1F
100
AcDbEntity
  8
仕上
  6
Continuous
 62
     6
370
     9
100
AcDbLine
 10
-83.3159114557056
 20
45.65262759411553
 30
0.0
 11
-82.78084758323935
 21
51.62874470243483
 31
0.0
  0
LINE
  5
11F
330
1F
100
AcDbEntity
  8
仕上
  6
Continuous
 62
     6
370
     9
100
AcDbLine
 10
-83.3159114557056
 20
45.65262759411553
 30
0.0
 11
-82.77327592466669
 21
46.10607344108561
 31
0.0
  0
LINE
  5
120
330
1F
100
AcDbEntity
  8
仕上
  6
Continuous
 62
     6
370
     9
100
AcDbLine
 10
-82.78084758323935
 20
51.62874470243483
 30
0.0
 11
-82.32736462029598
 21
51.08614628736936
 31
0.0
  0
LINE
  5
121
330
1F
100
AcDbEntity
  8
仕上
  6
Continuous
 62
     6
370
     9
100
AcDbLine
 10
-94.23498543691332
 20
52.65433327929296
 30
0.0
 11
-82.78084758323935
 21
51.62874470243483
 31
0.0
  0
LINE
  5
122
330
1F
100
AcDbEntity
  8
仕上
  6
Continuous
 62
     6
370
     9
100
AcDbLine
 10
-94.27959883693451
 20
52.15627403230178
 30
0.0
 11
-82.32736462029598
 21
51.08614628736936
 31
0.0
  0
LINE
  5
123
330
1F
100
AcDbEntity
  8
仕上
  6
Continuous
 62
     6
370
     9
100
AcDbLine
 10
-94.72543590935848
 20
47.17627541796483
 30
0.0
 11
-82.77327592466669
 21
46.10607344108561
 31
0.0
  0
LINE
  5
124
330
1F
100
AcDbEntity
  8
仕上
  6
Continuous
 62
     6
370
     9
100
AcDbLine
 10
-94.77004930937957
 20
46.67821617097366
 30
0.0
 11
-83.3159114557056
 21
45.65262759411553
 31
0.0
  0
LINE
  5
125
330
1F
100
AcDbEntity
  8
仕上
  6
Continuous
 62
     6
370
     9
100
AcDbLine
 10
-89.70661398684997
 20
52.24887838592295
 30
0.0
 11
-89.3474055963306
 21
56.26085529813795
 31
0.0
  0
LINE
  5
126
330
1F
100
AcDbEntity
  8
仕上
  6
Continuous
 62
     6
370
     9
100
AcDbLine
 10
-84.72654114056623
 20
51.80296708155225
 30
0.0
 11
-84.32739596267348
 21
56.26085529813795
 31
0.0
  0
LINE
  5
127
330
1F
100
AcDbEntity
  8
仕上
  6
Continuous
 62
     6
370
     9
100
AcDbLine
 10
-90.34990803773685
 20
-11.00668736048748
 30
0.0
 11
-85.26160501303248
 21
45.82684997323295
 31
0.0
  0
LINE
  5
128
330
1F
100
AcDbEntity
  8
仕上
  6
JWW_CENTER1
 62
     6
370
     9
100
AcDbLine
 10
-100.3828752701059
 20
50.19276480774522
 30
0.0
 11
-80.33817114214982
 21
48.39802191421694
 31
0.0
  0
LINE
  5
129
330
1F
100
AcDbEntity
  8
仕上
  6
Continuous
 62
     6
370
     9
100
AcDbLine
 10
27.27335823390587
 20
259.3503311876016
 30
0.0
 11
29.48725181498697
 21
259.3503311876016
 31
0.0
  0
LINE
  5
12A
330
1F
100
AcDbEntity
  8
仕上
  6
Continuous
 62
     6
370
     9
100
AcDbLine
 10
29.0730375518958
 20
258.350426864333
 30
0.0
 11
30.55574645709001
 21
258.350426864333
 31
0.0
  0
LINE
  5
12B
330
1F
100
AcDbEntity
  8
仕上
  6
Continuous
 62
     6
370
     9
100
AcDbLine
 10
-102.92814026166
 20
259.3503311876016
 30
0.0
 11
-105.1419596107943
 21
259.3503311876016
 31
0.0
  0
LINE
  5
12C
330
1F
100
AcDbEntity
  8
仕上
  6
Continuous
 62
     6
370
     9
100
AcDbLine
 10
-104.727745347703
 20
258.350426864333
 30
0.0
 11
-106.2105284848441
 21
258.350426864333
 31
0.0
  0
LINE
  5
12D
330
1F
100
AcDbEntity
  8
仕上
  6
Continuous
 62
     6
370
     9
100
AcDbLine
 10
-40.32737451788888
 20
298.8503377859969
 30
0.0
 11
-35.32733327791841
 21
298.8503377859969
 31
0.0
  0
LINE
  5
12E
330
1F
100
AcDbEntity
  8
仕上
  6
Continuous
 62
     6
370
     9
100
AcDbLine
 10
-40.82740091146998
 20
299.350364179578
 30
0.0
 11
-34.82738111628412
 21
299.350364179578
 31
0.0
  0
LINE
  5
12F
330
1F
100
AcDbEntity
  8
仕上
  6
Continuous
 62
     6
370
     9
100
AcDbLine
 10
-40.82740091146998
 20
299.350364179578
 30
0.0
 11
-40.32737451788888
 21
298.8503377859969
 31
0.0
  0
LINE
  5
130
330
1F
100
AcDbEntity
  8
仕上
  6
Continuous
 62
     6
370
     9
100
AcDbLine
 10
-34.82738111628412
 20
299.350364179578
 30
0.0
 11
-35.32733327791841
 21
298.8503377859969
 31
0.0
  0
LINE
  5
131
330
1F
100
AcDbEntity
  8
仕上
  6
Continuous
 62
     6
370
     9
100
AcDbLine
 10
-43.07737121869123
 20
310.5573096504394
 30
0.0
 11
-32.57733657711607
 21
310.5573096504394
 31
0.0
  0
LINE
  5
132
330
1F
100
AcDbEntity
  8
仕上
  6
Continuous
 62
     6
370
     9
100
AcDbLine
 10
-38.3273431755113
 20
311.5573624376016
 30
0.0
 11
-37.327364620296
 21
311.5573624376016
 31
0.0
  0
LINE
  5
133
330
1F
100
AcDbEntity
  8
仕上
  6
Continuous
 62
     6
370
     9
100
AcDbLine
 10
-40.32737451788888
 20
298.8503377859969
 30
0.0
 11
-40.32737451788888
 21
300.783189216529
 31
0.0
  0
LINE
  5
134
330
1F
100
AcDbEntity
  8
仕上
  6
Continuous
 62
     6
370
     9
100
AcDbLine
 10
-40.32737451788888
 20
305.8097312615037
 30
0.0
 11
-40.32737451788888
 21
310.5573096504394
 31
0.0
  0
LINE
  5
135
330
1F
100
AcDbEntity
  8
仕上
  6
Continuous
 62
     6
370
     9
100
AcDbLine
 10
-40.82740091146998
 20
299.350364179578
 30
0.0
 11
-40.82740091146998
 21
300.7534964378128
 31
0.0
  0
LINE
  5
136
330
1F
100
AcDbEntity
  8
仕上
  6
Continuous
 62
     6
370
     9
100
AcDbLine
 10
-40.82740091146998
 20
305.7830077606591
 30
0.0
 11
-40.82740091146998
 21
310.5573096504394
 31
0.0
  0
LINE
  5
137
330
1F
100
AcDbEntity
  8
仕上
  6
Continuous
 62
     6
370
     9
100
AcDbLine
 10
-35.32733327791841
 20
298.8503377859969
 30
0.0
 11
-35.32733327791841
 21
300.783189216529
 31
0.0
  0
LINE
  5
138
330
1F
100
AcDbEntity
  8
仕上
  6
Continuous
 62
     6
370
     9
100
AcDbLine
 10
-35.32733327791841
 20
305.8097312615037
 30
0.0
 11
-35.32733327791841
 21
310.5573096504394
 31
0.0
  0
LINE
  5
139
330
1F
100
AcDbEntity
  8
仕上
  6
Continuous
 62
     6
370
     9
100
AcDbLine
 10
-34.82738111628412
 20
299.350364179578
 30
0.0
 11
-34.82738111628412
 21
300.7534964378128
 31
0.0
  0
LINE
  5
13A
330
1F
100
AcDbEntity
  8
仕上
  6
Continuous
 62
     6
370
     9
100
AcDbLine
 10
-34.82738111628412
 20
305.7830077606591
 30
0.0
 11
-34.82738111628412
 21
310.5573096504394
 31
0.0
  0
LINE
  5
13B
330
1F
100
AcDbEntity
  8
仕上
  6
JWW_CENTER1
 62
     6
370
     9
100
AcDbLine
 10
25.6726205333147
 20
261.3189624164868
 30
0.0
 11
25.6726205333147
 21
252.5114903936827
 31
0.0
  0
LINE
  5
13C
330
1F
100
AcDbEntity
  8
仕上
  6
JWW_CENTER1
 62
     6
370
     9
100
AcDbLine
 10
-101.327328329122
 20
261.3189624164868
 30
0.0
 11
-101.327328329122
 21
252.5114903936827
 31
0.0
  0
LINE
  5
13D
330
1F
100
AcDbEntity
  8
その他
  6
Continuous
 62
     7
370
     9
100
AcDbLine
 10
-84.32739596267348
 20
86.26084292614678
 30
0.0
 11
8.672613934919386
 21
86.26084292614678
 31
0.0
  0
LINE
  5
13E
330
1F
100
AcDbEntity
  8
その他
  6
Continuous
 62
     7
370
     9
100
AcDbLine
 10
-84.32739596267348
 20
59.26086519573084
 30
0.0
 11
-84.32739596267348
 21
87.1608310490353
 31
0.0
  0
LINE
  5
13F
330
1F
100
AcDbEntity
  8
その他
  6
Continuous
 62
     7
370
     9
100
AcDbLine
 10
8.672613934919386
 20
59.26086519573084
 30
0.0
 11
8.672613934919386
 21
87.1608310490353
 31
0.0
  0
LINE
  5
140
330
1F
100
AcDbEntity
  8
その他
  6
Continuous
 62
     7
370
     9
100
AcDbLine
 10
-84.32739596267348
 20
86.26084292614678
 30
0.0
 11
-76.8915447366916
 21
87.2397767244471
 31
0.0
  0
LINE
  5
141
330
1F
100
AcDbEntity
  8
その他
  6
Continuous
 62
     7
370
     9
100
AcDbLine
 10
-84.32739596267348
 20
86.26084292614678
 30
0.0
 11
-76.8915447366916
 21
85.28190912784655
 31
0.0
  0
LINE
  5
142
330
1F
100
AcDbEntity
  8
その他
  6
Continuous
 62
     7
370
     9
100
AcDbLine
 10
8.672613934919386
 20
86.26084292614678
 30
0.0
 11
1.236725592964152
 21
87.2397767244471
 31
0.0
  0
LINE
  5
143
330
1F
100
AcDbEntity
  8
その他
  6
Continuous
 62
     7
370
     9
100
AcDbLine
 10
8.672613934919386
 20
86.26084292614678
 30
0.0
 11
1.236725592964152
 21
85.28190912784655
 31
0.0
  0
LINE
  5
144
330
1F
100
AcDbEntity
  8
仕上
  6
Continuous
 62
     6
370
     9
100
AcDbLine
 10
-95.45146146494332
 20
-11.91751334760743
 30
0.0
 11
-90.24167785931623
 21
46.27276127760373
 31
0.0
  0
LINE
  5
145
330
1F
100
AcDbEntity
  8
仕上
  6
Continuous
 62
     6
370
     9
100
AcDbLine
 10
-32.32739761227232
 20
308.3511361918246
 30
0.0
 11
-32.32739761227232
 21
311.3355573805915
 31
0.0
  0
LINE
  5
146
330
1F
100
AcDbEntity
  8
仕上
  6
Continuous
 62
     6
370
     9
100
AcDbLine
 10
-43.32738441548177
 20
308.3511361918246
 30
0.0
 11
-43.32738441548177
 21
311.3355573805915
 31
0.0
  0
LINE
  5
147
330
1F
100
AcDbEntity
  8
仕上
  6
Continuous
 62
     6
370
     9
100
AcDbLine
 10
-38.3273431755113
 20
311.5573624376016
 30
0.0
 11
-38.3273431755113
 21
314.4393435397975
 31
0.0
  0
LINE
  5
148
330
1F
100
AcDbEntity
  8
仕上
  6
Continuous
 62
     6
370
     9
100
AcDbLine
 10
-37.327364620296
 20
311.5573624376016
 30
0.0
 11
-37.327364620296
 21
314.4393435397975
 31
0.0
  0
LINE
  5
149
330
1F
100
AcDbEntity
  8
仕上
  6
Continuous
 62
     6
370
     9
100
AcDbLine
 10
21.67270631245322
 20
254.350364179578
 30
0.0
 11
21.67270631245322
 21
254.9504552374327
 31
0.0
  0
LINE
  5
14A
330
1F
100
AcDbEntity
  8
仕上
  6
Continuous
 62
     6
370
     9
100
AcDbLine
 10
29.67268321806978
 20
254.9504552374327
 30
0.0
 11
21.67270631245322
 21
254.9504552374327
 31
0.0
  0
LINE
  5
14B
330
1F
100
AcDbEntity
  8
仕上
  6
Continuous
 62
     6
370
     9
100
AcDbLine
 10
29.67268321806978
 20
254.350364179578
 30
0.0
 11
29.67268321806978
 21
254.9504552374327
 31
0.0
  0
LINE
  5
14C
330
1F
100
AcDbEntity
  8
仕上
  6
Continuous
 62
     6
370
     9
100
AcDbLine
 10
-105.327391013877
 20
254.350364179578
 30
0.0
 11
-105.327391013877
 21
254.9504552374327
 31
0.0
  0
LINE
  5
14D
330
1F
100
AcDbEntity
  8
仕上
  6
Continuous
 62
     6
370
     9
100
AcDbLine
 10
-97.32741410826044
 20
254.9504552374327
 30
0.0
 11
-105.327391013877
 21
254.9504552374327
 31
0.0
  0
LINE
  5
14E
330
1F
100
AcDbEntity
  8
仕上
  6
Continuous
 62
     6
370
     9
100
AcDbLine
 10
-97.32741410826044
 20
254.350364179578
 30
0.0
 11
-97.32741410826044
 21
254.9504552374327
 31
0.0
  0
LINE
  5
14F
330
1F
100
AcDbEntity
  8
仕上
  6
Continuous
 62
     6
370
     9
100
AcDbLine
 10
-88.32738441548176
 20
-13.73916532184727
 30
0.0
 11
-105.327391013877
 21
-13.73916532184727
 31
0.0
  0
LINE
  5
150
330
1F
100
AcDbEntity
  8
仕上
  6
Continuous
 62
     6
370
     9
100
AcDbLine
 10
22.67261063572181
 20
-13.73916532184727
 30
0.0
 11
-73.3273720434906
 21
-13.73916532184727
 31
0.0
  0
LINE
  5
151
330
1F
100
AcDbEntity
  8
躯体
  6
Continuous
 62
     2
370
     9
100
AcDbLine
 10
19.92929481013056
 20
-13.73916532184727
 30
0.0
 11
22.67261063572181
 21
-13.73916532184727
 31
0.0
  0
LINE
  5
152
330
1F
100
AcDbEntity
  8
躯体
  6
Continuous
 62
     2
370
     9
100
AcDbLine
 10
28.67263043090759
 20
-13.73916532184727
 30
0.0
 11
30.30313514216181
 21
-13.73916532184727
 31
0.0
  0
LINE
  5
153
330
1F
100
AcDbEntity
  8
仕上
  6
Continuous
 62
     6
370
     9
100
AcDbLine
 10
19.26670045307822
 20
-5.997107315354455
 30
0.0
 11
13.6926235685765
 21
56.26085529813795
 31
0.0
  0
LINE
  5
154
330
1F
100
AcDbEntity
  8
その他
  6
Continuous
 62
     7
370
     9
100
AcDbLine
 10
-127.827391013877
 20
110.2608478749433
 30
0.0
 11
52.17260898612298
 21
110.2608478749433
 31
0.0
  0
LINE
  5
155
330
1F
100
AcDbEntity
  8
その他
  6
Continuous
 62
     7
370
     9
100
AcDbLine
 10
-127.827391013877
 20
-4.739172745041955
 30
0.0
 11
-127.827391013877
 21
111.1608359978318
 31
0.0
  0
LINE
  5
156
330
1F
100
AcDbEntity
  8
その他
  6
Continuous
 62
     7
370
     9
100
AcDbLine
 10
52.17260898612298
 20
-4.739172745041955
 30
0.0
 11
52.17260898612298
 21
111.1608359978318
 31
0.0
  0
LINE
  5
157
330
1F
100
AcDbEntity
  8
その他
  6
Continuous
 62
     7
370
     9
100
AcDbLine
 10
-127.827391013877
 20
110.2608478749433
 30
0.0
 11
-120.3915769038686
 21
111.2397445572702
 31
0.0
  0
LINE
  5
158
330
1F
100
AcDbEntity
  8
その他
  6
Continuous
 62
     7
370
     9
100
AcDbLine
 10
-127.827391013877
 20
110.2608478749433
 30
0.0
 11
-120.3915769038686
 21
109.281914076643
 31
0.0
  0
LINE
  5
159
330
1F
100
AcDbEntity
  8
その他
  6
Continuous
 62
     7
370
     9
100
AcDbLine
 10
52.17260898612298
 20
110.2608478749433
 30
0.0
 11
44.73679487611454
 21
111.2397445572702
 31
0.0
  0
LINE
  5
15A
330
1F
100
AcDbEntity
  8
その他
  6
Continuous
 62
     7
370
     9
100
AcDbLine
 10
52.17260898612298
 20
110.2608478749433
 30
0.0
 11
44.73679487611454
 21
109.281914076643
 31
0.0
  0
LINE
  5
15B
330
1F
100
AcDbEntity
  8
その他
  6
Continuous
 62
     7
370
     9
100
AcDbLine
 10
-137.8273992618711
 20
134.2608528237398
 30
0.0
 11
62.17261723411704
 21
134.2608528237398
 31
0.0
  0
LINE
  5
15C
330
1F
100
AcDbEntity
  8
その他
  6
Continuous
 62
     7
370
     9
100
AcDbLine
 10
-137.8273992618711
 20
-10.59559083916149
 30
0.0
 11
-137.8273992618711
 21
135.1608409466283
 31
0.0
  0
LINE
  5
15D
330
1F
100
AcDbEntity
  8
その他
  6
Continuous
 62
     7
370
     9
100
AcDbLine
 10
62.17261723411704
 20
-10.59559083916149
 30
0.0
 11
62.17261723411704
 21
135.1608409466283
 31
0.0
  0
LINE
  5
15E
330
1F
100
AcDbEntity
  8
その他
  6
Continuous
 62
     7
370
     9
100
AcDbLine
 10
-137.8273992618711
 20
134.2608528237398
 30
0.0
 11
-130.3915480358892
 21
135.2398237380133
 31
0.0
  0
LINE
  5
15F
330
1F
100
AcDbEntity
  8
その他
  6
Continuous
 62
     7
370
     9
100
AcDbLine
 10
-137.8273992618711
 20
134.2608528237398
 30
0.0
 11
-130.3915480358892
 21
133.2819190254394
 31
0.0
  0
LINE
  5
160
330
1F
100
AcDbEntity
  8
その他
  6
Continuous
 62
     7
370
     9
100
AcDbLine
 10
62.17261723411704
 20
134.2608528237398
 30
0.0
 11
54.7368031241086
 21
135.2398237380133
 31
0.0
  0
LINE
  5
161
330
1F
100
AcDbEntity
  8
その他
  6
Continuous
 62
     7
370
     9
100
AcDbLine
 10
62.17261723411704
 20
134.2608528237398
 30
0.0
 11
54.7368031241086
 21
133.2819190254394
 31
0.0
  0
LINE
  5
162
330
1F
100
AcDbEntity
  8
その他
  6
Continuous
 62
     7
370
     9
100
AcDbLine
 10
116.1726469268958
 20
-11.5955693943768
 30
0.0
 11
116.1726469268958
 21
56.26085529813795
 31
0.0
  0
LINE
  5
163
330
1F
100
AcDbEntity
  8
その他
  6
Continuous
 62
     7
370
     9
100
AcDbLine
 10
22.69265326135525
 20
56.26085529813795
 30
0.0
 11
117.0726350497843
 21
56.26085529813795
 31
0.0
  0
LINE
  5
164
330
1F
100
AcDbEntity
  8
その他
  6
Continuous
 62
     7
370
     9
100
AcDbLine
 10
116.1726469268958
 20
-11.5955693943768
 30
0.0
 11
115.1936760126221
 21
-4.159718168394981
 31
0.0
  0
LINE
  5
165
330
1F
100
AcDbEntity
  8
その他
  6
Continuous
 62
     7
370
     9
100
AcDbLine
 10
116.1726469268958
 20
-11.5955693943768
 30
0.0
 11
117.1516178411694
 21
-4.159718168394981
 31
0.0
  0
LINE
  5
166
330
1F
100
AcDbEntity
  8
その他
  6
Continuous
 62
     7
370
     9
100
AcDbLine
 10
116.1726469268958
 20
56.26085529813795
 30
0.0
 11
115.1936760126221
 21
48.82500407215608
 31
0.0
  0
LINE
  5
167
330
1F
100
AcDbEntity
  8
その他
  6
Continuous
 62
     7
370
     9
100
AcDbLine
 10
116.1726469268958
 20
56.26085529813795
 30
0.0
 11
117.1516178411694
 21
48.82500407215608
 31
0.0
  0
LINE
  5
168
330
1F
100
AcDbEntity
  8
その他
  6
Continuous
 62
     7
370
     9
100
AcDbLine
 10
64.17264857649454
 20
-11.5955693943768
 30
0.0
 11
117.0726350497843
 21
-11.5955693943768
 31
0.0
  0
LINE
  5
169
330
1F
100
AcDbEntity
  8
躯体
  6
Continuous
 62
     2
370
     9
100
AcDbLine
 10
-80.82743390344629
 20
266.3504037699496
 30
0.0
 11
-82.75230539969841
 21
266.3504037699496
 31
0.0
  0
LINE
  5
16A
330
1F
100
AcDbEntity
  8
躯体
  6
Continuous
 62
     2
370
     9
100
AcDbLine
 10
-80.82739678747285
 20
267.3504565571118
 30
0.0
 11
-82.47323039573935
 21
267.3504565571118
 31
0.0
  0
LINE
  5
16B
330
1F
100
AcDbEntity
  8
躯体
  6
Continuous
 62
     2
370
     9
100
AcDbLine
 10
-27.58568354713294
 20
298.0896087952874
 30
0.0
 11
-26.76282241695982
 21
299.5148621736658
 31
0.0
  0
LINE
  5
16C
330
1F
100
AcDbEntity
  8
躯体
  6
Continuous
 62
     2
370
     9
100
AcDbLine
 10
-5.935045482310297
 20
285.5895428113347
 30
0.0
 11
-4.972554060224208
 21
287.2564954084631
 31
0.0
  0
LINE
  5
16D
330
1F
100
AcDbEntity
  8
躯体
  6
Continuous
 62
     2
370
     9
100
AcDbLine
 10
-5.068981359105063
 20
285.0895164177537
 30
0.0
 11
-4.24612022893194
 21
286.514769796132
 31
0.0
  0
LINE
  5
16E
330
1F
100
AcDbEntity
  8
躯体
  6
Continuous
 62
     4
370
     9
100
AcDbLine
 10
-23.82732008112787
 20
291.5895626065205
 30
0.0
 11
-20.07467247502568
 21
285.0895164177537
 31
0.0
  0
LINE
  5
16F
330
1F
100
AcDbEntity
  8
躯体
  6
Continuous
 62
     4
370
     9
100
AcDbLine
 10
-20.07467247502568
 20
285.0895164177537
 30
0.0
 11
-12.58014089510592
 21
285.0895164177537
 31
0.0
  0
LINE
  5
170
330
1F
100
AcDbEntity
  8
躯体
  6
Continuous
 62
     4
370
     9
100
AcDbLine
 10
-73.32466257743279
 20
254.3551150241726
 30
0.0
 11
-77.07189125141926
 21
260.8455110598567
 31
0.0
  0
LINE
  5
171
330
1F
100
AcDbEntity
  8
躯体
  6
Continuous
 62
     4
370
     9
100
AcDbLine
 10
-9.180317732099208
 20
290.9781882927537
 30
0.0
 11
-12.58014089510592
 21
285.0895164177537
 31
0.0
  0
LINE
  5
172
330
1F
100
AcDbEntity
  8
躯体
  6
Continuous
 62
     4
370
     9
100
AcDbLine
 10
-23.82732008112787
 20
291.5895626065205
 30
0.0
 11
-20.4303177320992
 21
297.4733351730324
 31
0.0
  0
LINE
  5
173
330
1F
100
AcDbEntity
  8
躯体
  6
Continuous
 62
     4
370
     9
100
AcDbLine
 10
-83.87153757743279
 20
260.8456595237503
 30
0.0
 11
-77.07189125141926
 21
260.8455110598567
 31
0.0
  0
LINE
  5
174
330
1F
100
AcDbEntity
  8
躯体
  6
JWW_CENTER1
 62
     4
370
     9
100
AcDbLine
 10
-80.82743390344629
 20
252.6599542872638
 30
0.0
 11
-80.82739678747285
 21
263.8455209574496
 31
0.0
  0
LINE
  5
175
330
1F
100
AcDbEntity
  8
躯体
  6
JWW_CENTER1
 62
     4
370
     9
100
AcDbLine
 10
-12.59728847481452
 20
298.0502658634884
 30
0.0
 11
-21.58009635593787
 21
282.4915467439783
 31
0.0
  0
LINE
  5
176
330
1F
100
AcDbEntity
  8
その他
  6
Continuous
 62
     7
370
     9
100
AcDbLine
 10
-167.82738688988
 20
-13.73916532184727
 30
0.0
 11
-167.82738688988
 21
56.26085529813795
 31
0.0
  0
LINE
  5
177
330
1F
100
AcDbEntity
  8
その他
  6
Continuous
 62
     7
370
     9
100
AcDbLine
 10
-112.8273786418859
 20
-13.73916532184727
 30
0.0
 11
-168.7273750127684
 21
-13.73916532184727
 31
0.0
  0
LINE
  5
178
330
1F
100
AcDbEntity
  8
その他
  6
Continuous
 62
     7
370
     9
100
AcDbLine
 10
-167.82738688988
 20
-13.73916532184727
 30
0.0
 11
-168.8063206881803
 21
-6.303314095865389
 31
0.0
  0
LINE
  5
179
330
1F
100
AcDbEntity
  8
その他
  6
Continuous
 62
     7
370
     9
100
AcDbLine
 10
-167.82738688988
 20
-13.73916532184727
 30
0.0
 11
-166.8484530915797
 21
-6.303314095865389
 31
0.0
  0
LINE
  5
17A
330
1F
100
AcDbEntity
  8
その他
  6
Continuous
 62
     7
370
     9
100
AcDbLine
 10
-167.82738688988
 20
56.26085529813795
 30
0.0
 11
-168.8063206881803
 21
48.82500407215608
 31
0.0
  0
LINE
  5
17B
330
1F
100
AcDbEntity
  8
その他
  6
Continuous
 62
     7
370
     9
100
AcDbLine
 10
-167.82738688988
 20
56.26085529813795
 30
0.0
 11
-166.8484530915797
 21
48.82500407215608
 31
0.0
  0
LINE
  5
17C
330
1F
100
AcDbEntity
  8
その他
  6
Continuous
 62
     7
370
     9
100
AcDbLine
 10
-96.84739322433941
 20
56.26085529813795
 30
0.0
 11
-168.7273750127684
 21
56.26085529813795
 31
0.0
  0
LINE
  5
17D
330
1F
100
AcDbEntity
  8
仕上
  6
JWW_CENTER1
 62
     6
370
     9
100
AcDbLine
 10
25.6726205333147
 20
-0.75117275164029
 30
0.0
 11
25.6726205333147
 21
-21.47881079006942
 31
0.0
  0
LINE
  5
17E
330
1F
100
AcDbEntity
  8
通り芯
  6
Continuous
 62
     3
370
     9
100
AcDbLine
 10
-135.8273679194936
 20
-11.59560651035024
 30
0.0
 11
-123.9717836975764
 21
-14.77236267325139
 31
0.0
  0
LINE
  5
17F
330
1F
100
AcDbEntity
  8
通り芯
  6
Continuous
 62
     3
370
     9
100
AcDbLine
 10
-121.0739169587672
 20
-15.54882883668045
 30
0.0
 11
-118.1761986838517
 21
-16.32529500010951
 31
0.0
  0
LINE
  5
180
330
1F
100
AcDbEntity
  8
通り芯
  6
Continuous
 62
     3
370
     9
100
AcDbLine
 10
-102.1887900716262
 20
-25.89483218866528
 30
0.0
 11
-102.9789891452114
 21
-26.78591247793889
 31
0.0
  0
LINE
  5
181
330
1F
100
AcDbEntity
  8
通り芯
  6
Continuous
 62
     3
370
     9
100
AcDbLine
 10
-115.5559594260392
 20
-22.31314075602168
 30
0.0
 11
-115.317155253214
 21
-23.47984426372857
 31
0.0
  0
LINE
  5
182
330
1F
100
AcDbEntity
  8
通り芯
  6
Continuous
 62
     3
370
     9
100
AcDbLine
 10
-116.997692296605
 20
-20.78218108541358
 30
0.0
 11
-126.1855288147639
 21
-18.32035280205211
 31
0.0
  0
LINE
  5
183
330
1F
100
AcDbEntity
  8
通り芯
  6
Continuous
 62
     3
370
     9
100
AcDbLine
 10
-104.4894607985054
 20
-27.2396181367227
 30
0.0
 11
-114.2358184843162
 21
-24.62806401668467
 31
0.0
  0
LINE
  5
184
330
1F
100
AcDbEntity
  8
通り芯
  6
Continuous
 62
     3
370
     9
100
AcDbLine
 10
-102.1244309737588
 20
-20.62644246104701
 30
0.0
 11
-99.8235375510392
 21
-21.24286454719567
 31
0.0
  0
LINE
  5
185
330
1F
100
AcDbEntity
  8
通り芯
  6
Continuous
 62
     3
370
     9
100
AcDbLine
 10
-103.1314615639193
 20
-20.92886341227164
 30
0.0
 11
-104.536746548611
 21
-22.51356701235613
 31
0.0
  0
LINE
  5
186
330
1F
100
AcDbEntity
  8
通り芯
  6
Continuous
 62
     3
370
     9
100
AcDbLine
 10
-105.5437029068247
 20
-22.81598796358076
 30
0.0
 11
-111.111173148062
 21
-21.32414852893129
 31
0.0
  0
LINE
  5
187
330
1F
100
AcDbEntity
  8
通り芯
  6
Continuous
 62
     3
370
     9
100
AcDbLine
 10
-111.8319653513982
 20
-20.55874292557404
 30
0.0
 11
-112.2566463189869
 21
-18.48373731693805
 31
0.0
  0
LINE
  5
188
330
1F
100
AcDbEntity
  8
通り芯
  6
Continuous
 62
     3
370
     9
100
AcDbLine
 10
-112.9775127542697
 20
-17.71825748163398
 30
0.0
 11
-115.2784061769893
 21
-17.10176116353858
 31
0.0
  0
LINE
  5
189
330
1F
100
AcDbEntity
  8
通り芯
  6
Continuous
 62
     3
370
     9
100
AcDbLine
 10
-95.0594054379691
 20
-26.66046048786289
 30
0.0
 11
-100.174803123252
 21
-25.28984182232232
 31
0.0
  0
LINE
  5
18A
330
1F
100
AcDbEntity
  8
通り芯
  6
Continuous
 62
     3
370
     9
100
AcDbLine
 10
-94.02409247608145
 20
-22.79683612130883
 30
0.0
 11
-96.92574504417685
 21
-22.01933071062473
 31
0.0
  0
LINE
  5
18B
330
1F
100
AcDbEntity
  8
通り芯
  6
Continuous
 62
     3
370
     9
100
AcDbLine
 10
-137.8273250299243
 20
-17.59570053748279
 30
0.0
 11
-136.8273464747089
 21
-19.59565764791358
 31
0.0
  0
LINE
  5
18C
330
1F
100
AcDbEntity
  8
通り芯
  6
Continuous
 62
     3
370
     9
100
AcDbLine
 10
-136.8273464747089
 20
-19.59565764791358
 30
0.0
 11
-134.8273893642782
 21
-19.59565764791358
 31
0.0
  0
LINE
  5
18D
330
1F
100
AcDbEntity
  8
通り芯
  6
Continuous
 62
     3
370
     9
100
AcDbLine
 10
-72.32735637230185
 20
-43.48617047519399
 30
0.0
 11
-67.27735703214138
 21
-187.4862001679727
 31
0.0
  0
LINE
  5
18E
330
1F
100
AcDbEntity
  8
通り芯
  6
Continuous
 62
     3
370
     9
100
AcDbLine
 10
-74.69706280969629
 20
-30.94379228157067
 30
0.0
 11
-72.92046962715825
 21
-42.50616031366528
 31
0.0
  0
LINE
  5
18F
330
1F
100
AcDbEntity
  8
通り芯
  6
Continuous
 62
     3
370
     9
100
AcDbLine
 10
-91.58779998241592
 20
-39.53925786434092
 30
0.0
 11
-92.85813128784238
 21
-29.1926606567818
 31
0.0
  0
LINE
  5
190
330
1F
100
AcDbEntity
  8
通り芯
  6
JWW_DASHED1
 62
     3
370
     9
100
AcDbLine
 10
-83.91147436480607
 20
-42.67615147181559
 30
0.0
 11
-72.32735637230185
 21
-43.48617047519399
 31
0.0
  0
LINE
  5
191
330
1F
100
AcDbEntity
  8
通り芯
  6
Continuous
 62
     3
370
     9
100
AcDbLine
 10
-80.81377522523685
 20
-46.78192044880039
 30
0.0
 11
-84.2054328740966
 21
-46.54482361075139
 31
0.0
  0
LINE
  5
192
330
1F
100
AcDbEntity
  8
通り芯
  6
JWW_DASHED1
 62
     3
370
     9
100
AcDbLine
 10
-87.60265791896576
 20
-39.17344283055715
 30
0.0
 11
-88.74798262599701
 21
-29.84515946907067
 31
0.0
  0
LINE
  5
193
330
1F
100
AcDbEntity
  8
通り芯
  6
Continuous
 62
     3
370
     9
100
AcDbLine
 10
-88.74805685794372
 20
-29.84515946907067
 30
0.0
 11
-88.88798407764395
 21
-28.70510523026154
 31
0.0
  0
LINE
  5
194
330
1F
100
AcDbEntity
  8
通り芯
  6
Continuous
 62
     3
370
     9
100
AcDbLine
 10
60.17258589173954
 20
-11.59560651035024
 30
0.0
 11
48.31700166982228
 21
-14.77236267325139
 31
0.0
  0
LINE
  5
195
330
1F
100
AcDbEntity
  8
通り芯
  6
Continuous
 62
     3
370
     9
100
AcDbLine
 10
45.41906069906634
 20
-15.54882883668045
 30
0.0
 11
42.52141665609759
 21
-16.32529500010951
 31
0.0
  0
LINE
  5
196
330
1F
100
AcDbEntity
  8
通り芯
  6
Continuous
 62
     3
370
     9
100
AcDbLine
 10
26.53400804387212
 20
-25.89483218866528
 30
0.0
 11
27.32420711745744
 21
-26.78591247793889
 31
0.0
  0
LINE
  5
197
330
1F
100
AcDbEntity
  8
通り芯
  6
Continuous
 62
     3
370
     9
100
AcDbLine
 10
39.90117739828509
 20
-22.31314075602168
 30
0.0
 11
39.66237322545993
 21
-23.47984426372857
 31
0.0
  0
LINE
  5
198
330
1F
100
AcDbEntity
  8
通り芯
  6
Continuous
 62
     3
370
     9
100
AcDbLine
 10
41.34283603690423
 20
-20.78218108541358
 30
0.0
 11
50.53074678700978
 21
-18.32035280205211
 31
0.0
  0
LINE
  5
199
330
1F
100
AcDbEntity
  8
通り芯
  6
Continuous
 62
     3
370
     9
100
AcDbLine
 10
28.83467877075134
 20
-27.2396181367227
 30
0.0
 11
38.58103645656212
 21
-24.62806401668467
 31
0.0
  0
LINE
  5
19A
330
1F
100
AcDbEntity
  8
通り芯
  6
Continuous
 62
     3
370
     9
100
AcDbLine
 10
26.4695747140579
 20
-20.62644246104701
 30
0.0
 11
24.16875552328509
 21
-21.24286454719567
 31
0.0
  0
LINE
  5
19B
330
1F
100
AcDbEntity
  8
通り芯
  6
Continuous
 62
     3
370
     9
100
AcDbLine
 10
27.47667953616517
 20
-20.92886341227164
 30
0.0
 11
28.88196452085689
 21
-22.51356701235613
 31
0.0
  0
LINE
  5
19C
330
1F
100
AcDbEntity
  8
通り芯
  6
Continuous
 62
     3
370
     9
100
AcDbLine
 10
29.88892087907056
 20
-22.81598796358076
 30
0.0
 11
35.4563911203079
 21
-21.32414852893129
 31
0.0
  0
LINE
  5
19D
330
1F
100
AcDbEntity
  8
通り芯
  6
Continuous
 62
     3
370
     9
100
AcDbLine
 10
36.17718332364407
 20
-20.55874292557404
 30
0.0
 11
36.60186429123274
 21
-18.48373731693805
 31
0.0
  0
LINE
  5
19E
330
1F
100
AcDbEntity
  8
通り芯
  6
Continuous
 62
     3
370
     9
100
AcDbLine
 10
37.32273072651572
 20
-17.71825748163398
 30
0.0
 11
39.62362414923533
 21
-17.10176116353858
 31
0.0
  0
LINE
  5
19F
330
1F
100
AcDbEntity
  8
通り芯
  6
Continuous
 62
     3
370
     9
100
AcDbLine
 10
19.40462341021501
 20
-26.66046048786289
 30
0.0
 11
24.52002109549798
 21
-25.28984182232232
 31
0.0
  0
LINE
  5
1A0
330
1F
100
AcDbEntity
  8
通り芯
  6
Continuous
 62
     3
370
     9
100
AcDbLine
 10
18.36931044832736
 20
-22.79683612130883
 30
0.0
 11
21.27096301642283
 21
-22.01933071062473
 31
0.0
  0
LINE
  5
1A1
330
1F
100
AcDbEntity
  8
通り芯
  6
Continuous
 62
     3
370
     9
100
AcDbLine
 10
62.17254300217024
 20
-17.59570053748279
 30
0.0
 11
61.17256444695485
 21
-19.59565764791358
 31
0.0
  0
LINE
  5
1A2
330
1F
100
AcDbEntity
  8
通り芯
  6
Continuous
 62
     3
370
     9
100
AcDbLine
 10
61.17256444695485
 20
-19.59565764791358
 30
0.0
 11
59.17253310457735
 21
-19.59565764791358
 31
0.0
  0
LINE
  5
1A3
330
1F
100
AcDbEntity
  8
通り芯
  6
Continuous
 62
     3
370
     9
100
AcDbLine
 10
-3.327425655452171
 20
-43.48617047519399
 30
0.0
 11
-8.377424995612724
 21
-187.4862001679727
 31
0.0
  0
LINE
  5
1A4
330
1F
100
AcDbEntity
  8
通り芯
  6
Continuous
 62
     3
370
     9
100
AcDbLine
 10
15.93301795466181
 20
-39.53925786434092
 30
0.0
 11
17.20334926008829
 21
-29.1926606567818
 31
0.0
  0
LINE
  5
1A5
330
1F
100
AcDbEntity
  8
通り芯
  6
Continuous
 62
     3
370
     9
100
AcDbLine
 10
8.256692337052048
 20
-42.67615147181559
 30
0.0
 11
-3.327425655452171
 21
-43.48617047519399
 31
0.0
  0
LINE
  5
1A6
330
1F
100
AcDbEntity
  8
通り芯
  6
Continuous
 62
     3
370
     9
100
AcDbLine
 10
5.158993197482747
 20
-46.78192044880039
 30
0.0
 11
8.550650846342595
 21
-46.54482361075139
 31
0.0
  0
LINE
  5
1A7
330
1F
100
AcDbEntity
  8
通り芯
  6
Continuous
 62
     3
370
     9
100
AcDbLine
 10
11.94787589121166
 20
-39.17344283055715
 30
0.0
 11
13.23320204988986
 21
-28.70510523026154
 31
0.0
  0
LINE
  5
1A8
330
1F
100
AcDbEntity
  8
通り芯
  6
Continuous
 62
     3
370
     9
100
AcDbLine
 10
-76.16574187694717
 20
-51.59007210631731
 30
0.0
 11
-71.27734548494966
 21
-187.4862001679727
 31
0.0
  0
LINE
  5
1A9
330
1F
100
AcDbEntity
  8
通り芯
  6
Continuous
 62
     3
370
     9
100
AcDbLine
 10
-4.377436542804443
 20
-187.4862001679727
 30
0.0
 11
-71.27734548494966
 21
-187.4862001679727
 31
0.0
  0
LINE
  5
1AA
330
1F
100
AcDbEntity
  8
通り芯
  6
Continuous
 62
     3
370
     9
100
AcDbLine
 10
0.5109598491930605
 20
-51.59007210631731
 30
0.0
 11
-4.377436542804443
 21
-187.4862001679727
 31
0.0
  0
LINE
  5
1AB
330
1F
100
AcDbEntity
  8
通り芯
  6
Continuous
 62
     3
370
     9
100
AcDbLine
 10
-3.327425655452171
 20
-43.48617047519399
 30
0.0
 11
-72.32735637230185
 21
-43.48617047519399
 31
0.0
  0
LINE
  5
1AC
330
1F
100
AcDbEntity
  8
通り芯
  6
Continuous
 62
     3
370
     9
100
AcDbLine
 10
-75.68546118121232
 20
-30.09569228948873
 30
0.0
 11
-76.82737121869123
 21
-30.09569228948873
 31
0.0
  0
LINE
  5
1AD
330
1F
100
AcDbEntity
  8
通り芯
  6
Continuous
 62
     3
370
     9
100
AcDbLine
 10
-84.82734812430779
 20
-30.09569228948873
 30
0.0
 11
-86.82745369863207
 21
-30.09569228948873
 31
0.0
  0
LINE
  5
1AE
330
1F
100
AcDbEntity
  8
通り芯
  6
Continuous
 62
     3
370
     9
100
AcDbLine
 10
61.31182357913391
 20
-12.43123553537133
 30
0.0
 11
62.17254300217024
 21
-17.59570053748279
 31
0.0
  0
LINE
  5
1AF
330
1F
100
AcDbEntity
  8
通り芯
  6
Continuous
 62
     3
370
     9
100
AcDbLine
 10
60.32542947018126
 20
-11.59560651035024
 30
0.0
 11
36.33663354535017
 21
-11.59560651035024
 31
0.0
  0
LINE
  5
1B0
330
1F
100
AcDbEntity
  8
通り芯
  6
Continuous
 62
     3
370
     9
100
AcDbLine
 10
-136.9666798388348
 20
-12.43123553537133
 30
0.0
 11
-137.8273250299243
 21
-17.59570053748279
 31
0.0
  0
LINE
  5
1B1
330
1F
100
AcDbEntity
  8
通り芯
  6
Continuous
 62
     3
370
     9
100
AcDbLine
 10
-135.9802114979353
 20
-11.59560651035024
 30
0.0
 11
-112.139285611111
 21
-11.59560651035024
 31
0.0
  0
LINE
  5
1B2
330
1F
100
AcDbEntity
  8
その他
  6
Continuous
 62
     7
370
     9
100
AcDbLine
 10
-71.27734548494966
 20
-217.4861877959815
 30
0.0
 11
-4.377436542804443
 21
-217.4861877959815
 31
0.0
  0
LINE
  5
1B3
330
1F
100
AcDbEntity
  8
その他
  6
Continuous
 62
     7
370
     9
100
AcDbLine
 10
-71.27734548494966
 20
-194.9862063539682
 30
0.0
 11
-71.27734548494966
 21
-218.3861944768568
 31
0.0
  0
LINE
  5
1B4
330
1F
100
AcDbEntity
  8
その他
  6
Continuous
 62
     7
370
     9
100
AcDbLine
 10
-4.377436542804443
 20
-194.9862063539682
 30
0.0
 11
-4.377436542804443
 21
-218.3861944768568
 31
0.0
  0
LINE
  5
1B5
330
1F
100
AcDbEntity
  8
その他
  6
Continuous
 62
     7
370
     9
100
AcDbLine
 10
-71.27734548494966
 20
-217.4861877959815
 30
0.0
 11
-63.84153137494123
 21
-216.5072539976813
 31
0.0
  0
LINE
  5
1B6
330
1F
100
AcDbEntity
  8
その他
  6
Continuous
 62
     7
370
     9
100
AcDbLine
 10
-71.27734548494966
 20
-217.4861877959815
 30
0.0
 11
-63.84153137494123
 21
-218.4651401522685
 31
0.0
  0
LINE
  5
1B7
330
1F
100
AcDbEntity
  8
その他
  6
Continuous
 62
     7
370
     9
100
AcDbLine
 10
-4.377436542804443
 20
-217.4861877959815
 30
0.0
 11
-11.81325065281288
 21
-216.5072539976813
 31
0.0
  0
LINE
  5
1B8
330
1F
100
AcDbEntity
  8
その他
  6
Continuous
 62
     7
370
     9
100
AcDbLine
 10
-4.377436542804443
 20
-217.4861877959815
 30
0.0
 11
-11.81325065281288
 21
-218.4651401522685
 31
0.0
  0
LINE
  5
1B9
330
1F
100
AcDbEntity
  8
その他
  6
Continuous
 62
     7
370
     9
100
AcDbLine
 10
116.1726469268958
 20
-187.4862001679727
 30
0.0
 11
116.1726469268958
 21
-47.09555042399043
 31
0.0
  0
LINE
  5
1BA
330
1F
100
AcDbEntity
  8
その他
  6
Continuous
 62
     7
370
     9
100
AcDbLine
 10
3.122588201177823
 20
-187.4862001679727
 30
0.0
 11
117.0726350497843
 21
-187.4862001679727
 31
0.0
  0
LINE
  5
1BB
330
1F
100
AcDbEntity
  8
その他
  6
Continuous
 62
     7
370
     9
100
AcDbLine
 10
8.172661773285089
 20
-47.09555042399043
 30
0.0
 11
117.0726350497843
 21
-47.09555042399043
 31
0.0
  0
LINE
  5
1BC
330
1F
100
AcDbEntity
  8
その他
  6
Continuous
 62
     7
370
     9
100
AcDbLine
 10
116.1726469268958
 20
-187.4862001679727
 30
0.0
 11
115.1936760126221
 21
-180.0503674999775
 31
0.0
  0
LINE
  5
1BD
330
1F
100
AcDbEntity
  8
その他
  6
Continuous
 62
     7
370
     9
100
AcDbLine
 10
116.1726469268958
 20
-187.4862001679727
 30
0.0
 11
117.1516178411694
 21
-180.0503674999775
 31
0.0
  0
LINE
  5
1BE
330
1F
100
AcDbEntity
  8
その他
  6
Continuous
 62
     7
370
     9
100
AcDbLine
 10
116.1726469268958
 20
-47.09555042399043
 30
0.0
 11
115.1936760126221
 21
-54.53140164997227
 31
0.0
  0
LINE
  5
1BF
330
1F
100
AcDbEntity
  8
その他
  6
Continuous
 62
     7
370
     9
100
AcDbLine
 10
116.1726469268958
 20
-47.09555042399043
 30
0.0
 11
117.1516178411694
 21
-54.53140164997227
 31
0.0
  0
LINE
  5
1C0
330
1F
100
AcDbEntity
  8
その他
  6
Continuous
 62
     7
370
     9
100
AcDbLine
 10
116.1726469268958
 20
-47.09555042399043
 30
0.0
 11
116.1726469268958
 21
-11.59560651035024
 31
0.0
  0
LINE
  5
1C1
330
1F
100
AcDbEntity
  8
その他
  6
Continuous
 62
     7
370
     9
100
AcDbLine
 10
116.1726469268958
 20
-47.09555042399043
 30
0.0
 11
115.1936760126221
 21
-39.65969919800857
 31
0.0
  0
LINE
  5
1C2
330
1F
100
AcDbEntity
  8
その他
  6
Continuous
 62
     7
370
     9
100
AcDbLine
 10
116.1726469268958
 20
-47.09555042399043
 30
0.0
 11
117.1516178411694
 21
-39.65969919800857
 31
0.0
  0
LINE
  5
1C3
330
1F
100
AcDbEntity
  8
その他
  6
Continuous
 62
     7
370
     9
100
AcDbLine
 10
116.1726469268958
 20
-11.59560651035024
 30
0.0
 11
115.1936760126221
 21
-19.03145773633201
 31
0.0
  0
LINE
  5
1C4
330
1F
100
AcDbEntity
  8
その他
  6
Continuous
 62
     7
370
     9
100
AcDbLine
 10
116.1726469268958
 20
-11.59560651035024
 30
0.0
 11
117.1516178411694
 21
-19.03145773633201
 31
0.0
  0
LINE
  5
1C5
330
1F
100
AcDbEntity
  8
その他
  6
Continuous
 62
     7
370
     9
100
AcDbLine
 10
-68.28891577105607
 20
-77.0955380519993
 30
0.0
 11
8.711140315303684
 21
-77.0955380519993
 31
0.0
  0
LINE
  5
1C6
330
1F
100
AcDbEntity
  8
その他
  6
Continuous
 62
     7
370
     9
100
AcDbLine
 10
-68.28891577105607
 20
-77.0955380519993
 30
0.0
 11
-60.85310166104763
 21
-76.11660425369902
 31
0.0
  0
LINE
  5
1C7
330
1F
100
AcDbEntity
  8
その他
  6
Continuous
 62
     7
370
     9
100
AcDbLine
 10
-68.28891577105607
 20
-77.0955380519993
 30
0.0
 11
-60.85310166104763
 21
-78.07450896627293
 31
0.0
  0
LINE
  5
1C8
330
1F
100
AcDbEntity
  8
その他
  6
Continuous
 62
     7
370
     9
100
AcDbLine
 10
8.711140315303684
 20
-77.0955380519993
 30
0.0
 11
1.275326205295247
 21
-78.07450896627293
 31
0.0
  0
LINE
  5
1C9
330
1F
100
AcDbEntity
  8
その他
  6
Continuous
 62
     7
370
     9
100
AcDbLine
 10
8.711140315303684
 20
-77.0955380519993
 30
0.0
 11
1.275326205295247
 21
-76.11660425369902
 31
0.0
  0
LINE
  5
1CA
330
1F
100
AcDbEntity
  8
その他
  6
Continuous
 62
     7
370
     9
100
AcDbLine
 10
-76.32741905705691
 20
-47.09555042399043
 30
0.0
 11
-68.02658007109832
 21
-78.07450896627293
 31
0.0
  0
LINE
  5
1CB
330
1F
100
AcDbEntity
  8
その他
  6
Continuous
 62
     7
370
     9
100
AcDbLine
 10
0.6726370293028232
 20
-47.09555042399043
 30
0.0
 11
8.973401783314703
 21
-78.07450896627293
 31
0.0
  0
LINE
  5
1CC
330
1F
100
AcDbEntity
  8
通り芯
  6
JWW_CENTER1
 62
     3
370
     9
100
AcDbLine
 10
-37.827391013877
 20
62.08962199207795
 30
0.0
 11
-37.827391013877
 21
-56.36819694135743
 31
0.0
  0
LINE
  5
1CD
330
1F
100
AcDbEntity
  8
通り芯
  6
JWW_CENTER1
 62
     3
370
     9
100
AcDbLine
 10
-37.827391013877
 20
-85.85049097244902
 30
0.0
 11
-37.827391013877
 21
-196.7038408127679
 31
0.0
  0
ARC
  5
1CE
330
1F
100
AcDbEntity
  8
通り芯
  6
Continuous
 62
     3
370
     9
100
AcDbCircle
 10
-37.827391013877
 20
254.350364179578
 30
0.0
 40
99.00000185579867
100
AcDbArc
 50
0.0
 51
180.0
  0
ARC
  5
1CF
330
1F
100
AcDbEntity
  8
通り芯
  6
Continuous
 62
     3
370
     9
100
AcDbCircle
 10
-37.827391013877
 20
254.350364179578
 30
0.0
 40
99.99999896900074
100
AcDbArc
 50
0.0
 51
180.0
  0
ARC
  5
1D0
330
1F
100
AcDbEntity
  8
躯体
  6
Continuous
 62
     2
370
     9
100
AcDbCircle
 10
-105.0935232655134
 20
-14.13667739691061
 30
0.0
 40
2.000000025774982
100
AcDbArc
 50
190.6148834228515
 51
255.0005035400391
  0
ARC
  5
1D1
330
1F
100
AcDbEntity
  8
躯体
  6
JWW_DASHED1
 62
     2
370
     9
100
AcDbCircle
 10
29.43877835373275
 20
-14.13667739691061
 30
0.0
 40
2.000000025774982
100
AcDbArc
 50
284.9994964599609
 51
349.3851165771484
  0
ARC
  5
1D2
330
1F
100
AcDbEntity
  8
躯体
  6
Continuous
 62
     2
370
     9
100
AcDbCircle
 10
-70.05704651165998
 20
-20.73920078822186
 30
0.0
 40
1.500000019331236
100
AcDbArc
 50
11.31021118164062
 51
90.00000000000001
  0
ARC
  5
1D3
330
1F
100
AcDbEntity
  8
躯体
  6
Continuous
 62
     2
370
     9
100
AcDbCircle
 10
19.92929481013056
 20
-15.23917027064373
 30
0.0
 40
1.500000019331236
100
AcDbArc
 50
90.0
 51
169.91162109375
  0
ARC
  5
1D4
330
1F
100
AcDbEntity
  8
躯体
  6
Continuous
 62
     2
370
     9
100
AcDbCircle
 10
15.92633707945064
 20
-17.75726636967242
 30
0.0
 40
2.000000025774982
100
AcDbArc
 50
284.9994964599609
 51
349.9115142822266
  0
ARC
  5
1D5
330
1F
100
AcDbEntity
  8
躯体
  6
Continuous
 62
     2
370
     9
100
AcDbCircle
 10
30.30313514216181
 20
-12.23916037305076
 30
0.0
 40
1.500000019331236
100
AcDbArc
 50
270.0
 51
349.3838348388672
  0
ARC
  5
1D6
330
1F
100
AcDbEntity
  8
躯体
  6
Continuous
 62
     2
370
     9
100
AcDbCircle
 10
39.13109518228009
 20
-10.50432266058248
 30
0.0
 40
3.000000038662472
100
AcDbArc
 50
188.7071380615234
 51
285.0002746582031
  0
ARC
  5
1D7
330
1F
100
AcDbEntity
  8
躯体
  6
Continuous
 62
     2
370
     9
100
AcDbCircle
 10
-114.7858400940608
 20
-10.50432266058248
 30
0.0
 40
3.000000038662472
100
AcDbArc
 50
254.9997253417969
 51
351.2928619384766
  0
ARC
  5
1D8
330
1F
100
AcDbEntity
  8
躯体
  6
Continuous
 62
     4
370
     9
100
AcDbCircle
 10
-86.45094926451044
 20
-15.53940137943805
 30
0.0
 40
2.80017343727318
100
AcDbArc
 50
47.92556762695312
 51
132.0746307373047
  0
ARC
  5
1D9
330
1F
100
AcDbEntity
  8
躯体
  6
Continuous
 62
     4
370
     9
100
AcDbCircle
 10
-80.82739678747285
 20
-22.8286073945352
 30
0.0
 40
10.08941018903578
100
AcDbArc
 50
68.19786071777344
 51
111.8021392822266
  0
ARC
  5
1DA
330
1F
100
AcDbEntity
  8
躯体
  6
Continuous
 62
     4
370
     9
100
AcDbCircle
 10
-75.20380719446192
 20
-15.53940137943805
 30
0.0
 40
2.800189675511541
100
AcDbArc
 50
47.92572021484374
 51
132.0742797851562
  0
ARC
  5
1DB
330
1F
100
AcDbEntity
  8
躯体
  6
Continuous
 62
     2
370
     9
100
AcDbCircle
 10
-37.827391013877
 20
254.350364179578
 30
0.0
 40
90.0
100
AcDbArc
 50
0.0
 51
180.0
  0
ARC
  5
1DC
330
1F
100
AcDbEntity
  8
躯体
  6
Continuous
 62
     2
370
     9
100
AcDbCircle
 10
-37.827391013877
 20
254.350364179578
 30
0.0
 40
83.9410400390625
100
AcDbArc
 50
0.0
 51
180.0
  0
ARC
  5
1DD
330
1F
100
AcDbEntity
  8
躯体
  6
Continuous
 62
     2
370
     9
100
AcDbCircle
 10
-37.827391013877
 20
254.350364179578
 30
0.0
 40
89.50000144339896
100
AcDbArc
 50
0.0
 51
180.0
  0
ARC
  5
1DE
330
1F
100
AcDbEntity
  8
躯体
  6
Continuous
 62
     2
370
     9
100
AcDbCircle
 10
-37.827391013877
 20
254.350364179578
 30
0.0
 40
73.49999195820575
100
AcDbArc
 50
139.2914886474609
 51
160.7085418701172
  0
ARC
  5
1DF
330
1F
100
AcDbEntity
  8
躯体
  6
Continuous
 62
     2
370
     9
100
AcDbCircle
 10
-37.827391013877
 20
254.350364179578
 30
0.0
 40
74.50000298989787
100
AcDbArc
 50
138.0777740478516
 51
161.9222412109375
  0
ARC
  5
1E0
330
1F
100
AcDbEntity
  8
躯体
  6
Continuous
 62
     2
370
     9
100
AcDbCircle
 10
-37.827391013877
 20
254.350364179578
 30
0.0
 40
70.49999133960621
100
AcDbArc
 50
139.4744873046875
 51
160.5255737304688
  0
ARC
  5
1E1
330
1F
100
AcDbEntity
  8
躯体
  6
Continuous
 62
     2
370
     9
100
AcDbCircle
 10
-37.827391013877
 20
254.350364179578
 30
0.0
 40
68.99999103030643
100
AcDbArc
 50
138.3233795166016
 51
161.6766510009766
  0
ARC
  5
1E2
330
1F
100
AcDbEntity
  8
躯体
  6
Continuous
 62
     2
370
     9
100
AcDbCircle
 10
-37.827391013877
 20
254.350364179578
 30
0.0
 40
73.49999195820575
100
AcDbArc
 50
109.2914886474609
 51
130.7085418701172
  0
ARC
  5
1E3
330
1F
100
AcDbEntity
  8
躯体
  6
Continuous
 62
     2
370
     9
100
AcDbCircle
 10
-37.827391013877
 20
254.350364179578
 30
0.0
 40
74.50000298989787
100
AcDbArc
 50
108.0777740478515
 51
131.9222412109375
  0
ARC
  5
1E4
330
1F
100
AcDbEntity
  8
躯体
  6
Continuous
 62
     2
370
     9
100
AcDbCircle
 10
-37.827391013877
 20
254.350364179578
 30
0.0
 40
70.49999133960621
100
AcDbArc
 50
109.4744873046875
 51
130.5255737304687
  0
ARC
  5
1E5
330
1F
100
AcDbEntity
  8
躯体
  6
Continuous
 62
     2
370
     9
100
AcDbCircle
 10
-37.827391013877
 20
254.350364179578
 30
0.0
 40
68.99999103030643
100
AcDbArc
 50
108.3233795166016
 51
131.6766510009766
  0
ARC
  5
1E6
330
1F
100
AcDbEntity
  8
躯体
  6
Continuous
 62
     2
370
     9
100
AcDbCircle
 10
-37.827391013877
 20
254.350364179578
 30
0.0
 40
73.49999195820575
100
AcDbArc
 50
79.29148864746097
 51
100.7085418701172
  0
ARC
  5
1E7
330
1F
100
AcDbEntity
  8
躯体
  6
Continuous
 62
     2
370
     9
100
AcDbCircle
 10
-37.827391013877
 20
254.350364179578
 30
0.0
 40
74.50000298989787
100
AcDbArc
 50
78.07777404785158
 51
101.9222412109375
  0
ARC
  5
1E8
330
1F
100
AcDbEntity
  8
躯体
  6
Continuous
 62
     2
370
     9
100
AcDbCircle
 10
-37.827391013877
 20
254.350364179578
 30
0.0
 40
70.49999133960621
100
AcDbArc
 50
79.47448730468751
 51
100.5255737304688
  0
ARC
  5
1E9
330
1F
100
AcDbEntity
  8
躯体
  6
Continuous
 62
     2
370
     9
100
AcDbCircle
 10
-37.827391013877
 20
254.350364179578
 30
0.0
 40
73.49999195820575
100
AcDbArc
 50
49.29148864746096
 51
70.7085418701172
  0
ARC
  5
1EA
330
1F
100
AcDbEntity
  8
躯体
  6
Continuous
 62
     2
370
     9
100
AcDbCircle
 10
-37.827391013877
 20
254.350364179578
 30
0.0
 40
74.50000298989787
100
AcDbArc
 50
48.07777404785156
 51
71.9222412109375
  0
ARC
  5
1EB
330
1F
100
AcDbEntity
  8
躯体
  6
Continuous
 62
     2
370
     9
100
AcDbCircle
 10
-37.827391013877
 20
254.350364179578
 30
0.0
 40
70.49999133960621
100
AcDbArc
 50
49.47448730468751
 51
70.52557373046875
  0
ARC
  5
1EC
330
1F
100
AcDbEntity
  8
躯体
  6
Continuous
 62
     2
370
     9
100
AcDbCircle
 10
-37.827391013877
 20
254.350364179578
 30
0.0
 40
68.99999103030643
100
AcDbArc
 50
48.32337951660157
 51
71.67665100097656
  0
ARC
  5
1ED
330
1F
100
AcDbEntity
  8
躯体
  6
Continuous
 62
     2
370
     9
100
AcDbCircle
 10
-37.827391013877
 20
254.350364179578
 30
0.0
 40
73.49999195820575
100
AcDbArc
 50
19.29148864746094
 51
40.70854187011719
  0
ARC
  5
1EE
330
1F
100
AcDbEntity
  8
躯体
  6
Continuous
 62
     2
370
     9
100
AcDbCircle
 10
-37.827391013877
 20
254.350364179578
 30
0.0
 40
74.50000298989787
100
AcDbArc
 50
18.07777404785154
 51
41.92224121093749
  0
ARC
  5
1EF
330
1F
100
AcDbEntity
  8
躯体
  6
Continuous
 62
     2
370
     9
100
AcDbCircle
 10
-37.827391013877
 20
254.350364179578
 30
0.0
 40
70.49999133960621
100
AcDbArc
 50
19.47448730468749
 51
40.52557373046874
  0
ARC
  5
1F0
330
1F
100
AcDbEntity
  8
躯体
  6
Continuous
 62
     2
370
     9
100
AcDbCircle
 10
-37.827391013877
 20
254.350364179578
 30
0.0
 40
68.99999103030643
100
AcDbArc
 50
18.32337951660155
 51
41.67665100097655
  0
ARC
  5
1F1
330
1F
100
AcDbEntity
  8
躯体
  6
Continuous
 62
     2
370
     9
100
AcDbCircle
 10
-37.827391013877
 20
254.350364179578
 30
0.0
 40
70.49999133960621
100
AcDbArc
 50
0.0000000000000254
 51
10.52557373046877
  0
ARC
  5
1F2
330
1F
100
AcDbEntity
  8
躯体
  6
Continuous
 62
     2
370
     9
100
AcDbCircle
 10
-37.827391013877
 20
254.350364179578
 30
0.0
 40
73.49999195820575
100
AcDbArc
 50
0.0000000000000254
 51
10.70854187011721
  0
ARC
  5
1F3
330
1F
100
AcDbEntity
  8
躯体
  6
Continuous
 62
     2
370
     9
100
AcDbCircle
 10
-37.827391013877
 20
254.350364179578
 30
0.0
 40
74.50000298989787
100
AcDbArc
 50
0.0000000000000254
 51
11.92224121093753
  0
ARC
  5
1F4
330
1F
100
AcDbEntity
  8
躯体
  6
Continuous
 62
     2
370
     9
100
AcDbCircle
 10
28.42209761048955
 20
264.3504466595189
 30
0.0
 40
2.000000025774982
100
AcDbArc
 50
270.0
 51
8.583190917968746
  0
ARC
  5
1F5
330
1F
100
AcDbEntity
  8
躯体
  6
Continuous
 62
     2
370
     9
100
AcDbCircle
 10
-37.827391013877
 20
254.350364179578
 30
0.0
 40
68.99999103030643
100
AcDbArc
 50
8.583679199218768
 51
11.67665100097658
  0
ARC
  5
1F6
330
1F
100
AcDbEntity
  8
躯体
  6
Continuous
 62
     2
370
     9
100
AcDbCircle
 10
28.94431935616095
 20
263.3503938723567
 30
0.0
 40
2.000000025774982
100
AcDbArc
 50
270.0
 51
7.676574707031258
  0
ARC
  5
1F7
330
1F
100
AcDbEntity
  8
躯体
  6
Continuous
 62
     2
370
     9
100
AcDbCircle
 10
-37.827391013877
 20
254.350364179578
 30
0.0
 40
69.37547477515969
100
AcDbArc
 50
0.0
 51
7.676528930664062
  0
ARC
  5
1F8
330
1F
100
AcDbEntity
  8
躯体
  6
Continuous
 62
     2
370
     9
100
AcDbCircle
 10
-37.827391013877
 20
254.350364179578
 30
0.0
 40
70.49999133960621
100
AcDbArc
 50
169.4744110107422
 51
179.9999847412109
  0
ARC
  5
1F9
330
1F
100
AcDbEntity
  8
躯体
  6
Continuous
 62
     2
370
     9
100
AcDbCircle
 10
-37.827391013877
 20
254.350364179578
 30
0.0
 40
73.49999195820575
100
AcDbArc
 50
169.2914428710938
 51
179.9999847412109
  0
ARC
  5
1FA
330
1F
100
AcDbEntity
  8
躯体
  6
Continuous
 62
     2
370
     9
100
AcDbCircle
 10
-37.827391013877
 20
254.350364179578
 30
0.0
 40
74.50000298989787
100
AcDbArc
 50
168.0777740478516
 51
180.0000152587891
  0
ARC
  5
1FB
330
1F
100
AcDbEntity
  8
躯体
  6
Continuous
 62
     2
370
     9
100
AcDbCircle
 10
-37.827391013877
 20
254.350364179578
 30
0.0
 40
68.99999103030643
100
AcDbArc
 50
168.3233489990234
 51
171.4163208007812
  0
ARC
  5
1FC
330
1F
100
AcDbEntity
  8
躯体
  6
Continuous
 62
     2
370
     9
100
AcDbCircle
 10
-37.827391013877
 20
254.350364179578
 30
0.0
 40
69.37547477515969
100
AcDbArc
 50
172.3234710693359
 51
180.0
  0
ARC
  5
1FD
330
1F
100
AcDbEntity
  8
躯体
  6
Continuous
 62
     2
370
     9
100
AcDbCircle
 10
-37.827391013877
 20
254.350364179578
 30
0.0
 40
68.99999103030643
100
AcDbArc
 50
95.13783264160159
 51
101.6766510009766
  0
ARC
  5
1FE
330
1F
100
AcDbEntity
  8
躯体
  6
Continuous
 62
     2
370
     9
100
AcDbCircle
 10
-37.827391013877
 20
254.350364179578
 30
0.0
 40
68.99999103030643
100
AcDbArc
 50
78.32337951660159
 51
84.86216735839847
  0
ARC
  5
1FF
330
1F
100
AcDbEntity
  8
躯体
  6
Continuous
 62
     2
370
     9
100
AcDbCircle
 10
-37.827391013877
 20
254.350364179578
 30
0.0
 40
69.37547477515969
100
AcDbArc
 50
86.596435546875
 51
93.40356445312499
  0
ARC
  5
200
330
1F
100
AcDbEntity
  8
躯体
  6
Continuous
 62
     2
370
     9
100
AcDbCircle
 10
-30.98513555040576
 20
294.7754492988769
 30
0.0
 40
2.000000025774982
100
AcDbArc
 50
347.7381896972657
 51
80.39346313476565
  0
ARC
  5
201
330
1F
100
AcDbEntity
  8
躯体
  6
Continuous
 62
     2
370
     9
100
AcDbCircle
 10
-16.32736956909241
 20
291.5895626065205
 30
0.0
 40
12.9999995876003
100
AcDbArc
 50
167.737289428711
 51
312.2626953125
  0
ARC
  5
202
330
1F
100
AcDbEntity
  8
躯体
  6
Continuous
 62
     2
370
     9
100
AcDbCircle
 10
-37.827391013877
 20
254.350364179578
 30
0.0
 40
43.00000113409919
100
AcDbArc
 50
0.0
 51
39.60671997070312
  0
ARC
  5
203
330
1F
100
AcDbEntity
  8
躯体
  6
Continuous
 62
     2
370
     9
100
AcDbCircle
 10
-6.23939646415155
 20
280.4884718917824
 30
0.0
 40
2.000000025774982
100
AcDbArc
 50
39.60639953613282
 51
132.2628936767578
  0
ARC
  5
204
330
1F
100
AcDbEntity
  8
躯体
  6
Continuous
 62
     2
370
     9
100
AcDbCircle
 10
-76.25764102707379
 20
268.6373415866725
 30
0.0
 40
2.000000025774982
100
AcDbArc
 50
159.6063995361328
 51
252.2628936767578
  0
ARC
  5
205
330
1F
100
AcDbEntity
  8
躯体
  6
Continuous
 62
     2
370
     9
100
AcDbCircle
 10
-37.827391013877
 20
254.350364179578
 30
0.0
 40
43.00000113409919
100
AcDbArc
 50
80.39329528808595
 51
159.6068267822266
  0
ARC
  5
206
330
1F
100
AcDbEntity
  8
躯体
  6
Continuous
 62
     2
370
     9
100
AcDbCircle
 10
-80.82743390344629
 20
254.350364179578
 30
0.0
 40
12.9999995876003
100
AcDbArc
 50
0.0
 51
72.26269531249997
  0
ARC
  5
207
330
1F
100
AcDbEntity
  8
躯体
  6
Continuous
 62
     2
370
     9
100
AcDbCircle
 10
-80.82743390344629
 20
254.350364179578
 30
0.0
 40
12.00000015464989
100
AcDbArc
 50
0.0
 51
89.99992370605467
  0
ARC
  5
208
330
1F
100
AcDbEntity
  8
躯体
  6
Continuous
 62
     2
370
     9
100
AcDbCircle
 10
-5.504277495084832
 20
282.7091948119681
 30
0.0
 40
1.000000012887491
100
AcDbArc
 50
41.26124572753907
 51
140.6307678222657
  0
ARC
  5
209
330
1F
100
AcDbEntity
  8
躯体
  6
Continuous
 62
     2
370
     9
100
AcDbCircle
 10
-37.827391013877
 20
254.350364179578
 30
0.0
 40
43.99999824730126
100
AcDbArc
 50
0.0
 51
41.26216125488281
  0
ARC
  5
20A
330
1F
100
AcDbEntity
  8
躯体
  6
Continuous
 62
     2
370
     9
100
AcDbCircle
 10
-16.32736956909241
 20
291.5895626065205
 30
0.0
 40
12.9999995876003
100
AcDbArc
 50
320.6310272216797
 51
329.9999084472657
  0
ARC
  5
20B
330
1F
100
AcDbEntity
  8
躯体
  6
Continuous
 62
     2
370
     9
100
AcDbCircle
 10
-29.42953087346318
 20
296.5224239346455
 30
0.0
 40
1.000000012887491
100
AcDbArc
 50
339.3675384521485
 51
78.73760986328128
  0
ARC
  5
20C
330
1F
100
AcDbEntity
  8
躯体
  6
Continuous
 62
     2
370
     9
100
AcDbCircle
 10
-16.32736956909241
 20
291.5895626065205
 30
0.0
 40
12.9999995876003
100
AcDbArc
 50
149.9999084472656
 51
159.3691864013672
  0
ARC
  5
20D
330
1F
100
AcDbEntity
  8
躯体
  6
Continuous
 62
     2
370
     9
100
AcDbCircle
 10
-78.54832755710973
 20
268.1635933022553
 30
0.0
 40
1.000000012887491
100
AcDbArc
 50
161.2641143798828
 51
260.6306762695312
  0
ARC
  5
20E
330
1F
100
AcDbEntity
  8
躯体
  6
Continuous
 62
     2
370
     9
100
AcDbCircle
 10
-37.827391013877
 20
254.350364179578
 30
0.0
 40
43.99999824730126
100
AcDbArc
 50
78.73782348632812
 51
161.2622375488281
  0
ARC
  5
20F
330
1F
100
AcDbEntity
  8
躯体
  6
Continuous
 62
     2
370
     9
100
AcDbCircle
 10
-80.82743390344629
 20
254.350364179578
 30
0.0
 40
12.9999995876003
100
AcDbArc
 50
80.63093566894531
 51
89.99990844726562
  0
ARC
  5
210
330
1F
100
AcDbEntity
  8
躯体
  6
Continuous
 62
     2
370
     9
100
AcDbCircle
 10
6.926901242246263
 20
-21.73921645941061
 30
0.0
 40
1.000000012887491
100
AcDbArc
 50
90.0
 51
164.0540161132812
  0
CIRCLE
  5
211
330
1F
100
AcDbEntity
  8
躯体
  6
Continuous
 62
     4
370
     9
100
AcDbCircle
 10
-16.32736956909241
 20
291.5895626065205
 30
0.0
 40
3.323499963090226
  0
ARC
  5
212
330
1F
100
AcDbEntity
  8
躯体
  6
Continuous
 62
     4
370
     9
100
AcDbCircle
 10
-80.82743390344629
 20
254.350364179578
 30
0.0
 40
3.323499963090226
100
AcDbArc
 50
0.0
 51
180.0
  0
ARC
  5
213
330
1F
100
AcDbEntity
  8
仕上
  6
Continuous
 62
     6
370
     9
100
AcDbCircle
 10
21.25864051325556
 20
-5.818802179163576
 30
0.0
 40
2.000000025774982
100
AcDbArc
 50
185.115966796875
 51
267.4557647705078
  0
ARC
  5
214
330
1F
100
AcDbEntity
  8
仕上
  6
Continuous
 62
     6
370
     9
100
AcDbCircle
 10
17.68318456414235
 20
-10.73911830828091
 30
0.0
 40
3.000000038662472
100
AcDbArc
 50
185.1162567138672
 51
270.0
  0
ARC
  5
215
330
1F
100
AcDbEntity
  8
仕上
  6
Continuous
 62
     6
370
     9
100
AcDbCircle
 10
-96.91342254100967
 20
-5.818802179163576
 30
0.0
 40
2.000000025774982
100
AcDbArc
 50
272.5442352294922
 51
354.8840332031249
  0
ARC
  5
216
330
1F
100
AcDbEntity
  8
仕上
  6
Continuous
 62
     6
370
     9
100
AcDbCircle
 10
-93.33796659189645
 20
-10.73911830828091
 30
0.0
 40
3.000000038662472
100
AcDbArc
 50
270.0
 51
354.8837432861328
  0
ARC
  5
217
330
1F
100
AcDbEntity
  8
仕上
  6
Continuous
 62
     6
370
     9
100
AcDbCircle
 10
21.1686713937454
 20
-4.813812967539825
 30
0.0
 40
2.000000025774982
100
AcDbArc
 50
185.115966796875
 51
267.4557647705078
  0
ARC
  5
218
330
1F
100
AcDbEntity
  8
仕上
  6
Continuous
 62
     6
370
     9
100
AcDbCircle
 10
-37.827391013877
 20
254.350364179578
 30
0.0
 40
46.50000494879646
100
AcDbArc
 50
0.0
 51
180.0
  0
ARC
  5
219
330
1F
100
AcDbEntity
  8
仕上
  6
Continuous
 62
     6
370
     9
100
AcDbCircle
 10
-37.827391013877
 20
254.350364179578
 30
0.0
 40
51.52001922195021
100
AcDbArc
 50
0.0
 51
180.0
  0
ARC
  5
21A
330
1F
100
AcDbEntity
  8
仕上
  6
Continuous
 62
     6
370
     9
100
AcDbCircle
 10
-37.827391013877
 20
254.350364179578
 30
0.0
 40
52.9525426916174
100
AcDbArc
 50
7.385955810546876
 51
15.11404418945312
  0
ARC
  5
21B
330
1F
100
AcDbEntity
  8
仕上
  6
Continuous
 62
     6
370
     9
100
AcDbCircle
 10
14.7416694406204
 20
268.5484117144175
 30
0.0
 40
1.500000019331236
100
AcDbArc
 50
112.5001220703125
 51
195.1146087646484
  0
ARC
  5
21C
330
1F
100
AcDbEntity
  8
仕上
  6
Continuous
 62
     6
370
     9
100
AcDbCircle
 10
16.17345523031634
 20
261.3504367619259
 30
0.0
 40
1.500000019331236
100
AcDbArc
 50
187.3852691650391
 51
270.0
  0
ARC
  5
21D
330
1F
100
AcDbEntity
  8
仕上
  6
Continuous
 62
     6
370
     9
100
AcDbCircle
 10
-37.827391013877
 20
254.350364179578
 30
0.0
 40
52.9525426916174
100
AcDbArc
 50
29.88595581054688
 51
37.61404418945312
  0
ARC
  5
21E
330
1F
100
AcDbEntity
  8
仕上
  6
Continuous
 62
     6
370
     9
100
AcDbCircle
 10
5.306714771595953
 20
287.5848975410644
 30
0.0
 40
1.500000019331236
100
AcDbArc
 50
135.0001220703125
 51
217.6146087646485
  0
ARC
  5
21F
330
1F
100
AcDbEntity
  8
仕上
  6
Continuous
 62
     6
370
     9
100
AcDbCircle
 10
9.384052912959934
 20
281.4827345870949
 30
0.0
 40
1.500000019331236
100
AcDbArc
 50
209.8852691650391
 51
292.5000000000001
  0
ARC
  5
220
330
1F
100
AcDbEntity
  8
仕上
  6
Continuous
 62
     6
370
     9
100
AcDbCircle
 10
-37.827391013877
 20
254.350364179578
 30
0.0
 40
52.9525426916174
100
AcDbArc
 50
52.38595581054688
 51
60.11404418945312
  0
ARC
  5
221
330
1F
100
AcDbEntity
  8
仕上
  6
Continuous
 62
     6
370
     9
100
AcDbCircle
 10
-10.69502060636014
 20
301.5617338744681
 30
0.0
 40
1.500000019331236
100
AcDbArc
 50
157.5001220703125
 51
240.1146087646484
  0
ARC
  5
222
330
1F
100
AcDbEntity
  8
仕上
  6
Continuous
 62
     6
370
     9
100
AcDbCircle
 10
-4.592857652390531
 20
297.4844699650509
 30
0.0
 40
1.500000019331236
100
AcDbArc
 50
232.3852691650391
 51
315.0
  0
ARC
  5
223
330
1F
100
AcDbEntity
  8
仕上
  6
Continuous
 62
     6
370
     9
100
AcDbCircle
 10
-37.827391013877
 20
254.350364179578
 30
0.0
 40
52.9525426916174
100
AcDbArc
 50
74.88595581054688
 51
82.61404418945312
  0
ARC
  5
224
330
1F
100
AcDbEntity
  8
仕上
  6
Continuous
 62
     6
370
     9
100
AcDbCircle
 10
-30.82739266347583
 20
308.3511361918246
 30
0.0
 40
1.500000019331236
100
AcDbArc
 50
180.0001220703125
 51
262.6146087646484
  0
ARC
  5
225
330
1F
100
AcDbEntity
  8
仕上
  6
Continuous
 62
     6
370
     9
100
AcDbCircle
 10
-23.62934347903747
 20
306.9193504021287
 30
0.0
 40
1.500000019331236
100
AcDbArc
 50
254.885269165039
 51
337.5000000000001
  0
ARC
  5
226
330
1F
100
AcDbEntity
  8
仕上
  6
Continuous
 62
     6
370
     9
100
AcDbCircle
 10
-37.827391013877
 20
254.350364179578
 30
0.0
 40
52.9525426916174
100
AcDbArc
 50
97.38595581054688
 51
105.1140441894531
  0
ARC
  5
227
330
1F
100
AcDbEntity
  8
仕上
  6
Continuous
 62
     6
370
     9
100
AcDbCircle
 10
-52.02543854871654
 20
306.9193504021287
 30
0.0
 40
1.500000019331236
100
AcDbArc
 50
202.5001220703125
 51
285.1146087646484
  0
ARC
  5
228
330
1F
100
AcDbEntity
  8
仕上
  6
Continuous
 62
     6
370
     9
100
AcDbCircle
 10
-44.82738936427818
 20
308.3511361918246
 30
0.0
 40
1.500000019331236
100
AcDbArc
 50
277.3852691650391
 51
0.0000000000000127
  0
ARC
  5
229
330
1F
100
AcDbEntity
  8
仕上
  6
Continuous
 62
     6
370
     9
100
AcDbCircle
 10
-37.827391013877
 20
254.350364179578
 30
0.0
 40
52.9525426916174
100
AcDbArc
 50
119.8859558105469
 51
127.6140441894531
  0
ARC
  5
22A
330
1F
100
AcDbEntity
  8
仕上
  6
Continuous
 62
     6
370
     9
100
AcDbCircle
 10
-71.06192437536347
 20
297.4844699650509
 30
0.0
 40
1.500000019331236
100
AcDbArc
 50
225.0001220703125
 51
307.6146087646484
  0
ARC
  5
22B
330
1F
100
AcDbEntity
  8
仕上
  6
Continuous
 62
     6
370
     9
100
AcDbCircle
 10
-64.95976142139395
 20
301.5617338744681
 30
0.0
 40
1.500000019331236
100
AcDbArc
 50
299.8852691650391
 51
22.50000000000001
  0
ARC
  5
22C
330
1F
100
AcDbEntity
  8
仕上
  6
Continuous
 62
     6
370
     9
100
AcDbCircle
 10
-37.827391013877
 20
254.350364179578
 30
0.0
 40
52.9525426916174
100
AcDbArc
 50
142.3859558105469
 51
150.1140441894531
  0
ARC
  5
22D
330
1F
100
AcDbEntity
  8
仕上
  6
Continuous
 62
     6
370
     9
100
AcDbCircle
 10
-85.03876070876723
 20
281.4827345870949
 30
0.0
 40
1.500000019331236
100
AcDbArc
 50
247.5001220703125
 51
330.1146087646484
  0
ARC
  5
22E
330
1F
100
AcDbEntity
  8
仕上
  6
Continuous
 62
     6
370
     9
100
AcDbCircle
 10
-80.96149679934997
 20
287.5848975410644
 30
0.0
 40
1.500000019331236
100
AcDbArc
 50
322.3852691650391
 51
45.00000000000001
  0
ARC
  5
22F
330
1F
100
AcDbEntity
  8
仕上
  6
Continuous
 62
     6
370
     9
100
AcDbCircle
 10
-37.827391013877
 20
254.350364179578
 30
0.0
 40
52.9525426916174
100
AcDbArc
 50
164.8859558105469
 51
172.6140441894531
  0
ARC
  5
230
330
1F
100
AcDbEntity
  8
仕上
  6
Continuous
 62
     6
370
     9
100
AcDbCircle
 10
-91.82816302612363
 20
261.3504367619259
 30
0.0
 40
1.500000019331236
100
AcDbArc
 50
270.0001220703126
 51
352.6146087646484
  0
ARC
  5
231
330
1F
100
AcDbEntity
  8
仕上
  6
Continuous
 62
     6
370
     9
100
AcDbCircle
 10
-90.3963772364277
 20
268.5484117144175
 30
0.0
 40
1.500000019331236
100
AcDbArc
 50
344.8852691650391
 51
67.50000000000004
  0
ARC
  5
232
330
1F
100
AcDbEntity
  8
仕上
  6
Continuous
 62
     6
370
     9
100
AcDbCircle
 10
-37.827391013877
 20
254.350364179578
 30
0.0
 40
67.5
100
AcDbArc
 50
4.248031616210938
 51
8.519622802734375
  0
ARC
  5
233
330
1F
100
AcDbEntity
  8
仕上
  6
Continuous
 62
     6
370
     9
100
AcDbCircle
 10
-37.827391013877
 20
254.350364179578
 30
0.0
 40
67.5
100
AcDbArc
 50
171.4803771972657
 51
175.7519683837891
  0
ARC
  5
234
330
1F
100
AcDbEntity
  8
仕上
  6
Continuous
 62
     6
370
     9
100
AcDbCircle
 10
-37.827391013877
 20
254.350364179578
 30
0.0
 40
68.50000639219542
100
AcDbArc
 50
3.347625732421875
 51
176.6523590087891
  0
ELLIPSE
  5
235
330
1F
100
AcDbEntity
  8
仕上
  6
Continuous
 62
     6
370
     9
100
AcDbEllipse
 10
25.6726205333147
 20
-6.669463173409767
 30
0.0
 11
5.249980204814189
 21
0.0
 31
0.0
210
0.0
220
0.0
230
1.0
 40
0.7428
 41
0.0
 42
1.475408288134874
  0
ELLIPSE
  5
236
330
1F
100
AcDbEntity
  8
仕上
  6
Continuous
 62
     6
370
     9
100
AcDbEllipse
 10
25.6726205333147
 20
-6.669463173409767
 30
0.0
 11
5.249980204814189
 21
0.0
 31
0.0
210
0.0
220
0.0
230
1.0
 40
0.7428
 41
1.666184365454919
 42
3.141592653589793
  0
ARC
  5
237
330
1F
100
AcDbEntity
  8
仕上
  6
Continuous
 62
     6
370
     9
100
AcDbCircle
 10
25.6726205333147
 20
254.350364179578
 30
0.0
 40
5.249999922675055
100
AcDbArc
 50
0.0
 51
180.0
  0
ELLIPSE
  5
238
330
1F
100
AcDbEntity
  8
仕上
  6
Continuous
 62
     6
370
     9
100
AcDbEllipse
 10
-94.50251737314645
 20
49.6663118411067
 30
0.0
 11
0.4681922948720544
 21
5.229061878192232
 31
0.0
210
0.0
220
0.0
230
1.0
 40
0.7428
 41
0.0
 42
1.475408288134874
  0
ELLIPSE
  5
239
330
1F
100
AcDbEntity
  8
仕上
  6
Continuous
 62
     6
370
     9
100
AcDbEllipse
 10
-94.50251737314645
 20
49.6663118411067
 30
0.0
 11
0.4681922948720544
 21
5.229061878192232
 31
0.0
210
0.0
220
0.0
230
1.0
 40
0.7428
 41
1.666184365454919
 42
3.141592653589793
  0
ARC
  5
23A
330
1F
100
AcDbEntity
  8
仕上
  6
Continuous
 62
     6
370
     9
100
AcDbCircle
 10
-101.3274025610687
 20
254.350364179578
 30
0.0
 40
5.249999922675055
100
AcDbArc
 50
0.0
 51
180.0
  0
ARC
  5
23B
330
1F
100
AcDbEntity
  8
仕上
  6
Continuous
 62
     6
370
     9
100
AcDbCircle
 10
-97.4434386410941
 20
-11.73920821141655
 30
0.0
 40
2.000000025774982
100
AcDbArc
 50
270.0
 51
354.884033203125
  0
ARC
  5
23C
330
1F
100
AcDbEntity
  8
仕上
  6
Continuous
 62
     6
370
     9
100
AcDbCircle
 10
-37.827391013877
 20
254.350364179578
 30
0.0
 40
57.25000639219541
100
AcDbArc
 50
95.14587402343751
 51
180.0
  0
ARC
  5
23D
330
1F
100
AcDbEntity
  8
仕上
  6
Continuous
 62
     6
370
     9
100
AcDbCircle
 10
-37.827391013877
 20
254.350364179578
 30
0.0
 40
57.25000639219541
100
AcDbArc
 50
0.0
 51
84.8541259765625
  0
ELLIPSE
  5
23E
330
1F
100
AcDbEntity
  8
仕上
  6
Continuous
 62
     6
370
     9
100
AcDbEllipse
 10
-37.827391013877
 20
310.5573096504394
 30
0.0
 11
5.250017320787585
 21
0.0
 31
0.0
210
0.0
220
0.0
230
1.0
 40
0.7428
 41
1.666170250701142
 42
3.141592653589793
  0
ELLIPSE
  5
23F
330
1F
100
AcDbEntity
  8
仕上
  6
Continuous
 62
     6
370
     9
100
AcDbEllipse
 10
-37.827391013877
 20
310.5573096504394
 30
0.0
 11
5.250017320787585
 21
0.0
 31
0.0
210
0.0
220
0.0
230
1.0
 40
0.7428
 41
0.0
 42
1.475408288134874
  0
ARC
  5
240
330
1F
100
AcDbEntity
  8
通り芯
  6
Continuous
 62
     3
370
     9
100
AcDbCircle
 10
-37.827391013877
 20
254.350364179578
 30
0.0
 40
31.48985991606841
100
AcDbArc
 50
0.0
 51
50.58036804199219
  0
ARC
  5
241
330
1F
100
AcDbEntity
  8
通り芯
  6
Continuous
 62
     3
370
     9
100
AcDbCircle
 10
-37.827391013877
 20
254.350364179578
 30
0.0
 40
31.48985991606841
100
AcDbArc
 50
69.41961669921875
 51
170.5804595947266
  0
ARC
  5
242
330
1F
100
AcDbEntity
  8
通り芯
  6
Continuous
 62
     3
370
     9
100
AcDbCircle
 10
-37.827391013877
 20
254.350364179578
 30
0.0
 40
34.77551202516298
100
AcDbArc
 50
0.0
 51
45.0406494140625
  0
ARC
  5
243
330
1F
100
AcDbEntity
  8
通り芯
  6
Continuous
 62
     3
370
     9
100
AcDbCircle
 10
-37.827391013877
 20
254.350364179578
 30
0.0
 40
34.77551202516298
100
AcDbArc
 50
74.95938110351562
 51
165.0406646728516
  0
ARC
  5
244
330
1F
100
AcDbEntity
  8
躯体
  6
Continuous
 62
     2
370
     9
100
AcDbCircle
 10
-16.32736956909241
 20
291.5895626065205
 30
0.0
 40
12.00000015464989
100
AcDbArc
 50
140.5608520507812
 51
329.9999237060547
  0
ARC
  5
245
330
1F
100
AcDbEntity
  8
躯体
  6
Continuous
 62
     2
370
     9
100
AcDbCircle
 10
-104.5990642679416
 20
263.3503938723567
 30
0.0
 40
2.000000025774982
100
AcDbArc
 50
172.3234252929688
 51
228.8124694824219
  0
ARC
  5
246
330
1F
100
AcDbEntity
  8
躯体
  6
Continuous
 62
     2
370
     9
100
AcDbCircle
 10
-104.076916754217
 20
264.3504466595189
 30
0.0
 40
2.000000025774982
100
AcDbArc
 50
171.4168090820312
 51
213.388671875
  0
ARC
  5
247
330
1F
100
AcDbEntity
  8
躯体
  6
Continuous
 62
     2
370
     9
100
AcDbCircle
 10
-33.82740256106872
 20
321.6070318579986
 30
0.0
 40
2.000000025774982
100
AcDbArc
 50
86.59663391113284
 51
143.0830993652344
  0
ARC
  5
248
330
1F
100
AcDbEntity
  8
躯体
  6
Continuous
 62
     2
370
     9
100
AcDbCircle
 10
-31.82737121869123
 20
321.0811727469344
 30
0.0
 40
2.000000025774982
100
AcDbArc
 50
84.86212158203125
 51
126.8358764648438
  0
ARC
  5
249
330
1F
100
AcDbEntity
  8
躯体
  6
Continuous
 62
     2
370
     9
100
AcDbCircle
 10
-43.82733657711607
 20
321.0811727469344
 30
0.0
 40
2.000000025774982
100
AcDbArc
 50
53.16412353515626
 51
95.13787841796876
  0
ARC
  5
24A
330
1F
100
AcDbEntity
  8
躯体
  6
Continuous
 62
     2
370
     9
100
AcDbCircle
 10
-41.82737946668529
 20
321.6070318579986
 30
0.0
 40
2.000000025774982
100
AcDbArc
 50
36.91690063476562
 51
93.40336608886719
  0
ARC
  5
24B
330
1F
100
AcDbEntity
  8
躯体
  6
Continuous
 62
     4
370
     9
100
AcDbCircle
 10
-16.32736956909241
 20
291.5895626065205
 30
0.0
 40
4.000000051549963
100
AcDbArc
 50
90.22064208984374
 51
29.77864074707037
  0
ARC
  5
24C
330
1F
100
AcDbEntity
  8
躯体
  6
Continuous
 62
     4
370
     9
100
AcDbCircle
 10
-80.82743390344629
 20
254.350364179578
 30
0.0
 40
4.000000051549963
100
AcDbArc
 50
0.0
 51
149.7783508300781
  0
ARC
  5
24D
330
1F
100
AcDbEntity
  8
躯体
  6
Continuous
 62
     4
370
     9
100
AcDbCircle
 10
-16.322544492551
 20
291.5867417925425
 30
0.0
 40
6.500001533611401
100
AcDbArc
 50
120.9942779541016
 51
358.990966796875
  0
ARC
  5
24E
330
1F
100
AcDbEntity
  8
躯体
  6
Continuous
 62
     4
370
     9
100
AcDbCircle
 10
-80.82743390344629
 20
254.3560058075341
 30
0.0
 40
6.500001533611401
100
AcDbArc
 50
359.9509277343751
 51
118.9913635253906
  0
ARC
  5
24F
330
1F
100
AcDbEntity
  8
通り芯
  6
Continuous
 62
     3
370
     9
100
AcDbCircle
 10
-129.0324724380746
 20
-28.9454682739693
 30
0.0
 40
10.99999840195115
100
AcDbArc
 50
74.99996948242188
 51
121.7900543212891
  0
ARC
  5
250
330
1F
100
AcDbEntity
  8
通り芯
  6
Continuous
 62
     3
370
     9
100
AcDbCircle
 10
-122.3610989161152
 20
-14.55694156366523
 30
0.0
 40
1.625014881829958
100
AcDbArc
 50
187.620590209961
 51
322.3796997070312
  0
ARC
  5
251
330
1F
100
AcDbEntity
  8
通り芯
  6
Continuous
 62
     3
370
     9
100
AcDbCircle
 10
-116.5655139023905
 20
-16.10987389052336
 30
0.0
 40
1.625014881829958
100
AcDbArc
 50
187.620590209961
 51
322.3796997070312
  0
ARC
  5
252
330
1F
100
AcDbEntity
  8
通り芯
  6
Continuous
 62
     3
370
     9
100
AcDbCircle
 10
-113.2363595527284
 20
-18.6842378052193
 30
0.0
 40
0.9999999403953552
100
AcDbArc
 50
11.56538391113281
 51
75.00050354003906
  0
ARC
  5
253
330
1F
100
AcDbEntity
  8
通り芯
  6
Continuous
 62
     3
370
     9
100
AcDbCircle
 10
-110.8523263496034
 20
-20.35824243729279
 30
0.0
 40
0.9999999403953552
100
AcDbArc
 50
191.5664215087891
 51
255.0005035400391
  0
ARC
  5
254
330
1F
100
AcDbEntity
  8
通り芯
  6
Continuous
 62
     3
370
     9
100
AcDbCircle
 10
-105.2848561083661
 20
-21.85008187194231
 30
0.0
 40
0.9999999403953552
100
AcDbArc
 50
255.0005035400391
 51
318.435775756836
  0
ARC
  5
255
330
1F
100
AcDbEntity
  8
通り芯
  6
Continuous
 62
     3
370
     9
100
AcDbCircle
 10
-102.3832035402706
 20
-21.59234855268555
 30
0.0
 40
0.9999999403953552
100
AcDbArc
 50
75.00077819824217
 51
138.4349822998047
  0
ARC
  5
256
330
1F
100
AcDbEntity
  8
通り芯
  6
Continuous
 62
     3
370
     9
100
AcDbCircle
 10
-113.8475854026017
 20
-23.17913064728012
 30
0.0
 40
1.500000019331236
100
AcDbArc
 50
191.5660095214844
 51
254.9999084472656
  0
ARC
  5
257
330
1F
100
AcDbEntity
  8
通り芯
  6
Continuous
 62
     3
370
     9
100
AcDbCircle
 10
-104.1012277167909
 20
-25.7906847673181
 30
0.0
 40
1.500000019331236
100
AcDbArc
 50
254.9999084472656
 51
318.435043334961
  0
ARC
  5
258
330
1F
100
AcDbEntity
  8
通り芯
  6
Continuous
 62
     3
370
     9
100
AcDbCircle
 10
-100.6923482562757
 20
-27.22172823754617
 30
0.0
 40
1.99999988079071
100
AcDbArc
 50
75.00050354003906
 51
138.435073852539
  0
ARC
  5
259
330
1F
100
AcDbEntity
  8
通り芯
  6
Continuous
 62
     3
370
     9
100
AcDbCircle
 10
-117.5153116615755
 20
-22.71406750063738
 30
0.0
 40
1.99999988079071
100
AcDbArc
 50
11.56517028808594
 51
75.00050354003906
  0
ARC
  5
25A
330
1F
100
AcDbEntity
  8
通り芯
  6
Continuous
 62
     3
370
     9
100
AcDbCircle
 10
-98.212852769578
 20
-21.02744343760951
 30
0.0
 40
1.625014881829958
100
AcDbArc
 50
187.6191101074219
 51
322.3802185058594
  0
ARC
  5
25B
330
1F
100
AcDbEntity
  8
通り芯
  6
Continuous
 62
     3
370
     9
100
AcDbCircle
 10
-95.83579736945138
 20
-29.55832722667201
 30
0.0
 40
3.000000038662472
100
AcDbArc
 50
6.999954223632812
 51
75.00071716308594
  0
ARC
  5
25C
330
1F
100
AcDbEntity
  8
通り芯
  6
Continuous
 62
     3
370
     9
100
AcDbCircle
 10
-95.83579736945138
 20
-29.55832722667201
 30
0.0
 40
7.000000090212434
100
AcDbArc
 50
6.999954223632812
 51
75.00071716308594
  0
ARC
  5
25D
330
1F
100
AcDbEntity
  8
通り芯
  6
Continuous
 62
     3
370
     9
100
AcDbCircle
 10
-75.68546118121232
 20
-31.0956708447041
 30
0.0
 40
0.9999999403953552
100
AcDbArc
 50
8.734939575195312
 51
90.00000000000001
  0
ARC
  5
25E
330
1F
100
AcDbEntity
  8
通り芯
  6
Continuous
 62
     3
370
     9
100
AcDbCircle
 10
-71.43783495391082
 20
-42.27841670091185
 30
0.0
 40
1.500000019331236
100
AcDbArc
 50
188.7356567382813
 51
233.6293640136719
  0
ARC
  5
25F
330
1F
100
AcDbEntity
  8
通り芯
  6
Continuous
 62
     3
370
     9
100
AcDbCircle
 10
-83.64743133007217
 20
-38.56429547519399
 30
0.0
 40
7.999999523162842
100
AcDbArc
 50
186.9998626708984
 51
266.0002136230469
  0
ARC
  5
260
330
1F
100
AcDbEntity
  8
通り芯
  6
JWW_DASHED1
 62
     3
370
     9
100
AcDbCircle
 10
-83.63243647682044
 20
-38.68588740403685
 30
0.0
 40
3.999999761581421
100
AcDbArc
 50
187.0001983642578
 51
266.0000457763672
  0
ARC
  5
261
330
1F
100
AcDbEntity
  8
通り芯
  6
Continuous
 62
     3
370
     9
100
AcDbCircle
 10
-81.16251691125879
 20
-51.76978764949717
 30
0.0
 40
5.000000064437454
100
AcDbArc
 50
2.059722900390625
 51
86.00022888183594
  0
ARC
  5
262
330
1F
100
AcDbEntity
  8
通り芯
  6
Continuous
 62
     3
370
     9
100
AcDbCircle
 10
-87.75550149740748
 20
-29.72327061244059
 30
0.0
 40
0.9999999403953552
100
AcDbArc
 50
187.0009002685546
 51
338.1363830566407
  0
ARC
  5
263
330
1F
100
AcDbEntity
  8
通り芯
  6
Continuous
 62
     3
370
     9
100
AcDbCircle
 10
53.37769041032055
 20
-28.9454682739693
 30
0.0
 40
10.99999840195115
100
AcDbArc
 50
58.20994567871094
 51
105.0000305175781
  0
ARC
  5
264
330
1F
100
AcDbEntity
  8
通り芯
  6
Continuous
 62
     3
370
     9
100
AcDbCircle
 10
46.7063168883611
 20
-14.55694156366523
 30
0.0
 40
1.625014881829958
100
AcDbArc
 50
217.6203002929688
 51
352.3794097900391
  0
ARC
  5
265
330
1F
100
AcDbEntity
  8
通り芯
  6
Continuous
 62
     3
370
     9
100
AcDbCircle
 10
40.9107318746365
 20
-16.10987389052336
 30
0.0
 40
1.625014881829958
100
AcDbArc
 50
217.6203002929688
 51
352.3794097900391
  0
ARC
  5
266
330
1F
100
AcDbEntity
  8
通り芯
  6
Continuous
 62
     3
370
     9
100
AcDbCircle
 10
37.58157752497431
 20
-18.6842378052193
 30
0.0
 40
0.9999999403953552
100
AcDbArc
 50
104.9994964599609
 51
168.4346160888672
  0
ARC
  5
267
330
1F
100
AcDbEntity
  8
通り芯
  6
Continuous
 62
     3
370
     9
100
AcDbCircle
 10
35.19754432184931
 20
-20.35824243729279
 30
0.0
 40
0.9999999403953552
100
AcDbArc
 50
284.9994964599609
 51
348.4335784912109
  0
ARC
  5
268
330
1F
100
AcDbEntity
  8
通り芯
  6
Continuous
 62
     3
370
     9
100
AcDbCircle
 10
29.63007408061197
 20
-21.85008187194231
 30
0.0
 40
0.9999999403953552
100
AcDbArc
 50
221.5642242431641
 51
284.9994964599609
  0
ARC
  5
269
330
1F
100
AcDbEntity
  8
通り芯
  6
Continuous
 62
     3
370
     9
100
AcDbCircle
 10
26.72842151251658
 20
-21.59234855268555
 30
0.0
 40
0.9999999403953552
100
AcDbArc
 50
41.56501770019532
 51
104.9992218017578
  0
ARC
  5
26A
330
1F
100
AcDbEntity
  8
通り芯
  6
Continuous
 62
     3
370
     9
100
AcDbCircle
 10
38.19280337484759
 20
-23.17913064728012
 30
0.0
 40
1.500000019331236
100
AcDbArc
 50
285.0000915527344
 51
348.4339904785157
  0
ARC
  5
26B
330
1F
100
AcDbEntity
  8
通り芯
  6
Continuous
 62
     3
370
     9
100
AcDbCircle
 10
28.44644568903681
 20
-25.7906847673181
 30
0.0
 40
1.500000019331236
100
AcDbArc
 50
221.5649566650391
 51
285.0000915527344
  0
ARC
  5
26C
330
1F
100
AcDbEntity
  8
通り芯
  6
Continuous
 62
     3
370
     9
100
AcDbCircle
 10
25.03756622852157
 20
-27.22172823754617
 30
0.0
 40
1.99999988079071
100
AcDbArc
 50
41.56492614746094
 51
104.9994964599609
  0
ARC
  5
26D
330
1F
100
AcDbEntity
  8
通り芯
  6
Continuous
 62
     3
370
     9
100
AcDbCircle
 10
41.86052963382141
 20
-22.71406750063738
 30
0.0
 40
1.99999988079071
100
AcDbArc
 50
104.9994964599609
 51
168.4348297119141
  0
ARC
  5
26E
330
1F
100
AcDbEntity
  8
通り芯
  6
Continuous
 62
     3
370
     9
100
AcDbCircle
 10
22.558070741824
 20
-21.02744343760951
 30
0.0
 40
1.625014881829958
100
AcDbArc
 50
217.6197814941406
 51
352.3808898925781
  0
ARC
  5
26F
330
1F
100
AcDbEntity
  8
通り芯
  6
Continuous
 62
     3
370
     9
100
AcDbCircle
 10
20.18101534169728
 20
-29.55832722667201
 30
0.0
 40
3.000000038662472
100
AcDbArc
 50
104.9992828369141
 51
173.0000457763672
  0
ARC
  5
270
330
1F
100
AcDbEntity
  8
通り芯
  6
Continuous
 62
     3
370
     9
100
AcDbCircle
 10
7.99264930231806
 20
-38.56429547519399
 30
0.0
 40
7.999999523162842
100
AcDbArc
 50
273.9997863769531
 51
353.0001373291016
  0
ARC
  5
271
330
1F
100
AcDbEntity
  8
通り芯
  6
Continuous
 62
     3
370
     9
100
AcDbCircle
 10
7.977654449066339
 20
-38.68588740403685
 30
0.0
 40
3.999999761581421
100
AcDbArc
 50
273.9999542236328
 51
352.9998016357422
  0
ARC
  5
272
330
1F
100
AcDbEntity
  8
通り芯
  6
Continuous
 62
     3
370
     9
100
AcDbCircle
 10
5.5077348835047
 20
-51.76978764949717
 30
0.0
 40
5.000000064437454
100
AcDbArc
 50
93.99977111816408
 51
177.9402770996094
  0
ARC
  5
273
330
1F
100
AcDbEntity
  8
通り芯
  6
Continuous
 62
     3
370
     9
100
AcDbCircle
 10
20.18101534169728
 20
-29.55832722667201
 30
0.0
 40
7.000000090212434
100
AcDbArc
 50
104.9992828369141
 51
172.9999084472656
  0
ARC
  5
274
330
1F
100
AcDbEntity
  8
通り芯
  6
Continuous
 62
     3
370
     9
100
AcDbCircle
 10
60.32542947018126
 20
-12.59558506556561
 30
0.0
 40
0.9999999403953552
100
AcDbArc
 50
9.46208190917969
 51
90.0
  0
ARC
  5
275
330
1F
100
AcDbEntity
  8
通り芯
  6
Continuous
 62
     3
370
     9
100
AcDbCircle
 10
-135.9802114979353
 20
-12.59558506556561
 30
0.0
 40
0.9999999403953552
100
AcDbArc
 50
90.0
 51
170.5379180908203
  0
TEXT
  5
276
330
1F
100
AcDbEntity
  8
その他
  6
Continuous
 62
     2
370
     9
100
AcDbText
 10
-50.95240957186373
 20
90.95285282373976
 30
0.0
 40
9.144
  1
φ93
 41
1.09375
  7
ＭＳ ゴシック
100
AcDbText
  0
TEXT
  5
277
330
1F
100
AcDbEntity
  8
その他
  6
Continuous
 62
     2
370
     9
100
AcDbText
 10
-54.32737245589033
 20
114.9528577725362
 30
0.0
 40
9.144
  1
φ180
 41
1.1
  7
ＭＳ ゴシック
100
AcDbText
  0
TEXT
  5
278
330
1F
100
AcDbEntity
  8
その他
  6
Continuous
 62
     2
370
     9
100
AcDbText
 10
-54.32737245589033
 20
138.9528627213327
 30
0.0
 40
9.144
  1
φ200
 41
1.1
  7
ＭＳ ゴシック
100
AcDbText
  0
TEXT
  5
279
330
1F
100
AcDbEntity
  8
その他
  6
Continuous
 62
     2
370
     9
100
AcDbText
 10
111.4806370293028
 20
15.95766150986726
 30
0.0
 40
9.144
  1
68
 50
90.0
 41
1.0625
  7
ＭＳ ゴシック
100
AcDbText
  0
TEXT
  5
27A
330
1F
100
AcDbEntity
  8
その他
  6
Continuous
 62
     2
370
     9
100
AcDbText
 10
-172.5193967874729
 20
14.88586354613203
 30
0.0
 40
9.144
  1
70
 50
90.0
 41
1.0625
  7
ＭＳ ゴシック
100
AcDbText
  0
TEXT
  5
27B
330
1F
100
AcDbEntity
  8
その他
  6
Continuous
 62
     2
370
     9
100
AcDbText
 10
-42.91390628586291
 20
-72.4035652703798
 30
0.0
 40
9.144
  1
φ77
 41
1.09375
  7
ＭＳ ゴシック
100
AcDbText
  0
TEXT
  5
27C
330
1F
100
AcDbEntity
  8
その他
  6
Continuous
 62
     2
370
     9
100
AcDbText
 10
-50.95233533991693
 20
-212.7941964563754
 30
0.0
 40
9.144
  1
φ67
 41
1.09375
  7
ＭＳ ゴシック
100
AcDbText
  0
TEXT
  5
27D
330
1F
100
AcDbEntity
  8
その他
  6
Continuous
 62
     2
370
     9
100
AcDbText
 10
111.4806370293028
 20
-127.0408660169882
 30
0.0
 40
9.144
  1
140
 50
90.0
 41
1.083333333333333
  7
ＭＳ ゴシック
100
AcDbText
  0
TEXT
  5
27E
330
1F
100
AcDbEntity
  8
その他
  6
Continuous
 62
     2
370
     9
100
AcDbText
 10
111.4806370293028
 20
-35.72057846717036
 30
0.0
 40
9.144
  1
35
 50
90.0
 41
1.0625
  7
ＭＳ ゴシック
100
AcDbText
  0
LINE
  5
27F
330
1F
100
AcDbEntity
  8
通り芯
  6
JWW_CENTER1
 62
     3
370
     9
100
AcDbLine
 10
-37.827391013877
 20
367.2973771316806
 30
0.0
 11
-37.827391013877
 21
249.76728378473
 31
0.0
  0
LINE
  5
280
330
1F
100
AcDbEntity
  8
通り芯
  6
JWW_CENTER1
 62
     3
370
     9
100
AcDbLine
 10
-158.6592580796913
 20
254.350364179578
 30
0.0
 11
82.7022946602986
 21
254.350364179578
 31
0.0
  0
LINE
  5
281
330
1F
100
AcDbEntity
  8
寸法
  6
Continuous
 62
     7
370
     9
100
AcDbLine
 10
27.74183605010103
 20
-3.085470550415707
 30
0.0
 11
30.61194004081048
 21
3.843636290800546
 31
0.0
  0
LINE
  5
282
330
1F
100
AcDbEntity
  8
寸法
  6
Continuous
 62
     7
370
     9
100
AcDbLine
 10
27.74183605010103
 20
-3.085470550415707
 30
0.0
 11
32.30754616940001
 21
2.864665376526872
 31
0.0
  0
LINE
  5
283
330
1F
100
AcDbEntity
  8
寸法
  6
Continuous
 62
     7
370
     9
100
AcDbLine
 10
35.67262878130876
 20
-7.739219758608264
 30
0.0
 11
38.54273277201821
 21
-0.8101129173920114
 31
0.0
  0
LINE
  5
284
330
1F
100
AcDbEntity
  8
寸法
  6
Continuous
 62
     7
370
     9
100
AcDbLine
 10
35.67262878130876
 20
-7.739219758608264
 30
0.0
 11
40.23833890060774
 21
-1.789083831665707
 31
0.0
  0
LINE
  5
285
330
1F
100
AcDbEntity
  8
寸法
  6
Continuous
 62
     7
370
     9
100
AcDbLine
 10
13.6926235685765
 20
56.26085529813795
 30
0.0
 11
16.56272755928595
 21
63.18996213935412
 31
0.0
  0
LINE
  5
286
330
1F
100
AcDbEntity
  8
寸法
  6
Continuous
 62
     7
370
     9
100
AcDbLine
 10
13.6926235685765
 20
56.26085529813795
 30
0.0
 11
18.25833368787548
 21
62.21099122508053
 31
0.0
  0
LINE
  5
287
330
1F
100
AcDbEntity
  8
寸法
  6
Continuous
 62
     7
370
     9
100
AcDbLine
 10
-96.83288087874192
 20
53.70263683186897
 30
0.0
 11
-101.3985909980409
 21
59.65277275881147
 31
0.0
  0
LINE
  5
288
330
1F
100
AcDbEntity
  8
寸法
  6
Continuous
 62
     7
370
     9
100
AcDbLine
 10
-96.83288087874192
 20
53.70263683186897
 30
0.0
 11
-99.70302198542473
 21
60.63174367308514
 31
0.0
  0
LINE
  5
289
330
1F
100
AcDbEntity
  8
寸法
  6
Continuous
 62
     7
370
     9
100
AcDbLine
 10
-84.15094662515239
 20
3.920800399489295
 30
0.0
 11
-88.71661962847794
 21
9.870936326431874
 31
0.0
  0
LINE
  5
28A
330
1F
100
AcDbEntity
  8
寸法
  6
Continuous
 62
     7
370
     9
100
AcDbLine
 10
-84.15094662515239
 20
3.920800399489295
 30
0.0
 11
-87.02105061586185
 21
10.84990724070555
 31
0.0
  0
LINE
  5
28B
330
1F
100
AcDbEntity
  8
寸法
  6
Continuous
 62
     7
370
     9
100
AcDbLine
 10
-136.8273464747089
 20
-19.59565764791358
 30
0.0
 11
-139.6974875813918
 21
-26.52472737315639
 31
0.0
  0
LINE
  5
28C
330
1F
100
AcDbEntity
  8
寸法
  6
Continuous
 62
     7
370
     9
100
AcDbLine
 10
-136.8273464747089
 20
-19.59565764791358
 30
0.0
 11
-141.3930565940079
 21
-25.54583069082951
 31
0.0
  0
LINE
  5
28D
330
1F
100
AcDbEntity
  8
寸法
  6
Continuous
 62
     7
370
     9
100
AcDbLine
 10
35.67262878130876
 20
-7.739219758608264
 30
0.0
 11
89.94360507987298
 21
86.26084292614678
 31
0.0
  0
LINE
  5
28E
330
1F
100
AcDbEntity
  8
寸法
  6
Continuous
 62
     7
370
     9
100
AcDbLine
 10
27.74183605010103
 20
-3.085470550415707
 30
0.0
 11
100.110560976199
 21
122.2608503493415
 31
0.0
  0
LINE
  5
28F
330
1F
100
AcDbEntity
  8
寸法
  6
Continuous
 62
     7
370
     9
100
AcDbLine
 10
-96.83288087874192
 20
53.70263683186897
 30
0.0
 11
-150.271420125997
 21
146.260855298138
 31
0.0
  0
LINE
  5
290
330
1F
100
AcDbEntity
  8
寸法
  6
Continuous
 62
     7
370
     9
100
AcDbLine
 10
-84.15094662515239
 20
3.920800399489295
 30
0.0
 11
-142.6691037593374
 21
105.277249011187
 31
0.0
  0
LINE
  5
291
330
1F
100
AcDbEntity
  8
寸法
  6
Continuous
 62
     7
370
     9
100
AcDbLine
 10
-136.8273464747089
 20
-19.59565764791358
 30
0.0
 11
-169.1589595514087
 21
-75.59564445112305
 31
0.0
  0
LINE
  5
292
330
1F
100
AcDbEntity
  8
寸法
  6
Continuous
 62
     7
370
     9
100
AcDbLine
 10
89.94360507987298
 20
86.26084292614678
 30
0.0
 11
208.4563927699067
 21
86.26084292614678
 31
0.0
  0
LINE
  5
293
330
1F
100
AcDbEntity
  8
寸法
  6
Continuous
 62
     7
370
     9
100
AcDbLine
 10
-169.1589595514087
 20
-75.59564445112305
 30
0.0
 11
-256.6890771018204
 21
-75.59564445112305
 31
0.0
  0
TEXT
  5
294
330
1F
100
AcDbEntity
  8
寸法
  6
Continuous
 62
     7
370
     9
100
AcDbText
 10
-255.1614887987957
 20
-72.27721174815636
 30
0.0
 40
6.858000000000001
  1
本体：ＦＣ１５０
 41
1.145833333333333
  7
ＭＳ ゴシック
100
AcDbText
  0
TEXT
  5
295
330
1F
100
AcDbEntity
  8
寸法
  6
Continuous
 62
     7
370
     9
100
AcDbText
 10
-236.3215097816927
 20
-85.5161454144887
 30
0.0
 40
6.858000000000001
  1
樹脂系塗装
 41
1.133333333333333
  7
ＭＳ ゴシック
100
AcDbText
  0
TEXT
  5
296
330
1F
100
AcDbEntity
  8
寸法
  6
Continuous
 62
     7
370
     9
100
AcDbText
 10
117.7689406082724
 20
76.25393597671695
 30
0.0
 40
6.858000000000001
  1
樹脂系塗装
 41
1.133333333333333
  7
ＭＳ ゴシック
100
AcDbText
  0
TEXT
  5
297
330
1F
100
AcDbEntity
  8
寸法
  6
Continuous
 62
     7
370
     9
100
AcDbText
 10
92.73072022846883
 20
90.37262956043733
 30
0.0
 40
6.858000000000001
  1
防水層押え：ＦＣ１５０
 41
1.151515151515151
  7
ＭＳ ゴシック
100
AcDbText
  0
TEXT
  5
298
330
1F
100
AcDbEntity
  8
寸法
  6
Continuous
 62
     7
370
     9
100
AcDbText
 10
106.3905193403248
 20
147.1648568157689
 30
0.0
 40
6.858000000000001
  1
樹脂系塗装
 41
1.133333333333333
  7
ＭＳ ゴシック
100
AcDbText
  0
TEXT
  5
299
330
1F
100
AcDbEntity
  8
寸法
  6
Continuous
 62
     7
370
     9
100
AcDbText
 10
75.13516804176066
 20
162.7925745298208
 30
0.0
 40
6.858000000000001
  1
ストレーナー：ＦＣ１５０
 41
1.152777777777777
  7
ＭＳ ゴシック
100
AcDbText
  0
LINE
  5
29A
330
1F
100
AcDbEntity
  8
寸法
  6
Continuous
 62
     7
370
     9
100
AcDbLine
 10
13.6926235685765
 20
56.26085529813795
 30
0.0
 11
72.58242114332005
 21
158.2608577725362
 31
0.0
  0
LINE
  5
29B
330
1F
100
AcDbEntity
  8
寸法
  6
Continuous
 62
     7
370
     9
100
AcDbLine
 10
72.58242114332005
 20
158.2608577725362
 30
0.0
 11
200.1084907296829
 21
158.2608577725362
 31
0.0
  0
TEXT
  5
29C
330
1F
100
AcDbEntity
  8
F-4ﾚｲﾔ
  6
Continuous
 62
     6
370
     9
100
AcDbText
 10
-33.31847357543404
 20
-332.0746246803569
 30
0.0
 40
9.144
  1
鋳鉄製ルーフドレン　たて引き用　後付型　差し込み式
 41
0.7980000000000002
  7
ＭＳ ゴシック
100
AcDbText
  0
TEXT
  5
29D
330
1F
100
AcDbEntity
  8
F-4ﾚｲﾔ
  6
Continuous
 62
     6
370
     9
100
AcDbText
 10
-2.871604200538755
 20
-345.5746228245582
 30
0.0
 40
9.144
  1
アスファルト・シート防水用　　ＥＳＢ－３－７５
 41
0.7978260869565218
  7
ＭＳ ゴシック
100
AcDbText
  0
TEXT
  5
29E
330
1F
100
AcDbEntity
  8
寸法
  6
Continuous
 62
     7
370
     9
100
AcDbText
 10
-265.7537565067532
 20
150.9718793228952
 30
0.0
 40
6.858000000000001
  1
丸小ねじ：Ｃ２７００Ｗ
 41
1.151515151515151
  7
ＭＳ ゴシック
100
AcDbText
  0
TEXT
  5
29F
330
1F
100
AcDbEntity
  8
寸法
  6
Continuous
 62
     7
370
     9
100
AcDbText
 10
101.9532057449912
 20
126.5289323475995
 30
0.0
 40
6.858000000000001
  1
丸小ねじ：Ｃ２７００Ｗ
 41
1.151515151515151
  7
ＭＳ ゴシック
100
AcDbText
  0
TEXT
  5
2A0
330
1F
100
AcDbEntity
  8
寸法
  6
Continuous
 62
     7
370
     9
100
AcDbText
 10
-246.6269586649188
 20
109.7001417344766
 30
0.0
 40
6.858000000000001
  1
ボルト：Ｃ３６０２Ｗ
 41
1.15
  7
ＭＳ ゴシック
100
AcDbText
  0
LINE
  5
2A1
330
1F
100
AcDbEntity
  8
寸法
  6
Continuous
 62
     7
370
     9
100
AcDbLine
 10
-150.271420125997
 20
146.260855298138
 30
0.0
 11
-267.9142377253252
 21
146.260855298138
 31
0.0
  0
LINE
  5
2A2
330
1F
100
AcDbEntity
  8
寸法
  6
Continuous
 62
     7
370
     9
100
AcDbLine
 10
-142.6691037593374
 20
105.277249011187
 30
0.0
 11
-246.7515451412527
 21
105.277249011187
 31
0.0
  0
LINE
  5
2A3
330
1F
100
AcDbEntity
  8
寸法
  6
Continuous
 62
     7
370
     9
100
AcDbLine
 10
100.110560976199
 20
122.2608503493415
 30
0.0
 11
216.7173738630345
 21
122.2608503493415
 31
0.0
  0
TEXT
  5
2A4
330
1F
100
AcDbEntity
  8
寸法
  6
Continuous
 62
     7
370
     9
100
AcDbText
 10
-220.210324450295
 20
94.82791965888539
 30
0.0
 40
6.858000000000001
  1
Ｍ８×４０
 41
1.133333333333333
  7
ＭＳ ゴシック
100
AcDbText
  0
TEXT
  5
2A5
330
1F
100
AcDbEntity
  8
寸法
  6
Continuous
 62
     7
370
     9
100
AcDbText
 10
-234.5928265742475
 20
135.5048366576647
 30
0.0
 40
6.858000000000001
  1
Ｍ６×１２
 50
0.00004169783039
 41
1.133333333333333
  7
ＭＳ ゴシック
100
AcDbText
  0
TEXT
  5
2A6
330
1F
100
AcDbEntity
  8
寸法
  6
Continuous
 62
     7
370
     9
100
AcDbText
 10
132.9139674196167
 20
112.9041781378234
 30
0.0
 40
6.858000000000001
  1
Ｍ６×１２
 41
1.133333333333333
  7
ＭＳ ゴシック
100
AcDbText
  0
ENDSEC
  0
SECTION
  2
OBJECTS
  0
DICTIONARY
  5
C
330
0
100
AcDbDictionary
281
     1
  3
ACAD_DETAILVIEWSTYLE
350
2EC
  3
ACAD_GROUP
350
D
  3
ACAD_LAYOUT
350
1A
  3
ACAD_MATERIAL
350
43
  3
ACAD_MLEADERSTYLE
350
6B
  3
ACAD_MLINESTYLE
350
17
  3
ACAD_PLOTSETTINGS
350
19
  3
ACAD_PLOTSTYLENAME
350
E
  3
ACAD_SCALELIST
350
47
  3
ACAD_SECTIONVIEWSTYLE
350
2ED
  3
ACAD_TABLESTYLE
350
69
  3
ACAD_VISUALSTYLE
350
2A
  3
ACDB_RECOMPOSE_DATA
350
2E9
  3
AcDbVariableDictionary
350
2A9
  0
DICTIONARY
  5
2A7
330
8
100
AcDbDictionary
280
     1
281
     1
  3
ACAD_XREC_ROUNDTRIP
360
2A8
  0
DICTIONARY
  5
2EC
102
{ACAD_REACTORS
330
C
102
}
330
C
100
AcDbDictionary
281
     1
  0
DICTIONARY
  5
D
102
{ACAD_REACTORS
330
C
102
}
330
C
100
AcDbDictionary
281
     1
  0
DICTIONARY
  5
1A
102
{ACAD_REACTORS
330
C
102
}
330
C
100
AcDbDictionary
281
     1
  3
Layout1
350
1E
  3
Layout2
350
26
  3
Model
350
22
  0
DICTIONARY
  5
43
102
{ACAD_REACTORS
330
C
102
}
330
C
100
AcDbDictionary
281
     1
  3
ByBlock
350
45
  3
ByLayer
350
44
  3
Global
350
46
  0
DICTIONARY
  5
6B
102
{ACAD_REACTORS
330
C
102
}
330
C
100
AcDbDictionary
281
     1
  3
Standard
350
6C
  0
DICTIONARY
  5
17
102
{ACAD_REACTORS
330
C
102
}
330
C
100
AcDbDictionary
281
     1
  3
Standard
350
18
  0
DICTIONARY
  5
19
102
{ACAD_REACTORS
330
C
102
}
330
C
100
AcDbDictionary
281
     1
  0
ACDBDICTIONARYWDFLT
  5
E
102
{ACAD_REACTORS
330
C
102
}
330
C
100
AcDbDictionary
281
     1
  3
Normal
350
F
100
AcDbDictionaryWithDefault
340
F
  0
DICTIONARY
  5
47
102
{ACAD_REACTORS
330
C
102
}
330
C
100
AcDbDictionary
281
     1
  3
A0
350
48
  3
A1
350
49
  3
A2
350
4A
  3
A3
350
4B
  3
A4
350
4C
  3
A5
350
4D
  3
A6
350
4E
  3
A7
350
4F
  3
A8
350
50
  3
A9
350
51
  3
B0
350
52
  3
B1
350
53
  3
B2
350
54
  3
B3
350
55
  3
B4
350
56
  3
B5
350
57
  3
B6
350
58
  3
B7
350
59
  3
B8
350
5A
  3
B9
350
5B
  3
C0
350
5C
  3
C1
350
5D
  3
C2
350
5E
  3
C3
350
5F
  3
C4
350
60
  3
C5
350
61
  3
C6
350
62
  3
C7
350
63
  3
C8
350
64
  3
C9
350
65
  3
D0
350
66
  3
D1
350
67
  3
D2
350
68
  0
DICTIONARY
  5
2ED
102
{ACAD_REACTORS
330
C
102
}
330
C
100
AcDbDictionary
281
     1
  0
DICTIONARY
  5
69
102
{ACAD_REACTORS
330
C
102
}
330
C
100
AcDbDictionary
281
     1
  3
Standard
350
6A
  0
DICTIONARY
  5
2A
102
{ACAD_REACTORS
330
C
102
}
330
C
100
AcDbDictionary
281
     1
  3
2dWireframe
350
2F
  3
Basic
350
32
  3
Brighten
350
36
  3
ColorChange
350
3A
  3
Conceptual
350
34
  3
Dim
350
35
  3
EdgeColorOff
350
3D
  3
Facepattern
350
39
  3
Flat
350
2B
  3
FlatWithEdges
350
2C
  3
Gouraud
350
2D
  3
GouraudWithEdges
350
2E
  3
Hidden
350
31
  3
JitterOff
350
3B
  3
Linepattern
350
38
  3
OverhangOff
350
3C
  3
Realistic
350
33
  3
Shaded
350
42
  3
Shaded with edges
350
41
  3
Shades of Gray
350
3E
  3
Sketchy
350
3F
  3
Thicken
350
37
  3
Wireframe
350
30
  3
X-Ray
350
40
  0
XRECORD
  5
2E9
102
{ACAD_REACTORS
330
C
102
}
330
C
100
AcDbXrecord
280
     1
 90
        1
330
6A
  0
DICTIONARY
  5
2A9
102
{ACAD_REACTORS
330
C
102
}
330
C
100
AcDbDictionary
281
     1
  3
CANNOSCALE
350
2AA
  3
CENTEREXE
350
2EE
  3
CENTERLTYPEFILE
350
2EF
  3
CMLEADERSTYLE
350
2EB
  3
CTABLESTYLE
350
2EA
  3
MSLTSCALE
350
2AB
  3
XCLIPFRAME
350
2AC
  0
XRECORD
  5
2A8
102
{ACAD_REACTORS
330
2A7
102
}
330
2A7
100
AcDbXrecord
280
     1
102
VTR_0.000_0.000_1.000_1.000_VISUALSTYLE
340
2F
102
VTR_0.000_0.000_1.000_1.000_GRIDDISPLAY
 70
     3
102
VTR_0.000_0.000_1.000_1.000_GRIDMAJOR
 70
     5
102
VTR_0.000_0.000_1.000_1.000_DEFAULTLIGHTING
280
     1
102
VTR_0.000_0.000_1.000_1.000_DEFAULTLIGHTINGTYPE
 70
     1
102
VTR_0.000_0.000_1.000_1.000_BRIGHTNESS
141
0.0
102
VTR_0.000_0.000_1.000_1.000_CONTRAST
142
0.0
  0
LAYOUT
  5
1E
102
{ACAD_REACTORS
330
1A
102
}
330
1A
100
AcDbPlotSettings
  1

  2
none_device
  4

  6

 40
0.0
 41
0.0
 42
0.0
 43
0.0
 44
0.0
 45
0.0
 46
0.0
 47
0.0
 48
0.0
 49
0.0
140
0.0
141
0.0
142
1.0
143
1.0
 70
   688
 72
     1
 73
     0
 74
     5
  7

 75
    16
 76
     0
 77
     5
 78
   300
147
1.0
148
0.0
149
0.0
100
AcDbLayout
  1
Layout1
 70
     1
 71
     1
 10
0.0
 20
0.0
 11
420.0
 21
297.0
 12
0.0
 22
0.0
 32
0.0
 14
1.000000000000000E+20
 24
1.000000000000000E+20
 34
1.000000000000000E+20
 15
-1.000000000000000E+20
 25
-1.000000000000000E+20
 35
-1.000000000000000E+20
146
0.0
 13
0.0
 23
0.0
 33
0.0
 16
1.0
 26
0.0
 36
0.0
 17
0.0
 27
1.0
 37
0.0
 76
     0
330
1B
  0
LAYOUT
  5
26
102
{ACAD_REACTORS
330
1A
102
}
330
1A
100
AcDbPlotSettings
  1

  2
none_device
  4

  6

 40
0.0
 41
0.0
 42
0.0
 43
0.0
 44
0.0
 45
0.0
 46
0.0
 47
0.0
 48
0.0
 49
0.0
140
0.0
141
0.0
142
1.0
143
1.0
 70
   688
 72
     1
 73
     0
 74
     5
  7

 75
    16
 76
     0
 77
     5
 78
   300
147
1.0
148
0.0
149
0.0
100
AcDbLayout
  1
Layout2
 70
     1
 71
     2
 10
0.0
 20
0.0
 11
0.0
 21
0.0
 12
0.0
 22
0.0
 32
0.0
 14
0.0
 24
0.0
 34
0.0
 15
0.0
 25
0.0
 35
0.0
146
0.0
 13
0.0
 23
0.0
 33
0.0
 16
1.0
 26
0.0
 36
0.0
 17
0.0
 27
1.0
 37
0.0
 76
     0
330
23
  0
LAYOUT
  5
22
102
{ACAD_REACTORS
330
1A
102
}
330
1A
100
AcDbPlotSettings
  1

  2
none_device
  4
Letter_(8.50_x_11.00_Inches)
  6

 40
6.35
 41
6.35
 42
6.35000508
 43
6.35000508
 44
215.9
 45
279.4
 46
0.0
 47
0.0
 48
0.0
 49
0.0
140
0.0
141
0.0
142
1.0
143
1.0
 70
  1712
 72
     1
 73
     0
 74
     0
  7

 75
     0
 76
     0
 77
     5
 78
   300
147
1.0
148
0.0
149
0.0
100
AcDbLayout
  1
Model
 70
     1
 71
     0
 10
-630.0
 20
-445.5
 11
630.0
 21
445.5
 12
0.0
 22
0.0
 32
0.0
 14
-630.0
 24
-445.5
 34
0.0
 15
630.0
 25
445.5
 35
0.0
146
0.0
 13
0.0
 23
0.0
 33
0.0
 16
1.0
 26
0.0
 36
0.0
 17
0.0
 27
1.0
 37
0.0
 76
     0
330
1F
331
29
  0
MATERIAL
  5
45
102
{ACAD_REACTORS
330
43
102
}
102
{ACAD_XDICTIONARY
360
2DF
102
}
330
43
100
AcDbMaterial
  1
ByBlock
  0
MATERIAL
  5
44
102
{ACAD_REACTORS
330
43
102
}
102
{ACAD_XDICTIONARY
360
2DD
102
}
330
43
100
AcDbMaterial
  1
ByLayer
  0
MATERIAL
  5
46
102
{ACAD_REACTORS
330
43
102
}
102
{ACAD_XDICTIONARY
360
2E1
102
}
330
43
100
AcDbMaterial
  1
Global
  0
MLEADERSTYLE
  5
6C
102
{ACAD_REACTORS
330
6B
102
}
102
{ACAD_XDICTIONARY
360
2E7
102
}
330
6B
100
AcDbMLeaderStyle
170
     2
171
     1
172
     0
 90
        2
 40
0.0
 41
0.0
173
     1
 91
-1056964608
340
14
 92
       -2
290
     1
 42
2.0
291
     1
 43
8.0
  3
Standard
341
0
 44
4.0
300

342
11
174
     1
178
     6
175
     1
176
     0
 93
-1056964608
 45
4.0
292
     0
297
     0
 46
4.0
343
0
 94
-1056964608
 47
1.0
 49
1.0
140
1.0
293
     1
141
0.0
294
     1
177
     0
142
1.0
295
     0
296
     0
143
3.75
1001
ACAD_MLEADERVER
1070
     2
  0
MLINESTYLE
  5
18
102
{ACAD_REACTORS
330
17
102
}
330
17
100
AcDbMlineStyle
  2
Standard
 70
     0
  3

 62
   256
 51
90.0
 52
90.0
 71
     2
 49
0.5
 62
   256
  6
BYLAYER
 49
-0.5
 62
   256
  6
BYLAYER
  0
ACDBPLACEHOLDER
  5
F
102
{ACAD_REACTORS
330
E
102
}
330
E
  0
SCALE
  5
48
102
{ACAD_REACTORS
330
47
102
}
330
47
100
AcDbScale
 70
     0
300
1:1
140
1.0
141
1.0
290
     1
  0
SCALE
  5
49
102
{ACAD_REACTORS
330
47
102
}
330
47
100
AcDbScale
 70
     0
300
1:2
140
1.0
141
2.0
290
     0
  0
SCALE
  5
4A
102
{ACAD_REACTORS
330
47
102
}
330
47
100
AcDbScale
 70
     0
300
1:4
140
1.0
141
4.0
290
     0
  0
SCALE
  5
4B
102
{ACAD_REACTORS
330
47
102
}
330
47
100
AcDbScale
 70
     0
300
1:5
140
1.0
141
5.0
290
     0
  0
SCALE
  5
4C
102
{ACAD_REACTORS
330
47
102
}
330
47
100
AcDbScale
 70
     0
300
1:8
140
1.0
141
8.0
290
     0
  0
SCALE
  5
4D
102
{ACAD_REACTORS
330
47
102
}
330
47
100
AcDbScale
 70
     0
300
1:10
140
1.0
141
10.0
290
     0
  0
SCALE
  5
4E
102
{ACAD_REACTORS
330
47
102
}
330
47
100
AcDbScale
 70
     0
300
1:16
140
1.0
141
16.0
290
     0
  0
SCALE
  5
4F
102
{ACAD_REACTORS
330
47
102
}
330
47
100
AcDbScale
 70
     0
300
1:20
140
1.0
141
20.0
290
     0
  0
SCALE
  5
50
102
{ACAD_REACTORS
330
47
102
}
330
47
100
AcDbScale
 70
     0
300
1:30
140
1.0
141
30.0
290
     0
  0
SCALE
  5
51
102
{ACAD_REACTORS
330
47
102
}
330
47
100
AcDbScale
 70
     0
300
1:40
140
1.0
141
40.0
290
     0
  0
SCALE
  5
52
102
{ACAD_REACTORS
330
47
102
}
330
47
100
AcDbScale
 70
     0
300
1:50
140
1.0
141
50.0
290
     0
  0
SCALE
  5
53
102
{ACAD_REACTORS
330
47
102
}
330
47
100
AcDbScale
 70
     0
300
1:100
140
1.0
141
100.0
290
     0
  0
SCALE
  5
54
102
{ACAD_REACTORS
330
47
102
}
330
47
100
AcDbScale
 70
     0
300
2:1
140
2.0
141
1.0
290
     0
  0
SCALE
  5
55
102
{ACAD_REACTORS
330
47
102
}
330
47
100
AcDbScale
 70
     0
300
4:1
140
4.0
141
1.0
290
     0
  0
SCALE
  5
56
102
{ACAD_REACTORS
330
47
102
}
330
47
100
AcDbScale
 70
     0
300
8:1
140
8.0
141
1.0
290
     0
  0
SCALE
  5
57
102
{ACAD_REACTORS
330
47
102
}
330
47
100
AcDbScale
 70
     0
300
10:1
140
10.0
141
1.0
290
     0
  0
SCALE
  5
58
102
{ACAD_REACTORS
330
47
102
}
330
47
100
AcDbScale
 70
     0
300
100:1
140
100.0
141
1.0
290
     0
  0
SCALE
  5
59
102
{ACAD_REACTORS
330
47
102
}
330
47
100
AcDbScale
 70
     0
300
1/128" = 1'-0"
140
0.0078125
141
12.0
290
     0
  0
SCALE
  5
5A
102
{ACAD_REACTORS
330
47
102
}
330
47
100
AcDbScale
 70
     0
300
1/64" = 1'-0"
140
0.015625
141
12.0
290
     0
  0
SCALE
  5
5B
102
{ACAD_REACTORS
330
47
102
}
330
47
100
AcDbScale
 70
     0
300
1/32" = 1'-0"
140
0.03125
141
12.0
290
     0
  0
SCALE
  5
5C
102
{ACAD_REACTORS
330
47
102
}
330
47
100
AcDbScale
 70
     0
300
1/16" = 1'-0"
140
0.0625
141
12.0
290
     0
  0
SCALE
  5
5D
102
{ACAD_REACTORS
330
47
102
}
330
47
100
AcDbScale
 70
     0
300
3/32" = 1'-0"
140
0.09375
141
12.0
290
     0
  0
SCALE
  5
5E
102
{ACAD_REACTORS
330
47
102
}
330
47
100
AcDbScale
 70
     0
300
1/8" = 1'-0"
140
0.125
141
12.0
290
     0
  0
SCALE
  5
5F
102
{ACAD_REACTORS
330
47
102
}
330
47
100
AcDbScale
 70
     0
300
3/16" = 1'-0"
140
0.1875
141
12.0
290
     0
  0
SCALE
  5
60
102
{ACAD_REACTORS
330
47
102
}
330
47
100
AcDbScale
 70
     0
300
1/4" = 1'-0"
140
0.25
141
12.0
290
     0
  0
SCALE
  5
61
102
{ACAD_REACTORS
330
47
102
}
330
47
100
AcDbScale
 70
     0
300
3/8" = 1'-0"
140
0.375
141
12.0
290
     0
  0
SCALE
  5
62
102
{ACAD_REACTORS
330
47
102
}
330
47
100
AcDbScale
 70
     0
300
1/2" = 1'-0"
140
0.5
141
12.0
290
     0
  0
SCALE
  5
63
102
{ACAD_REACTORS
330
47
102
}
330
47
100
AcDbScale
 70
     0
300
3/4" = 1'-0"
140
0.75
141
12.0
290
     0
  0
SCALE
  5
64
102
{ACAD_REACTORS
330
47
102
}
330
47
100
AcDbScale
 70
     0
300
1" = 1'-0"
140
1.0
141
12.0
290
     0
  0
SCALE
  5
65
102
{ACAD_REACTORS
330
47
102
}
330
47
100
AcDbScale
 70
     0
300
1-1/2" = 1'-0"
140
1.5
141
12.0
290
     0
  0
SCALE
  5
66
102
{ACAD_REACTORS
330
47
102
}
330
47
100
AcDbScale
 70
     0
300
3" = 1'-0"
140
3.0
141
12.0
290
     0
  0
SCALE
  5
67
102
{ACAD_REACTORS
330
47
102
}
330
47
100
AcDbScale
 70
     0
300
6" = 1'-0"
140
6.0
141
12.0
290
     0
  0
SCALE
  5
68
102
{ACAD_REACTORS
330
47
102
}
330
47
100
AcDbScale
 70
     0
300
1'-0" = 1'-0"
140
12.0
141
12.0
290
     0
  0
TABLESTYLE
  5
6A
102
{ACAD_REACTORS
330
69
102
}
102
{ACAD_XDICTIONARY
360
2E3
102
}
330
69
100
AcDbTableStyle
  3
Standard
 70
     0
 71
     0
 40
0.06
 41
0.06
280
     0
281
     0
  7
Standard
140
4.5
170
     2
 62
     0
 63
   257
283
     0
274
    -2
284
     1
 64
     0
275
    -2
285
     1
 65
     0
276
    -2
286
     1
 66
     0
277
    -2
287
     1
 67
     0
278
    -2
288
     1
 68
     0
279
    -2
289
     1
 69
     0
  7
Standard
140
6.0
170
     5
 62
     0
 63
   257
283
     0
274
    -2
284
     1
 64
     0
275
    -2
285
     1
 65
     0
276
    -2
286
     1
 66
     0
277
    -2
287
     1
 67
     0
278
    -2
288
     1
 68
     0
279
    -2
289
     1
 69
     0
  7
Standard
140
4.5
170
     5
 62
     0
 63
   257
283
     0
274
    -2
284
     1
 64
     0
275
    -2
285
     1
 65
     0
276
    -2
286
     1
 66
     0
277
    -2
287
     1
 67
     0
278
    -2
288
     1
 68
     0
279
    -2
289
     1
 69
     0
  0
VISUALSTYLE
  5
2F
102
{ACAD_REACTORS
330
2A
102
}
102
{ACAD_XDICTIONARY
360
2B5
102
}
330
2A
100
AcDbVisualStyle
  2
2dWireframe
 70
     4
 71
     0
 72
     2
 73
     0
 90
        0
 40
0.6
 41
30.0
 62
     5
 63
     7
421
 16777215
 74
     1
 91
        4
 64
     7
 65
   257
 75
     1
175
     1
 42
1.0
 92
        0
 66
   257
 43
1.0
 76
     1
 77
     6
 78
     2
 67
     7
 79
     5
170
     0
171
     0
290
     0
174
     0
 93
        1
 44
0.0
173
     0
291
     0
 45
0.0
1001
ACAD
1000
AcDbSavedByObjectVersion
1070
     0
  0
VISUALSTYLE
  5
32
102
{ACAD_REACTORS
330
2A
102
}
102
{ACAD_XDICTIONARY
360
2BB
102
}
330
2A
100
AcDbVisualStyle
  2
Basic
 70
     7
 71
     1
 72
     0
 73
     1
 90
        0
 40
0.6
 41
30.0
 62
     5
 63
     7
421
 16777215
 74
     0
 91
        4
 64
     7
 65
   257
 75
     1
175
     1
 42
1.0
 92
        8
 66
     7
 43
1.0
 76
     1
 77
     6
 78
     2
 67
     7
 79
     5
170
     0
171
     0
290
     0
174
     0
 93
        1
 44
0.0
173
     0
291
     1
 45
0.0
1001
ACAD
1000
AcDbSavedByObjectVersion
1070
     0
  0
VISUALSTYLE
  5
36
102
{ACAD_REACTORS
330
2A
102
}
102
{ACAD_XDICTIONARY
360
2C3
102
}
330
2A
100
AcDbVisualStyle
  2
Brighten
 70
    12
 71
     2
 72
     2
 73
     0
 90
        0
 40
0.6
 41
30.0
 62
     5
 63
     7
421
 16777215
 74
     1
 91
        4
 64
     7
 65
   257
 75
     1
175
     1
 42
1.0
 92
        8
 66
     7
 43
1.0
 76
     1
 77
     6
 78
     2
 67
     7
 79
     5
170
     0
171
     0
290
     0
174
     0
 93
        1
 44
50.0
173
     0
291
     1
 45
0.0
1001
ACAD
1000
AcDbSavedByObjectVersion
1070
     0
  0
VISUALSTYLE
  5
3A
102
{ACAD_REACTORS
330
2A
102
}
102
{ACAD_XDICTIONARY
360
2CB
102
}
330
2A
100
AcDbVisualStyle
  2
ColorChange
 70
    16
 71
     2
 72
     2
 73
     3
 90
        0
 40
0.6
 41
30.0
 62
     5
 63
     8
421
  8421504
 74
     1
 91
        4
 64
     7
 65
   257
 75
     1
175
     1
 42
1.0
 92
        8
 66
     8
424
  8421504
 43
1.0
 76
     1
 77
     6
 78
     2
 67
     7
 79
     5
170
     0
171
     0
290
     0
174
     0
 93
        1
 44
0.0
173
     0
291
     1
 45
0.0
1001
ACAD
1000
AcDbSavedByObjectVersion
1070
     0
  0
VISUALSTYLE
  5
34
102
{ACAD_REACTORS
330
2A
102
}
102
{ACAD_XDICTIONARY
360
2BF
102
}
330
2A
100
AcDbVisualStyle
  2
Conceptual
 70
     9
 71
     3
 72
     2
 73
     0
 90
        0
 40
0.6
 41
30.0
 62
     5
 63
     7
421
 16777215
 74
     2
 91
        2
 64
     7
 65
   257
 75
     1
175
     1
 42
179.0
 92
        8
 66
     7
 43
1.0
 76
     1
 77
     6
 78
     2
 67
     7
 79
     3
170
     0
171
     0
290
     0
174
     0
 93
        1
 44
0.0
173
     0
291
     0
 45
0.0
1001
ACAD
1000
AcDbSavedByObjectVersion
1070
     0
  0
VISUALSTYLE
  5
35
102
{ACAD_REACTORS
330
2A
102
}
102
{ACAD_XDICTIONARY
360
2C1
102
}
330
2A
100
AcDbVisualStyle
  2
Dim
 70
    11
 71
     2
 72
     2
 73
     0
 90
        0
 40
0.6
 41
30.0
 62
     5
 63
     7
421
 16777215
 74
     1
 91
        4
 64
     7
 65
   257
 75
     1
175
     1
 42
1.0
 92
        8
 66
     7
 43
1.0
 76
     1
 77
     6
 78
     2
 67
     7
 79
     5
170
     0
171
     0
290
     0
174
     0
 93
        1
 44
-50.0
173
     0
291
     1
 45
0.0
1001
ACAD
1000
AcDbSavedByObjectVersion
1070
     0
  0
VISUALSTYLE
  5
3D
102
{ACAD_REACTORS
330
2A
102
}
102
{ACAD_XDICTIONARY
360
2D1
102
}
330
2A
100
AcDbVisualStyle
  2
EdgeColorOff
 70
    22
 71
     2
 72
     2
 73
     0
 90
        0
 40
0.6
 41
30.0
 62
     5
 63
     7
421
 16777215
 74
     1
 91
        4
 64
     7
 65
   257
 75
     1
175
     1
 42
1.0
 92
        8
 66
     7
 43
1.0
 76
     1
 77
     6
 78
     2
 67
     7
 79
     5
170
     0
171
     0
290
     0
174
     0
 93
        1
 44
0.0
173
     0
291
     1
 45
0.0
1001
ACAD
1000
AcDbSavedByObjectVersion
1070
     0
  0
VISUALSTYLE
  5
39
102
{ACAD_REACTORS
330
2A
102
}
102
{ACAD_XDICTIONARY
360
2C9
102
}
330
2A
100
AcDbVisualStyle
  2
Facepattern
 70
    15
 71
     2
 72
     2
 73
     0
 90
        0
 40
0.6
 41
30.0
 62
     5
 63
     7
421
 16777215
 74
     1
 91
        4
 64
     7
 65
   257
 75
     1
175
     1
 42
1.0
 92
        8
 66
     7
 43
1.0
 76
     1
 77
     6
 78
     2
 67
     7
 79
     5
170
     0
171
     0
290
     0
174
     0
 93
        1
 44
0.0
173
     0
291
     1
 45
0.0
1001
ACAD
1000
AcDbSavedByObjectVersion
1070
     0
  0
VISUALSTYLE
  5
2B
102
{ACAD_REACTORS
330
2A
102
}
102
{ACAD_XDICTIONARY
360
2AD
102
}
330
2A
100
AcDbVisualStyle
  2
Flat
 70
     0
 71
     2
 72
     1
 73
     1
 90
        2
 40
0.6
 41
30.0
 62
     5
 63
     7
421
 16777215
 74
     0
 91
        0
 64
     7
 65
   257
 75
     1
175
     1
 42
1.0
 92
        8
 66
     7
 43
1.0
 76
     1
 77
     6
 78
     2
 67
     7
 79
     5
170
     0
171
     0
290
     0
174
     0
 93
       13
 44
0.0
173
     0
291
     1
 45
0.0
1001
ACAD
1000
AcDbSavedByObjectVersion
1070
     0
  0
VISUALSTYLE
  5
2C
102
{ACAD_REACTORS
330
2A
102
}
102
{ACAD_XDICTIONARY
360
2AF
102
}
330
2A
100
AcDbVisualStyle
  2
FlatWithEdges
 70
     1
 71
     2
 72
     1
 73
     1
 90
        2
 40
0.6
 41
30.0
 62
     5
 63
     7
421
 16777215
 74
     1
 91
        0
 64
     7
 65
   257
 75
     1
175
     1
 42
1.0
 92
        0
 66
   257
 43
1.0
 76
     1
 77
     6
 78
     2
 67
     7
 79
     5
170
     0
171
     0
290
     0
174
     0
 93
       13
 44
0.0
173
     0
291
     1
 45
0.0
1001
ACAD
1000
AcDbSavedByObjectVersion
1070
     0
  0
VISUALSTYLE
  5
2D
102
{ACAD_REACTORS
330
2A
102
}
102
{ACAD_XDICTIONARY
360
2B1
102
}
330
2A
100
AcDbVisualStyle
  2
Gouraud
 70
     2
 71
     2
 72
     2
 73
     1
 90
        2
 40
0.6
 41
30.0
 62
     5
 63
     7
421
 16777215
 74
     0
 91
        0
 64
     7
 65
   257
 75
     1
175
     1
 42
1.0
 92
        0
 66
     7
 43
1.0
 76
     1
 77
     6
 78
     2
 67
     7
 79
     5
170
     0
171
     0
290
     0
174
     0
 93
       13
 44
0.0
173
     0
291
     1
 45
0.0
1001
ACAD
1000
AcDbSavedByObjectVersion
1070
     0
  0
VISUALSTYLE
  5
2E
102
{ACAD_REACTORS
330
2A
102
}
102
{ACAD_XDICTIONARY
360
2B3
102
}
330
2A
100
AcDbVisualStyle
  2
GouraudWithEdges
 70
     3
 71
     2
 72
     2
 73
     1
 90
        2
 40
0.6
 41
30.0
 62
     5
 63
     7
421
 16777215
 74
     1
 91
        0
 64
     7
 65
   257
 75
     1
175
     1
 42
1.0
 92
        0
 66
   257
 43
1.0
 76
     1
 77
     6
 78
     2
 67
     7
 79
     5
170
     0
171
     0
290
     0
174
     0
 93
       13
 44
0.0
173
     0
291
     1
 45
0.0
1001
ACAD
1000
AcDbSavedByObjectVersion
1070
     0
  0
VISUALSTYLE
  5
31
102
{ACAD_REACTORS
330
2A
102
}
102
{ACAD_XDICTIONARY
360
2B9
102
}
330
2A
100
AcDbVisualStyle
  2
Hidden
 70
     6
 71
     1
 72
     2
 73
     2
 90
        0
 40
0.6
 41
30.0
 62
     5
 63
     7
421
 16777215
 74
     2
 91
        2
 64
     7
 65
   257
 75
     2
175
     1
 42
40.0
 92
        0
 66
   257
 43
1.0
 76
     1
 77
     6
 78
     2
 67
     7
 79
     3
170
     0
171
     0
290
     0
174
     0
 93
        1
 44
0.0
173
     0
291
     0
 45
0.0
1001
ACAD
1000
AcDbSavedByObjectVersion
1070
     0
  0
VISUALSTYLE
  5
3B
102
{ACAD_REACTORS
330
2A
102
}
102
{ACAD_XDICTIONARY
360
2CD
102
}
330
2A
100
AcDbVisualStyle
  2
JitterOff
 70
    20
 71
     2
 72
     2
 73
     0
 90
        0
 40
0.6
 41
30.0
 62
     5
 63
     7
421
 16777215
 74
     1
 91
        4
 64
     7
 65
   257
 75
     1
175
     1
 42
1.0
 92
       10
 66
     7
 43
1.0
 76
     1
 77
     6
 78
     2
 67
     7
 79
     5
170
     0
171
     0
290
     0
174
     0
 93
        1
 44
0.0
173
     0
291
     1
 45
0.0
1001
ACAD
1000
AcDbSavedByObjectVersion
1070
     0
  0
VISUALSTYLE
  5
38
102
{ACAD_REACTORS
330
2A
102
}
102
{ACAD_XDICTIONARY
360
2C7
102
}
330
2A
100
AcDbVisualStyle
  2
Linepattern
 70
    14
 71
     2
 72
     2
 73
     0
 90
        0
 40
0.6
 41
30.0
 62
     5
 63
     7
421
 16777215
 74
     1
 91
        4
 64
     7
 65
   257
 75
     7
175
     7
 42
1.0
 92
        8
 66
     7
 43
1.0
 76
     1
 77
     6
 78
     2
 67
     7
 79
     5
170
     0
171
     0
290
     0
174
     0
 93
        1
 44
0.0
173
     0
291
     1
 45
0.0
1001
ACAD
1000
AcDbSavedByObjectVersion
1070
     0
  0
VISUALSTYLE
  5
3C
102
{ACAD_REACTORS
330
2A
102
}
102
{ACAD_XDICTIONARY
360
2CF
102
}
330
2A
100
AcDbVisualStyle
  2
OverhangOff
 70
    21
 71
     2
 72
     2
 73
     0
 90
        0
 40
0.6
 41
30.0
 62
     5
 63
     7
421
 16777215
 74
     1
 91
        4
 64
     7
 65
   257
 75
     1
175
     1
 42
1.0
 92
        9
 66
     7
 43
1.0
 76
     1
 77
     6
 78
     2
 67
     7
 79
     5
170
     0
171
     0
290
     0
174
     0
 93
        1
 44
0.0
173
     0
291
     1
 45
0.0
1001
ACAD
1000
AcDbSavedByObjectVersion
1070
     0
  0
VISUALSTYLE
  5
33
102
{ACAD_REACTORS
330
2A
102
}
102
{ACAD_XDICTIONARY
360
2BD
102
}
330
2A
100
AcDbVisualStyle
  2
Realistic
 70
     8
 71
     2
 72
     3
 73
     0
 90
        2
 40
0.6
 41
30.0
 62
     5
 63
     7
421
 16777215
 74
     0
 91
        0
 64
     7
 65
   257
 75
     1
175
     1
 42
1.0
 92
        8
 66
   257
 43
1.0
 76
     1
 77
     6
 78
     2
 67
     7
 79
     3
170
     0
171
     0
290
     0
174
     0
 93
       13
 44
0.0
173
     0
291
     0
 45
0.0
1001
ACAD
1000
AcDbSavedByObjectVersion
1070
     0
  0
VISUALSTYLE
  5
42
102
{ACAD_REACTORS
330
2A
102
}
102
{ACAD_XDICTIONARY
360
2DB
102
}
330
2A
100
AcDbVisualStyle
  2
Shaded
 70
    27
 71
     2
 72
     2
 73
     1
 90
        2
 40
0.6
 41
30.0
 62
     5
 63
     7
421
 16777215
 74
     0
 91
        4
 64
     7
 65
   257
 75
     1
175
     1
 42
1.0
 92
        8
 66
   257
 43
1.0
 76
     1
 77
     6
 78
     2
 67
     8
425
  7895160
 79
     3
170
     0
171
     0
290
     0
174
     0
 93
        5
 44
0.0
173
     0
291
     0
 45
0.0
1001
ACAD
1000
AcDbSavedByObjectVersion
1070
     0
  0
VISUALSTYLE
  5
41
102
{ACAD_REACTORS
330
2A
102
}
102
{ACAD_XDICTIONARY
360
2D9
102
}
330
2A
100
AcDbVisualStyle
  2
Shaded with edges
 70
    26
 71
     2
 72
     2
 73
     1
 90
        2
 40
0.6
 41
30.0
 62
     5
 63
     7
421
 16777215
 74
     1
 91
       10
 64
     7
 65
   257
 75
     2
175
     1
 42
1.0
 92
        8
 66
   257
 43
1.0
 76
     1
 77
     6
 78
     2
 67
     7
 79
     3
170
     0
171
     0
290
     0
174
     0
 93
        5
 44
0.0
173
     0
291
     0
 45
0.0
1001
ACAD
1000
AcDbSavedByObjectVersion
1070
     0
  0
VISUALSTYLE
  5
3E
102
{ACAD_REACTORS
330
2A
102
}
102
{ACAD_XDICTIONARY
360
2D3
102
}
330
2A
100
AcDbVisualStyle
  2
Shades of Gray
 70
    23
 71
     2
 72
     2
 73
     3
 90
        0
 40
0.6
 41
30.0
 62
     5
 63
     7
421
 16777215
 74
     2
 91
        2
 64
     7
 65
     7
 75
     1
175
     1
 42
40.0
 92
        8
 66
     7
 43
1.0
 76
     1
 77
     6
 78
     2
 67
     7
 79
     3
170
     0
171
     0
290
     0
174
     0
 93
        1
 44
0.0
173
     0
291
     0
 45
0.0
1001
ACAD
1000
AcDbSavedByObjectVersion
1070
     0
  0
VISUALSTYLE
  5
3F
102
{ACAD_REACTORS
330
2A
102
}
102
{ACAD_XDICTIONARY
360
2D5
102
}
330
2A
100
AcDbVisualStyle
  2
Sketchy
 70
    24
 71
     1
 72
     2
 73
     2
 90
        0
 40
0.6
 41
30.0
 62
     5
 63
     7
421
 16777215
 74
     2
 91
        2
 64
     7
 65
     7
 75
     1
175
     1
 42
40.0
 92
       11
 66
     7
 43
1.0
 76
     1
 77
     6
 78
     2
 67
     7
 79
     6
170
     0
171
     0
290
     0
174
     0
 93
        1
 44
0.0
173
     0
291
     0
 45
0.0
1001
ACAD
1000
AcDbSavedByObjectVersion
1070
     0
  0
VISUALSTYLE
  5
37
102
{ACAD_REACTORS
330
2A
102
}
102
{ACAD_XDICTIONARY
360
2C5
102
}
330
2A
100
AcDbVisualStyle
  2
Thicken
 70
    13
 71
     2
 72
     2
 73
     0
 90
        0
 40
0.6
 41
30.0
 62
     5
 63
     7
421
 16777215
 74
     1
 91
        4
 64
     7
 65
   257
 75
     1
175
     1
 42
1.0
 92
       12
 66
     7
 43
1.0
 76
     1
 77
     6
 78
     2
 67
     7
 79
     5
170
     0
171
     0
290
     0
174
     0
 93
        1
 44
0.0
173
     0
291
     1
 45
0.0
1001
ACAD
1000
AcDbSavedByObjectVersion
1070
     0
  0
VISUALSTYLE
  5
30
102
{ACAD_REACTORS
330
2A
102
}
102
{ACAD_XDICTIONARY
360
2B7
102
}
330
2A
100
AcDbVisualStyle
  2
Wireframe
 70
     5
 71
     0
 72
     2
 73
     0
 90
        0
 40
0.6
 41
30.0
 62
     5
 63
     7
421
 16777215
 74
     1
 91
        4
 64
     7
 65
   257
 75
     1
175
     1
 42
1.0
 92
        0
 66
   257
 43
1.0
 76
     1
 77
     6
 78
     2
 67
     7
 79
     3
170
     0
171
     0
290
     0
174
     0
 93
        1
 44
0.0
173
     0
291
     0
 45
0.0
1001
ACAD
1000
AcDbSavedByObjectVersion
1070
     0
  0
VISUALSTYLE
  5
40
102
{ACAD_REACTORS
330
2A
102
}
102
{ACAD_XDICTIONARY
360
2D7
102
}
330
2A
100
AcDbVisualStyle
  2
X-Ray
 70
    25
 71
     2
 72
     2
 73
     1
 90
        1
 40
0.5
 41
30.0
 62
     5
 63
     7
421
 16777215
 74
     1
 91
        0
 64
     7
 65
   257
 75
     1
175
     1
 42
1.0
 92
        8
 66
     7
 43
1.0
 76
     1
 77
     6
 78
     2
 67
     7
 79
     3
170
     0
171
     0
290
     0
174
     0
 93
       13
 44
0.0
173
     0
291
     0
 45
0.0
1001
ACAD
1000
AcDbSavedByObjectVersion
1070
     0
  0
DICTIONARYVAR
  5
2AA
102
{ACAD_REACTORS
330
2A9
102
}
330
2A9
100
DictionaryVariables
280
     0
  1
1:1
  0
DICTIONARYVAR
  5
2EE
102
{ACAD_REACTORS
330
2A9
102
}
330
2A9
100
DictionaryVariables
280
     0
  1
3.500000
  0
DICTIONARYVAR
  5
2EF
102
{ACAD_REACTORS
330
2A9
102
}
330
2A9
100
DictionaryVariables
280
     0
  1
acadiso.lin
  0
DICTIONARYVAR
  5
2EB
102
{ACAD_REACTORS
330
2A9
102
}
330
2A9
100
DictionaryVariables
280
     0
  1
Standard
  0
DICTIONARYVAR
  5
2EA
102
{ACAD_REACTORS
330
2A9
102
}
330
2A9
100
DictionaryVariables
280
     0
  1
Standard
  0
DICTIONARYVAR
  5
2AB
102
{ACAD_REACTORS
330
2A9
102
}
330
2A9
100
DictionaryVariables
280
     0
  1
1
  0
DICTIONARYVAR
  5
2AC
102
{ACAD_REACTORS
330
2A9
102
}
330
2A9
100
DictionaryVariables
280
     0
  1
2
  0
DICTIONARY
  5
2DF
330
45
100
AcDbDictionary
280
     1
281
     1
  3
ACAD_XREC_ROUNDTRIP
360
2E0
  0
DICTIONARY
  5
2DD
330
44
100
AcDbDictionary
280
     1
281
     1
  3
ACAD_XREC_ROUNDTRIP
360
2DE
  0
DICTIONARY
  5
2E1
330
46
100
AcDbDictionary
280
     1
281
     1
  3
ACAD_XREC_ROUNDTRIP
360
2E2
  0
DICTIONARY
  5
2E7
330
6C
100
AcDbDictionary
280
     1
281
     1
  3
ACAD_XREC_ROUNDTRIP
360
2E8
  0
DICTIONARY
  5
2E3
330
6A
100
AcDbDictionary
280
     1
281
     1
  3
ACAD_ROUNDTRIP_2008_TABLESTYLE_CELLSTYLEMAP
360
2E5
  3
ACAD_XREC_ROUNDTRIP
360
2E4
  0
DICTIONARY
  5
2B5
330
2F
100
AcDbDictionary
280
     1
281
     1
  3
ACAD_XREC_ROUNDTRIP
360
2B6
  0
DICTIONARY
  5
2BB
330
32
100
AcDbDictionary
280
     1
281
     1
  3
ACAD_XREC_ROUNDTRIP
360
2BC
  0
DICTIONARY
  5
2C3
330
36
100
AcDbDictionary
280
     1
281
     1
  3
ACAD_XREC_ROUNDTRIP
360
2C4
  0
DICTIONARY
  5
2CB
330
3A
100
AcDbDictionary
280
     1
281
     1
  3
ACAD_XREC_ROUNDTRIP
360
2CC
  0
DICTIONARY
  5
2BF
330
34
100
AcDbDictionary
280
     1
281
     1
  3
ACAD_XREC_ROUNDTRIP
360
2C0
  0
DICTIONARY
  5
2C1
330
35
100
AcDbDictionary
280
     1
281
     1
  3
ACAD_XREC_ROUNDTRIP
360
2C2
  0
DICTIONARY
  5
2D1
330
3D
100
AcDbDictionary
280
     1
281
     1
  3
ACAD_XREC_ROUNDTRIP
360
2D2
  0
DICTIONARY
  5
2C9
330
39
100
AcDbDictionary
280
     1
281
     1
  3
ACAD_XREC_ROUNDTRIP
360
2CA
  0
DICTIONARY
  5
2AD
330
2B
100
AcDbDictionary
280
     1
281
     1
  3
ACAD_XREC_ROUNDTRIP
360
2AE
  0
DICTIONARY
  5
2AF
330
2C
100
AcDbDictionary
280
     1
281
     1
  3
ACAD_XREC_ROUNDTRIP
360
2B0
  0
DICTIONARY
  5
2B1
330
2D
100
AcDbDictionary
280
     1
281
     1
  3
ACAD_XREC_ROUNDTRIP
360
2B2
  0
DICTIONARY
  5
2B3
330
2E
100
AcDbDictionary
280
     1
281
     1
  3
ACAD_XREC_ROUNDTRIP
360
2B4
  0
DICTIONARY
  5
2B9
330
31
100
AcDbDictionary
280
     1
281
     1
  3
ACAD_XREC_ROUNDTRIP
360
2BA
  0
DICTIONARY
  5
2CD
330
3B
100
AcDbDictionary
280
     1
281
     1
  3
ACAD_XREC_ROUNDTRIP
360
2CE
  0
DICTIONARY
  5
2C7
330
38
100
AcDbDictionary
280
     1
281
     1
  3
ACAD_XREC_ROUNDTRIP
360
2C8
  0
DICTIONARY
  5
2CF
330
3C
100
AcDbDictionary
280
     1
281
     1
  3
ACAD_XREC_ROUNDTRIP
360
2D0
  0
DICTIONARY
  5
2BD
330
33
100
AcDbDictionary
280
     1
281
     1
  3
ACAD_XREC_ROUNDTRIP
360
2BE
  0
DICTIONARY
  5
2DB
330
42
100
AcDbDictionary
280
     1
281
     1
  3
ACAD_XREC_ROUNDTRIP
360
2DC
  0
DICTIONARY
  5
2D9
330
41
100
AcDbDictionary
280
     1
281
     1
  3
ACAD_XREC_ROUNDTRIP
360
2DA
  0
DICTIONARY
  5
2D3
330
3E
100
AcDbDictionary
280
     1
281
     1
  3
ACAD_XREC_ROUNDTRIP
360
2D4
  0
DICTIONARY
  5
2D5
330
3F
100
AcDbDictionary
280
     1
281
     1
  3
ACAD_XREC_ROUNDTRIP
360
2D6
  0
DICTIONARY
  5
2C5
330
37
100
AcDbDictionary
280
     1
281
     1
  3
ACAD_XREC_ROUNDTRIP
360
2C6
  0
DICTIONARY
  5
2B7
330
30
100
AcDbDictionary
280
     1
281
     1
  3
ACAD_XREC_ROUNDTRIP
360
2B8
  0
DICTIONARY
  5
2D7
330
40
100
AcDbDictionary
280
     1
281
     1
  3
ACAD_XREC_ROUNDTRIP
360
2D8
  0
XRECORD
  5
2E0
102
{ACAD_REACTORS
330
2DF
102
}
330
2DF
100
AcDbXrecord
280
     1
102
MATERIAL
148
0.0
149
0.0
149
0.0
 93
        0
 94
      127
282
     0
 72
     1
 77
     1
171
     1
175
     1
179
     1
273
     0
  0
XRECORD
  5
2DE
102
{ACAD_REACTORS
330
2DD
102
}
330
2DD
100
AcDbXrecord
280
     1
102
MATERIAL
148
0.0
149
0.0
149
0.0
 93
        0
 94
      127
282
     0
 72
     1
 77
     1
171
     1
175
     1
179
     1
273
     0
  0
XRECORD
  5
2E2
102
{ACAD_REACTORS
330
2E1
102
}
330
2E1
100
AcDbXrecord
280
     1
102
MATERIAL
148
0.0
149
0.0
149
0.0
 93
        0
 94
      127
282
     0
 72
     1
 77
     1
171
     1
175
     1
179
     1
273
     0
  0
XRECORD
  5
2E8
102
{ACAD_REACTORS
330
2E7
102
}
330
2E7
100
AcDbXrecord
280
     1
102
ACAD_ROUNDTRIP_2010_MLEADER_STYLE
  0
CELLSTYLEMAP
  5
2E5
102
{ACAD_REACTORS
330
2E3
102
}
330
2E3
100
AcDbCellStyleMap
 90
        3
300
CELLSTYLE
  1
TABLEFORMAT_BEGIN
 90
        5
170
     1
 91
        0
 92
    32768
 62
   257
 93
        1
300
CONTENTFORMAT
  1
CONTENTFORMAT_BEGIN
 90
        0
 91
        0
 92
        4
 93
        0
300

 40
0.0
140
1.0
 94
        5
 62
     0
340
11
144
6.0
309
CONTENTFORMAT_END
171
     1
301
MARGIN
  1
CELLMARGIN_BEGIN
 40
1.5
 40
1.5
 40
1.5
 40
1.5
 40
1.5
 40
1.5
309
CELLMARGIN_END
 94
        6
 95
        1
302
GRIDFORMAT
  1
GRIDFORMAT_BEGIN
 90
        0
 91
        1
 62
     0
 92
       -2
340
14
 93
        0
 40
0.045
309
GRIDFORMAT_END
 95
        2
302
GRIDFORMAT
  1
GRIDFORMAT_BEGIN
 90
        0
 91
        1
 62
     0
 92
       -2
340
14
 93
        0
 40
0.045
309
GRIDFORMAT_END
 95
        4
302
GRIDFORMAT
  1
GRIDFORMAT_BEGIN
 90
        0
 91
        1
 62
     0
 92
       -2
340
14
 93
        0
 40
0.045
309
GRIDFORMAT_END
 95
        8
302
GRIDFORMAT
  1
GRIDFORMAT_BEGIN
 90
        0
 91
        1
 62
     0
 92
       -2
340
14
 93
        0
 40
0.045
309
GRIDFORMAT_END
 95
       16
302
GRIDFORMAT
  1
GRIDFORMAT_BEGIN
 90
        0
 91
        1
 62
     0
 92
       -2
340
14
 93
        0
 40
0.045
309
GRIDFORMAT_END
 95
       32
302
GRIDFORMAT
  1
GRIDFORMAT_BEGIN
 90
        0
 91
        1
 62
     0
 92
       -2
340
14
 93
        0
 40
0.045
309
GRIDFORMAT_END
309
TABLEFORMAT_END
  1
CELLSTYLE_BEGIN
 90
        1
 91
        1
300
_TITLE
309
CELLSTYLE_END
300
CELLSTYLE
  1
TABLEFORMAT_BEGIN
 90
        5
170
     1
 91
        0
 92
        0
 62
   257
 93
        1
300
CONTENTFORMAT
  1
CONTENTFORMAT_BEGIN
 90
        0
 91
        0
 92
        4
 93
        0
300

 40
0.0
140
1.0
 94
        5
 62
     0
340
11
144
4.5
309
CONTENTFORMAT_END
171
     1
301
MARGIN
  1
CELLMARGIN_BEGIN
 40
1.5
 40
1.5
 40
1.5
 40
1.5
 40
1.5
 40
1.5
309
CELLMARGIN_END
 94
        6
 95
        1
302
GRIDFORMAT
  1
GRIDFORMAT_BEGIN
 90
        0
 91
        1
 62
     0
 92
       -2
340
14
 93
        0
 40
0.045
309
GRIDFORMAT_END
 95
        2
302
GRIDFORMAT
  1
GRIDFORMAT_BEGIN
 90
        0
 91
        1
 62
     0
 92
       -2
340
14
 93
        0
 40
0.045
309
GRIDFORMAT_END
 95
        4
302
GRIDFORMAT
  1
GRIDFORMAT_BEGIN
 90
        0
 91
        1
 62
     0
 92
       -2
340
14
 93
        0
 40
0.045
309
GRIDFORMAT_END
 95
        8
302
GRIDFORMAT
  1
GRIDFORMAT_BEGIN
 90
        0
 91
        1
 62
     0
 92
       -2
340
14
 93
        0
 40
0.045
309
GRIDFORMAT_END
 95
       16
302
GRIDFORMAT
  1
GRIDFORMAT_BEGIN
 90
        0
 91
        1
 62
     0
 92
       -2
340
14
 93
        0
 40
0.045
309
GRIDFORMAT_END
 95
       32
302
GRIDFORMAT
  1
GRIDFORMAT_BEGIN
 90
        0
 91
        1
 62
     0
 92
       -2
340
14
 93
        0
 40
0.045
309
GRIDFORMAT_END
309
TABLEFORMAT_END
  1
CELLSTYLE_BEGIN
 90
        2
 91
        1
300
_HEADER
309
CELLSTYLE_END
300
CELLSTYLE
  1
TABLEFORMAT_BEGIN
 90
        5
170
     1
 91
        0
 92
        0
 62
   257
 93
        1
300
CONTENTFORMAT
  1
CONTENTFORMAT_BEGIN
 90
        0
 91
        0
 92
        4
 93
        0
300

 40
0.0
140
1.0
 94
        2
 62
     0
340
11
144
4.5
309
CONTENTFORMAT_END
171
     1
301
MARGIN
  1
CELLMARGIN_BEGIN
 40
1.5
 40
1.5
 40
1.5
 40
1.5
 40
1.5
 40
1.5
309
CELLMARGIN_END
 94
        6
 95
        1
302
GRIDFORMAT
  1
GRIDFORMAT_BEGIN
 90
        0
 91
        1
 62
     0
 92
       -2
340
14
 93
        0
 40
0.045
309
GRIDFORMAT_END
 95
        2
302
GRIDFORMAT
  1
GRIDFORMAT_BEGIN
 90
        0
 91
        1
 62
     0
 92
       -2
340
14
 93
        0
 40
0.045
309
GRIDFORMAT_END
 95
        4
302
GRIDFORMAT
  1
GRIDFORMAT_BEGIN
 90
        0
 91
        1
 62
     0
 92
       -2
340
14
 93
        0
 40
0.045
309
GRIDFORMAT_END
 95
        8
302
GRIDFORMAT
  1
GRIDFORMAT_BEGIN
 90
        0
 91
        1
 62
     0
 92
       -2
340
14
 93
        0
 40
0.045
309
GRIDFORMAT_END
 95
       16
302
GRIDFORMAT
  1
GRIDFORMAT_BEGIN
 90
        0
 91
        1
 62
     0
 92
       -2
340
14
 93
        0
 40
0.045
309
GRIDFORMAT_END
 95
       32
302
GRIDFORMAT
  1
GRIDFORMAT_BEGIN
 90
        0
 91
        1
 62
     0
 92
       -2
340
14
 93
        0
 40
0.045
309
GRIDFORMAT_END
309
TABLEFORMAT_END
  1
CELLSTYLE_BEGIN
 90
        3
 91
        2
300
_DATA
309
CELLSTYLE_END
  0
XRECORD
  5
2E4
102
{ACAD_REACTORS
330
2E3
102
}
330
2E3
100
AcDbXrecord
280
     1
102
ACAD_ROUNDTRIP_PRE2007_TABLESTYLE
 90
        4
 91
        0
  1

 92
        4
 93
        0
  2

 94
        4
 95
        0
  3

  0
XRECORD
  5
2B6
102
{ACAD_REACTORS
330
2B5
102
}
330
2B5
100
AcDbXrecord
280
     1
102
RTVSPropertyOp0
 70
     1
102
RTVSPropertyOp1
 70
     1
102
RTVSPropertyOp2
 70
     1
102
RTVSPropertyOp3
 70
     1
102
RTVSPropertyOp4
 70
     1
102
RTVSPropertyOp5
 70
     1
102
RTVSPropertyOp6
 70
     1
102
RTVSPropertyOp7
 70
     1
102
RTVSPropertyOp8
 70
     1
102
RTVSPropertyOp9
 70
     1
102
RTVSPropertyOp10
 70
     1
102
RTVSPropertyOp11
 70
     1
102
RTVSPropertyOp12
 70
     1
102
RTVSPropertyOp13
 70
     1
102
RTVSPropertyOp14
 70
     1
102
RTVSPropertyOp15
 70
     1
102
RTVSPropertyOp16
 70
     1
102
RTVSPropertyOp17
 70
     1
102
RTVSPropertyOp18
 70
     1
102
RTVSPropertyOp19
 70
     1
102
RTVSPropertyOp20
 70
     1
102
RTVSPropertyOp21
 70
     1
102
RTVSPropertyOp22
 70
     1
102
RTVSPropertyOp23
 70
     1
102
RTVSPropertyOp24
 70
     1
102
RTVSPropertyOp25
 70
     1
102
RTVSPropertyOp26
 70
     1
102
RTVSPropertyOp27
 70
     1
102
RTVSPropertyOp28
 70
     1
102
RTVSPropertyOp29
 70
     1
102
RTVSPropertyOp30
 70
     1
102
RTVSPropertyOp31
 70
     1
102
RTVSPropertyOp32
 70
     1
102
RTVSPropertyOp33
 70
     1
102
RTVSPropertyOp34
 70
     1
102
RTVSPropertyOp35
 70
     1
102
RTVSPropertyOp36
 70
     1
102
RTVSPropertyOp37
 70
     1
102
RTVSPropertyOp38
 70
     1
102
RTVSPropertyOp39
 70
     1
102
RTVSPropertyOp40
 70
     1
102
RTVSPropertyOp41
 70
     1
102
RTVSPropertyOp42
 70
     1
102
RTVSPropertyOp43
 70
     1
102
RTVSPropertyOp44
 70
     1
102
RTVSPropertyOp45
 70
     1
102
RTVSPropertyOp46
 70
     1
102
RTVSPropertyOp47
 70
     1
102
RTVSPropertyOp48
 70
     1
102
RTVSPropertyOp49
 70
     1
102
RTVSPropertyOp50
 70
     1
102
RTVSPropertyOp51
 70
     0
102
RTVSPropertyOp52
 70
     0
102
RTVSPropertyOp53
 70
     1
102
RTVSPropertyOp54
 70
     1
102
RTVSPropertyOp55
 70
     1
102
RTVSPropertyOp56
 70
     1
102
RTVSPropertyOp57
 70
     1
102
RTVSPost2010Prop28
280
     1
102
RTVSPost2010PropOp28
 70
     1
102
RTVSPost2010Prop29
280
     1
102
RTVSPost2010PropOp29
 70
     1
102
RTVSPost2010Prop30
280
     0
102
RTVSPost2010PropOp30
 70
     1
102
RTVSPost2010Prop31
280
     0
102
RTVSPost2010PropOp31
 70
     1
102
RTVSPost2010Prop32
280
     0
102
RTVSPost2010PropOp32
 70
     1
102
RTVSPost2010Prop33
280
     0
102
RTVSPost2010PropOp33
 70
     1
102
RTVSPost2010Prop34
280
     0
102
RTVSPost2010PropOp34
 70
     1
102
RTVSPost2010Prop35
280
     0
102
RTVSPost2010PropOp35
 70
     1
102
RTVSPost2010Prop36
280
     0
102
RTVSPost2010PropOp36
 70
     1
102
RTVSPost2010Prop37
 90
       50
102
RTVSPost2010PropOp37
 70
     1
102
RTVSPost2010Prop38
140
0.0
102
RTVSPost2010PropOp38
 70
     1
102
RTVSPost2010Prop39
140
1.0
102
RTVSPost2010PropOp39
 70
     1
102
RTVSPost2010Prop40
 90
        0
102
RTVSPost2010PropOp40
 70
     1
102
RTVSPost2010Prop41ColorIndex
 90
       18
102
RTVSPost2010Prop41ColorRGB
 90
        0
102
RTVSPost2010PropOp41
 70
     1
102
RTVSPost2010Prop42
 90
       50
102
RTVSPost2010PropOp42
 70
     1
102
RTVSPost2010Prop43
 90
        3
102
RTVSPost2010PropOp43
 70
     1
102
RTVSPost2010Prop44ColorIndex
 90
        5
102
RTVSPost2010Prop44ColorRGB
 90
      255
102
RTVSPost2010PropOp44
 70
     1
102
RTVSPost2010Prop45
280
     0
102
RTVSPost2010PropOp45
 70
     1
102
RTVSPost2010Prop46
 90
       50
102
RTVSPost2010PropOp46
 70
     1
102
RTVSPost2010Prop47
 90
       50
102
RTVSPost2010PropOp47
 70
     1
102
RTVSPost2010Prop48
 90
       50
102
RTVSPost2010PropOp48
 70
     1
102
RTVSPost2010Prop49
280
     0
102
RTVSPost2010PropOp49
 70
     1
102
RTVSPost2010Prop50
 90
       50
102
RTVSPost2010PropOp50
 70
     1
102
RTVSPost2010Prop51ColorIndex
 90
      256
102
RTVSPost2010Prop51ColorRGB
 90
-16777216
102
RTVSPost2010PropOp51
 70
     0
102
RTVSPost2010Prop52
140
1.0
102
RTVSPost2010PropOp52
 70
     0
102
RTVSPost2010Prop53
 90
        2
102
RTVSPost2010PropOp53
 70
     1
102
RTVSPost2010Prop54
  1
strokes_ogs.tif
102
RTVSPost2010PropOp54
 70
     1
102
RTVSPost2010Prop55
280
     0
102
RTVSPost2010PropOp55
 70
     1
102
RTVSPost2010Prop56
140
1.0
102
RTVSPost2010PropOp56
 70
     1
102
RTVSPost2010Prop57
140
1.0
102
RTVSPost2010PropOp57
 70
     1
  0
XRECORD
  5
2BC
102
{ACAD_REACTORS
330
2BB
102
}
330
2BB
100
AcDbXrecord
280
     1
102
RTVSPropertyOp0
 70
     1
102
RTVSPropertyOp1
 70
     1
102
RTVSPropertyOp2
 70
     1
102
RTVSPropertyOp3
 70
     1
102
RTVSPropertyOp4
 70
     1
102
RTVSPropertyOp5
 70
     1
102
RTVSPropertyOp6
 70
     1
102
RTVSPropertyOp7
 70
     1
102
RTVSPropertyOp8
 70
     1
102
RTVSPropertyOp9
 70
     1
102
RTVSPropertyOp10
 70
     1
102
RTVSPropertyOp11
 70
     1
102
RTVSPropertyOp12
 70
     1
102
RTVSPropertyOp13
 70
     1
102
RTVSPropertyOp14
 70
     1
102
RTVSPropertyOp15
 70
     1
102
RTVSPropertyOp16
 70
     1
102
RTVSPropertyOp17
 70
     1
102
RTVSPropertyOp18
 70
     1
102
RTVSPropertyOp19
 70
     1
102
RTVSPropertyOp20
 70
     1
102
RTVSPropertyOp21
 70
     1
102
RTVSPropertyOp22
 70
     1
102
RTVSPropertyOp23
 70
     1
102
RTVSPropertyOp24
 70
     1
102
RTVSPropertyOp25
 70
     1
102
RTVSPropertyOp26
 70
     1
102
RTVSPropertyOp27
 70
     1
102
RTVSPropertyOp28
 70
     1
102
RTVSPropertyOp29
 70
     1
102
RTVSPropertyOp30
 70
     1
102
RTVSPropertyOp31
 70
     1
102
RTVSPropertyOp32
 70
     1
102
RTVSPropertyOp33
 70
     1
102
RTVSPropertyOp34
 70
     1
102
RTVSPropertyOp35
 70
     1
102
RTVSPropertyOp36
 70
     1
102
RTVSPropertyOp37
 70
     1
102
RTVSPropertyOp38
 70
     1
102
RTVSPropertyOp39
 70
     1
102
RTVSPropertyOp40
 70
     1
102
RTVSPropertyOp41
 70
     1
102
RTVSPropertyOp42
 70
     1
102
RTVSPropertyOp43
 70
     1
102
RTVSPropertyOp44
 70
     1
102
RTVSPropertyOp45
 70
     1
102
RTVSPropertyOp46
 70
     1
102
RTVSPropertyOp47
 70
     1
102
RTVSPropertyOp48
 70
     1
102
RTVSPropertyOp49
 70
     1
102
RTVSPropertyOp50
 70
     1
102
RTVSPropertyOp51
 70
     0
102
RTVSPropertyOp52
 70
     0
102
RTVSPropertyOp53
 70
     1
102
RTVSPropertyOp54
 70
     1
102
RTVSPropertyOp55
 70
     1
102
RTVSPropertyOp56
 70
     1
102
RTVSPropertyOp57
 70
     1
102
RTVSPost2010Prop28
280
     0
102
RTVSPost2010PropOp28
 70
     1
102
RTVSPost2010Prop29
280
     1
102
RTVSPost2010PropOp29
 70
     1
102
RTVSPost2010Prop30
280
     1
102
RTVSPost2010PropOp30
 70
     1
102
RTVSPost2010Prop31
280
     0
102
RTVSPost2010PropOp31
 70
     1
102
RTVSPost2010Prop32
280
     0
102
RTVSPost2010PropOp32
 70
     1
102
RTVSPost2010Prop33
280
     0
102
RTVSPost2010PropOp33
 70
     1
102
RTVSPost2010Prop34
280
     0
102
RTVSPost2010PropOp34
 70
     1
102
RTVSPost2010Prop35
280
     0
102
RTVSPost2010PropOp35
 70
     1
102
RTVSPost2010Prop36
280
     0
102
RTVSPost2010PropOp36
 70
     1
102
RTVSPost2010Prop37
 90
       50
102
RTVSPost2010PropOp37
 70
     1
102
RTVSPost2010Prop38
140
0.0
102
RTVSPost2010PropOp38
 70
     1
102
RTVSPost2010Prop39
140
1.0
102
RTVSPost2010PropOp39
 70
     1
102
RTVSPost2010Prop40
 90
        0
102
RTVSPost2010PropOp40
 70
     1
102
RTVSPost2010Prop41ColorIndex
 90
       18
102
RTVSPost2010Prop41ColorRGB
 90
        0
102
RTVSPost2010PropOp41
 70
     1
102
RTVSPost2010Prop42
 90
       50
102
RTVSPost2010PropOp42
 70
     1
102
RTVSPost2010Prop43
 90
        3
102
RTVSPost2010PropOp43
 70
     1
102
RTVSPost2010Prop44ColorIndex
 90
        5
102
RTVSPost2010Prop44ColorRGB
 90
      255
102
RTVSPost2010PropOp44
 70
     1
102
RTVSPost2010Prop45
280
     0
102
RTVSPost2010PropOp45
 70
     1
102
RTVSPost2010Prop46
 90
       50
102
RTVSPost2010PropOp46
 70
     1
102
RTVSPost2010Prop47
 90
       50
102
RTVSPost2010PropOp47
 70
     1
102
RTVSPost2010Prop48
 90
       50
102
RTVSPost2010PropOp48
 70
     1
102
RTVSPost2010Prop49
280
     0
102
RTVSPost2010PropOp49
 70
     1
102
RTVSPost2010Prop50
 90
       50
102
RTVSPost2010PropOp50
 70
     1
102
RTVSPost2010Prop51ColorIndex
 90
      256
102
RTVSPost2010Prop51ColorRGB
 90
-16777216
102
RTVSPost2010PropOp51
 70
     0
102
RTVSPost2010Prop52
140
1.0
102
RTVSPost2010PropOp52
 70
     0
102
RTVSPost2010Prop53
 90
        2
102
RTVSPost2010PropOp53
 70
     1
102
RTVSPost2010Prop54
  1
strokes_ogs.tif
102
RTVSPost2010PropOp54
 70
     1
102
RTVSPost2010Prop55
280
     0
102
RTVSPost2010PropOp55
 70
     1
102
RTVSPost2010Prop56
140
1.0
102
RTVSPost2010PropOp56
 70
     1
102
RTVSPost2010Prop57
140
1.0
102
RTVSPost2010PropOp57
 70
     1
  0
XRECORD
  5
2C4
102
{ACAD_REACTORS
330
2C3
102
}
330
2C3
100
AcDbXrecord
280
     1
102
RTVSPropertyOp0
 70
     1
102
RTVSPropertyOp1
 70
     1
102
RTVSPropertyOp2
 70
     1
102
RTVSPropertyOp3
 70
     1
102
RTVSPropertyOp4
 70
     1
102
RTVSPropertyOp5
 70
     1
102
RTVSPropertyOp6
 70
     1
102
RTVSPropertyOp7
 70
     1
102
RTVSPropertyOp8
 70
     1
102
RTVSPropertyOp9
 70
     1
102
RTVSPropertyOp10
 70
     1
102
RTVSPropertyOp11
 70
     1
102
RTVSPropertyOp12
 70
     1
102
RTVSPropertyOp13
 70
     1
102
RTVSPropertyOp14
 70
     1
102
RTVSPropertyOp15
 70
     1
102
RTVSPropertyOp16
 70
     1
102
RTVSPropertyOp17
 70
     1
102
RTVSPropertyOp18
 70
     1
102
RTVSPropertyOp19
 70
     1
102
RTVSPropertyOp20
 70
     1
102
RTVSPropertyOp21
 70
     1
102
RTVSPropertyOp22
 70
     1
102
RTVSPropertyOp23
 70
     1
102
RTVSPropertyOp24
 70
     1
102
RTVSPropertyOp25
 70
     1
102
RTVSPropertyOp26
 70
     1
102
RTVSPropertyOp27
 70
     1
102
RTVSPropertyOp28
 70
     1
102
RTVSPropertyOp29
 70
     1
102
RTVSPropertyOp30
 70
     1
102
RTVSPropertyOp31
 70
     1
102
RTVSPropertyOp32
 70
     1
102
RTVSPropertyOp33
 70
     1
102
RTVSPropertyOp34
 70
     1
102
RTVSPropertyOp35
 70
     1
102
RTVSPropertyOp36
 70
     1
102
RTVSPropertyOp37
 70
     1
102
RTVSPropertyOp38
 70
     1
102
RTVSPropertyOp39
 70
     1
102
RTVSPropertyOp40
 70
     1
102
RTVSPropertyOp41
 70
     1
102
RTVSPropertyOp42
 70
     1
102
RTVSPropertyOp43
 70
     1
102
RTVSPropertyOp44
 70
     1
102
RTVSPropertyOp45
 70
     1
102
RTVSPropertyOp46
 70
     1
102
RTVSPropertyOp47
 70
     1
102
RTVSPropertyOp48
 70
     1
102
RTVSPropertyOp49
 70
     1
102
RTVSPropertyOp50
 70
     1
102
RTVSPropertyOp51
 70
     0
102
RTVSPropertyOp52
 70
     0
102
RTVSPropertyOp53
 70
     1
102
RTVSPropertyOp54
 70
     1
102
RTVSPropertyOp55
 70
     1
102
RTVSPropertyOp56
 70
     1
102
RTVSPropertyOp57
 70
     1
102
RTVSPost2010Prop28
280
     0
102
RTVSPost2010PropOp28
 70
     1
102
RTVSPost2010Prop29
280
     1
102
RTVSPost2010PropOp29
 70
     1
102
RTVSPost2010Prop30
280
     1
102
RTVSPost2010PropOp30
 70
     1
102
RTVSPost2010Prop31
280
     0
102
RTVSPost2010PropOp31
 70
     1
102
RTVSPost2010Prop32
280
     0
102
RTVSPost2010PropOp32
 70
     1
102
RTVSPost2010Prop33
280
     0
102
RTVSPost2010PropOp33
 70
     1
102
RTVSPost2010Prop34
280
     0
102
RTVSPost2010PropOp34
 70
     1
102
RTVSPost2010Prop35
280
     0
102
RTVSPost2010PropOp35
 70
     1
102
RTVSPost2010Prop36
280
     0
102
RTVSPost2010PropOp36
 70
     1
102
RTVSPost2010Prop37
 90
       50
102
RTVSPost2010PropOp37
 70
     1
102
RTVSPost2010Prop38
140
0.0
102
RTVSPost2010PropOp38
 70
     1
102
RTVSPost2010Prop39
140
1.0
102
RTVSPost2010PropOp39
 70
     1
102
RTVSPost2010Prop40
 90
        0
102
RTVSPost2010PropOp40
 70
     1
102
RTVSPost2010Prop41ColorIndex
 90
       18
102
RTVSPost2010Prop41ColorRGB
 90
        0
102
RTVSPost2010PropOp41
 70
     1
102
RTVSPost2010Prop42
 90
       50
102
RTVSPost2010PropOp42
 70
     1
102
RTVSPost2010Prop43
 90
        3
102
RTVSPost2010PropOp43
 70
     1
102
RTVSPost2010Prop44ColorIndex
 90
        5
102
RTVSPost2010Prop44ColorRGB
 90
      255
102
RTVSPost2010PropOp44
 70
     1
102
RTVSPost2010Prop45
280
     0
102
RTVSPost2010PropOp45
 70
     1
102
RTVSPost2010Prop46
 90
       50
102
RTVSPost2010PropOp46
 70
     1
102
RTVSPost2010Prop47
 90
       50
102
RTVSPost2010PropOp47
 70
     1
102
RTVSPost2010Prop48
 90
       50
102
RTVSPost2010PropOp48
 70
     1
102
RTVSPost2010Prop49
280
     0
102
RTVSPost2010PropOp49
 70
     1
102
RTVSPost2010Prop50
 90
       50
102
RTVSPost2010PropOp50
 70
     1
102
RTVSPost2010Prop51ColorIndex
 90
      256
102
RTVSPost2010Prop51ColorRGB
 90
-16777216
102
RTVSPost2010PropOp51
 70
     0
102
RTVSPost2010Prop52
140
1.0
102
RTVSPost2010PropOp52
 70
     0
102
RTVSPost2010Prop53
 90
        2
102
RTVSPost2010PropOp53
 70
     1
102
RTVSPost2010Prop54
  1
strokes_ogs.tif
102
RTVSPost2010PropOp54
 70
     1
102
RTVSPost2010Prop55
280
     0
102
RTVSPost2010PropOp55
 70
     1
102
RTVSPost2010Prop56
140
1.0
102
RTVSPost2010PropOp56
 70
     1
102
RTVSPost2010Prop57
140
1.0
102
RTVSPost2010PropOp57
 70
     1
  0
XRECORD
  5
2CC
102
{ACAD_REACTORS
330
2CB
102
}
330
2CB
100
AcDbXrecord
280
     1
102
RTVSPropertyOp0
 70
     1
102
RTVSPropertyOp1
 70
     1
102
RTVSPropertyOp2
 70
     1
102
RTVSPropertyOp3
 70
     1
102
RTVSPropertyOp4
 70
     1
102
RTVSPropertyOp5
 70
     1
102
RTVSPropertyOp6
 70
     1
102
RTVSPropertyOp7
 70
     1
102
RTVSPropertyOp8
 70
     1
102
RTVSPropertyOp9
 70
     1
102
RTVSPropertyOp10
 70
     1
102
RTVSPropertyOp11
 70
     1
102
RTVSPropertyOp12
 70
     1
102
RTVSPropertyOp13
 70
     1
102
RTVSPropertyOp14
 70
     1
102
RTVSPropertyOp15
 70
     1
102
RTVSPropertyOp16
 70
     1
102
RTVSPropertyOp17
 70
     1
102
RTVSPropertyOp18
 70
     1
102
RTVSPropertyOp19
 70
     1
102
RTVSPropertyOp20
 70
     1
102
RTVSPropertyOp21
 70
     1
102
RTVSPropertyOp22
 70
     1
102
RTVSPropertyOp23
 70
     1
102
RTVSPropertyOp24
 70
     1
102
RTVSPropertyOp25
 70
     1
102
RTVSPropertyOp26
 70
     1
102
RTVSPropertyOp27
 70
     1
102
RTVSPropertyOp28
 70
     1
102
RTVSPropertyOp29
 70
     1
102
RTVSPropertyOp30
 70
     1
102
RTVSPropertyOp31
 70
     1
102
RTVSPropertyOp32
 70
     1
102
RTVSPropertyOp33
 70
     1
102
RTVSPropertyOp34
 70
     1
102
RTVSPropertyOp35
 70
     1
102
RTVSPropertyOp36
 70
     1
102
RTVSPropertyOp37
 70
     1
102
RTVSPropertyOp38
 70
     1
102
RTVSPropertyOp39
 70
     1
102
RTVSPropertyOp40
 70
     1
102
RTVSPropertyOp41
 70
     1
102
RTVSPropertyOp42
 70
     1
102
RTVSPropertyOp43
 70
     1
102
RTVSPropertyOp44
 70
     1
102
RTVSPropertyOp45
 70
     1
102
RTVSPropertyOp46
 70
     1
102
RTVSPropertyOp47
 70
     1
102
RTVSPropertyOp48
 70
     1
102
RTVSPropertyOp49
 70
     1
102
RTVSPropertyOp50
 70
     1
102
RTVSPropertyOp51
 70
     0
102
RTVSPropertyOp52
 70
     0
102
RTVSPropertyOp53
 70
     1
102
RTVSPropertyOp54
 70
     1
102
RTVSPropertyOp55
 70
     1
102
RTVSPropertyOp56
 70
     1
102
RTVSPropertyOp57
 70
     1
102
RTVSPost2010Prop28
280
     0
102
RTVSPost2010PropOp28
 70
     1
102
RTVSPost2010Prop29
280
     1
102
RTVSPost2010PropOp29
 70
     1
102
RTVSPost2010Prop30
280
     1
102
RTVSPost2010PropOp30
 70
     1
102
RTVSPost2010Prop31
280
     0
102
RTVSPost2010PropOp31
 70
     1
102
RTVSPost2010Prop32
280
     0
102
RTVSPost2010PropOp32
 70
     1
102
RTVSPost2010Prop33
280
     0
102
RTVSPost2010PropOp33
 70
     1
102
RTVSPost2010Prop34
280
     0
102
RTVSPost2010PropOp34
 70
     1
102
RTVSPost2010Prop35
280
     0
102
RTVSPost2010PropOp35
 70
     1
102
RTVSPost2010Prop36
280
     0
102
RTVSPost2010PropOp36
 70
     1
102
RTVSPost2010Prop37
 90
       50
102
RTVSPost2010PropOp37
 70
     1
102
RTVSPost2010Prop38
140
0.0
102
RTVSPost2010PropOp38
 70
     1
102
RTVSPost2010Prop39
140
1.0
102
RTVSPost2010PropOp39
 70
     1
102
RTVSPost2010Prop40
 90
        0
102
RTVSPost2010PropOp40
 70
     1
102
RTVSPost2010Prop41ColorIndex
 90
       18
102
RTVSPost2010Prop41ColorRGB
 90
        0
102
RTVSPost2010PropOp41
 70
     1
102
RTVSPost2010Prop42
 90
       50
102
RTVSPost2010PropOp42
 70
     1
102
RTVSPost2010Prop43
 90
        3
102
RTVSPost2010PropOp43
 70
     1
102
RTVSPost2010Prop44ColorIndex
 90
        5
102
RTVSPost2010Prop44ColorRGB
 90
      255
102
RTVSPost2010PropOp44
 70
     1
102
RTVSPost2010Prop45
280
     0
102
RTVSPost2010PropOp45
 70
     1
102
RTVSPost2010Prop46
 90
       50
102
RTVSPost2010PropOp46
 70
     1
102
RTVSPost2010Prop47
 90
       50
102
RTVSPost2010PropOp47
 70
     1
102
RTVSPost2010Prop48
 90
       50
102
RTVSPost2010PropOp48
 70
     1
102
RTVSPost2010Prop49
280
     0
102
RTVSPost2010PropOp49
 70
     1
102
RTVSPost2010Prop50
 90
       50
102
RTVSPost2010PropOp50
 70
     1
102
RTVSPost2010Prop51ColorIndex
 90
      256
102
RTVSPost2010Prop51ColorRGB
 90
-16777216
102
RTVSPost2010PropOp51
 70
     0
102
RTVSPost2010Prop52
140
1.0
102
RTVSPost2010PropOp52
 70
     0
102
RTVSPost2010Prop53
 90
        2
102
RTVSPost2010PropOp53
 70
     1
102
RTVSPost2010Prop54
  1
strokes_ogs.tif
102
RTVSPost2010PropOp54
 70
     1
102
RTVSPost2010Prop55
280
     0
102
RTVSPost2010PropOp55
 70
     1
102
RTVSPost2010Prop56
140
1.0
102
RTVSPost2010PropOp56
 70
     1
102
RTVSPost2010Prop57
140
1.0
102
RTVSPost2010PropOp57
 70
     1
  0
XRECORD
  5
2C0
102
{ACAD_REACTORS
330
2BF
102
}
330
2BF
100
AcDbXrecord
280
     1
102
RTVSPropertyOp0
 70
     1
102
RTVSPropertyOp1
 70
     1
102
RTVSPropertyOp2
 70
     1
102
RTVSPropertyOp3
 70
     1
102
RTVSPropertyOp4
 70
     1
102
RTVSPropertyOp5
 70
     1
102
RTVSPropertyOp6
 70
     1
102
RTVSPropertyOp7
 70
     1
102
RTVSPropertyOp8
 70
     1
102
RTVSPropertyOp9
 70
     1
102
RTVSPropertyOp10
 70
     1
102
RTVSPropertyOp11
 70
     1
102
RTVSPropertyOp12
 70
     1
102
RTVSPropertyOp13
 70
     1
102
RTVSPropertyOp14
 70
     1
102
RTVSPropertyOp15
 70
     1
102
RTVSPropertyOp16
 70
     1
102
RTVSPropertyOp17
 70
     1
102
RTVSPropertyOp18
 70
     1
102
RTVSPropertyOp19
 70
     1
102
RTVSPropertyOp20
 70
     1
102
RTVSPropertyOp21
 70
     1
102
RTVSPropertyOp22
 70
     1
102
RTVSPropertyOp23
 70
     1
102
RTVSPropertyOp24
 70
     1
102
RTVSPropertyOp25
 70
     1
102
RTVSPropertyOp26
 70
     1
102
RTVSPropertyOp27
 70
     1
102
RTVSPropertyOp28
 70
     1
102
RTVSPropertyOp29
 70
     1
102
RTVSPropertyOp30
 70
     1
102
RTVSPropertyOp31
 70
     1
102
RTVSPropertyOp32
 70
     1
102
RTVSPropertyOp33
 70
     1
102
RTVSPropertyOp34
 70
     1
102
RTVSPropertyOp35
 70
     1
102
RTVSPropertyOp36
 70
     1
102
RTVSPropertyOp37
 70
     1
102
RTVSPropertyOp38
 70
     1
102
RTVSPropertyOp39
 70
     1
102
RTVSPropertyOp40
 70
     1
102
RTVSPropertyOp41
 70
     1
102
RTVSPropertyOp42
 70
     1
102
RTVSPropertyOp43
 70
     1
102
RTVSPropertyOp44
 70
     1
102
RTVSPropertyOp45
 70
     1
102
RTVSPropertyOp46
 70
     1
102
RTVSPropertyOp47
 70
     1
102
RTVSPropertyOp48
 70
     1
102
RTVSPropertyOp49
 70
     1
102
RTVSPropertyOp50
 70
     1
102
RTVSPropertyOp51
 70
     0
102
RTVSPropertyOp52
 70
     0
102
RTVSPropertyOp53
 70
     1
102
RTVSPropertyOp54
 70
     1
102
RTVSPropertyOp55
 70
     1
102
RTVSPropertyOp56
 70
     1
102
RTVSPropertyOp57
 70
     1
102
RTVSPost2010Prop28
280
     0
102
RTVSPost2010PropOp28
 70
     1
102
RTVSPost2010Prop29
280
     1
102
RTVSPost2010PropOp29
 70
     1
102
RTVSPost2010Prop30
280
     1
102
RTVSPost2010PropOp30
 70
     1
102
RTVSPost2010Prop31
280
     0
102
RTVSPost2010PropOp31
 70
     1
102
RTVSPost2010Prop32
280
     0
102
RTVSPost2010PropOp32
 70
     1
102
RTVSPost2010Prop33
280
     0
102
RTVSPost2010PropOp33
 70
     1
102
RTVSPost2010Prop34
280
     0
102
RTVSPost2010PropOp34
 70
     1
102
RTVSPost2010Prop35
280
     0
102
RTVSPost2010PropOp35
 70
     1
102
RTVSPost2010Prop36
280
     0
102
RTVSPost2010PropOp36
 70
     1
102
RTVSPost2010Prop37
 90
       50
102
RTVSPost2010PropOp37
 70
     1
102
RTVSPost2010Prop38
140
0.0
102
RTVSPost2010PropOp38
 70
     1
102
RTVSPost2010Prop39
140
1.0
102
RTVSPost2010PropOp39
 70
     1
102
RTVSPost2010Prop40
 90
        0
102
RTVSPost2010PropOp40
 70
     1
102
RTVSPost2010Prop41ColorIndex
 90
       18
102
RTVSPost2010Prop41ColorRGB
 90
        0
102
RTVSPost2010PropOp41
 70
     1
102
RTVSPost2010Prop42
 90
       50
102
RTVSPost2010PropOp42
 70
     1
102
RTVSPost2010Prop43
 90
        3
102
RTVSPost2010PropOp43
 70
     1
102
RTVSPost2010Prop44ColorIndex
 90
        5
102
RTVSPost2010Prop44ColorRGB
 90
      255
102
RTVSPost2010PropOp44
 70
     1
102
RTVSPost2010Prop45
280
     0
102
RTVSPost2010PropOp45
 70
     1
102
RTVSPost2010Prop46
 90
       50
102
RTVSPost2010PropOp46
 70
     1
102
RTVSPost2010Prop47
 90
       50
102
RTVSPost2010PropOp47
 70
     1
102
RTVSPost2010Prop48
 90
       50
102
RTVSPost2010PropOp48
 70
     1
102
RTVSPost2010Prop49
280
     0
102
RTVSPost2010PropOp49
 70
     1
102
RTVSPost2010Prop50
 90
       50
102
RTVSPost2010PropOp50
 70
     1
102
RTVSPost2010Prop51ColorIndex
 90
      256
102
RTVSPost2010Prop51ColorRGB
 90
-16777216
102
RTVSPost2010PropOp51
 70
     0
102
RTVSPost2010Prop52
140
1.0
102
RTVSPost2010PropOp52
 70
     0
102
RTVSPost2010Prop53
 90
        2
102
RTVSPost2010PropOp53
 70
     1
102
RTVSPost2010Prop54
  1
strokes_ogs.tif
102
RTVSPost2010PropOp54
 70
     1
102
RTVSPost2010Prop55
280
     0
102
RTVSPost2010PropOp55
 70
     1
102
RTVSPost2010Prop56
140
1.0
102
RTVSPost2010PropOp56
 70
     1
102
RTVSPost2010Prop57
140
1.0
102
RTVSPost2010PropOp57
 70
     1
  0
XRECORD
  5
2C2
102
{ACAD_REACTORS
330
2C1
102
}
330
2C1
100
AcDbXrecord
280
     1
102
RTVSPropertyOp0
 70
     1
102
RTVSPropertyOp1
 70
     1
102
RTVSPropertyOp2
 70
     1
102
RTVSPropertyOp3
 70
     1
102
RTVSPropertyOp4
 70
     1
102
RTVSPropertyOp5
 70
     1
102
RTVSPropertyOp6
 70
     1
102
RTVSPropertyOp7
 70
     1
102
RTVSPropertyOp8
 70
     1
102
RTVSPropertyOp9
 70
     1
102
RTVSPropertyOp10
 70
     1
102
RTVSPropertyOp11
 70
     1
102
RTVSPropertyOp12
 70
     1
102
RTVSPropertyOp13
 70
     1
102
RTVSPropertyOp14
 70
     1
102
RTVSPropertyOp15
 70
     1
102
RTVSPropertyOp16
 70
     1
102
RTVSPropertyOp17
 70
     1
102
RTVSPropertyOp18
 70
     1
102
RTVSPropertyOp19
 70
     1
102
RTVSPropertyOp20
 70
     1
102
RTVSPropertyOp21
 70
     1
102
RTVSPropertyOp22
 70
     1
102
RTVSPropertyOp23
 70
     1
102
RTVSPropertyOp24
 70
     1
102
RTVSPropertyOp25
 70
     1
102
RTVSPropertyOp26
 70
     1
102
RTVSPropertyOp27
 70
     1
102
RTVSPropertyOp28
 70
     1
102
RTVSPropertyOp29
 70
     1
102
RTVSPropertyOp30
 70
     1
102
RTVSPropertyOp31
 70
     1
102
RTVSPropertyOp32
 70
     1
102
RTVSPropertyOp33
 70
     1
102
RTVSPropertyOp34
 70
     1
102
RTVSPropertyOp35
 70
     1
102
RTVSPropertyOp36
 70
     1
102
RTVSPropertyOp37
 70
     1
102
RTVSPropertyOp38
 70
     1
102
RTVSPropertyOp39
 70
     1
102
RTVSPropertyOp40
 70
     1
102
RTVSPropertyOp41
 70
     1
102
RTVSPropertyOp42
 70
     1
102
RTVSPropertyOp43
 70
     1
102
RTVSPropertyOp44
 70
     1
102
RTVSPropertyOp45
 70
     1
102
RTVSPropertyOp46
 70
     1
102
RTVSPropertyOp47
 70
     1
102
RTVSPropertyOp48
 70
     1
102
RTVSPropertyOp49
 70
     1
102
RTVSPropertyOp50
 70
     1
102
RTVSPropertyOp51
 70
     0
102
RTVSPropertyOp52
 70
     0
102
RTVSPropertyOp53
 70
     1
102
RTVSPropertyOp54
 70
     1
102
RTVSPropertyOp55
 70
     1
102
RTVSPropertyOp56
 70
     1
102
RTVSPropertyOp57
 70
     1
102
RTVSPost2010Prop28
280
     0
102
RTVSPost2010PropOp28
 70
     1
102
RTVSPost2010Prop29
280
     1
102
RTVSPost2010PropOp29
 70
     1
102
RTVSPost2010Prop30
280
     1
102
RTVSPost2010PropOp30
 70
     1
102
RTVSPost2010Prop31
280
     0
102
RTVSPost2010PropOp31
 70
     1
102
RTVSPost2010Prop32
280
     0
102
RTVSPost2010PropOp32
 70
     1
102
RTVSPost2010Prop33
280
     0
102
RTVSPost2010PropOp33
 70
     1
102
RTVSPost2010Prop34
280
     0
102
RTVSPost2010PropOp34
 70
     1
102
RTVSPost2010Prop35
280
     0
102
RTVSPost2010PropOp35
 70
     1
102
RTVSPost2010Prop36
280
     0
102
RTVSPost2010PropOp36
 70
     1
102
RTVSPost2010Prop37
 90
       50
102
RTVSPost2010PropOp37
 70
     1
102
RTVSPost2010Prop38
140
0.0
102
RTVSPost2010PropOp38
 70
     1
102
RTVSPost2010Prop39
140
1.0
102
RTVSPost2010PropOp39
 70
     1
102
RTVSPost2010Prop40
 90
        0
102
RTVSPost2010PropOp40
 70
     1
102
RTVSPost2010Prop41ColorIndex
 90
       18
102
RTVSPost2010Prop41ColorRGB
 90
        0
102
RTVSPost2010PropOp41
 70
     1
102
RTVSPost2010Prop42
 90
       50
102
RTVSPost2010PropOp42
 70
     1
102
RTVSPost2010Prop43
 90
        3
102
RTVSPost2010PropOp43
 70
     1
102
RTVSPost2010Prop44ColorIndex
 90
        5
102
RTVSPost2010Prop44ColorRGB
 90
      255
102
RTVSPost2010PropOp44
 70
     1
102
RTVSPost2010Prop45
280
     0
102
RTVSPost2010PropOp45
 70
     1
102
RTVSPost2010Prop46
 90
       50
102
RTVSPost2010PropOp46
 70
     1
102
RTVSPost2010Prop47
 90
       50
102
RTVSPost2010PropOp47
 70
     1
102
RTVSPost2010Prop48
 90
       50
102
RTVSPost2010PropOp48
 70
     1
102
RTVSPost2010Prop49
280
     0
102
RTVSPost2010PropOp49
 70
     1
102
RTVSPost2010Prop50
 90
       50
102
RTVSPost2010PropOp50
 70
     1
102
RTVSPost2010Prop51ColorIndex
 90
      256
102
RTVSPost2010Prop51ColorRGB
 90
-16777216
102
RTVSPost2010PropOp51
 70
     0
102
RTVSPost2010Prop52
140
1.0
102
RTVSPost2010PropOp52
 70
     0
102
RTVSPost2010Prop53
 90
        2
102
RTVSPost2010PropOp53
 70
     1
102
RTVSPost2010Prop54
  1
strokes_ogs.tif
102
RTVSPost2010PropOp54
 70
     1
102
RTVSPost2010Prop55
280
     0
102
RTVSPost2010PropOp55
 70
     1
102
RTVSPost2010Prop56
140
1.0
102
RTVSPost2010PropOp56
 70
     1
102
RTVSPost2010Prop57
140
1.0
102
RTVSPost2010PropOp57
 70
     1
  0
XRECORD
  5
2D2
102
{ACAD_REACTORS
330
2D1
102
}
330
2D1
100
AcDbXrecord
280
     1
102
RTVSPropertyOp0
 70
     0
102
RTVSPropertyOp1
 70
     0
102
RTVSPropertyOp2
 70
     0
102
RTVSPropertyOp3
 70
     0
102
RTVSPropertyOp4
 70
     0
102
RTVSPropertyOp5
 70
     0
102
RTVSPropertyOp6
 70
     0
102
RTVSPropertyOp7
 70
     0
102
RTVSPropertyOp8
 70
     0
102
RTVSPropertyOp9
 70
     0
102
RTVSPropertyOp10
 70
     0
102
RTVSPropertyOp11
 70
     0
102
RTVSPropertyOp12
 70
     0
102
RTVSPropertyOp13
 70
     0
102
RTVSPropertyOp14
 70
     2
102
RTVSPropertyOp15
 70
     0
102
RTVSPropertyOp16
 70
     0
102
RTVSPropertyOp17
 70
     0
102
RTVSPropertyOp18
 70
     0
102
RTVSPropertyOp19
 70
     0
102
RTVSPropertyOp20
 70
     0
102
RTVSPropertyOp21
 70
     0
102
RTVSPropertyOp22
 70
     0
102
RTVSPropertyOp23
 70
     0
102
RTVSPropertyOp24
 70
     0
102
RTVSPropertyOp25
 70
     0
102
RTVSPropertyOp26
 70
     0
102
RTVSPropertyOp27
 70
     0
102
RTVSPropertyOp28
 70
     0
102
RTVSPropertyOp29
 70
     0
102
RTVSPropertyOp30
 70
     0
102
RTVSPropertyOp31
 70
     0
102
RTVSPropertyOp32
 70
     0
102
RTVSPropertyOp33
 70
     0
102
RTVSPropertyOp34
 70
     0
102
RTVSPropertyOp35
 70
     0
102
RTVSPropertyOp36
 70
     0
102
RTVSPropertyOp37
 70
     0
102
RTVSPropertyOp38
 70
     0
102
RTVSPropertyOp39
 70
     0
102
RTVSPropertyOp40
 70
     0
102
RTVSPropertyOp41
 70
     0
102
RTVSPropertyOp42
 70
     0
102
RTVSPropertyOp43
 70
     0
102
RTVSPropertyOp44
 70
     0
102
RTVSPropertyOp45
 70
     0
102
RTVSPropertyOp46
 70
     0
102
RTVSPropertyOp47
 70
     0
102
RTVSPropertyOp48
 70
     0
102
RTVSPropertyOp49
 70
     0
102
RTVSPropertyOp50
 70
     0
102
RTVSPropertyOp51
 70
     0
102
RTVSPropertyOp52
 70
     0
102
RTVSPropertyOp53
 70
     0
102
RTVSPropertyOp54
 70
     0
102
RTVSPropertyOp55
 70
     0
102
RTVSPropertyOp56
 70
     0
102
RTVSPropertyOp57
 70
     0
102
RTVSPost2010Prop28
280
     0
102
RTVSPost2010PropOp28
 70
     0
102
RTVSPost2010Prop29
280
     1
102
RTVSPost2010PropOp29
 70
     0
102
RTVSPost2010Prop30
280
     1
102
RTVSPost2010PropOp30
 70
     0
102
RTVSPost2010Prop31
280
     0
102
RTVSPost2010PropOp31
 70
     0
102
RTVSPost2010Prop32
280
     0
102
RTVSPost2010PropOp32
 70
     0
102
RTVSPost2010Prop33
280
     0
102
RTVSPost2010PropOp33
 70
     0
102
RTVSPost2010Prop34
280
     0
102
RTVSPost2010PropOp34
 70
     0
102
RTVSPost2010Prop35
280
     0
102
RTVSPost2010PropOp35
 70
     0
102
RTVSPost2010Prop36
280
     0
102
RTVSPost2010PropOp36
 70
     0
102
RTVSPost2010Prop37
 90
       50
102
RTVSPost2010PropOp37
 70
     0
102
RTVSPost2010Prop38
140
0.0
102
RTVSPost2010PropOp38
 70
     0
102
RTVSPost2010Prop39
140
1.0
102
RTVSPost2010PropOp39
 70
     0
102
RTVSPost2010Prop40
 90
        0
102
RTVSPost2010PropOp40
 70
     0
102
RTVSPost2010Prop41ColorIndex
 90
       18
102
RTVSPost2010Prop41ColorRGB
 90
        0
102
RTVSPost2010PropOp41
 70
     0
102
RTVSPost2010Prop42
 90
       50
102
RTVSPost2010PropOp42
 70
     0
102
RTVSPost2010Prop43
 90
        3
102
RTVSPost2010PropOp43
 70
     0
102
RTVSPost2010Prop44ColorIndex
 90
        5
102
RTVSPost2010Prop44ColorRGB
 90
      255
102
RTVSPost2010PropOp44
 70
     0
102
RTVSPost2010Prop45
280
     0
102
RTVSPost2010PropOp45
 70
     0
102
RTVSPost2010Prop46
 90
       50
102
RTVSPost2010PropOp46
 70
     0
102
RTVSPost2010Prop47
 90
       50
102
RTVSPost2010PropOp47
 70
     0
102
RTVSPost2010Prop48
 90
       50
102
RTVSPost2010PropOp48
 70
     0
102
RTVSPost2010Prop49
280
     0
102
RTVSPost2010PropOp49
 70
     0
102
RTVSPost2010Prop50
 90
       50
102
RTVSPost2010PropOp50
 70
     0
102
RTVSPost2010Prop51ColorIndex
 90
      256
102
RTVSPost2010Prop51ColorRGB
 90
-16777216
102
RTVSPost2010PropOp51
 70
     0
102
RTVSPost2010Prop52
140
1.0
102
RTVSPost2010PropOp52
 70
     0
102
RTVSPost2010Prop53
 90
        2
102
RTVSPost2010PropOp53
 70
     0
102
RTVSPost2010Prop54
  1
strokes_ogs.tif
102
RTVSPost2010PropOp54
 70
     0
102
RTVSPost2010Prop55
280
     0
102
RTVSPost2010PropOp55
 70
     0
102
RTVSPost2010Prop56
140
1.0
102
RTVSPost2010PropOp56
 70
     0
102
RTVSPost2010Prop57
140
1.0
102
RTVSPost2010PropOp57
 70
     0
  0
XRECORD
  5
2CA
102
{ACAD_REACTORS
330
2C9
102
}
330
2C9
100
AcDbXrecord
280
     1
102
RTVSPropertyOp0
 70
     1
102
RTVSPropertyOp1
 70
     1
102
RTVSPropertyOp2
 70
     1
102
RTVSPropertyOp3
 70
     1
102
RTVSPropertyOp4
 70
     1
102
RTVSPropertyOp5
 70
     1
102
RTVSPropertyOp6
 70
     1
102
RTVSPropertyOp7
 70
     1
102
RTVSPropertyOp8
 70
     1
102
RTVSPropertyOp9
 70
     1
102
RTVSPropertyOp10
 70
     1
102
RTVSPropertyOp11
 70
     1
102
RTVSPropertyOp12
 70
     1
102
RTVSPropertyOp13
 70
     1
102
RTVSPropertyOp14
 70
     1
102
RTVSPropertyOp15
 70
     1
102
RTVSPropertyOp16
 70
     1
102
RTVSPropertyOp17
 70
     1
102
RTVSPropertyOp18
 70
     1
102
RTVSPropertyOp19
 70
     1
102
RTVSPropertyOp20
 70
     1
102
RTVSPropertyOp21
 70
     1
102
RTVSPropertyOp22
 70
     1
102
RTVSPropertyOp23
 70
     1
102
RTVSPropertyOp24
 70
     1
102
RTVSPropertyOp25
 70
     1
102
RTVSPropertyOp26
 70
     1
102
RTVSPropertyOp27
 70
     1
102
RTVSPropertyOp28
 70
     1
102
RTVSPropertyOp29
 70
     1
102
RTVSPropertyOp30
 70
     1
102
RTVSPropertyOp31
 70
     1
102
RTVSPropertyOp32
 70
     1
102
RTVSPropertyOp33
 70
     1
102
RTVSPropertyOp34
 70
     1
102
RTVSPropertyOp35
 70
     1
102
RTVSPropertyOp36
 70
     1
102
RTVSPropertyOp37
 70
     1
102
RTVSPropertyOp38
 70
     1
102
RTVSPropertyOp39
 70
     1
102
RTVSPropertyOp40
 70
     1
102
RTVSPropertyOp41
 70
     1
102
RTVSPropertyOp42
 70
     1
102
RTVSPropertyOp43
 70
     1
102
RTVSPropertyOp44
 70
     1
102
RTVSPropertyOp45
 70
     1
102
RTVSPropertyOp46
 70
     1
102
RTVSPropertyOp47
 70
     1
102
RTVSPropertyOp48
 70
     1
102
RTVSPropertyOp49
 70
     1
102
RTVSPropertyOp50
 70
     1
102
RTVSPropertyOp51
 70
     0
102
RTVSPropertyOp52
 70
     0
102
RTVSPropertyOp53
 70
     1
102
RTVSPropertyOp54
 70
     1
102
RTVSPropertyOp55
 70
     1
102
RTVSPropertyOp56
 70
     1
102
RTVSPropertyOp57
 70
     1
102
RTVSPost2010Prop28
280
     0
102
RTVSPost2010PropOp28
 70
     1
102
RTVSPost2010Prop29
280
     1
102
RTVSPost2010PropOp29
 70
     1
102
RTVSPost2010Prop30
280
     1
102
RTVSPost2010PropOp30
 70
     1
102
RTVSPost2010Prop31
280
     0
102
RTVSPost2010PropOp31
 70
     1
102
RTVSPost2010Prop32
280
     0
102
RTVSPost2010PropOp32
 70
     1
102
RTVSPost2010Prop33
280
     0
102
RTVSPost2010PropOp33
 70
     1
102
RTVSPost2010Prop34
280
     0
102
RTVSPost2010PropOp34
 70
     1
102
RTVSPost2010Prop35
280
     0
102
RTVSPost2010PropOp35
 70
     1
102
RTVSPost2010Prop36
280
     0
102
RTVSPost2010PropOp36
 70
     1
102
RTVSPost2010Prop37
 90
       50
102
RTVSPost2010PropOp37
 70
     1
102
RTVSPost2010Prop38
140
0.0
102
RTVSPost2010PropOp38
 70
     1
102
RTVSPost2010Prop39
140
1.0
102
RTVSPost2010PropOp39
 70
     1
102
RTVSPost2010Prop40
 90
        0
102
RTVSPost2010PropOp40
 70
     1
102
RTVSPost2010Prop41ColorIndex
 90
       18
102
RTVSPost2010Prop41ColorRGB
 90
        0
102
RTVSPost2010PropOp41
 70
     1
102
RTVSPost2010Prop42
 90
       50
102
RTVSPost2010PropOp42
 70
     1
102
RTVSPost2010Prop43
 90
        3
102
RTVSPost2010PropOp43
 70
     1
102
RTVSPost2010Prop44ColorIndex
 90
        5
102
RTVSPost2010Prop44ColorRGB
 90
      255
102
RTVSPost2010PropOp44
 70
     1
102
RTVSPost2010Prop45
280
     0
102
RTVSPost2010PropOp45
 70
     1
102
RTVSPost2010Prop46
 90
       50
102
RTVSPost2010PropOp46
 70
     1
102
RTVSPost2010Prop47
 90
       50
102
RTVSPost2010PropOp47
 70
     1
102
RTVSPost2010Prop48
 90
       50
102
RTVSPost2010PropOp48
 70
     1
102
RTVSPost2010Prop49
280
     0
102
RTVSPost2010PropOp49
 70
     1
102
RTVSPost2010Prop50
 90
       50
102
RTVSPost2010PropOp50
 70
     1
102
RTVSPost2010Prop51ColorIndex
 90
      256
102
RTVSPost2010Prop51ColorRGB
 90
-16777216
102
RTVSPost2010PropOp51
 70
     0
102
RTVSPost2010Prop52
140
1.0
102
RTVSPost2010PropOp52
 70
     0
102
RTVSPost2010Prop53
 90
        2
102
RTVSPost2010PropOp53
 70
     1
102
RTVSPost2010Prop54
  1
strokes_ogs.tif
102
RTVSPost2010PropOp54
 70
     1
102
RTVSPost2010Prop55
280
     0
102
RTVSPost2010PropOp55
 70
     1
102
RTVSPost2010Prop56
140
1.0
102
RTVSPost2010PropOp56
 70
     1
102
RTVSPost2010Prop57
140
1.0
102
RTVSPost2010PropOp57
 70
     1
  0
XRECORD
  5
2AE
102
{ACAD_REACTORS
330
2AD
102
}
330
2AD
100
AcDbXrecord
280
     1
102
RTVSPropertyOp0
 70
     1
102
RTVSPropertyOp1
 70
     1
102
RTVSPropertyOp2
 70
     1
102
RTVSPropertyOp3
 70
     1
102
RTVSPropertyOp4
 70
     1
102
RTVSPropertyOp5
 70
     1
102
RTVSPropertyOp6
 70
     1
102
RTVSPropertyOp7
 70
     1
102
RTVSPropertyOp8
 70
     1
102
RTVSPropertyOp9
 70
     1
102
RTVSPropertyOp10
 70
     1
102
RTVSPropertyOp11
 70
     1
102
RTVSPropertyOp12
 70
     1
102
RTVSPropertyOp13
 70
     1
102
RTVSPropertyOp14
 70
     1
102
RTVSPropertyOp15
 70
     1
102
RTVSPropertyOp16
 70
     1
102
RTVSPropertyOp17
 70
     1
102
RTVSPropertyOp18
 70
     1
102
RTVSPropertyOp19
 70
     1
102
RTVSPropertyOp20
 70
     1
102
RTVSPropertyOp21
 70
     1
102
RTVSPropertyOp22
 70
     1
102
RTVSPropertyOp23
 70
     1
102
RTVSPropertyOp24
 70
     1
102
RTVSPropertyOp25
 70
     1
102
RTVSPropertyOp26
 70
     1
102
RTVSPropertyOp27
 70
     1
102
RTVSPropertyOp28
 70
     1
102
RTVSPropertyOp29
 70
     1
102
RTVSPropertyOp30
 70
     1
102
RTVSPropertyOp31
 70
     1
102
RTVSPropertyOp32
 70
     1
102
RTVSPropertyOp33
 70
     1
102
RTVSPropertyOp34
 70
     1
102
RTVSPropertyOp35
 70
     1
102
RTVSPropertyOp36
 70
     1
102
RTVSPropertyOp37
 70
     1
102
RTVSPropertyOp38
 70
     1
102
RTVSPropertyOp39
 70
     1
102
RTVSPropertyOp40
 70
     1
102
RTVSPropertyOp41
 70
     1
102
RTVSPropertyOp42
 70
     1
102
RTVSPropertyOp43
 70
     1
102
RTVSPropertyOp44
 70
     1
102
RTVSPropertyOp45
 70
     1
102
RTVSPropertyOp46
 70
     1
102
RTVSPropertyOp47
 70
     1
102
RTVSPropertyOp48
 70
     1
102
RTVSPropertyOp49
 70
     1
102
RTVSPropertyOp50
 70
     1
102
RTVSPropertyOp51
 70
     0
102
RTVSPropertyOp52
 70
     0
102
RTVSPropertyOp53
 70
     1
102
RTVSPropertyOp54
 70
     1
102
RTVSPropertyOp55
 70
     1
102
RTVSPropertyOp56
 70
     1
102
RTVSPropertyOp57
 70
     1
102
RTVSPost2010Prop28
280
     0
102
RTVSPost2010PropOp28
 70
     1
102
RTVSPost2010Prop29
280
     1
102
RTVSPost2010PropOp29
 70
     1
102
RTVSPost2010Prop30
280
     1
102
RTVSPost2010PropOp30
 70
     1
102
RTVSPost2010Prop31
280
     0
102
RTVSPost2010PropOp31
 70
     1
102
RTVSPost2010Prop32
280
     0
102
RTVSPost2010PropOp32
 70
     1
102
RTVSPost2010Prop33
280
     0
102
RTVSPost2010PropOp33
 70
     1
102
RTVSPost2010Prop34
280
     0
102
RTVSPost2010PropOp34
 70
     1
102
RTVSPost2010Prop35
280
     0
102
RTVSPost2010PropOp35
 70
     1
102
RTVSPost2010Prop36
280
     0
102
RTVSPost2010PropOp36
 70
     1
102
RTVSPost2010Prop37
 90
       50
102
RTVSPost2010PropOp37
 70
     1
102
RTVSPost2010Prop38
140
0.0
102
RTVSPost2010PropOp38
 70
     1
102
RTVSPost2010Prop39
140
1.0
102
RTVSPost2010PropOp39
 70
     1
102
RTVSPost2010Prop40
 90
        0
102
RTVSPost2010PropOp40
 70
     1
102
RTVSPost2010Prop41ColorIndex
 90
       18
102
RTVSPost2010Prop41ColorRGB
 90
        0
102
RTVSPost2010PropOp41
 70
     1
102
RTVSPost2010Prop42
 90
       50
102
RTVSPost2010PropOp42
 70
     1
102
RTVSPost2010Prop43
 90
        3
102
RTVSPost2010PropOp43
 70
     1
102
RTVSPost2010Prop44ColorIndex
 90
        5
102
RTVSPost2010Prop44ColorRGB
 90
      255
102
RTVSPost2010PropOp44
 70
     1
102
RTVSPost2010Prop45
280
     0
102
RTVSPost2010PropOp45
 70
     1
102
RTVSPost2010Prop46
 90
       50
102
RTVSPost2010PropOp46
 70
     1
102
RTVSPost2010Prop47
 90
       50
102
RTVSPost2010PropOp47
 70
     1
102
RTVSPost2010Prop48
 90
       50
102
RTVSPost2010PropOp48
 70
     1
102
RTVSPost2010Prop49
280
     0
102
RTVSPost2010PropOp49
 70
     1
102
RTVSPost2010Prop50
 90
       50
102
RTVSPost2010PropOp50
 70
     1
102
RTVSPost2010Prop51ColorIndex
 90
      256
102
RTVSPost2010Prop51ColorRGB
 90
-16777216
102
RTVSPost2010PropOp51
 70
     0
102
RTVSPost2010Prop52
140
1.0
102
RTVSPost2010PropOp52
 70
     0
102
RTVSPost2010Prop53
 90
        2
102
RTVSPost2010PropOp53
 70
     1
102
RTVSPost2010Prop54
  1
strokes_ogs.tif
102
RTVSPost2010PropOp54
 70
     1
102
RTVSPost2010Prop55
280
     0
102
RTVSPost2010PropOp55
 70
     1
102
RTVSPost2010Prop56
140
1.0
102
RTVSPost2010PropOp56
 70
     1
102
RTVSPost2010Prop57
140
1.0
102
RTVSPost2010PropOp57
 70
     1
  0
XRECORD
  5
2B0
102
{ACAD_REACTORS
330
2AF
102
}
330
2AF
100
AcDbXrecord
280
     1
102
RTVSPropertyOp0
 70
     1
102
RTVSPropertyOp1
 70
     1
102
RTVSPropertyOp2
 70
     1
102
RTVSPropertyOp3
 70
     1
102
RTVSPropertyOp4
 70
     1
102
RTVSPropertyOp5
 70
     1
102
RTVSPropertyOp6
 70
     1
102
RTVSPropertyOp7
 70
     1
102
RTVSPropertyOp8
 70
     1
102
RTVSPropertyOp9
 70
     1
102
RTVSPropertyOp10
 70
     1
102
RTVSPropertyOp11
 70
     1
102
RTVSPropertyOp12
 70
     1
102
RTVSPropertyOp13
 70
     1
102
RTVSPropertyOp14
 70
     1
102
RTVSPropertyOp15
 70
     1
102
RTVSPropertyOp16
 70
     1
102
RTVSPropertyOp17
 70
     1
102
RTVSPropertyOp18
 70
     1
102
RTVSPropertyOp19
 70
     1
102
RTVSPropertyOp20
 70
     1
102
RTVSPropertyOp21
 70
     1
102
RTVSPropertyOp22
 70
     1
102
RTVSPropertyOp23
 70
     1
102
RTVSPropertyOp24
 70
     1
102
RTVSPropertyOp25
 70
     1
102
RTVSPropertyOp26
 70
     1
102
RTVSPropertyOp27
 70
     1
102
RTVSPropertyOp28
 70
     1
102
RTVSPropertyOp29
 70
     1
102
RTVSPropertyOp30
 70
     1
102
RTVSPropertyOp31
 70
     1
102
RTVSPropertyOp32
 70
     1
102
RTVSPropertyOp33
 70
     1
102
RTVSPropertyOp34
 70
     1
102
RTVSPropertyOp35
 70
     1
102
RTVSPropertyOp36
 70
     1
102
RTVSPropertyOp37
 70
     1
102
RTVSPropertyOp38
 70
     1
102
RTVSPropertyOp39
 70
     1
102
RTVSPropertyOp40
 70
     1
102
RTVSPropertyOp41
 70
     1
102
RTVSPropertyOp42
 70
     1
102
RTVSPropertyOp43
 70
     1
102
RTVSPropertyOp44
 70
     1
102
RTVSPropertyOp45
 70
     1
102
RTVSPropertyOp46
 70
     1
102
RTVSPropertyOp47
 70
     1
102
RTVSPropertyOp48
 70
     1
102
RTVSPropertyOp49
 70
     1
102
RTVSPropertyOp50
 70
     1
102
RTVSPropertyOp51
 70
     0
102
RTVSPropertyOp52
 70
     0
102
RTVSPropertyOp53
 70
     1
102
RTVSPropertyOp54
 70
     1
102
RTVSPropertyOp55
 70
     1
102
RTVSPropertyOp56
 70
     1
102
RTVSPropertyOp57
 70
     1
102
RTVSPost2010Prop28
280
     0
102
RTVSPost2010PropOp28
 70
     1
102
RTVSPost2010Prop29
280
     1
102
RTVSPost2010PropOp29
 70
     1
102
RTVSPost2010Prop30
280
     1
102
RTVSPost2010PropOp30
 70
     1
102
RTVSPost2010Prop31
280
     0
102
RTVSPost2010PropOp31
 70
     1
102
RTVSPost2010Prop32
280
     0
102
RTVSPost2010PropOp32
 70
     1
102
RTVSPost2010Prop33
280
     0
102
RTVSPost2010PropOp33
 70
     1
102
RTVSPost2010Prop34
280
     0
102
RTVSPost2010PropOp34
 70
     1
102
RTVSPost2010Prop35
280
     0
102
RTVSPost2010PropOp35
 70
     1
102
RTVSPost2010Prop36
280
     0
102
RTVSPost2010PropOp36
 70
     1
102
RTVSPost2010Prop37
 90
       50
102
RTVSPost2010PropOp37
 70
     1
102
RTVSPost2010Prop38
140
0.0
102
RTVSPost2010PropOp38
 70
     1
102
RTVSPost2010Prop39
140
1.0
102
RTVSPost2010PropOp39
 70
     1
102
RTVSPost2010Prop40
 90
        0
102
RTVSPost2010PropOp40
 70
     1
102
RTVSPost2010Prop41ColorIndex
 90
       18
102
RTVSPost2010Prop41ColorRGB
 90
        0
102
RTVSPost2010PropOp41
 70
     1
102
RTVSPost2010Prop42
 90
       50
102
RTVSPost2010PropOp42
 70
     1
102
RTVSPost2010Prop43
 90
        3
102
RTVSPost2010PropOp43
 70
     1
102
RTVSPost2010Prop44ColorIndex
 90
        5
102
RTVSPost2010Prop44ColorRGB
 90
      255
102
RTVSPost2010PropOp44
 70
     1
102
RTVSPost2010Prop45
280
     0
102
RTVSPost2010PropOp45
 70
     1
102
RTVSPost2010Prop46
 90
       50
102
RTVSPost2010PropOp46
 70
     1
102
RTVSPost2010Prop47
 90
       50
102
RTVSPost2010PropOp47
 70
     1
102
RTVSPost2010Prop48
 90
       50
102
RTVSPost2010PropOp48
 70
     1
102
RTVSPost2010Prop49
280
     0
102
RTVSPost2010PropOp49
 70
     1
102
RTVSPost2010Prop50
 90
       50
102
RTVSPost2010PropOp50
 70
     1
102
RTVSPost2010Prop51ColorIndex
 90
      256
102
RTVSPost2010Prop51ColorRGB
 90
-16777216
102
RTVSPost2010PropOp51
 70
     0
102
RTVSPost2010Prop52
140
1.0
102
RTVSPost2010PropOp52
 70
     0
102
RTVSPost2010Prop53
 90
        2
102
RTVSPost2010PropOp53
 70
     1
102
RTVSPost2010Prop54
  1
strokes_ogs.tif
102
RTVSPost2010PropOp54
 70
     1
102
RTVSPost2010Prop55
280
     0
102
RTVSPost2010PropOp55
 70
     1
102
RTVSPost2010Prop56
140
1.0
102
RTVSPost2010PropOp56
 70
     1
102
RTVSPost2010Prop57
140
1.0
102
RTVSPost2010PropOp57
 70
     1
  0
XRECORD
  5
2B2
102
{ACAD_REACTORS
330
2B1
102
}
330
2B1
100
AcDbXrecord
280
     1
102
RTVSPropertyOp0
 70
     1
102
RTVSPropertyOp1
 70
     1
102
RTVSPropertyOp2
 70
     1
102
RTVSPropertyOp3
 70
     1
102
RTVSPropertyOp4
 70
     1
102
RTVSPropertyOp5
 70
     1
102
RTVSPropertyOp6
 70
     1
102
RTVSPropertyOp7
 70
     1
102
RTVSPropertyOp8
 70
     1
102
RTVSPropertyOp9
 70
     1
102
RTVSPropertyOp10
 70
     1
102
RTVSPropertyOp11
 70
     1
102
RTVSPropertyOp12
 70
     1
102
RTVSPropertyOp13
 70
     1
102
RTVSPropertyOp14
 70
     1
102
RTVSPropertyOp15
 70
     1
102
RTVSPropertyOp16
 70
     1
102
RTVSPropertyOp17
 70
     1
102
RTVSPropertyOp18
 70
     1
102
RTVSPropertyOp19
 70
     1
102
RTVSPropertyOp20
 70
     1
102
RTVSPropertyOp21
 70
     1
102
RTVSPropertyOp22
 70
     1
102
RTVSPropertyOp23
 70
     1
102
RTVSPropertyOp24
 70
     1
102
RTVSPropertyOp25
 70
     1
102
RTVSPropertyOp26
 70
     1
102
RTVSPropertyOp27
 70
     1
102
RTVSPropertyOp28
 70
     1
102
RTVSPropertyOp29
 70
     1
102
RTVSPropertyOp30
 70
     1
102
RTVSPropertyOp31
 70
     1
102
RTVSPropertyOp32
 70
     1
102
RTVSPropertyOp33
 70
     1
102
RTVSPropertyOp34
 70
     1
102
RTVSPropertyOp35
 70
     1
102
RTVSPropertyOp36
 70
     1
102
RTVSPropertyOp37
 70
     1
102
RTVSPropertyOp38
 70
     1
102
RTVSPropertyOp39
 70
     1
102
RTVSPropertyOp40
 70
     1
102
RTVSPropertyOp41
 70
     1
102
RTVSPropertyOp42
 70
     1
102
RTVSPropertyOp43
 70
     1
102
RTVSPropertyOp44
 70
     1
102
RTVSPropertyOp45
 70
     1
102
RTVSPropertyOp46
 70
     1
102
RTVSPropertyOp47
 70
     1
102
RTVSPropertyOp48
 70
     1
102
RTVSPropertyOp49
 70
     1
102
RTVSPropertyOp50
 70
     1
102
RTVSPropertyOp51
 70
     0
102
RTVSPropertyOp52
 70
     0
102
RTVSPropertyOp53
 70
     1
102
RTVSPropertyOp54
 70
     1
102
RTVSPropertyOp55
 70
     1
102
RTVSPropertyOp56
 70
     1
102
RTVSPropertyOp57
 70
     1
102
RTVSPost2010Prop28
280
     0
102
RTVSPost2010PropOp28
 70
     1
102
RTVSPost2010Prop29
280
     1
102
RTVSPost2010PropOp29
 70
     1
102
RTVSPost2010Prop30
280
     1
102
RTVSPost2010PropOp30
 70
     1
102
RTVSPost2010Prop31
280
     0
102
RTVSPost2010PropOp31
 70
     1
102
RTVSPost2010Prop32
280
     0
102
RTVSPost2010PropOp32
 70
     1
102
RTVSPost2010Prop33
280
     0
102
RTVSPost2010PropOp33
 70
     1
102
RTVSPost2010Prop34
280
     0
102
RTVSPost2010PropOp34
 70
     1
102
RTVSPost2010Prop35
280
     0
102
RTVSPost2010PropOp35
 70
     1
102
RTVSPost2010Prop36
280
     0
102
RTVSPost2010PropOp36
 70
     1
102
RTVSPost2010Prop37
 90
       50
102
RTVSPost2010PropOp37
 70
     1
102
RTVSPost2010Prop38
140
0.0
102
RTVSPost2010PropOp38
 70
     1
102
RTVSPost2010Prop39
140
1.0
102
RTVSPost2010PropOp39
 70
     1
102
RTVSPost2010Prop40
 90
        0
102
RTVSPost2010PropOp40
 70
     1
102
RTVSPost2010Prop41ColorIndex
 90
       18
102
RTVSPost2010Prop41ColorRGB
 90
        0
102
RTVSPost2010PropOp41
 70
     1
102
RTVSPost2010Prop42
 90
       50
102
RTVSPost2010PropOp42
 70
     1
102
RTVSPost2010Prop43
 90
        3
102
RTVSPost2010PropOp43
 70
     1
102
RTVSPost2010Prop44ColorIndex
 90
        5
102
RTVSPost2010Prop44ColorRGB
 90
      255
102
RTVSPost2010PropOp44
 70
     1
102
RTVSPost2010Prop45
280
     0
102
RTVSPost2010PropOp45
 70
     1
102
RTVSPost2010Prop46
 90
       50
102
RTVSPost2010PropOp46
 70
     1
102
RTVSPost2010Prop47
 90
       50
102
RTVSPost2010PropOp47
 70
     1
102
RTVSPost2010Prop48
 90
       50
102
RTVSPost2010PropOp48
 70
     1
102
RTVSPost2010Prop49
280
     0
102
RTVSPost2010PropOp49
 70
     1
102
RTVSPost2010Prop50
 90
       50
102
RTVSPost2010PropOp50
 70
     1
102
RTVSPost2010Prop51ColorIndex
 90
      256
102
RTVSPost2010Prop51ColorRGB
 90
-16777216
102
RTVSPost2010PropOp51
 70
     0
102
RTVSPost2010Prop52
140
1.0
102
RTVSPost2010PropOp52
 70
     0
102
RTVSPost2010Prop53
 90
        2
102
RTVSPost2010PropOp53
 70
     1
102
RTVSPost2010Prop54
  1
strokes_ogs.tif
102
RTVSPost2010PropOp54
 70
     1
102
RTVSPost2010Prop55
280
     0
102
RTVSPost2010PropOp55
 70
     1
102
RTVSPost2010Prop56
140
1.0
102
RTVSPost2010PropOp56
 70
     1
102
RTVSPost2010Prop57
140
1.0
102
RTVSPost2010PropOp57
 70
     1
  0
XRECORD
  5
2B4
102
{ACAD_REACTORS
330
2B3
102
}
330
2B3
100
AcDbXrecord
280
     1
102
RTVSPropertyOp0
 70
     1
102
RTVSPropertyOp1
 70
     1
102
RTVSPropertyOp2
 70
     1
102
RTVSPropertyOp3
 70
     1
102
RTVSPropertyOp4
 70
     1
102
RTVSPropertyOp5
 70
     1
102
RTVSPropertyOp6
 70
     1
102
RTVSPropertyOp7
 70
     1
102
RTVSPropertyOp8
 70
     1
102
RTVSPropertyOp9
 70
     1
102
RTVSPropertyOp10
 70
     1
102
RTVSPropertyOp11
 70
     1
102
RTVSPropertyOp12
 70
     1
102
RTVSPropertyOp13
 70
     1
102
RTVSPropertyOp14
 70
     1
102
RTVSPropertyOp15
 70
     1
102
RTVSPropertyOp16
 70
     1
102
RTVSPropertyOp17
 70
     1
102
RTVSPropertyOp18
 70
     1
102
RTVSPropertyOp19
 70
     1
102
RTVSPropertyOp20
 70
     1
102
RTVSPropertyOp21
 70
     1
102
RTVSPropertyOp22
 70
     1
102
RTVSPropertyOp23
 70
     1
102
RTVSPropertyOp24
 70
     1
102
RTVSPropertyOp25
 70
     1
102
RTVSPropertyOp26
 70
     1
102
RTVSPropertyOp27
 70
     1
102
RTVSPropertyOp28
 70
     1
102
RTVSPropertyOp29
 70
     1
102
RTVSPropertyOp30
 70
     1
102
RTVSPropertyOp31
 70
     1
102
RTVSPropertyOp32
 70
     1
102
RTVSPropertyOp33
 70
     1
102
RTVSPropertyOp34
 70
     1
102
RTVSPropertyOp35
 70
     1
102
RTVSPropertyOp36
 70
     1
102
RTVSPropertyOp37
 70
     1
102
RTVSPropertyOp38
 70
     1
102
RTVSPropertyOp39
 70
     1
102
RTVSPropertyOp40
 70
     1
102
RTVSPropertyOp41
 70
     1
102
RTVSPropertyOp42
 70
     1
102
RTVSPropertyOp43
 70
     1
102
RTVSPropertyOp44
 70
     1
102
RTVSPropertyOp45
 70
     1
102
RTVSPropertyOp46
 70
     1
102
RTVSPropertyOp47
 70
     1
102
RTVSPropertyOp48
 70
     1
102
RTVSPropertyOp49
 70
     1
102
RTVSPropertyOp50
 70
     1
102
RTVSPropertyOp51
 70
     0
102
RTVSPropertyOp52
 70
     0
102
RTVSPropertyOp53
 70
     1
102
RTVSPropertyOp54
 70
     1
102
RTVSPropertyOp55
 70
     1
102
RTVSPropertyOp56
 70
     1
102
RTVSPropertyOp57
 70
     1
102
RTVSPost2010Prop28
280
     0
102
RTVSPost2010PropOp28
 70
     1
102
RTVSPost2010Prop29
280
     1
102
RTVSPost2010PropOp29
 70
     1
102
RTVSPost2010Prop30
280
     1
102
RTVSPost2010PropOp30
 70
     1
102
RTVSPost2010Prop31
280
     0
102
RTVSPost2010PropOp31
 70
     1
102
RTVSPost2010Prop32
280
     0
102
RTVSPost2010PropOp32
 70
     1
102
RTVSPost2010Prop33
280
     0
102
RTVSPost2010PropOp33
 70
     1
102
RTVSPost2010Prop34
280
     0
102
RTVSPost2010PropOp34
 70
     1
102
RTVSPost2010Prop35
280
     0
102
RTVSPost2010PropOp35
 70
     1
102
RTVSPost2010Prop36
280
     0
102
RTVSPost2010PropOp36
 70
     1
102
RTVSPost2010Prop37
 90
       50
102
RTVSPost2010PropOp37
 70
     1
102
RTVSPost2010Prop38
140
0.0
102
RTVSPost2010PropOp38
 70
     1
102
RTVSPost2010Prop39
140
1.0
102
RTVSPost2010PropOp39
 70
     1
102
RTVSPost2010Prop40
 90
        0
102
RTVSPost2010PropOp40
 70
     1
102
RTVSPost2010Prop41ColorIndex
 90
       18
102
RTVSPost2010Prop41ColorRGB
 90
        0
102
RTVSPost2010PropOp41
 70
     1
102
RTVSPost2010Prop42
 90
       50
102
RTVSPost2010PropOp42
 70
     1
102
RTVSPost2010Prop43
 90
        3
102
RTVSPost2010PropOp43
 70
     1
102
RTVSPost2010Prop44ColorIndex
 90
        5
102
RTVSPost2010Prop44ColorRGB
 90
      255
102
RTVSPost2010PropOp44
 70
     1
102
RTVSPost2010Prop45
280
     0
102
RTVSPost2010PropOp45
 70
     1
102
RTVSPost2010Prop46
 90
       50
102
RTVSPost2010PropOp46
 70
     1
102
RTVSPost2010Prop47
 90
       50
102
RTVSPost2010PropOp47
 70
     1
102
RTVSPost2010Prop48
 90
       50
102
RTVSPost2010PropOp48
 70
     1
102
RTVSPost2010Prop49
280
     0
102
RTVSPost2010PropOp49
 70
     1
102
RTVSPost2010Prop50
 90
       50
102
RTVSPost2010PropOp50
 70
     1
102
RTVSPost2010Prop51ColorIndex
 90
      256
102
RTVSPost2010Prop51ColorRGB
 90
-16777216
102
RTVSPost2010PropOp51
 70
     0
102
RTVSPost2010Prop52
140
1.0
102
RTVSPost2010PropOp52
 70
     0
102
RTVSPost2010Prop53
 90
        2
102
RTVSPost2010PropOp53
 70
     1
102
RTVSPost2010Prop54
  1
strokes_ogs.tif
102
RTVSPost2010PropOp54
 70
     1
102
RTVSPost2010Prop55
280
     0
102
RTVSPost2010PropOp55
 70
     1
102
RTVSPost2010Prop56
140
1.0
102
RTVSPost2010PropOp56
 70
     1
102
RTVSPost2010Prop57
140
1.0
102
RTVSPost2010PropOp57
 70
     1
  0
XRECORD
  5
2BA
102
{ACAD_REACTORS
330
2B9
102
}
330
2B9
100
AcDbXrecord
280
     1
102
RTVSPropertyOp0
 70
     1
102
RTVSPropertyOp1
 70
     1
102
RTVSPropertyOp2
 70
     1
102
RTVSPropertyOp3
 70
     1
102
RTVSPropertyOp4
 70
     1
102
RTVSPropertyOp5
 70
     1
102
RTVSPropertyOp6
 70
     1
102
RTVSPropertyOp7
 70
     1
102
RTVSPropertyOp8
 70
     1
102
RTVSPropertyOp9
 70
     1
102
RTVSPropertyOp10
 70
     1
102
RTVSPropertyOp11
 70
     1
102
RTVSPropertyOp12
 70
     1
102
RTVSPropertyOp13
 70
     1
102
RTVSPropertyOp14
 70
     1
102
RTVSPropertyOp15
 70
     1
102
RTVSPropertyOp16
 70
     1
102
RTVSPropertyOp17
 70
     1
102
RTVSPropertyOp18
 70
     1
102
RTVSPropertyOp19
 70
     1
102
RTVSPropertyOp20
 70
     1
102
RTVSPropertyOp21
 70
     1
102
RTVSPropertyOp22
 70
     1
102
RTVSPropertyOp23
 70
     1
102
RTVSPropertyOp24
 70
     1
102
RTVSPropertyOp25
 70
     1
102
RTVSPropertyOp26
 70
     1
102
RTVSPropertyOp27
 70
     1
102
RTVSPropertyOp28
 70
     1
102
RTVSPropertyOp29
 70
     1
102
RTVSPropertyOp30
 70
     1
102
RTVSPropertyOp31
 70
     1
102
RTVSPropertyOp32
 70
     1
102
RTVSPropertyOp33
 70
     1
102
RTVSPropertyOp34
 70
     1
102
RTVSPropertyOp35
 70
     1
102
RTVSPropertyOp36
 70
     1
102
RTVSPropertyOp37
 70
     1
102
RTVSPropertyOp38
 70
     1
102
RTVSPropertyOp39
 70
     1
102
RTVSPropertyOp40
 70
     1
102
RTVSPropertyOp41
 70
     1
102
RTVSPropertyOp42
 70
     1
102
RTVSPropertyOp43
 70
     1
102
RTVSPropertyOp44
 70
     1
102
RTVSPropertyOp45
 70
     1
102
RTVSPropertyOp46
 70
     1
102
RTVSPropertyOp47
 70
     1
102
RTVSPropertyOp48
 70
     1
102
RTVSPropertyOp49
 70
     1
102
RTVSPropertyOp50
 70
     1
102
RTVSPropertyOp51
 70
     0
102
RTVSPropertyOp52
 70
     0
102
RTVSPropertyOp53
 70
     1
102
RTVSPropertyOp54
 70
     1
102
RTVSPropertyOp55
 70
     1
102
RTVSPropertyOp56
 70
     1
102
RTVSPropertyOp57
 70
     1
102
RTVSPost2010Prop28
280
     0
102
RTVSPost2010PropOp28
 70
     1
102
RTVSPost2010Prop29
280
     1
102
RTVSPost2010PropOp29
 70
     1
102
RTVSPost2010Prop30
280
     1
102
RTVSPost2010PropOp30
 70
     1
102
RTVSPost2010Prop31
280
     0
102
RTVSPost2010PropOp31
 70
     1
102
RTVSPost2010Prop32
280
     0
102
RTVSPost2010PropOp32
 70
     1
102
RTVSPost2010Prop33
280
     0
102
RTVSPost2010PropOp33
 70
     1
102
RTVSPost2010Prop34
280
     0
102
RTVSPost2010PropOp34
 70
     1
102
RTVSPost2010Prop35
280
     0
102
RTVSPost2010PropOp35
 70
     1
102
RTVSPost2010Prop36
280
     0
102
RTVSPost2010PropOp36
 70
     1
102
RTVSPost2010Prop37
 90
       50
102
RTVSPost2010PropOp37
 70
     1
102
RTVSPost2010Prop38
140
0.0
102
RTVSPost2010PropOp38
 70
     1
102
RTVSPost2010Prop39
140
1.0
102
RTVSPost2010PropOp39
 70
     1
102
RTVSPost2010Prop40
 90
        0
102
RTVSPost2010PropOp40
 70
     1
102
RTVSPost2010Prop41ColorIndex
 90
       18
102
RTVSPost2010Prop41ColorRGB
 90
        0
102
RTVSPost2010PropOp41
 70
     1
102
RTVSPost2010Prop42
 90
       50
102
RTVSPost2010PropOp42
 70
     1
102
RTVSPost2010Prop43
 90
        3
102
RTVSPost2010PropOp43
 70
     1
102
RTVSPost2010Prop44ColorIndex
 90
        5
102
RTVSPost2010Prop44ColorRGB
 90
      255
102
RTVSPost2010PropOp44
 70
     1
102
RTVSPost2010Prop45
280
     0
102
RTVSPost2010PropOp45
 70
     1
102
RTVSPost2010Prop46
 90
       50
102
RTVSPost2010PropOp46
 70
     1
102
RTVSPost2010Prop47
 90
       50
102
RTVSPost2010PropOp47
 70
     1
102
RTVSPost2010Prop48
 90
       50
102
RTVSPost2010PropOp48
 70
     1
102
RTVSPost2010Prop49
280
     0
102
RTVSPost2010PropOp49
 70
     1
102
RTVSPost2010Prop50
 90
       50
102
RTVSPost2010PropOp50
 70
     1
102
RTVSPost2010Prop51ColorIndex
 90
      256
102
RTVSPost2010Prop51ColorRGB
 90
-16777216
102
RTVSPost2010PropOp51
 70
     0
102
RTVSPost2010Prop52
140
1.0
102
RTVSPost2010PropOp52
 70
     0
102
RTVSPost2010Prop53
 90
        2
102
RTVSPost2010PropOp53
 70
     1
102
RTVSPost2010Prop54
  1
strokes_ogs.tif
102
RTVSPost2010PropOp54
 70
     1
102
RTVSPost2010Prop55
280
     0
102
RTVSPost2010PropOp55
 70
     1
102
RTVSPost2010Prop56
140
1.0
102
RTVSPost2010PropOp56
 70
     1
102
RTVSPost2010Prop57
140
1.0
102
RTVSPost2010PropOp57
 70
     1
  0
XRECORD
  5
2CE
102
{ACAD_REACTORS
330
2CD
102
}
330
2CD
100
AcDbXrecord
280
     1
102
RTVSPropertyOp0
 70
     0
102
RTVSPropertyOp1
 70
     0
102
RTVSPropertyOp2
 70
     0
102
RTVSPropertyOp3
 70
     0
102
RTVSPropertyOp4
 70
     0
102
RTVSPropertyOp5
 70
     0
102
RTVSPropertyOp6
 70
     0
102
RTVSPropertyOp7
 70
     0
102
RTVSPropertyOp8
 70
     0
102
RTVSPropertyOp9
 70
     0
102
RTVSPropertyOp10
 70
     0
102
RTVSPropertyOp11
 70
     0
102
RTVSPropertyOp12
 70
     0
102
RTVSPropertyOp13
 70
     0
102
RTVSPropertyOp14
 70
     2
102
RTVSPropertyOp15
 70
     0
102
RTVSPropertyOp16
 70
     0
102
RTVSPropertyOp17
 70
     0
102
RTVSPropertyOp18
 70
     0
102
RTVSPropertyOp19
 70
     0
102
RTVSPropertyOp20
 70
     0
102
RTVSPropertyOp21
 70
     0
102
RTVSPropertyOp22
 70
     0
102
RTVSPropertyOp23
 70
     0
102
RTVSPropertyOp24
 70
     0
102
RTVSPropertyOp25
 70
     0
102
RTVSPropertyOp26
 70
     0
102
RTVSPropertyOp27
 70
     0
102
RTVSPropertyOp28
 70
     0
102
RTVSPropertyOp29
 70
     0
102
RTVSPropertyOp30
 70
     0
102
RTVSPropertyOp31
 70
     0
102
RTVSPropertyOp32
 70
     0
102
RTVSPropertyOp33
 70
     0
102
RTVSPropertyOp34
 70
     0
102
RTVSPropertyOp35
 70
     0
102
RTVSPropertyOp36
 70
     0
102
RTVSPropertyOp37
 70
     0
102
RTVSPropertyOp38
 70
     0
102
RTVSPropertyOp39
 70
     0
102
RTVSPropertyOp40
 70
     0
102
RTVSPropertyOp41
 70
     0
102
RTVSPropertyOp42
 70
     0
102
RTVSPropertyOp43
 70
     0
102
RTVSPropertyOp44
 70
     0
102
RTVSPropertyOp45
 70
     0
102
RTVSPropertyOp46
 70
     0
102
RTVSPropertyOp47
 70
     0
102
RTVSPropertyOp48
 70
     0
102
RTVSPropertyOp49
 70
     0
102
RTVSPropertyOp50
 70
     0
102
RTVSPropertyOp51
 70
     0
102
RTVSPropertyOp52
 70
     0
102
RTVSPropertyOp53
 70
     0
102
RTVSPropertyOp54
 70
     0
102
RTVSPropertyOp55
 70
     0
102
RTVSPropertyOp56
 70
     0
102
RTVSPropertyOp57
 70
     0
102
RTVSPost2010Prop28
280
     0
102
RTVSPost2010PropOp28
 70
     0
102
RTVSPost2010Prop29
280
     1
102
RTVSPost2010PropOp29
 70
     0
102
RTVSPost2010Prop30
280
     1
102
RTVSPost2010PropOp30
 70
     0
102
RTVSPost2010Prop31
280
     0
102
RTVSPost2010PropOp31
 70
     0
102
RTVSPost2010Prop32
280
     0
102
RTVSPost2010PropOp32
 70
     0
102
RTVSPost2010Prop33
280
     0
102
RTVSPost2010PropOp33
 70
     0
102
RTVSPost2010Prop34
280
     0
102
RTVSPost2010PropOp34
 70
     0
102
RTVSPost2010Prop35
280
     0
102
RTVSPost2010PropOp35
 70
     0
102
RTVSPost2010Prop36
280
     0
102
RTVSPost2010PropOp36
 70
     0
102
RTVSPost2010Prop37
 90
       50
102
RTVSPost2010PropOp37
 70
     0
102
RTVSPost2010Prop38
140
0.0
102
RTVSPost2010PropOp38
 70
     0
102
RTVSPost2010Prop39
140
1.0
102
RTVSPost2010PropOp39
 70
     0
102
RTVSPost2010Prop40
 90
        0
102
RTVSPost2010PropOp40
 70
     0
102
RTVSPost2010Prop41ColorIndex
 90
       18
102
RTVSPost2010Prop41ColorRGB
 90
        0
102
RTVSPost2010PropOp41
 70
     0
102
RTVSPost2010Prop42
 90
       50
102
RTVSPost2010PropOp42
 70
     0
102
RTVSPost2010Prop43
 90
        3
102
RTVSPost2010PropOp43
 70
     0
102
RTVSPost2010Prop44ColorIndex
 90
        5
102
RTVSPost2010Prop44ColorRGB
 90
      255
102
RTVSPost2010PropOp44
 70
     0
102
RTVSPost2010Prop45
280
     0
102
RTVSPost2010PropOp45
 70
     0
102
RTVSPost2010Prop46
 90
       50
102
RTVSPost2010PropOp46
 70
     0
102
RTVSPost2010Prop47
 90
       50
102
RTVSPost2010PropOp47
 70
     0
102
RTVSPost2010Prop48
 90
       50
102
RTVSPost2010PropOp48
 70
     0
102
RTVSPost2010Prop49
280
     0
102
RTVSPost2010PropOp49
 70
     0
102
RTVSPost2010Prop50
 90
       50
102
RTVSPost2010PropOp50
 70
     0
102
RTVSPost2010Prop51ColorIndex
 90
      256
102
RTVSPost2010Prop51ColorRGB
 90
-16777216
102
RTVSPost2010PropOp51
 70
     0
102
RTVSPost2010Prop52
140
1.0
102
RTVSPost2010PropOp52
 70
     0
102
RTVSPost2010Prop53
 90
        2
102
RTVSPost2010PropOp53
 70
     0
102
RTVSPost2010Prop54
  1
strokes_ogs.tif
102
RTVSPost2010PropOp54
 70
     0
102
RTVSPost2010Prop55
280
     0
102
RTVSPost2010PropOp55
 70
     0
102
RTVSPost2010Prop56
140
1.0
102
RTVSPost2010PropOp56
 70
     0
102
RTVSPost2010Prop57
140
1.0
102
RTVSPost2010PropOp57
 70
     0
  0
XRECORD
  5
2C8
102
{ACAD_REACTORS
330
2C7
102
}
330
2C7
100
AcDbXrecord
280
     1
102
RTVSPropertyOp0
 70
     1
102
RTVSPropertyOp1
 70
     1
102
RTVSPropertyOp2
 70
     1
102
RTVSPropertyOp3
 70
     1
102
RTVSPropertyOp4
 70
     1
102
RTVSPropertyOp5
 70
     1
102
RTVSPropertyOp6
 70
     1
102
RTVSPropertyOp7
 70
     1
102
RTVSPropertyOp8
 70
     1
102
RTVSPropertyOp9
 70
     1
102
RTVSPropertyOp10
 70
     1
102
RTVSPropertyOp11
 70
     1
102
RTVSPropertyOp12
 70
     1
102
RTVSPropertyOp13
 70
     1
102
RTVSPropertyOp14
 70
     1
102
RTVSPropertyOp15
 70
     1
102
RTVSPropertyOp16
 70
     1
102
RTVSPropertyOp17
 70
     1
102
RTVSPropertyOp18
 70
     1
102
RTVSPropertyOp19
 70
     1
102
RTVSPropertyOp20
 70
     1
102
RTVSPropertyOp21
 70
     1
102
RTVSPropertyOp22
 70
     1
102
RTVSPropertyOp23
 70
     1
102
RTVSPropertyOp24
 70
     1
102
RTVSPropertyOp25
 70
     1
102
RTVSPropertyOp26
 70
     1
102
RTVSPropertyOp27
 70
     1
102
RTVSPropertyOp28
 70
     1
102
RTVSPropertyOp29
 70
     1
102
RTVSPropertyOp30
 70
     1
102
RTVSPropertyOp31
 70
     1
102
RTVSPropertyOp32
 70
     1
102
RTVSPropertyOp33
 70
     1
102
RTVSPropertyOp34
 70
     1
102
RTVSPropertyOp35
 70
     1
102
RTVSPropertyOp36
 70
     1
102
RTVSPropertyOp37
 70
     1
102
RTVSPropertyOp38
 70
     1
102
RTVSPropertyOp39
 70
     1
102
RTVSPropertyOp40
 70
     1
102
RTVSPropertyOp41
 70
     1
102
RTVSPropertyOp42
 70
     1
102
RTVSPropertyOp43
 70
     1
102
RTVSPropertyOp44
 70
     1
102
RTVSPropertyOp45
 70
     1
102
RTVSPropertyOp46
 70
     1
102
RTVSPropertyOp47
 70
     1
102
RTVSPropertyOp48
 70
     1
102
RTVSPropertyOp49
 70
     1
102
RTVSPropertyOp50
 70
     1
102
RTVSPropertyOp51
 70
     0
102
RTVSPropertyOp52
 70
     0
102
RTVSPropertyOp53
 70
     1
102
RTVSPropertyOp54
 70
     1
102
RTVSPropertyOp55
 70
     1
102
RTVSPropertyOp56
 70
     1
102
RTVSPropertyOp57
 70
     1
102
RTVSPost2010Prop28
280
     0
102
RTVSPost2010PropOp28
 70
     1
102
RTVSPost2010Prop29
280
     1
102
RTVSPost2010PropOp29
 70
     1
102
RTVSPost2010Prop30
280
     1
102
RTVSPost2010PropOp30
 70
     1
102
RTVSPost2010Prop31
280
     0
102
RTVSPost2010PropOp31
 70
     1
102
RTVSPost2010Prop32
280
     0
102
RTVSPost2010PropOp32
 70
     1
102
RTVSPost2010Prop33
280
     0
102
RTVSPost2010PropOp33
 70
     1
102
RTVSPost2010Prop34
280
     0
102
RTVSPost2010PropOp34
 70
     1
102
RTVSPost2010Prop35
280
     0
102
RTVSPost2010PropOp35
 70
     1
102
RTVSPost2010Prop36
280
     0
102
RTVSPost2010PropOp36
 70
     1
102
RTVSPost2010Prop37
 90
       50
102
RTVSPost2010PropOp37
 70
     1
102
RTVSPost2010Prop38
140
0.0
102
RTVSPost2010PropOp38
 70
     1
102
RTVSPost2010Prop39
140
1.0
102
RTVSPost2010PropOp39
 70
     1
102
RTVSPost2010Prop40
 90
        0
102
RTVSPost2010PropOp40
 70
     1
102
RTVSPost2010Prop41ColorIndex
 90
       18
102
RTVSPost2010Prop41ColorRGB
 90
        0
102
RTVSPost2010PropOp41
 70
     1
102
RTVSPost2010Prop42
 90
       50
102
RTVSPost2010PropOp42
 70
     1
102
RTVSPost2010Prop43
 90
        3
102
RTVSPost2010PropOp43
 70
     1
102
RTVSPost2010Prop44ColorIndex
 90
        5
102
RTVSPost2010Prop44ColorRGB
 90
      255
102
RTVSPost2010PropOp44
 70
     1
102
RTVSPost2010Prop45
280
     0
102
RTVSPost2010PropOp45
 70
     1
102
RTVSPost2010Prop46
 90
       50
102
RTVSPost2010PropOp46
 70
     1
102
RTVSPost2010Prop47
 90
       50
102
RTVSPost2010PropOp47
 70
     1
102
RTVSPost2010Prop48
 90
       50
102
RTVSPost2010PropOp48
 70
     1
102
RTVSPost2010Prop49
280
     0
102
RTVSPost2010PropOp49
 70
     1
102
RTVSPost2010Prop50
 90
       50
102
RTVSPost2010PropOp50
 70
     1
102
RTVSPost2010Prop51ColorIndex
 90
      256
102
RTVSPost2010Prop51ColorRGB
 90
-16777216
102
RTVSPost2010PropOp51
 70
     0
102
RTVSPost2010Prop52
140
1.0
102
RTVSPost2010PropOp52
 70
     0
102
RTVSPost2010Prop53
 90
        2
102
RTVSPost2010PropOp53
 70
     1
102
RTVSPost2010Prop54
  1
strokes_ogs.tif
102
RTVSPost2010PropOp54
 70
     1
102
RTVSPost2010Prop55
280
     0
102
RTVSPost2010PropOp55
 70
     1
102
RTVSPost2010Prop56
140
1.0
102
RTVSPost2010PropOp56
 70
     1
102
RTVSPost2010Prop57
140
1.0
102
RTVSPost2010PropOp57
 70
     1
  0
XRECORD
  5
2D0
102
{ACAD_REACTORS
330
2CF
102
}
330
2CF
100
AcDbXrecord
280
     1
102
RTVSPropertyOp0
 70
     0
102
RTVSPropertyOp1
 70
     0
102
RTVSPropertyOp2
 70
     0
102
RTVSPropertyOp3
 70
     0
102
RTVSPropertyOp4
 70
     0
102
RTVSPropertyOp5
 70
     0
102
RTVSPropertyOp6
 70
     0
102
RTVSPropertyOp7
 70
     0
102
RTVSPropertyOp8
 70
     0
102
RTVSPropertyOp9
 70
     0
102
RTVSPropertyOp10
 70
     0
102
RTVSPropertyOp11
 70
     0
102
RTVSPropertyOp12
 70
     0
102
RTVSPropertyOp13
 70
     0
102
RTVSPropertyOp14
 70
     2
102
RTVSPropertyOp15
 70
     0
102
RTVSPropertyOp16
 70
     0
102
RTVSPropertyOp17
 70
     0
102
RTVSPropertyOp18
 70
     0
102
RTVSPropertyOp19
 70
     0
102
RTVSPropertyOp20
 70
     0
102
RTVSPropertyOp21
 70
     0
102
RTVSPropertyOp22
 70
     0
102
RTVSPropertyOp23
 70
     0
102
RTVSPropertyOp24
 70
     0
102
RTVSPropertyOp25
 70
     0
102
RTVSPropertyOp26
 70
     0
102
RTVSPropertyOp27
 70
     0
102
RTVSPropertyOp28
 70
     0
102
RTVSPropertyOp29
 70
     0
102
RTVSPropertyOp30
 70
     0
102
RTVSPropertyOp31
 70
     0
102
RTVSPropertyOp32
 70
     0
102
RTVSPropertyOp33
 70
     0
102
RTVSPropertyOp34
 70
     0
102
RTVSPropertyOp35
 70
     0
102
RTVSPropertyOp36
 70
     0
102
RTVSPropertyOp37
 70
     0
102
RTVSPropertyOp38
 70
     0
102
RTVSPropertyOp39
 70
     0
102
RTVSPropertyOp40
 70
     0
102
RTVSPropertyOp41
 70
     0
102
RTVSPropertyOp42
 70
     0
102
RTVSPropertyOp43
 70
     0
102
RTVSPropertyOp44
 70
     0
102
RTVSPropertyOp45
 70
     0
102
RTVSPropertyOp46
 70
     0
102
RTVSPropertyOp47
 70
     0
102
RTVSPropertyOp48
 70
     0
102
RTVSPropertyOp49
 70
     0
102
RTVSPropertyOp50
 70
     0
102
RTVSPropertyOp51
 70
     0
102
RTVSPropertyOp52
 70
     0
102
RTVSPropertyOp53
 70
     0
102
RTVSPropertyOp54
 70
     0
102
RTVSPropertyOp55
 70
     0
102
RTVSPropertyOp56
 70
     0
102
RTVSPropertyOp57
 70
     0
102
RTVSPost2010Prop28
280
     0
102
RTVSPost2010PropOp28
 70
     0
102
RTVSPost2010Prop29
280
     1
102
RTVSPost2010PropOp29
 70
     0
102
RTVSPost2010Prop30
280
     1
102
RTVSPost2010PropOp30
 70
     0
102
RTVSPost2010Prop31
280
     0
102
RTVSPost2010PropOp31
 70
     0
102
RTVSPost2010Prop32
280
     0
102
RTVSPost2010PropOp32
 70
     0
102
RTVSPost2010Prop33
280
     0
102
RTVSPost2010PropOp33
 70
     0
102
RTVSPost2010Prop34
280
     0
102
RTVSPost2010PropOp34
 70
     0
102
RTVSPost2010Prop35
280
     0
102
RTVSPost2010PropOp35
 70
     0
102
RTVSPost2010Prop36
280
     0
102
RTVSPost2010PropOp36
 70
     0
102
RTVSPost2010Prop37
 90
       50
102
RTVSPost2010PropOp37
 70
     0
102
RTVSPost2010Prop38
140
0.0
102
RTVSPost2010PropOp38
 70
     0
102
RTVSPost2010Prop39
140
1.0
102
RTVSPost2010PropOp39
 70
     0
102
RTVSPost2010Prop40
 90
        0
102
RTVSPost2010PropOp40
 70
     0
102
RTVSPost2010Prop41ColorIndex
 90
       18
102
RTVSPost2010Prop41ColorRGB
 90
        0
102
RTVSPost2010PropOp41
 70
     0
102
RTVSPost2010Prop42
 90
       50
102
RTVSPost2010PropOp42
 70
     0
102
RTVSPost2010Prop43
 90
        3
102
RTVSPost2010PropOp43
 70
     0
102
RTVSPost2010Prop44ColorIndex
 90
        5
102
RTVSPost2010Prop44ColorRGB
 90
      255
102
RTVSPost2010PropOp44
 70
     0
102
RTVSPost2010Prop45
280
     0
102
RTVSPost2010PropOp45
 70
     0
102
RTVSPost2010Prop46
 90
       50
102
RTVSPost2010PropOp46
 70
     0
102
RTVSPost2010Prop47
 90
       50
102
RTVSPost2010PropOp47
 70
     0
102
RTVSPost2010Prop48
 90
       50
102
RTVSPost2010PropOp48
 70
     0
102
RTVSPost2010Prop49
280
     0
102
RTVSPost2010PropOp49
 70
     0
102
RTVSPost2010Prop50
 90
       50
102
RTVSPost2010PropOp50
 70
     0
102
RTVSPost2010Prop51ColorIndex
 90
      256
102
RTVSPost2010Prop51ColorRGB
 90
-16777216
102
RTVSPost2010PropOp51
 70
     0
102
RTVSPost2010Prop52
140
1.0
102
RTVSPost2010PropOp52
 70
     0
102
RTVSPost2010Prop53
 90
        2
102
RTVSPost2010PropOp53
 70
     0
102
RTVSPost2010Prop54
  1
strokes_ogs.tif
102
RTVSPost2010PropOp54
 70
     0
102
RTVSPost2010Prop55
280
     0
102
RTVSPost2010PropOp55
 70
     0
102
RTVSPost2010Prop56
140
1.0
102
RTVSPost2010PropOp56
 70
     0
102
RTVSPost2010Prop57
140
1.0
102
RTVSPost2010PropOp57
 70
     0
  0
XRECORD
  5
2BE
102
{ACAD_REACTORS
330
2BD
102
}
330
2BD
100
AcDbXrecord
280
     1
102
RTVSPropertyOp0
 70
     1
102
RTVSPropertyOp1
 70
     1
102
RTVSPropertyOp2
 70
     1
102
RTVSPropertyOp3
 70
     1
102
RTVSPropertyOp4
 70
     1
102
RTVSPropertyOp5
 70
     1
102
RTVSPropertyOp6
 70
     1
102
RTVSPropertyOp7
 70
     1
102
RTVSPropertyOp8
 70
     1
102
RTVSPropertyOp9
 70
     1
102
RTVSPropertyOp10
 70
     1
102
RTVSPropertyOp11
 70
     1
102
RTVSPropertyOp12
 70
     1
102
RTVSPropertyOp13
 70
     1
102
RTVSPropertyOp14
 70
     1
102
RTVSPropertyOp15
 70
     1
102
RTVSPropertyOp16
 70
     1
102
RTVSPropertyOp17
 70
     1
102
RTVSPropertyOp18
 70
     1
102
RTVSPropertyOp19
 70
     1
102
RTVSPropertyOp20
 70
     1
102
RTVSPropertyOp21
 70
     1
102
RTVSPropertyOp22
 70
     1
102
RTVSPropertyOp23
 70
     1
102
RTVSPropertyOp24
 70
     1
102
RTVSPropertyOp25
 70
     1
102
RTVSPropertyOp26
 70
     1
102
RTVSPropertyOp27
 70
     1
102
RTVSPropertyOp28
 70
     1
102
RTVSPropertyOp29
 70
     1
102
RTVSPropertyOp30
 70
     1
102
RTVSPropertyOp31
 70
     1
102
RTVSPropertyOp32
 70
     1
102
RTVSPropertyOp33
 70
     1
102
RTVSPropertyOp34
 70
     1
102
RTVSPropertyOp35
 70
     1
102
RTVSPropertyOp36
 70
     1
102
RTVSPropertyOp37
 70
     1
102
RTVSPropertyOp38
 70
     1
102
RTVSPropertyOp39
 70
     1
102
RTVSPropertyOp40
 70
     1
102
RTVSPropertyOp41
 70
     1
102
RTVSPropertyOp42
 70
     1
102
RTVSPropertyOp43
 70
     1
102
RTVSPropertyOp44
 70
     1
102
RTVSPropertyOp45
 70
     1
102
RTVSPropertyOp46
 70
     1
102
RTVSPropertyOp47
 70
     1
102
RTVSPropertyOp48
 70
     1
102
RTVSPropertyOp49
 70
     1
102
RTVSPropertyOp50
 70
     1
102
RTVSPropertyOp51
 70
     0
102
RTVSPropertyOp52
 70
     0
102
RTVSPropertyOp53
 70
     1
102
RTVSPropertyOp54
 70
     1
102
RTVSPropertyOp55
 70
     1
102
RTVSPropertyOp56
 70
     1
102
RTVSPropertyOp57
 70
     1
102
RTVSPost2010Prop28
280
     0
102
RTVSPost2010PropOp28
 70
     1
102
RTVSPost2010Prop29
280
     1
102
RTVSPost2010PropOp29
 70
     1
102
RTVSPost2010Prop30
280
     1
102
RTVSPost2010PropOp30
 70
     1
102
RTVSPost2010Prop31
280
     0
102
RTVSPost2010PropOp31
 70
     1
102
RTVSPost2010Prop32
280
     0
102
RTVSPost2010PropOp32
 70
     1
102
RTVSPost2010Prop33
280
     0
102
RTVSPost2010PropOp33
 70
     1
102
RTVSPost2010Prop34
280
     0
102
RTVSPost2010PropOp34
 70
     1
102
RTVSPost2010Prop35
280
     0
102
RTVSPost2010PropOp35
 70
     1
102
RTVSPost2010Prop36
280
     0
102
RTVSPost2010PropOp36
 70
     1
102
RTVSPost2010Prop37
 90
       50
102
RTVSPost2010PropOp37
 70
     1
102
RTVSPost2010Prop38
140
0.0
102
RTVSPost2010PropOp38
 70
     1
102
RTVSPost2010Prop39
140
1.0
102
RTVSPost2010PropOp39
 70
     1
102
RTVSPost2010Prop40
 90
        0
102
RTVSPost2010PropOp40
 70
     1
102
RTVSPost2010Prop41ColorIndex
 90
       18
102
RTVSPost2010Prop41ColorRGB
 90
        0
102
RTVSPost2010PropOp41
 70
     1
102
RTVSPost2010Prop42
 90
       50
102
RTVSPost2010PropOp42
 70
     1
102
RTVSPost2010Prop43
 90
        3
102
RTVSPost2010PropOp43
 70
     1
102
RTVSPost2010Prop44ColorIndex
 90
        5
102
RTVSPost2010Prop44ColorRGB
 90
      255
102
RTVSPost2010PropOp44
 70
     1
102
RTVSPost2010Prop45
280
     0
102
RTVSPost2010PropOp45
 70
     1
102
RTVSPost2010Prop46
 90
       50
102
RTVSPost2010PropOp46
 70
     1
102
RTVSPost2010Prop47
 90
       50
102
RTVSPost2010PropOp47
 70
     1
102
RTVSPost2010Prop48
 90
       50
102
RTVSPost2010PropOp48
 70
     1
102
RTVSPost2010Prop49
280
     0
102
RTVSPost2010PropOp49
 70
     1
102
RTVSPost2010Prop50
 90
       50
102
RTVSPost2010PropOp50
 70
     1
102
RTVSPost2010Prop51ColorIndex
 90
      256
102
RTVSPost2010Prop51ColorRGB
 90
-16777216
102
RTVSPost2010PropOp51
 70
     0
102
RTVSPost2010Prop52
140
1.0
102
RTVSPost2010PropOp52
 70
     0
102
RTVSPost2010Prop53
 90
        2
102
RTVSPost2010PropOp53
 70
     1
102
RTVSPost2010Prop54
  1
strokes_ogs.tif
102
RTVSPost2010PropOp54
 70
     1
102
RTVSPost2010Prop55
280
     0
102
RTVSPost2010PropOp55
 70
     1
102
RTVSPost2010Prop56
140
1.0
102
RTVSPost2010PropOp56
 70
     1
102
RTVSPost2010Prop57
140
1.0
102
RTVSPost2010PropOp57
 70
     1
  0
XRECORD
  5
2DC
102
{ACAD_REACTORS
330
2DB
102
}
330
2DB
100
AcDbXrecord
280
     1
102
RTVSPropertyOp0
 70
     1
102
RTVSPropertyOp1
 70
     1
102
RTVSPropertyOp2
 70
     1
102
RTVSPropertyOp3
 70
     1
102
RTVSPropertyOp4
 70
     1
102
RTVSPropertyOp5
 70
     1
102
RTVSPropertyOp6
 70
     1
102
RTVSPropertyOp7
 70
     1
102
RTVSPropertyOp8
 70
     1
102
RTVSPropertyOp9
 70
     1
102
RTVSPropertyOp10
 70
     1
102
RTVSPropertyOp11
 70
     1
102
RTVSPropertyOp12
 70
     1
102
RTVSPropertyOp13
 70
     1
102
RTVSPropertyOp14
 70
     1
102
RTVSPropertyOp15
 70
     1
102
RTVSPropertyOp16
 70
     1
102
RTVSPropertyOp17
 70
     1
102
RTVSPropertyOp18
 70
     1
102
RTVSPropertyOp19
 70
     1
102
RTVSPropertyOp20
 70
     1
102
RTVSPropertyOp21
 70
     1
102
RTVSPropertyOp22
 70
     1
102
RTVSPropertyOp23
 70
     1
102
RTVSPropertyOp24
 70
     1
102
RTVSPropertyOp25
 70
     1
102
RTVSPropertyOp26
 70
     1
102
RTVSPropertyOp27
 70
     1
102
RTVSPropertyOp28
 70
     1
102
RTVSPropertyOp29
 70
     1
102
RTVSPropertyOp30
 70
     1
102
RTVSPropertyOp31
 70
     1
102
RTVSPropertyOp32
 70
     1
102
RTVSPropertyOp33
 70
     1
102
RTVSPropertyOp34
 70
     1
102
RTVSPropertyOp35
 70
     1
102
RTVSPropertyOp36
 70
     1
102
RTVSPropertyOp37
 70
     1
102
RTVSPropertyOp38
 70
     1
102
RTVSPropertyOp39
 70
     1
102
RTVSPropertyOp40
 70
     1
102
RTVSPropertyOp41
 70
     1
102
RTVSPropertyOp42
 70
     1
102
RTVSPropertyOp43
 70
     1
102
RTVSPropertyOp44
 70
     1
102
RTVSPropertyOp45
 70
     1
102
RTVSPropertyOp46
 70
     1
102
RTVSPropertyOp47
 70
     1
102
RTVSPropertyOp48
 70
     1
102
RTVSPropertyOp49
 70
     1
102
RTVSPropertyOp50
 70
     1
102
RTVSPropertyOp51
 70
     0
102
RTVSPropertyOp52
 70
     0
102
RTVSPropertyOp53
 70
     1
102
RTVSPropertyOp54
 70
     1
102
RTVSPropertyOp55
 70
     1
102
RTVSPropertyOp56
 70
     1
102
RTVSPropertyOp57
 70
     1
102
RTVSPost2010Prop28
280
     0
102
RTVSPost2010PropOp28
 70
     1
102
RTVSPost2010Prop29
280
     1
102
RTVSPost2010PropOp29
 70
     1
102
RTVSPost2010Prop30
280
     1
102
RTVSPost2010PropOp30
 70
     1
102
RTVSPost2010Prop31
280
     0
102
RTVSPost2010PropOp31
 70
     1
102
RTVSPost2010Prop32
280
     0
102
RTVSPost2010PropOp32
 70
     1
102
RTVSPost2010Prop33
280
     0
102
RTVSPost2010PropOp33
 70
     1
102
RTVSPost2010Prop34
280
     0
102
RTVSPost2010PropOp34
 70
     1
102
RTVSPost2010Prop35
280
     0
102
RTVSPost2010PropOp35
 70
     1
102
RTVSPost2010Prop36
280
     0
102
RTVSPost2010PropOp36
 70
     1
102
RTVSPost2010Prop37
 90
       50
102
RTVSPost2010PropOp37
 70
     1
102
RTVSPost2010Prop38
140
0.0
102
RTVSPost2010PropOp38
 70
     1
102
RTVSPost2010Prop39
140
1.0
102
RTVSPost2010PropOp39
 70
     1
102
RTVSPost2010Prop40
 90
        0
102
RTVSPost2010PropOp40
 70
     1
102
RTVSPost2010Prop41ColorIndex
 90
       18
102
RTVSPost2010Prop41ColorRGB
 90
        0
102
RTVSPost2010PropOp41
 70
     1
102
RTVSPost2010Prop42
 90
       50
102
RTVSPost2010PropOp42
 70
     1
102
RTVSPost2010Prop43
 90
        3
102
RTVSPost2010PropOp43
 70
     1
102
RTVSPost2010Prop44ColorIndex
 90
        5
102
RTVSPost2010Prop44ColorRGB
 90
      255
102
RTVSPost2010PropOp44
 70
     1
102
RTVSPost2010Prop45
280
     0
102
RTVSPost2010PropOp45
 70
     1
102
RTVSPost2010Prop46
 90
       50
102
RTVSPost2010PropOp46
 70
     1
102
RTVSPost2010Prop47
 90
       50
102
RTVSPost2010PropOp47
 70
     1
102
RTVSPost2010Prop48
 90
       50
102
RTVSPost2010PropOp48
 70
     1
102
RTVSPost2010Prop49
280
     0
102
RTVSPost2010PropOp49
 70
     1
102
RTVSPost2010Prop50
 90
       50
102
RTVSPost2010PropOp50
 70
     1
102
RTVSPost2010Prop51ColorIndex
 90
      256
102
RTVSPost2010Prop51ColorRGB
 90
-16777216
102
RTVSPost2010PropOp51
 70
     0
102
RTVSPost2010Prop52
140
1.0
102
RTVSPost2010PropOp52
 70
     0
102
RTVSPost2010Prop53
 90
        2
102
RTVSPost2010PropOp53
 70
     1
102
RTVSPost2010Prop54
  1
strokes_ogs.tif
102
RTVSPost2010PropOp54
 70
     1
102
RTVSPost2010Prop55
280
     0
102
RTVSPost2010PropOp55
 70
     1
102
RTVSPost2010Prop56
140
1.0
102
RTVSPost2010PropOp56
 70
     1
102
RTVSPost2010Prop57
140
1.0
102
RTVSPost2010PropOp57
 70
     1
  0
XRECORD
  5
2DA
102
{ACAD_REACTORS
330
2D9
102
}
330
2D9
100
AcDbXrecord
280
     1
102
RTVSPropertyOp0
 70
     1
102
RTVSPropertyOp1
 70
     1
102
RTVSPropertyOp2
 70
     1
102
RTVSPropertyOp3
 70
     1
102
RTVSPropertyOp4
 70
     1
102
RTVSPropertyOp5
 70
     1
102
RTVSPropertyOp6
 70
     1
102
RTVSPropertyOp7
 70
     1
102
RTVSPropertyOp8
 70
     1
102
RTVSPropertyOp9
 70
     1
102
RTVSPropertyOp10
 70
     1
102
RTVSPropertyOp11
 70
     1
102
RTVSPropertyOp12
 70
     1
102
RTVSPropertyOp13
 70
     1
102
RTVSPropertyOp14
 70
     1
102
RTVSPropertyOp15
 70
     1
102
RTVSPropertyOp16
 70
     1
102
RTVSPropertyOp17
 70
     1
102
RTVSPropertyOp18
 70
     1
102
RTVSPropertyOp19
 70
     1
102
RTVSPropertyOp20
 70
     1
102
RTVSPropertyOp21
 70
     1
102
RTVSPropertyOp22
 70
     1
102
RTVSPropertyOp23
 70
     1
102
RTVSPropertyOp24
 70
     1
102
RTVSPropertyOp25
 70
     1
102
RTVSPropertyOp26
 70
     1
102
RTVSPropertyOp27
 70
     1
102
RTVSPropertyOp28
 70
     1
102
RTVSPropertyOp29
 70
     1
102
RTVSPropertyOp30
 70
     1
102
RTVSPropertyOp31
 70
     1
102
RTVSPropertyOp32
 70
     1
102
RTVSPropertyOp33
 70
     1
102
RTVSPropertyOp34
 70
     1
102
RTVSPropertyOp35
 70
     1
102
RTVSPropertyOp36
 70
     1
102
RTVSPropertyOp37
 70
     1
102
RTVSPropertyOp38
 70
     1
102
RTVSPropertyOp39
 70
     1
102
RTVSPropertyOp40
 70
     1
102
RTVSPropertyOp41
 70
     1
102
RTVSPropertyOp42
 70
     1
102
RTVSPropertyOp43
 70
     1
102
RTVSPropertyOp44
 70
     1
102
RTVSPropertyOp45
 70
     1
102
RTVSPropertyOp46
 70
     1
102
RTVSPropertyOp47
 70
     1
102
RTVSPropertyOp48
 70
     1
102
RTVSPropertyOp49
 70
     1
102
RTVSPropertyOp50
 70
     1
102
RTVSPropertyOp51
 70
     0
102
RTVSPropertyOp52
 70
     0
102
RTVSPropertyOp53
 70
     1
102
RTVSPropertyOp54
 70
     1
102
RTVSPropertyOp55
 70
     1
102
RTVSPropertyOp56
 70
     1
102
RTVSPropertyOp57
 70
     1
102
RTVSPost2010Prop28
280
     0
102
RTVSPost2010PropOp28
 70
     1
102
RTVSPost2010Prop29
280
     1
102
RTVSPost2010PropOp29
 70
     1
102
RTVSPost2010Prop30
280
     1
102
RTVSPost2010PropOp30
 70
     1
102
RTVSPost2010Prop31
280
     0
102
RTVSPost2010PropOp31
 70
     1
102
RTVSPost2010Prop32
280
     0
102
RTVSPost2010PropOp32
 70
     1
102
RTVSPost2010Prop33
280
     0
102
RTVSPost2010PropOp33
 70
     1
102
RTVSPost2010Prop34
280
     0
102
RTVSPost2010PropOp34
 70
     1
102
RTVSPost2010Prop35
280
     0
102
RTVSPost2010PropOp35
 70
     1
102
RTVSPost2010Prop36
280
     0
102
RTVSPost2010PropOp36
 70
     1
102
RTVSPost2010Prop37
 90
       50
102
RTVSPost2010PropOp37
 70
     1
102
RTVSPost2010Prop38
140
0.0
102
RTVSPost2010PropOp38
 70
     1
102
RTVSPost2010Prop39
140
1.0
102
RTVSPost2010PropOp39
 70
     1
102
RTVSPost2010Prop40
 90
        0
102
RTVSPost2010PropOp40
 70
     1
102
RTVSPost2010Prop41ColorIndex
 90
       18
102
RTVSPost2010Prop41ColorRGB
 90
        0
102
RTVSPost2010PropOp41
 70
     1
102
RTVSPost2010Prop42
 90
       50
102
RTVSPost2010PropOp42
 70
     1
102
RTVSPost2010Prop43
 90
        3
102
RTVSPost2010PropOp43
 70
     1
102
RTVSPost2010Prop44ColorIndex
 90
        5
102
RTVSPost2010Prop44ColorRGB
 90
      255
102
RTVSPost2010PropOp44
 70
     1
102
RTVSPost2010Prop45
280
     0
102
RTVSPost2010PropOp45
 70
     1
102
RTVSPost2010Prop46
 90
       50
102
RTVSPost2010PropOp46
 70
     1
102
RTVSPost2010Prop47
 90
       50
102
RTVSPost2010PropOp47
 70
     1
102
RTVSPost2010Prop48
 90
       50
102
RTVSPost2010PropOp48
 70
     1
102
RTVSPost2010Prop49
280
     0
102
RTVSPost2010PropOp49
 70
     1
102
RTVSPost2010Prop50
 90
       50
102
RTVSPost2010PropOp50
 70
     1
102
RTVSPost2010Prop51ColorIndex
 90
      256
102
RTVSPost2010Prop51ColorRGB
 90
-16777216
102
RTVSPost2010PropOp51
 70
     0
102
RTVSPost2010Prop52
140
1.0
102
RTVSPost2010PropOp52
 70
     0
102
RTVSPost2010Prop53
 90
        2
102
RTVSPost2010PropOp53
 70
     1
102
RTVSPost2010Prop54
  1
strokes_ogs.tif
102
RTVSPost2010PropOp54
 70
     1
102
RTVSPost2010Prop55
280
     0
102
RTVSPost2010PropOp55
 70
     1
102
RTVSPost2010Prop56
140
1.0
102
RTVSPost2010PropOp56
 70
     1
102
RTVSPost2010Prop57
140
1.0
102
RTVSPost2010PropOp57
 70
     1
  0
XRECORD
  5
2D4
102
{ACAD_REACTORS
330
2D3
102
}
330
2D3
100
AcDbXrecord
280
     1
102
RTVSPropertyOp0
 70
     1
102
RTVSPropertyOp1
 70
     1
102
RTVSPropertyOp2
 70
     1
102
RTVSPropertyOp3
 70
     1
102
RTVSPropertyOp4
 70
     1
102
RTVSPropertyOp5
 70
     1
102
RTVSPropertyOp6
 70
     1
102
RTVSPropertyOp7
 70
     1
102
RTVSPropertyOp8
 70
     1
102
RTVSPropertyOp9
 70
     1
102
RTVSPropertyOp10
 70
     1
102
RTVSPropertyOp11
 70
     1
102
RTVSPropertyOp12
 70
     1
102
RTVSPropertyOp13
 70
     1
102
RTVSPropertyOp14
 70
     1
102
RTVSPropertyOp15
 70
     1
102
RTVSPropertyOp16
 70
     1
102
RTVSPropertyOp17
 70
     1
102
RTVSPropertyOp18
 70
     1
102
RTVSPropertyOp19
 70
     1
102
RTVSPropertyOp20
 70
     1
102
RTVSPropertyOp21
 70
     1
102
RTVSPropertyOp22
 70
     1
102
RTVSPropertyOp23
 70
     1
102
RTVSPropertyOp24
 70
     1
102
RTVSPropertyOp25
 70
     1
102
RTVSPropertyOp26
 70
     1
102
RTVSPropertyOp27
 70
     1
102
RTVSPropertyOp28
 70
     1
102
RTVSPropertyOp29
 70
     1
102
RTVSPropertyOp30
 70
     1
102
RTVSPropertyOp31
 70
     1
102
RTVSPropertyOp32
 70
     1
102
RTVSPropertyOp33
 70
     1
102
RTVSPropertyOp34
 70
     1
102
RTVSPropertyOp35
 70
     1
102
RTVSPropertyOp36
 70
     1
102
RTVSPropertyOp37
 70
     1
102
RTVSPropertyOp38
 70
     1
102
RTVSPropertyOp39
 70
     1
102
RTVSPropertyOp40
 70
     1
102
RTVSPropertyOp41
 70
     1
102
RTVSPropertyOp42
 70
     1
102
RTVSPropertyOp43
 70
     1
102
RTVSPropertyOp44
 70
     1
102
RTVSPropertyOp45
 70
     1
102
RTVSPropertyOp46
 70
     1
102
RTVSPropertyOp47
 70
     1
102
RTVSPropertyOp48
 70
     1
102
RTVSPropertyOp49
 70
     1
102
RTVSPropertyOp50
 70
     1
102
RTVSPropertyOp51
 70
     0
102
RTVSPropertyOp52
 70
     0
102
RTVSPropertyOp53
 70
     1
102
RTVSPropertyOp54
 70
     1
102
RTVSPropertyOp55
 70
     1
102
RTVSPropertyOp56
 70
     1
102
RTVSPropertyOp57
 70
     1
102
RTVSPost2010Prop28
280
     0
102
RTVSPost2010PropOp28
 70
     1
102
RTVSPost2010Prop29
280
     1
102
RTVSPost2010PropOp29
 70
     1
102
RTVSPost2010Prop30
280
     1
102
RTVSPost2010PropOp30
 70
     1
102
RTVSPost2010Prop31
280
     0
102
RTVSPost2010PropOp31
 70
     1
102
RTVSPost2010Prop32
280
     0
102
RTVSPost2010PropOp32
 70
     1
102
RTVSPost2010Prop33
280
     0
102
RTVSPost2010PropOp33
 70
     1
102
RTVSPost2010Prop34
280
     0
102
RTVSPost2010PropOp34
 70
     1
102
RTVSPost2010Prop35
280
     0
102
RTVSPost2010PropOp35
 70
     1
102
RTVSPost2010Prop36
280
     0
102
RTVSPost2010PropOp36
 70
     1
102
RTVSPost2010Prop37
 90
       50
102
RTVSPost2010PropOp37
 70
     1
102
RTVSPost2010Prop38
140
0.0
102
RTVSPost2010PropOp38
 70
     1
102
RTVSPost2010Prop39
140
1.0
102
RTVSPost2010PropOp39
 70
     1
102
RTVSPost2010Prop40
 90
        0
102
RTVSPost2010PropOp40
 70
     1
102
RTVSPost2010Prop41ColorIndex
 90
       18
102
RTVSPost2010Prop41ColorRGB
 90
        0
102
RTVSPost2010PropOp41
 70
     1
102
RTVSPost2010Prop42
 90
       50
102
RTVSPost2010PropOp42
 70
     1
102
RTVSPost2010Prop43
 90
        3
102
RTVSPost2010PropOp43
 70
     1
102
RTVSPost2010Prop44ColorIndex
 90
        5
102
RTVSPost2010Prop44ColorRGB
 90
      255
102
RTVSPost2010PropOp44
 70
     1
102
RTVSPost2010Prop45
280
     0
102
RTVSPost2010PropOp45
 70
     1
102
RTVSPost2010Prop46
 90
       50
102
RTVSPost2010PropOp46
 70
     1
102
RTVSPost2010Prop47
 90
       50
102
RTVSPost2010PropOp47
 70
     1
102
RTVSPost2010Prop48
 90
       50
102
RTVSPost2010PropOp48
 70
     1
102
RTVSPost2010Prop49
280
     0
102
RTVSPost2010PropOp49
 70
     1
102
RTVSPost2010Prop50
 90
       50
102
RTVSPost2010PropOp50
 70
     1
102
RTVSPost2010Prop51ColorIndex
 90
      256
102
RTVSPost2010Prop51ColorRGB
 90
-16777216
102
RTVSPost2010PropOp51
 70
     0
102
RTVSPost2010Prop52
140
1.0
102
RTVSPost2010PropOp52
 70
     0
102
RTVSPost2010Prop53
 90
        2
102
RTVSPost2010PropOp53
 70
     1
102
RTVSPost2010Prop54
  1
strokes_ogs.tif
102
RTVSPost2010PropOp54
 70
     1
102
RTVSPost2010Prop55
280
     0
102
RTVSPost2010PropOp55
 70
     1
102
RTVSPost2010Prop56
140
1.0
102
RTVSPost2010PropOp56
 70
     1
102
RTVSPost2010Prop57
140
1.0
102
RTVSPost2010PropOp57
 70
     1
  0
XRECORD
  5
2D6
102
{ACAD_REACTORS
330
2D5
102
}
330
2D5
100
AcDbXrecord
280
     1
102
RTVSPropertyOp0
 70
     1
102
RTVSPropertyOp1
 70
     1
102
RTVSPropertyOp2
 70
     1
102
RTVSPropertyOp3
 70
     1
102
RTVSPropertyOp4
 70
     1
102
RTVSPropertyOp5
 70
     1
102
RTVSPropertyOp6
 70
     1
102
RTVSPropertyOp7
 70
     1
102
RTVSPropertyOp8
 70
     1
102
RTVSPropertyOp9
 70
     1
102
RTVSPropertyOp10
 70
     1
102
RTVSPropertyOp11
 70
     1
102
RTVSPropertyOp12
 70
     1
102
RTVSPropertyOp13
 70
     1
102
RTVSPropertyOp14
 70
     1
102
RTVSPropertyOp15
 70
     1
102
RTVSPropertyOp16
 70
     1
102
RTVSPropertyOp17
 70
     1
102
RTVSPropertyOp18
 70
     1
102
RTVSPropertyOp19
 70
     1
102
RTVSPropertyOp20
 70
     1
102
RTVSPropertyOp21
 70
     1
102
RTVSPropertyOp22
 70
     1
102
RTVSPropertyOp23
 70
     1
102
RTVSPropertyOp24
 70
     1
102
RTVSPropertyOp25
 70
     1
102
RTVSPropertyOp26
 70
     1
102
RTVSPropertyOp27
 70
     1
102
RTVSPropertyOp28
 70
     1
102
RTVSPropertyOp29
 70
     1
102
RTVSPropertyOp30
 70
     1
102
RTVSPropertyOp31
 70
     1
102
RTVSPropertyOp32
 70
     1
102
RTVSPropertyOp33
 70
     1
102
RTVSPropertyOp34
 70
     1
102
RTVSPropertyOp35
 70
     1
102
RTVSPropertyOp36
 70
     1
102
RTVSPropertyOp37
 70
     1
102
RTVSPropertyOp38
 70
     1
102
RTVSPropertyOp39
 70
     1
102
RTVSPropertyOp40
 70
     1
102
RTVSPropertyOp41
 70
     1
102
RTVSPropertyOp42
 70
     1
102
RTVSPropertyOp43
 70
     1
102
RTVSPropertyOp44
 70
     1
102
RTVSPropertyOp45
 70
     1
102
RTVSPropertyOp46
 70
     1
102
RTVSPropertyOp47
 70
     1
102
RTVSPropertyOp48
 70
     1
102
RTVSPropertyOp49
 70
     1
102
RTVSPropertyOp50
 70
     1
102
RTVSPropertyOp51
 70
     0
102
RTVSPropertyOp52
 70
     0
102
RTVSPropertyOp53
 70
     1
102
RTVSPropertyOp54
 70
     1
102
RTVSPropertyOp55
 70
     1
102
RTVSPropertyOp56
 70
     1
102
RTVSPropertyOp57
 70
     1
102
RTVSPost2010Prop28
280
     0
102
RTVSPost2010PropOp28
 70
     1
102
RTVSPost2010Prop29
280
     1
102
RTVSPost2010PropOp29
 70
     1
102
RTVSPost2010Prop30
280
     1
102
RTVSPost2010PropOp30
 70
     1
102
RTVSPost2010Prop31
280
     0
102
RTVSPost2010PropOp31
 70
     1
102
RTVSPost2010Prop32
280
     0
102
RTVSPost2010PropOp32
 70
     1
102
RTVSPost2010Prop33
280
     0
102
RTVSPost2010PropOp33
 70
     1
102
RTVSPost2010Prop34
280
     0
102
RTVSPost2010PropOp34
 70
     1
102
RTVSPost2010Prop35
280
     0
102
RTVSPost2010PropOp35
 70
     1
102
RTVSPost2010Prop36
280
     0
102
RTVSPost2010PropOp36
 70
     1
102
RTVSPost2010Prop37
 90
       50
102
RTVSPost2010PropOp37
 70
     1
102
RTVSPost2010Prop38
140
0.0
102
RTVSPost2010PropOp38
 70
     1
102
RTVSPost2010Prop39
140
1.0
102
RTVSPost2010PropOp39
 70
     1
102
RTVSPost2010Prop40
 90
        0
102
RTVSPost2010PropOp40
 70
     1
102
RTVSPost2010Prop41ColorIndex
 90
       18
102
RTVSPost2010Prop41ColorRGB
 90
        0
102
RTVSPost2010PropOp41
 70
     1
102
RTVSPost2010Prop42
 90
       50
102
RTVSPost2010PropOp42
 70
     1
102
RTVSPost2010Prop43
 90
        3
102
RTVSPost2010PropOp43
 70
     1
102
RTVSPost2010Prop44ColorIndex
 90
        5
102
RTVSPost2010Prop44ColorRGB
 90
      255
102
RTVSPost2010PropOp44
 70
     1
102
RTVSPost2010Prop45
280
     0
102
RTVSPost2010PropOp45
 70
     1
102
RTVSPost2010Prop46
 90
       50
102
RTVSPost2010PropOp46
 70
     1
102
RTVSPost2010Prop47
 90
       50
102
RTVSPost2010PropOp47
 70
     1
102
RTVSPost2010Prop48
 90
       50
102
RTVSPost2010PropOp48
 70
     1
102
RTVSPost2010Prop49
280
     0
102
RTVSPost2010PropOp49
 70
     1
102
RTVSPost2010Prop50
 90
       50
102
RTVSPost2010PropOp50
 70
     1
102
RTVSPost2010Prop51ColorIndex
 90
      256
102
RTVSPost2010Prop51ColorRGB
 90
-16777216
102
RTVSPost2010PropOp51
 70
     0
102
RTVSPost2010Prop52
140
1.0
102
RTVSPost2010PropOp52
 70
     0
102
RTVSPost2010Prop53
 90
        2
102
RTVSPost2010PropOp53
 70
     1
102
RTVSPost2010Prop54
  1
strokes_ogs.tif
102
RTVSPost2010PropOp54
 70
     1
102
RTVSPost2010Prop55
280
     0
102
RTVSPost2010PropOp55
 70
     1
102
RTVSPost2010Prop56
140
1.0
102
RTVSPost2010PropOp56
 70
     1
102
RTVSPost2010Prop57
140
1.0
102
RTVSPost2010PropOp57
 70
     1
  0
XRECORD
  5
2C6
102
{ACAD_REACTORS
330
2C5
102
}
330
2C5
100
AcDbXrecord
280
     1
102
RTVSPropertyOp0
 70
     1
102
RTVSPropertyOp1
 70
     1
102
RTVSPropertyOp2
 70
     1
102
RTVSPropertyOp3
 70
     1
102
RTVSPropertyOp4
 70
     1
102
RTVSPropertyOp5
 70
     1
102
RTVSPropertyOp6
 70
     1
102
RTVSPropertyOp7
 70
     1
102
RTVSPropertyOp8
 70
     1
102
RTVSPropertyOp9
 70
     1
102
RTVSPropertyOp10
 70
     1
102
RTVSPropertyOp11
 70
     1
102
RTVSPropertyOp12
 70
     1
102
RTVSPropertyOp13
 70
     1
102
RTVSPropertyOp14
 70
     1
102
RTVSPropertyOp15
 70
     1
102
RTVSPropertyOp16
 70
     1
102
RTVSPropertyOp17
 70
     1
102
RTVSPropertyOp18
 70
     1
102
RTVSPropertyOp19
 70
     1
102
RTVSPropertyOp20
 70
     1
102
RTVSPropertyOp21
 70
     1
102
RTVSPropertyOp22
 70
     1
102
RTVSPropertyOp23
 70
     1
102
RTVSPropertyOp24
 70
     1
102
RTVSPropertyOp25
 70
     1
102
RTVSPropertyOp26
 70
     1
102
RTVSPropertyOp27
 70
     1
102
RTVSPropertyOp28
 70
     1
102
RTVSPropertyOp29
 70
     1
102
RTVSPropertyOp30
 70
     1
102
RTVSPropertyOp31
 70
     1
102
RTVSPropertyOp32
 70
     1
102
RTVSPropertyOp33
 70
     1
102
RTVSPropertyOp34
 70
     1
102
RTVSPropertyOp35
 70
     1
102
RTVSPropertyOp36
 70
     1
102
RTVSPropertyOp37
 70
     1
102
RTVSPropertyOp38
 70
     1
102
RTVSPropertyOp39
 70
     1
102
RTVSPropertyOp40
 70
     1
102
RTVSPropertyOp41
 70
     1
102
RTVSPropertyOp42
 70
     1
102
RTVSPropertyOp43
 70
     1
102
RTVSPropertyOp44
 70
     1
102
RTVSPropertyOp45
 70
     1
102
RTVSPropertyOp46
 70
     1
102
RTVSPropertyOp47
 70
     1
102
RTVSPropertyOp48
 70
     1
102
RTVSPropertyOp49
 70
     1
102
RTVSPropertyOp50
 70
     1
102
RTVSPropertyOp51
 70
     0
102
RTVSPropertyOp52
 70
     0
102
RTVSPropertyOp53
 70
     1
102
RTVSPropertyOp54
 70
     1
102
RTVSPropertyOp55
 70
     1
102
RTVSPropertyOp56
 70
     1
102
RTVSPropertyOp57
 70
     1
102
RTVSPost2010Prop28
280
     0
102
RTVSPost2010PropOp28
 70
     1
102
RTVSPost2010Prop29
280
     1
102
RTVSPost2010PropOp29
 70
     1
102
RTVSPost2010Prop30
280
     1
102
RTVSPost2010PropOp30
 70
     1
102
RTVSPost2010Prop31
280
     0
102
RTVSPost2010PropOp31
 70
     1
102
RTVSPost2010Prop32
280
     0
102
RTVSPost2010PropOp32
 70
     1
102
RTVSPost2010Prop33
280
     0
102
RTVSPost2010PropOp33
 70
     1
102
RTVSPost2010Prop34
280
     0
102
RTVSPost2010PropOp34
 70
     1
102
RTVSPost2010Prop35
280
     0
102
RTVSPost2010PropOp35
 70
     1
102
RTVSPost2010Prop36
280
     0
102
RTVSPost2010PropOp36
 70
     1
102
RTVSPost2010Prop37
 90
       50
102
RTVSPost2010PropOp37
 70
     1
102
RTVSPost2010Prop38
140
0.0
102
RTVSPost2010PropOp38
 70
     1
102
RTVSPost2010Prop39
140
1.0
102
RTVSPost2010PropOp39
 70
     1
102
RTVSPost2010Prop40
 90
        0
102
RTVSPost2010PropOp40
 70
     1
102
RTVSPost2010Prop41ColorIndex
 90
       18
102
RTVSPost2010Prop41ColorRGB
 90
        0
102
RTVSPost2010PropOp41
 70
     1
102
RTVSPost2010Prop42
 90
       50
102
RTVSPost2010PropOp42
 70
     1
102
RTVSPost2010Prop43
 90
        3
102
RTVSPost2010PropOp43
 70
     1
102
RTVSPost2010Prop44ColorIndex
 90
        5
102
RTVSPost2010Prop44ColorRGB
 90
      255
102
RTVSPost2010PropOp44
 70
     1
102
RTVSPost2010Prop45
280
     0
102
RTVSPost2010PropOp45
 70
     1
102
RTVSPost2010Prop46
 90
       50
102
RTVSPost2010PropOp46
 70
     1
102
RTVSPost2010Prop47
 90
       50
102
RTVSPost2010PropOp47
 70
     1
102
RTVSPost2010Prop48
 90
       50
102
RTVSPost2010PropOp48
 70
     1
102
RTVSPost2010Prop49
280
     0
102
RTVSPost2010PropOp49
 70
     1
102
RTVSPost2010Prop50
 90
       50
102
RTVSPost2010PropOp50
 70
     1
102
RTVSPost2010Prop51ColorIndex
 90
      256
102
RTVSPost2010Prop51ColorRGB
 90
-16777216
102
RTVSPost2010PropOp51
 70
     0
102
RTVSPost2010Prop52
140
1.0
102
RTVSPost2010PropOp52
 70
     0
102
RTVSPost2010Prop53
 90
        2
102
RTVSPost2010PropOp53
 70
     1
102
RTVSPost2010Prop54
  1
strokes_ogs.tif
102
RTVSPost2010PropOp54
 70
     1
102
RTVSPost2010Prop55
280
     0
102
RTVSPost2010PropOp55
 70
     1
102
RTVSPost2010Prop56
140
1.0
102
RTVSPost2010PropOp56
 70
     1
102
RTVSPost2010Prop57
140
1.0
102
RTVSPost2010PropOp57
 70
     1
  0
XRECORD
  5
2B8
102
{ACAD_REACTORS
330
2B7
102
}
330
2B7
100
AcDbXrecord
280
     1
102
RTVSPropertyOp0
 70
     1
102
RTVSPropertyOp1
 70
     1
102
RTVSPropertyOp2
 70
     1
102
RTVSPropertyOp3
 70
     1
102
RTVSPropertyOp4
 70
     1
102
RTVSPropertyOp5
 70
     1
102
RTVSPropertyOp6
 70
     1
102
RTVSPropertyOp7
 70
     1
102
RTVSPropertyOp8
 70
     1
102
RTVSPropertyOp9
 70
     1
102
RTVSPropertyOp10
 70
     1
102
RTVSPropertyOp11
 70
     1
102
RTVSPropertyOp12
 70
     1
102
RTVSPropertyOp13
 70
     1
102
RTVSPropertyOp14
 70
     1
102
RTVSPropertyOp15
 70
     1
102
RTVSPropertyOp16
 70
     1
102
RTVSPropertyOp17
 70
     1
102
RTVSPropertyOp18
 70
     1
102
RTVSPropertyOp19
 70
     1
102
RTVSPropertyOp20
 70
     1
102
RTVSPropertyOp21
 70
     1
102
RTVSPropertyOp22
 70
     1
102
RTVSPropertyOp23
 70
     1
102
RTVSPropertyOp24
 70
     1
102
RTVSPropertyOp25
 70
     1
102
RTVSPropertyOp26
 70
     1
102
RTVSPropertyOp27
 70
     1
102
RTVSPropertyOp28
 70
     1
102
RTVSPropertyOp29
 70
     1
102
RTVSPropertyOp30
 70
     1
102
RTVSPropertyOp31
 70
     1
102
RTVSPropertyOp32
 70
     1
102
RTVSPropertyOp33
 70
     1
102
RTVSPropertyOp34
 70
     1
102
RTVSPropertyOp35
 70
     1
102
RTVSPropertyOp36
 70
     1
102
RTVSPropertyOp37
 70
     1
102
RTVSPropertyOp38
 70
     1
102
RTVSPropertyOp39
 70
     1
102
RTVSPropertyOp40
 70
     1
102
RTVSPropertyOp41
 70
     1
102
RTVSPropertyOp42
 70
     1
102
RTVSPropertyOp43
 70
     1
102
RTVSPropertyOp44
 70
     1
102
RTVSPropertyOp45
 70
     1
102
RTVSPropertyOp46
 70
     1
102
RTVSPropertyOp47
 70
     1
102
RTVSPropertyOp48
 70
     1
102
RTVSPropertyOp49
 70
     1
102
RTVSPropertyOp50
 70
     1
102
RTVSPropertyOp51
 70
     0
102
RTVSPropertyOp52
 70
     0
102
RTVSPropertyOp53
 70
     1
102
RTVSPropertyOp54
 70
     1
102
RTVSPropertyOp55
 70
     1
102
RTVSPropertyOp56
 70
     1
102
RTVSPropertyOp57
 70
     1
102
RTVSPost2010Prop28
280
     0
102
RTVSPost2010PropOp28
 70
     1
102
RTVSPost2010Prop29
280
     1
102
RTVSPost2010PropOp29
 70
     1
102
RTVSPost2010Prop30
280
     1
102
RTVSPost2010PropOp30
 70
     1
102
RTVSPost2010Prop31
280
     0
102
RTVSPost2010PropOp31
 70
     1
102
RTVSPost2010Prop32
280
     0
102
RTVSPost2010PropOp32
 70
     1
102
RTVSPost2010Prop33
280
     0
102
RTVSPost2010PropOp33
 70
     1
102
RTVSPost2010Prop34
280
     0
102
RTVSPost2010PropOp34
 70
     1
102
RTVSPost2010Prop35
280
     0
102
RTVSPost2010PropOp35
 70
     1
102
RTVSPost2010Prop36
280
     0
102
RTVSPost2010PropOp36
 70
     1
102
RTVSPost2010Prop37
 90
       50
102
RTVSPost2010PropOp37
 70
     1
102
RTVSPost2010Prop38
140
0.0
102
RTVSPost2010PropOp38
 70
     1
102
RTVSPost2010Prop39
140
1.0
102
RTVSPost2010PropOp39
 70
     1
102
RTVSPost2010Prop40
 90
        0
102
RTVSPost2010PropOp40
 70
     1
102
RTVSPost2010Prop41ColorIndex
 90
       18
102
RTVSPost2010Prop41ColorRGB
 90
        0
102
RTVSPost2010PropOp41
 70
     1
102
RTVSPost2010Prop42
 90
       50
102
RTVSPost2010PropOp42
 70
     1
102
RTVSPost2010Prop43
 90
        3
102
RTVSPost2010PropOp43
 70
     1
102
RTVSPost2010Prop44ColorIndex
 90
        5
102
RTVSPost2010Prop44ColorRGB
 90
      255
102
RTVSPost2010PropOp44
 70
     1
102
RTVSPost2010Prop45
280
     0
102
RTVSPost2010PropOp45
 70
     1
102
RTVSPost2010Prop46
 90
       50
102
RTVSPost2010PropOp46
 70
     1
102
RTVSPost2010Prop47
 90
       50
102
RTVSPost2010PropOp47
 70
     1
102
RTVSPost2010Prop48
 90
       50
102
RTVSPost2010PropOp48
 70
     1
102
RTVSPost2010Prop49
280
     0
102
RTVSPost2010PropOp49
 70
     1
102
RTVSPost2010Prop50
 90
       50
102
RTVSPost2010PropOp50
 70
     1
102
RTVSPost2010Prop51ColorIndex
 90
      256
102
RTVSPost2010Prop51ColorRGB
 90
-16777216
102
RTVSPost2010PropOp51
 70
     0
102
RTVSPost2010Prop52
140
1.0
102
RTVSPost2010PropOp52
 70
     0
102
RTVSPost2010Prop53
 90
        2
102
RTVSPost2010PropOp53
 70
     1
102
RTVSPost2010Prop54
  1
strokes_ogs.tif
102
RTVSPost2010PropOp54
 70
     1
102
RTVSPost2010Prop55
280
     0
102
RTVSPost2010PropOp55
 70
     1
102
RTVSPost2010Prop56
140
1.0
102
RTVSPost2010PropOp56
 70
     1
102
RTVSPost2010Prop57
140
1.0
102
RTVSPost2010PropOp57
 70
     1
  0
XRECORD
  5
2D8
102
{ACAD_REACTORS
330
2D7
102
}
330
2D7
100
AcDbXrecord
280
     1
102
RTVSPropertyOp0
 70
     1
102
RTVSPropertyOp1
 70
     1
102
RTVSPropertyOp2
 70
     1
102
RTVSPropertyOp3
 70
     1
102
RTVSPropertyOp4
 70
     1
102
RTVSPropertyOp5
 70
     1
102
RTVSPropertyOp6
 70
     1
102
RTVSPropertyOp7
 70
     1
102
RTVSPropertyOp8
 70
     1
102
RTVSPropertyOp9
 70
     1
102
RTVSPropertyOp10
 70
     1
102
RTVSPropertyOp11
 70
     1
102
RTVSPropertyOp12
 70
     1
102
RTVSPropertyOp13
 70
     1
102
RTVSPropertyOp14
 70
     1
102
RTVSPropertyOp15
 70
     1
102
RTVSPropertyOp16
 70
     1
102
RTVSPropertyOp17
 70
     1
102
RTVSPropertyOp18
 70
     1
102
RTVSPropertyOp19
 70
     1
102
RTVSPropertyOp20
 70
     1
102
RTVSPropertyOp21
 70
     1
102
RTVSPropertyOp22
 70
     1
102
RTVSPropertyOp23
 70
     1
102
RTVSPropertyOp24
 70
     1
102
RTVSPropertyOp25
 70
     1
102
RTVSPropertyOp26
 70
     1
102
RTVSPropertyOp27
 70
     1
102
RTVSPropertyOp28
 70
     1
102
RTVSPropertyOp29
 70
     1
102
RTVSPropertyOp30
 70
     1
102
RTVSPropertyOp31
 70
     1
102
RTVSPropertyOp32
 70
     1
102
RTVSPropertyOp33
 70
     1
102
RTVSPropertyOp34
 70
     1
102
RTVSPropertyOp35
 70
     1
102
RTVSPropertyOp36
 70
     1
102
RTVSPropertyOp37
 70
     1
102
RTVSPropertyOp38
 70
     1
102
RTVSPropertyOp39
 70
     1
102
RTVSPropertyOp40
 70
     1
102
RTVSPropertyOp41
 70
     1
102
RTVSPropertyOp42
 70
     1
102
RTVSPropertyOp43
 70
     1
102
RTVSPropertyOp44
 70
     1
102
RTVSPropertyOp45
 70
     1
102
RTVSPropertyOp46
 70
     1
102
RTVSPropertyOp47
 70
     1
102
RTVSPropertyOp48
 70
     1
102
RTVSPropertyOp49
 70
     1
102
RTVSPropertyOp50
 70
     1
102
RTVSPropertyOp51
 70
     0
102
RTVSPropertyOp52
 70
     0
102
RTVSPropertyOp53
 70
     1
102
RTVSPropertyOp54
 70
     1
102
RTVSPropertyOp55
 70
     1
102
RTVSPropertyOp56
 70
     1
102
RTVSPropertyOp57
 70
     1
102
RTVSPost2010Prop28
280
     0
102
RTVSPost2010PropOp28
 70
     1
102
RTVSPost2010Prop29
280
     1
102
RTVSPost2010PropOp29
 70
     1
102
RTVSPost2010Prop30
280
     1
102
RTVSPost2010PropOp30
 70
     1
102
RTVSPost2010Prop31
280
     0
102
RTVSPost2010PropOp31
 70
     1
102
RTVSPost2010Prop32
280
     0
102
RTVSPost2010PropOp32
 70
     1
102
RTVSPost2010Prop33
280
     0
102
RTVSPost2010PropOp33
 70
     1
102
RTVSPost2010Prop34
280
     0
102
RTVSPost2010PropOp34
 70
     1
102
RTVSPost2010Prop35
280
     0
102
RTVSPost2010PropOp35
 70
     1
102
RTVSPost2010Prop36
280
     0
102
RTVSPost2010PropOp36
 70
     1
102
RTVSPost2010Prop37
 90
       50
102
RTVSPost2010PropOp37
 70
     1
102
RTVSPost2010Prop38
140
0.0
102
RTVSPost2010PropOp38
 70
     1
102
RTVSPost2010Prop39
140
1.0
102
RTVSPost2010PropOp39
 70
     1
102
RTVSPost2010Prop40
 90
        0
102
RTVSPost2010PropOp40
 70
     1
102
RTVSPost2010Prop41ColorIndex
 90
       18
102
RTVSPost2010Prop41ColorRGB
 90
        0
102
RTVSPost2010PropOp41
 70
     1
102
RTVSPost2010Prop42
 90
       50
102
RTVSPost2010PropOp42
 70
     1
102
RTVSPost2010Prop43
 90
        3
102
RTVSPost2010PropOp43
 70
     1
102
RTVSPost2010Prop44ColorIndex
 90
        5
102
RTVSPost2010Prop44ColorRGB
 90
      255
102
RTVSPost2010PropOp44
 70
     1
102
RTVSPost2010Prop45
280
     0
102
RTVSPost2010PropOp45
 70
     1
102
RTVSPost2010Prop46
 90
       50
102
RTVSPost2010PropOp46
 70
     1
102
RTVSPost2010Prop47
 90
       50
102
RTVSPost2010PropOp47
 70
     1
102
RTVSPost2010Prop48
 90
       50
102
RTVSPost2010PropOp48
 70
     1
102
RTVSPost2010Prop49
280
     0
102
RTVSPost2010PropOp49
 70
     1
102
RTVSPost2010Prop50
 90
       50
102
RTVSPost2010PropOp50
 70
     1
102
RTVSPost2010Prop51ColorIndex
 90
      256
102
RTVSPost2010Prop51ColorRGB
 90
-16777216
102
RTVSPost2010PropOp51
 70
     0
102
RTVSPost2010Prop52
140
1.0
102
RTVSPost2010PropOp52
 70
     0
102
RTVSPost2010Prop53
 90
        2
102
RTVSPost2010PropOp53
 70
     1
102
RTVSPost2010Prop54
  1
strokes_ogs.tif
102
RTVSPost2010PropOp54
 70
     1
102
RTVSPost2010Prop55
280
     0
102
RTVSPost2010PropOp55
 70
     1
102
RTVSPost2010Prop56
140
1.0
102
RTVSPost2010PropOp56
 70
     1
102
RTVSPost2010Prop57
140
1.0
102
RTVSPost2010PropOp57
 70
     1
  0
ENDSEC
  0
EOF
