  0
SECTION
  2
HEADER
  9
$ACADVER
  1
AC1018
  9
$ACADMAINTVER
 70
     0
  9
$DWGCODEPAGE
  3
ANSI_932
  9
$INSBASE
 10
0.0
 20
0.0
 30
0.0
  9
$EXTMIN
 10
-630.0
 20
-445.5
 30
0.0
  9
$EXTMAX
 10
630.0
 20
445.5
 30
0.0
  9
$LIMMIN
 10
-630.0
 20
-445.5
  9
$LIMMAX
 10
630.0
 20
445.5
  9
$ORTHOMODE
 70
     0
  9
$REGENMODE
 70
     1
  9
$FILLMODE
 70
     1
  9
$QTEXTMODE
 70
     0
  9
$MIRRTEXT
 70
     1
  9
$LTSCALE
 40
3.0
  9
$ATTMODE
 70
     1
  9
$TEXTSIZE
 40
2.5
  9
$TRACEWID
 40
1.0
  9
$TEXTSTYLE
  7
Standard
  9
$CLAYER
  8
0
  9
$CELTYPE
  6
ByLayer
  9
$CECOLOR
 62
   256
  9
$CELTSCALE
 40
1.0
  9
$DISPSILH
 70
     0
  9
$DIMSCALE
 40
1.0
  9
$DIMASZ
 40
2.5
  9
$DIMEXO
 40
0.625
  9
$DIMDLI
 40
3.75
  9
$DIMRND
 40
0.0
  9
$DIMDLE
 40
0.0
  9
$DIMEXE
 40
1.25
  9
$DIMTP
 40
0.0
  9
$DIMTM
 40
0.0
  9
$DIMTXT
 40
2.5
  9
$DIMCEN
 40
2.5
  9
$DIMTSZ
 40
0.0
  9
$DIMTOL
 70
     0
  9
$DIMLIM
 70
     0
  9
$DIMTIH
 70
     0
  9
$DIMTOH
 70
     0
  9
$DIMSE1
 70
     0
  9
$DIMSE2
 70
     0
  9
$DIMTAD
 70
     1
  9
$DIMZIN
 70
     8
  9
$DIMBLK
  1

  9
$DIMASO
 70
     1
  9
$DIMSHO
 70
     1
  9
$DIMPOST
  1

  9
$DIMAPOST
  1

  9
$DIMALT
 70
     0
  9
$DIMALTD
 70
     3
  9
$DIMALTF
 40
0.03937007874016
  9
$DIMLFAC
 40
1.0
  9
$DIMTOFL
 70
     1
  9
$DIMTVP
 40
0.0
  9
$DIMTIX
 70
     0
  9
$DIMSOXD
 70
     0
  9
$DIMSAH
 70
     0
  9
$DIMBLK1
  1

  9
$DIMBLK2
  1

  9
$DIMSTYLE
  2
ISO-25
  9
$DIMCLRD
 70
     0
  9
$DIMCLRE
 70
     0
  9
$DIMCLRT
 70
     0
  9
$DIMTFAC
 40
1.0
  9
$DIMGAP
 40
0.625
  9
$DIMJUST
 70
     0
  9
$DIMSD1
 70
     0
  9
$DIMSD2
 70
     0
  9
$DIMTOLJ
 70
     0
  9
$DIMTZIN
 70
     8
  9
$DIMALTZ
 70
     0
  9
$DIMALTTZ
 70
     0
  9
$DIMUPT
 70
     0
  9
$DIMDEC
 70
     2
  9
$DIMTDEC
 70
     2
  9
$DIMALTU
 70
     2
  9
$DIMALTTD
 70
     3
  9
$DIMTXSTY
  7
Standard
  9
$DIMAUNIT
 70
     0
  9
$DIMADEC
 70
     0
  9
$DIMALTRND
 40
0.0
  9
$DIMAZIN
 70
     0
  9
$DIMDSEP
 70
    44
  9
$DIMATFIT
 70
     3
  9
$DIMFRAC
 70
     0
  9
$DIMLDRBLK
  1

  9
$DIMLUNIT
 70
     2
  9
$DIMLWD
 70
    -2
  9
$DIMLWE
 70
    -2
  9
$DIMTMOVE
 70
     0
  9
$LUNITS
 70
     2
  9
$LUPREC
 70
     4
  9
$SKETCHINC
 40
1.0
  9
$FILLETRAD
 40
10.0
  9
$AUNITS
 70
     0
  9
$AUPREC
 70
     0
  9
$MENU
  1
.
  9
$ELEVATION
 40
0.0
  9
$PELEVATION
 40
0.0
  9
$THICKNESS
 40
0.0
  9
$LIMCHECK
 70
     0
  9
$CHAMFERA
 40
10.0
  9
$CHAMFERB
 40
10.0
  9
$CHAMFERC
 40
20.0
  9
$CHAMFERD
 40
0.0
  9
$SKPOLY
 70
     0
  9
$TDCREATE
 40
2456498.821717373
  9
$TDUCREATE
 40
2456498.446717373
  9
$TDUPDATE
 40
2456498.821717384
  9
$TDUUPDATE
 40
2456498.446717384
  9
$TDINDWG
 40
0.0000000116
  9
$TDUSRTIMER
 40
0.0000000116
  9
$USRTIMER
 70
     1
  9
$ANGBASE
 50
0.0
  9
$ANGDIR
 70
     0
  9
$PDMODE
 70
     0
  9
$PDSIZE
 40
0.0
  9
$PLINEWID
 40
0.0
  9
$SPLFRAME
 70
     0
  9
$SPLINETYPE
 70
     6
  9
$SPLINESEGS
 70
     8
  9
$HANDSEED
  5
49A
  9
$SURFTAB1
 70
     6
  9
$SURFTAB2
 70
     6
  9
$SURFTYPE
 70
     6
  9
$SURFU
 70
     6
  9
$SURFV
 70
     6
  9
$UCSBASE
  2

  9
$UCSNAME
  2

  9
$UCSORG
 10
0.0
 20
0.0
 30
0.0
  9
$UCSXDIR
 10
1.0
 20
0.0
 30
0.0
  9
$UCSYDIR
 10
0.0
 20
1.0
 30
0.0
  9
$UCSORTHOREF
  2

  9
$UCSORTHOVIEW
 70
     0
  9
$UCSORGTOP
 10
0.0
 20
0.0
 30
0.0
  9
$UCSORGBOTTOM
 10
0.0
 20
0.0
 30
0.0
  9
$UCSORGLEFT
 10
0.0
 20
0.0
 30
0.0
  9
$UCSORGRIGHT
 10
0.0
 20
0.0
 30
0.0
  9
$UCSORGFRONT
 10
0.0
 20
0.0
 30
0.0
  9
$UCSORGBACK
 10
0.0
 20
0.0
 30
0.0
  9
$PUCSBASE
  2

  9
$PUCSNAME
  2

  9
$PUCSORG
 10
0.0
 20
0.0
 30
0.0
  9
$PUCSXDIR
 10
1.0
 20
0.0
 30
0.0
  9
$PUCSYDIR
 10
0.0
 20
1.0
 30
0.0
  9
$PUCSORTHOREF
  2

  9
$PUCSORTHOVIEW
 70
     0
  9
$PUCSORGTOP
 10
0.0
 20
0.0
 30
0.0
  9
$PUCSORGBOTTOM
 10
0.0
 20
0.0
 30
0.0
  9
$PUCSORGLEFT
 10
0.0
 20
0.0
 30
0.0
  9
$PUCSORGRIGHT
 10
0.0
 20
0.0
 30
0.0
  9
$PUCSORGFRONT
 10
0.0
 20
0.0
 30
0.0
  9
$PUCSORGBACK
 10
0.0
 20
0.0
 30
0.0
  9
$USERI1
 70
     0
  9
$USERI2
 70
     0
  9
$USERI3
 70
     0
  9
$USERI4
 70
     0
  9
$USERI5
 70
     0
  9
$USERR1
 40
0.0
  9
$USERR2
 40
0.0
  9
$USERR3
 40
0.0
  9
$USERR4
 40
0.0
  9
$USERR5
 40
0.0
  9
$WORLDVIEW
 70
     1
  9
$SHADEDGE
 70
     3
  9
$SHADEDIF
 70
    70
  9
$TILEMODE
 70
     1
  9
$MAXACTVP
 70
    64
  9
$PINSBASE
 10
0.0
 20
0.0
 30
0.0
  9
$PLIMCHECK
 70
     0
  9
$PEXTMIN
 10
1.000000000000000E+20
 20
1.000000000000000E+20
 30
1.000000000000000E+20
  9
$PEXTMAX
 10
-1.000000000000000E+20
 20
-1.000000000000000E+20
 30
-1.000000000000000E+20
  9
$PLIMMIN
 10
0.0
 20
0.0
  9
$PLIMMAX
 10
420.0
 20
297.0
  9
$UNITMODE
 70
     0
  9
$VISRETAIN
 70
     1
  9
$PLINEGEN
 70
     0
  9
$PSLTSCALE
 70
     1
  9
$TREEDEPTH
 70
  3020
  9
$CMLSTYLE
  2
Standard
  9
$CMLJUST
 70
     0
  9
$CMLSCALE
 40
20.0
  9
$PROXYGRAPHICS
 70
     1
  9
$MEASUREMENT
 70
     1
  9
$CELWEIGHT
370
    -1
  9
$ENDCAPS
280
     0
  9
$JOINSTYLE
280
     0
  9
$LWDISPLAY
290
     0
  9
$INSUNITS
 70
     4
  9
$HYPERLINKBASE
  1

  9
$STYLESHEET
  1

  9
$XEDIT
290
     1
  9
$CEPSNTYPE
380
     0
  9
$PSTYLEMODE
290
     1
  9
$FINGERPRINTGUID
  2
{5610785A-371C-4728-B531-453836FA91A8}
  9
$VERSIONGUID
  2
{FAEB1C32-E019-11D5-929B-00C0DF256EC4}
  9
$EXTNAMES
290
     1
  9
$PSVPSCALE
 40
0.0
  9
$OLESTARTUP
290
     0
  9
$SORTENTS
280
   127
  9
$INDEXCTL
280
     0
  9
$HIDETEXT
280
     1
  9
$XCLIPFRAME
290
     0
  9
$HALOGAP
280
     0
  9
$OBSCOLOR
 70
   257
  9
$OBSLTYPE
280
     0
  9
$INTERSECTIONDISPLAY
280
     0
  9
$INTERSECTIONCOLOR
 70
   257
  9
$DIMASSOC
280
     2
  9
$PROJECTNAME
  1

  0
ENDSEC
  0
SECTION
  2
CLASSES
  0
CLASS
  1
ACDBDICTIONARYWDFLT
  2
AcDbDictionaryWithDefault
  3
ObjectDBX Classes
 90
        0
 91
        4
280
     0
281
     0
  0
CLASS
  1
VISUALSTYLE
  2
AcDbVisualStyle
  3
ObjectDBX Classes
 90
     4095
 91
        4
280
     0
281
     0
  0
ENDSEC
  0
SECTION
  2
TABLES
  0
TABLE
  2
VPORT
  5
8
330
0
100
AcDbSymbolTable
 70
     1
  0
VPORT
  5
29
330
8
100
AcDbSymbolTableRecord
100
AcDbViewportTableRecord
  2
*Active
 70
     0
 10
0.0
 20
0.0
 11
1.0
 21
1.0
 12
0.0
 22
0.0
 13
0.0
 23
0.0
 14
10.0
 24
10.0
 15
10.0
 25
10.0
 16
0.0
 26
0.0
 36
1.0
 17
0.0
 27
0.0
 37
0.0
 40
980.1
 41
1.414141414141414
 42
50.0
 43
0.0
 44
0.0
 50
0.0
 51
0.0
 71
     0
 72
 10000
 73
     1
 74
     3
 75
     0
 76
     0
 77
     0
 78
     0
281
     0
 65
     1
110
0.0
120
0.0
130
0.0
111
1.0
121
0.0
131
0.0
112
0.0
122
1.0
132
0.0
 79
     0
146
0.0
  0
ENDTAB
  0
TABLE
  2
LTYPE
  5
5
330
0
100
AcDbSymbolTable
 70
     5
  0
LTYPE
  5
14
330
5
100
AcDbSymbolTableRecord
100
AcDbLinetypeTableRecord
  2
ByBlock
 70
     0
  3

 72
    65
 73
     0
 40
0.0
  0
LTYPE
  5
15
330
5
100
AcDbSymbolTableRecord
100
AcDbLinetypeTableRecord
  2
ByLayer
 70
     0
  3

 72
    65
 73
     0
 40
0.0
  0
LTYPE
  5
16
330
5
100
AcDbSymbolTableRecord
100
AcDbLinetypeTableRecord
  2
Continuous
 70
     0
  3
Solid line
 72
    65
 73
     0
 40
0.0
  0
LTYPE
  5
3C
330
5
100
AcDbSymbolTableRecord
100
AcDbLinetypeTableRecord
  2
JWW_CENTER1
 70
     0
  3
-----  --  ----------  --  -----
 72
    65
 73
     4
 40
6.773333333333333
 49
4.233333333333333
 74
     0
 49
-0.8466666666666667
 74
     0
 49
0.8466666666666667
 74
     0
 49
-0.8466666666666667
 74
     0
  0
LTYPE
  5
3D
330
5
100
AcDbSymbolTableRecord
100
AcDbLinetypeTableRecord
  2
JWW_DASHED1
 70
     0
  3
-  --  --  --  --  --  --  --  -
 72
    65
 73
     2
 40
1.693333333333333
 49
0.8466666666666667
 74
     0
 49
-0.8466666666666667
 74
     0
  0
LTYPE
  5
3E
330
5
100
AcDbSymbolTableRecord
100
AcDbLinetypeTableRecord
  2
JWW_HOJO
 70
     0
  3
  -   -   -   -   -   -   -   - 
 72
    65
 73
     2
 40
1.693333333333333
 49
-1.27
 74
     0
 49
0.4233333333333333
 74
     0
  0
LTYPE
  5
3F
330
5
100
AcDbSymbolTableRecord
100
AcDbLinetypeTableRecord
  2
JWW_PHANTOM1
 70
     0
  3
----  -  -  --------  -  -  ----
 72
    65
 73
     6
 40
6.773333333333333
 49
3.386666666666667
 74
     0
 49
-0.8466666666666667
 74
     0
 49
0.4233333333333333
 74
     0
 49
-0.8466666666666667
 74
     0
 49
0.4233333333333333
 74
     0
 49
-0.8466666666666667
 74
     0
  0
ENDTAB
  0
TABLE
  2
LAYER
  5
2
330
0
100
AcDbSymbolTable
 70
    12
  0
LAYER
  5
10
330
2
100
AcDbSymbolTableRecord
100
AcDbLayerTableRecord
  2
0
 70
     0
 62
     7
  6
Continuous
370
    -3
390
F
  0
LAYER
  5
40
330
2
100
AcDbSymbolTableRecord
100
AcDbLayerTableRecord
  2
F-5ﾚｲﾔ
 70
     0
 62
     7
  6
Continuous
370
    -3
390
F
  0
LAYER
  5
41
330
2
100
AcDbSymbolTableRecord
100
AcDbLayerTableRecord
  2
F-4ﾚｲﾔ
 70
     0
 62
     7
  6
Continuous
370
    -3
390
F
  0
LAYER
  5
42
330
2
100
AcDbSymbolTableRecord
100
AcDbLayerTableRecord
  2
0-1_ピット
 70
     0
 62
     7
  6
Continuous
370
    -3
390
F
  0
LAYER
  5
43
330
2
100
AcDbSymbolTableRecord
100
AcDbLayerTableRecord
  2
0-9
 70
     0
 62
     7
  6
Continuous
370
    -3
390
F
  0
LAYER
  5
44
330
2
100
AcDbSymbolTableRecord
100
AcDbLayerTableRecord
  2
0-B
 70
     0
 62
     7
  6
Continuous
370
    -3
390
F
  0
LAYER
  5
45
330
2
100
AcDbSymbolTableRecord
100
AcDbLayerTableRecord
  2
0-0_通り芯
 70
     0
 62
     7
  6
Continuous
370
    -3
390
F
  0
LAYER
  5
46
330
2
100
AcDbSymbolTableRecord
100
AcDbLayerTableRecord
  2
0-A
 70
     0
 62
     7
  6
Continuous
370
    -3
390
F
  0
LAYER
  5
47
330
2
100
AcDbSymbolTableRecord
100
AcDbLayerTableRecord
  2
0-2_本体（蓋）
 70
     0
 62
     7
  6
Continuous
370
    -3
390
F
  0
LAYER
  5
48
330
2
100
AcDbSymbolTableRecord
100
AcDbLayerTableRecord
  2
0-6
 70
     0
 62
     7
  6
Continuous
370
    -3
390
F
  0
LAYER
  5
49
330
2
100
AcDbSymbolTableRecord
100
AcDbLayerTableRecord
  2
0-4_寸法
 70
     0
 62
     7
  6
Continuous
370
    -3
390
F
  0
LAYER
  5
4A
330
2
100
AcDbSymbolTableRecord
100
AcDbLayerTableRecord
  2
0-5_文字
 70
     0
 62
     7
  6
Continuous
370
    -3
390
F
  0
ENDTAB
  0
TABLE
  2
STYLE
  5
3
330
0
100
AcDbSymbolTable
 70
     2
  0
STYLE
  5
11
330
3
100
AcDbSymbolTableRecord
100
AcDbTextStyleTableRecord
  2
Standard
 70
     0
 40
0.0
 41
1.0
 50
0.0
 71
     0
 42
2.5
  3
txt
  4

1001
ACAD
1000

1071
        0
  0
STYLE
  5
3B
330
3
100
AcDbSymbolTableRecord
100
AcDbTextStyleTableRecord
  2
ＭＳ ゴシック
 70
     0
 40
1.0
 41
1.0
 50
0.0
 71
     0
 42
10.0
  3

  4

1001
ACAD
1000
MS Gothic
1071
    32817
  0
ENDTAB
  0
TABLE
  2
VIEW
  5
6
330
0
100
AcDbSymbolTable
 70
     0
  0
ENDTAB
  0
TABLE
  2
UCS
  5
7
330
0
100
AcDbSymbolTable
 70
     0
  0
ENDTAB
  0
TABLE
  2
APPID
  5
9
330
0
100
AcDbSymbolTable
 70
     1
  0
APPID
  5
12
330
9
100
AcDbSymbolTableRecord
100
AcDbRegAppTableRecord
  2
ACAD
 70
     0
  0
ENDTAB
  0
TABLE
  2
DIMSTYLE
  5
A
330
0
100
AcDbSymbolTable
 70
     1
100
AcDbDimStyleTable
  0
DIMSTYLE
105
27
330
A
100
AcDbSymbolTableRecord
100
AcDbDimStyleTableRecord
  2
ISO-25
 70
     0
 41
2.5
 42
0.625
 43
3.75
 44
1.25
 73
     0
 74
     0
 77
     1
 78
     8
140
2.5
141
2.5
143
0.03937007874016
147
0.625
171
     3
172
     1
271
     2
272
     2
274
     3
278
    44
283
     0
284
     8
340
11
  0
ENDTAB
  0
TABLE
  2
BLOCK_RECORD
  5
1
330
0
100
AcDbSymbolTable
 70
     1
  0
BLOCK_RECORD
  5
1F
330
1
100
AcDbSymbolTableRecord
100
AcDbBlockTableRecord
  2
*Model_Space
340
22
  0
BLOCK_RECORD
  5
1B
330
1
100
AcDbSymbolTableRecord
100
AcDbBlockTableRecord
  2
*Paper_Space
340
1E
  0
BLOCK_RECORD
  5
23
330
1
100
AcDbSymbolTableRecord
100
AcDbBlockTableRecord
  2
*Paper_Space0
340
26
  0
ENDTAB
  0
ENDSEC
  0
SECTION
  2
BLOCKS
  0
BLOCK
  5
20
330
1F
100
AcDbEntity
  8
0
100
AcDbBlockBegin
  2
*Model_Space
 70
     0
 10
0.0
 20
0.0
 30
0.0
  3
*Model_Space
  1

  0
ENDBLK
  5
21
330
1F
100
AcDbEntity
  8
0
100
AcDbBlockEnd
  0
BLOCK
  5
1C
330
1B
100
AcDbEntity
 67
     1
  8
0
100
AcDbBlockBegin
  2
*Paper_Space
 70
     0
 10
0.0
 20
0.0
 30
0.0
  3
*Paper_Space
  1

  0
ENDBLK
  5
1D
330
1B
100
AcDbEntity
 67
     1
  8
0
100
AcDbBlockEnd
  0
BLOCK
  5
24
330
23
100
AcDbEntity
  8
0
100
AcDbBlockBegin
  2
*Paper_Space0
 70
     0
 10
0.0
 20
0.0
 30
0.0
  3
*Paper_Space0
  1

  0
ENDBLK
  5
25
330
23
100
AcDbEntity
  8
0
100
AcDbBlockEnd
  0
ENDSEC
  0
SECTION
  2
ENTITIES
  0
TEXT
  5
4B
330
1F
100
AcDbEntity
  8
F-5ﾚｲﾔ
  6
Continuous
 62
     6
370
     5
100
AcDbText
 10
-27.8267654114591
 20
-234.6465207002138
 30
0.0
 40
9.144
  1
注）ボルト長さの適用防水層の厚さは、次の通りです。
 41
0.7979999999999997
  7
ＭＳ ゴシック
100
AcDbText
  0
TEXT
  5
4C
330
1F
100
AcDbEntity
  8
F-5ﾚｲﾔ
  6
Continuous
 62
     6
370
     5
100
AcDbText
 10
-27.82674215211576
 20
-249.646533072205
 30
0.0
 40
9.144
  1
　　　アスファルト防水用の防水層厚さ＝１０～１２ｍｍ
 41
0.7980769230769231
  7
ＭＳ ゴシック
100
AcDbText
  0
TEXT
  5
4D
330
1F
100
AcDbEntity
  8
F-5ﾚｲﾔ
  6
Continuous
 62
     6
370
     5
100
AcDbText
 10
0.9732615594815357
 20
-264.6465454441961
 30
0.0
 40
9.144
  1
シート・・
 41
0.7900000000000003
  7
ＭＳ ゴシック
100
AcDbText
  0
TEXT
  5
4E
330
1F
100
AcDbEntity
  8
F-5ﾚｲﾔ
  6
Continuous
 62
     6
370
     5
100
AcDbText
 10
58.57325364140728
 20
-264.6465454441961
 30
0.0
 40
9.144
  1
防水用の防水層厚さ＝３ｍｍ以下
 41
0.7966666666666664
  7
ＭＳ ゴシック
100
AcDbText
  0
TEXT
  5
4F
330
1F
100
AcDbEntity
  8
F-5ﾚｲﾔ
  6
Continuous
 62
     6
370
     5
100
AcDbText
 10
-27.82675155482903
 20
-279.6465578161872
 30
0.0
 40
9.144
  1
　上記以外の場合は、防水層の厚さを御指示下さい。
 41
0.7979166666666665
  7
ＭＳ ゴシック
100
AcDbText
  0
TEXT
  5
50
330
1F
100
AcDbEntity
  8
F-4ﾚｲﾔ
  6
Continuous
 62
     2
370
     9
100
AcDbText
 10
-36.82535619687133
 20
-332.7171027886741
 30
0.0
 40
9.144
  1
たて引き用　一般型　外断熱用　アスファルト・シート防水用
 41
0.7741071428571429
  7
ＭＳ ゴシック
100
AcDbText
  0
TEXT
  5
51
330
1F
100
AcDbEntity
  8
F-4ﾚｲﾔ
  6
Continuous
 62
     2
370
     9
100
AcDbText
 10
0.3013301541726463
 20
-347.4101006528908
 30
0.0
 40
9.144
  1
差し込み式　ルーフドレイン　ＥＳＪＷ－３－１００
 41
0.7739583333333334
  7
ＭＳ ゴシック
100
AcDbText
  0
LINE
  5
52
330
1F
100
AcDbEntity
  8
0-1_ピット
  6
Continuous
 62
     2
370
     9
100
AcDbLine
 10
49.3932698769655
 20
288.0332483592284
 30
0.0
 11
54.71183003170727
 21
289.4583404598652
 31
0.0
  0
LINE
  5
53
330
1F
100
AcDbEntity
  8
0-1_ピット
  6
Continuous
 62
     2
370
     9
100
AcDbLine
 10
51.14906261995609
 20
286.9507729252896
 30
0.0
 11
54.05295563781703
 21
287.7289066563806
 31
0.0
  0
LINE
  5
54
330
1F
100
AcDbEntity
  8
0-1_ピット
  6
Continuous
 62
     2
370
     9
100
AcDbLine
 10
54.05295563781703
 20
287.7289066563806
 30
0.0
 11
54.71183003170727
 21
289.4583404598652
 31
0.0
  0
LINE
  5
55
330
1F
100
AcDbEntity
  8
0-1_ピット
  6
Continuous
 62
     2
370
     9
100
AcDbLine
 10
51.14906261995609
 20
286.9507729252896
 30
0.0
 11
49.3932698769655
 21
288.0332483592284
 31
0.0
  0
LINE
  5
56
330
1F
100
AcDbEntity
  8
0-1_ピット
  6
Continuous
 62
     2
370
     9
100
AcDbLine
 10
30.11807240231274
 20
325.5599552462564
 30
0.0
 11
34.01151568297837
 21
329.4533985269219
 31
0.0
  0
LINE
  5
57
330
1F
100
AcDbEntity
  8
0-1_ピット
  6
Continuous
 62
     2
370
     9
100
AcDbLine
 10
47.32273058658522
 20
295.7606043457168
 30
0.0
 11
52.64126596788764
 21
297.185721219793
 31
0.0
  0
LINE
  5
58
330
1F
100
AcDbEntity
  8
0-1_ピット
  6
Continuous
 62
     2
370
     9
100
AcDbLine
 10
32.17984189515067
 20
325.5003998979742
 30
0.0
 11
34.30570027567825
 21
327.6262335050624
 31
0.0
  0
LINE
  5
59
330
1F
100
AcDbEntity
  8
0-1_ピット
  6
Continuous
 62
     2
370
     9
100
AcDbLine
 10
48.30204941892377
 20
297.5759524369896
 30
0.0
 11
51.20594243678464
 21
298.3540613946411
 31
0.0
  0
LINE
  5
5A
330
1F
100
AcDbEntity
  8
0-1_ピット
  6
Continuous
 62
     2
370
     9
100
AcDbLine
 10
47.32273058658522
 20
295.7606043457168
 30
0.0
 11
48.30204941892377
 21
297.5759524369896
 31
0.0
  0
LINE
  5
5B
330
1F
100
AcDbEntity
  8
0-1_ピット
  6
Continuous
 62
     2
370
     9
100
AcDbLine
 10
51.20594243678464
 20
298.3540613946411
 30
0.0
 11
52.64126596788764
 21
297.185721219793
 31
0.0
  0
LINE
  5
5C
330
1F
100
AcDbEntity
  8
0-1_ピット
  6
Continuous
 62
     2
370
     9
100
AcDbLine
 10
34.30570027567825
 20
327.6262335050624
 30
0.0
 11
34.01151568297837
 21
329.4533985269219
 31
0.0
  0
LINE
  5
5D
330
1F
100
AcDbEntity
  8
0-1_ピット
  6
Continuous
 62
     2
370
     9
100
AcDbLine
 10
32.17984189515067
 20
325.5003998979742
 30
0.0
 11
30.11807240231274
 21
325.5599552462564
 31
0.0
  0
LINE
  5
5E
330
1F
100
AcDbEntity
  8
0-1_ピット
  6
Continuous
 62
     2
370
     9
100
AcDbLine
 10
-5.338095194334864
 20
348.4214301266369
 30
0.0
 11
-3.912978320258613
 21
353.739977894659
 31
0.0
  0
LINE
  5
5F
330
1F
100
AcDbEntity
  8
0-1_ピット
  6
Continuous
 62
     2
370
     9
100
AcDbLine
 10
24.46128047964407
 20
331.2167719423644
 30
0.0
 11
28.35469898687029
 21
335.1102399964694
 31
0.0
  0
LINE
  5
60
330
1F
100
AcDbEntity
  8
0-1_ピット
  6
Continuous
 62
     2
370
     9
100
AcDbLine
 10
-3.522747103062096
 20
349.4007613456951
 30
0.0
 11
-2.744662918849992
 21
352.3046915237151
 31
0.0
  0
LINE
  5
61
330
1F
100
AcDbEntity
  8
0-1_ピット
  6
Continuous
 62
     2
370
     9
100
AcDbLine
 10
24.40170035792255
 20
333.2785414352023
 30
0.0
 11
26.52750919157131
 21
335.4043750422906
 31
0.0
  0
LINE
  5
62
330
1F
100
AcDbEntity
  8
0-1_ピット
  6
Continuous
 62
     2
370
     9
100
AcDbLine
 10
24.46128047964407
 20
331.2167719423644
 30
0.0
 11
24.40170035792255
 21
333.2785414352023
 31
0.0
  0
LINE
  5
63
330
1F
100
AcDbEntity
  8
0-1_ピット
  6
Continuous
 62
     2
370
     9
100
AcDbLine
 10
26.52750919157131
 20
335.4043750422906
 30
0.0
 11
28.35469898687029
 21
335.1102399964694
 31
0.0
  0
LINE
  5
64
330
1F
100
AcDbEntity
  8
0-1_ピット
  6
Continuous
 62
     2
370
     9
100
AcDbLine
 10
-2.744662918849992
 20
352.3046915237151
 30
0.0
 11
-3.912978320258613
 21
353.739977894659
 31
0.0
  0
LINE
  5
65
330
1F
100
AcDbEntity
  8
0-1_ピット
  6
Continuous
 62
     2
370
     9
100
AcDbLine
 10
-3.522747103062096
 20
349.4007613456951
 30
0.0
 11
-5.338095194334864
 21
348.4214301266369
 31
0.0
  0
LINE
  5
66
330
1F
100
AcDbEntity
  8
0-1_ピット
  6
Continuous
 62
     2
370
     9
100
AcDbLine
 10
-47.4747675493681
 20
350.4919818037368
 30
0.0
 11
-48.89985965000493
 21
355.8105295717589
 31
0.0
  0
LINE
  5
67
330
1F
100
AcDbEntity
  8
0-1_ピット
  6
Continuous
 62
     2
370
     9
100
AcDbLine
 10
-13.06547595426263
 20
350.4919818037368
 30
0.0
 11
-11.64035908018638
 21
355.8105295717589
 31
0.0
  0
LINE
  5
68
330
1F
100
AcDbEntity
  8
0-1_ピット
  6
Continuous
 62
     2
370
     9
100
AcDbLine
 10
-46.39229211542936
 20
352.2477497732881
 30
0.0
 11
-47.17040107308087
 21
355.1516675645884
 31
0.0
  0
LINE
  5
69
330
1F
100
AcDbEntity
  8
0-1_ピット
  6
Continuous
 62
     2
370
     9
100
AcDbLine
 10
-14.14792661476201
 20
352.2477497732881
 30
0.0
 11
-13.3698176571105
 21
355.1516675645884
 31
0.0
  0
LINE
  5
6A
330
1F
100
AcDbEntity
  8
0-1_ピット
  6
Continuous
 62
     2
370
     9
100
AcDbLine
 10
-13.06547595426263
 20
350.4919818037368
 30
0.0
 11
-14.14792661476201
 21
352.2477497732881
 31
0.0
  0
LINE
  5
6B
330
1F
100
AcDbEntity
  8
0-1_ピット
  6
Continuous
 62
     2
370
     9
100
AcDbLine
 10
-13.3698176571105
 20
355.1516675645884
 30
0.0
 11
-11.64035908018638
 21
355.8105295717589
 31
0.0
  0
LINE
  5
6C
330
1F
100
AcDbEntity
  8
0-1_ピット
  6
Continuous
 62
     2
370
     9
100
AcDbLine
 10
-47.17040107308087
 20
355.1516675645884
 30
0.0
 11
-48.89985965000493
 21
355.8105295717589
 31
0.0
  0
LINE
  5
6D
330
1F
100
AcDbEntity
  8
0-1_ピット
  6
Continuous
 62
     2
370
     9
100
AcDbLine
 10
-46.39229211542936
 20
352.2477497732881
 30
0.0
 11
-47.4747675493681
 21
350.4919818037368
 31
0.0
  0
LINE
  5
6E
330
1F
100
AcDbEntity
  8
0-1_ピット
  6
Continuous
 62
     2
370
     9
100
AcDbLine
 10
-85.00147443639605
 20
331.2167719423645
 30
0.0
 11
-88.89491771706162
 21
335.1102152230301
 31
0.0
  0
LINE
  5
6F
330
1F
100
AcDbEntity
  8
0-1_ピット
  6
Continuous
 62
     2
370
     9
100
AcDbLine
 10
-55.20214830929585
 20
348.4214301266369
 30
0.0
 11
-56.6272404099327
 21
353.739977894659
 31
0.0
  0
LINE
  5
70
330
1F
100
AcDbEntity
  8
0-1_ピット
  6
Continuous
 62
     2
370
     9
100
AcDbLine
 10
-84.94189431467453
 20
333.2785414352023
 30
0.0
 11
-87.06772792176268
 21
335.4043750422906
 31
0.0
  0
LINE
  5
71
330
1F
100
AcDbEntity
  8
0-1_ピット
  6
Continuous
 62
     2
370
     9
100
AcDbLine
 10
-57.01744685368987
 20
349.4007613456951
 30
0.0
 11
-57.79558058478072
 21
352.304654363556
 31
0.0
  0
LINE
  5
72
330
1F
100
AcDbEntity
  8
0-1_ピット
  6
Continuous
 62
     2
370
     9
100
AcDbLine
 10
-55.20214830929585
 20
348.4214301266369
 30
0.0
 11
-57.01744685368987
 21
349.4007613456951
 31
0.0
  0
LINE
  5
73
330
1F
100
AcDbEntity
  8
0-1_ピット
  6
Continuous
 62
     2
370
     9
100
AcDbLine
 10
-57.79558058478072
 20
352.304654363556
 30
0.0
 11
-56.6272404099327
 21
353.739977894659
 31
0.0
  0
LINE
  5
74
330
1F
100
AcDbEntity
  8
0-1_ピット
  6
Continuous
 62
     2
370
     9
100
AcDbLine
 10
-87.06772792176268
 20
335.4043750422906
 30
0.0
 11
-88.89491771706162
 21
335.1102152230301
 31
0.0
  0
LINE
  5
75
330
1F
100
AcDbEntity
  8
0-1_ピット
  6
Continuous
 62
     2
370
     9
100
AcDbLine
 10
-84.94189431467453
 20
333.2785414352023
 30
0.0
 11
-85.00147443639605
 21
331.2167719423645
 31
0.0
  0
LINE
  5
76
330
1F
100
AcDbEntity
  8
0-1_ピット
  6
Continuous
 62
     2
370
     9
100
AcDbLine
 10
-107.8629493167766
 20
295.7606043457168
 30
0.0
 11
-113.181484698079
 21
297.185721219793
 31
0.0
  0
LINE
  5
77
330
1F
100
AcDbEntity
  8
0-1_ピット
  6
Continuous
 62
     2
370
     9
100
AcDbLine
 10
-90.65829113250413
 20
325.5599552462564
 30
0.0
 11
-94.5517344131697
 21
329.453398526922
 31
0.0
  0
LINE
  5
78
330
1F
100
AcDbEntity
  8
0-1_ピット
  6
Continuous
 62
     2
370
     9
100
AcDbLine
 10
-108.8422681491151
 20
297.5759524369896
 30
0.0
 11
-111.7462107138548
 21
298.3540366212017
 31
0.0
  0
LINE
  5
79
330
1F
100
AcDbEntity
  8
0-1_ピット
  6
Continuous
 62
     2
370
     9
100
AcDbLine
 10
-92.72006062534206
 20
325.5003998979743
 30
0.0
 11
-94.84589423243021
 21
327.626208731623
 31
0.0
  0
LINE
  5
7A
330
1F
100
AcDbEntity
  8
0-1_ピット
  6
Continuous
 62
     2
370
     9
100
AcDbLine
 10
-90.65829113250413
 20
325.5599552462564
 30
0.0
 11
-92.72006062534206
 21
325.5003998979743
 31
0.0
  0
LINE
  5
7B
330
1F
100
AcDbEntity
  8
0-1_ピット
  6
Continuous
 62
     2
370
     9
100
AcDbLine
 10
-111.7462107138548
 20
298.3540366212017
 30
0.0
 11
-113.181484698079
 21
297.185721219793
 31
0.0
  0
LINE
  5
7C
330
1F
100
AcDbEntity
  8
0-1_ピット
  6
Continuous
 62
     2
370
     9
100
AcDbLine
 10
-108.8422681491151
 20
297.5759524369896
 30
0.0
 11
-107.8629493167766
 21
295.7606043457168
 31
0.0
  0
LINE
  5
7D
330
1F
100
AcDbEntity
  8
0-1_ピット
  6
Continuous
 62
     2
370
     9
100
AcDbLine
 10
-109.9334886071569
 20
288.0332235857891
 30
0.0
 11
-115.2520487618987
 21
289.4583404598653
 31
0.0
  0
LINE
  5
7E
330
1F
100
AcDbEntity
  8
0-1_ピット
  6
Continuous
 62
     2
370
     9
100
AcDbLine
 10
-111.6892565767081
 20
286.9507729252897
 30
0.0
 11
-114.5931743680084
 21
287.7289066563806
 31
0.0
  0
LINE
  5
7F
330
1F
100
AcDbEntity
  8
0-1_ピット
  6
Continuous
 62
     2
370
     9
100
AcDbLine
 10
-109.9334886071569
 20
288.0332235857891
 30
0.0
 11
-111.6892565767081
 21
286.9507729252897
 31
0.0
  0
LINE
  5
80
330
1F
100
AcDbEntity
  8
0-1_ピット
  6
Continuous
 62
     2
370
     9
100
AcDbLine
 10
-114.5931743680084
 20
287.7289066563806
 30
0.0
 11
-115.2520487618987
 21
289.4583404598653
 31
0.0
  0
LINE
  5
81
330
1F
100
AcDbEntity
  8
0-1_ピット
  6
Continuous
 62
     2
370
     9
100
AcDbLine
 10
-116.8503072038384
 20
279.3646998636154
 30
0.0
 11
-115.8862488101612
 21
278.9451121207474
 31
0.0
  0
LINE
  5
82
330
1F
100
AcDbEntity
  8
0-1_ピット
  6
Continuous
 62
     2
370
     9
100
AcDbLine
 10
-94.84589423243021
 20
327.626208731623
 30
0.0
 11
-94.5517344131697
 21
329.453398526922
 31
0.0
  0
LINE
  5
83
330
1F
100
AcDbEntity
  8
0-1_ピット
  6
Continuous
 62
     2
370
     9
100
AcDbLine
 10
-118.8992440550748
 20
278.9451121207474
 30
0.0
 11
-115.8862488101612
 21
278.9451121207474
 31
0.0
  0
LINE
  5
84
330
1F
100
AcDbEntity
  8
0-1_ピット
  6
Continuous
 62
     2
370
     9
100
AcDbLine
 10
20.41250773403294
 20
341.5411771264879
 30
0.0
 11
19.5670645681323
 21
340.9160937039192
 31
0.0
  0
LINE
  5
85
330
1F
100
AcDbEntity
  8
0-1_ピット
  6
Continuous
 62
     2
370
     9
100
AcDbLine
 10
21.07356219058914
 20
343.5254305274894
 30
0.0
 11
19.5670645681323
 21
340.9160937039192
 31
0.0
  0
LINE
  5
86
330
1F
100
AcDbEntity
  8
0-1_ピット
  6
Continuous
 62
     2
370
     9
100
AcDbLine
 10
5.627471374518455
 20
350.0773735221852
 30
0.0
 11
5.508856146741838
 21
349.0326404231499
 31
0.0
  0
LINE
  5
87
330
1F
100
AcDbEntity
  8
0-1_ピット
  6
Continuous
 62
     2
370
     9
100
AcDbLine
 10
7.015353769198617
 20
351.6419648600005
 30
0.0
 11
5.508856146741838
 21
349.0326404231499
 31
0.0
  0
LINE
  5
88
330
1F
100
AcDbEntity
  8
0-9
  6
JWW_CENTER1
 62
     4
370
     9
100
AcDbLine
 10
45.72987275443141
 20
270.828590174956
 30
0.0
 11
45.72987275443141
 21
278.1380430124544
 31
0.0
  0
LINE
  5
89
330
1F
100
AcDbEntity
  8
0-9
  6
JWW_CENTER1
 62
     4
370
     9
100
AcDbLine
 10
-106.2701410315016
 20
270.828590174956
 30
0.0
 11
-106.2701410315016
 21
278.1380430124545
 31
0.0
  0
LINE
  5
8A
330
1F
100
AcDbEntity
  8
0-9
  6
Continuous
 62
     4
370
     9
100
AcDbLine
 10
-106.87025282717
 20
272.4287066248497
 30
0.0
 11
-106.87025282717
 21
273.5785905873557
 31
0.0
  0
LINE
  5
8B
330
1F
100
AcDbEntity
  8
0-9
  6
Continuous
 62
     4
370
     9
100
AcDbLine
 10
-105.6700292358331
 20
273.5785905873557
 30
0.0
 11
-106.87025282717
 21
273.5785905873557
 31
0.0
  0
LINE
  5
8C
330
1F
100
AcDbEntity
  8
0-9
  6
Continuous
 62
     4
370
     9
100
AcDbLine
 10
-105.6700292358331
 20
272.4287066248497
 30
0.0
 11
-105.6700292358331
 21
273.5785905873557
 31
0.0
  0
LINE
  5
8D
330
1F
100
AcDbEntity
  8
0-9
  6
Continuous
 62
     4
370
     9
100
AcDbLine
 10
-111.2339455342465
 20
271.4287019706244
 30
0.0
 11
-101.306237434999
 21
271.4287019706244
 31
0.0
  0
LINE
  5
8E
330
1F
100
AcDbEntity
  8
0-B
  6
Continuous
 62
     6
370
     5
100
AcDbLine
 10
-129.5201129883216
 20
277.3237896067399
 30
0.0
 11
-122.0145536046495
 21
277.3237648333005
 31
0.0
  0
LINE
  5
8F
330
1F
100
AcDbEntity
  8
0-B
  6
Continuous
 62
     6
370
     5
100
AcDbLine
 10
-122.0145536046495
 20
277.3237648333005
 30
0.0
 11
-118.2673231632357
 21
270.8333714487574
 31
0.0
  0
LINE
  5
90
330
1F
100
AcDbEntity
  8
0-B
  6
Continuous
 62
     6
370
     5
100
AcDbLine
 10
-129.5201129883216
 20
277.3237896067399
 30
0.0
 11
-133.2701180549466
 21
270.8285654015166
 31
0.0
  0
LINE
  5
91
330
1F
100
AcDbEntity
  8
0-B
  6
Continuous
 62
     6
370
     5
100
AcDbLine
 10
-126.7700630290432
 20
270.8285654015166
 30
0.0
 11
-128.8655491728844
 21
272.038401087335
 31
0.0
  0
LINE
  5
92
330
1F
100
AcDbEntity
  8
0-B
  6
Continuous
 62
     6
370
     5
100
AcDbLine
 10
-124.7700537205927
 20
270.8285654015166
 30
0.0
 11
-128.3655716192112
 21
272.9044557548041
 31
0.0
  0
LINE
  5
93
330
1F
100
AcDbEntity
  8
0-B
  6
Continuous
 62
     6
370
     5
100
AcDbLine
 10
24.97988765973503
 20
353.5339991328902
 30
0.0
 11
21.2270088741414
 21
347.034018427305
 31
0.0
  0
LINE
  5
94
330
1F
100
AcDbEntity
  8
0-B
  6
Continuous
 62
     6
370
     5
100
AcDbLine
 10
24.97988765973503
 20
353.5339991328902
 30
0.0
 11
21.22700887414142
 21
360.0340541587937
 31
0.0
  0
LINE
  5
95
330
1F
100
AcDbEntity
  8
0-B
  6
Continuous
 62
     6
370
     5
100
AcDbLine
 10
21.22700887414142
 20
360.0340541587937
 30
0.0
 11
13.73254799131383
 21
360.0340541587937
 31
0.0
  0
LINE
  5
96
330
1F
100
AcDbEntity
  8
0-B
  6
Continuous
 62
     6
370
     5
100
AcDbLine
 10
9.979817846356475
 20
353.5339991328902
 30
0.0
 11
13.73254799131383
 21
360.0340541587937
 31
0.0
  0
LINE
  5
97
330
1F
100
AcDbEntity
  8
0-B
  6
Continuous
 62
     6
370
     5
100
AcDbLine
 10
9.979817846356475
 20
353.5339991328902
 30
0.0
 11
13.73254799131383
 21
347.034018427305
 31
0.0
  0
LINE
  5
98
330
1F
100
AcDbEntity
  8
0-B
  6
Continuous
 62
     6
370
     5
100
AcDbLine
 10
21.2270088741414
 20
347.034018427305
 30
0.0
 11
13.73254799131383
 21
347.034018427305
 31
0.0
  0
LINE
  5
99
330
1F
100
AcDbEntity
  8
0-B
  6
Continuous
 62
     6
370
     5
100
AcDbLine
 10
14.88441382897066
 20
351.4581583264815
 30
0.0
 11
20.57536832455161
 21
354.7438100452692
 31
0.0
  0
LINE
  5
9A
330
1F
100
AcDbEntity
  8
0-B
  6
Continuous
 62
     6
370
     5
100
AcDbLine
 10
14.3843867284187
 20
352.3241882205113
 30
0.0
 11
20.0753412239996
 21
355.609839939299
 31
0.0
  0
LINE
  5
9B
330
1F
100
AcDbEntity
  8
0-1_ピット
  6
Continuous
 62
     2
370
     9
100
AcDbLine
 10
7.556802060402791
 20
351.7575453414523
 30
0.0
 11
7.015353769198617
 21
351.6419648600005
 31
0.0
  0
LINE
  5
9C
330
1F
100
AcDbEntity
  8
0-1_ピット
  6
Continuous
 62
     2
370
     9
100
AcDbLine
 10
6.837356607215559
 20
352.1729215996249
 30
0.0
 11
5.627471374518455
 21
350.0773735221852
 31
0.0
  0
LINE
  5
9D
330
1F
100
AcDbEntity
  8
0-1_ピット
  6
Continuous
 62
     2
370
     9
100
AcDbLine
 10
20.90289796666411
 20
344.0521757824184
 30
0.0
 11
21.07356219058914
 21
343.5254305274894
 31
0.0
  0
LINE
  5
9E
330
1F
100
AcDbEntity
  8
0-1_ピット
  6
Continuous
 62
     2
370
     9
100
AcDbLine
 10
21.6223929667301
 20
343.6367747508065
 30
0.0
 11
20.41250773403294
 21
341.5411771264879
 31
0.0
  0
LINE
  5
9F
330
1F
100
AcDbEntity
  8
0-1_ピット
  6
Continuous
 62
     2
370
     9
100
AcDbLine
 10
-119.2701272161115
 20
278.5339225738309
 30
0.0
 11
-118.8992440550748
 21
278.9451121207474
 31
0.0
  0
LINE
  5
A0
330
1F
100
AcDbEntity
  8
0-1_ピット
  6
Continuous
 62
     2
370
     9
100
AcDbLine
 10
-119.2701272161115
 20
279.3646998636154
 30
0.0
 11
-116.8503072038384
 21
279.3646998636154
 31
0.0
  0
LINE
  5
A1
330
1F
100
AcDbEntity
  8
0-0_通り芯
  6
JWW_CENTER1
 62
     3
370
     9
100
AcDbLine
 10
-172.5238928819979
 20
270.828590174956
 30
0.0
 11
108.9046700776509
 21
270.828590174956
 31
0.0
  0
LINE
  5
A2
330
1F
100
AcDbEntity
  8
0-A
  6
Continuous
 62
     4
370
     9
100
AcDbLine
 10
-33.27019764808955
 20
329.7523148465444
 30
0.0
 11
-33.27019764808955
 21
327.5702207586123
 31
0.0
  0
LINE
  5
A3
330
1F
100
AcDbEntity
  8
0-A
  6
Continuous
 62
     4
370
     9
100
AcDbLine
 10
-32.40020400375812
 20
329.7901686619251
 30
0.0
 11
-32.40020400375812
 21
327.4346109514174
 31
0.0
  0
LINE
  5
A4
330
1F
100
AcDbEntity
  8
0-A
  6
Continuous
 62
     4
370
     9
100
AcDbLine
 10
-28.14016336706953
 20
329.7901686619251
 30
0.0
 11
-28.14016336706953
 21
327.4346109514174
 31
0.0
  0
LINE
  5
A5
330
1F
100
AcDbEntity
  8
0-A
  6
Continuous
 62
     4
370
     9
100
AcDbLine
 10
-27.2701697227381
 20
329.7523148465444
 30
0.0
 11
-27.2701697227381
 21
327.5702207586123
 31
0.0
  0
LINE
  5
A6
330
1F
100
AcDbEntity
  8
0-A
  6
Continuous
 62
     4
370
     9
100
AcDbLine
 10
-28.14016336706953
 20
339.1115716056578
 30
0.0
 11
-28.14016336706953
 21
335.3760837745126
 31
0.0
  0
LINE
  5
A7
330
1F
100
AcDbEntity
  8
0-A
  6
Continuous
 62
     4
370
     9
100
AcDbLine
 10
-27.2701697227381
 20
339.1589879686411
 30
0.0
 11
-27.2701697227381
 21
335.5670869921729
 31
0.0
  0
LINE
  5
A8
330
1F
100
AcDbEntity
  8
0-A
  6
Continuous
 62
     4
370
     9
100
AcDbLine
 10
-32.40020400375812
 20
339.1115716056578
 30
0.0
 11
-32.40020400375812
 21
335.3760342276338
 31
0.0
  0
LINE
  5
A9
330
1F
100
AcDbEntity
  8
0-A
  6
Continuous
 62
     4
370
     9
100
AcDbLine
 10
-33.27019764808955
 20
339.1589879686411
 30
0.0
 11
-33.27019764808955
 21
335.5669878984154
 31
0.0
  0
LINE
  5
AA
330
1F
100
AcDbEntity
  8
0-A
  6
Continuous
 62
     4
370
     9
100
AcDbLine
 10
-30.77003737189011
 20
340.0684828620723
 30
0.0
 11
-29.77010703798305
 21
340.0684828620723
 31
0.0
  0
LINE
  5
AB
330
1F
100
AcDbEntity
  8
0-A
  6
Continuous
 62
     4
370
     9
100
AcDbLine
 10
-29.77010703798305
 20
340.0684828620723
 30
0.0
 11
-29.77010703798305
 21
343.6443430365386
 31
0.0
  0
LINE
  5
AC
330
1F
100
AcDbEntity
  8
0-A
  6
Continuous
 62
     4
370
     9
100
AcDbLine
 10
-30.77003737189011
 20
340.0684828620723
 30
0.0
 11
-30.77003737189011
 21
343.644367809978
 31
0.0
  0
LINE
  5
AD
330
1F
100
AcDbEntity
  8
0-9
  6
Continuous
 62
     4
370
     9
100
AcDbLine
 10
46.32998455009987
 20
272.4287066248496
 30
0.0
 11
46.32998455009987
 21
273.5785905873557
 31
0.0
  0
LINE
  5
AE
330
1F
100
AcDbEntity
  8
0-9
  6
Continuous
 62
     4
370
     9
100
AcDbLine
 10
45.12976095876296
 20
273.5785905873557
 30
0.0
 11
46.32998455009987
 21
273.5785905873557
 31
0.0
  0
LINE
  5
AF
330
1F
100
AcDbEntity
  8
0-9
  6
Continuous
 62
     4
370
     9
100
AcDbLine
 10
45.12976095876296
 20
272.4287066248496
 30
0.0
 11
45.12976095876296
 21
273.5785905873557
 31
0.0
  0
LINE
  5
B0
330
1F
100
AcDbEntity
  8
0-9
  6
Continuous
 62
     4
370
     9
100
AcDbLine
 10
50.69367725717635
 20
271.4287019706244
 30
0.0
 11
40.76596915792895
 21
271.4287019706244
 31
0.0
  0
LINE
  5
B1
330
1F
100
AcDbEntity
  8
0-2_本体（蓋）
  6
Continuous
 62
     6
370
     5
100
AcDbLine
 10
49.97940945282066
 20
281.8285918245548
 30
0.0
 11
38.86014846602119
 21
281.8285918245548
 31
0.0
  0
LINE
  5
B2
330
1F
100
AcDbEntity
  8
0-2_本体（蓋）
  6
Continuous
 62
     6
370
     5
100
AcDbLine
 10
49.10238015170381
 20
280.8286119437689
 30
0.0
 11
38.91824218137963
 21
280.8286119437689
 31
0.0
  0
LINE
  5
B3
330
1F
100
AcDbEntity
  8
0-2_本体（蓋）
  6
Continuous
 62
     6
370
     5
100
AcDbLine
 10
38.91824218137963
 20
280.8286119437689
 30
0.0
 11
38.86014846602119
 21
281.8285918245548
 31
0.0
  0
LINE
  5
B4
330
1F
100
AcDbEntity
  8
0-2_本体（蓋）
  6
Continuous
 62
     6
370
     5
100
AcDbLine
 10
49.97940945282066
 20
281.8285918245548
 30
0.0
 11
49.10238015170381
 21
280.8286119437689
 31
0.0
  0
LINE
  5
B5
330
1F
100
AcDbEntity
  8
0-2_本体（蓋）
  6
Continuous
 62
     6
370
     5
100
AcDbLine
 10
49.23491805241495
 20
276.1487110563791
 30
0.0
 11
50.30002730534465
 21
275.1415468781715
 31
0.0
  0
LINE
  5
B6
330
1F
100
AcDbEntity
  8
0-2_本体（蓋）
  6
Continuous
 62
     6
370
     5
100
AcDbLine
 10
33.21418253636386
 20
300.3199081301792
 30
0.0
 11
32.01371121063318
 21
299.8829542063021
 31
0.0
  0
LINE
  5
B7
330
1F
100
AcDbEntity
  8
0-2_本体（蓋）
  6
Continuous
 62
     6
370
     5
100
AcDbLine
 10
27.01230062690143
 20
311.0617209945049
 30
0.0
 11
26.03377454462321
 21
310.2406053460807
 31
0.0
  0
LINE
  5
B8
330
1F
100
AcDbEntity
  8
0-2_本体（蓋）
  6
Continuous
 62
     6
370
     5
100
AcDbLine
 10
19.29847093831739
 20
320.2537570377679
 30
0.0
 11
18.31979621540285
 21
319.4325422955859
 31
0.0
  0
LINE
  5
B9
330
1F
100
AcDbEntity
  8
0-2_本体（蓋）
  6
Continuous
 62
     6
370
     5
100
AcDbLine
 10
9.796692582420691
 20
328.2265930351247
 30
0.0
 11
9.15795899475063
 21
327.1203350993761
 31
0.0
  0
LINE
  5
BA
330
1F
100
AcDbEntity
  8
0-2_本体（蓋）
  6
Continuous
 62
     6
370
     5
100
AcDbLine
 10
-0.5959882006486037
 20
334.2261998120065
 30
0.0
 11
-1.234721788318607
 21
333.1197684621823
 31
0.0
  0
LINE
  5
BB
330
1F
100
AcDbEntity
  8
0-2_本体（蓋）
  6
Continuous
 62
     6
370
     5
100
AcDbLine
 10
-12.25161892357817
 20
338.4684035723377
 30
0.0
 11
-12.47344029983378
 21
337.2103587734757
 31
0.0
  0
LINE
  5
BC
330
1F
100
AcDbEntity
  8
0-2_本体（蓋）
  6
Continuous
 62
     6
370
     5
100
AcDbLine
 10
-24.06963954167815
 20
340.5518250511983
 30
0.0
 11
-24.29148569137311
 21
339.2936563851394
 31
0.0
  0
LINE
  5
BD
330
1F
100
AcDbEntity
  8
0-2_本体（蓋）
  6
Continuous
 62
     6
370
     5
100
AcDbLine
 10
37.31800186428903
 20
289.0452929049949
 30
0.0
 11
36.11592026499828
 21
288.6077691920119
 31
0.0
  0
LINE
  5
BE
330
1F
100
AcDbEntity
  8
0-2_本体（蓋）
  6
Continuous
 62
     6
370
     5
100
AcDbLine
 10
39.28597911561438
 20
277.8268886137756
 30
0.0
 11
38.08355068817223
 21
277.8268638403363
 31
0.0
  0
LINE
  5
BF
330
1F
100
AcDbEntity
  8
0-2_本体（蓋）
  6
Continuous
 62
     6
370
     5
100
AcDbLine
 10
-109.6426236553346
 20
280.828611943769
 30
0.0
 11
-99.45851045844978
 21
280.828611943769
 31
0.0
  0
LINE
  5
C0
330
1F
100
AcDbEntity
  8
0-2_本体（蓋）
  6
Continuous
 62
     6
370
     5
100
AcDbLine
 10
-99.45851045844978
 20
280.828611943769
 30
0.0
 11
-99.40041674309134
 21
281.8285918245548
 31
0.0
  0
LINE
  5
C1
330
1F
100
AcDbEntity
  8
0-2_本体（蓋）
  6
Continuous
 62
     6
370
     5
100
AcDbLine
 10
-110.5196777298908
 20
281.8285918245548
 30
0.0
 11
-109.6426236553346
 21
280.828611943769
 31
0.0
  0
LINE
  5
C2
330
1F
100
AcDbEntity
  8
0-2_本体（蓋）
  6
Continuous
 62
     6
370
     5
100
AcDbLine
 10
-109.7751863294851
 20
276.1487110563791
 30
0.0
 11
-110.8402955824148
 21
275.1415468781715
 31
0.0
  0
LINE
  5
C3
330
1F
100
AcDbEntity
  8
0-2_本体（蓋）
  6
Continuous
 62
     6
370
     5
100
AcDbLine
 10
-93.75445081343399
 20
300.3199081301793
 30
0.0
 11
-92.55397948770326
 21
299.8829542063021
 31
0.0
  0
LINE
  5
C4
330
1F
100
AcDbEntity
  8
0-2_本体（蓋）
  6
Continuous
 62
     6
370
     5
100
AcDbLine
 10
-87.55256890397152
 20
311.061720994505
 30
0.0
 11
-86.57401804825393
 21
310.2406053460807
 31
0.0
  0
LINE
  5
C5
330
1F
100
AcDbEntity
  8
0-2_本体（蓋）
  6
Continuous
 62
     6
370
     5
100
AcDbLine
 10
-79.83873921538753
 20
320.2537570377679
 30
0.0
 11
-78.86001494559423
 21
319.432542295586
 31
0.0
  0
LINE
  5
C6
330
1F
100
AcDbEntity
  8
0-2_本体（蓋）
  6
Continuous
 62
     6
370
     5
100
AcDbLine
 10
-70.33693608605142
 20
328.2265930351247
 30
0.0
 11
-69.69817772494201
 21
327.1203350993761
 31
0.0
  0
LINE
  5
C7
330
1F
100
AcDbEntity
  8
0-2_本体（蓋）
  6
Continuous
 62
     6
370
     5
100
AcDbLine
 10
-59.94425530298212
 20
334.2261998120065
 30
0.0
 11
-59.30552171531212
 21
333.1197684621823
 31
0.0
  0
LINE
  5
C8
330
1F
100
AcDbEntity
  8
0-2_本体（蓋）
  6
Continuous
 62
     6
370
     5
100
AcDbLine
 10
-48.28862458005256
 20
338.4684035723377
 30
0.0
 11
-48.0667784303576
 21
337.2103587734757
 31
0.0
  0
LINE
  5
C9
330
1F
100
AcDbEntity
  8
0-2_本体（蓋）
  6
Continuous
 62
     6
370
     5
100
AcDbLine
 10
-97.85824536791978
 20
289.0452929049949
 30
0.0
 11
-96.65616376862903
 21
288.6077691920119
 31
0.0
  0
LINE
  5
CA
330
1F
100
AcDbEntity
  8
0-2_本体（蓋）
  6
Continuous
 62
     6
370
     5
100
AcDbLine
 10
-99.82622261924513
 20
277.8268886137757
 30
0.0
 11
-98.62381896524232
 21
277.8268638403363
 31
0.0
  0
LINE
  5
CB
330
1F
100
AcDbEntity
  8
0-2_本体（蓋）
  6
Continuous
 62
     6
370
     5
100
AcDbLine
 10
-36.47062873539198
 20
340.5518250511983
 30
0.0
 11
-36.24875781225762
 21
339.2936563851394
 31
0.0
  0
LINE
  5
CC
330
1F
100
AcDbEntity
  8
0-2_本体（蓋）
  6
Continuous
 62
     6
370
     5
100
AcDbLine
 10
-110.5196777298908
 20
281.8285918245548
 30
0.0
 11
-99.40044151653075
 21
281.8285918245548
 31
0.0
  0
LINE
  5
CD
330
1F
100
AcDbEntity
  8
0-2_本体（蓋）
  6
Continuous
 62
     6
370
     5
100
AcDbLine
 10
-28.77087036037875
 20
334.8325049675212
 30
0.0
 11
-28.77087036037875
 21
335.3321852399218
 31
0.0
  0
LINE
  5
CE
330
1F
100
AcDbEntity
  8
0-2_本体（蓋）
  6
Continuous
 62
     6
370
     5
100
AcDbLine
 10
-31.76937314325198
 20
334.7404468667656
 30
0.0
 11
-31.76937314325198
 21
335.3321852399218
 31
0.0
  0
LINE
  5
CF
330
1F
100
AcDbEntity
  8
0-2_本体（蓋）
  6
Continuous
 62
     6
370
     5
100
AcDbLine
 10
-110.113740152124
 20
274.8286583387357
 30
0.0
 11
-109.2700806738591
 21
274.8286583387357
 31
0.0
  0
LINE
  5
D0
330
1F
100
AcDbEntity
  8
0-2_本体（蓋）
  6
Continuous
 62
     6
370
     5
100
AcDbLine
 10
-109.0419668439997
 20
275.8286382195216
 30
0.0
 11
-106.2701162580622
 21
275.8286382195216
 31
0.0
  0
LINE
  5
D1
330
1F
100
AcDbEntity
  8
0-2_本体（蓋）
  6
Continuous
 62
     6
370
     5
100
AcDbLine
 10
49.57347187505386
 20
274.8286583387357
 30
0.0
 11
48.72981239678897
 21
274.8286583387357
 31
0.0
  0
LINE
  5
D2
330
1F
100
AcDbEntity
  8
0-2_本体（蓋）
  6
Continuous
 62
     6
370
     5
100
AcDbLine
 10
48.50172334036892
 20
275.8286382195215
 30
0.0
 11
45.72989752787082
 21
275.8286382195215
 31
0.0
  0
LINE
  5
D3
330
1F
100
AcDbEntity
  8
0-1_ピット
  6
Continuous
 62
     2
370
     9
100
AcDbLine
 10
14.58596820469648
 20
324.5216260813021
 30
0.0
 11
13.49764623906282
 21
322.6365903050386
 31
0.0
  0
LINE
  5
D4
330
1F
100
AcDbEntity
  8
0-1_ピット
  6
Continuous
 62
     2
370
     9
100
AcDbLine
 10
14.6293217236207
 20
324.4853577660421
 30
0.0
 11
13.83642302265622
 21
322.3484752049881
 31
0.0
  0
LINE
  5
D5
330
1F
100
AcDbEntity
  8
0-1_ピット
  6
Continuous
 62
     2
370
     9
100
AcDbLine
 10
-6.251690091984301
 20
336.5410423748846
 30
0.0
 11
-7.706237812050232
 21
334.7854602061287
 31
0.0
  0
LINE
  5
D6
330
1F
100
AcDbEntity
  8
0-1_ピット
  6
Continuous
 62
     2
370
     9
100
AcDbLine
 10
-6.198625384821126
 20
336.5216199984065
 30
0.0
 11
-7.287244631727388
 21
334.6360763666356
 31
0.0
  0
LINE
  5
D7
330
1F
100
AcDbEntity
  8
0-1_ピット
  6
Continuous
 62
     2
370
     9
100
AcDbLine
 10
-99.19772046204116
 20
282.82859647878
 30
0.0
 11
-97.01996172600151
 21
282.82859647878
 31
0.0
  0
LINE
  5
D8
330
1F
100
AcDbEntity
  8
0-1_ピット
  6
Continuous
 62
     2
370
     9
100
AcDbLine
 10
-99.18798450036282
 20
282.8842623970788
 30
0.0
 11
-96.93979487615083
 21
283.2662192855206
 31
0.0
  0
ARC
  5
D9
330
1F
100
AcDbEntity
  8
0-1_ピット
  6
Continuous
 62
     2
370
     9
100
AcDbCircle
 10
-30.27010936509567
 20
270.828590174956
 30
0.0
 40
81.50003249120527
100
AcDbArc
 50
17.81318664550781
 51
42.18682861328124
  0
ARC
  5
DA
330
1F
100
AcDbEntity
  8
0-1_ピット
  6
Continuous
 62
     2
370
     9
100
AcDbCircle
 10
-30.27010936509567
 20
270.828590174956
 30
0.0
 40
86.99999615584561
100
AcDbArc
 50
17.63520812988277
 51
42.36479187011714
  0
ARC
  5
DB
330
1F
100
AcDbEntity
  8
0-1_ピット
  6
Continuous
 62
     2
370
     9
100
AcDbCircle
 10
-30.27010936509567
 20
270.828590174956
 30
0.0
 40
83.0000208924636
100
AcDbArc
 50
18.79948425292966
 51
41.20051574707028
  0
ARC
  5
DC
330
1F
100
AcDbEntity
  8
0-1_ピット
  6
Continuous
 62
     2
370
     9
100
AcDbCircle
 10
-30.27010936509567
 20
270.828590174956
 30
0.0
 40
86.00001008169991
100
AcDbArc
 50
18.66676330566403
 51
41.33325195312497
  0
ARC
  5
DD
330
1F
100
AcDbEntity
  8
0-1_ピット
  6
Continuous
 62
     2
370
     9
100
AcDbCircle
 10
-30.27010936509567
 20
270.828590174956
 30
0.0
 40
81.50003249120527
100
AcDbArc
 50
47.81318664550788
 51
72.1868286132813
  0
ARC
  5
DE
330
1F
100
AcDbEntity
  8
0-1_ピット
  6
Continuous
 62
     2
370
     9
100
AcDbCircle
 10
-30.27010936509567
 20
270.828590174956
 30
0.0
 40
83.0000208924636
100
AcDbArc
 50
48.79948425292973
 51
71.20051574707036
  0
ARC
  5
DF
330
1F
100
AcDbEntity
  8
0-1_ピット
  6
Continuous
 62
     2
370
     9
100
AcDbCircle
 10
-30.27010936509567
 20
270.828590174956
 30
0.0
 40
86.99999615584561
100
AcDbArc
 50
77.6352081298828
 51
102.3647918701172
  0
ARC
  5
E0
330
1F
100
AcDbEntity
  8
0-1_ピット
  6
Continuous
 62
     2
370
     9
100
AcDbCircle
 10
-30.27010936509567
 20
270.828590174956
 30
0.0
 40
83.0000208924636
100
AcDbArc
 50
78.7994842529297
 51
101.2005157470703
  0
ARC
  5
E1
330
1F
100
AcDbEntity
  8
0-1_ピット
  6
Continuous
 62
     2
370
     9
100
AcDbCircle
 10
-30.27010936509567
 20
270.828590174956
 30
0.0
 40
86.00001008169991
100
AcDbArc
 50
78.66676330566406
 51
101.333251953125
  0
ARC
  5
E2
330
1F
100
AcDbEntity
  8
0-1_ピット
  6
Continuous
 62
     2
370
     9
100
AcDbCircle
 10
-30.27010936509567
 20
270.828590174956
 30
0.0
 40
81.50003249120527
100
AcDbArc
 50
107.8131866455079
 51
132.1868286132813
  0
ARC
  5
E3
330
1F
100
AcDbEntity
  8
0-1_ピット
  6
Continuous
 62
     2
370
     9
100
AcDbCircle
 10
-30.27010936509567
 20
270.828590174956
 30
0.0
 40
86.99999615584561
100
AcDbArc
 50
107.6352081298828
 51
132.3647918701172
  0
ARC
  5
E4
330
1F
100
AcDbEntity
  8
0-1_ピット
  6
Continuous
 62
     2
370
     9
100
AcDbCircle
 10
-30.27010936509567
 20
270.828590174956
 30
0.0
 40
86.00001008169991
100
AcDbArc
 50
108.6667633056641
 51
131.333251953125
  0
ARC
  5
E5
330
1F
100
AcDbEntity
  8
0-1_ピット
  6
Continuous
 62
     2
370
     9
100
AcDbCircle
 10
-30.27010936509567
 20
270.828590174956
 30
0.0
 40
81.50003249120527
100
AcDbArc
 50
137.8131866455078
 51
162.1868286132812
  0
ARC
  5
E6
330
1F
100
AcDbEntity
  8
0-1_ピット
  6
Continuous
 62
     2
370
     9
100
AcDbCircle
 10
-30.27010936509567
 20
270.828590174956
 30
0.0
 40
86.99999615584561
100
AcDbArc
 50
137.6352081298828
 51
162.3647918701172
  0
ARC
  5
E7
330
1F
100
AcDbEntity
  8
0-1_ピット
  6
Continuous
 62
     2
370
     9
100
AcDbCircle
 10
-30.27010936509567
 20
270.828590174956
 30
0.0
 40
83.0000208924636
100
AcDbArc
 50
138.7994842529297
 51
161.2005157470703
  0
ARC
  5
E8
330
1F
100
AcDbEntity
  8
0-1_ピット
  6
Continuous
 62
     2
370
     9
100
AcDbCircle
 10
-30.27010936509567
 20
270.828590174956
 30
0.0
 40
86.00001008169991
100
AcDbArc
 50
138.6667633056641
 51
161.333251953125
  0
ARC
  5
E9
330
1F
100
AcDbEntity
  8
0-1_ピット
  6
Continuous
 62
     2
370
     9
100
AcDbCircle
 10
-30.27010936509567
 20
270.828590174956
 30
0.0
 40
81.50003249120527
100
AcDbArc
 50
6.419143676757812
 51
12.18682861328125
  0
ARC
  5
EA
330
1F
100
AcDbEntity
  8
0-1_ピット
  6
Continuous
 62
     2
370
     9
100
AcDbCircle
 10
-30.27010936509567
 20
270.828590174956
 30
0.0
 40
81.50003249120527
100
AcDbArc
 50
167.8131866455078
 51
173.5808563232422
  0
ARC
  5
EB
330
1F
100
AcDbEntity
  8
0-1_ピット
  6
Continuous
 62
     2
370
     9
100
AcDbCircle
 10
-30.27010936509567
 20
270.828590174956
 30
0.0
 40
81.94030605596005
100
AcDbArc
 50
87.87588500976564
 51
92.12411499023439
  0
ARC
  5
EC
330
1F
100
AcDbEntity
  8
0-1_ピット
  6
Continuous
 62
     2
370
     9
100
AcDbCircle
 10
-30.27010936509567
 20
270.828590174956
 30
0.0
 40
81.50003249120527
100
AcDbArc
 50
93.56105041503906
 51
102.1868286132812
  0
ARC
  5
ED
330
1F
100
AcDbEntity
  8
0-1_ピット
  6
Continuous
 62
     2
370
     9
100
AcDbCircle
 10
-30.27010936509567
 20
270.828590174956
 30
0.0
 40
81.50003249120527
100
AcDbArc
 50
77.81318664550784
 51
86.43894958496097
  0
ARC
  5
EE
330
1F
100
AcDbEntity
  8
0-1_ピット
  6
Continuous
 62
     2
370
     9
100
AcDbCircle
 10
-30.27010936509567
 20
270.828590174956
 30
0.0
 40
83.0000208924636
100
AcDbArc
 50
168.7994842529297
 51
180.0
  0
ARC
  5
EF
330
1F
100
AcDbEntity
  8
0-1_ピット
  6
Continuous
 62
     2
370
     9
100
AcDbCircle
 10
-30.27010936509567
 20
270.828590174956
 30
0.0
 40
81.94030605596005
100
AcDbArc
 50
174.3277282714844
 51
180.0
  0
ARC
  5
F0
330
1F
100
AcDbEntity
  8
0-1_ピット
  6
Continuous
 62
     2
370
     9
100
AcDbCircle
 10
-30.27010936509567
 20
270.828590174956
 30
0.0
 40
81.94030605596005
100
AcDbArc
 50
0.0
 51
5.672271728515625
  0
ARC
  5
F1
330
1F
100
AcDbEntity
  8
0-1_ピット
  6
Continuous
 62
     2
370
     9
100
AcDbCircle
 10
-30.27010936509567
 20
270.828590174956
 30
0.0
 40
83.0000208924636
100
AcDbArc
 50
0.0
 51
11.20051574707031
  0
ARC
  5
F2
330
1F
100
AcDbEntity
  8
0-1_ピット
  6
Continuous
 62
     2
370
     9
100
AcDbCircle
 10
-30.27010936509567
 20
270.828590174956
 30
0.0
 40
86.00001008169991
100
AcDbArc
 50
0.0
 51
11.333251953125
  0
ARC
  5
F3
330
1F
100
AcDbEntity
  8
0-1_ピット
  6
Continuous
 62
     2
370
     9
100
AcDbCircle
 10
-30.27010936509567
 20
270.828590174956
 30
0.0
 40
86.99999615584561
100
AcDbArc
 50
0.0
 51
12.36479187011719
  0
ARC
  5
F4
330
1F
100
AcDbEntity
  8
0-1_ピット
  6
Continuous
 62
     2
370
     9
100
AcDbCircle
 10
-30.27010936509567
 20
270.828590174956
 30
0.0
 40
83.0000208924636
100
AcDbArc
 50
108.7994842529297
 51
131.2005157470703
  0
ARC
  5
F5
330
1F
100
AcDbEntity
  8
0-1_ピット
  6
Continuous
 62
     2
370
     9
100
AcDbCircle
 10
-30.27010936509567
 20
270.828590174956
 30
0.0
 40
86.00001008169991
100
AcDbArc
 50
168.6667633056641
 51
174.58447265625
  0
ARC
  5
F6
330
1F
100
AcDbEntity
  8
0-1_ピット
  6
Continuous
 62
     2
370
     9
100
AcDbCircle
 10
-30.27010936509567
 20
270.828590174956
 30
0.0
 40
86.99999615584561
100
AcDbArc
 50
167.6352081298828
 51
174.3692932128906
  0
ARC
  5
F7
330
1F
100
AcDbEntity
  8
0-1_ピット
  6
Continuous
 62
     2
370
     9
100
AcDbCircle
 10
-30.27010936509567
 20
270.828590174956
 30
0.0
 40
86.00001008169991
100
AcDbArc
 50
65.41552734375004
 51
71.33325195312503
  0
ARC
  5
F8
330
1F
100
AcDbEntity
  8
0-1_ピット
  6
Continuous
 62
     2
370
     9
100
AcDbCircle
 10
-30.27010936509567
 20
270.828590174956
 30
0.0
 40
86.99999615584561
100
AcDbArc
 50
65.63073730468753
 51
72.36479187011722
  0
ARC
  5
F9
330
1F
100
AcDbEntity
  8
0-1_ピット
  6
Continuous
 62
     2
370
     9
100
AcDbCircle
 10
-30.27010936509567
 20
270.828590174956
 30
0.0
 40
86.99999615584561
100
AcDbArc
 50
47.63520812988283
 51
54.36927795410158
  0
ARC
  5
FA
330
1F
100
AcDbEntity
  8
0-1_ピット
  6
Continuous
 62
     2
370
     9
100
AcDbCircle
 10
-30.27010936509567
 20
270.828590174956
 30
0.0
 40
86.00001008169991
100
AcDbArc
 50
48.66676330566411
 51
54.58448791503911
  0
ARC
  5
FB
330
1F
100
AcDbEntity
  8
0-1_ピット
  6
Continuous
 62
     2
370
     9
100
AcDbCircle
 10
-110.2654526949193
 20
279.8285825161043
 30
0.0
 40
1.00000000920535
100
AcDbArc
 50
173.580322265625
 51
233.8955078125
  0
ARC
  5
FC
330
1F
100
AcDbEntity
  8
0-1_ピット
  6
Continuous
 62
     2
370
     9
100
AcDbCircle
 10
-110.8140605101058
 20
278.8285778618791
 30
0.0
 40
1.00000000920535
100
AcDbArc
 50
174.3275146484375
 51
261.2616119384766
  0
ARC
  5
FD
330
1F
100
AcDbEntity
  8
0-9
  6
Continuous
 62
     4
370
     9
100
AcDbCircle
 10
45.72987275443141
 20
270.828590174956
 30
0.0
 40
5.000000046026752
100
AcDbArc
 50
0.0
 51
180.0
  0
ARC
  5
FE
330
1F
100
AcDbEntity
  8
0-1_ピット
  6
Continuous
 62
     2
370
     9
100
AcDbCircle
 10
49.7252339647279
 20
279.8285825161043
 30
0.0
 40
1.00000000920535
100
AcDbArc
 50
306.1012420654297
 51
6.41967773437499
  0
ARC
  5
FF
330
1F
100
AcDbEntity
  8
0-1_ピット
  6
Continuous
 62
     2
370
     9
100
AcDbCircle
 10
50.27386655335378
 20
278.8285778618791
 30
0.0
 40
1.00000000920535
100
AcDbArc
 50
278.7404479980469
 51
5.672485351562518
  0
ARC
  5
100
330
1F
100
AcDbEntity
  8
0-9
  6
Continuous
 62
     4
370
     9
100
AcDbCircle
 10
-104.6700741284866
 20
272.4287066248497
 30
0.0
 40
1.00000000920535
100
AcDbArc
 50
180.0
 51
270.0
  0
ARC
  5
101
330
1F
100
AcDbEntity
  8
0-9
  6
Continuous
 62
     4
370
     9
100
AcDbCircle
 10
-107.870307028274
 20
272.4287066248497
 30
0.0
 40
1.00000000920535
100
AcDbArc
 50
270.0
 51
0.0
  0
ARC
  5
102
330
1F
100
AcDbEntity
  8
0-9
  6
Continuous
 62
     4
370
     9
100
AcDbCircle
 10
-106.2701410315016
 20
270.828590174956
 30
0.0
 40
5.000000046026752
100
AcDbArc
 50
0.0
 51
180.0
  0
ARC
  5
103
330
1F
100
AcDbEntity
  8
0-B
  6
Continuous
 62
     6
370
     5
100
AcDbCircle
 10
-125.7673332964856
 20
270.8237841277153
 30
0.0
 40
6.50000160817474
100
AcDbArc
 50
0.0421447753906464
 51
179.9578552246094
  0
ARC
  5
104
330
1F
100
AcDbEntity
  8
0-B
  6
Continuous
 62
     6
370
     5
100
AcDbCircle
 10
-125.7701079216967
 20
270.828590174956
 30
0.0
 40
3.32350011497851
100
AcDbArc
 50
359.9995727539062
 51
180.0004272460938
  0
ARC
  5
105
330
1F
100
AcDbEntity
  8
0-B
  6
Continuous
 62
     6
370
     5
100
AcDbCircle
 10
-125.7701079216967
 20
270.828590174956
 30
0.0
 40
4.000000036821402
100
AcDbArc
 50
359.9996490478516
 51
180.0003509521485
  0
CIRCLE
  5
106
330
1F
100
AcDbEntity
  8
0-B
  6
Continuous
 62
     6
370
     5
100
AcDbCircle
 10
17.47432827606287
 20
353.5339991328902
 30
0.0
 40
6.50000160817474
  0
CIRCLE
  5
107
330
1F
100
AcDbEntity
  8
0-B
  6
Continuous
 62
     6
370
     5
100
AcDbCircle
 10
17.47987752648516
 20
353.5339991328902
 30
0.0
 40
4.000000036821402
  0
CIRCLE
  5
108
330
1F
100
AcDbEntity
  8
0-B
  6
Continuous
 62
     6
370
     5
100
AcDbCircle
 10
17.47987752648516
 20
353.5339991328902
 30
0.0
 40
3.32350011497851
  0
ARC
  5
109
330
1F
100
AcDbEntity
  8
0-1_ピット
  6
Continuous
 62
     2
370
     9
100
AcDbCircle
 10
-33.27009855433197
 20
351.7132752052709
 30
0.0
 40
1.00000000920535
100
AcDbArc
 50
5.189804077148438
 51
92.12384033203125
  0
ARC
  5
10A
330
1F
100
AcDbEntity
  8
0-1_ピット
  6
Continuous
 62
     2
370
     9
100
AcDbCircle
 10
-27.27009540241999
 20
351.7132752052709
 30
0.0
 40
1.00000000920535
100
AcDbArc
 50
87.87615966796878
 51
174.8101959228516
  0
ARC
  5
10B
330
1F
100
AcDbEntity
  8
0-1_ピット
  6
Continuous
 62
     2
370
     9
100
AcDbCircle
 10
-25.27008609396949
 20
351.1731894532329
 30
0.0
 40
1.00000000920535
100
AcDbArc
 50
86.43867492675783
 51
146.74951171875
  0
ARC
  5
10C
330
1F
100
AcDbEntity
  8
0-1_ピット
  6
Continuous
 62
     2
370
     9
100
AcDbCircle
 10
-35.27010786278247
 20
351.1731894532329
 30
0.0
 40
1.00000000920535
100
AcDbArc
 50
33.24989318847656
 51
93.5613250732422
  0
ARC
  5
10D
330
1F
100
AcDbEntity
  8
0-1_ピット
  6
Continuous
 62
     2
370
     9
100
AcDbCircle
 10
-30.27043141980768
 20
270.8287883624711
 30
0.0
 40
89.00001785101577
100
AcDbArc
 50
61.09684753417969
 51
65.23223876953125
  0
ARC
  5
10E
330
1F
100
AcDbEntity
  8
0-1_ピット
  6
Continuous
 62
     2
370
     9
100
AcDbCircle
 10
-30.27010936509567
 20
270.828590174956
 30
0.0
 40
89.00001785101577
100
AcDbArc
 50
54.76754760742188
 51
58.89706420898437
  0
ARC
  5
10F
330
1F
100
AcDbEntity
  8
0-1_ピット
  6
Continuous
 62
     2
370
     9
100
AcDbCircle
 10
-30.27043141980768
 20
270.8287883624711
 30
0.0
 40
89.5000077914087
100
AcDbArc
 50
61.62350463867188
 51
63.3582763671875
  0
ARC
  5
110
330
1F
100
AcDbEntity
  8
0-1_ピット
  6
Continuous
 62
     2
370
     9
100
AcDbCircle
 10
-30.27010936509567
 20
270.828590174956
 30
0.0
 40
89.5000077914087
100
AcDbArc
 50
56.64147949218746
 51
58.37051391601559
  0
ARC
  5
111
330
1F
100
AcDbEntity
  8
0-1_ピット
  6
Continuous
 62
     2
370
     9
100
AcDbCircle
 10
-30.27010936509567
 20
270.828590174956
 30
0.0
 40
89.5000077914087
100
AcDbArc
 50
176.6414642333984
 51
178.3705291748047
  0
ARC
  5
112
330
1F
100
AcDbEntity
  8
0-1_ピット
  6
Continuous
 62
     2
370
     9
100
AcDbCircle
 10
-30.27010936509567
 20
270.828590174956
 30
0.0
 40
89.00001785101577
100
AcDbArc
 50
174.7675476074219
 51
178.8970642089844
  0
ELLIPSE
  5
113
330
1F
100
AcDbEntity
  8
0-A
  6
Continuous
 62
     4
370
     9
100
AcDbEllipse
 10
-30.27018368541382
 20
327.5702207586123
 30
0.0
 11
-2.999871515337964
 21
-1.917393862903195E-5
 31
0.0
210
0.0
220
0.0
230
1.0
 40
0.0642
 41
0.0
 42
3.141592653589791
  0
ELLIPSE
  5
114
330
1F
100
AcDbEntity
  8
0-A
  6
Continuous
 62
     4
370
     9
100
AcDbEllipse
 10
-30.27018368541382
 20
339.5209774649385
 30
0.0
 11
-5.000006626471589
 21
6.123039883931097E-16
 31
0.0
210
0.0
220
0.0
230
1.0
 40
0.0905
 41
0.0
 42
3.141592653589792
  0
ELLIPSE
  5
115
330
1F
100
AcDbEntity
  8
0-A
  6
Continuous
 62
     4
370
     9
100
AcDbEllipse
 10
-30.27018368541382
 20
335.5669878984154
 30
0.0
 11
-2.999871515276263
 21
-2.716307972323449E-5
 31
0.0
210
0.0
220
0.0
230
1.0
 40
0.0904
 41
0.0
 42
3.141592653589792
  0
ARC
  5
116
330
1F
100
AcDbEntity
  8
0-A
  6
Continuous
 62
     4
370
     9
100
AcDbCircle
 10
-30.27018368541382
 20
338.581469549692
 30
0.0
 40
5.087512607740159
100
AcDbArc
 50
95.63847351074219
 51
169.3578948974609
  0
ARC
  5
117
330
1F
100
AcDbEntity
  8
0-A
  6
Continuous
 62
     4
370
     9
100
AcDbCircle
 10
-30.27018368541382
 20
338.581469549692
 30
0.0
 40
5.087512607740159
100
AcDbArc
 50
10.64210510253906
 51
84.3590087890625
  0
ARC
  5
118
330
1F
100
AcDbEntity
  8
0-9
  6
Continuous
 62
     4
370
     9
100
AcDbCircle
 10
44.12980585141649
 20
272.4287066248496
 30
0.0
 40
1.00000000920535
100
AcDbArc
 50
270.0
 51
0.0
  0
ARC
  5
119
330
1F
100
AcDbEntity
  8
0-9
  6
Continuous
 62
     4
370
     9
100
AcDbCircle
 10
47.33003875120384
 20
272.4287066248496
 30
0.0
 40
1.00000000920535
100
AcDbArc
 50
180.0
 51
270.0
  0
ARC
  5
11A
330
1F
100
AcDbEntity
  8
0-2_本体（蓋）
  6
Continuous
 62
     6
370
     5
100
AcDbCircle
 10
49.57347187505386
 20
275.8286382195215
 30
0.0
 40
1.00000000920535
100
AcDbArc
 50
270.0
 51
3.58358764648437
  0
ARC
  5
11B
330
1F
100
AcDbEntity
  8
0-2_本体（蓋）
  6
Continuous
 62
     6
370
     5
100
AcDbCircle
 10
48.50172334036892
 20
276.8286181003074
 30
0.0
 40
1.00000000920535
100
AcDbArc
 50
270.0
 51
4.355911254882805
  0
ARC
  5
11C
330
1F
100
AcDbEntity
  8
0-2_本体（蓋）
  6
Continuous
 62
     6
370
     5
100
AcDbCircle
 10
-30.27013413853508
 20
270.8286149483954
 30
0.0
 40
80.00000073642803
100
AcDbArc
 50
4.355773925781251
 51
7.180755615234376
  0
ARC
  5
11D
330
1F
100
AcDbEntity
  8
0-2_本体（蓋）
  6
Continuous
 62
     6
370
     5
100
AcDbCircle
 10
-30.27013413853508
 20
270.8286149483954
 30
0.0
 40
80.99998681057374
100
AcDbArc
 50
3.58332824707032
 51
176.4166717529297
  0
ARC
  5
11E
330
1F
100
AcDbEntity
  8
0-2_本体（蓋）
  6
Continuous
 62
     6
370
     5
100
AcDbCircle
 10
31.67168910648029
 20
300.8226355356243
 30
0.0
 40
1.00000000920535
100
AcDbArc
 50
205.8378143310547
 51
289.9993743896484
  0
ARC
  5
11F
330
1F
100
AcDbEntity
  8
0-2_本体（蓋）
  6
Continuous
 62
     6
370
     5
100
AcDbCircle
 10
26.67647188259491
 20
309.4745610534098
 30
0.0
 40
1.00000000920535
100
AcDbArc
 50
129.9986267089844
 51
214.1616516113281
  0
ARC
  5
120
330
1F
100
AcDbEntity
  8
0-2_本体（蓋）
  6
Continuous
 62
     6
370
     5
100
AcDbCircle
 10
-30.27013413853508
 20
270.828590174956
 30
0.0
 40
67.82175572958693
100
AcDbArc
 50
25.83760070800781
 51
34.16218566894531
  0
ARC
  5
121
330
1F
100
AcDbEntity
  8
0-2_本体（蓋）
  6
Continuous
 62
     6
370
     5
100
AcDbCircle
 10
17.67702455711299
 20
320.1985865882568
 30
0.0
 40
1.00000000920535
100
AcDbArc
 50
225.8378143310547
 51
309.9993743896484
  0
ARC
  5
122
330
1F
100
AcDbEntity
  8
0-2_本体（蓋）
  6
Continuous
 62
     6
370
     5
100
AcDbCircle
 10
10.02393934190161
 20
326.620307998824
 30
0.0
 40
1.00000000920535
100
AcDbArc
 50
149.9986267089844
 51
234.1616516113281
  0
ARC
  5
123
330
1F
100
AcDbEntity
  8
0-2_本体（蓋）
  6
Continuous
 62
     6
370
     5
100
AcDbCircle
 10
-30.27067915420157
 20
270.8280451592896
 30
0.0
 40
67.82175572958693
100
AcDbArc
 50
45.83760070800781
 51
54.16218566894531
  0
ARC
  5
124
330
1F
100
AcDbEntity
  8
0-2_本体（蓋）
  6
Continuous
 62
     6
370
     5
100
AcDbCircle
 10
-2.100776455787807
 20
333.6197955627342
 30
0.0
 40
1.00000000920535
100
AcDbArc
 50
245.8378143310547
 51
329.9993743896484
  0
ARC
  5
125
330
1F
100
AcDbEntity
  8
0-2_本体（蓋）
  6
Continuous
 62
     6
370
     5
100
AcDbCircle
 10
-11.4886465373911
 20
337.0366969633851
 30
0.0
 40
1.00000000920535
100
AcDbArc
 50
169.9986267089844
 51
254.1616516113281
  0
ARC
  5
126
330
1F
100
AcDbEntity
  8
0-2_本体（蓋）
  6
Continuous
 62
     6
370
     5
100
AcDbCircle
 10
-30.27117462298924
 20
270.8275496905018
 30
0.0
 40
67.82175572958693
100
AcDbArc
 50
65.83760070800781
 51
74.16218566894531
  0
ARC
  5
127
330
1F
100
AcDbEntity
  8
0-2_本体（蓋）
  6
Continuous
 62
     6
370
     5
100
AcDbCircle
 10
-25.2763042272552
 20
339.46731819523
 30
0.0
 40
1.00000000920535
100
AcDbArc
 50
265.8378143310547
 51
349.9993743896484
  0
ARC
  5
128
330
1F
100
AcDbEntity
  8
0-2_本体（蓋）
  6
Continuous
 62
     6
370
     5
100
AcDbCircle
 10
36.45789282227235
 20
287.6681374095685
 30
0.0
 40
1.00000000920535
100
AcDbArc
 50
109.9993591308594
 51
194.1644287109375
  0
ARC
  5
129
330
1F
100
AcDbEntity
  8
0-2_本体（蓋）
  6
Continuous
 62
     6
370
     5
100
AcDbCircle
 10
38.08355068817223
 20
278.8268684945615
 30
0.0
 40
1.00000000920535
100
AcDbArc
 50
186.6748657226562
 51
270.0
  0
ARC
  5
12A
330
1F
100
AcDbEntity
  8
0-2_本体（蓋）
  6
Continuous
 62
     6
370
     5
100
AcDbCircle
 10
-30.27167009177698
 20
270.8268064873203
 30
0.0
 40
67.82175572958693
100
AcDbArc
 50
6.675338745117176
 51
14.16461181640624
  0
ARC
  5
12B
330
1F
100
AcDbEntity
  8
0-2_本体（蓋）
  6
Continuous
 62
     6
370
     5
100
AcDbCircle
 10
-30.27013413853508
 20
270.8286149483954
 30
0.0
 40
69.90732011095437
100
AcDbArc
 50
0.0
 51
8.224166870117188
  0
ARC
  5
12C
330
1F
100
AcDbEntity
  8
0-2_本体（蓋）
  6
Continuous
 62
     6
370
     5
100
AcDbCircle
 10
-30.27013413853508
 20
270.8286149483954
 30
0.0
 40
64.02144200093038
100
AcDbArc
 50
0.0
 51
88.65806579589844
  0
ARC
  5
12D
330
1F
100
AcDbEntity
  8
0-2_本体（蓋）
  6
Continuous
 62
     6
370
     5
100
AcDbCircle
 10
-110.113740152124
 20
275.8286382195216
 30
0.0
 40
1.00000000920535
100
AcDbArc
 50
176.4164123535156
 51
270.0
  0
ARC
  5
12E
330
1F
100
AcDbEntity
  8
0-2_本体（蓋）
  6
Continuous
 62
     6
370
     5
100
AcDbCircle
 10
-109.0419668439997
 20
276.8286181003074
 30
0.0
 40
1.00000000920535
100
AcDbArc
 50
175.6440887451172
 51
270.0
  0
ARC
  5
12F
330
1F
100
AcDbEntity
  8
0-2_本体（蓋）
  6
Continuous
 62
     6
370
     5
100
AcDbCircle
 10
-30.27013413853508
 20
270.8286149483954
 30
0.0
 40
80.00000073642803
100
AcDbArc
 50
172.8192443847657
 51
175.6442260742188
  0
ARC
  5
130
330
1F
100
AcDbEntity
  8
0-2_本体（蓋）
  6
Continuous
 62
     6
370
     5
100
AcDbCircle
 10
-92.21193261011102
 20
300.8226355356243
 30
0.0
 40
1.00000000920535
100
AcDbArc
 50
250.0006256103516
 51
334.1621856689453
  0
ARC
  5
131
330
1F
100
AcDbEntity
  8
0-2_本体（蓋）
  6
Continuous
 62
     6
370
     5
100
AcDbCircle
 10
-87.21674015966498
 20
309.4745610534098
 30
0.0
 40
1.00000000920535
100
AcDbArc
 50
325.8383483886719
 51
50.00137329101562
  0
ARC
  5
132
330
1F
100
AcDbEntity
  8
0-2_本体（蓋）
  6
Continuous
 62
     6
370
     5
100
AcDbCircle
 10
-30.27013413853508
 20
270.828590174956
 30
0.0
 40
67.82175572958693
100
AcDbArc
 50
145.8378143310547
 51
154.1623992919922
  0
ARC
  5
133
330
1F
100
AcDbEntity
  8
0-2_本体（蓋）
  6
Continuous
 62
     6
370
     5
100
AcDbCircle
 10
-78.21726806074378
 20
320.1985865882568
 30
0.0
 40
1.00000000920535
100
AcDbArc
 50
230.0014190673828
 51
314.1629791259766
  0
ARC
  5
134
330
1F
100
AcDbEntity
  8
0-2_本体（蓋）
  6
Continuous
 62
     6
370
     5
100
AcDbCircle
 10
-70.56420761897175
 20
326.6203079988241
 30
0.0
 40
1.00000000920535
100
AcDbArc
 50
305.8391418457031
 51
30.00216674804688
  0
ARC
  5
135
330
1F
100
AcDbEntity
  8
0-2_本体（蓋）
  6
Continuous
 62
     6
370
     5
100
AcDbCircle
 10
-30.26956434942918
 20
270.8280451592896
 30
0.0
 40
67.82175572958693
100
AcDbArc
 50
125.8378143310547
 51
134.1623992919922
  0
ARC
  5
136
330
1F
100
AcDbEntity
  8
0-2_本体（蓋）
  6
Continuous
 62
     6
370
     5
100
AcDbCircle
 10
-58.43946704784292
 20
333.6197955627342
 30
0.0
 40
1.00000000920535
100
AcDbArc
 50
210.0004577636718
 51
294.1620178222656
  0
ARC
  5
137
330
1F
100
AcDbEntity
  8
0-2_本体（蓋）
  6
Continuous
 62
     6
370
     5
100
AcDbCircle
 10
-49.05159696623963
 20
337.0366969633851
 30
0.0
 40
1.00000000920535
100
AcDbArc
 50
285.8381805419922
 51
10.00120544433594
  0
ARC
  5
138
330
1F
100
AcDbEntity
  8
0-2_本体（蓋）
  6
Continuous
 62
     6
370
     5
100
AcDbCircle
 10
-30.26906888064151
 20
270.8275496905018
 30
0.0
 40
67.82175572958693
100
AcDbArc
 50
105.8378143310547
 51
114.1623992919922
  0
ARC
  5
139
330
1F
100
AcDbEntity
  8
0-2_本体（蓋）
  6
Continuous
 62
     6
370
     5
100
AcDbCircle
 10
-96.9981363259031
 20
287.6681374095685
 30
0.0
 40
1.00000000920535
100
AcDbArc
 50
345.8347930908203
 51
69.99986267089842
  0
ARC
  5
13A
330
1F
100
AcDbEntity
  8
0-2_本体（蓋）
  6
Continuous
 62
     6
370
     5
100
AcDbCircle
 10
-98.62381896524232
 20
278.8268684945616
 30
0.0
 40
1.00000000920535
100
AcDbArc
 50
270.0
 51
353.3251342773438
  0
ARC
  5
13B
330
1F
100
AcDbEntity
  8
0-2_本体（蓋）
  6
Continuous
 62
     6
370
     5
100
AcDbCircle
 10
-30.26857341185377
 20
270.8268064873203
 30
0.0
 40
67.82175572958693
100
AcDbArc
 50
165.8353881835938
 51
173.3246612548828
  0
ARC
  5
13C
330
1F
100
AcDbEntity
  8
0-2_本体（蓋）
  6
Continuous
 62
     6
370
     5
100
AcDbCircle
 10
-30.27013413853508
 20
270.8286149483954
 30
0.0
 40
69.90732011095437
100
AcDbArc
 50
171.7758331298828
 51
180.0
  0
ARC
  5
13D
330
1F
100
AcDbEntity
  8
0-2_本体（蓋）
  6
Continuous
 62
     6
370
     5
100
AcDbCircle
 10
-35.26393927637554
 20
339.46731819523
 30
0.0
 40
1.00000000920535
100
AcDbArc
 50
190.000732421875
 51
274.1622924804688
  0
ARC
  5
13E
330
1F
100
AcDbEntity
  8
0-2_本体（蓋）
  6
Continuous
 62
     6
370
     5
100
AcDbCircle
 10
-30.27013413853508
 20
270.8286149483954
 30
0.0
 40
64.02144200093038
100
AcDbArc
 50
91.3419342041015
 51
179.9999999999999
  0
ARC
  5
13F
330
1F
100
AcDbEntity
  8
0-2_本体（蓋）
  6
Continuous
 62
     6
370
     5
100
AcDbCircle
 10
-30.27013413853507
 20
334.7876154953552
 30
0.0
 40
1.500000013808026
100
AcDbArc
 50
181.8018493652344
 51
1.716171264648453
  0
ARC
  5
140
330
1F
100
AcDbEntity
  8
0-2_本体（蓋）
  6
Continuous
 62
     6
370
     5
100
AcDbCircle
 10
-30.27013413853507
 20
335.4924198458658
 30
0.0
 40
1.500000013808026
100
AcDbArc
 50
186.1500549316406
 51
353.8513336181641
  0
ARC
  5
141
330
1F
100
AcDbEntity
  8
0-2_本体（蓋）
  6
Continuous
 62
     6
370
     5
100
AcDbCircle
 10
-30.27013413853508
 20
270.8286149483954
 30
0.0
 40
70.0000099344143
100
AcDbArc
 50
9.041091918945309
 51
86.20193481445312
  0
ARC
  5
142
330
1F
100
AcDbEntity
  8
0-2_本体（蓋）
  6
Continuous
 62
     6
370
     5
100
AcDbCircle
 10
-30.27013413853508
 20
270.8286149483954
 30
0.0
 40
70.0000099344143
100
AcDbArc
 50
93.79812622070312
 51
170.9589233398438
  0
ARC
  5
143
330
1F
100
AcDbEntity
  8
0-2_本体（蓋）
  6
Continuous
 62
     6
370
     5
100
AcDbCircle
 10
-30.27162054489817
 20
270.8271037685928
 30
0.0
 40
67.82175572958693
100
AcDbArc
 50
85.83760070800781
 51
87.46351623535156
  0
ARC
  5
144
330
1F
100
AcDbEntity
  8
0-2_本体（蓋）
  6
Continuous
 62
     6
370
     5
100
AcDbCircle
 10
-30.27162054489817
 20
270.8271037685928
 30
0.0
 40
67.82175572958693
100
AcDbArc
 50
92.53399658203125
 51
94.16218566894531
  0
ARC
  5
145
330
1F
100
AcDbEntity
  8
0-1_ピット
  6
Continuous
 62
     2
370
     9
100
AcDbCircle
 10
-2.770130014538038
 20
318.4599866121996
 30
0.0
 40
12.00000011046421
100
AcDbArc
 50
197.5952911376953
 51
282.4046478271484
  0
ARC
  5
146
330
1F
100
AcDbEntity
  8
0-1_ピット
  6
Continuous
 62
     2
370
     9
100
AcDbCircle
 10
-2.770130014538038
 20
318.4599866121996
 30
0.0
 40
13.00000011966956
100
AcDbArc
 50
194.3534088134765
 51
285.6465759277344
  0
ARC
  5
147
330
1F
100
AcDbEntity
  8
0-1_ピット
  6
Continuous
 62
     2
370
     9
100
AcDbCircle
 10
-85.27014238652914
 20
270.828590174956
 30
0.0
 40
13.00000011966956
100
AcDbArc
 50
0.0
 51
45.64653015136719
  0
ARC
  5
148
330
1F
100
AcDbEntity
  8
0-1_ピット
  6
Continuous
 62
     2
370
     9
100
AcDbCircle
 10
-85.27014238652914
 20
270.828590174956
 30
0.0
 40
12.00000011046421
100
AcDbArc
 50
0.0
 51
42.40460205078125
  0
ARC
  5
149
330
1F
100
AcDbEntity
  8
0-2_本体（蓋）
  6
Continuous
 62
     6
370
     5
100
AcDbCircle
 10
-30.27013413853508
 20
270.8286149483954
 30
0.0
 40
59.00000209145564
100
AcDbArc
 50
0.0
 51
180.0000305175782
  0
ARC
  5
14A
330
1F
100
AcDbEntity
  8
0-0_通り芯
  6
Continuous
 62
     3
370
     9
100
AcDbCircle
 10
-30.27013413853508
 20
270.828590174956
 30
0.0
 40
40.10998205236486
100
AcDbArc
 50
0.0
 51
180.0
  0
ARC
  5
14B
330
1F
100
AcDbEntity
  8
0-0_通り芯
  6
Continuous
 62
     3
370
     9
100
AcDbCircle
 10
-30.27013413853508
 20
270.828590174956
 30
0.0
 40
45.49985874573697
100
AcDbArc
 50
0.0
 51
49.82284545898438
  0
ARC
  5
14C
330
1F
100
AcDbEntity
  8
0-0_通り芯
  6
Continuous
 62
     3
370
     9
100
AcDbCircle
 10
-30.27013413853508
 20
270.828590174956
 30
0.0
 40
45.49985874573697
100
AcDbArc
 50
70.1771240234375
 51
169.8228759765625
  0
LINE
  5
14D
330
1F
100
AcDbEntity
  8
0-6
  6
JWW_DASHED1
 62
     4
370
     9
100
AcDbLine
 10
-42.77014276947176
 20
342.5723219940205
 30
0.0
 11
-42.77014276947176
 21
331.0449433667883
 31
0.0
  0
LINE
  5
14E
330
1F
100
AcDbEntity
  8
0-6
  6
JWW_DASHED1
 62
     4
370
     9
100
AcDbLine
 10
-17.77012550759838
 20
342.5723219940205
 30
0.0
 11
-17.77012550759838
 21
331.0449433667883
 31
0.0
  0
ARC
  5
14F
330
1F
100
AcDbEntity
  8
0-6
  6
JWW_DASHED1
 62
     4
370
     9
100
AcDbCircle
 10
-39.77012880679603
 20
342.5723219940205
 30
0.0
 40
3.000000027616052
100
AcDbArc
 50
97.13363647460938
 51
180.0
  0
ARC
  5
150
330
1F
100
AcDbEntity
  8
0-6
  6
JWW_DASHED1
 62
     4
370
     9
100
AcDbCircle
 10
-20.77011469683469
 20
342.5723219940205
 30
0.0
 40
3.000000027616052
100
AcDbArc
 50
0.0
 51
82.86636352539062
  0
ARC
  5
151
330
1F
100
AcDbEntity
  8
0-6
  6
JWW_DASHED1
 62
     4
370
     9
100
AcDbCircle
 10
-30.27013413853508
 20
266.6645218424459
 30
0.0
 40
79.49999840931542
100
AcDbArc
 50
82.86640930175781
 51
97.13359069824217
  0
ARC
  5
152
330
1F
100
AcDbEntity
  8
0-6
  6
JWW_DASHED1
 62
     4
370
     9
100
AcDbCircle
 10
-30.27013413853508
 20
270.828590174956
 30
0.0
 40
61.50003850045812
100
AcDbArc
 50
0.0
 51
180.0
  0
ARC
  5
153
330
1F
100
AcDbEntity
  8
0-6
  6
JWW_DASHED1
 62
     4
370
     9
100
AcDbCircle
 10
-30.27013413853508
 20
270.828590174956
 30
0.0
 40
60.94347841122896
100
AcDbArc
 50
0.0
 51
180.0
  0
ARC
  5
154
330
1F
100
AcDbEntity
  8
0-6
  6
Continuous
 62
     4
370
     9
100
AcDbCircle
 10
-30.27013413853508
 20
270.828590174956
 30
0.0
 40
46.84348029427547
100
AcDbArc
 50
0.0
 51
180.0
  0
LINE
  5
155
330
1F
100
AcDbEntity
  8
0-A
  6
Continuous
 62
     4
370
     9
100
AcDbLine
 10
-151.8340205379698
 20
297.7074994001254
 30
0.0
 11
-155.2179484907989
 21
298.614232055065
 31
0.0
  0
LINE
  5
156
330
1F
100
AcDbEntity
  8
0-A
  6
Continuous
 62
     4
370
     9
100
AcDbLine
 10
-149.568216998355
 20
298.6532997689756
 30
0.0
 11
-156.8163307999356
 21
300.5954135495828
 31
0.0
  0
LINE
  5
157
330
1F
100
AcDbEntity
  8
0-A
  6
Continuous
 62
     4
370
     9
100
AcDbLine
 10
-155.2179732642383
 20
298.614232055065
 30
0.0
 11
-156.8163307999356
 21
300.5954135495828
 31
0.0
  0
LINE
  5
158
330
1F
100
AcDbEntity
  8
0-A
  6
Continuous
 62
     4
370
     9
100
AcDbLine
 10
-151.8340205379698
 20
297.7074994001254
 30
0.0
 11
-149.568216998355
 21
298.6532997689756
 31
0.0
  0
LINE
  5
159
330
1F
100
AcDbEntity
  8
0-A
  6
Continuous
 62
     4
370
     9
100
AcDbLine
 10
91.2937274874603
 20
297.7075241735647
 30
0.0
 11
94.67768021372875
 21
298.614232055065
 31
0.0
  0
LINE
  5
15A
330
1F
100
AcDbEntity
  8
0-A
  6
Continuous
 62
     4
370
     9
100
AcDbLine
 10
89.02794872128484
 20
298.6532997689756
 30
0.0
 11
96.27606252286543
 21
300.5954383230221
 31
0.0
  0
LINE
  5
15B
330
1F
100
AcDbEntity
  8
0-A
  6
Continuous
 62
     4
370
     9
100
AcDbLine
 10
96.27606252286543
 20
300.5954383230221
 30
0.0
 11
94.67768021372875
 21
298.6142568285044
 31
0.0
  0
LINE
  5
15C
330
1F
100
AcDbEntity
  8
0-A
  6
Continuous
 62
     4
370
     9
100
AcDbLine
 10
91.2937274874603
 20
297.7075241735647
 30
0.0
 11
89.02794872128484
 21
298.6532997689756
 31
0.0
  0
LINE
  5
15D
330
1F
100
AcDbEntity
  8
0-A
  6
Continuous
 62
     4
370
     9
100
AcDbLine
 10
88.44671428642798
 20
308.3326789118252
 30
0.0
 11
91.83066701269635
 21
309.2394115667649
 31
0.0
  0
LINE
  5
15E
330
1F
100
AcDbEntity
  8
0-A
  6
Continuous
 62
     4
370
     9
100
AcDbLine
 10
61.56778028781928
 20
354.8883630640822
 30
0.0
 11
64.04502513258734
 21
357.3655583619715
 31
0.0
  0
LINE
  5
15F
330
1F
100
AcDbEntity
  8
0-A
  6
Continuous
 62
     4
370
     9
100
AcDbLine
 10
59.13269983688496
 20
354.5745579073892
 30
0.0
 11
64.43867508441907
 21
359.8805083814839
 31
0.0
  0
LINE
  5
160
330
1F
100
AcDbEntity
  8
0-A
  6
Continuous
 62
     4
370
     9
100
AcDbLine
 10
86.95743420434393
 20
306.3807300757821
 30
0.0
 11
94.20544891216699
 21
308.3228438563892
 31
0.0
  0
LINE
  5
161
330
1F
100
AcDbEntity
  8
0-A
  6
Continuous
 62
     4
370
     9
100
AcDbLine
 10
91.83066701269635
 20
309.2394363402043
 30
0.0
 11
94.20544891216699
 21
308.3228438563892
 31
0.0
  0
LINE
  5
162
330
1F
100
AcDbEntity
  8
0-A
  6
Continuous
 62
     4
370
     9
100
AcDbLine
 10
88.44671428642798
 20
308.3326789118252
 30
0.0
 11
86.95743420434393
 21
306.3806805289033
 31
0.0
  0
LINE
  5
163
330
1F
100
AcDbEntity
  8
0-A
  6
Continuous
 62
     4
370
     9
100
AcDbLine
 10
64.43867508441907
 20
359.8805083814839
 30
0.0
 11
64.04502513258734
 21
357.3655955221305
 31
0.0
  0
LINE
  5
164
330
1F
100
AcDbEntity
  8
0-A
  6
Continuous
 62
     4
370
     9
100
AcDbLine
 10
61.56778028781928
 20
354.8883630640822
 30
0.0
 11
59.13269983688496
 21
354.5745579073892
 31
0.0
  0
LINE
  5
165
330
1F
100
AcDbEntity
  8
0-A
  6
Continuous
 62
     4
370
     9
100
AcDbLine
 10
53.78966352403052
 20
362.6665417614694
 30
0.0
 11
56.26680927504107
 21
365.1437370593587
 31
0.0
  0
LINE
  5
166
330
1F
100
AcDbEntity
  8
0-A
  6
Continuous
 62
     4
370
     9
100
AcDbLine
 10
7.233979371773513
 20
389.5454385999191
 30
0.0
 11
8.140687253273894
 21
392.9293913261874
 31
0.0
  0
LINE
  5
167
330
1F
100
AcDbEntity
  8
0-A
  6
Continuous
 62
     4
370
     9
100
AcDbLine
 10
5.281980988851682
 20
388.0561213576759
 30
0.0
 11
7.224094769458828
 21
395.3041979990975
 31
0.0
  0
LINE
  5
168
330
1F
100
AcDbEntity
  8
0-A
  6
Continuous
 62
     4
370
     9
100
AcDbLine
 10
53.47583359389813
 20
360.2314117636563
 30
0.0
 11
58.78175929455341
 21
365.537362237751
 31
0.0
  0
LINE
  5
169
330
1F
100
AcDbEntity
  8
0-A
  6
Continuous
 62
     4
370
     9
100
AcDbLine
 10
56.26680927504107
 20
365.1437742195178
 30
0.0
 11
58.78175929455341
 21
365.537362237751
 31
0.0
  0
LINE
  5
16A
330
1F
100
AcDbEntity
  8
0-A
  6
Continuous
 62
     4
370
     9
100
AcDbLine
 10
53.78966352403052
 20
362.6665417614694
 30
0.0
 11
53.47583359389813
 21
360.2313746034972
 31
0.0
  0
LINE
  5
16B
330
1F
100
AcDbEntity
  8
0-A
  6
Continuous
 62
     4
370
     9
100
AcDbLine
 10
7.224094769458828
 20
395.3041979990975
 30
0.0
 11
8.140637706395134
 21
392.9293913261874
 31
0.0
  0
LINE
  5
16C
330
1F
100
AcDbEntity
  8
0-A
  6
Continuous
 62
     4
370
     9
100
AcDbLine
 10
7.233979371773513
 20
389.5454385999191
 30
0.0
 11
5.281980988851682
 21
388.0561213576759
 31
0.0
  0
LINE
  5
16D
330
1F
100
AcDbEntity
  8
0-A
  6
Continuous
 62
     4
370
     9
100
AcDbLine
 10
-3.391224913365749
 20
392.3924641876711
 30
0.0
 11
-2.48449225842602
 21
395.7764045272198
 31
0.0
  0
LINE
  5
16E
330
1F
100
AcDbEntity
  8
0-A
  6
Continuous
 62
     4
370
     9
100
AcDbLine
 10
-57.14906813714371
 20
392.3924641876711
 30
0.0
 11
-58.0558007920835
 21
395.7764045272198
 31
0.0
  0
LINE
  5
16F
330
1F
100
AcDbEntity
  8
0-A
  6
Continuous
 62
     4
370
     9
100
AcDbLine
 10
-58.09486850599403
 20
390.1266730347759
 30
0.0
 11
-60.03698228660118
 21
397.3747868363566
 31
0.0
  0
LINE
  5
170
330
1F
100
AcDbEntity
  8
0-A
  6
Continuous
 62
     4
370
     9
100
AcDbLine
 10
-2.445424544515435
 20
390.1266730347759
 30
0.0
 11
-0.5033107639083472
 21
397.3747868363566
 31
0.0
  0
LINE
  5
171
330
1F
100
AcDbEntity
  8
0-A
  6
Continuous
 62
     4
370
     9
100
AcDbLine
 10
-2.48449225842602
 20
395.7764045272198
 30
0.0
 11
-0.5033107639083472
 21
397.3747868363566
 31
0.0
  0
LINE
  5
172
330
1F
100
AcDbEntity
  8
0-A
  6
Continuous
 62
     4
370
     9
100
AcDbLine
 10
-3.391224913365749
 20
392.3924641876711
 30
0.0
 11
-2.445399771076087
 21
390.1266730347759
 31
0.0
  0
LINE
  5
173
330
1F
100
AcDbEntity
  8
0-A
  6
Continuous
 62
     4
370
     9
100
AcDbLine
 10
-60.03698228660118
 20
397.3747868363566
 30
0.0
 11
-58.05582556552285
 21
395.7764045272198
 31
0.0
  0
LINE
  5
174
330
1F
100
AcDbEntity
  8
0-A
  6
Continuous
 62
     4
370
     9
100
AcDbLine
 10
-57.14906813714371
 20
392.3924641876711
 30
0.0
 11
-58.09486850599403
 21
390.1266730347759
 31
0.0
  0
LINE
  5
175
330
1F
100
AcDbEntity
  8
0-A
  6
Continuous
 62
     4
370
     9
100
AcDbLine
 10
-67.77424764884364
 20
389.5454385999191
 30
0.0
 11
-68.68098030378336
 21
392.9293913261874
 31
0.0
  0
LINE
  5
176
330
1F
100
AcDbEntity
  8
0-A
  6
Continuous
 62
     4
370
     9
100
AcDbLine
 10
-114.3299318011007
 20
362.6665046013104
 30
0.0
 11
-116.8071270989899
 21
365.1437370593587
 31
0.0
  0
LINE
  5
177
330
1F
100
AcDbEntity
  8
0-A
  6
Continuous
 62
     4
370
     9
100
AcDbLine
 10
-114.0161266444076
 20
360.2313746034973
 30
0.0
 11
-119.3220771185023
 21
365.537362237751
 31
0.0
  0
LINE
  5
178
330
1F
100
AcDbEntity
  8
0-A
  6
Continuous
 62
     4
370
     9
100
AcDbLine
 10
-65.82227403936113
 20
388.0561213576759
 30
0.0
 11
-67.7644125934077
 21
395.3041979990975
 31
0.0
  0
LINE
  5
179
330
1F
100
AcDbEntity
  8
0-A
  6
Continuous
 62
     4
370
     9
100
AcDbLine
 10
-68.68098030378336
 20
392.9293913261874
 30
0.0
 11
-67.7644125934077
 21
395.3041979990975
 31
0.0
  0
LINE
  5
17A
330
1F
100
AcDbEntity
  8
0-A
  6
Continuous
 62
     4
370
     9
100
AcDbLine
 10
-67.77424764884364
 20
389.5454385999191
 30
0.0
 11
-65.82227403936113
 21
388.0561213576759
 31
0.0
  0
LINE
  5
17B
330
1F
100
AcDbEntity
  8
0-A
  6
Continuous
 62
     4
370
     9
100
AcDbLine
 10
-119.3220771185023
 20
365.537362237751
 30
0.0
 11
-116.8071518724293
 21
365.1437370593587
 31
0.0
  0
LINE
  5
17C
330
1F
100
AcDbEntity
  8
0-A
  6
Continuous
 62
     4
370
     9
100
AcDbLine
 10
-114.3299318011007
 20
362.6665046013104
 30
0.0
 11
-114.0161266444076
 21
360.2313746034973
 31
0.0
  0
LINE
  5
17D
330
1F
100
AcDbEntity
  8
0-A
  6
Continuous
 62
     4
370
     9
100
AcDbLine
 10
-122.1080733383288
 20
354.8883259039231
 30
0.0
 11
-124.5852934096575
 21
357.3655583619715
 31
0.0
  0
LINE
  5
17E
330
1F
100
AcDbEntity
  8
0-A
  6
Continuous
 62
     4
370
     9
100
AcDbLine
 10
-148.9869825634981
 20
308.3326789118252
 30
0.0
 11
-152.3709352897665
 21
309.2394115667649
 31
0.0
  0
LINE
  5
17F
330
1F
100
AcDbEntity
  8
0-A
  6
Continuous
 62
     4
370
     9
100
AcDbLine
 10
-147.4976777079747
 20
306.3806805289034
 30
0.0
 11
-154.7457667361159
 21
308.3228190829499
 31
0.0
  0
LINE
  5
180
330
1F
100
AcDbEntity
  8
0-A
  6
Continuous
 62
     4
370
     9
100
AcDbLine
 10
-119.6729681139551
 20
354.5745331339498
 30
0.0
 11
-124.9789185880498
 21
359.8805083814839
 31
0.0
  0
LINE
  5
181
330
1F
100
AcDbEntity
  8
0-A
  6
Continuous
 62
     4
370
     9
100
AcDbLine
 10
-124.5853181830969
 20
357.3655583619715
 30
0.0
 11
-124.9789185880498
 21
359.8805083814839
 31
0.0
  0
LINE
  5
182
330
1F
100
AcDbEntity
  8
0-A
  6
Continuous
 62
     4
370
     9
100
AcDbLine
 10
-122.1080733383288
 20
354.8883259039231
 30
0.0
 11
-119.6729433405157
 21
354.5745579073892
 31
0.0
  0
LINE
  5
183
330
1F
100
AcDbEntity
  8
0-A
  6
Continuous
 62
     4
370
     9
100
AcDbLine
 10
-154.7457667361159
 20
308.3228190829499
 30
0.0
 11
-152.3709352897665
 21
309.2393620198861
 31
0.0
  0
LINE
  5
184
330
1F
100
AcDbEntity
  8
0-A
  6
Continuous
 62
     4
370
     9
100
AcDbLine
 10
-148.9869825634981
 20
308.3326789118252
 30
0.0
 11
-147.4976777079747
 21
306.3806805289034
 31
0.0
  0
LINE
  5
185
330
1F
100
AcDbEntity
  8
0-A
  6
Continuous
 62
     4
370
     9
100
AcDbLine
 10
-120.2701318703367
 20
277.8285979810933
 30
0.0
 11
-120.2701318703367
 21
281.8285670511154
 31
0.0
  0
LINE
  5
186
330
1F
100
AcDbEntity
  8
0-A
  6
Continuous
 62
     4
370
     9
100
AcDbLine
 10
5.203573053197323
 20
354.2708355405259
 30
0.0
 11
8.667667855877031
 21
352.2708757789542
 31
0.0
  0
LINE
  5
187
330
1F
100
AcDbEntity
  8
0-A
  6
Continuous
 62
     4
370
     9
100
AcDbLine
 10
20.7920368254151
 20
345.270867972817
 30
0.0
 11
24.25613162809475
 21
343.2708958245256
 31
0.0
  0
LINE
  5
188
330
1F
100
AcDbEntity
  8
0-A
  6
Continuous
 62
     4
370
     9
100
AcDbLine
 10
67.60571157543018
 20
338.8842505258586
 30
0.0
 11
57.92117955718839
 21
333.292860483167
 31
0.0
  0
LINE
  5
189
330
1F
100
AcDbEntity
  8
0-A
  6
JWW_HOJO
 62
     4
370
     9
100
AcDbLine
 10
57.92117955718839
 20
333.292860483167
 30
0.0
 11
56.746125780267
 21
332.6144646190412
 31
0.0
  0
LINE
  5
18A
330
1F
100
AcDbEntity
  8
0-A
  6
JWW_HOJO
 62
     4
370
     9
100
AcDbLine
 10
56.15567562595879
 20
329.9641773001671
 30
0.0
 11
54.74225181527243
 21
329.1481154333774
 31
0.0
  0
LINE
  5
18B
330
1F
100
AcDbEntity
  8
0-A
  6
Continuous
 62
     4
370
     9
100
AcDbLine
 10
54.74225181527243
 20
329.1481154333774
 30
0.0
 11
54.00776888437833
 21
328.72406847142
 31
0.0
  0
LINE
  5
18C
330
1F
100
AcDbEntity
  8
0-A
  6
JWW_HOJO
 62
     4
370
     9
100
AcDbLine
 10
54.00776888437833
 20
328.72406847142
 30
0.0
 11
52.61223149692813
 21
327.9183619022933
 31
0.0
  0
LINE
  5
18D
330
1F
100
AcDbEntity
  8
0-A
  6
Continuous
 62
     4
370
     9
100
AcDbLine
 10
69.79137303863371
 20
336.6820651785851
 30
0.0
 11
56.98702270484922
 21
329.2894479050703
 31
0.0
  0
LINE
  5
18E
330
1F
100
AcDbEntity
  8
0-A
  6
JWW_HOJO
 62
     4
370
     9
100
AcDbLine
 10
56.98702270484922
 20
329.2894479050703
 30
0.0
 11
55.60753850612058
 21
328.4929818288343
 31
0.0
  0
LINE
  5
18F
330
1F
100
AcDbEntity
  8
0-A
  6
JWW_HOJO
 62
     4
370
     9
100
AcDbLine
 10
67.921176552562
 20
315.9723121494503
 30
0.0
 11
66.7461723225193
 21
315.2939410587639
 31
0.0
  0
LINE
  5
190
330
1F
100
AcDbEntity
  8
0-A
  6
JWW_HOJO
 62
     4
370
     9
100
AcDbLine
 10
62.00775657130145
 20
314.8676644872618
 30
0.0
 11
60.61221918385121
 21
314.0619331446958
 31
0.0
  0
LINE
  5
191
330
1F
100
AcDbEntity
  8
0-A
  6
JWW_HOJO
 62
     4
370
     9
100
AcDbLine
 10
63.98700573754706
 20
317.1650541620929
 30
0.0
 11
62.60752153881851
 21
316.3685880858569
 31
0.0
  0
LINE
  5
192
330
1F
100
AcDbEntity
  8
0-A
  6
JWW_HOJO
 62
     4
370
     9
100
AcDbLine
 10
64.15566331288187
 20
316.1077485425695
 30
0.0
 11
62.74223950219551
 21
315.2916866757798
 31
0.0
  0
LINE
  5
193
330
1F
100
AcDbEntity
  8
0-A
  6
Continuous
 62
     4
370
     9
100
AcDbLine
 10
76.79140561821036
 20
324.5576466621683
 30
0.0
 11
63.98700573754706
 21
317.1650541620929
 31
0.0
  0
LINE
  5
194
330
1F
100
AcDbEntity
  8
0-A
  6
Continuous
 62
     4
370
     9
100
AcDbLine
 10
62.74223950219551
 20
315.2916866757798
 30
0.0
 11
62.00775657130145
 21
314.8676644872618
 31
0.0
  0
LINE
  5
195
330
1F
100
AcDbEntity
  8
0-A
  6
Continuous
 62
     4
370
     9
100
AcDbLine
 10
77.60565902392491
 20
321.5636774187026
 30
0.0
 11
67.921176552562
 21
315.9723121494503
 31
0.0
  0
LINE
  5
196
330
1F
100
AcDbEntity
  8
0-A
  6
Continuous
 62
     4
370
     9
100
AcDbLine
 10
-40.27015590734804
 20
389.6193873164841
 30
0.0
 11
-40.27015590734804
 21
378.4366443912598
 31
0.0
  0
LINE
  5
197
330
1F
100
AcDbEntity
  8
0-A
  6
JWW_HOJO
 62
     4
370
     9
100
AcDbLine
 10
-40.27015590734804
 20
378.4366443912598
 30
0.0
 11
-40.27015590734804
 21
377.0798155028491
 31
0.0
  0
LINE
  5
198
330
1F
100
AcDbEntity
  8
0-A
  6
JWW_HOJO
 62
     4
370
     9
100
AcDbLine
 10
-38.27014659889755
 20
375.2433480545004
 30
0.0
 11
-38.27014659889755
 21
373.6112490943603
 31
0.0
  0
LINE
  5
199
330
1F
100
AcDbEntity
  8
0-A
  6
Continuous
 62
     4
370
     9
100
AcDbLine
 10
-38.27014659889755
 20
373.6112490943603
 30
0.0
 11
-38.27012182545814
 21
372.7631056235667
 31
0.0
  0
LINE
  5
19A
330
1F
100
AcDbEntity
  8
0-A
  6
JWW_HOJO
 62
     4
370
     9
100
AcDbLine
 10
-38.27012182545814
 20
372.7631056235667
 30
0.0
 11
-38.27014659889755
 21
371.1517172587528
 31
0.0
  0
LINE
  5
19B
330
1F
100
AcDbEntity
  8
0-A
  6
Continuous
 62
     4
370
     9
100
AcDbLine
 10
-37.27016671811167
 20
390.4111464392368
 30
0.0
 11
-37.27016671811167
 21
375.6259118922072
 31
0.0
  0
LINE
  5
19C
330
1F
100
AcDbEntity
  8
0-A
  6
JWW_HOJO
 62
     4
370
     9
100
AcDbLine
 10
-37.27016671811167
 20
375.6259118922072
 30
0.0
 11
-37.27016671811167
 21
374.0330045131747
 31
0.0
  0
LINE
  5
19D
330
1F
100
AcDbEntity
  8
0-A
  6
JWW_HOJO
 62
     4
370
     9
100
AcDbLine
 10
-20.27013714316148
 20
378.4365824576614
 30
0.0
 11
-20.27013714316148
 21
377.0798155028491
 31
0.0
  0
LINE
  5
19E
330
1F
100
AcDbEntity
  8
0-A
  6
JWW_HOJO
 62
     4
370
     9
100
AcDbLine
 10
-22.27014645161193
 20
372.7631427837258
 30
0.0
 11
-22.27012167817258
 21
371.1517172587528
 31
0.0
  0
LINE
  5
19F
330
1F
100
AcDbEntity
  8
0-A
  6
JWW_HOJO
 62
     4
370
     9
100
AcDbLine
 10
-23.27010155895839
 20
375.6259118922072
 30
0.0
 11
-23.27010155895839
 21
374.0330045131747
 31
0.0
  0
LINE
  5
1A0
330
1F
100
AcDbEntity
  8
0-A
  6
JWW_HOJO
 62
     4
370
     9
100
AcDbLine
 10
-22.27012167817258
 20
375.2433480545004
 30
0.0
 11
-22.27012167817258
 21
373.6112490943603
 31
0.0
  0
LINE
  5
1A1
330
1F
100
AcDbEntity
  8
0-A
  6
Continuous
 62
     4
370
     9
100
AcDbLine
 10
-23.27010155895839
 20
390.4111092790777
 30
0.0
 11
-23.27010155895839
 21
375.6259118922072
 31
0.0
  0
LINE
  5
1A2
330
1F
100
AcDbEntity
  8
0-A
  6
Continuous
 62
     4
370
     9
100
AcDbLine
 10
-22.27012167817258
 20
373.6112490943603
 30
0.0
 11
-22.27014645161193
 21
372.7631427837258
 31
0.0
  0
LINE
  5
1A3
330
1F
100
AcDbEntity
  8
0-A
  6
Continuous
 62
     4
370
     9
100
AcDbLine
 10
-20.27013714316148
 20
389.6193253828856
 30
0.0
 11
-20.27013714316148
 21
378.4365824576614
 31
0.0
  0
LINE
  5
1A4
330
1F
100
AcDbEntity
  8
0-A
  6
Continuous
 62
     4
370
     9
100
AcDbLine
 10
-138.1459768478739
 20
321.5637269655814
 30
0.0
 11
-128.4614448296321
 21
315.9723616963291
 31
0.0
  0
LINE
  5
1A5
330
1F
100
AcDbEntity
  8
0-A
  6
JWW_HOJO
 62
     4
370
     9
100
AcDbLine
 10
-128.4614448296321
 20
315.9723616963291
 30
0.0
 11
-127.2864158261501
 21
315.2939410587639
 31
0.0
  0
LINE
  5
1A6
330
1F
100
AcDbEntity
  8
0-A
  6
JWW_HOJO
 62
     4
370
     9
100
AcDbLine
 10
-124.6959811368308
 20
316.1077485425696
 30
0.0
 11
-123.282532552705
 21
315.2916866757798
 31
0.0
  0
LINE
  5
1A7
330
1F
100
AcDbEntity
  8
0-A
  6
Continuous
 62
     4
370
     9
100
AcDbLine
 10
-123.282532552705
 20
315.2916866757798
 30
0.0
 11
-122.5480496218109
 21
314.8676644872618
 31
0.0
  0
LINE
  5
1A8
330
1F
100
AcDbEntity
  8
0-A
  6
JWW_HOJO
 62
     4
370
     9
100
AcDbLine
 10
-122.5480496218109
 20
314.8676644872618
 30
0.0
 11
-121.1525122343607
 21
314.0619331446958
 31
0.0
  0
LINE
  5
1A9
330
1F
100
AcDbEntity
  8
0-A
  6
Continuous
 62
     4
370
     9
100
AcDbLine
 10
-137.3316986687199
 20
324.5576466621683
 30
0.0
 11
-124.5272987880566
 21
317.1650541620929
 31
0.0
  0
LINE
  5
1AA
330
1F
100
AcDbEntity
  8
0-A
  6
JWW_HOJO
 62
     4
370
     9
100
AcDbLine
 10
-124.5272987880566
 20
317.1650541620929
 30
0.0
 11
-123.1477898158886
 21
316.3685880858569
 31
0.0
  0
LINE
  5
1AB
330
1F
100
AcDbEntity
  8
0-A
  6
JWW_HOJO
 62
     4
370
     9
100
AcDbLine
 10
-118.4613982873798
 20
333.2928357097277
 30
0.0
 11
-117.2863940573371
 21
332.6144646190412
 31
0.0
  0
LINE
  5
1AC
330
1F
100
AcDbEntity
  8
0-A
  6
JWW_HOJO
 62
     4
370
     9
100
AcDbLine
 10
-114.5480619348878
 20
328.72406847142
 30
0.0
 11
-113.1524997739982
 21
327.9183619022933
 31
0.0
  0
LINE
  5
1AD
330
1F
100
AcDbEntity
  8
0-A
  6
JWW_HOJO
 62
     4
370
     9
100
AcDbLine
 10
-117.5272909819193
 20
329.2894479050703
 30
0.0
 11
-116.1477820097514
 21
328.4929818288343
 31
0.0
  0
LINE
  5
1AE
330
1F
100
AcDbEntity
  8
0-A
  6
JWW_HOJO
 62
     4
370
     9
100
AcDbLine
 10
-116.6959686764683
 20
329.9641773001672
 30
0.0
 11
-115.2825200923425
 21
329.1481154333774
 31
0.0
  0
LINE
  5
1AF
330
1F
100
AcDbEntity
  8
0-A
  6
Continuous
 62
     4
370
     9
100
AcDbLine
 10
-130.3316660891433
 20
336.6820651785852
 30
0.0
 11
-117.5272909819193
 21
329.2894479050703
 31
0.0
  0
LINE
  5
1B0
330
1F
100
AcDbEntity
  8
0-A
  6
Continuous
 62
     4
370
     9
100
AcDbLine
 10
-115.2825200923425
 20
329.1481154333774
 30
0.0
 11
-114.5480619348878
 21
328.72406847142
 31
0.0
  0
LINE
  5
1B1
330
1F
100
AcDbEntity
  8
0-A
  6
Continuous
 62
     4
370
     9
100
AcDbLine
 10
-128.1459303056215
 20
338.8842257524193
 30
0.0
 11
-118.4613982873798
 21
333.2928357097277
 31
0.0
  0
LINE
  5
1B2
330
1F
100
AcDbEntity
  8
0-A
  6
Continuous
 62
     4
370
     9
100
AcDbLine
 10
-130.7246967049903
 20
283.8285763595659
 30
0.0
 11
-121.2701365245619
 21
283.8285763595659
 31
0.0
  0
LINE
  5
1B3
330
1F
100
AcDbEntity
  8
0-A
  6
Continuous
 62
     4
370
     9
100
AcDbLine
 10
-131.1821878101179
 20
282.8285717053407
 30
0.0
 11
-121.2701365245619
 21
282.8285717053407
 31
0.0
  0
LINE
  5
1B4
330
1F
100
AcDbEntity
  8
0-A
  6
Continuous
 62
     4
370
     9
100
AcDbLine
 10
-119.2701272161115
 20
276.828593326868
 30
0.0
 11
-119.2701272161115
 21
284.2075604352815
 31
0.0
  0
LINE
  5
1B5
330
1F
100
AcDbEntity
  8
0-A
  6
Continuous
 62
     4
370
     9
100
AcDbLine
 10
-120.2701318703367
 20
282.8285717053407
 30
0.0
 11
-120.2701318703367
 21
284.2822275815887
 31
0.0
  0
LINE
  5
1B6
330
1F
100
AcDbEntity
  8
0-A
  6
Continuous
 62
     4
370
     9
100
AcDbLine
 10
9.033720196233565
 20
350.9048435578119
 30
0.0
 11
2.643337186488683
 21
354.5943271120186
 31
0.0
  0
LINE
  5
1B7
330
1F
100
AcDbEntity
  8
0-A
  6
Continuous
 62
     4
370
     9
100
AcDbLine
 10
3.078631289927053
 20
355.4977029659217
 30
0.0
 11
4.337543159167588
 21
354.7708502543583
 31
0.0
  0
LINE
  5
1B8
330
1F
100
AcDbEntity
  8
0-A
  6
Continuous
 62
     4
370
     9
100
AcDbLine
 10
25.12218629556395
 20
342.7709058841327
 30
0.0
 11
26.38077611009248
 21
342.0442513600843
 31
0.0
  0
LINE
  5
1B9
330
1F
100
AcDbEntity
  8
0-A
  6
Continuous
 62
     4
370
     9
100
AcDbLine
 10
4.837545486280195
 20
355.6369049218274
 30
0.0
 11
9.793571129058142
 21
364.2209759891367
 31
0.0
  0
LINE
  5
1BA
330
1F
100
AcDbEntity
  8
0-A
  6
Continuous
 62
     4
370
     9
100
AcDbLine
 10
8.698808069184285
 20
364.3247643134412
 30
0.0
 11
3.971515592250402
 21
356.1368824755007
 31
0.0
  0
LINE
  5
1BB
330
1F
100
AcDbEntity
  8
0-A
  6
Continuous
 62
     4
370
     9
100
AcDbLine
 10
31.21546144676142
 20
351.3247781288313
 30
0.0
 11
26.48819374326694
 21
343.1369086776104
 31
0.0
  0
LINE
  5
1BC
330
1F
100
AcDbEntity
  8
0-A
  6
Continuous
 62
     4
370
     9
100
AcDbLine
 10
30.57818949201516
 20
352.220994458752
 30
0.0
 11
25.62221339611591
 21
343.6368862312837
 31
0.0
  0
LINE
  5
1BD
330
1F
100
AcDbEntity
  8
0-A
  6
Continuous
 62
     4
370
     9
100
AcDbLine
 10
19.42602937771209
 20
344.9048404058998
 30
0.0
 11
25.81631329369941
 21
341.2154063985718
 31
0.0
  0
LINE
  5
1BE
330
1F
100
AcDbEntity
  8
0-A
  6
Continuous
 62
     4
370
     9
100
AcDbLine
 10
20.42598448505856
 20
346.6369001939594
 30
0.0
 11
20.65526266656906
 21
347.034018427305
 31
0.0
  0
LINE
  5
1BF
330
1F
100
AcDbEntity
  8
0-A
  6
Continuous
 62
     4
370
     9
100
AcDbLine
 10
19.05995226391616
 20
346.2708726270422
 30
0.0
 11
19.50054788338292
 21
347.034018427305
 31
0.0
  0
LINE
  5
1C0
330
1F
100
AcDbEntity
  8
0-A
  6
Continuous
 62
     4
370
     9
100
AcDbLine
 10
10.03370007701944
 20
352.636878572432
 30
0.0
 11
10.26572811030173
 21
353.038778079579
 31
0.0
  0
LINE
  5
1C1
330
1F
100
AcDbEntity
  8
0-A
  6
Continuous
 62
     4
370
     9
100
AcDbLine
 10
10.39975241737597
 20
351.270871124729
 30
0.0
 11
10.84309788861453
 21
352.038761038634
 31
0.0
  0
LINE
  5
1C2
330
1F
100
AcDbEntity
  8
0-A
  6
JWW_CENTER1
 62
     4
370
     9
100
AcDbLine
 10
13.07260833953001
 20
345.900373454316
 30
0.0
 11
23.40801293074055
 21
363.8018465548972
 31
0.0
  0
LINE
  5
1C3
330
1F
100
AcDbEntity
  8
0-A
  6
JWW_CENTER1
 62
     4
370
     9
100
AcDbLine
 10
24.79039562187722
 20
349.3132615577864
 30
0.0
 11
10.35107260898394
 21
357.6497964187582
 31
0.0
  0
LINE
  5
1C4
330
1F
100
AcDbEntity
  8
0-A
  6
JWW_CENTER1
 62
     4
370
     9
100
AcDbLine
 10
-125.7701326951361
 20
270.828590174956
 30
0.0
 11
-125.7701326951361
 21
279.7471026739663
 31
0.0
  0
LINE
  5
1C5
330
1F
100
AcDbEntity
  8
0-A
  6
Continuous
 62
     4
370
     9
100
AcDbLine
 10
-121.2701365245619
 20
276.828593326868
 30
0.0
 11
-121.7286681141436
 21
276.828593326868
 31
0.0
  0
LINE
  5
1C6
330
1F
100
AcDbEntity
  8
0-A
  6
Continuous
 62
     4
370
     9
100
AcDbLine
 10
-120.2701318703367
 20
275.8285886726428
 30
0.0
 11
-121.1513231092703
 21
275.8285886726428
 31
0.0
  0
LINE
  5
1C7
330
1F
100
AcDbEntity
  8
0-A
  6
JWW_CENTER1
 62
     4
370
     9
100
AcDbLine
 10
-9.864970546642047
 20
306.1713201926585
 30
0.0
 11
-4.960349790588507
 21
314.666405065696
 31
0.0
  0
ARC
  5
1C8
330
1F
100
AcDbEntity
  8
0-A
  6
Continuous
 62
     4
370
     9
100
AcDbCircle
 10
-30.27013413853508
 20
270.828590174956
 30
0.0
 40
124.4999972752162
100
AcDbArc
 50
17.53196716308597
 51
42.46804809570315
  0
ARC
  5
1C9
330
1F
100
AcDbEntity
  8
0-A
  6
Continuous
 62
     4
370
     9
100
AcDbCircle
 10
-30.27013413853508
 20
270.828590174956
 30
0.0
 40
128.0000011782849
100
AcDbArc
 50
17.46269226074219
 51
42.53732299804688
  0
ARC
  5
1CA
330
1F
100
AcDbEntity
  8
0-A
  6
Continuous
 62
     4
370
     9
100
AcDbCircle
 10
-30.27013413853508
 20
270.828590174956
 30
0.0
 40
122.5000003534855
100
AcDbArc
 50
46.87121582031249
 51
73.12878417968749
  0
ARC
  5
1CB
330
1F
100
AcDbEntity
  8
0-A
  6
Continuous
 62
     4
370
     9
100
AcDbCircle
 10
-30.27013413853508
 20
270.828590174956
 30
0.0
 40
124.4999972752162
100
AcDbArc
 50
47.53196716308593
 51
72.46804809570312
  0
ARC
  5
1CC
330
1F
100
AcDbEntity
  8
0-A
  6
Continuous
 62
     4
370
     9
100
AcDbCircle
 10
-30.27013413853508
 20
270.828590174956
 30
0.0
 40
128.0000011782849
100
AcDbArc
 50
47.46269226074216
 51
72.53732299804685
  0
ARC
  5
1CD
330
1F
100
AcDbEntity
  8
0-A
  6
Continuous
 62
     4
370
     9
100
AcDbCircle
 10
-30.27013413853508
 20
270.828590174956
 30
0.0
 40
124.4999972752162
100
AcDbArc
 50
77.53196716308595
 51
102.4680480957031
  0
ARC
  5
1CE
330
1F
100
AcDbEntity
  8
0-A
  6
Continuous
 62
     4
370
     9
100
AcDbCircle
 10
-30.27013413853508
 20
270.828590174956
 30
0.0
 40
128.0000011782849
100
AcDbArc
 50
77.46269226074217
 51
102.5373229980469
  0
ARC
  5
1CF
330
1F
100
AcDbEntity
  8
0-A
  6
Continuous
 62
     4
370
     9
100
AcDbCircle
 10
-30.27013413853508
 20
270.828590174956
 30
0.0
 40
122.5000003534855
100
AcDbArc
 50
106.8712158203125
 51
133.1287841796875
  0
ARC
  5
1D0
330
1F
100
AcDbEntity
  8
0-A
  6
Continuous
 62
     4
370
     9
100
AcDbCircle
 10
-30.27013413853508
 20
270.828590174956
 30
0.0
 40
124.4999972752162
100
AcDbArc
 50
107.531967163086
 51
132.4680480957032
  0
ARC
  5
1D1
330
1F
100
AcDbEntity
  8
0-A
  6
Continuous
 62
     4
370
     9
100
AcDbCircle
 10
-30.27013413853508
 20
270.828590174956
 30
0.0
 40
128.0000011782849
100
AcDbArc
 50
107.4626922607422
 51
132.5373229980469
  0
ARC
  5
1D2
330
1F
100
AcDbEntity
  8
0-A
  6
Continuous
 62
     4
370
     9
100
AcDbCircle
 10
-30.27013413853508
 20
270.828590174956
 30
0.0
 40
124.4999972752162
100
AcDbArc
 50
137.5319671630859
 51
162.4680480957031
  0
ARC
  5
1D3
330
1F
100
AcDbEntity
  8
0-A
  6
Continuous
 62
     4
370
     9
100
AcDbCircle
 10
-30.27013413853508
 20
270.828590174956
 30
0.0
 40
128.0000011782849
100
AcDbArc
 50
137.4626922607422
 51
162.5373229980468
  0
ARC
  5
1D4
330
1F
100
AcDbEntity
  8
0-A
  6
Continuous
 62
     4
370
     9
100
AcDbCircle
 10
-121.2701365245619
 20
277.8285979810933
 30
0.0
 40
1.00000000920535
100
AcDbArc
 50
270.0
 51
0.0
  0
ARC
  5
1D5
330
1F
100
AcDbEntity
  8
0-A
  6
Continuous
 62
     4
370
     9
100
AcDbCircle
 10
-120.2701318703367
 20
276.828593326868
 30
0.0
 40
1.00000000920535
100
AcDbArc
 50
270.0
 51
0.0
  0
ARC
  5
1D6
330
1F
100
AcDbEntity
  8
0-A
  6
Continuous
 62
     4
370
     9
100
AcDbCircle
 10
-121.2701365245619
 20
281.8285670511154
 30
0.0
 40
1.00000000920535
100
AcDbArc
 50
0.0
 51
90.0
  0
ARC
  5
1D7
330
1F
100
AcDbEntity
  8
0-A
  6
Continuous
 62
     4
370
     9
100
AcDbCircle
 10
-121.2701365245619
 20
282.8285717053407
 30
0.0
 40
1.00000000920535
100
AcDbArc
 50
0.0
 51
90.0
  0
ARC
  5
1D8
330
1F
100
AcDbEntity
  8
0-A
  6
Continuous
 62
     4
370
     9
100
AcDbCircle
 10
33.81357590229015
 20
349.8247463740541
 30
0.0
 40
3.000000027616052
100
AcDbArc
 50
50.95031738281247
 51
150.0
  0
ARC
  5
1D9
330
1F
100
AcDbEntity
  8
0-A
  6
Continuous
 62
     4
370
     9
100
AcDbCircle
 10
6.100718387095021
 20
365.8247712947791
 30
0.0
 40
3.000000027616052
100
AcDbArc
 50
330.0
 51
69.04968261718749
  0
ARC
  5
1DA
330
1F
100
AcDbEntity
  8
0-A
  6
Continuous
 62
     4
370
     9
100
AcDbCircle
 10
33.17632872098323
 20
350.7209750906945
 30
0.0
 40
3.000000027616052
100
AcDbArc
 50
51.54536437988279
 51
150.0
  0
ARC
  5
1DB
330
1F
100
AcDbEntity
  8
0-A
  6
Continuous
 62
     4
370
     9
100
AcDbCircle
 10
7.195506220408227
 20
365.7209829704746
 30
0.0
 40
3.000000027616052
100
AcDbArc
 50
330.0
 51
68.45463562011717
  0
ARC
  5
1DC
330
1F
100
AcDbEntity
  8
0-A
  6
Continuous
 62
     4
370
     9
100
AcDbCircle
 10
-30.27013413853508
 20
270.828590174956
 30
0.0
 40
105.0207905272259
100
AcDbArc
 50
51.54522705078123
 51
68.45477294921872
  0
ARC
  5
1DD
330
1F
100
AcDbEntity
  8
0-A
  6
Continuous
 62
     4
370
     9
100
AcDbCircle
 10
21.2920143790883
 20
346.1368730934074
 30
0.0
 40
1.00000000920535
100
AcDbArc
 50
150.0
 51
240.0
  0
ARC
  5
1DE
330
1F
100
AcDbEntity
  8
0-A
  6
Continuous
 62
     4
370
     9
100
AcDbCircle
 10
9.167645409550296
 20
353.1368932862643
 30
0.0
 40
1.00000000920535
100
AcDbArc
 50
240.0
 51
330.0
  0
ARC
  5
1DF
330
1F
100
AcDbEntity
  8
0-A
  6
Continuous
 62
     4
370
     9
100
AcDbCircle
 10
9.533697749906825
 20
351.7708734518416
 30
0.0
 40
1.00000000920535
100
AcDbArc
 50
240.0
 51
330.0
  0
ARC
  5
1E0
330
1F
100
AcDbEntity
  8
0-A
  6
Continuous
 62
     4
370
     9
100
AcDbCircle
 10
5.703575380309935
 20
355.1369273681541
 30
0.0
 40
1.00000000920535
100
AcDbArc
 50
150.0
 51
240.0
  0
ARC
  5
1E1
330
1F
100
AcDbEntity
  8
0-A
  6
Continuous
 62
     4
370
     9
100
AcDbCircle
 10
4.837545486280195
 20
355.6369049218274
 30
0.0
 40
1.00000000920535
100
AcDbArc
 50
150.0
 51
240.0
  0
ARC
  5
1E2
330
1F
100
AcDbEntity
  8
0-A
  6
Continuous
 62
     4
370
     9
100
AcDbCircle
 10
24.75610918176801
 20
344.1369504919948
 30
0.0
 40
1.00000000920535
100
AcDbArc
 50
240.0
 51
330.0
  0
ARC
  5
1E3
330
1F
100
AcDbEntity
  8
0-A
  6
Continuous
 62
     4
370
     9
100
AcDbCircle
 10
25.62221339611591
 20
343.6368862312837
 30
0.0
 40
1.00000000920535
100
AcDbArc
 50
240.0
 51
330.0
  0
ARC
  5
1E4
330
1F
100
AcDbEntity
  8
0-A
  6
Continuous
 62
     4
370
     9
100
AcDbCircle
 10
66.10567982065294
 20
341.4823154345086
 30
0.0
 40
3.000000027616052
100
AcDbArc
 50
299.9999999999999
 51
36.24542236328122
  0
ARC
  5
1E5
330
1F
100
AcDbEntity
  8
0-A
  6
Continuous
 62
     4
370
     9
100
AcDbCircle
 10
79.10574032558097
 20
318.9656125100527
 30
0.0
 40
3.000000027616052
100
AcDbArc
 50
23.75457763671871
 51
120.0
  0
ARC
  5
1E6
330
1F
100
AcDbEntity
  8
0-A
  6
Continuous
 62
     4
370
     9
100
AcDbCircle
 10
78.2914373729876
 20
321.9595817535184
 30
0.0
 40
3.000000027616052
100
AcDbArc
 50
25.21975708007811
 51
120.0
  0
ARC
  5
1E7
330
1F
100
AcDbEntity
  8
0-A
  6
Continuous
 62
     4
370
     9
100
AcDbCircle
 10
68.29139083073528
 20
339.2801548606744
 30
0.0
 40
3.000000027616052
100
AcDbArc
 50
299.9999999999999
 51
34.78024291992185
  0
ARC
  5
1E8
330
1F
100
AcDbEntity
  8
0-A
  6
Continuous
 62
     4
370
     9
100
AcDbCircle
 10
-30.27013413853508
 20
270.828590174956
 30
0.0
 40
122.9999779071587
100
AcDbArc
 50
25.21978759765626
 51
34.78021240234375
  0
ARC
  5
1E9
330
1F
100
AcDbEntity
  8
0-A
  6
Continuous
 62
     4
370
     9
100
AcDbCircle
 10
57.1711389063604
 20
334.5918805507723
 30
0.0
 40
1.500000013808026
100
AcDbArc
 50
216.1001739501953
 51
299.9999999999999
  0
ARC
  5
1EA
330
1F
100
AcDbEntity
  8
0-A
  6
JWW_HOJO
 62
     4
370
     9
100
AcDbCircle
 10
-30.27013413853508
 20
270.828590174956
 30
0.0
 40
106.7207810980013
100
AcDbArc
 50
35.37664794921871
 51
36.10000610351559
  0
ARC
  5
1EB
330
1F
100
AcDbEntity
  8
0-A
  6
Continuous
 62
     4
370
     9
100
AcDbCircle
 10
53.99231025820195
 20
330.4471355009827
 30
0.0
 40
1.500000013808026
100
AcDbArc
 50
299.9999999999999
 51
35.28071594238278
  0
ARC
  5
1EC
330
1F
100
AcDbEntity
  8
0-A
  6
JWW_HOJO
 62
     4
370
     9
100
AcDbCircle
 10
-30.27013413853508
 20
270.828590174956
 30
0.0
 40
104.7207841762705
100
AcDbArc
 50
34.38130187988278
 51
35.28073120117184
  0
ARC
  5
1ED
330
1F
100
AcDbEntity
  8
0-A
  6
JWW_HOJO
 62
     4
370
     9
100
AcDbCircle
 10
-30.27013413853508
 20
270.828590174956
 30
0.0
 40
100.6415958404541
100
AcDbArc
 50
33.64862060546871
 51
34.55924987792965
  0
ARC
  5
1EE
330
1F
100
AcDbEntity
  8
0-A
  6
Continuous
 62
     4
370
     9
100
AcDbCircle
 10
54.75775998832756
 20
327.4250484038147
 30
0.0
 40
1.500000013808026
100
AcDbArc
 50
120.0
 51
213.6483764648437
  0
ARC
  5
1EF
330
1F
100
AcDbEntity
  8
0-A
  6
Continuous
 62
     4
370
     9
100
AcDbCircle
 10
57.73696426191964
 20
327.9904278374651
 30
0.0
 40
1.500000013808026
100
AcDbArc
 50
120.0
 51
213.0043182373047
  0
ARC
  5
1F0
330
1F
100
AcDbEntity
  8
0-A
  6
JWW_HOJO
 62
     4
370
     9
100
AcDbCircle
 10
-30.27013413853508
 20
270.828590174956
 30
0.0
 40
103.4415518933742
100
AcDbArc
 50
33.00427246093746
 51
33.88024902343746
  0
ARC
  5
1F1
330
1F
100
AcDbEntity
  8
0-A
  6
Continuous
 62
     4
370
     9
100
AcDbCircle
 10
68.67116765651119
 20
314.673292081845
 30
0.0
 40
1.500000013808026
100
AcDbArc
 50
120.0
 51
203.8998260498047
  0
ARC
  5
1F2
330
1F
100
AcDbEntity
  8
0-A
  6
JWW_HOJO
 62
     4
370
     9
100
AcDbCircle
 10
-30.27013413853508
 20
270.828590174956
 30
0.0
 40
106.7207810980013
100
AcDbArc
 50
23.89999389648436
 51
24.62335205078124
  0
ARC
  5
1F3
330
1F
100
AcDbEntity
  8
0-A
  6
Continuous
 62
     4
370
     9
100
AcDbCircle
 10
63.49223060614474
 20
313.9926666081745
 30
0.0
 40
1.500000013808026
100
AcDbArc
 50
24.71928405761716
 51
120.0
  0
ARC
  5
1F4
330
1F
100
AcDbEntity
  8
0-A
  6
JWW_HOJO
 62
     4
370
     9
100
AcDbCircle
 10
-30.27013413853508
 20
270.828590174956
 30
0.0
 40
104.7207841762705
100
AcDbArc
 50
24.71926879882811
 51
25.61869812011717
  0
ARC
  5
1F5
330
1F
100
AcDbEntity
  8
0-A
  6
JWW_HOJO
 62
     4
370
     9
100
AcDbCircle
 10
-30.27013413853508
 20
270.828590174956
 30
0.0
 40
100.6415958404541
100
AcDbArc
 50
25.44075012207031
 51
26.35137939453125
  0
ARC
  5
1F6
330
1F
100
AcDbEntity
  8
0-A
  6
Continuous
 62
     4
370
     9
100
AcDbCircle
 10
61.25781501423096
 20
316.1666845548671
 30
0.0
 40
1.500000013808026
100
AcDbArc
 50
206.3516235351562
 51
299.9999999999999
  0
ARC
  5
1F7
330
1F
100
AcDbEntity
  8
0-A
  6
Continuous
 62
     4
370
     9
100
AcDbCircle
 10
63.23701463359782
 20
318.4640742296982
 30
0.0
 40
1.500000013808026
100
AcDbArc
 50
206.9956817626953
 51
299.9999999999999
  0
ARC
  5
1F8
330
1F
100
AcDbEntity
  8
0-A
  6
JWW_HOJO
 62
     4
370
     9
100
AcDbCircle
 10
-30.27013413853508
 20
270.828590174956
 30
0.0
 40
103.4415518933742
100
AcDbArc
 50
26.11975097656248
 51
26.99572753906248
  0
ARC
  5
1F9
330
1F
100
AcDbEntity
  8
0-A
  6
Continuous
 62
     4
370
     9
100
AcDbCircle
 10
-30.27013413853508
 20
270.828590174956
 30
0.0
 40
100.6415958404541
100
AcDbArc
 50
26.35137939453124
 51
33.64862060546874
  0
ARC
  5
1FA
330
1F
100
AcDbEntity
  8
0-A
  6
Continuous
 62
     4
370
     9
100
AcDbCircle
 10
-30.27013413853508
 20
270.828590174956
 30
0.0
 40
103.4415518933742
100
AcDbArc
 50
26.99572753906247
 51
33.00427246093746
  0
ARC
  5
1FB
330
1F
100
AcDbEntity
  8
0-A
  6
Continuous
 62
     4
370
     9
100
AcDbCircle
 10
-30.27013413853508
 20
270.828590174956
 30
0.0
 40
104.7207841762705
100
AcDbArc
 50
35.28071594238281
 51
50.95016479492188
  0
ARC
  5
1FC
330
1F
100
AcDbEntity
  8
0-A
  6
Continuous
 62
     4
370
     9
100
AcDbCircle
 10
-30.27013413853508
 20
270.828590174956
 30
0.0
 40
122.5000003534855
100
AcDbArc
 50
16.87121582031252
 51
23.7546081542969
  0
ARC
  5
1FD
330
1F
100
AcDbEntity
  8
0-A
  6
Continuous
 62
     4
370
     9
100
AcDbCircle
 10
-30.27013413853508
 20
270.828590174956
 30
0.0
 40
122.5000003534855
100
AcDbArc
 50
36.24537658691406
 51
43.12878417968756
  0
ARC
  5
1FE
330
1F
100
AcDbEntity
  8
0-A
  6
Continuous
 62
     4
370
     9
100
AcDbCircle
 10
-43.27014509658436
 20
389.6193501563249
 30
0.0
 40
3.000000027616052
100
AcDbArc
 50
0.0
 51
96.24542236328126
  0
ARC
  5
1FF
330
1F
100
AcDbEntity
  8
0-A
  6
Continuous
 62
     4
370
     9
100
AcDbCircle
 10
-17.27012318048575
 20
389.6193501563249
 30
0.0
 40
3.000000027616052
100
AcDbArc
 50
83.75457763671874
 51
180.0
  0
ARC
  5
200
330
1F
100
AcDbEntity
  8
0-A
  6
Continuous
 62
     4
370
     9
100
AcDbCircle
 10
-20.27011236972207
 20
390.4111464392368
 30
0.0
 40
3.000000027616052
100
AcDbArc
 50
85.21975708007814
 51
180.0
  0
ARC
  5
201
330
1F
100
AcDbEntity
  8
0-A
  6
Continuous
 62
     4
370
     9
100
AcDbCircle
 10
-40.27018068078739
 20
390.4111464392368
 30
0.0
 40
3.000000027616052
100
AcDbArc
 50
0.0
 51
94.78024291992188
  0
ARC
  5
202
330
1F
100
AcDbEntity
  8
0-A
  6
Continuous
 62
     4
370
     9
100
AcDbCircle
 10
-30.27013413853508
 20
270.828590174956
 30
0.0
 40
122.9999779071587
100
AcDbArc
 50
85.21978759765624
 51
94.78021240234374
  0
ARC
  5
203
330
1F
100
AcDbEntity
  8
0-A
  6
Continuous
 62
     4
370
     9
100
AcDbCircle
 10
-41.77016288868587
 20
378.4366072311008
 30
0.0
 40
1.500000013808026
100
AcDbArc
 50
276.1001739501953
 51
0.0
  0
ARC
  5
204
330
1F
100
AcDbEntity
  8
0-A
  6
JWW_HOJO
 62
     4
370
     9
100
AcDbCircle
 10
-30.27013413853508
 20
270.828590174956
 30
0.0
 40
106.7207810980013
100
AcDbArc
 50
95.37664794921875
 51
96.10000610351562
  0
ARC
  5
205
330
1F
100
AcDbEntity
  8
0-A
  6
Continuous
 62
     4
370
     9
100
AcDbCircle
 10
-39.77012880679602
 20
373.6112490943603
 30
0.0
 40
1.500000013808026
100
AcDbArc
 50
0.0
 51
95.28071594238281
  0
ARC
  5
206
330
1F
100
AcDbEntity
  8
0-A
  6
JWW_HOJO
 62
     4
370
     9
100
AcDbCircle
 10
-30.27013413853508
 20
270.828590174956
 30
0.0
 40
104.7207841762705
100
AcDbArc
 50
94.38130187988281
 51
95.28073120117188
  0
ARC
  5
207
330
1F
100
AcDbEntity
  8
0-A
  6
JWW_HOJO
 62
     4
370
     9
100
AcDbCircle
 10
-30.27013413853508
 20
270.828590174956
 30
0.0
 40
100.6415958404541
100
AcDbArc
 50
93.64862060546875
 51
94.55924987792969
  0
ARC
  5
208
330
1F
100
AcDbEntity
  8
0-A
  6
Continuous
 62
     4
370
     9
100
AcDbCircle
 10
-36.77013961755971
 20
372.7631427837258
 30
0.0
 40
1.500000013808026
100
AcDbArc
 50
180.0
 51
273.6483764648438
  0
ARC
  5
209
330
1F
100
AcDbEntity
  8
0-A
  6
Continuous
 62
     4
370
     9
100
AcDbCircle
 10
-35.77018451021324
 20
375.6259118922072
 30
0.0
 40
1.500000013808026
100
AcDbArc
 50
180.0
 51
273.0043182373047
  0
ARC
  5
20A
330
1F
100
AcDbEntity
  8
0-A
  6
JWW_HOJO
 62
     4
370
     9
100
AcDbCircle
 10
-30.27013413853508
 20
270.828590174956
 30
0.0
 40
103.4415518933742
100
AcDbArc
 50
93.0042724609375
 51
93.8802490234375
  0
ARC
  5
20B
330
1F
100
AcDbEntity
  8
0-A
  6
Continuous
 62
     4
370
     9
100
AcDbCircle
 10
-18.77013016182359
 20
378.4366072311008
 30
0.0
 40
1.500000013808026
100
AcDbArc
 50
180.0
 51
263.8998260498047
  0
ARC
  5
20C
330
1F
100
AcDbEntity
  8
0-A
  6
JWW_HOJO
 62
     4
370
     9
100
AcDbCircle
 10
-30.27013413853508
 20
270.828590174956
 30
0.0
 40
106.7207810980013
100
AcDbArc
 50
83.89999389648439
 51
84.62335205078126
  0
ARC
  5
20D
330
1F
100
AcDbEntity
  8
0-A
  6
Continuous
 62
     4
370
     9
100
AcDbCircle
 10
-20.7701394702741
 20
373.6112490943603
 30
0.0
 40
1.500000013808026
100
AcDbArc
 50
84.71928405761719
 51
180.0
  0
ARC
  5
20E
330
1F
100
AcDbEntity
  8
0-A
  6
JWW_HOJO
 62
     4
370
     9
100
AcDbCircle
 10
-30.27013413853508
 20
270.828590174956
 30
0.0
 40
104.7207841762705
100
AcDbArc
 50
84.71926879882814
 51
85.6186981201172
  0
ARC
  5
20F
330
1F
100
AcDbEntity
  8
0-A
  6
JWW_HOJO
 62
     4
370
     9
100
AcDbCircle
 10
-30.27013413853508
 20
270.828590174956
 30
0.0
 40
100.6415958404541
100
AcDbArc
 50
85.44075012207034
 51
86.35137939453128
  0
ARC
  5
210
330
1F
100
AcDbEntity
  8
0-A
  6
Continuous
 62
     4
370
     9
100
AcDbCircle
 10
-23.77012865951041
 20
372.7631427837258
 30
0.0
 40
1.500000013808026
100
AcDbArc
 50
266.3516235351562
 51
0.0
  0
ARC
  5
211
330
1F
100
AcDbEntity
  8
0-A
  6
Continuous
 62
     4
370
     9
100
AcDbCircle
 10
-24.77010854029628
 20
375.6259118922072
 30
0.0
 40
1.500000013808026
100
AcDbArc
 50
266.9956817626953
 51
0.0
  0
ARC
  5
212
330
1F
100
AcDbEntity
  8
0-A
  6
JWW_HOJO
 62
     4
370
     9
100
AcDbCircle
 10
-30.27013413853508
 20
270.828590174956
 30
0.0
 40
103.4415518933742
100
AcDbArc
 50
86.11975097656251
 51
86.99572753906251
  0
ARC
  5
213
330
1F
100
AcDbEntity
  8
0-A
  6
Continuous
 62
     4
370
     9
100
AcDbCircle
 10
-30.27013413853508
 20
270.828590174956
 30
0.0
 40
100.6415958404541
100
AcDbArc
 50
86.35137939453128
 51
93.64862060546878
  0
ARC
  5
214
330
1F
100
AcDbEntity
  8
0-A
  6
Continuous
 62
     4
370
     9
100
AcDbCircle
 10
-30.27013413853508
 20
270.828590174956
 30
0.0
 40
103.4415518933742
100
AcDbArc
 50
86.9957275390625
 51
93.0042724609375
  0
ARC
  5
215
330
1F
100
AcDbEntity
  8
0-A
  6
Continuous
 62
     4
370
     9
100
AcDbCircle
 10
-139.6459838292117
 20
318.9656125100527
 30
0.0
 40
3.000000027616052
100
AcDbArc
 50
59.99999999999999
 51
156.2454223632812
  0
ARC
  5
216
330
1F
100
AcDbEntity
  8
0-A
  6
Continuous
 62
     4
370
     9
100
AcDbCircle
 10
-126.645948097723
 20
341.4823154345086
 30
0.0
 40
3.000000027616052
100
AcDbArc
 50
143.7545776367187
 51
240.0
  0
ARC
  5
217
330
1F
100
AcDbEntity
  8
0-A
  6
Continuous
 62
     4
370
     9
100
AcDbCircle
 10
-128.8316591078054
 20
339.2801548606744
 30
0.0
 40
3.000000027616052
100
AcDbArc
 50
145.2197570800781
 51
240.0
  0
ARC
  5
218
330
1F
100
AcDbEntity
  8
0-A
  6
Continuous
 62
     4
370
     9
100
AcDbCircle
 10
-138.8317056500578
 20
321.9595817535184
 30
0.0
 40
3.000000027616052
100
AcDbArc
 50
59.99999999999999
 51
154.7802429199219
  0
ARC
  5
219
330
1F
100
AcDbEntity
  8
0-A
  6
Continuous
 62
     4
370
     9
100
AcDbCircle
 10
-30.27013413853508
 20
270.828590174956
 30
0.0
 40
122.9999779071587
100
AcDbArc
 50
145.2197875976562
 51
154.7802124023437
  0
ARC
  5
21A
330
1F
100
AcDbEntity
  8
0-A
  6
Continuous
 62
     4
370
     9
100
AcDbCircle
 10
-129.2114359335814
 20
314.6732920818451
 30
0.0
 40
1.500000013808026
100
AcDbArc
 50
336.1001739501953
 51
59.99999999999999
  0
ARC
  5
21B
330
1F
100
AcDbEntity
  8
0-A
  6
JWW_HOJO
 62
     4
370
     9
100
AcDbCircle
 10
-30.27013413853508
 20
270.828590174956
 30
0.0
 40
106.7207810980013
100
AcDbArc
 50
155.3766479492188
 51
156.1000061035156
  0
ARC
  5
21C
330
1F
100
AcDbEntity
  8
0-A
  6
Continuous
 62
     4
370
     9
100
AcDbCircle
 10
-124.0325236566543
 20
313.9926666081745
 30
0.0
 40
1.500000013808026
100
AcDbArc
 50
59.99999999999999
 51
155.2807159423828
  0
ARC
  5
21D
330
1F
100
AcDbEntity
  8
0-A
  6
JWW_HOJO
 62
     4
370
     9
100
AcDbCircle
 10
-30.27013413853508
 20
270.828590174956
 30
0.0
 40
104.7207841762705
100
AcDbArc
 50
154.3813018798828
 51
155.2807312011718
  0
ARC
  5
21E
330
1F
100
AcDbEntity
  8
0-A
  6
JWW_HOJO
 62
     4
370
     9
100
AcDbCircle
 10
-30.27013413853508
 20
270.828590174956
 30
0.0
 40
100.6415958404541
100
AcDbArc
 50
153.6486206054687
 51
154.5592498779297
  0
ARC
  5
21F
330
1F
100
AcDbEntity
  8
0-A
  6
Continuous
 62
     4
370
     9
100
AcDbCircle
 10
-121.7980832913011
 20
316.1666845548671
 30
0.0
 40
1.500000013808026
100
AcDbArc
 50
240.0
 51
333.6483764648438
  0
ARC
  5
220
330
1F
100
AcDbEntity
  8
0-A
  6
Continuous
 62
     4
370
     9
100
AcDbCircle
 10
-123.7773076841073
 20
318.4640742296982
 30
0.0
 40
1.500000013808026
100
AcDbArc
 50
240.0
 51
333.0043182373047
  0
ARC
  5
221
330
1F
100
AcDbEntity
  8
0-A
  6
JWW_HOJO
 62
     4
370
     9
100
AcDbCircle
 10
-30.27013413853508
 20
270.828590174956
 30
0.0
 40
103.4415518933742
100
AcDbArc
 50
153.0042724609375
 51
153.8802490234375
  0
ARC
  5
222
330
1F
100
AcDbEntity
  8
0-A
  6
Continuous
 62
     4
370
     9
100
AcDbCircle
 10
-117.7114071834305
 20
334.5918805507723
 30
0.0
 40
1.500000013808026
100
AcDbArc
 50
240.0
 51
323.8998260498047
  0
ARC
  5
223
330
1F
100
AcDbEntity
  8
0-A
  6
JWW_HOJO
 62
     4
370
     9
100
AcDbCircle
 10
-30.27013413853508
 20
270.828590174956
 30
0.0
 40
106.7207810980013
100
AcDbArc
 50
143.8999938964844
 51
144.6233520507812
  0
ARC
  5
224
330
1F
100
AcDbEntity
  8
0-A
  6
Continuous
 62
     4
370
     9
100
AcDbCircle
 10
-114.5325289883933
 20
330.4471355009827
 30
0.0
 40
1.500000013808026
100
AcDbArc
 50
144.7192840576172
 51
240.0
  0
ARC
  5
225
330
1F
100
AcDbEntity
  8
0-A
  6
JWW_HOJO
 62
     4
370
     9
100
AcDbCircle
 10
-30.27013413853508
 20
270.828590174956
 30
0.0
 40
104.7207841762705
100
AcDbArc
 50
144.7192687988281
 51
145.6186981201172
  0
ARC
  5
226
330
1F
100
AcDbEntity
  8
0-A
  6
JWW_HOJO
 62
     4
370
     9
100
AcDbCircle
 10
-30.27013413853508
 20
270.828590174956
 30
0.0
 40
100.6415958404541
100
AcDbArc
 50
145.4407501220703
 51
146.3513793945312
  0
ARC
  5
227
330
1F
100
AcDbEntity
  8
0-A
  6
Continuous
 62
     4
370
     9
100
AcDbCircle
 10
-115.2980530388371
 20
327.4250484038147
 30
0.0
 40
1.500000013808026
100
AcDbArc
 50
326.3516235351562
 51
59.99999999999994
  0
ARC
  5
228
330
1F
100
AcDbEntity
  8
0-A
  6
Continuous
 62
     4
370
     9
100
AcDbCircle
 10
-118.2772573124292
 20
327.9904278374651
 30
0.0
 40
1.500000013808026
100
AcDbArc
 50
326.9956817626953
 51
59.99999999999999
  0
ARC
  5
229
330
1F
100
AcDbEntity
  8
0-A
  6
JWW_HOJO
 62
     4
370
     9
100
AcDbCircle
 10
-30.27013413853508
 20
270.828590174956
 30
0.0
 40
103.4415518933742
100
AcDbArc
 50
146.1197509765625
 51
146.9957275390625
  0
ARC
  5
22A
330
1F
100
AcDbEntity
  8
0-A
  6
Continuous
 62
     4
370
     9
100
AcDbCircle
 10
-30.27013413853508
 20
270.828590174956
 30
0.0
 40
100.6415958404541
100
AcDbArc
 50
146.3513793945312
 51
153.6486206054688
  0
ARC
  5
22B
330
1F
100
AcDbEntity
  8
0-A
  6
Continuous
 62
     4
370
     9
100
AcDbCircle
 10
-30.27013413853508
 20
270.828590174956
 30
0.0
 40
103.4415518933742
100
AcDbArc
 50
146.9957275390625
 51
153.0042724609375
  0
ARC
  5
22C
330
1F
100
AcDbEntity
  8
0-A
  6
Continuous
 62
     4
370
     9
100
AcDbCircle
 10
-30.27013413853508
 20
270.828590174956
 30
0.0
 40
104.7207841762705
100
AcDbArc
 50
155.2807312011719
 51
170.9501800537109
  0
ARC
  5
22D
330
1F
100
AcDbEntity
  8
0-A
  6
Continuous
 62
     4
370
     9
100
AcDbCircle
 10
-30.27013413853508
 20
270.828590174956
 30
0.0
 40
122.5000003534855
100
AcDbArc
 50
136.8712158203125
 51
143.7546081542969
  0
ARC
  5
22E
330
1F
100
AcDbEntity
  8
0-A
  6
Continuous
 62
     4
370
     9
100
AcDbCircle
 10
-30.27013413853508
 20
270.828590174956
 30
0.0
 40
122.5000003534855
100
AcDbArc
 50
156.2453765869141
 51
163.1287841796875
  0
ARC
  5
22F
330
1F
100
AcDbEntity
  8
0-A
  6
Continuous
 62
     4
370
     9
100
AcDbCircle
 10
-30.27013413853508
 20
270.828590174956
 30
0.0
 40
122.5000003534855
100
AcDbArc
 50
76.8712158203125
 51
83.75462341308594
  0
ARC
  5
230
330
1F
100
AcDbEntity
  8
0-A
  6
Continuous
 62
     4
370
     9
100
AcDbCircle
 10
-30.27013413853508
 20
270.828590174956
 30
0.0
 40
122.5000003534855
100
AcDbArc
 50
96.24537658691406
 51
103.1287841796875
  0
ARC
  5
231
330
1F
100
AcDbEntity
  8
0-A
  6
Continuous
 62
     4
370
     9
100
AcDbCircle
 10
-30.27013413853508
 20
270.828590174956
 30
0.0
 40
104.7207841762705
100
AcDbArc
 50
95.28073120117188
 51
144.7192687988281
  0
ARC
  5
232
330
1F
100
AcDbEntity
  8
0-A
  6
Continuous
 62
     4
370
     9
100
AcDbCircle
 10
-30.27013413853508
 20
270.828590174956
 30
0.0
 40
106.7207810980013
100
AcDbArc
 50
36.10000610351562
 51
83.89999389648438
  0
ARC
  5
233
330
1F
100
AcDbEntity
  8
0-A
  6
Continuous
 62
     4
370
     9
100
AcDbCircle
 10
-30.27013413853508
 20
270.828590174956
 30
0.0
 40
106.7207810980013
100
AcDbArc
 50
96.10000610351562
 51
143.8999938964844
  0
ARC
  5
234
330
1F
100
AcDbEntity
  8
0-A
  6
Continuous
 62
     4
370
     9
100
AcDbCircle
 10
-30.27013413853508
 20
270.828590174956
 30
0.0
 40
122.5000003534855
100
AcDbArc
 50
166.8712158203125
 51
180.0
  0
ARC
  5
235
330
1F
100
AcDbEntity
  8
0-A
  6
Continuous
 62
     4
370
     9
100
AcDbCircle
 10
-30.27013413853508
 20
270.828590174956
 30
0.0
 40
124.4999972752162
100
AcDbArc
 50
167.5319671630859
 51
180.0
  0
ARC
  5
236
330
1F
100
AcDbEntity
  8
0-A
  6
Continuous
 62
     4
370
     9
100
AcDbCircle
 10
-30.27013413853508
 20
270.828590174956
 30
0.0
 40
128.0000011782849
100
AcDbArc
 50
167.4626922607422
 51
180.0
  0
ARC
  5
237
330
1F
100
AcDbEntity
  8
0-A
  6
Continuous
 62
     4
370
     9
100
AcDbCircle
 10
-30.27013413853508
 20
270.828590174956
 30
0.0
 40
106.7207810980013
100
AcDbArc
 50
156.1000213623047
 51
180.0
  0
ARC
  5
238
330
1F
100
AcDbEntity
  8
0-A
  6
Continuous
 62
     4
370
     9
100
AcDbCircle
 10
-30.27013413853508
 20
270.828590174956
 30
0.0
 40
105.0207905272259
100
AcDbArc
 50
171.5452270507812
 51
180.0
  0
ARC
  5
239
330
1F
100
AcDbEntity
  8
0-A
  6
Continuous
 62
     4
370
     9
100
AcDbCircle
 10
-30.27013413853508
 20
270.828590174956
 30
0.0
 40
104.7207841762705
100
AcDbArc
 50
0.0
 51
24.71926879882812
  0
ARC
  5
23A
330
1F
100
AcDbEntity
  8
0-A
  6
Continuous
 62
     4
370
     9
100
AcDbCircle
 10
-30.27013413853508
 20
270.828590174956
 30
0.0
 40
106.7207810980013
100
AcDbArc
 50
0.0
 51
23.89997863769532
  0
ARC
  5
23B
330
1F
100
AcDbEntity
  8
0-A
  6
Continuous
 62
     4
370
     9
100
AcDbCircle
 10
-30.27013413853508
 20
270.828590174956
 30
0.0
 40
122.5000003534855
100
AcDbArc
 50
0.0
 51
13.1287841796875
  0
ARC
  5
23C
330
1F
100
AcDbEntity
  8
0-A
  6
Continuous
 62
     4
370
     9
100
AcDbCircle
 10
-30.27013413853508
 20
270.828590174956
 30
0.0
 40
124.4999972752162
100
AcDbArc
 50
0.0
 51
12.46804809570312
  0
ARC
  5
23D
330
1F
100
AcDbEntity
  8
0-A
  6
Continuous
 62
     4
370
     9
100
AcDbCircle
 10
-130.7246967049903
 20
286.8285903222416
 30
0.0
 40
3.000000027616052
100
AcDbArc
 50
170.9503173828125
 51
270.0
  0
ARC
  5
23E
330
1F
100
AcDbEntity
  8
0-A
  6
Continuous
 62
     4
370
     9
100
AcDbCircle
 10
-131.1821878101179
 20
285.8285856680164
 30
0.0
 40
3.000000027616052
100
AcDbArc
 50
171.5453643798828
 51
270.0
  0
ARC
  5
23F
330
1F
100
AcDbEntity
  8
0-A
  6
Continuous
 62
     4
370
     9
100
AcDbCircle
 10
-30.27013413853508
 20
270.828590174956
 30
0.0
 40
89.99998534508194
100
AcDbArc
 50
68.54901123046875
 51
171.4509887695312
  0
ARC
  5
240
330
1F
100
AcDbEntity
  8
0-A
  6
Continuous
 62
     4
370
     9
100
AcDbCircle
 10
-30.27013413853508
 20
270.828590174956
 30
0.0
 40
91.00000238602686
100
AcDbArc
 50
68.50193786621094
 51
171.4980926513672
  0
ARC
  5
241
330
1F
100
AcDbEntity
  8
0-A
  6
Continuous
 62
     4
370
     9
100
AcDbCircle
 10
-30.27013413853508
 20
270.828590174956
 30
0.0
 40
91.00000238602686
100
AcDbArc
 50
0.0
 51
51.49830627441406
  0
ARC
  5
242
330
1F
100
AcDbEntity
  8
0-A
  6
Continuous
 62
     4
370
     9
100
AcDbCircle
 10
19.92603170482471
 20
345.7708579132099
 30
0.0
 40
1.00000000920535
100
AcDbArc
 50
150.0000915527344
 51
240.0
  0
ARC
  5
243
330
1F
100
AcDbEntity
  8
0-A
  6
Continuous
 62
     4
370
     9
100
AcDbCircle
 10
-30.27013413853508
 20
270.828590174956
 30
0.0
 40
128.0000011782849
100
AcDbArc
 50
0.0
 51
12.53732299804688
  0
ARC
  5
244
330
1F
100
AcDbEntity
  8
0-A
  6
Continuous
 62
     4
370
     9
100
AcDbCircle
 10
-30.27013413853508
 20
270.828590174956
 30
0.0
 40
129.9999981000157
100
AcDbArc
 50
0.0
 51
180.0
  0
ARC
  5
245
330
1F
100
AcDbEntity
  8
0-A
  6
Continuous
 62
     4
370
     9
100
AcDbCircle
 10
-30.27013413853508
 20
270.828590174956
 30
0.0
 40
89.99997295836224
100
AcDbArc
 50
0.0
 51
51.4510498046875
  0
ARC
  5
246
330
1F
100
AcDbEntity
  8
0-A
  6
Continuous
 62
     4
370
     9
100
AcDbCircle
 10
-30.27013413853508
 20
270.828590174956
 30
0.0
 40
104.7207841762705
100
AcDbArc
 50
69.04983520507812
 51
84.71926879882811
  0
LINE
  5
247
330
1F
100
AcDbEntity
  8
0-0_通り芯
  6
JWW_CENTER1
 62
     3
370
     9
100
AcDbLine
 10
-30.27013413853505
 20
414.9758572109521
 30
0.0
 11
-30.27013413853508
 21
265.6663999696139
 31
0.0
  0
LINE
  5
248
330
1F
100
AcDbEntity
  8
0-4_寸法
  6
Continuous
 62
     7
370
     9
100
AcDbLine
 10
129.7296637856098
 20
16.57286005707823
 30
0.0
 11
129.7296637856098
 21
46.57284768508714
 31
0.0
  0
LINE
  5
249
330
1F
100
AcDbEntity
  8
0-4_寸法
  6
Continuous
 62
     7
370
     9
100
AcDbLine
 10
82.77023731812672
 20
16.57286005707823
 30
0.0
 11
130.6296519084983
 21
16.57286005707823
 31
0.0
  0
LINE
  5
24A
330
1F
100
AcDbEntity
  8
0-4_寸法
  6
Continuous
 62
     7
370
     9
100
AcDbLine
 10
104.3469403639459
 20
46.57284768508714
 30
0.0
 11
130.6296519084983
 21
46.57284768508714
 31
0.0
  0
LINE
  5
24B
330
1F
100
AcDbEntity
  8
0-4_寸法
  6
Continuous
 62
     7
370
     9
100
AcDbLine
 10
129.7296637856098
 20
16.57286005707823
 30
0.0
 11
128.7506928713362
 21
24.00871128306011
 31
0.0
  0
LINE
  5
24C
330
1F
100
AcDbEntity
  8
0-4_寸法
  6
Continuous
 62
     7
370
     9
100
AcDbLine
 10
129.7296637856098
 20
16.57286005707823
 30
0.0
 11
130.7086346998834
 21
24.00871128306011
 31
0.0
  0
LINE
  5
24D
330
1F
100
AcDbEntity
  8
0-4_寸法
  6
Continuous
 62
     7
370
     9
100
AcDbLine
 10
129.7296637856098
 20
46.57284768508714
 30
0.0
 11
128.7506928713362
 21
39.13699645910526
 31
0.0
  0
LINE
  5
24E
330
1F
100
AcDbEntity
  8
0-4_寸法
  6
Continuous
 62
     7
370
     9
100
AcDbLine
 10
129.7296637856098
 20
46.57284768508714
 30
0.0
 11
130.7086346998834
 21
39.13699645910526
 31
0.0
  0
LINE
  5
24F
330
1F
100
AcDbEntity
  8
0-4_寸法
  6
Continuous
 62
     7
370
     9
100
AcDbLine
 10
153.7297429663531
 20
-176.9872381270434
 30
0.0
 11
153.7297429663531
 21
-26.78364464097919
 31
0.0
  0
LINE
  5
250
330
1F
100
AcDbEntity
  8
0-4_寸法
  6
Continuous
 62
     7
370
     9
100
AcDbLine
 10
21.83991307298313
 20
-176.9872381270434
 30
0.0
 11
154.6297310892415
 21
-176.9872381270434
 31
0.0
  0
LINE
  5
251
330
1F
100
AcDbEntity
  8
0-4_寸法
  6
Continuous
 62
     7
370
     9
100
AcDbLine
 10
27.22989472944422
 20
-26.78364464097919
 30
0.0
 11
154.6297310892415
 21
-26.78364464097919
 31
0.0
  0
LINE
  5
252
330
1F
100
AcDbEntity
  8
0-4_寸法
  6
Continuous
 62
     7
370
     9
100
AcDbLine
 10
153.7297429663531
 20
-176.9872381270434
 30
0.0
 11
152.7507720520795
 21
-169.5514240170349
 31
0.0
  0
LINE
  5
253
330
1F
100
AcDbEntity
  8
0-4_寸法
  6
Continuous
 62
     7
370
     9
100
AcDbLine
 10
153.7297429663531
 20
-176.9872381270434
 30
0.0
 11
154.7087138806266
 21
-169.5514240170349
 31
0.0
  0
LINE
  5
254
330
1F
100
AcDbEntity
  8
0-4_寸法
  6
Continuous
 62
     7
370
     9
100
AcDbLine
 10
153.7297429663531
 20
-26.78364464097919
 30
0.0
 11
152.7507720520795
 21
-34.21945875098763
 31
0.0
  0
LINE
  5
255
330
1F
100
AcDbEntity
  8
0-4_寸法
  6
Continuous
 62
     7
370
     9
100
AcDbLine
 10
153.7297429663531
 20
-26.78364464097919
 30
0.0
 11
154.7087138806266
 21
-34.21945875098763
 31
0.0
  0
LINE
  5
256
330
1F
100
AcDbEntity
  8
0-4_寸法
  6
Continuous
 62
     7
370
     9
100
AcDbLine
 10
153.7297429663531
 20
-26.78364464097919
 30
0.0
 11
153.7297429663531
 21
8.716484852527994
 31
0.0
  0
LINE
  5
257
330
1F
100
AcDbEntity
  8
0-4_寸法
  6
Continuous
 62
     7
370
     9
100
AcDbLine
 10
87.86240040406422
 20
8.716484852527994
 30
0.0
 11
154.6297310892415
 21
8.716484852527994
 31
0.0
  0
LINE
  5
258
330
1F
100
AcDbEntity
  8
0-4_寸法
  6
Continuous
 62
     7
370
     9
100
AcDbLine
 10
153.7297429663531
 20
-26.78364464097919
 30
0.0
 11
152.7507720520795
 21
-19.34779341499732
 31
0.0
  0
LINE
  5
259
330
1F
100
AcDbEntity
  8
0-4_寸法
  6
Continuous
 62
     7
370
     9
100
AcDbLine
 10
153.7297429663531
 20
-26.78364464097919
 30
0.0
 11
154.7087138806266
 21
-19.34779341499732
 31
0.0
  0
LINE
  5
25A
330
1F
100
AcDbEntity
  8
0-4_寸法
  6
Continuous
 62
     7
370
     9
100
AcDbLine
 10
153.7297429663531
 20
8.716484852527994
 30
0.0
 11
152.7507720520795
 21
1.280633626546202
 31
0.0
  0
LINE
  5
25B
330
1F
100
AcDbEntity
  8
0-4_寸法
  6
Continuous
 62
     7
370
     9
100
AcDbLine
 10
153.7297429663531
 20
8.716484852527994
 30
0.0
 11
154.7087138806266
 21
1.280633626546202
 31
0.0
  0
LINE
  5
25C
330
1F
100
AcDbEntity
  8
0-4_寸法
  6
Continuous
 62
     7
370
     9
100
AcDbLine
 10
-74.88011949009757
 20
-206.9872628710256
 30
0.0
 11
14.33996256094766
 21
-206.9872628710256
 31
0.0
  0
LINE
  5
25D
330
1F
100
AcDbEntity
  8
0-4_寸法
  6
Continuous
 62
     7
370
     9
100
AcDbLine
 10
-74.88011949009757
 20
-184.4872628710256
 30
0.0
 11
-74.88011949009757
 21
-207.8872509939142
 31
0.0
  0
LINE
  5
25E
330
1F
100
AcDbEntity
  8
0-4_寸法
  6
Continuous
 62
     7
370
     9
100
AcDbLine
 10
14.33996256094766
 20
-184.4872628710256
 30
0.0
 11
14.33996256094766
 21
-207.8872509939142
 31
0.0
  0
LINE
  5
25F
330
1F
100
AcDbEntity
  8
0-4_寸法
  6
Continuous
 62
     7
370
     9
100
AcDbLine
 10
-74.88011949009757
 20
-206.9872628710256
 30
0.0
 11
-67.44426826411569
 21
-206.008291956752
 31
0.0
  0
LINE
  5
260
330
1F
100
AcDbEntity
  8
0-4_寸法
  6
Continuous
 62
     7
370
     9
100
AcDbLine
 10
-74.88011949009757
 20
-206.9872628710256
 30
0.0
 11
-67.44426826411569
 21
-207.9661595533524
 31
0.0
  0
LINE
  5
261
330
1F
100
AcDbEntity
  8
0-4_寸法
  6
Continuous
 62
     7
370
     9
100
AcDbLine
 10
14.33996256094766
 20
-206.9872628710256
 30
0.0
 11
6.904148450939223
 21
-206.008291956752
 31
0.0
  0
LINE
  5
262
330
1F
100
AcDbEntity
  8
0-4_寸法
  6
Continuous
 62
     7
370
     9
100
AcDbLine
 10
14.33996256094766
 20
-206.9872628710256
 30
0.0
 11
6.904148450939223
 21
-207.9661595533524
 31
0.0
  0
LINE
  5
263
330
1F
100
AcDbEntity
  8
0-4_寸法
  6
Continuous
 62
     7
370
     9
100
AcDbLine
 10
-62.94963523386868
 20
-56.78366938496137
 30
0.0
 11
37.05033589815203
 21
-56.78366938496137
 31
0.0
  0
LINE
  5
264
330
1F
100
AcDbEntity
  8
0-4_寸法
  6
Continuous
 62
     7
370
     9
100
AcDbLine
 10
-62.94963523386868
 20
-56.78366938496137
 30
0.0
 11
-55.5137840078868
 21
-55.80469847068778
 31
0.0
  0
LINE
  5
265
330
1F
100
AcDbEntity
  8
0-4_寸法
  6
Continuous
 62
     7
370
     9
100
AcDbLine
 10
-62.94963523386868
 20
-56.78366938496137
 30
0.0
 11
-55.5137840078868
 21
-57.76256606728825
 31
0.0
  0
LINE
  5
266
330
1F
100
AcDbEntity
  8
0-4_寸法
  6
Continuous
 62
     7
370
     9
100
AcDbLine
 10
37.05033589815203
 20
-56.78366938496137
 30
0.0
 11
29.6145217881436
 21
-57.76256606728825
 31
0.0
  0
LINE
  5
267
330
1F
100
AcDbEntity
  8
0-4_寸法
  6
Continuous
 62
     7
370
     9
100
AcDbLine
 10
37.05033589815203
 20
-56.78366938496137
 30
0.0
 11
29.6145217881436
 21
-55.80469847068778
 31
0.0
  0
LINE
  5
268
330
1F
100
AcDbEntity
  8
0-4_寸法
  6
Continuous
 62
     7
370
     9
100
AcDbLine
 10
-80.2701382625321
 20
-26.78364464097919
 30
0.0
 11
-62.38443319100547
 21
-57.76256606728825
 31
0.0
  0
LINE
  5
269
330
1F
100
AcDbEntity
  8
0-4_寸法
  6
Continuous
 62
     7
370
     9
100
AcDbLine
 10
19.72979575351524
 20
-26.78364464097919
 30
0.0
 11
37.61553794101524
 21
-57.76256606728825
 31
0.0
  0
TEXT
  5
26A
330
1F
100
AcDbEntity
  8
0-4_寸法
  6
Continuous
 62
     2
370
     9
100
AcDbText
 10
125.0376538880169
 20
25.19787242906941
 30
0.0
 40
9.144
  1
30
 50
90.0
 41
1.0625
  7
ＭＳ ゴシック
100
AcDbText
  0
TEXT
  5
26B
330
1F
100
AcDbEntity
  8
0-4_寸法
  6
Continuous
 62
     2
370
     9
100
AcDbText
 10
149.0377330687601
 20
-111.6354321050179
 30
0.0
 40
9.144
  1
150
 50
90.0
 41
1.083333333333335
  7
ＭＳ ゴシック
100
AcDbText
  0
TEXT
  5
26C
330
1F
100
AcDbEntity
  8
0-4_寸法
  6
Continuous
 62
     2
370
     9
100
AcDbText
 10
149.0377330687601
 20
-15.40856133623888
 30
0.0
 40
9.144
  1
35
 50
90.0
 41
1.0625
  7
ＭＳ ゴシック
100
AcDbText
  0
TEXT
  5
26D
330
1F
100
AcDbEntity
  8
0-4_寸法
  6
Continuous
 62
     2
370
     9
100
AcDbText
 10
-43.39507846457496
 20
-202.2952529734328
 30
0.0
 40
9.144
  1
φ90
 41
1.09375
  7
ＭＳ ゴシック
100
AcDbText
  0
TEXT
  5
26E
330
1F
100
AcDbEntity
  8
0-4_寸法
  6
Continuous
 62
     2
370
     9
100
AcDbText
 10
-29.44964966785832
 20
-52.09165948736852
 30
0.0
 40
9.144
  1
φ100
 41
1.1
  7
ＭＳ ゴシック
100
AcDbText
  0
LINE
  5
26F
330
1F
100
AcDbEntity
  8
0-5_文字
  6
Continuous
 62
     7
370
     9
100
AcDbLine
 10
-141.7700813513729
 20
-0.2835077242773165
 30
0.0
 11
-144.6402224580558
 21
-7.21261456549357
 31
0.0
  0
LINE
  5
270
330
1F
100
AcDbEntity
  8
0-5_文字
  6
Continuous
 62
     7
370
     9
100
AcDbLine
 10
-141.7700813513729
 20
-0.2835077242773165
 30
0.0
 11
-146.3357914706719
 21
-6.233643651219896
 31
0.0
  0
LINE
  5
271
330
1F
100
AcDbEntity
  8
0-5_文字
  6
Continuous
 62
     7
370
     9
100
AcDbLine
 10
-173.524429693856
 20
-55.28359020421817
 30
0.0
 11
-263.8967029070106
 21
-55.28359020421817
 31
0.0
  0
LINE
  5
272
330
1F
100
AcDbEntity
  8
0-5_文字
  6
Continuous
 62
     7
370
     9
100
AcDbLine
 10
-141.7700813513729
 20
-0.2835077242773165
 30
0.0
 11
-173.524429693856
 21
-55.28359020421817
 31
0.0
  0
TEXT
  5
273
330
1F
100
AcDbEntity
  8
0-5_文字
  6
Continuous
 62
     7
370
     9
100
AcDbText
 10
-259.5905386036691
 20
-50.55315452537528
 30
0.0
 40
6.858000000000001
  1
本体：ＦＣ１５０
 41
1.145833333333333
  7
ＭＳ ゴシック
100
AcDbText
  0
TEXT
  5
274
330
1F
100
AcDbEntity
  8
0-5_文字
  6
Continuous
 62
     7
370
     9
100
AcDbText
 10
-249.5229198985382
 20
-64.93544575214895
 30
0.0
 40
6.858000000000001
  1
樹脂系塗装
 41
1.133333333333333
  7
ＭＳ ゴシック
100
AcDbText
  0
LINE
  5
275
330
1F
100
AcDbEntity
  8
0-5_文字
  6
Continuous
 62
     7
370
     9
100
AcDbLine
 10
96.84698985191046
 20
46.57283202678588
 30
0.0
 11
99.10228334819251
 21
53.72570915739759
 31
0.0
  0
LINE
  5
276
330
1F
100
AcDbEntity
  8
0-5_文字
  6
Continuous
 62
     7
370
     9
100
AcDbLine
 10
96.84698985191046
 20
46.57283202678588
 30
0.0
 11
100.8767369145117
 21
52.89826787038255
 31
0.0
  0
LINE
  5
277
330
1F
100
AcDbEntity
  8
0-5_文字
  6
Continuous
 62
     7
370
     9
100
AcDbLine
 10
42.90373275203711
 20
17.51251773233167
 30
0.0
 11
110.1806314562382
 21
161.7882925939114
 31
0.0
  0
LINE
  5
278
330
1F
100
AcDbEntity
  8
0-5_文字
  6
Continuous
 62
     7
370
     9
100
AcDbLine
 10
42.90373275203711
 20
17.51251773233167
 30
0.0
 11
45.15902624831915
 21
24.66539486294338
 31
0.0
  0
LINE
  5
279
330
1F
100
AcDbEntity
  8
0-5_文字
  6
Continuous
 62
     7
370
     9
100
AcDbLine
 10
42.90373275203711
 20
17.51251773233167
 30
0.0
 11
46.93347981463828
 21
23.83795357592834
 31
0.0
  0
TEXT
  5
27A
330
1F
100
AcDbEntity
  8
0-5_文字
  6
Continuous
 62
     7
370
     9
100
AcDbText
 10
135.2202495849758
 20
152.3628444836918
 30
0.0
 40
6.858000000000001
  1
Ｍ６×１２
 41
1.133333333333333
  7
ＭＳ ゴシック
100
AcDbText
  0
TEXT
  5
27B
330
1F
100
AcDbEntity
  8
0-5_文字
  6
Continuous
 62
     7
370
     9
100
AcDbText
 10
112.1463072638817
 20
164.8912670713185
 30
0.0
 40
6.858000000000001
  1
丸小ネジ：Ｃ２７００
 41
1.15
  7
ＭＳ ゴシック
100
AcDbText
  0
LINE
  5
27C
330
1F
100
AcDbEntity
  8
0-5_文字
  6
Continuous
 62
     7
370
     9
100
AcDbLine
 10
110.1806314562382
 20
161.7882925939114
 30
0.0
 11
213.2339705036179
 21
161.7882925939114
 31
0.0
  0
TEXT
  5
27D
330
1F
100
AcDbEntity
  8
0-5_文字
  6
Continuous
 62
     7
370
     9
100
AcDbText
 10
110.0629005998518
 20
129.9205288725198
 30
0.0
 40
6.858000000000001
  1
防水層押え：ＦＣ１５０
 41
0.9999999999999997
  7
ＭＳ ゴシック
100
AcDbText
  0
TEXT
  5
27E
330
1F
100
AcDbEntity
  8
0-5_文字
  6
Continuous
 62
     7
370
     9
100
AcDbText
 10
135.26687545229
 20
116.4905221751485
 30
0.0
 40
6.858000000000001
  1
樹脂系塗装
 41
1.133333333333333
  7
ＭＳ ゴシック
100
AcDbText
  0
LINE
  5
27F
330
1F
100
AcDbEntity
  8
0-5_文字
  6
Continuous
 62
     7
370
     9
100
AcDbLine
 10
-126.7703659071689
 20
28.57289964744987
 30
0.0
 11
-130.8001129697701
 21
34.89833549104652
 31
0.0
  0
LINE
  5
280
330
1F
100
AcDbEntity
  8
0-5_文字
  6
Continuous
 62
     7
370
     9
100
AcDbLine
 10
-126.7703659071689
 20
28.57289964744987
 30
0.0
 11
-129.025659403451
 21
35.72577677806158
 31
0.0
  0
LINE
  5
281
330
1F
100
AcDbEntity
  8
0-5_文字
  6
Continuous
 62
     7
370
     9
100
AcDbLine
 10
-85.27017950250257
 20
6.572851809084168
 30
0.0
 11
-89.29992656510376
 21
12.89828765268084
 31
0.0
  0
LINE
  5
282
330
1F
100
AcDbEntity
  8
0-5_文字
  6
Continuous
 62
     7
370
     9
100
AcDbLine
 10
-85.27017950250257
 20
6.572851809084168
 30
0.0
 11
-87.52547299878462
 21
13.72572893969587
 31
0.0
  0
LINE
  5
283
330
1F
100
AcDbEntity
  8
0-5_文字
  6
Continuous
 62
     7
370
     9
100
AcDbLine
 10
-98.50990745066554
 20
74.91173113291838
 30
0.0
 11
-159.1187633263291
 21
204.8878420024452
 31
0.0
  0
LINE
  5
284
330
1F
100
AcDbEntity
  8
0-5_文字
  6
Continuous
 62
     7
370
     9
100
AcDbLine
 10
-98.50990745066554
 20
74.91173113291838
 30
0.0
 11
-102.5396545132667
 21
81.23716697651501
 31
0.0
  0
LINE
  5
285
330
1F
100
AcDbEntity
  8
0-5_文字
  6
Continuous
 62
     7
370
     9
100
AcDbLine
 10
-98.50990745066554
 20
74.91173113291838
 30
0.0
 11
-100.7652009469476
 21
82.06460826353009
 31
0.0
  0
TEXT
  5
286
330
1F
100
AcDbEntity
  8
0-5_文字
  6
Continuous
 62
     7
370
     9
100
AcDbText
 10
-263.1288288046457
 20
207.3245154742569
 30
0.0
 40
6.858000000000001
  1
丸小ネジ：Ｃ２７００
 41
1.15
  7
ＭＳ ゴシック
100
AcDbText
  0
TEXT
  5
287
330
1F
100
AcDbEntity
  8
0-5_文字
  6
Continuous
 62
     7
370
     9
100
AcDbText
 10
-237.4308670489445
 20
196.2738282513895
 30
0.0
 40
6.858000000000001
  1
Ｍ６×１２
 41
1.133333333333331
  7
ＭＳ ゴシック
100
AcDbText
  0
LINE
  5
288
330
1F
100
AcDbEntity
  8
0-5_文字
  6
Continuous
 62
     7
370
     9
100
AcDbLine
 10
-159.1187633263291
 20
204.8878420024452
 30
0.0
 11
-267.4767426649317
 21
204.8878420024452
 31
0.0
  0
LINE
  5
289
330
1F
100
AcDbEntity
  8
0-5_文字
  6
Continuous
 62
     7
370
     9
100
AcDbLine
 10
-126.7703659071689
 20
28.57289964744987
 30
0.0
 11
-166.3983585745176
 21
113.5554041684812
 31
0.0
  0
LINE
  5
28A
330
1F
100
AcDbEntity
  8
0-5_文字
  6
Continuous
 62
     7
370
     9
100
AcDbLine
 10
-85.27017950250257
 20
6.572851809084168
 30
0.0
 11
-163.8860518083446
 21
175.1651340308582
 31
0.0
  0
TEXT
  5
28B
330
1F
100
AcDbEntity
  8
0-5_文字
  6
Continuous
 62
     7
370
     9
100
AcDbText
 10
-262.3069226087325
 20
117.6816660323959
 30
0.0
 40
6.858000000000001
  1
ボルト：Ｃ３６０２
 41
1.148148148148148
  7
ＭＳ ゴシック
100
AcDbText
  0
LINE
  5
28C
330
1F
100
AcDbEntity
  8
0-5_文字
  6
Continuous
 62
     7
370
     9
100
AcDbLine
 10
-166.3983585745176
 20
113.5554041684812
 30
0.0
 11
-268.3206435273746
 21
113.5554041684812
 31
0.0
  0
TEXT
  5
28D
330
1F
100
AcDbEntity
  8
0-5_文字
  6
Continuous
 62
     7
370
     9
100
AcDbText
 10
-241.3069226087325
 20
104.3447833122734
 30
0.0
 40
6.858000000000001
  1
Ｍ８×５０
 41
1.133333333333333
  7
ＭＳ ゴシック
100
AcDbText
  0
LINE
  5
28E
330
1F
100
AcDbEntity
  8
0-5_文字
  6
Continuous
 62
     7
370
     9
100
AcDbLine
 10
-163.8860518083446
 20
175.1651340308582
 30
0.0
 11
-284.5011253474599
 21
175.1651340308582
 31
0.0
  0
TEXT
  5
28F
330
1F
100
AcDbEntity
  8
0-5_文字
  6
Continuous
 62
     6
370
     5
100
AcDbText
 10
-283.5415782118233
 20
165.7489649139874
 30
0.0
 40
6.858000000000001
  1
アスファルト防水用　Ｍ８×４０
 41
0.895555555555555
  7
ＭＳ ゴシック
100
AcDbText
  0
TEXT
  5
290
330
1F
100
AcDbEntity
  8
0-5_文字
  6
Continuous
 62
     6
370
     5
100
AcDbText
 10
-259.2415900889347
 20
154.2440524087088
 30
0.0
 40
6.858000000000001
  1
シート防水用　Ｍ８×３０
 41
0.8944444444444439
  7
ＭＳ ゴシック
100
AcDbText
  0
TEXT
  5
291
330
1F
100
AcDbEntity
  8
0-5_文字
  6
Continuous
 62
     7
370
     9
100
AcDbText
 10
-284.2100261331886
 20
181.0483176114115
 30
0.0
 40
6.858000000000001
  1
注） ボルト：Ｃ３６０２
 41
1.152173913043478
  7
ＭＳ ゴシック
100
AcDbText
  0
LINE
  5
292
330
1F
100
AcDbEntity
  8
0-4_寸法
  6
Continuous
 62
     7
370
     9
100
AcDbLine
 10
153.7297429663531
 20
8.716484852527994
 30
0.0
 11
153.7297429663531
 21
76.57284167583425
 31
0.0
  0
LINE
  5
293
330
1F
100
AcDbEntity
  8
0-4_寸法
  6
Continuous
 62
     7
370
     9
100
AcDbLine
 10
153.7297429663531
 20
8.716484852527994
 30
0.0
 11
152.7507965247027
 21
16.15232131283159
 31
0.0
  0
LINE
  5
294
330
1F
100
AcDbEntity
  8
0-4_寸法
  6
Continuous
 62
     7
370
     9
100
AcDbLine
 10
153.7297429663531
 20
8.716484852527994
 30
0.0
 11
154.7086894080035
 21
16.15232131283159
 31
0.0
  0
LINE
  5
295
330
1F
100
AcDbEntity
  8
0-4_寸法
  6
Continuous
 62
     7
370
     9
100
AcDbLine
 10
152.8297429305903
 20
8.716484852527994
 30
0.0
 11
148.6297310892415
 21
8.716484852527994
 31
0.0
  0
LINE
  5
296
330
1F
100
AcDbEntity
  8
0-4_寸法
  6
Continuous
 62
     7
370
     9
100
AcDbLine
 10
154.6297430021158
 20
76.57284167583425
 30
0.0
 11
34.7298933155024
 21
76.57284167583427
 31
0.0
  0
LINE
  5
297
330
1F
100
AcDbEntity
  8
0-4_寸法
  6
Continuous
 62
     7
370
     9
100
AcDbLine
 10
-178.5994835127481
 20
6.572851809084168
 30
0.0
 11
-178.5994835127481
 21
76.57284167583431
 31
0.0
  0
LINE
  5
298
330
1F
100
AcDbEntity
  8
0-4_寸法
  6
Continuous
 62
     7
370
     9
100
AcDbLine
 10
-178.5994835127481
 20
6.572851809084168
 30
0.0
 11
-179.5784299543985
 21
14.00868826938774
 31
0.0
  0
LINE
  5
299
330
1F
100
AcDbEntity
  8
0-4_寸法
  6
Continuous
 62
     7
370
     9
100
AcDbLine
 10
-178.5994835127481
 20
6.572851809084168
 30
0.0
 11
-177.6205370710977
 21
14.00868826938774
 31
0.0
  0
LINE
  5
29A
330
1F
100
AcDbEntity
  8
0-4_寸法
  6
Continuous
 62
     7
370
     9
100
AcDbLine
 10
-178.5994835127481
 20
76.57284167583431
 30
0.0
 11
-179.5784299543985
 21
69.13700521553073
 31
0.0
  0
LINE
  5
29B
330
1F
100
AcDbEntity
  8
0-4_寸法
  6
Continuous
 62
     7
370
     9
100
AcDbLine
 10
-178.5994835127481
 20
76.57284167583431
 30
0.0
 11
-177.6205370710977
 21
69.13700521553073
 31
0.0
  0
LINE
  5
29C
330
1F
100
AcDbEntity
  8
0-4_寸法
  6
Continuous
 62
     7
370
     9
100
AcDbLine
 10
-179.4994835485109
 20
6.572851809084168
 30
0.0
 11
-115.4455996658857
 21
6.572851809084168
 31
0.0
  0
LINE
  5
29D
330
1F
100
AcDbEntity
  8
0-4_寸法
  6
Continuous
 62
     7
370
     9
100
AcDbLine
 10
-179.4994835485109
 20
76.57284167583431
 30
0.0
 11
-95.27010909998154
 21
76.57284167583431
 31
0.0
  0
TEXT
  5
29E
330
1F
100
AcDbEntity
  8
0-4_寸法
  6
Continuous
 62
     2
370
   211
100
AcDbText
 10
-183.2914835127481
 20
35.19784674245924
 30
0.0
 40
9.144
  1
70
 50
90.0
 41
1.0625
  7
ＭＳ ゴシック
100
AcDbText
  0
LINE
  5
29F
330
1F
100
AcDbEntity
  8
0-5_文字
  6
Continuous
 62
     7
370
     9
100
AcDbLine
 10
96.84698985191046
 20
46.57283202678588
 30
0.0
 11
118.7881148548813
 21
93.62572643942217
 31
0.0
  0
TEXT
  5
2A0
330
1F
100
AcDbEntity
  8
0-5_文字
  6
Continuous
 62
     7
370
     9
100
AcDbText
 10
121.0633215496131
 20
98.00972162259364
 30
0.0
 40
6.858000000000001
  1
断熱材押え：ＦＣ１５０
 41
0.9999999999999997
  7
ＭＳ ゴシック
100
AcDbText
  0
TEXT
  5
2A1
330
1F
100
AcDbEntity
  8
0-5_文字
  6
Continuous
 62
     7
370
     9
100
AcDbText
 10
141.6590314796207
 20
82.88919368498811
 30
0.0
 40
6.858000000000001
  1
樹脂系塗装
 41
1.133333333333333
  7
ＭＳ ゴシック
100
AcDbText
  0
LINE
  5
2A2
330
1F
100
AcDbEntity
  8
0-5_文字
  6
Continuous
 62
     7
370
     9
100
AcDbLine
 10
118.7881148548813
 20
93.62572643942217
 30
0.0
 11
219.7478026323237
 21
93.62572643942217
 31
0.0
  0
TEXT
  5
2A3
330
1F
100
AcDbEntity
  8
0-4_寸法
  6
Continuous
 62
     2
370
   211
100
AcDbText
 10
149.0377429663531
 20
36.26966326418113
 30
0.0
 40
9.144
  1
68
 50
90.0
 41
1.0625
  7
ＭＳ ゴシック
100
AcDbText
  0
LINE
  5
2A4
330
1F
100
AcDbEntity
  8
0-4_寸法
  6
Continuous
 62
     7
370
     9
100
AcDbLine
 10
153.7297429663531
 20
76.57284167583425
 30
0.0
 11
154.7086894080035
 21
69.13700521553068
 31
0.0
  0
LINE
  5
2A5
330
1F
100
AcDbEntity
  8
0-4_寸法
  6
Continuous
 62
     7
370
     9
100
AcDbLine
 10
153.7297429663531
 20
76.57284167583425
 30
0.0
 11
152.7507965247027
 21
69.13700521553068
 31
0.0
  0
LINE
  5
2A6
330
1F
100
AcDbEntity
  8
0-5_文字
  6
Continuous
 62
     7
370
     9
100
AcDbLine
 10
31.22994044689715
 20
46.348587671551
 30
0.0
 11
107.5800837767041
 21
210.0819984242186
 31
0.0
  0
LINE
  5
2A7
330
1F
100
AcDbEntity
  8
0-5_文字
  6
Continuous
 62
     7
370
     9
100
AcDbLine
 10
31.22994044689715
 20
46.348587671551
 30
0.0
 11
33.4852339431792
 21
53.50146480216271
 31
0.0
  0
LINE
  5
2A8
330
1F
100
AcDbEntity
  8
0-5_文字
  6
Continuous
 62
     7
370
     9
100
AcDbLine
 10
31.22994044689715
 20
46.348587671551
 30
0.0
 11
35.25968750949833
 21
52.67402351514765
 31
0.0
  0
TEXT
  5
2A9
330
1F
100
AcDbEntity
  8
0-5_文字
  6
Continuous
 62
     7
370
     9
100
AcDbText
 10
107.5359371479782
 20
214.5668360383845
 30
0.0
 40
6.858000000000001
  1
ロート：ＳＵＳ３０４
 41
0.9999999999999989
  7
ＭＳ ゴシック
100
AcDbText
  0
LINE
  5
2AA
330
1F
100
AcDbEntity
  8
0-5_文字
  6
Continuous
 62
     7
370
     9
100
AcDbLine
 10
107.5800837767041
 20
210.0819984242186
 30
0.0
 11
198.5080346038798
 21
210.0819984242186
 31
0.0
  0
LINE
  5
2AB
330
1F
100
AcDbEntity
  8
0-5_文字
  6
Continuous
 62
     7
370
     9
100
AcDbLine
 10
-67.62495200163214
 20
76.5728416758343
 30
0.0
 11
-71.65469906423333
 21
82.89827751943095
 31
0.0
  0
LINE
  5
2AC
330
1F
100
AcDbEntity
  8
0-5_文字
  6
Continuous
 62
     7
370
     9
100
AcDbLine
 10
-67.62495200163214
 20
76.5728416758343
 30
0.0
 11
-69.8802454979142
 21
83.72571880644598
 31
0.0
  0
TEXT
  5
2AD
330
1F
100
AcDbEntity
  8
0-5_文字
  6
Continuous
 62
     7
370
     9
100
AcDbText
 10
-268.8330863930667
 20
237.2185570751138
 30
0.0
 40
6.858000000000001
  1
ストレーナー：ＦＣ１５０
 41
1.152777777777777
  7
ＭＳ ゴシック
100
AcDbText
  0
TEXT
  5
2AE
330
1F
100
AcDbEntity
  8
0-5_文字
  6
Continuous
 62
     7
370
     9
100
AcDbText
 10
-229.4036596519015
 20
222.6179908256354
 30
0.0
 40
6.858000000000001
  1
樹脂系塗装
 41
1.133333333333333
  7
ＭＳ ゴシック
100
AcDbText
  0
LINE
  5
2AF
330
1F
100
AcDbEntity
  8
0-5_文字
  6
Continuous
 62
     7
370
     9
100
AcDbLine
 10
-271.8017397920253
 20
233.8313484734458
 30
0.0
 11
-140.9557980313783
 21
233.8313484734458
 31
0.0
  0
LINE
  5
2B0
330
1F
100
AcDbEntity
  8
0-5_文字
  6
Continuous
 62
     7
370
     9
100
AcDbLine
 10
-67.62495200163214
 20
76.5728416758343
 30
0.0
 11
-140.9557980313783
 21
233.8313484734458
 31
0.0
  0
LINE
  5
2B1
330
1F
100
AcDbEntity
  8
0-A
  6
JWW_CENTER1
 62
     4
370
     9
100
AcDbLine
 10
45.72997184818892
 20
19.75514573413015
 30
0.0
 11
45.72997184818892
 21
-0.5279591219117075
 31
0.0
  0
LINE
  5
2B2
330
1F
100
AcDbEntity
  8
0-9
  6
Continuous
 62
     4
370
     9
100
AcDbLine
 10
47.85989307277571
 20
1.522984377914821
 30
0.0
 11
48.72983717022831
 21
2.392978022246251
 31
0.0
  0
LINE
  5
2B3
330
1F
100
AcDbEntity
  8
0-9
  6
Continuous
 62
     4
370
     9
100
AcDbLine
 10
43.59985243608713
 20
1.522984377914821
 30
0.0
 11
42.72990833863451
 21
2.392978022246251
 31
0.0
  0
LINE
  5
2B4
330
1F
100
AcDbEntity
  8
0-9
  6
Continuous
 62
     4
370
     9
100
AcDbLine
 10
43.59985243608713
 20
1.522984377914821
 30
0.0
 11
47.85989307277571
 21
1.522984377914821
 31
0.0
  0
LINE
  5
2B5
330
1F
100
AcDbEntity
  8
0-9
  6
Continuous
 62
     4
370
     9
100
AcDbLine
 10
42.72990833863451
 20
2.392978022246251
 30
0.0
 11
48.72983717022831
 21
2.392978022246251
 31
0.0
  0
LINE
  5
2B6
330
1F
100
AcDbEntity
  8
0-9
  6
Continuous
 62
     4
370
     9
100
AcDbLine
 10
48.72983717022831
 20
13.5229906817389
 30
0.0
 11
48.72983717022831
 21
2.392978022246251
 31
0.0
  0
LINE
  5
2B7
330
1F
100
AcDbEntity
  8
0-9
  6
Continuous
 62
     4
370
     9
100
AcDbLine
 10
47.85989307277571
 20
13.5229906817389
 30
0.0
 11
47.85989307277571
 21
1.522984377914821
 31
0.0
  0
LINE
  5
2B8
330
1F
100
AcDbEntity
  8
0-9
  6
Continuous
 62
     4
370
     9
100
AcDbLine
 10
43.59985243608713
 20
13.5229906817389
 30
0.0
 11
43.59985243608713
 21
1.522984377914821
 31
0.0
  0
LINE
  5
2B9
330
1F
100
AcDbEntity
  8
0-9
  6
Continuous
 62
     4
370
     9
100
AcDbLine
 10
42.72990833863451
 20
13.5229906817389
 30
0.0
 11
42.72990833863451
 21
2.392978022246251
 31
0.0
  0
LINE
  5
2BA
330
1F
100
AcDbEntity
  8
0-9
  6
Continuous
 62
     4
370
     9
100
AcDbLine
 10
50.54830671486364
 20
15.59727076146639
 30
0.0
 11
50.72984647867883
 21
13.5229906817389
 31
0.0
  0
LINE
  5
2BB
330
1F
100
AcDbEntity
  8
0-9
  6
Continuous
 62
     4
370
     9
100
AcDbLine
 10
42.90381788311895
 20
17.42297415040217
 30
0.0
 11
48.55602671950138
 21
17.42297415040216
 31
0.0
  0
LINE
  5
2BC
330
1F
100
AcDbEntity
  8
0-9
  6
Continuous
 62
     4
370
     9
100
AcDbLine
 10
40.729899030184
 20
13.5229906817389
 30
0.0
 11
50.72984647867883
 21
13.5229906817389
 31
0.0
  0
LINE
  5
2BD
330
1F
100
AcDbEntity
  8
0-9
  6
Continuous
 62
     4
370
     9
100
AcDbLine
 10
40.91143879399918
 20
15.59727076146639
 30
0.0
 11
40.729899030184
 21
13.5229906817389
 31
0.0
  0
LINE
  5
2BE
330
1F
100
AcDbEntity
  8
0-1_ピット
  6
Continuous
 62
     2
370
     9
100
AcDbLine
 10
34.4094018929449
 20
-0.4271312236137002
 30
0.0
 11
-72.9701049583103
 21
-0.4271312236136788
 31
0.0
  0
LINE
  5
2BF
330
1F
100
AcDbEntity
  8
0-1_ピット
  6
Continuous
 62
     2
370
     9
100
AcDbLine
 10
50.72992079899699
 20
0.811937120679243
 30
0.0
 11
51.72990067978279
 21
0.5622208516758027
 31
0.0
  0
LINE
  5
2C0
330
1F
100
AcDbEntity
  8
0-1_ピット
  6
Continuous
 62
     2
370
     9
100
AcDbLine
 10
53.72986044135454
 20
1.098119892457742
 30
0.0
 11
51.72990067978279
 21
0.5622208516758027
 31
0.0
  0
LINE
  5
2C1
330
1F
100
AcDbEntity
  8
0-1_ピット
  6
Continuous
 62
     2
370
     9
100
AcDbLine
 10
53.72986044135454
 20
1.098119892457742
 30
0.0
 11
54.72986509557978
 21
1.8837352022429
 31
0.0
  0
LINE
  5
2C2
330
1F
100
AcDbEntity
  8
0-1_ピット
  6
Continuous
 62
     2
370
     9
100
AcDbLine
 10
72.22992177108196
 20
6.572851809084149
 30
0.0
 11
54.72986509557978
 21
1.8837352022429
 31
0.0
  0
LINE
  5
2C3
330
1F
100
AcDbEntity
  8
0-1_ピット
  6
Continuous
 62
     2
370
     9
100
AcDbLine
 10
50.72992079899699
 20
0.811937120679243
 30
0.0
 11
33.04341921868131
 21
-3.927122739962627
 31
0.0
  0
LINE
  5
2C4
330
1F
100
AcDbEntity
  8
0-1_ピット
  6
Continuous
 62
     2
370
     9
100
AcDbLine
 10
-111.2701147557489
 20
0.8119371206792723
 30
0.0
 11
-112.2701194099742
 21
0.5622208516758294
 31
0.0
  0
LINE
  5
2C5
330
1F
100
AcDbEntity
  8
0-1_ピット
  6
Continuous
 62
     2
370
     9
100
AcDbLine
 10
-114.2700791715459
 20
1.098119892457771
 30
0.0
 11
-115.2700590523317
 21
1.88373520224293
 31
0.0
  0
LINE
  5
2C6
330
1F
100
AcDbEntity
  8
0-1_ピット
  6
Continuous
 62
     2
370
     9
100
AcDbLine
 10
-111.2701147557489
 20
0.8119371206792723
 30
0.0
 11
-93.5836131754333
 21
-3.927122739962603
 31
0.0
  0
LINE
  5
2C7
330
1F
100
AcDbEntity
  8
0-1_ピット
  6
JWW_HOJO
 62
     2
370
     9
100
AcDbLine
 10
-119.7153554687433
 20
16.13485439612641
 30
0.0
 11
-119.7701047697847
 21
16.57279925757901
 31
0.0
  0
LINE
  5
2C8
330
1F
100
AcDbEntity
  8
0-1_ピット
  6
JWW_HOJO
 62
     2
370
     9
100
AcDbLine
 10
-119.7701047697847
 20
16.57279925757901
 30
0.0
 11
-120.2114931393118
 21
16.57279925757901
 31
0.0
  0
LINE
  5
2C9
330
1F
100
AcDbEntity
  8
0-1_ピット
  6
Continuous
 62
     2
370
     9
100
AcDbLine
 10
-119.3248765171529
 20
13.01077504900935
 30
0.0
 11
-119.7153554687433
 21
16.13485439612641
 31
0.0
  0
LINE
  5
2CA
330
1F
100
AcDbEntity
  8
0-1_ピット
  6
JWW_HOJO
 62
     2
370
     9
100
AcDbLine
 10
-119.2701272161115
 20
12.57283018755681
 30
0.0
 11
-119.3248765171529
 21
13.01077504900935
 31
0.0
  0
LINE
  5
2CB
330
1F
100
AcDbEntity
  8
0-1_ピット
  6
JWW_HOJO
 62
     2
370
     9
100
AcDbLine
 10
-119.2701272161115
 20
12.57283018755681
 30
0.0
 11
-118.8287388465844
 21
12.57283018755681
 31
0.0
  0
LINE
  5
2CC
330
1F
100
AcDbEntity
  8
0-1_ピット
  6
JWW_HOJO
 62
     2
370
     9
100
AcDbLine
 10
-113.1242332796596
 20
11.74678462469485
 30
0.0
 11
-113.2701240641994
 21
12.57283018755681
 31
0.0
  0
LINE
  5
2CD
330
1F
100
AcDbEntity
  8
0-1_ピット
  6
Continuous
 62
     2
370
     9
100
AcDbLine
 10
-112.6481125481144
 20
9.051087591427587
 30
0.0
 11
-113.1242332796596
 21
11.74678462469485
 31
0.0
  0
LINE
  5
2CE
330
1F
100
AcDbEntity
  8
0-1_ピット
  6
JWW_HOJO
 62
     2
370
     9
100
AcDbLine
 10
-99.27010845192491
 20
6.572851809084181
 30
0.0
 11
-99.06431549095159
 21
5.315054744615917
 31
0.0
  0
LINE
  5
2CF
330
1F
100
AcDbEntity
  8
0-1_ピット
  6
JWW_HOJO
 62
     2
370
     9
100
AcDbLine
 10
-99.27010845192491
 20
6.572851809084181
 30
0.0
 11
-100.5445780410994
 21
6.572851809084181
 31
0.0
  0
LINE
  5
2D0
330
1F
100
AcDbEntity
  8
0-1_ピット
  6
Continuous
 62
     2
370
     9
100
AcDbLine
 10
-98.64445524025031
 20
2.749814643151534
 30
0.0
 11
-99.06429071751222
 21
5.31510429149473
 31
0.0
  0
LINE
  5
2D1
330
1F
100
AcDbEntity
  8
0-1_ピット
  6
Continuous
 62
     2
370
     9
100
AcDbLine
 10
-74.49981529347104
 20
1.072850984284804
 30
0.0
 11
-96.67070577754818
 21
1.072850984284806
 31
0.0
  0
LINE
  5
2D2
330
1F
100
AcDbEntity
  8
0-1_ピット
  6
Continuous
 62
     2
370
     9
100
AcDbLine
 10
-73.02894187685024
 20
-0.1330209512319067
 30
0.0
 11
-72.27010665504048
 21
-3.927122739962607
 31
0.0
  0
LINE
  5
2D3
330
1F
100
AcDbEntity
  8
0-1_ピット
  6
JWW_HOJO
 62
     2
370
     9
100
AcDbLine
 10
-73.27011130926572
 20
1.072850984284804
 30
0.0
 11
-73.02894187685024
 21
-0.1329218574743951
 31
0.0
  0
LINE
  5
2D4
330
1F
100
AcDbEntity
  8
0-1_ピット
  6
JWW_HOJO
 62
     2
370
     9
100
AcDbLine
 10
-73.27011130926572
 20
1.072850984284804
 30
0.0
 11
-74.49981529347104
 21
1.072850984284804
 31
0.0
  0
LINE
  5
2D5
330
1F
100
AcDbEntity
  8
0-1_ピット
  6
Continuous
 62
     2
370
     9
100
AcDbLine
 10
36.48241852726373
 20
0.1282892874036605
 30
0.0
 11
34.4094018929449
 21
-0.4271312236137002
 31
0.0
  0
LINE
  5
2D6
330
1F
100
AcDbEntity
  8
0-1_ピット
  6
JWW_HOJO
 62
     2
370
     9
100
AcDbLine
 10
37.72995938782644
 20
0.4625325315895878
 30
0.0
 11
37.93852697401091
 21
1.737175534839748
 31
0.0
  0
LINE
  5
2D7
330
1F
100
AcDbEntity
  8
0-1_ピット
  6
Continuous
 62
     2
370
     9
100
AcDbLine
 10
38.52407198732083
 20
5.315104291494704
 30
0.0
 11
37.93852697401091
 21
1.737175534839748
 31
0.0
  0
LINE
  5
2D8
330
1F
100
AcDbEntity
  8
0-1_ピット
  6
JWW_HOJO
 62
     2
370
     9
100
AcDbLine
 10
38.72988972173356
 20
6.572851809084154
 30
0.0
 11
40.00438408434739
 21
6.572851809084154
 31
0.0
  0
LINE
  5
2D9
330
1F
100
AcDbEntity
  8
0-1_ピット
  6
JWW_HOJO
 62
     2
370
     9
100
AcDbLine
 10
38.72988972173356
 20
6.572851809084154
 30
0.0
 11
38.52409676076024
 21
5.315054744615891
 31
0.0
  0
LINE
  5
2DA
330
1F
100
AcDbEntity
  8
0-1_ピット
  6
JWW_HOJO
 62
     2
370
     9
100
AcDbLine
 10
55.85225054036817
 20
11.71383595031243
 30
0.0
 11
55.72991929668374
 21
12.57283018755678
 31
0.0
  0
LINE
  5
2DB
330
1F
100
AcDbEntity
  8
0-1_ピット
  6
JWW_HOJO
 62
     2
370
     9
100
AcDbLine
 10
52.58403932290768
 20
11.74673507781601
 30
0.0
 11
52.72990533400807
 21
12.57283018755678
 31
0.0
  0
LINE
  5
2DC
330
1F
100
AcDbEntity
  8
0-1_ピット
  6
Continuous
 62
     2
370
     9
100
AcDbLine
 10
71.9109885124362
 20
8.486203626564965
 30
0.0
 11
72.22992177108196
 21
6.572851809084149
 31
0.0
  0
LINE
  5
2DD
330
1F
100
AcDbEntity
  8
0-1_ピット
  6
JWW_HOJO
 62
     2
370
     9
100
AcDbLine
 10
71.72984512365119
 20
9.572816224881116
 30
0.0
 11
71.9109885124362
 21
8.486203626564965
 31
0.0
  0
LINE
  5
2DE
330
1F
100
AcDbEntity
  8
0-1_ピット
  6
JWW_HOJO
 62
     2
370
     9
100
AcDbLine
 10
71.72984512365119
 20
9.572816224881116
 30
0.0
 11
70.66582590205448
 21
9.287723484435595
 31
0.0
  0
LINE
  5
2DF
330
1F
100
AcDbEntity
  8
0-1_ピット
  6
Continuous
 62
     2
370
     9
100
AcDbLine
 10
56.25253977395509
 20
8.90423064275175
 30
0.0
 11
55.85230008724692
 21
11.71388549719124
 31
0.0
  0
LINE
  5
2E0
330
1F
100
AcDbEntity
  8
0-1_ピット
  6
Continuous
 62
     2
370
     9
100
AcDbLine
 10
70.66582590205448
 20
9.287723484435595
 30
0.0
 11
59.99902701218733
 21
6.42956223567982
 31
0.0
  0
LINE
  5
2E1
330
1F
100
AcDbEntity
  8
0-1_ピット
  6
JWW_HOJO
 62
     2
370
     9
100
AcDbLine
 10
54.86225435565454
 20
12.57283018755678
 30
0.0
 11
55.72991929668374
 21
12.57283018755678
 31
0.0
  0
LINE
  5
2E2
330
1F
100
AcDbEntity
  8
0-1_ピット
  6
Continuous
 62
     2
370
     9
100
AcDbLine
 10
-114.2700791715459
 20
1.098119892457771
 30
0.0
 11
-112.2701194099742
 21
0.5622208516758294
 31
0.0
  0
LINE
  5
2E3
330
1F
100
AcDbEntity
  8
0-1_ピット
  6
Continuous
 62
     2
370
     9
100
AcDbLine
 10
52.10794336480181
 20
9.051087591427557
 30
0.0
 11
52.58403932290768
 21
11.74678462469482
 31
0.0
  0
LINE
  5
2E4
330
1F
100
AcDbEntity
  8
0-1_ピット
  6
JWW_HOJO
 62
     2
370
     9
100
AcDbLine
 10
25.52267371666596
 20
-1.152447981935279
 30
0.0
 11
25.72987876368426
 21
-0.4271312236136975
 31
0.0
  0
LINE
  5
2E5
330
1F
100
AcDbEntity
  8
0-1_ピット
  6
Continuous
 62
     2
370
     9
100
AcDbLine
 10
24.72987410945903
 20
-3.927122739962626
 30
0.0
 11
25.52267371666596
 21
-1.152447981935279
 31
0.0
  0
LINE
  5
2E6
330
1F
100
AcDbEntity
  8
0-1_ピット
  6
Continuous
 62
     2
370
     9
100
AcDbLine
 10
-79.5112591201538
 20
-0.1330209512319067
 30
0.0
 11
-80.27009434196361
 21
-3.927122739962606
 31
0.0
  0
LINE
  5
2E7
330
1F
100
AcDbEntity
  8
0-1_ピット
  6
JWW_HOJO
 62
     2
370
     9
100
AcDbLine
 10
-79.27008968773833
 20
1.072850984284806
 30
0.0
 11
-79.5112591201538
 21
-0.1330209512319067
 31
0.0
  0
LINE
  5
2E8
330
1F
100
AcDbEntity
  8
0-1_ピット
  6
JWW_HOJO
 62
     2
370
     9
100
AcDbLine
 10
-91.27012076500176
 20
1.072850984284806
 30
0.0
 11
-91.02897610602572
 21
-0.133020951231904
 31
0.0
  0
LINE
  5
2E9
330
1F
100
AcDbEntity
  8
0-1_ピット
  6
Continuous
 62
     2
370
     9
100
AcDbLine
 10
-91.02895133258632
 20
-0.133020951231904
 30
0.0
 11
-90.27011611077656
 21
-3.927122739962605
 31
0.0
  0
LINE
  5
2EA
330
1F
100
AcDbEntity
  8
0-1_ピット
  6
Continuous
 62
     2
370
     9
100
AcDbLine
 10
-133.7701203820592
 20
6.840801329475157
 30
0.0
 11
-115.2700590523317
 21
1.88373520224293
 31
0.0
  0
LINE
  5
2EB
330
1F
100
AcDbEntity
  8
0-1_ピット
  6
Continuous
 62
     2
370
     9
100
AcDbLine
 10
-132.3354657338197
 20
16.14897525657604
 30
0.0
 11
-133.7701203820592
 21
6.840801329475157
 31
0.0
  0
LINE
  5
2EC
330
1F
100
AcDbEntity
  8
0-1_ピット
  6
JWW_HOJO
 62
     2
370
     9
100
AcDbLine
 10
-132.2701134007214
 20
16.57279925757901
 30
0.0
 11
-131.8412851649626
 21
16.57279925757901
 31
0.0
  0
LINE
  5
2ED
330
1F
100
AcDbEntity
  8
0-1_ピット
  6
JWW_HOJO
 62
     2
370
     9
100
AcDbLine
 10
-132.2701134007214
 20
16.57279925757901
 30
0.0
 11
-132.3354657338197
 21
16.14897525657604
 31
0.0
  0
LINE
  5
2EE
330
1F
100
AcDbEntity
  8
0-1_ピット
  6
Continuous
 62
     2
370
     9
100
AcDbLine
 10
50.2521650204523
 20
12.57283018755678
 30
0.0
 11
54.86225435565454
 21
12.57283018755678
 31
0.0
  0
LINE
  5
2EF
330
1F
100
AcDbEntity
  8
0-1_ピット
  6
Continuous
 62
     2
370
     9
100
AcDbLine
 10
43.59985243608713
 20
6.572851809084154
 30
0.0
 11
40.00438408434739
 21
6.572851809084154
 31
0.0
  0
LINE
  5
2F0
330
1F
100
AcDbEntity
  8
0-1_ピット
  6
Continuous
 62
     2
370
     9
100
AcDbLine
 10
49.15366117123129
 20
6.572851809084154
 30
0.0
 11
47.85989307277571
 21
6.572851809084154
 31
0.0
  0
LINE
  5
2F1
330
1F
100
AcDbEntity
  8
0-1_ピット
  6
Continuous
 62
     2
370
     9
100
AcDbLine
 10
-110.7924332975225
 20
12.57283018755681
 30
0.0
 11
-118.8287388465844
 21
12.57283018755681
 31
0.0
  0
LINE
  5
2F2
330
1F
100
AcDbEntity
  8
0-1_ピット
  6
Continuous
 62
     2
370
     9
100
AcDbLine
 10
42.73000743239201
 20
2.39287892848874
 30
0.0
 11
42.73000743239201
 21
-1.33155994869067
 31
0.0
  0
LINE
  5
2F3
330
1F
100
AcDbEntity
  8
0-1_ピット
  6
Continuous
 62
     2
370
     9
100
AcDbLine
 10
43.60024881111729
 20
1.522588002884658
 30
0.0
 11
43.60024881111729
 21
-1.098392337196588
 31
0.0
  0
LINE
  5
2F4
330
1F
100
AcDbEntity
  8
0-1_ピット
  6
Continuous
 62
     2
370
     9
100
AcDbLine
 10
47.86009126029079
 20
1.523182565429959
 30
0.0
 11
47.86009126029079
 21
0.0429695621608461
 31
0.0
  0
LINE
  5
2F5
330
1F
100
AcDbEntity
  8
0-1_ピット
  6
Continuous
 62
     2
370
     9
100
AcDbLine
 10
48.7299362639859
 20
2.393077116003763
 30
0.0
 11
48.7299362639859
 21
0.2760380798974156
 31
0.0
  0
LINE
  5
2F6
330
1F
100
AcDbEntity
  8
0-A
  6
JWW_CENTER1
 62
     4
370
     9
100
AcDbLine
 10
-106.2702401252591
 20
19.75514573413018
 30
0.0
 11
-106.2702401252591
 21
-0.5279591219116808
 31
0.0
  0
LINE
  5
2F7
330
1F
100
AcDbEntity
  8
0-9
  6
Continuous
 62
     4
370
     9
100
AcDbLine
 10
-108.4001613498458
 20
1.522984377914851
 30
0.0
 11
-109.2701054472985
 21
2.392978022246281
 31
0.0
  0
LINE
  5
2F8
330
1F
100
AcDbEntity
  8
0-9
  6
Continuous
 62
     4
370
     9
100
AcDbLine
 10
-104.1401207131573
 20
1.522984377914848
 30
0.0
 11
-103.2701766157046
 21
2.392978022246278
 31
0.0
  0
LINE
  5
2F9
330
1F
100
AcDbEntity
  8
0-9
  6
Continuous
 62
     4
370
     9
100
AcDbLine
 10
-104.1401207131573
 20
1.522984377914848
 30
0.0
 11
-108.4001613498458
 21
1.522984377914851
 31
0.0
  0
LINE
  5
2FA
330
1F
100
AcDbEntity
  8
0-9
  6
Continuous
 62
     4
370
     9
100
AcDbLine
 10
-103.2701766157046
 20
2.392978022246278
 30
0.0
 11
-109.2701054472985
 21
2.392978022246281
 31
0.0
  0
LINE
  5
2FB
330
1F
100
AcDbEntity
  8
0-9
  6
Continuous
 62
     4
370
     9
100
AcDbLine
 10
-109.2701054472985
 20
13.52299068173893
 30
0.0
 11
-109.2701054472985
 21
2.392978022246281
 31
0.0
  0
LINE
  5
2FC
330
1F
100
AcDbEntity
  8
0-9
  6
Continuous
 62
     4
370
     9
100
AcDbLine
 10
-108.4001613498458
 20
13.52299068173893
 30
0.0
 11
-108.4001613498458
 21
1.522984377914851
 31
0.0
  0
LINE
  5
2FD
330
1F
100
AcDbEntity
  8
0-9
  6
Continuous
 62
     4
370
     9
100
AcDbLine
 10
-104.1401207131573
 20
13.52299068173893
 30
0.0
 11
-104.1401207131573
 21
1.522984377914848
 31
0.0
  0
LINE
  5
2FE
330
1F
100
AcDbEntity
  8
0-9
  6
Continuous
 62
     4
370
     9
100
AcDbLine
 10
-103.2701766157046
 20
13.52299068173893
 30
0.0
 11
-103.2701766157046
 21
2.392978022246278
 31
0.0
  0
LINE
  5
2FF
330
1F
100
AcDbEntity
  8
0-9
  6
Continuous
 62
     4
370
     9
100
AcDbLine
 10
-111.0885749919338
 20
15.59727076146642
 30
0.0
 11
-111.2701147557489
 21
13.52299068173893
 31
0.0
  0
LINE
  5
300
330
1F
100
AcDbEntity
  8
0-9
  6
Continuous
 62
     4
370
     9
100
AcDbLine
 10
-103.4440861601891
 20
17.42297415040219
 30
0.0
 11
-109.0962949965715
 21
17.42297415040219
 31
0.0
  0
LINE
  5
301
330
1F
100
AcDbEntity
  8
0-9
  6
Continuous
 62
     4
370
     9
100
AcDbLine
 10
-101.4517070710693
 20
15.59727076146641
 30
0.0
 11
-101.2701673072542
 21
13.52299068173893
 31
0.0
  0
LINE
  5
302
330
1F
100
AcDbEntity
  8
0-1_ピット
  6
Continuous
 62
     2
370
     9
100
AcDbLine
 10
-103.2702757094622
 20
2.392878928488766
 30
0.0
 11
-103.2702757094622
 21
-1.331559948690643
 31
0.0
  0
LINE
  5
303
330
1F
100
AcDbEntity
  8
0-1_ピット
  6
Continuous
 62
     2
370
     9
100
AcDbLine
 10
-104.1405170881875
 20
1.522588002884684
 30
0.0
 11
-104.1405170881875
 21
-1.098392337196562
 31
0.0
  0
LINE
  5
304
330
1F
100
AcDbEntity
  8
0-1_ピット
  6
Continuous
 62
     2
370
     9
100
AcDbLine
 10
-108.4003595373609
 20
1.523182565429988
 30
0.0
 11
-108.4003595373609
 21
0.0429695621608754
 31
0.0
  0
LINE
  5
305
330
1F
100
AcDbEntity
  8
0-1_ピット
  6
Continuous
 62
     2
370
     9
100
AcDbLine
 10
-109.270204541056
 20
2.393077116003792
 30
0.0
 11
-109.270204541056
 21
0.2760380798974449
 31
0.0
  0
LINE
  5
306
330
1F
100
AcDbEntity
  8
0-1_ピット
  6
Continuous
 62
     2
370
     9
100
AcDbLine
 10
-100.5445780410994
 20
6.572851809084181
 30
0.0
 11
-104.1401207131573
 21
6.572851809084181
 31
0.0
  0
LINE
  5
307
330
1F
100
AcDbEntity
  8
0-1_ピット
  6
Continuous
 62
     2
370
     9
100
AcDbLine
 10
-108.4001613498458
 20
6.572851809084181
 30
0.0
 11
-109.6938551279833
 21
6.572851809084181
 31
0.0
  0
LINE
  5
308
330
1F
100
AcDbEntity
  8
0-A
  6
Continuous
 62
     4
370
     9
100
AcDbLine
 10
-81.2701237696282
 20
-17.10718705546394
 30
0.0
 11
-89.27006190967256
 21
-17.10718705546394
 31
0.0
  0
LINE
  5
309
330
1F
100
AcDbEntity
  8
0-A
  6
Continuous
 62
     4
370
     9
100
AcDbLine
 10
-89.27006190967256
 20
-17.10718705546394
 30
0.0
 11
-88.59364792069755
 21
-17.78365059131777
 31
0.0
  0
LINE
  5
30A
330
1F
100
AcDbEntity
  8
0-A
  6
Continuous
 62
     4
370
     9
100
AcDbLine
 10
-88.59364792069755
 20
-17.78365059131777
 30
0.0
 11
-81.94663685236078
 21
-17.78365059131777
 31
0.0
  0
LINE
  5
30B
330
1F
100
AcDbEntity
  8
0-A
  6
Continuous
 62
     4
370
     9
100
AcDbLine
 10
-81.94663685236078
 20
-17.78365059131777
 30
0.0
 11
-81.2701237696282
 21
-17.10718705546394
 31
0.0
  0
LINE
  5
30C
330
1F
100
AcDbEntity
  8
0-A
  6
Continuous
 62
     4
370
     9
100
AcDbLine
 10
-77.77013225327926
 20
5.651775332740336
 30
0.0
 11
-77.77013225327926
 21
1.073495093708806
 31
0.0
  0
LINE
  5
30D
330
1F
100
AcDbEntity
  8
0-A
  6
Continuous
 62
     4
370
     9
100
AcDbLine
 10
-89.01737282794296
 20
5.651775332740336
 30
0.0
 11
-89.01737282794296
 21
1.073495093708809
 31
0.0
  0
LINE
  5
30E
330
1F
100
AcDbEntity
  8
0-A
  6
Continuous
 62
     4
370
     9
100
AcDbLine
 10
-81.52291194511537
 20
5.651775332740336
 30
0.0
 11
-81.52291194511537
 21
1.073495093708806
 31
0.0
  0
LINE
  5
30F
330
1F
100
AcDbEntity
  8
0-A
  6
Continuous
 62
     4
370
     9
100
AcDbLine
 10
-90.89371312698222
 20
6.373524715790447
 30
0.0
 11
-79.6465716460761
 21
6.373524715790444
 31
0.0
  0
LINE
  5
310
330
1F
100
AcDbEntity
  8
0-A
  6
Continuous
 62
     4
370
     9
100
AcDbLine
 10
-89.27006190967256
 20
21.54051796374677
 30
0.0
 11
-81.2701237696282
 21
21.54051796374677
 31
0.0
  0
LINE
  5
311
330
1F
100
AcDbEntity
  8
0-A
  6
Continuous
 62
     4
370
     9
100
AcDbLine
 10
-81.2701237696282
 20
21.54051796374677
 30
0.0
 11
-81.94663685236078
 21
22.21643648393411
 31
0.0
  0
LINE
  5
312
330
1F
100
AcDbEntity
  8
0-A
  6
Continuous
 62
     4
370
     9
100
AcDbLine
 10
-88.59364792069755
 20
22.21643648393411
 30
0.0
 11
-89.27006190967256
 21
21.54051796374677
 31
0.0
  0
LINE
  5
313
330
1F
100
AcDbEntity
  8
0-A
  6
Continuous
 62
     4
370
     9
100
AcDbLine
 10
-81.2701237696282
 20
21.54051796374677
 30
0.0
 11
-81.2701237696282
 21
6.372880606366444
 31
0.0
  0
LINE
  5
314
330
1F
100
AcDbEntity
  8
0-A
  6
Continuous
 62
     4
370
     9
100
AcDbLine
 10
-81.94663685236078
 20
22.21643648393411
 30
0.0
 11
-81.94663685236078
 21
6.372880606366444
 31
0.0
  0
LINE
  5
315
330
1F
100
AcDbEntity
  8
0-A
  6
Continuous
 62
     4
370
     9
100
AcDbLine
 10
-88.59364792069755
 20
22.21643648393411
 30
0.0
 11
-88.59364792069755
 21
6.372880606366444
 31
0.0
  0
LINE
  5
316
330
1F
100
AcDbEntity
  8
0-A
  6
Continuous
 62
     4
370
     9
100
AcDbLine
 10
-81.2701237696282
 20
1.072850984284806
 30
0.0
 11
-81.2701237696282
 21
-17.10718705546394
 31
0.0
  0
LINE
  5
317
330
1F
100
AcDbEntity
  8
0-A
  6
Continuous
 62
     4
370
     9
100
AcDbLine
 10
-81.94663685236078
 20
1.072850984284806
 30
0.0
 11
-81.94663685236078
 21
-17.78365059131777
 31
0.0
  0
LINE
  5
318
330
1F
100
AcDbEntity
  8
0-A
  6
Continuous
 62
     4
370
     9
100
AcDbLine
 10
-88.59364792069755
 20
1.072850984284806
 30
0.0
 11
-88.59364792069755
 21
-17.81283370291355
 31
0.0
  0
LINE
  5
319
330
1F
100
AcDbEntity
  8
0-A
  6
Continuous
 62
     4
370
     9
100
AcDbLine
 10
-89.27006190967256
 20
1.072850984284806
 30
0.0
 11
-89.27006190967256
 21
-17.10718705546394
 31
0.0
  0
LINE
  5
31A
330
1F
100
AcDbEntity
  8
0-A
  6
JWW_CENTER1
 62
     4
370
     9
100
AcDbLine
 10
-85.27014238652914
 20
23.43727157683952
 30
0.0
 11
-85.27014238652914
 21
-21.76380090983178
 31
0.0
  0
LINE
  5
31B
330
1F
100
AcDbEntity
  8
0-A
  6
Continuous
 62
     4
370
     9
100
AcDbLine
 10
-92.770152519779
 20
5.651775332740338
 30
0.0
 11
-92.770152519779
 21
1.073495093708809
 31
0.0
  0
LINE
  5
31C
330
1F
100
AcDbEntity
  8
0-A
  6
Continuous
 62
     4
370
     9
100
AcDbLine
 10
-88.59364792069755
 20
22.21643648393411
 30
0.0
 11
-81.94663685236078
 21
22.21643648393411
 31
0.0
  0
LINE
  5
31D
330
1F
100
AcDbEntity
  8
0-A
  6
Continuous
 62
     4
370
     9
100
AcDbLine
 10
-77.77013225327926
 20
1.073495093708806
 30
0.0
 11
-92.770152519779
 21
1.073495093708809
 31
0.0
  0
LINE
  5
31E
330
1F
100
AcDbEntity
  8
0-A
  6
Continuous
 62
     4
370
     9
100
AcDbLine
 10
-89.27006190967256
 20
21.54051796374677
 30
0.0
 11
-89.27006190967256
 21
6.372880606366444
 31
0.0
  0
LINE
  5
31F
330
1F
100
AcDbEntity
  8
0-1_ピット
  6
Continuous
 62
     2
370
     9
100
AcDbLine
 10
-81.2701237696282
 20
-3.927122739962606
 30
0.0
 11
33.04341921868131
 21
-3.927122739962627
 31
0.0
  0
LINE
  5
320
330
1F
100
AcDbEntity
  8
0-1_ピット
  6
Continuous
 62
     2
370
     9
100
AcDbLine
 10
-93.5836131754333
 20
-3.927122739962603
 30
0.0
 11
-89.27006190967256
 21
-3.927122739962605
 31
0.0
  0
LINE
  5
321
330
1F
100
AcDbEntity
  8
0-1_ピット
  6
JWW_PHANTOM1
 62
     2
370
     9
100
AcDbLine
 10
-132.4512567895064
 20
8.486203626565002
 30
0.0
 11
-132.7701900481521
 21
6.572851809084186
 31
0.0
  0
LINE
  5
322
330
1F
100
AcDbEntity
  8
0-1_ピット
  6
JWW_PHANTOM1
 62
     2
370
     9
100
AcDbLine
 10
-131.2060941791246
 20
9.287723484435631
 30
0.0
 11
-120.5392952892575
 21
6.429562235679852
 31
0.0
  0
LINE
  5
323
330
1F
100
AcDbEntity
  8
0-1_ピット
  6
Continuous
 62
     2
370
     9
100
AcDbLine
 10
-125.7702070154542
 20
7.840657343064053
 30
0.0
 11
-122.7701435058998
 21
9.572717131123522
 31
0.0
  0
LINE
  5
324
330
1F
100
AcDbEntity
  8
0-1_ピット
  6
Continuous
 62
     2
370
     9
100
AcDbLine
 10
-122.7701435058998
 20
10.57272178534886
 30
0.0
 11
-122.7701435058998
 21
9.572717131123522
 31
0.0
  0
LINE
  5
325
330
1F
100
AcDbEntity
  8
0-1_ピット
  6
Continuous
 62
     2
370
     9
100
AcDbLine
 10
-128.7701714312512
 20
10.57272178534886
 30
0.0
 11
-128.7701714312512
 21
9.572717131123529
 31
0.0
  0
LINE
  5
326
330
1F
100
AcDbEntity
  8
0-1_ピット
  6
Continuous
 62
     2
370
     9
100
AcDbLine
 10
-122.7701435058998
 20
9.572717131123522
 30
0.0
 11
-128.7701714312512
 21
9.572717131123529
 31
0.0
  0
LINE
  5
327
330
1F
100
AcDbEntity
  8
0-1_ピット
  6
Continuous
 62
     2
370
     9
100
AcDbLine
 10
-125.7702070154542
 20
7.840657343064053
 30
0.0
 11
-128.7701714312512
 21
9.572717131123529
 31
0.0
  0
LINE
  5
328
330
1F
100
AcDbEntity
  8
0-B
  6
Continuous
 62
     6
370
     5
100
AcDbLine
 10
-133.2702171487041
 20
27.85105617835298
 30
0.0
 11
-133.2702171487041
 21
22.07275053549962
 31
0.0
  0
LINE
  5
329
330
1F
100
AcDbEntity
  8
0-B
  6
Continuous
 62
     6
370
     5
100
AcDbLine
 10
-118.2700977884468
 20
27.85105617835297
 30
0.0
 11
-118.2700977884468
 21
22.07275053549962
 31
0.0
  0
LINE
  5
32A
330
1F
100
AcDbEntity
  8
0-B
  6
Continuous
 62
     6
370
     5
100
AcDbLine
 10
-129.517437456868
 20
27.85105617835298
 30
0.0
 11
-129.517437456868
 21
22.07275053549962
 31
0.0
  0
LINE
  5
32B
330
1F
100
AcDbEntity
  8
0-B
  6
Continuous
 62
     6
370
     5
100
AcDbLine
 10
-122.0229765740405
 20
27.85105617835297
 30
0.0
 11
-122.0229765740405
 21
22.07275053549962
 31
0.0
  0
LINE
  5
32C
330
1F
100
AcDbEntity
  8
0-B
  6
Continuous
 62
     6
370
     5
100
AcDbLine
 10
-131.3937777559073
 20
28.57270646764552
 30
0.0
 11
-120.1466362750012
 21
28.57270646764552
 31
0.0
  0
LINE
  5
32D
330
1F
100
AcDbEntity
  8
0-B
  6
Continuous
 62
     6
370
     5
100
AcDbLine
 10
-121.7701883985533
 20
59.8960945857266
 30
0.0
 11
-129.7701265385977
 21
59.8960945857266
 31
0.0
  0
LINE
  5
32E
330
1F
100
AcDbEntity
  8
0-B
  6
Continuous
 62
     6
370
     5
100
AcDbLine
 10
-129.7701265385977
 20
59.8960945857266
 30
0.0
 11
-129.0937125496226
 21
60.5727067622167
 31
0.0
  0
LINE
  5
32F
330
1F
100
AcDbEntity
  8
0-B
  6
Continuous
 62
     6
370
     5
100
AcDbLine
 10
-129.0937125496226
 20
60.5727067622167
 30
0.0
 11
-122.4466023875283
 21
60.5727067622167
 31
0.0
  0
LINE
  5
330
330
1F
100
AcDbEntity
  8
0-B
  6
Continuous
 62
     6
370
     5
100
AcDbLine
 10
-122.4466023875283
 20
60.5727067622167
 30
0.0
 11
-121.7701883985533
 21
59.8960945857266
 31
0.0
  0
LINE
  5
331
330
1F
100
AcDbEntity
  8
0-B
  6
Continuous
 62
     6
370
     5
100
AcDbLine
 10
-122.4371884805619
 20
10.57272178534886
 30
0.0
 11
-121.7701883985533
 21
11.23972186735746
 31
0.0
  0
LINE
  5
332
330
1F
100
AcDbEntity
  8
0-B
  6
Continuous
 62
     6
370
     5
100
AcDbLine
 10
-129.1031264565891
 20
10.57272178534886
 30
0.0
 11
-122.4371884805619
 21
10.57272178534886
 31
0.0
  0
LINE
  5
333
330
1F
100
AcDbEntity
  8
0-B
  6
Continuous
 62
     6
370
     5
100
AcDbLine
 10
-129.1031264565891
 20
10.57272178534886
 30
0.0
 11
-129.7701265385977
 21
11.23972186735746
 31
0.0
  0
LINE
  5
334
330
1F
100
AcDbEntity
  8
0-B
  6
Continuous
 62
     6
370
     5
100
AcDbLine
 10
-129.7701265385977
 20
11.23972186735746
 30
0.0
 11
-121.7701883985533
 21
11.23972186735746
 31
0.0
  0
LINE
  5
335
330
1F
100
AcDbEntity
  8
0-B
  6
Continuous
 62
     6
370
     5
100
AcDbLine
 10
-122.4371884805619
 20
60.5727067622167
 30
0.0
 11
-122.4371884805619
 21
28.57270646764552
 31
0.0
  0
LINE
  5
336
330
1F
100
AcDbEntity
  8
0-B
  6
Continuous
 62
     6
370
     5
100
AcDbLine
 10
-122.4371884805619
 20
22.07275053549962
 30
0.0
 11
-122.4371884805619
 21
10.57272178534886
 31
0.0
  0
LINE
  5
337
330
1F
100
AcDbEntity
  8
0-B
  6
Continuous
 62
     6
370
     5
100
AcDbLine
 10
-121.7701883985533
 20
59.8960945857266
 30
0.0
 11
-121.7701883985533
 21
28.57270646764552
 31
0.0
  0
LINE
  5
338
330
1F
100
AcDbEntity
  8
0-B
  6
Continuous
 62
     6
370
     5
100
AcDbLine
 10
-121.7701883985533
 20
22.07275053549962
 30
0.0
 11
-121.7701883985533
 21
11.23972186735746
 31
0.0
  0
LINE
  5
339
330
1F
100
AcDbEntity
  8
0-B
  6
Continuous
 62
     6
370
     5
100
AcDbLine
 10
-129.1031264565891
 20
60.5727067622167
 30
0.0
 11
-129.1031264565891
 21
28.57270646764552
 31
0.0
  0
LINE
  5
33A
330
1F
100
AcDbEntity
  8
0-B
  6
Continuous
 62
     6
370
     5
100
AcDbLine
 10
-129.1031264565891
 20
22.07275053549962
 30
0.0
 11
-129.1031264565891
 21
10.57272178534886
 31
0.0
  0
LINE
  5
33B
330
1F
100
AcDbEntity
  8
0-B
  6
Continuous
 62
     6
370
     5
100
AcDbLine
 10
-129.7701265385977
 20
59.8960945857266
 30
0.0
 11
-129.7701265385977
 21
28.57270646764552
 31
0.0
  0
LINE
  5
33C
330
1F
100
AcDbEntity
  8
0-B
  6
Continuous
 62
     6
370
     5
100
AcDbLine
 10
-129.7701265385977
 20
22.07275053549962
 30
0.0
 11
-129.7701265385977
 21
11.23972186735746
 31
0.0
  0
LINE
  5
33D
330
1F
100
AcDbEntity
  8
0-B
  6
JWW_CENTER1
 62
     6
370
     5
100
AcDbLine
 10
-125.7702070154542
 20
62.8010280880417
 30
0.0
 11
-125.7702070154542
 21
7.194120121987639
 31
0.0
  0
LINE
  5
33E
330
1F
100
AcDbEntity
  8
0-B
  6
Continuous
 62
     6
370
     5
100
AcDbLine
 10
-121.5220080827918
 20
22.07275053549962
 30
0.0
 11
-118.2700977884468
 21
22.07275053549962
 31
0.0
  0
LINE
  5
33F
330
1F
100
AcDbEntity
  8
0-1_ピット
  6
Continuous
 62
     2
370
     9
100
AcDbLine
 10
-122.4371884805619
 20
16.57279925757901
 30
0.0
 11
-120.2114931393118
 21
16.57279925757901
 31
0.0
  0
LINE
  5
340
330
1F
100
AcDbEntity
  8
0-1_ピット
  6
Continuous
 62
     2
370
     9
100
AcDbLine
 10
-131.8412851649626
 20
16.57279925757901
 30
0.0
 11
-129.1031264565891
 21
16.57279925757901
 31
0.0
  0
LINE
  5
341
330
1F
100
AcDbEntity
  8
0-A
  6
JWW_PHANTOM1
 62
     4
370
     9
100
AcDbLine
 10
-87.20450208060868
 20
66.7248931522724
 30
0.0
 11
-88.1497574337925
 21
65.93719687357878
 31
0.0
  0
LINE
  5
342
330
1F
100
AcDbEntity
  8
0-A
  6
JWW_PHANTOM1
 62
     4
370
     9
100
AcDbLine
 10
-86.81892827001656
 20
70.96744374075496
 30
0.0
 11
-87.6066740955889
 21
71.91260000018121
 31
0.0
  0
LINE
  5
343
330
1F
100
AcDbEntity
  8
0-A
  6
JWW_PHANTOM1
 62
     4
370
     9
100
AcDbLine
 10
-86.81892827001656
 20
70.96744374075496
 30
0.0
 11
-87.20450208060868
 21
66.7248931522724
 31
0.0
  0
LINE
  5
344
330
1F
100
AcDbEntity
  8
0-A
  6
JWW_PHANTOM1
 62
     4
370
     9
100
AcDbLine
 10
-87.6066740955889
 20
71.91260000018121
 30
0.0
 11
-88.1497574337925
 21
65.93719687357878
 31
0.0
  0
LINE
  5
345
330
1F
100
AcDbEntity
  8
0-A
  6
JWW_PHANTOM1
 62
     4
370
     9
100
AcDbLine
 10
-99.23403832417993
 20
66.94458401274079
 30
0.0
 11
-88.1497574337925
 21
65.93719687357878
 31
0.0
  0
LINE
  5
346
330
1F
100
AcDbEntity
  8
0-A
  6
JWW_PHANTOM1
 62
     4
370
     9
100
AcDbLine
 10
-99.15530833381364
 20
67.8110598286795
 30
0.0
 11
-87.20450208060868
 21
66.7248931522724
 31
0.0
  0
LINE
  5
347
330
1F
100
AcDbEntity
  8
0-A
  6
JWW_PHANTOM1
 62
     4
370
     9
100
AcDbLine
 10
-98.76973452322152
 20
72.05356087028332
 30
0.0
 11
-86.81892827001656
 21
70.96744374075496
 31
0.0
  0
LINE
  5
348
330
1F
100
AcDbEntity
  8
0-A
  6
JWW_PHANTOM1
 62
     4
370
     9
100
AcDbLine
 10
-98.6909549859764
 20
72.91993759246452
 30
0.0
 11
-87.6066740955889
 21
71.91260000018121
 31
0.0
  0
LINE
  5
349
330
1F
100
AcDbEntity
  8
0-A
  6
JWW_PHANTOM1
 62
     4
370
     9
100
AcDbLine
 10
-101.4644406189133
 20
65.32127962358256
 30
0.0
 11
-99.4150826192074
 21
64.95279948616628
 31
0.0
  0
LINE
  5
34A
330
1F
100
AcDbEntity
  8
0-A
  6
JWW_PHANTOM1
 62
     4
370
     9
100
AcDbLine
 10
-102.5906907202458
 20
73.09984230928025
 30
0.0
 11
-103.1022622435514
 21
67.47077186528367
 31
0.0
  0
LINE
  5
34B
330
1F
100
AcDbEntity
  8
0-A
  6
JWW_PHANTOM1
 62
     4
370
     9
100
AcDbLine
 10
-98.50996023782771
 20
74.91177166591785
 30
0.0
 11
-99.4150826192074
 21
64.95279948616628
 31
0.0
  0
LINE
  5
34C
330
1F
100
AcDbEntity
  8
0-A
  6
JWW_PHANTOM1
 62
     4
370
     9
100
AcDbLine
 10
-100.5921678181585
 20
74.91870822894572
 30
0.0
 11
-98.50996023782771
 21
74.91177166591785
 31
0.0
  0
LINE
  5
34D
330
1F
100
AcDbEntity
  8
0-A
  6
JWW_PHANTOM1
 62
     4
370
     9
100
AcDbLine
 10
-104.9827149335286
 20
70.47940698486543
 30
0.0
 11
-84.9548260500336
 21
68.65915375259436
 31
0.0
  0
LINE
  5
34E
330
1F
100
AcDbEntity
  8
0-9
  6
Continuous
 62
     4
370
     9
100
AcDbLine
 10
-101.2701673072542
 20
13.52299068173893
 30
0.0
 11
-111.2701147557489
 21
13.52299068173893
 31
0.0
  0
LINE
  5
34F
330
1F
100
AcDbEntity
  8
0-2_本体（蓋）
  6
Continuous
 62
     6
370
     5
100
AcDbLine
 10
50.72984647867883
 20
12.07280308700482
 30
0.0
 11
49.72984182445359
 21
13.0728572881088
 31
0.0
  0
LINE
  5
350
330
1F
100
AcDbEntity
  8
0-2_本体（蓋）
  6
Continuous
 62
     6
370
     5
100
AcDbLine
 10
-93.43400637498574
 20
69.57284774400136
 30
0.0
 11
-95.079433445515
 21
68.07281598922413
 31
0.0
  0
LINE
  5
351
330
1F
100
AcDbEntity
  8
0-2_本体（蓋）
  6
Continuous
 62
     6
370
     5
100
AcDbLine
 10
-92.78516522404647
 20
76.57283077669922
 30
0.0
 11
-93.43400637498574
 21
69.57284774400136
 31
0.0
  0
LINE
  5
352
330
1F
100
AcDbEntity
  8
0-2_本体（蓋）
  6
Continuous
 62
     6
370
     5
100
AcDbLine
 10
49.87912657018915
 20
7.393893137190314
 30
0.0
 11
50.72984647867883
 21
12.07280308700482
 31
0.0
  0
LINE
  5
353
330
1F
100
AcDbEntity
  8
0-2_本体（蓋）
  6
Continuous
 62
     6
370
     5
100
AcDbLine
 10
34.96576379465903
 20
9.295948266311413
 30
0.0
 11
28.72984317948118
 21
76.5728307766992
 31
0.0
  0
LINE
  5
354
330
1F
100
AcDbEntity
  8
0-2_本体（蓋）
  6
Continuous
 62
     6
370
     5
100
AcDbLine
 10
-93.38000027712586
 20
76.57283077669922
 30
0.0
 11
32.83968245317698
 21
76.5728307766992
 31
0.0
  0
LINE
  5
355
330
1F
100
AcDbEntity
  8
0-2_本体（蓋）
  6
Continuous
 62
     6
370
     5
100
AcDbLine
 10
41.72980459065171
 20
12.4802270711347
 30
0.0
 11
40.22977283587447
 21
6.572851809084154
 31
0.0
  0
LINE
  5
356
330
1F
100
AcDbEntity
  8
0-2_本体（蓋）
  6
Continuous
 62
     6
370
     5
100
AcDbLine
 10
40.7297999364265
 20
13.48023172535993
 30
0.0
 11
41.72980459065171
 21
12.4802270711347
 31
0.0
  0
LINE
  5
357
330
1F
100
AcDbEntity
  8
0-2_本体（蓋）
  6
Continuous
 62
     6
370
     5
100
AcDbLine
 10
33.83542607582797
 20
75.66513195762347
 30
0.0
 11
39.51426635954952
 21
14.39892995152279
 31
0.0
  0
LINE
  5
358
330
1F
100
AcDbEntity
  8
0-2_本体（蓋）
  6
JWW_DASHED1
 62
     6
370
     5
100
AcDbLine
 10
-92.97777871526687
 20
36.57284279520492
 30
0.0
 11
-98.09190844820154
 21
35.57288768785845
 31
0.0
  0
LINE
  5
359
330
1F
100
AcDbEntity
  8
0-2_本体（蓋）
  6
JWW_DASHED1
 62
     6
370
     5
100
AcDbLine
 10
32.43751043819673
 20
36.57284279520489
 30
0.0
 11
37.55161539769198
 21
35.57288768785843
 31
0.0
  0
LINE
  5
35A
330
1F
100
AcDbEntity
  8
0-2_本体（蓋）
  6
Continuous
 62
     6
370
     5
100
AcDbLine
 10
49.72984182445359
 20
13.0728572881088
 30
0.0
 11
48.72973807647082
 21
13.11814313530503
 31
0.0
  0
LINE
  5
35B
330
1F
100
AcDbEntity
  8
0-2_本体（蓋）
  6
Continuous
 62
     6
370
     5
100
AcDbLine
 10
42.72975969799818
 20
13.38966003096742
 30
0.0
 11
40.46482322876175
 21
13.49222207002241
 31
0.0
  0
LINE
  5
35C
330
1F
100
AcDbEntity
  8
0-2_本体（蓋）
  6
JWW_PHANTOM1
 62
     6
370
     5
100
AcDbLine
 10
-89.27013622999073
 20
76.57283077669922
 30
0.0
 11
-89.68514088657253
 21
49.57285375325422
 31
0.0
  0
LINE
  5
35D
330
1F
100
AcDbEntity
  8
0-2_本体（蓋）
  6
JWW_PHANTOM1
 62
     6
370
     5
100
AcDbLine
 10
-90.86121037450874
 20
49.57285375325422
 30
0.0
 11
-89.68514088657253
 21
49.57285375325422
 31
0.0
  0
LINE
  5
35E
330
1F
100
AcDbEntity
  8
0-2_本体（蓋）
  6
JWW_PHANTOM1
 62
     6
370
     5
100
AcDbLine
 10
28.72984317948118
 20
76.5728307766992
 30
0.0
 11
29.14489738294179
 21
49.57285375325419
 31
0.0
  0
LINE
  5
35F
330
1F
100
AcDbEntity
  8
0-2_本体（蓋）
  6
JWW_PHANTOM1
 62
     6
370
     5
100
AcDbLine
 10
30.32094209743865
 20
49.57285375325419
 30
0.0
 11
29.14489738294179
 21
49.57285375325419
 31
0.0
  0
LINE
  5
360
330
1F
100
AcDbEntity
  8
0-2_本体（蓋）
  6
Continuous
 62
     6
370
     5
100
AcDbLine
 10
-111.2700899823096
 20
12.07280308700485
 30
0.0
 11
-110.2700605546449
 21
13.07285728810884
 31
0.0
  0
LINE
  5
361
330
1F
100
AcDbEntity
  8
0-2_本体（蓋）
  6
Continuous
 62
     6
370
     5
100
AcDbLine
 10
-110.4193453003805
 20
7.393893137190344
 30
0.0
 11
-111.2700899823096
 21
12.07280308700485
 31
0.0
  0
LINE
  5
362
330
1F
100
AcDbEntity
  8
0-2_本体（蓋）
  6
Continuous
 62
     6
370
     5
100
AcDbLine
 10
-102.2700728677219
 20
12.48022707113473
 30
0.0
 11
-100.7700411129446
 21
6.572851809084181
 31
0.0
  0
LINE
  5
363
330
1F
100
AcDbEntity
  8
0-2_本体（蓋）
  6
Continuous
 62
     6
370
     5
100
AcDbLine
 10
-101.2700434400573
 20
13.48023172535995
 30
0.0
 11
-102.2700728677219
 21
12.48022707113473
 31
0.0
  0
LINE
  5
364
330
1F
100
AcDbEntity
  8
0-2_本体（蓋）
  6
Continuous
 62
     6
370
     5
100
AcDbLine
 10
-110.2700605546449
 20
13.07285728810884
 30
0.0
 11
-109.2699815801016
 21
13.11814313530506
 31
0.0
  0
LINE
  5
365
330
1F
100
AcDbEntity
  8
0-2_本体（蓋）
  6
Continuous
 62
     6
370
     5
100
AcDbLine
 10
-103.2700032016289
 20
13.38966003096744
 30
0.0
 11
-101.0050667323925
 21
13.49222207002243
 31
0.0
  0
LINE
  5
366
330
1F
100
AcDbEntity
  8
0-2_本体（蓋）
  6
Continuous
 62
     6
370
     5
100
AcDbLine
 10
-94.3757686732162
 20
75.6651319576235
 30
0.0
 11
-100.0545346366196
 21
14.39892995152281
 31
0.0
  0
LINE
  5
367
330
1F
100
AcDbEntity
  8
0-2_本体（蓋）
  6
Continuous
 62
     6
370
     5
100
AcDbLine
 10
-89.27013622999073
 20
76.57283077669922
 30
0.0
 11
-95.50608161860795
 21
9.295948266311438
 31
0.0
  0
LINE
  5
368
330
1F
100
AcDbEntity
  8
0-2_本体（蓋）
  6
Continuous
 62
     6
370
     5
100
AcDbLine
 10
-81.2701237696282
 20
6.572851809084178
 30
0.0
 11
40.00438408434739
 21
6.572851809084154
 31
0.0
  0
LINE
  5
369
330
1F
100
AcDbEntity
  8
0-2_本体（蓋）
  6
Continuous
 62
     6
370
     5
100
AcDbLine
 10
-100.5445780410994
 20
6.572851809084181
 30
0.0
 11
-89.27006190967256
 21
6.572851809084178
 31
0.0
  0
LINE
  5
36A
330
1F
100
AcDbEntity
  8
0-A
  6
JWW_PHANTOM1
 62
     4
370
     9
100
AcDbLine
 10
-89.27006190967256
 20
11.54052096837319
 30
0.0
 11
-81.2701237696282
 21
11.54052096837319
 31
0.0
  0
LINE
  5
36B
330
1F
100
AcDbEntity
  8
0-A
  6
JWW_PHANTOM1
 62
     4
370
     9
100
AcDbLine
 10
-81.2701237696282
 20
11.54052096837319
 30
0.0
 11
-81.94663685236078
 21
12.21643948856053
 31
0.0
  0
LINE
  5
36C
330
1F
100
AcDbEntity
  8
0-A
  6
JWW_PHANTOM1
 62
     4
370
     9
100
AcDbLine
 10
-88.59364792069755
 20
12.21643948856053
 30
0.0
 11
-89.27006190967256
 21
11.54052096837319
 31
0.0
  0
LINE
  5
36D
330
1F
100
AcDbEntity
  8
0-A
  6
JWW_PHANTOM1
 62
     4
370
     9
100
AcDbLine
 10
-88.59364792069755
 20
12.21643948856053
 30
0.0
 11
-81.94663685236078
 21
12.21643948856053
 31
0.0
  0
LINE
  5
36E
330
1F
100
AcDbEntity
  8
0-0_通り芯
  6
Continuous
 62
     3
370
     9
100
AcDbLine
 10
-75.77002385107126
 20
-22.58722048811881
 30
0.0
 11
-70.38016573777877
 21
-176.987384175453
 31
0.0
  0
LINE
  5
36F
330
1F
100
AcDbEntity
  8
0-0_通り芯
  6
Continuous
 62
     3
370
     9
100
AcDbLine
 10
-75.77002385107126
 20
-22.58731958187643
 30
0.0
 11
15.22970602712233
 21
-22.58731958187645
 31
0.0
  0
LINE
  5
370
330
1F
100
AcDbEntity
  8
0-0_通り芯
  6
Continuous
 62
     3
370
     9
100
AcDbLine
 10
-115.7553955033283
 20
-1.092099883592751
 30
0.0
 11
-110.7848030781918
 21
-2.424019078701621
 31
0.0
  0
LINE
  5
371
330
1F
100
AcDbEntity
  8
0-0_通り芯
  6
Continuous
 62
     3
370
     9
100
AcDbLine
 10
-126.01660364358
 20
4.763152061991222
 30
0.0
 11
-123.1188544386866
 21
3.986653377899827
 31
0.0
  0
LINE
  5
372
330
1F
100
AcDbEntity
  8
0-0_通り芯
  6
Continuous
 62
     3
370
     9
100
AcDbLine
 10
-117.920296824327
 20
2.593791521903158
 30
0.0
 11
-120.2210556869145
 21
3.210154693808321
 31
0.0
  0
LINE
  5
373
330
1F
100
AcDbEntity
  8
0-0_通り芯
  6
Continuous
 62
     3
370
     9
100
AcDbLine
 10
-117.1993897382161
 20
1.828292244898719
 30
0.0
 11
-116.8367561324947
 21
0.0560003912775775
 31
0.0
  0
LINE
  5
374
330
1F
100
AcDbEntity
  8
0-0_通り芯
  6
Continuous
 62
     3
370
     9
100
AcDbLine
 10
-108.0740437937784
 20
-0.6168462224259654
 30
0.0
 11
-109.274316931994
 21
-1.970367856678807
 31
0.0
  0
LINE
  5
375
330
1F
100
AcDbEntity
  8
0-0_通り芯
  6
Continuous
 62
     3
370
     9
100
AcDbLine
 10
-104.7661950733015
 20
-0.9308743400734345
 30
0.0
 11
-107.0671025765252
 21
-0.3144120744107566
 31
0.0
  0
LINE
  5
376
330
1F
100
AcDbEntity
  8
0-0_通り芯
  6
Continuous
 62
     3
370
     9
100
AcDbLine
 10
-140.7700290944389
 20
8.71629933157529
 30
0.0
 11
-128.9144023953522
 21
5.539650746082731
 31
0.0
  0
LINE
  5
377
330
1F
100
AcDbEntity
  8
0-0_通り芯
  6
Continuous
 62
     3
370
     9
100
AcDbLine
 10
-100.7247552657483
 20
-2.013770922481786
 30
0.0
 11
-101.8683963215293
 21
-1.707273930407429
 31
0.0
  0
LINE
  5
378
330
1F
100
AcDbEntity
  8
0-0_通り芯
  6
Continuous
 62
     3
370
     9
100
AcDbLine
 10
-74.88011236147415
 20
-176.987384175453
 30
0.0
 11
14.33989363128269
 21
-176.987384175453
 31
0.0
  0
LINE
  5
379
330
1F
100
AcDbEntity
  8
0-0_通り芯
  6
Continuous
 62
     3
370
     9
100
AcDbLine
 10
-142.7700879497682
 20
1.716316298877434
 30
0.0
 11
-141.7700832955429
 21
-0.2836930095730095
 31
0.0
  0
LINE
  5
37A
330
1F
100
AcDbEntity
  8
0-0_通り芯
  6
Continuous
 62
     3
370
     9
100
AcDbLine
 10
-124.5684970177543
 20
-0.2836930095730148
 30
0.0
 11
-141.7700832955429
 21
-0.2836930095730095
 31
0.0
  0
LINE
  5
37B
330
1F
100
AcDbEntity
  8
0-0_通り芯
  6
Continuous
 62
     3
370
     9
100
AcDbLine
 10
-122.3682192253134
 20
-0.8733008669421851
 30
0.0
 11
-129.8910704696765
 21
1.142662536472431
 31
0.0
  0
LINE
  5
37C
330
1F
100
AcDbEntity
  8
0-0_通り芯
  6
Continuous
 62
     3
370
     9
100
AcDbLine
 10
-120.9265536937278
 20
-2.404101233435924
 30
0.0
 11
-120.6878863786903
 21
-3.570930228481458
 31
0.0
  0
LINE
  5
37D
330
1F
100
AcDbEntity
  8
0-0_通り芯
  6
Continuous
 62
     3
370
     9
100
AcDbLine
 10
-98.15674053907276
 20
-7.533590498789453
 30
0.0
 11
-98.52353608261086
 21
-4.545913708927563
 31
0.0
  0
LINE
  5
37E
330
1F
100
AcDbEntity
  8
0-0_通り芯
  6
Continuous
 62
     3
370
     9
100
AcDbLine
 10
-84.75688626934544
 20
-26.47001118984876
 30
0.0
 11
-93.92216699807221
 21
-25.82907276607345
 31
0.0
  0
LINE
  5
37F
330
1F
100
AcDbEntity
  8
0-0_通り芯
  6
Continuous
 62
     3
370
     9
100
AcDbLine
 10
-80.10879447812621
 20
-31.2784366807694
 30
0.0
 11
-74.88011236147415
 21
-176.987384175453
 31
0.0
  0
LINE
  5
380
330
1F
100
AcDbEntity
  8
0-0_通り芯
  6
JWW_DASHED1
 62
     3
370
     9
100
AcDbLine
 10
-96.83800081371682
 20
-18.27505653496364
 30
0.0
 11
-98.15674053907276
 21
-7.533491405031826
 31
0.0
  0
LINE
  5
381
330
1F
100
AcDbEntity
  8
0-0_通り芯
  6
Continuous
 62
     3
370
     9
100
AcDbLine
 10
55.2150281325006
 20
-1.092099883592783
 30
0.0
 11
50.24458434800042
 21
-2.42401907870165
 31
0.0
  0
LINE
  5
382
330
1F
100
AcDbEntity
  8
0-0_通り芯
  6
Continuous
 62
     3
370
     9
100
AcDbLine
 10
65.47638491338863
 20
4.763152061991187
 30
0.0
 11
62.57868525537406
 21
3.986653377899793
 31
0.0
  0
LINE
  5
383
330
1F
100
AcDbEntity
  8
0-0_通り芯
  6
Continuous
 62
     3
370
     9
100
AcDbLine
 10
57.37992945349934
 20
2.593791521903126
 30
0.0
 11
59.68088650360191
 21
3.210154693808287
 31
0.0
  0
LINE
  5
384
330
1F
100
AcDbEntity
  8
0-0_通り芯
  6
Continuous
 62
     3
370
     9
100
AcDbLine
 10
56.65912146114595
 20
1.828292244898687
 30
0.0
 11
56.2964383085458
 21
0.0560003912775455
 31
0.0
  0
LINE
  5
385
330
1F
100
AcDbEntity
  8
0-0_通り芯
  6
Continuous
 62
     3
370
     9
100
AcDbLine
 10
47.5337755167082
 20
-0.6168462224259921
 30
0.0
 11
48.73399910804503
 21
-1.970367856678837
 31
0.0
  0
LINE
  5
386
330
1F
100
AcDbEntity
  8
0-0_通り芯
  6
Continuous
 62
     3
370
     9
100
AcDbLine
 10
44.22597634311005
 20
-0.9308743400734611
 30
0.0
 11
46.52678475257629
 21
-0.3144120744107832
 31
0.0
  0
LINE
  5
387
330
1F
100
AcDbEntity
  8
0-0_通り芯
  6
Continuous
 62
     3
370
     9
100
AcDbLine
 10
80.22976081736877
 20
8.716299331575248
 30
0.0
 11
68.37418366516076
 21
5.539650746082693
 31
0.0
  0
LINE
  5
388
330
1F
100
AcDbEntity
  8
0-0_通り芯
  6
Continuous
 62
     3
370
     9
100
AcDbLine
 10
40.18438789492068
 20
-2.013770922481813
 30
0.0
 11
41.32817759133791
 21
-1.707273930407456
 31
0.0
  0
LINE
  5
389
330
1F
100
AcDbEntity
  8
0-0_通り芯
  6
Continuous
 62
     3
370
     9
100
AcDbLine
 10
82.22977012581929
 20
1.716316298877394
 30
0.0
 11
81.22971592471524
 21
-0.2836930095730521
 31
0.0
  0
LINE
  5
38A
330
1F
100
AcDbEntity
  8
0-0_通り芯
  6
Continuous
 62
     3
370
     9
100
AcDbLine
 10
64.02822874068411
 20
-0.2836930095730468
 30
0.0
 11
81.22971592471524
 21
-0.2836930095730521
 31
0.0
  0
LINE
  5
38B
330
1F
100
AcDbEntity
  8
0-0_通り芯
  6
Continuous
 62
     3
370
     9
100
AcDbLine
 10
61.82805004200081
 20
-0.8733008669422224
 30
0.0
 11
69.35085173948508
 21
1.142662536472393
 31
0.0
  0
LINE
  5
38C
330
1F
100
AcDbEntity
  8
0-0_通り芯
  6
Continuous
 62
     3
370
     9
100
AcDbLine
 10
60.38623586977888
 20
-2.404101233435956
 30
0.0
 11
60.14751900786256
 21
-3.57093022848149
 31
0.0
  0
LINE
  5
38D
330
1F
100
AcDbEntity
  8
0-0_通り芯
  6
Continuous
 62
     3
370
     9
100
AcDbLine
 10
36.29773253664666
 20
-18.27505653496366
 30
0.0
 11
37.98321825866195
 21
-4.545913708927586
 31
0.0
  0
LINE
  5
38E
330
1F
100
AcDbEntity
  8
0-0_通り芯
  6
Continuous
 62
     3
370
     9
100
AcDbLine
 10
15.2298051208799
 20
-22.58731958187645
 30
0.0
 11
33.06801924399086
 21
-21.34002645570758
 31
0.0
  0
LINE
  5
38F
330
1F
100
AcDbEntity
  8
0-0_通り芯
  6
Continuous
 62
     3
370
     9
100
AcDbLine
 10
15.2298051208799
 20
-22.58731958187645
 30
0.0
 11
9.839798366950973
 21
-176.987384175453
 31
0.0
  0
LINE
  5
390
330
1F
100
AcDbEntity
  8
0-0_通り芯
  6
Continuous
 62
     3
370
     9
100
AcDbLine
 10
-141.8927613673787
 20
7.85765192248228
 30
0.0
 11
-142.7700879497682
 21
1.716316298877434
 31
0.0
  0
LINE
  5
391
330
1F
100
AcDbEntity
  8
0-0_通り芯
  6
Continuous
 62
     3
370
     9
100
AcDbLine
 10
81.35249309030857
 20
7.85765192248224
 30
0.0
 11
82.22977012581929
 21
1.716316298877394
 31
0.0
  0
LINE
  5
392
330
1F
100
AcDbEntity
  8
0-0_通り芯
  6
JWW_CENTER1
 62
     3
370
     9
100
AcDbLine
 10
-30.27013413853509
 20
-58.4363691537348
 30
0.0
 11
-30.27013413853512
 21
-183.9551617369501
 31
0.0
  0
LINE
  5
393
330
1F
100
AcDbEntity
  8
0-0_通り芯
  6
Continuous
 62
     3
370
     9
100
AcDbLine
 10
-88.59369746757632
 20
-9.783712451273393
 30
0.0
 11
-91.27021985875933
 21
-9.783712451273393
 31
0.0
  0
LINE
  5
394
330
1F
100
AcDbEntity
  8
0-0_通り芯
  6
Continuous
 62
     3
370
     9
100
AcDbLine
 10
-88.59364792069755
 20
-18.7837047924218
 30
0.0
 11
-81.94663685236078
 21
-18.7837047924218
 31
0.0
  0
LINE
  5
395
330
1F
100
AcDbEntity
  8
0-0_通り芯
  6
Continuous
 62
     3
370
     9
100
AcDbLine
 10
-81.94663685236078
 20
-17.78365059131777
 30
0.0
 11
-81.94663685236078
 21
-18.7837047924218
 31
0.0
  0
LINE
  5
396
330
1F
100
AcDbEntity
  8
0-0_通り芯
  6
Continuous
 62
     3
370
     9
100
AcDbLine
 10
-88.59364792069755
 20
-18.7837047924218
 30
0.0
 11
-88.59364792069755
 21
-17.78365059131777
 31
0.0
  0
LINE
  5
397
330
1F
100
AcDbEntity
  8
0-0_通り芯
  6
Continuous
 62
     3
370
     9
100
AcDbLine
 10
-81.94663685236078
 20
-18.7837047924218
 30
0.0
 11
-85.27014238652914
 21
-20.7025563134461
 31
0.0
  0
LINE
  5
398
330
1F
100
AcDbEntity
  8
0-0_通り芯
  6
Continuous
 62
     3
370
     9
100
AcDbLine
 10
-88.59364792069755
 20
-18.7837047924218
 30
0.0
 11
-85.27014238652914
 21
-20.7025563134461
 31
0.0
  0
LINE
  5
399
330
1F
100
AcDbEntity
  8
0-0_通り芯
  6
JWW_HOJO
 62
     3
370
     9
100
AcDbLine
 10
19.7298508383328
 20
-26.78374202622372
 30
0.0
 11
19.65939517672118
 21
-28.74718573814148
 31
0.0
  0
LINE
  5
39A
330
1F
100
AcDbEntity
  8
0-0_通り芯
  6
Continuous
 62
     3
370
     9
100
AcDbLine
 10
19.56857574793484
 20
-31.27853577452693
 30
0.0
 11
14.33984408440394
 21
-176.987384175453
 31
0.0
  0
LINE
  5
39B
330
1F
100
AcDbEntity
  8
0-0_通り芯
  6
Continuous
 62
     3
370
     9
100
AcDbLine
 10
24.21651889851771
 20
-26.47001118984878
 30
0.0
 11
33.38189872100205
 21
-25.82907276607347
 31
0.0
  0
LINE
  5
39C
330
1F
100
AcDbEntity
  8
0-0_通り芯
  6
JWW_HOJO
 62
     3
370
     9
100
AcDbLine
 10
19.7298508383328
 20
-26.78374202622372
 30
0.0
 11
21.72886920920789
 21
-26.64392073433324
 31
0.0
  0
LINE
  5
39D
330
1F
100
AcDbEntity
  8
0-0_通り芯
  6
JWW_HOJO
 62
     3
370
     9
100
AcDbLine
 10
-80.27011911540299
 20
-26.7837420262237
 30
0.0
 11
-80.19966345379132
 21
-28.74718573814146
 31
0.0
  0
LINE
  5
39E
330
1F
100
AcDbEntity
  8
0-0_通り芯
  6
JWW_HOJO
 62
     3
370
     9
100
AcDbLine
 10
-80.27011911540299
 20
-26.7837420262237
 30
0.0
 11
-82.26913748627807
 21
-26.64392073433321
 31
0.0
  0
LINE
  5
39F
330
1F
100
AcDbEntity
  8
0-0_通り芯
  6
JWW_CENTER1
 62
     3
370
     9
100
AcDbLine
 10
-30.27013413853506
 20
86.24596701282377
 30
0.0
 11
-30.27013413853509
 21
-45.88495563607369
 31
0.0
  0
LINE
  5
3A0
330
1F
100
AcDbEntity
  8
0-0_通り芯
  6
Continuous
 62
     3
370
     9
100
AcDbLine
 10
80.36234826495868
 20
8.716299331575248
 30
0.0
 11
71.84350566355076
 21
8.71629933157525
 31
0.0
  0
LINE
  5
3A1
330
1F
100
AcDbEntity
  8
0-0_通り芯
  6
Continuous
 62
     3
370
     9
100
AcDbLine
 10
-140.9028147295439
 20
8.71629933157529
 30
0.0
 11
-133.481063891312
 21
8.71629933157529
 31
0.0
  0
LINE
  5
3A2
330
1F
100
AcDbEntity
  8
0-0_通り芯
  6
Continuous
 62
     3
370
     9
100
AcDbLine
 10
-107.0333363786431
 20
-8.087821884716323
 30
0.0
 11
-119.6064762026451
 21
-4.719129597109301
 31
0.0
  0
LINE
  5
3A3
330
1F
100
AcDbEntity
  8
0-0_通り芯
  6
Continuous
 62
     3
370
     9
100
AcDbLine
 10
-101.8970839643374
 20
-13.99633672497866
 30
0.0
 11
-101.3044537473633
 21
-18.82334229543817
 31
0.0
  0
LINE
  5
3A4
330
1F
100
AcDbEntity
  8
0-0_通り芯
  6
Continuous
 62
     3
370
     9
100
AcDbLine
 10
41.35689000758542
 20
-13.99633672497869
 30
0.0
 11
40.76428456405073
 21
-18.82334229543819
 31
0.0
  0
LINE
  5
3A5
330
1F
100
AcDbEntity
  8
0-0_通り芯
  6
Continuous
 62
     3
370
     9
100
AcDbLine
 10
46.49311764845174
 20
-8.08777233783765
 30
0.0
 11
59.06620792557492
 21
-4.719129597109333
 31
0.0
  0
LINE
  5
3A6
330
1F
100
AcDbEntity
  8
0-0_通り芯
  6
JWW_DASHED1
 62
     3
370
     9
100
AcDbLine
 10
-75.77002385107126
 20
-22.58731958187643
 30
0.0
 11
-93.60823797418226
 21
-21.34002645570756
 31
0.0
  0
LINE
  5
3A7
330
1F
100
AcDbEntity
  8
0-0_通り芯
  6
Continuous
 62
     3
370
     9
100
AcDbLine
 10
-73.27013608270512
 20
-14.58723280119573
 30
0.0
 11
-75.77002385107126
 21
-22.58722048811881
 31
0.0
  0
LINE
  5
3A8
330
1F
100
AcDbEntity
  8
0-0_通り芯
  6
Continuous
 62
     3
370
     9
100
AcDbLine
 10
-79.79647572779629
 20
-9.783712451273395
 30
0.0
 11
-81.94668639923952
 21
-9.783712451273393
 31
0.0
  0
LINE
  5
3A9
330
1F
100
AcDbEntity
  8
0-0_通り芯
  6
Continuous
 62
     3
370
     9
100
AcDbLine
 10
-78.85899923457941
 20
-10.11275327318838
 30
0.0
 11
-73.27013608270512
 21
-14.58723280119573
 31
0.0
  0
ARC
  5
3AA
330
1F
100
AcDbEntity
  8
0-9
  6
Continuous
 62
     4
370
     9
100
AcDbCircle
 10
48.55602671950138
 20
15.42296484195172
 30
0.0
 40
2.000000018410701
100
AcDbArc
 50
5.000015258789053
 51
89.99999999999999
  0
ARC
  5
3AB
330
1F
100
AcDbEntity
  8
0-9
  6
Continuous
 62
     4
370
     9
100
AcDbCircle
 10
42.90381788311895
 20
15.42296484195172
 30
0.0
 40
2.000000018410701
100
AcDbArc
 50
90.0
 51
174.9999847412109
  0
ARC
  5
3AC
330
1F
100
AcDbEntity
  8
0-1_ピット
  6
Continuous
 62
     2
370
     9
100
AcDbCircle
 10
-120.2114931393118
 20
16.07287125078456
 30
0.0
 40
0.5000000046026752
100
AcDbArc
 50
7.125259399414062
 51
90.0
  0
ARC
  5
3AD
330
1F
100
AcDbEntity
  8
0-1_ピット
  6
Continuous
 62
     2
370
     9
100
AcDbCircle
 10
-118.8287388465844
 20
13.07285728810884
 30
0.0
 40
0.5000000046026752
100
AcDbArc
 50
187.1252593994141
 51
270.0
  0
ARC
  5
3AE
330
1F
100
AcDbEntity
  8
0-1_ピット
  6
Continuous
 62
     2
370
     9
100
AcDbCircle
 10
-114.1090022686629
 20
11.57287508021041
 30
0.0
 40
1.00000000920535
100
AcDbArc
 50
10.01611328125
 51
90.0
  0
ARC
  5
3AF
330
1F
100
AcDbEntity
  8
0-1_ピット
  6
Continuous
 62
     2
370
     9
100
AcDbCircle
 10
-109.6938551279833
 20
9.57286577175985
 30
0.0
 40
3.000000027616052
100
AcDbArc
 50
190.0161743164062
 51
270.0
  0
ARC
  5
3B0
330
1F
100
AcDbEntity
  8
0-1_ピット
  6
Continuous
 62
     2
370
     9
100
AcDbCircle
 10
-100.5445780410994
 20
5.072869601185698
 30
0.0
 40
1.500000013808026
100
AcDbArc
 50
9.29443359375
 51
90.0
  0
ARC
  5
3B1
330
1F
100
AcDbEntity
  8
0-1_ピット
  6
Continuous
 62
     2
370
     9
100
AcDbCircle
 10
-96.67070577754818
 20
3.072860292735252
 30
0.0
 40
2.000000018410701
100
AcDbArc
 50
189.2946166992188
 51
270.0
  0
ARC
  5
3B2
330
1F
100
AcDbEntity
  8
0-1_ピット
  6
Continuous
 62
     2
370
     9
100
AcDbCircle
 10
-74.49981529347104
 20
-0.4271312236136788
 30
0.0
 40
1.500000013808026
100
AcDbArc
 50
11.30999755859375
 51
90.00000000000001
  0
ARC
  5
3B3
330
1F
100
AcDbEntity
  8
0-1_ピット
  6
Continuous
 62
     2
370
     9
100
AcDbCircle
 10
35.96477751130885
 20
2.060122090665955
 30
0.0
 40
2.000000018410701
100
AcDbArc
 50
285.0001983642578
 51
350.7054595947266
  0
ARC
  5
3B4
330
1F
100
AcDbEntity
  8
0-1_ピット
  6
Continuous
 62
     2
370
     9
100
AcDbCircle
 10
40.00438408434739
 20
5.072869601185672
 30
0.0
 40
1.500000013808026
100
AcDbArc
 50
90.0
 51
170.7056732177734
  0
ARC
  5
3B5
330
1F
100
AcDbEntity
  8
0-1_ピット
  6
Continuous
 62
     2
370
     9
100
AcDbCircle
 10
53.56878353847161
 20
11.57287508021038
 30
0.0
 40
1.00000000920535
100
AcDbArc
 50
90.0
 51
169.98388671875
  0
ARC
  5
3B6
330
1F
100
AcDbEntity
  8
0-1_ピット
  6
Continuous
 62
     2
370
     9
100
AcDbCircle
 10
54.86225435565454
 20
11.57287508021038
 30
0.0
 40
1.00000000920535
100
AcDbArc
 50
8.10791015625
 51
90.0
  0
ARC
  5
3B7
330
1F
100
AcDbEntity
  8
0-1_ピット
  6
Continuous
 62
     2
370
     9
100
AcDbCircle
 10
70.92460924987287
 20
8.321757535925634
 30
0.0
 40
1.00000000920535
100
AcDbArc
 50
9.462493896484375
 51
105.0002593994141
  0
ARC
  5
3B8
330
1F
100
AcDbEntity
  8
0-1_ピット
  6
Continuous
 62
     2
370
     9
100
AcDbCircle
 10
59.22257787497465
 20
9.327360987451963
 30
0.0
 40
3.000000027616052
100
AcDbArc
 50
188.1080017089844
 51
285.0002136230469
  0
ARC
  5
3B9
330
1F
100
AcDbEntity
  8
0-1_ピット
  6
Continuous
 62
     2
370
     9
100
AcDbCircle
 10
49.15366117123129
 20
9.572816224881123
 30
0.0
 40
3.000000027616052
100
AcDbArc
 50
270.0
 51
349.9844360351562
  0
ARC
  5
3BA
330
1F
100
AcDbEntity
  8
0-1_ピット
  6
Continuous
 62
     2
370
     9
100
AcDbCircle
 10
26.48418044608655
 20
-1.42713587783892
 30
0.0
 40
1.00000000920535
100
AcDbArc
 50
90.0
 51
164.0551605224609
  0
ARC
  5
3BB
330
1F
100
AcDbEntity
  8
0-1_ピット
  6
Continuous
 62
     2
370
     9
100
AcDbCircle
 10
-78.04038570353305
 20
-0.4271312236136788
 30
0.0
 40
1.500000013808026
100
AcDbArc
 50
90.0
 51
168.6903228759766
  0
ARC
  5
3BC
330
1F
100
AcDbEntity
  8
0-1_ピット
  6
Continuous
 62
     2
370
     9
100
AcDbCircle
 10
-92.49982474920712
 20
-0.4271312236136735
 30
0.0
 40
1.500000013808026
100
AcDbArc
 50
11.30967712402344
 51
90.0
  0
ARC
  5
3BD
330
1F
100
AcDbEntity
  8
0-1_ピット
  6
Continuous
 62
     2
370
     9
100
AcDbCircle
 10
-131.8412851649626
 20
16.07277215702699
 30
0.0
 40
0.5000000046026752
100
AcDbArc
 50
90.0
 51
171.2358551025391
  0
ARC
  5
3BE
330
1F
100
AcDbEntity
  8
0-9
  6
Continuous
 62
     4
370
     9
100
AcDbCircle
 10
-109.0962949965715
 20
15.42296484195175
 30
0.0
 40
2.000000018410701
100
AcDbArc
 50
90.0
 51
174.9999847412109
  0
ARC
  5
3BF
330
1F
100
AcDbEntity
  8
0-9
  6
Continuous
 62
     4
370
     9
100
AcDbCircle
 10
-103.4440861601891
 20
15.42296484195175
 30
0.0
 40
2.000000018410701
100
AcDbArc
 50
5.000015258789053
 51
89.99999999999999
  0
ARC
  5
3C0
330
1F
100
AcDbEntity
  8
0-A
  6
Continuous
 62
     4
370
     9
100
AcDbCircle
 10
-85.27014238652914
 20
-3.715854848885149
 30
0.0
 40
10.08940975730484
100
AcDbArc
 50
68.19786071777345
 51
111.8021392822266
  0
ARC
  5
3C1
330
1F
100
AcDbEntity
  8
0-A
  6
Continuous
 62
     4
370
     9
100
AcDbCircle
 10
-79.6465716460761
 20
3.573333315196187
 30
0.0
 40
2.800189852254271
100
AcDbArc
 50
47.92572021484374
 51
132.0742797851562
  0
ARC
  5
3C2
330
1F
100
AcDbEntity
  8
0-A
  6
Continuous
 62
     4
370
     9
100
AcDbCircle
 10
-90.89371312698222
 20
3.57333331519619
 30
0.0
 40
2.800189852254271
100
AcDbArc
 50
47.92572021484374
 51
132.0742797851562
  0
ARC
  5
3C3
330
1F
100
AcDbEntity
  8
0-1_ピット
  6
JWW_PHANTOM1
 62
     2
370
     9
100
AcDbCircle
 10
-131.464877526943
 20
8.321757535925673
 30
0.0
 40
1.00000000920535
100
AcDbArc
 50
74.99974060058592
 51
170.5375061035156
  0
ARC
  5
3C4
330
1F
100
AcDbEntity
  8
0-B
  6
Continuous
 62
     6
370
     5
100
AcDbCircle
 10
-131.3937777559073
 20
25.77251506705126
 30
0.0
 40
2.80017378822717
100
AcDbArc
 50
47.92556762695312
 51
132.0746307373047
  0
ARC
  5
3C5
330
1F
100
AcDbEntity
  8
0-B
  6
Continuous
 62
     6
370
     5
100
AcDbCircle
 10
-125.7702070154542
 20
18.48327735609116
 30
0.0
 40
10.08940975730484
100
AcDbArc
 50
68.19786071777345
 51
111.8021392822266
  0
ARC
  5
3C6
330
1F
100
AcDbEntity
  8
0-B
  6
Continuous
 62
     6
370
     5
100
AcDbCircle
 10
-120.1466362750012
 20
25.77251506705126
 30
0.0
 40
2.800189852254271
100
AcDbArc
 50
47.92572021484374
 51
132.0742797851562
  0
ARC
  5
3C7
330
1F
100
AcDbEntity
  8
0-A
  6
JWW_PHANTOM1
 62
     4
370
     9
100
AcDbCircle
 10
-101.1105272638555
 20
67.28977711713497
 30
0.0
 40
2.000000018410701
100
AcDbArc
 50
174.8069915771484
 51
259.8069763183594
  0
ARC
  5
3C8
330
1F
100
AcDbEntity
  8
0-A
  6
JWW_PHANTOM1
 62
     4
370
     9
100
AcDbCircle
 10
-100.5988566467925
 20
72.91879801425279
 30
0.0
 40
2.000000018410701
100
AcDbArc
 50
89.80700683593749
 51
174.8069915771484
  0
ARC
  5
3C9
330
1F
100
AcDbEntity
  8
0-2_本体（蓋）
  6
Continuous
 62
     6
370
     5
100
AcDbCircle
 10
37.95301943605129
 20
9.572865771759822
 30
0.0
 40
3.000000027616052
100
AcDbArc
 50
185.295654296875
 51
270.0
  0
ARC
  5
3CA
330
1F
100
AcDbEntity
  8
0-2_本体（蓋）
  6
Continuous
 62
     6
370
     5
100
AcDbCircle
 10
32.83968245317698
 20
75.57282612247398
 30
0.0
 40
1.00000000920535
100
AcDbArc
 50
5.295700073242191
 51
90.00000000000001
  0
ARC
  5
3CB
330
1F
100
AcDbEntity
  8
0-2_本体（蓋）
  6
Continuous
 62
     6
370
     5
100
AcDbCircle
 10
-93.38000027712586
 20
75.57282612247401
 30
0.0
 40
1.00000000920535
100
AcDbArc
 50
90.0
 51
174.7043609619141
  0
ARC
  5
3CC
330
1F
100
AcDbEntity
  8
0-2_本体（蓋）
  6
Continuous
 62
     6
370
     5
100
AcDbCircle
 10
40.5099604353217
 20
14.49118623979346
 30
0.0
 40
1.00000000920535
100
AcDbArc
 50
185.2957000732422
 51
267.4088897705078
  0
ARC
  5
3CD
330
1F
100
AcDbEntity
  8
0-2_本体（蓋）
  6
JWW_PHANTOM1
 62
     6
370
     5
100
AcDbCircle
 10
-90.86121037450874
 20
48.57289864590776
 30
0.0
 40
1.00000000920535
100
AcDbArc
 50
90.0
 51
174.7050933837891
  0
ARC
  5
3CE
330
1F
100
AcDbEntity
  8
0-2_本体（蓋）
  6
JWW_PHANTOM1
 62
     6
370
     5
100
AcDbCircle
 10
30.32094209743865
 20
48.57289864590773
 30
0.0
 40
1.00000000920535
100
AcDbArc
 50
5.29490661621093
 51
90.0
  0
ARC
  5
3CF
330
1F
100
AcDbEntity
  8
0-2_本体（蓋）
  6
Continuous
 62
     6
370
     5
100
AcDbCircle
 10
-98.49326293968204
 20
9.572865771759844
 30
0.0
 40
3.000000027616052
100
AcDbArc
 50
270.0
 51
354.704345703125
  0
ARC
  5
3D0
330
1F
100
AcDbEntity
  8
0-2_本体（蓋）
  6
Continuous
 62
     6
370
     5
100
AcDbCircle
 10
-101.0502039389524
 20
14.49118623979349
 30
0.0
 40
1.00000000920535
100
AcDbArc
 50
272.5911102294922
 51
354.7042999267578
  0
ARC
  5
3D1
330
1F
100
AcDbEntity
  8
0-2_本体（蓋）
  6
Continuous
 62
     6
370
     5
100
AcDbCircle
 10
48.89527419844306
 20
7.572757369551863
 30
0.0
 40
1.00000000920535
100
AcDbArc
 50
270.0
 51
349.6943969726562
  0
ARC
  5
3D2
330
1F
100
AcDbEntity
  8
0-2_本体（蓋）
  6
Continuous
 62
     6
370
     5
100
AcDbCircle
 10
-109.4355177020738
 20
7.572757369551892
 30
0.0
 40
1.00000000920535
100
AcDbArc
 50
190.3056030273437
 51
270.0
  0
ARC
  5
3D3
330
1F
100
AcDbEntity
  8
0-0_通り芯
  6
Continuous
 62
     3
370
     9
100
AcDbCircle
 10
-110.3966032830248
 20
-0.9750701559367352
 30
0.0
 40
1.500000013808026
100
AcDbArc
 50
254.9999084472656
 51
318.4355773925781
  0
ARC
  5
3D4
330
1F
100
AcDbEntity
  8
0-0_通り芯
  6
Continuous
 62
     3
370
     9
100
AcDbCircle
 10
-115.3671461612826
 20
0.356650851656994
 30
0.0
 40
1.500000013808026
100
AcDbArc
 50
191.5648956298828
 51
254.9999084472656
  0
ARC
  5
3D5
330
1F
100
AcDbEntity
  8
0-0_通り芯
  6
Continuous
 62
     3
370
     9
100
AcDbCircle
 10
-121.5082340504936
 20
4.20218230055157
 30
0.0
 40
1.625007563116007
100
AcDbArc
 50
187.620590209961
 51
322.3789062500001
  0
ARC
  5
3D6
330
1F
100
AcDbEntity
  8
0-0_通り芯
  6
Continuous
 62
     3
370
     9
100
AcDbCircle
 10
-118.1789810783879
 20
1.627726479635684
 30
0.0
 40
1.00000000920535
100
AcDbArc
 50
11.56642150878906
 51
75.00077819824219
  0
ARC
  5
3D7
330
1F
100
AcDbEntity
  8
0-0_通り芯
  6
Continuous
 62
     3
370
     9
100
AcDbCircle
 10
-107.3257868305861
 20
-1.28027892916309
 30
0.0
 40
1.00000000920535
100
AcDbArc
 50
75.00022888183594
 51
138.4349822998047
  0
ARC
  5
3D8
330
1F
100
AcDbEntity
  8
0-0_通り芯
  6
Continuous
 62
     3
370
     9
100
AcDbCircle
 10
-127.3038811009167
 20
5.755080574976844
 30
0.0
 40
1.625007563116007
100
AcDbArc
 50
187.6192932128906
 51
322.3796997070312
  0
ARC
  5
3D9
330
1F
100
AcDbEntity
  8
0-0_通り芯
  6
Continuous
 62
     3
370
     9
100
AcDbCircle
 10
-103.1556242319872
 20
-0.7153454174218039
 30
0.0
 40
1.625007563116007
100
AcDbArc
 50
187.620590209961
 51
322.3807373046876
  0
ARC
  5
3DA
330
1F
100
AcDbEntity
  8
0-0_通り芯
  6
Continuous
 62
     3
370
     9
100
AcDbCircle
 10
-101.5012044029611
 20
-4.911569674253928
 30
0.0
 40
3.000000027616052
100
AcDbArc
 50
6.999725341796875
 51
75.00041198730469
  0
ARC
  5
3DB
330
1F
100
AcDbEntity
  8
0-0_通り芯
  6
Continuous
 62
     3
370
     9
100
AcDbCircle
 10
-132.7382818582239
 20
-9.482566522106293
 30
0.0
 40
11.00000087542884
100
AcDbArc
 50
74.99865722656249
 51
123.2531585693359
  0
ARC
  5
3DC
330
1F
100
AcDbEntity
  8
0-0_通り芯
  6
Continuous
 62
     3
370
     9
100
AcDbCircle
 10
-119.2183259543569
 20
-3.270180674344417
 30
0.0
 40
1.500000013808026
100
AcDbArc
 50
191.5641784667968
 51
254.999755859375
  0
ARC
  5
3DD
330
1F
100
AcDbEntity
  8
0-0_通り芯
  6
Continuous
 62
     3
370
     9
100
AcDbCircle
 10
-122.8859841084652
 20
-2.805133670204369
 30
0.0
 40
2.000000018410701
100
AcDbArc
 50
11.56561279296875
 51
74.9984130859375
  0
ARC
  5
3DE
330
1F
100
AcDbEntity
  8
0-0_通り芯
  6
Continuous
 62
     3
370
     9
100
AcDbCircle
 10
-93.36412050247992
 20
-17.8485570025071
 30
0.0
 40
8.000000073642804
100
AcDbArc
 50
186.9991302490235
 51
266.0000457763672
  0
ARC
  5
3DF
330
1F
100
AcDbEntity
  8
0-0_通り芯
  6
JWW_DASHED1
 62
     3
370
     9
100
AcDbCircle
 10
-93.36412050247992
 20
-17.8485570025071
 30
0.0
 40
3.500000032218726
100
AcDbArc
 50
186.9991302490235
 51
266.0000457763672
  0
ARC
  5
3E0
330
1F
100
AcDbEntity
  8
0-0_通り芯
  6
Continuous
 62
     3
370
     9
100
AcDbCircle
 10
-94.18654914319166
 20
-7.046049211687594
 30
0.0
 40
4.000000036821402
100
AcDbArc
 50
186.9994812011719
 51
316.8111877441406
  0
ARC
  5
3E1
330
1F
100
AcDbEntity
  8
0-0_通り芯
  6
Continuous
 62
     3
370
     9
100
AcDbCircle
 10
-85.10559720213232
 20
-31.45779638191862
 30
0.0
 40
5.000000046026752
100
AcDbArc
 50
2.055191040039066
 51
86.00025939941408
  0
ARC
  5
3E2
330
1F
100
AcDbEntity
  8
0-0_通り芯
  6
Continuous
 62
     3
370
     9
100
AcDbCircle
 10
49.85643409971224
 20
-0.9750701559367672
 30
0.0
 40
1.500000013808026
100
AcDbArc
 50
221.5644226074219
 51
285.0000915527344
  0
ARC
  5
3E3
330
1F
100
AcDbEntity
  8
0-0_通り芯
  6
Continuous
 62
     3
370
     9
100
AcDbCircle
 10
54.8267787904549
 20
0.356650851656962
 30
0.0
 40
1.500000013808026
100
AcDbArc
 50
285.0000915527344
 51
348.4351043701172
  0
ARC
  5
3E4
330
1F
100
AcDbEntity
  8
0-0_通り芯
  6
Continuous
 62
     3
370
     9
100
AcDbCircle
 10
60.96791622654472
 20
4.202182300551535
 30
0.0
 40
1.625007563116007
100
AcDbArc
 50
217.62109375
 51
352.3794097900391
  0
ARC
  5
3E5
330
1F
100
AcDbEntity
  8
0-0_通り芯
  6
Continuous
 62
     3
370
     9
100
AcDbCircle
 10
57.63876234819649
 20
1.627726479635652
 30
0.0
 40
1.00000000920535
100
AcDbArc
 50
104.9992218017578
 51
168.433578491211
  0
ARC
  5
3E6
330
1F
100
AcDbEntity
  8
0-0_通り芯
  6
Continuous
 62
     3
370
     9
100
AcDbCircle
 10
46.7856176472735
 20
-1.280278929163122
 30
0.0
 40
1.00000000920535
100
AcDbArc
 50
41.5650177001953
 51
104.999771118164
  0
ARC
  5
3E7
330
1F
100
AcDbEntity
  8
0-0_通り芯
  6
Continuous
 62
     3
370
     9
100
AcDbCircle
 10
66.763513730089
 20
5.75508057497681
 30
0.0
 40
1.625007563116007
100
AcDbArc
 50
217.6203002929688
 51
352.3807067871094
  0
ARC
  5
3E8
330
1F
100
AcDbEntity
  8
0-0_通り芯
  6
Continuous
 62
     3
370
     9
100
AcDbCircle
 10
42.61525686115952
 20
-0.7153454174218306
 30
0.0
 40
1.625007563116007
100
AcDbArc
 50
217.6192626953125
 51
352.3794097900391
  0
ARC
  5
3E9
330
1F
100
AcDbEntity
  8
0-0_通り芯
  6
Continuous
 62
     3
370
     9
100
AcDbCircle
 10
40.9609856727697
 20
-4.911569674253955
 30
0.0
 40
3.000000027616052
100
AcDbArc
 50
104.9995880126953
 51
173.0002746582031
  0
ARC
  5
3EA
330
1F
100
AcDbEntity
  8
0-0_通り芯
  6
Continuous
 62
     3
370
     9
100
AcDbCircle
 10
72.19801358115379
 20
-9.482566522106332
 30
0.0
 40
11.00000087542884
100
AcDbArc
 50
56.74684143066406
 51
105.0013427734375
  0
ARC
  5
3EB
330
1F
100
AcDbEntity
  8
0-0_通り芯
  6
Continuous
 62
     3
370
     9
100
AcDbCircle
 10
58.67795858352922
 20
-3.270180674344449
 30
0.0
 40
1.500000013808026
100
AcDbArc
 50
285.000244140625
 51
348.4358215332031
  0
ARC
  5
3EC
330
1F
100
AcDbEntity
  8
0-0_通り芯
  6
Continuous
 62
     3
370
     9
100
AcDbCircle
 10
62.34571583139512
 20
-2.805133670204404
 30
0.0
 40
2.000000018410701
100
AcDbArc
 50
105.0015869140625
 51
168.4343872070312
  0
ARC
  5
3ED
330
1F
100
AcDbEntity
  8
0-0_通り芯
  6
Continuous
 62
     3
370
     9
100
AcDbCircle
 10
32.82390177228858
 20
-17.84855700250712
 30
0.0
 40
8.000000073642804
100
AcDbArc
 50
273.9999542236328
 51
353.0008697509766
  0
ARC
  5
3EE
330
1F
100
AcDbEntity
  8
0-0_通り芯
  6
Continuous
 62
     3
370
     9
100
AcDbCircle
 10
32.82390177228858
 20
-17.84855700250712
 30
0.0
 40
3.500000032218726
100
AcDbArc
 50
273.9999542236328
 51
353.0008697509766
  0
ARC
  5
3EF
330
1F
100
AcDbEntity
  8
0-0_通り芯
  6
Continuous
 62
     3
370
     9
100
AcDbCircle
 10
24.56532892506213
 20
-31.45779638191864
 30
0.0
 40
5.000000046026752
100
AcDbArc
 50
93.999740600586
 51
177.944808959961
  0
ARC
  5
3F0
330
1F
100
AcDbEntity
  8
0-0_通り芯
  6
Continuous
 62
     3
370
     9
100
AcDbCircle
 10
-140.9028147295439
 20
7.716344224228767
 30
0.0
 40
1.00000000920535
100
AcDbArc
 50
90.0
 51
171.8706970214844
  0
ARC
  5
3F1
330
1F
100
AcDbEntity
  8
0-0_通り芯
  6
Continuous
 62
     3
370
     9
100
AcDbCircle
 10
80.36234826495868
 20
7.716344224228727
 30
0.0
 40
1.00000000920535
100
AcDbArc
 50
8.12889099121094
 51
90.0
  0
ARC
  5
3F2
330
1F
100
AcDbEntity
  8
0-0_通り芯
  6
Continuous
 62
     3
370
     9
100
AcDbCircle
 10
-108.8449189071293
 20
-14.84933578989176
 30
0.0
 40
7.000000064437453
100
AcDbArc
 50
6.999282836914055
 51
75.00126647949217
  0
ARC
  5
3F3
330
1F
100
AcDbEntity
  8
0-0_通り芯
  6
Continuous
 62
     3
370
     9
100
AcDbCircle
 10
48.30470017693794
 20
-14.84928624301297
 30
0.0
 40
7.000000064437453
100
AcDbArc
 50
104.9987335205078
 51
173.0010986328125
  0
ARC
  5
3F4
330
1F
100
AcDbEntity
  8
0-0_通り芯
  6
Continuous
 62
     3
370
     9
100
AcDbCircle
 10
-79.79647572779629
 20
-11.28369465917188
 30
0.0
 40
1.500000013808026
100
AcDbArc
 50
51.31861877441407
 51
90.0
  0
LINE
  5
3F5
330
1F
100
AcDbEntity
  8
0-6
  6
Continuous
 62
     4
370
     9
100
AcDbLine
 10
-91.21358777632462
 20
46.57279024369974
 30
0.0
 11
-91.77012309211443
 21
46.34859061726314
 31
0.0
  0
LINE
  5
3F6
330
1F
100
AcDbEntity
  8
0-6
  6
Continuous
 62
     4
370
     9
100
AcDbLine
 10
-77.67012187848098
 20
11.34862590689506
 30
0.0
 11
-77.11358656269125
 21
11.5728750802104
 31
0.0
  0
LINE
  5
3F7
330
1F
100
AcDbEntity
  8
0-6
  6
Continuous
 62
     4
370
     9
100
AcDbLine
 10
-91.21358777632462
 20
46.57279024369974
 30
0.0
 11
-77.11358656269125
 21
11.5728750802104
 31
0.0
  0
LINE
  5
3F8
330
1F
100
AcDbEntity
  8
0-6
  6
Continuous
 62
     4
370
     9
100
AcDbLine
 10
-91.77012309211443
 20
46.34859061726314
 30
0.0
 11
-77.67012187848098
 21
11.34862590689506
 31
0.0
  0
LINE
  5
3F9
330
1F
100
AcDbEntity
  8
0-6
  6
Continuous
 62
     4
370
     9
100
AcDbLine
 10
31.22990436192305
 20
46.34859061726313
 30
0.0
 11
17.12982882797148
 21
11.34862590689504
 31
0.0
  0
LINE
  5
3FA
330
1F
100
AcDbEntity
  8
0-6
  6
Continuous
 62
     4
370
     9
100
AcDbLine
 10
30.67334427269389
 20
46.57279024369971
 30
0.0
 11
31.22990436192305
 21
46.34859061726313
 31
0.0
  0
LINE
  5
3FB
330
1F
100
AcDbEntity
  8
0-6
  6
Continuous
 62
     4
370
     9
100
AcDbLine
 10
30.67334427269389
 20
46.57279024369971
 30
0.0
 11
-91.21358777632462
 21
46.57279024369974
 31
0.0
  0
LINE
  5
3FC
330
1F
100
AcDbEntity
  8
0-6
  6
Continuous
 62
     4
370
     9
100
AcDbLine
 10
30.67334427269389
 20
46.57279024369971
 30
0.0
 11
16.5733430590605
 21
11.57287508021038
 31
0.0
  0
LINE
  5
3FD
330
1F
100
AcDbEntity
  8
0-6
  6
Continuous
 62
     4
370
     9
100
AcDbLine
 10
16.5733430590605
 20
11.57287508021038
 30
0.0
 11
-77.11358656269125
 21
11.5728750802104
 31
0.0
  0
LINE
  5
3FE
330
1F
100
AcDbEntity
  8
0-6
  6
Continuous
 62
     4
370
     9
100
AcDbLine
 10
17.12982882797148
 20
11.34862590689504
 30
0.0
 11
16.5733430590605
 21
11.57287508021038
 31
0.0
  0
LINE
  5
3FF
330
1F
100
AcDbEntity
  8
0-6
  6
Continuous
 62
     4
370
     9
100
AcDbLine
 10
17.12982882797148
 20
11.34862590689504
 30
0.0
 11
-77.67012187848098
 21
11.34862590689506
 31
0.0
  0
LINE
  5
400
330
1F
100
AcDbEntity
  8
0-6
  6
JWW_PHANTOM1
 62
     4
370
     9
100
AcDbLine
 10
-81.82435515555517
 20
21.66052050412896
 30
0.0
 11
-82.38086569790558
 21
21.43627133081362
 31
0.0
  0
LINE
  5
401
330
1F
100
AcDbEntity
  8
0-6
  6
JWW_PHANTOM1
 62
     4
370
     9
100
AcDbLine
 10
-105.2701363772763
 20
-0.6514299438078295
 30
0.0
 11
-105.6060146684616
 21
-0.1542765622245286
 31
0.0
  0
LINE
  5
402
330
1F
100
AcDbEntity
  8
0-6
  6
JWW_PHANTOM1
 62
     4
370
     9
100
AcDbLine
 10
-80.69374492889085
 20
17.24837094961493
 30
0.0
 11
-82.38086569790558
 21
21.43627133081362
 31
0.0
  0
LINE
  5
403
330
1F
100
AcDbEntity
  8
0-6
  6
JWW_PHANTOM1
 62
     4
370
     9
100
AcDbLine
 10
-80.91437718005591
 20
16.52706748847379
 30
0.0
 11
-105.6060146684616
 21
-0.1542765622245286
 31
0.0
  0
LINE
  5
404
330
1F
100
AcDbEntity
  8
0-6
  6
JWW_PHANTOM1
 62
     4
370
     9
100
AcDbLine
 10
-80.57849888887063
 20
16.02981501313293
 30
0.0
 11
-105.2701363772763
 21
-0.6514299438078295
 31
0.0
  0
LINE
  5
405
330
1F
100
AcDbEntity
  8
0-6
  6
JWW_PHANTOM1
 62
     4
370
     9
100
AcDbLine
 10
21.28408687848501
 20
21.66052050412894
 30
0.0
 11
21.84059742083542
 21
21.4362713308136
 31
0.0
  0
LINE
  5
406
330
1F
100
AcDbEntity
  8
0-6
  6
JWW_PHANTOM1
 62
     4
370
     9
100
AcDbLine
 10
44.72986810020619
 20
-0.6514299438078561
 30
0.0
 11
45.06574639139148
 21
-0.1542765622245552
 31
0.0
  0
LINE
  5
407
330
1F
100
AcDbEntity
  8
0-6
  6
JWW_PHANTOM1
 62
     4
370
     9
100
AcDbLine
 10
20.1534766518207
 20
17.24837094961491
 30
0.0
 11
21.84059742083542
 21
21.4362713308136
 31
0.0
  0
LINE
  5
408
330
1F
100
AcDbEntity
  8
0-6
  6
JWW_PHANTOM1
 62
     4
370
     9
100
AcDbLine
 10
20.37415844986457
 20
16.52706748847378
 30
0.0
 11
45.06574639139148
 21
-0.1542765622245552
 31
0.0
  0
LINE
  5
409
330
1F
100
AcDbEntity
  8
0-6
  6
JWW_PHANTOM1
 62
     4
370
     9
100
AcDbLine
 10
20.03820583836112
 20
16.0298150131329
 30
0.0
 11
44.72986810020619
 21
-0.6514299438078561
 31
0.0
  0
ARC
  5
40A
330
1F
100
AcDbEntity
  8
0-6
  6
JWW_PHANTOM1
 62
     4
370
     9
100
AcDbCircle
 10
-81.25025547124125
 20
17.0242208700571
 30
0.0
 40
0.6000000248774597
100
AcDbArc
 50
304.0422668457031
 51
21.94041442871094
  0
ARC
  5
40B
330
1F
100
AcDbEntity
  8
0-6
  6
JWW_PHANTOM1
 62
     4
370
     9
100
AcDbCircle
 10
-81.25025547124125
 20
17.0242208700571
 30
0.0
 40
1.200000049754919
100
AcDbArc
 50
304.0422668457031
 51
21.94041442871094
  0
ARC
  5
40C
330
1F
100
AcDbEntity
  8
0-6
  6
JWW_PHANTOM1
 62
     4
370
     9
100
AcDbCircle
 10
20.70996242073169
 20
17.02422087005708
 30
0.0
 40
0.6000000248774597
100
AcDbArc
 50
158.059585571289
 51
235.9577331542968
  0
ARC
  5
40D
330
1F
100
AcDbEntity
  8
0-6
  6
JWW_PHANTOM1
 62
     4
370
     9
100
AcDbCircle
 10
20.70996242073169
 20
17.02422087005708
 30
0.0
 40
1.200000049754919
100
AcDbArc
 50
158.059585571289
 51
235.9577331542968
  0
LINE
  5
40E
330
1F
100
AcDbEntity
  8
0-A
  6
Continuous
 62
     4
370
     9
100
AcDbLine
 10
-159.2701399710452
 20
26.5727962529526
 30
0.0
 11
-160.2701446252704
 21
30.57281486985354
 31
0.0
  0
LINE
  5
40F
330
1F
100
AcDbEntity
  8
0-A
  6
Continuous
 62
     4
370
     9
100
AcDbLine
 10
98.72987169397503
 20
26.57279625295254
 30
0.0
 11
99.7298268013215
 21
30.57281486985349
 31
0.0
  0
LINE
  5
410
330
1F
100
AcDbEntity
  8
0-A
  6
JWW_HOJO
 62
     4
370
     9
100
AcDbLine
 10
74.13296783777858
 20
18.98444403485482
 30
0.0
 11
73.65067851982643
 21
16.57279925757897
 31
0.0
  0
LINE
  5
411
330
1F
100
AcDbEntity
  8
0-A
  6
JWW_HOJO
 62
     4
370
     9
100
AcDbLine
 10
77.72982350212384
 20
16.57279925757897
 30
0.0
 11
78.2121623669548
 21
18.98449358173358
 31
0.0
  0
LINE
  5
412
330
1F
100
AcDbEntity
  8
0-A
  6
JWW_HOJO
 62
     4
370
     9
100
AcDbLine
 10
77.72982350212384
 20
16.57279925757897
 30
0.0
 11
75.27046508059195
 21
16.57279925757897
 31
0.0
  0
LINE
  5
413
330
1F
100
AcDbEntity
  8
0-A
  6
JWW_HOJO
 62
     4
370
     9
100
AcDbLine
 10
73.17141156147925
 20
34.57283348675445
 30
0.0
 11
75.63081952988986
 21
34.57283348675445
 31
0.0
  0
LINE
  5
414
330
1F
100
AcDbEntity
  8
0-A
  6
JWW_HOJO
 62
     4
370
     9
100
AcDbLine
 10
72.68902314976957
 20
32.16113916259977
 30
0.0
 11
73.17141156147925
 21
34.57283348675445
 31
0.0
  0
LINE
  5
415
330
1F
100
AcDbEntity
  8
0-A
  6
Continuous
 62
     4
370
     9
100
AcDbLine
 10
75.96828332119587
 20
28.16117009257758
 30
0.0
 11
74.13296783777858
 21
18.98449358173358
 31
0.0
  0
LINE
  5
416
330
1F
100
AcDbEntity
  8
0-A
  6
Continuous
 62
     4
370
     9
100
AcDbLine
 10
78.91003015443741
 20
30.57281486985349
 30
0.0
 11
99.7298268013215
 21
30.57281486985349
 31
0.0
  0
LINE
  5
417
330
1F
100
AcDbEntity
  8
0-A
  6
JWW_HOJO
 62
     4
370
     9
100
AcDbLine
 10
76.45057263914802
 20
30.5728148698535
 30
0.0
 11
78.91003015443741
 21
30.57281486985349
 31
0.0
  0
LINE
  5
418
330
1F
100
AcDbEntity
  8
0-A
  6
JWW_HOJO
 62
     4
370
     9
100
AcDbLine
 10
76.45057263914802
 20
30.5728148698535
 30
0.0
 11
75.96828332119587
 21
28.16107099882007
 31
0.0
  0
LINE
  5
419
330
1F
100
AcDbEntity
  8
0-A
  6
Continuous
 62
     4
370
     9
100
AcDbLine
 10
82.18929032586371
 20
26.57279625295254
 30
0.0
 11
98.72987169397503
 21
26.57279625295254
 31
0.0
  0
LINE
  5
41A
330
1F
100
AcDbEntity
  8
0-A
  6
Continuous
 62
     4
370
     9
100
AcDbLine
 10
78.21221191383356
 20
18.98444403485482
 30
0.0
 11
79.24754349262217
 21
24.16115147567664
 31
0.0
  0
LINE
  5
41B
330
1F
100
AcDbEntity
  8
0-A
  6
JWW_HOJO
 62
     4
370
     9
100
AcDbLine
 10
79.24754349262217
 20
24.16115147567664
 30
0.0
 11
79.72988235745308
 21
26.57279625295254
 31
0.0
  0
LINE
  5
41C
330
1F
100
AcDbEntity
  8
0-A
  6
JWW_HOJO
 62
     4
370
     9
100
AcDbLine
 10
79.72988235745308
 20
26.57279625295254
 30
0.0
 11
82.18929032586371
 21
26.57279625295254
 31
0.0
  0
LINE
  5
41D
330
1F
100
AcDbEntity
  8
0-A
  6
Continuous
 62
     4
370
     9
100
AcDbLine
 10
90.08151355146099
 20
34.57283348675445
 30
0.0
 11
75.63081952988986
 21
34.57283348675445
 31
0.0
  0
LINE
  5
41E
330
1F
100
AcDbEntity
  8
0-A
  6
JWW_HOJO
 62
     4
370
     9
100
AcDbLine
 10
92.72984376862362
 20
34.57283348675445
 30
0.0
 11
93.05838912175089
 21
37.20070084298479
 31
0.0
  0
LINE
  5
41F
330
1F
100
AcDbEntity
  8
0-A
  6
JWW_HOJO
 62
     4
370
     9
100
AcDbLine
 10
92.72984376862362
 20
34.57283348675445
 30
0.0
 11
90.08151355146099
 21
34.57283348675445
 31
0.0
  0
LINE
  5
420
330
1F
100
AcDbEntity
  8
0-A
  6
Continuous
 62
     4
370
     9
100
AcDbLine
 10
-139.450323204947
 20
30.57281486985353
 30
0.0
 11
-150.1217795014185
 21
30.57281486985353
 31
0.0
  0
LINE
  5
421
330
1F
100
AcDbEntity
  8
0-A
  6
JWW_HOJO
 62
     4
370
     9
100
AcDbLine
 10
-136.5085763717054
 20
28.16117009257762
 30
0.0
 11
-136.9908904630969
 21
30.57281486985353
 31
0.0
  0
LINE
  5
422
330
1F
100
AcDbEntity
  8
0-A
  6
JWW_HOJO
 62
     4
370
     9
100
AcDbLine
 10
-136.9908904630969
 20
30.57281486985353
 30
0.0
 11
-139.450323204947
 21
30.57281486985353
 31
0.0
  0
LINE
  5
423
330
1F
100
AcDbEntity
  8
0-A
  6
JWW_HOJO
 62
     4
370
     9
100
AcDbLine
 10
-138.2701413260728
 20
16.57279925757901
 30
0.0
 11
-138.7524554174643
 21
18.98449358173361
 31
0.0
  0
LINE
  5
424
330
1F
100
AcDbEntity
  8
0-A
  6
JWW_HOJO
 62
     4
370
     9
100
AcDbLine
 10
-138.2701413260728
 20
16.57279925757901
 30
0.0
 11
-135.8107333576621
 21
16.57279925757901
 31
0.0
  0
LINE
  5
425
330
1F
100
AcDbEntity
  8
0-A
  6
Continuous
 62
     4
370
     9
100
AcDbLine
 10
-142.7295586029339
 20
26.57279625295259
 30
0.0
 11
-159.2701399710452
 21
26.5727962529526
 31
0.0
  0
LINE
  5
426
330
1F
100
AcDbEntity
  8
0-A
  6
Continuous
 62
     4
370
     9
100
AcDbLine
 10
-138.7524554174643
 20
18.98444403485486
 30
0.0
 11
-139.7878117696923
 21
24.16115147567668
 31
0.0
  0
LINE
  5
427
330
1F
100
AcDbEntity
  8
0-A
  6
JWW_HOJO
 62
     4
370
     9
100
AcDbLine
 10
-139.7878117696923
 20
24.16120102255549
 30
0.0
 11
-140.2701506345232
 21
26.57279625295259
 31
0.0
  0
LINE
  5
428
330
1F
100
AcDbEntity
  8
0-A
  6
JWW_HOJO
 62
     4
370
     9
100
AcDbLine
 10
-140.2701506345232
 20
26.57279625295259
 30
0.0
 11
-142.7295586029339
 21
26.57279625295259
 31
0.0
  0
LINE
  5
429
330
1F
100
AcDbEntity
  8
0-A
  6
Continuous
 62
     4
370
     9
100
AcDbLine
 10
-158.3796339189028
 20
45.69690052079463
 30
0.0
 11
-160.2701446252704
 21
30.57281486985354
 31
0.0
  0
LINE
  5
42A
330
1F
100
AcDbEntity
  8
0-A
  6
JWW_HOJO
 62
     4
370
     9
100
AcDbLine
 10
-158.2701353168199
 20
46.57279024369975
 30
0.0
 11
-157.3873585777657
 21
46.57279024369975
 31
0.0
  0
LINE
  5
42B
330
1F
100
AcDbEntity
  8
0-A
  6
JWW_HOJO
 62
     4
370
     9
100
AcDbLine
 10
-158.2701353168199
 20
46.57279024369975
 30
0.0
 11
-158.3796339189028
 21
45.69690052079463
 31
0.0
  0
LINE
  5
42C
330
1F
100
AcDbEntity
  8
0-A
  6
Continuous
 62
     4
370
     9
100
AcDbLine
 10
-153.098630298269
 20
33.20068222608389
 30
0.0
 11
-154.6606451983882
 21
45.69690052079463
 31
0.0
  0
LINE
  5
42D
330
1F
100
AcDbEntity
  8
0-A
  6
JWW_HOJO
 62
     4
370
     9
100
AcDbLine
 10
-154.6606451983882
 20
45.69685097391586
 30
0.0
 11
-154.770143800471
 21
46.57279024369975
 31
0.0
  0
LINE
  5
42E
330
1F
100
AcDbEntity
  8
0-A
  6
Continuous
 62
     4
370
     9
100
AcDbLine
 10
93.05838912175089
 20
37.20070084298479
 30
0.0
 11
94.12032737443926
 21
45.69685097391582
 31
0.0
  0
LINE
  5
42F
330
1F
100
AcDbEntity
  8
0-A
  6
JWW_HOJO
 62
     4
370
     9
100
AcDbLine
 10
94.12042646819678
 20
45.69680142703706
 30
0.0
 11
94.22987552340086
 21
46.57279024369971
 31
0.0
  0
LINE
  5
430
330
1F
100
AcDbEntity
  8
0-A
  6
Continuous
 62
     4
370
     9
100
AcDbLine
 10
97.83931609495383
 20
45.69685097391582
 30
0.0
 11
99.7298268013215
 21
30.57281486985349
 31
0.0
  0
LINE
  5
431
330
1F
100
AcDbEntity
  8
0-A
  6
JWW_HOJO
 62
     4
370
     9
100
AcDbLine
 10
97.72986703974979
 20
46.57279024369971
 30
0.0
 11
97.83931609495383
 21
45.69690052079459
 31
0.0
  0
LINE
  5
432
330
1F
100
AcDbEntity
  8
0-A
  6
JWW_HOJO
 62
     4
370
     9
100
AcDbLine
 10
97.72986703974979
 20
46.57279024369971
 30
0.0
 11
96.84709030069556
 21
46.57279024369971
 31
0.0
  0
LINE
  5
433
330
1F
100
AcDbEntity
  8
0-A
  6
JWW_HOJO
 62
     4
370
     9
100
AcDbLine
 10
-121.5220080827918
 20
22.07284962925719
 30
0.0
 11
-120.2701318703367
 21
22.07284962925719
 31
0.0
  0
LINE
  5
434
330
1F
100
AcDbEntity
  8
0-A
  6
JWW_HOJO
 62
     4
370
     9
100
AcDbLine
 10
-120.0462047517334
 20
20.84116376990103
 30
0.0
 11
-120.2701318703367
 21
22.07284962925719
 31
0.0
  0
LINE
  5
435
330
1F
100
AcDbEntity
  8
0-A
  6
Continuous
 62
     4
370
     9
100
AcDbLine
 10
-130.7701311928229
 20
16.57279925757901
 30
0.0
 11
-131.5462087284448
 21
20.84121331677979
 31
0.0
  0
LINE
  5
436
330
1F
100
AcDbEntity
  8
0-A
  6
JWW_HOJO
 62
     4
370
     9
100
AcDbLine
 10
-131.5462087284448
 20
20.84116376990103
 30
0.0
 11
-131.7701358470481
 21
22.0728496292572
 31
0.0
  0
LINE
  5
437
330
1F
100
AcDbEntity
  8
0-A
  6
Continuous
 62
     4
370
     9
100
AcDbLine
 10
59.72983881982719
 20
16.57279925757897
 30
0.0
 11
60.44579121806105
 21
19.43665839739331
 31
0.0
  0
LINE
  5
438
330
1F
100
AcDbEntity
  8
0-A
  6
JWW_HOJO
 62
     4
370
     9
100
AcDbLine
 10
60.44579121806105
 20
19.43665839739331
 30
0.0
 11
60.72989302093115
 21
20.57281787447992
 31
0.0
  0
LINE
  5
439
330
1F
100
AcDbEntity
  8
0-A
  6
Continuous
 62
     4
370
     9
100
AcDbLine
 10
-135.5320817114568
 20
23.27867201789509
 30
0.0
 11
-136.5085763717054
 21
28.16117009257762
 31
0.0
  0
LINE
  5
43A
330
1F
100
AcDbEntity
  8
0-A
  6
Continuous
 62
     4
370
     9
100
AcDbLine
 10
-121.5220080827918
 20
22.07284962925719
 30
0.0
 11
-134.061208294836
 21
22.0728496292572
 31
0.0
  0
LINE
  5
43B
330
1F
100
AcDbEntity
  8
0-A
  6
Continuous
 62
     4
370
     9
100
AcDbLine
 10
70.6126621011337
 20
21.77864026311781
 30
0.0
 11
72.68907269664831
 21
32.16113916259977
 31
0.0
  0
LINE
  5
43C
330
1F
100
AcDbEntity
  8
0-A
  6
JWW_HOJO
 62
     4
370
     9
100
AcDbLine
 10
70.37151744215763
 20
20.57281787447991
 30
0.0
 11
69.14176391107353
 21
20.57281787447991
 31
0.0
  0
LINE
  5
43D
330
1F
100
AcDbEntity
  8
0-A
  6
JWW_HOJO
 62
     4
370
     9
100
AcDbLine
 10
70.37151744215763
 20
20.57281787447991
 30
0.0
 11
70.6126621011337
 21
21.77864026311781
 31
0.0
  0
LINE
  5
43E
330
1F
100
AcDbEntity
  8
0-A
  6
Continuous
 62
     4
370
     9
100
AcDbLine
 10
-135.8107333576621
 20
16.57279925757901
 30
0.0
 11
-131.8412851649626
 21
16.57279925757901
 31
0.0
  0
LINE
  5
43F
330
1F
100
AcDbEntity
  8
0-A
  6
Continuous
 62
     4
370
     9
100
AcDbLine
 10
-157.3873585777657
 20
46.57279024369975
 30
0.0
 11
-129.7701265385977
 21
46.57279024369974
 31
0.0
  0
LINE
  5
440
330
1F
100
AcDbEntity
  8
0-A
  6
Continuous
 62
     4
370
     9
100
AcDbLine
 10
75.27046508059195
 20
16.57279925757897
 30
0.0
 11
50.19246103153386
 21
16.57279925757897
 31
0.0
  0
LINE
  5
441
330
1F
100
AcDbEntity
  8
0-A
  6
Continuous
 62
     4
370
     9
100
AcDbLine
 10
-120.0462047517334
 20
20.84116376990103
 30
0.0
 11
-119.2701272161115
 21
16.57279925757901
 31
0.0
  0
LINE
  5
442
330
1F
100
AcDbEntity
  8
0-A
  6
Continuous
 62
     4
370
     9
100
AcDbLine
 10
-110.732729308604
 20
16.57279925757901
 30
0.0
 11
-120.2114931393118
 21
16.57279925757901
 31
0.0
  0
LINE
  5
443
330
1F
100
AcDbEntity
  8
0-A
  6
Continuous
 62
     4
370
     9
100
AcDbLine
 10
69.14176391107353
 20
20.57281787447991
 30
0.0
 11
38.95146336359527
 21
20.57281787447992
 31
0.0
  0
LINE
  5
444
330
1F
100
AcDbEntity
  8
0-A
  6
Continuous
 62
     4
370
     9
100
AcDbLine
 10
41.26738357108655
 20
16.57279925757898
 30
0.0
 11
39.32289154029841
 21
16.57279925757898
 31
0.0
  0
LINE
  5
445
330
1F
100
AcDbEntity
  8
0-A
  6
Continuous
 62
     4
370
     9
100
AcDbLine
 10
-99.49173164066542
 20
20.57281787447995
 30
0.0
 11
-119.9974010761444
 21
20.57281787447995
 31
0.0
  0
LINE
  5
446
330
1F
100
AcDbEntity
  8
0-A
  6
Continuous
 62
     4
370
     9
100
AcDbLine
 10
-99.86315981736857
 20
16.572799257579
 30
0.0
 11
-101.8076518481566
 21
16.572799257579
 31
0.0
  0
LINE
  5
447
330
1F
100
AcDbEntity
  8
0-A
  6
Continuous
 62
     4
370
     9
100
AcDbLine
 10
96.84709030069556
 20
46.57279024369971
 30
0.0
 11
36.53203972635242
 21
46.57279024369971
 31
0.0
  0
LINE
  5
448
330
1F
100
AcDbEntity
  8
0-A
  6
Continuous
 62
     4
370
     9
100
AcDbLine
 10
-121.7701883985533
 20
46.57279024369974
 30
0.0
 11
-97.07233277686191
 21
46.57279024369974
 31
0.0
  0
ARC
  5
449
330
1F
100
AcDbEntity
  8
0-A
  6
Continuous
 62
     4
370
     9
100
AcDbCircle
 10
75.63081952988986
 20
31.57281952407871
 30
0.0
 40
3.000000027616052
100
AcDbArc
 50
90.0
 51
168.6901702880859
  0
ARC
  5
44A
330
1F
100
AcDbEntity
  8
0-A
  6
Continuous
 62
     4
370
     9
100
AcDbCircle
 10
78.91003015443741
 20
27.57280090717777
 30
0.0
 40
3.000000027616052
100
AcDbArc
 50
90.0
 51
168.6901702880859
  0
ARC
  5
44B
330
1F
100
AcDbEntity
  8
0-A
  6
Continuous
 62
     4
370
     9
100
AcDbCircle
 10
82.18929032586371
 20
23.57283183715558
 30
0.0
 40
3.000000027616052
100
AcDbArc
 50
90.0
 51
168.6900787353516
  0
ARC
  5
44C
330
1F
100
AcDbEntity
  8
0-A
  6
Continuous
 62
     4
370
     9
100
AcDbCircle
 10
75.27046508059195
 20
19.57281322025463
 30
0.0
 40
3.000000027616052
100
AcDbArc
 50
270.0
 51
348.6901702880859
  0
ARC
  5
44D
330
1F
100
AcDbEntity
  8
0-A
  6
Continuous
 62
     4
370
     9
100
AcDbCircle
 10
71.19122100453697
 20
19.57281322025463
 30
0.0
 40
3.000000027616052
100
AcDbArc
 50
270.0
 51
348.6903228759766
  0
ARC
  5
44E
330
1F
100
AcDbEntity
  8
0-A
  6
Continuous
 62
     4
370
     9
100
AcDbCircle
 10
90.08151355146099
 20
37.57279790255135
 30
0.0
 40
3.000000027616052
100
AcDbArc
 50
270.0
 51
352.8750610351562
  0
ARC
  5
44F
330
1F
100
AcDbEntity
  8
0-A
  6
Continuous
 62
     4
370
     9
100
AcDbCircle
 10
-150.1217795014185
 20
33.57282883252921
 30
0.0
 40
3.000000027616052
100
AcDbArc
 50
187.1251373291016
 51
270.0
  0
ARC
  5
450
330
1F
100
AcDbEntity
  8
0-A
  6
Continuous
 62
     4
370
     9
100
AcDbCircle
 10
-139.450323204947
 20
27.57280090717781
 30
0.0
 40
3.000000027616052
100
AcDbArc
 50
11.31002807617188
 51
90.0
  0
ARC
  5
451
330
1F
100
AcDbEntity
  8
0-A
  6
Continuous
 62
     4
370
     9
100
AcDbCircle
 10
-142.7295586029339
 20
23.57283183715562
 30
0.0
 40
3.000000027616052
100
AcDbArc
 50
11.30998229980469
 51
90.0
  0
ARC
  5
452
330
1F
100
AcDbEntity
  8
0-A
  6
Continuous
 62
     4
370
     9
100
AcDbCircle
 10
-135.8107333576621
 20
19.57281322025468
 30
0.0
 40
3.000000027616052
100
AcDbArc
 50
191.3099060058594
 51
270.0
  0
ARC
  5
453
330
1F
100
AcDbEntity
  8
0-A
  6
Continuous
 62
     4
370
     9
100
AcDbCircle
 10
-157.3873585777657
 20
45.57283513635328
 30
0.0
 40
1.00000000920535
100
AcDbArc
 50
90.0
 51
172.8747406005859
  0
ARC
  5
454
330
1F
100
AcDbEntity
  8
0-A
  6
Continuous
 62
     4
370
     9
100
AcDbCircle
 10
-155.6529205395252
 20
45.57283513635328
 30
0.0
 40
1.00000000920535
100
AcDbArc
 50
7.124771118164062
 51
90.0
  0
ARC
  5
455
330
1F
100
AcDbEntity
  8
0-A
  6
Continuous
 62
     4
370
     9
100
AcDbCircle
 10
96.84709030069556
 20
45.57283513635324
 30
0.0
 40
1.00000000920535
100
AcDbArc
 50
7.125259399414062
 51
90.0
  0
ARC
  5
456
330
1F
100
AcDbEntity
  8
0-A
  6
Continuous
 62
     4
370
     9
100
AcDbCircle
 10
95.11265226245506
 20
45.57283513635324
 30
0.0
 40
1.00000000920535
100
AcDbArc
 50
90.0
 51
172.875228881836
  0
ARC
  5
457
330
1F
100
AcDbEntity
  8
0-A
  6
Continuous
 62
     4
370
     9
100
AcDbCircle
 10
-121.5220080827918
 20
20.5728674213587
 30
0.0
 40
1.500000013808026
100
AcDbArc
 50
10.30412292480469
 51
90.00000000000001
  0
ARC
  5
458
330
1F
100
AcDbEntity
  8
0-A
  6
Continuous
 62
     4
370
     9
100
AcDbCircle
 10
-133.0220120595033
 20
20.5728674213587
 30
0.0
 40
1.500000013808026
100
AcDbArc
 50
10.30538940429688
 51
90.0
  0
ARC
  5
459
330
1F
100
AcDbEntity
  8
0-A
  6
Continuous
 62
     4
370
     9
100
AcDbCircle
 10
61.90103259442974
 20
19.07278611970268
 30
0.0
 40
1.500000013808026
100
AcDbArc
 50
90.0
 51
165.9637603759766
  0
ARC
  5
45A
330
1F
100
AcDbEntity
  8
0-A
  6
Continuous
 62
     4
370
     9
100
AcDbCircle
 10
-134.061208294836
 20
23.57283183715562
 30
0.0
 40
1.500000013808026
100
AcDbArc
 50
191.3109130859375
 51
270.0
  0
ARC
  5
45B
330
1F
100
AcDbEntity
  8
0-A
  6
Continuous
 62
     4
370
     9
100
AcDbCircle
 10
69.14176391107353
 20
22.07280008237834
 30
0.0
 40
1.500000013808026
100
AcDbArc
 50
270.0
 51
348.6905975341797
  0
LINE
  5
45C
330
1F
100
AcDbEntity
  8
0-4_寸法
  6
Continuous
 62
     7
370
     9
100
AcDbLine
 10
-77.11358656269125
 20
88.90370239466844
 30
0.0
 11
16.5733430590605
 21
88.90370239466844
 31
0.0
  0
LINE
  5
45D
330
1F
100
AcDbEntity
  8
0-4_寸法
  6
Continuous
 62
     7
370
     9
100
AcDbLine
 10
-77.11358656269125
 20
88.90370239466844
 30
0.0
 11
-69.67775010238768
 21
89.88264883631882
 31
0.0
  0
LINE
  5
45E
330
1F
100
AcDbEntity
  8
0-4_寸法
  6
Continuous
 62
     7
370
     9
100
AcDbLine
 10
-77.11358656269125
 20
88.90370239466844
 30
0.0
 11
-69.67775010238768
 21
87.92475595301805
 31
0.0
  0
LINE
  5
45F
330
1F
100
AcDbEntity
  8
0-4_寸法
  6
Continuous
 62
     7
370
     9
100
AcDbLine
 10
16.5733430590605
 20
88.90370239466844
 30
0.0
 11
9.137506598756918
 21
89.88264883631882
 31
0.0
  0
LINE
  5
460
330
1F
100
AcDbEntity
  8
0-4_寸法
  6
Continuous
 62
     7
370
     9
100
AcDbLine
 10
16.5733430590605
 20
88.90370239466844
 30
0.0
 11
9.137506598756918
 21
87.92475595301805
 31
0.0
  0
LINE
  5
461
330
1F
100
AcDbEntity
  8
0-4_寸法
  6
Continuous
 62
     7
370
     9
100
AcDbLine
 10
-77.11358656269125
 20
89.80370239466843
 30
0.0
 11
-77.11358656269125
 21
17.57287508021041
 31
0.0
  0
LINE
  5
462
330
1F
100
AcDbEntity
  8
0-4_寸法
  6
Continuous
 62
     7
370
     9
100
AcDbLine
 10
16.5733430590605
 20
89.80370239466843
 30
0.0
 11
16.5733430590605
 21
17.57287508021038
 31
0.0
  0
LINE
  5
463
330
1F
100
AcDbEntity
  8
0-4_寸法
  6
Continuous
 62
     7
370
     9
100
AcDbLine
 10
-89.27013622999073
 20
105.181856102631
 30
0.0
 11
28.72984317948118
 21
105.181856102631
 31
0.0
  0
LINE
  5
464
330
1F
100
AcDbEntity
  8
0-4_寸法
  6
Continuous
 62
     7
370
     9
100
AcDbLine
 10
-89.27013622999073
 20
105.181856102631
 30
0.0
 11
-81.83429976968715
 21
106.1608025442814
 31
0.0
  0
LINE
  5
465
330
1F
100
AcDbEntity
  8
0-4_寸法
  6
Continuous
 62
     7
370
     9
100
AcDbLine
 10
-89.27013622999073
 20
105.181856102631
 30
0.0
 11
-81.83429976968715
 21
104.2029096609806
 31
0.0
  0
LINE
  5
466
330
1F
100
AcDbEntity
  8
0-4_寸法
  6
Continuous
 62
     7
370
     9
100
AcDbLine
 10
28.72984317948118
 20
105.181856102631
 30
0.0
 11
21.2940067191776
 21
106.1608025442814
 31
0.0
  0
LINE
  5
467
330
1F
100
AcDbEntity
  8
0-4_寸法
  6
Continuous
 62
     7
370
     9
100
AcDbLine
 10
28.72984317948118
 20
105.181856102631
 30
0.0
 11
21.2940067191776
 21
104.2029096609806
 31
0.0
  0
LINE
  5
468
330
1F
100
AcDbEntity
  8
0-4_寸法
  6
Continuous
 62
     7
370
     9
100
AcDbLine
 10
-89.27013622999073
 20
106.081856102631
 30
0.0
 11
-89.27013622999073
 21
82.57283077669922
 31
0.0
  0
LINE
  5
469
330
1F
100
AcDbEntity
  8
0-4_寸法
  6
Continuous
 62
     7
370
     9
100
AcDbLine
 10
28.72984317948118
 20
106.081856102631
 30
0.0
 11
28.72984317948118
 21
82.5728307766992
 31
0.0
  0
LINE
  5
46A
330
1F
100
AcDbEntity
  8
0-4_寸法
  6
Continuous
 62
     7
370
     9
100
AcDbLine
 10
-91.77012309211443
 20
123.5027823019633
 30
0.0
 11
31.22990436192305
 21
123.5027823019633
 31
0.0
  0
LINE
  5
46B
330
1F
100
AcDbEntity
  8
0-4_寸法
  6
Continuous
 62
     7
370
     9
100
AcDbLine
 10
-91.77012309211443
 20
123.5027823019633
 30
0.0
 11
-84.33428663181085
 21
124.4817287436137
 31
0.0
  0
LINE
  5
46C
330
1F
100
AcDbEntity
  8
0-4_寸法
  6
Continuous
 62
     7
370
     9
100
AcDbLine
 10
-91.77012309211443
 20
123.5027823019633
 30
0.0
 11
-84.33428663181085
 21
122.5238358603129
 31
0.0
  0
LINE
  5
46D
330
1F
100
AcDbEntity
  8
0-4_寸法
  6
Continuous
 62
     7
370
     9
100
AcDbLine
 10
31.22990436192305
 20
123.5027823019633
 30
0.0
 11
23.79406790161947
 21
124.4817287436137
 31
0.0
  0
LINE
  5
46E
330
1F
100
AcDbEntity
  8
0-4_寸法
  6
Continuous
 62
     7
370
     9
100
AcDbLine
 10
31.22990436192305
 20
123.5027823019633
 30
0.0
 11
23.79406790161947
 21
122.5238358603129
 31
0.0
  0
LINE
  5
46F
330
1F
100
AcDbEntity
  8
0-4_寸法
  6
Continuous
 62
     7
370
     9
100
AcDbLine
 10
-91.77012309211443
 20
124.4027823019633
 30
0.0
 11
-91.77012309211443
 21
52.34859061726314
 31
0.0
  0
LINE
  5
470
330
1F
100
AcDbEntity
  8
0-4_寸法
  6
Continuous
 62
     7
370
     9
100
AcDbLine
 10
31.22990436192305
 20
124.4027823019633
 30
0.0
 11
31.22990436192305
 21
52.34859061726313
 31
0.0
  0
LINE
  5
471
330
1F
100
AcDbEntity
  8
0-4_寸法
  6
Continuous
 62
     7
370
     9
100
AcDbLine
 10
-111.2700899823096
 20
141.428914132017
 30
0.0
 11
50.72984647867883
 21
141.428914132017
 31
0.0
  0
LINE
  5
472
330
1F
100
AcDbEntity
  8
0-4_寸法
  6
Continuous
 62
     7
370
     9
100
AcDbLine
 10
-111.2700899823096
 20
141.428914132017
 30
0.0
 11
-103.834253522006
 21
142.4078605736674
 31
0.0
  0
LINE
  5
473
330
1F
100
AcDbEntity
  8
0-4_寸法
  6
Continuous
 62
     7
370
     9
100
AcDbLine
 10
-111.2700899823096
 20
141.428914132017
 30
0.0
 11
-103.834253522006
 21
140.4499676903666
 31
0.0
  0
LINE
  5
474
330
1F
100
AcDbEntity
  8
0-4_寸法
  6
Continuous
 62
     7
370
     9
100
AcDbLine
 10
50.72984647867883
 20
141.428914132017
 30
0.0
 11
43.29401001837525
 21
142.4078605736674
 31
0.0
  0
LINE
  5
475
330
1F
100
AcDbEntity
  8
0-4_寸法
  6
Continuous
 62
     7
370
     9
100
AcDbLine
 10
50.72984647867883
 20
141.428914132017
 30
0.0
 11
43.29401001837525
 21
140.4499676903666
 31
0.0
  0
LINE
  5
476
330
1F
100
AcDbEntity
  8
0-4_寸法
  6
Continuous
 62
     7
370
     9
100
AcDbLine
 10
-111.2700899823096
 20
142.328914132017
 30
0.0
 11
-111.2700899823096
 21
18.07280308700486
 31
0.0
  0
LINE
  5
477
330
1F
100
AcDbEntity
  8
0-4_寸法
  6
Continuous
 62
     7
370
     9
100
AcDbLine
 10
50.72984647867883
 20
142.328914132017
 30
0.0
 11
50.72984647867883
 21
18.07280308700481
 31
0.0
  0
LINE
  5
478
330
1F
100
AcDbEntity
  8
0-4_寸法
  6
Continuous
 62
     7
370
     9
100
AcDbLine
 10
-140.2701506345232
 20
162.1263173745454
 30
0.0
 11
79.72988235745308
 21
162.1263173745454
 31
0.0
  0
LINE
  5
479
330
1F
100
AcDbEntity
  8
0-4_寸法
  6
Continuous
 62
     7
370
     9
100
AcDbLine
 10
-140.2701506345232
 20
162.1263173745454
 30
0.0
 11
-132.8343141742197
 21
163.1052638161958
 31
0.0
  0
LINE
  5
47A
330
1F
100
AcDbEntity
  8
0-4_寸法
  6
Continuous
 62
     7
370
     9
100
AcDbLine
 10
-140.2701506345232
 20
162.1263173745454
 30
0.0
 11
-132.8343141742197
 21
161.1473709328951
 31
0.0
  0
LINE
  5
47B
330
1F
100
AcDbEntity
  8
0-4_寸法
  6
Continuous
 62
     7
370
     9
100
AcDbLine
 10
79.72988235745308
 20
162.1263173745454
 30
0.0
 11
72.2940458971495
 21
163.1052638161958
 31
0.0
  0
LINE
  5
47C
330
1F
100
AcDbEntity
  8
0-4_寸法
  6
Continuous
 62
     7
370
     9
100
AcDbLine
 10
79.72988235745308
 20
162.1263173745454
 30
0.0
 11
72.2940458971495
 21
161.1473709328951
 31
0.0
  0
LINE
  5
47D
330
1F
100
AcDbEntity
  8
0-4_寸法
  6
Continuous
 62
     7
370
     9
100
AcDbLine
 10
-140.2701506345232
 20
163.0263173745454
 30
0.0
 11
-140.2701506345232
 21
32.57279625295259
 31
0.0
  0
LINE
  5
47E
330
1F
100
AcDbEntity
  8
0-4_寸法
  6
Continuous
 62
     7
370
     9
100
AcDbLine
 10
79.72988235745308
 20
163.0263173745454
 30
0.0
 11
79.72988235745308
 21
32.57279625295254
 31
0.0
  0
LINE
  5
47F
330
1F
100
AcDbEntity
  8
0-4_寸法
  6
Continuous
 62
     7
370
     9
100
AcDbLine
 10
-142.7700879497682
 20
182.3996251032005
 30
0.0
 11
82.22977012581929
 21
182.3996251032005
 31
0.0
  0
LINE
  5
480
330
1F
100
AcDbEntity
  8
0-4_寸法
  6
Continuous
 62
     7
370
     9
100
AcDbLine
 10
-142.7700879497682
 20
182.3996251032005
 30
0.0
 11
-135.3342514894646
 21
183.3785715448509
 31
0.0
  0
LINE
  5
481
330
1F
100
AcDbEntity
  8
0-4_寸法
  6
Continuous
 62
     7
370
     9
100
AcDbLine
 10
-142.7700879497682
 20
182.3996251032005
 30
0.0
 11
-135.3342514894646
 21
181.4206786615501
 31
0.0
  0
LINE
  5
482
330
1F
100
AcDbEntity
  8
0-4_寸法
  6
Continuous
 62
     7
370
     9
100
AcDbLine
 10
82.22977012581929
 20
182.3996251032005
 30
0.0
 11
74.79393366551571
 21
183.3785715448509
 31
0.0
  0
LINE
  5
483
330
1F
100
AcDbEntity
  8
0-4_寸法
  6
Continuous
 62
     7
370
     9
100
AcDbLine
 10
82.22977012581929
 20
182.3996251032005
 30
0.0
 11
74.79393366551571
 21
181.4206786615501
 31
0.0
  0
LINE
  5
484
330
1F
100
AcDbEntity
  8
0-4_寸法
  6
Continuous
 62
     7
370
     9
100
AcDbLine
 10
-142.7700879497682
 20
183.2996251032005
 30
0.0
 11
-142.7700879497682
 21
7.716316298877445
 31
0.0
  0
LINE
  5
485
330
1F
100
AcDbEntity
  8
0-4_寸法
  6
Continuous
 62
     7
370
     9
100
AcDbLine
 10
82.22977012581929
 20
183.2996251032005
 30
0.0
 11
82.22977012581929
 21
7.716316298877402
 31
0.0
  0
LINE
  5
486
330
1F
100
AcDbEntity
  8
0-4_寸法
  6
Continuous
 62
     7
370
     9
100
AcDbLine
 10
-160.2701446252704
 20
202.2133675113672
 30
0.0
 11
99.7298268013215
 21
202.2133675113672
 31
0.0
  0
LINE
  5
487
330
1F
100
AcDbEntity
  8
0-4_寸法
  6
Continuous
 62
     7
370
     9
100
AcDbLine
 10
-160.2701446252704
 20
202.2133675113672
 30
0.0
 11
-152.8343081649668
 21
203.1923139530176
 31
0.0
  0
LINE
  5
488
330
1F
100
AcDbEntity
  8
0-4_寸法
  6
Continuous
 62
     7
370
     9
100
AcDbLine
 10
-160.2701446252704
 20
202.2133675113672
 30
0.0
 11
-152.8343081649668
 21
201.2344210697168
 31
0.0
  0
LINE
  5
489
330
1F
100
AcDbEntity
  8
0-4_寸法
  6
Continuous
 62
     7
370
     9
100
AcDbLine
 10
99.7298268013215
 20
202.2133675113672
 30
0.0
 11
92.29399034101792
 21
203.1923139530176
 31
0.0
  0
LINE
  5
48A
330
1F
100
AcDbEntity
  8
0-4_寸法
  6
Continuous
 62
     7
370
     9
100
AcDbLine
 10
99.7298268013215
 20
202.2133675113672
 30
0.0
 11
92.29399034101792
 21
201.2344210697168
 31
0.0
  0
LINE
  5
48B
330
1F
100
AcDbEntity
  8
0-4_寸法
  6
Continuous
 62
     7
370
     9
100
AcDbLine
 10
-160.2701446252704
 20
203.1133675113672
 30
0.0
 11
-160.2701446252704
 21
36.57281486985353
 31
0.0
  0
LINE
  5
48C
330
1F
100
AcDbEntity
  8
0-4_寸法
  6
Continuous
 62
     7
370
     9
100
AcDbLine
 10
99.7298268013215
 20
203.1133675113672
 30
0.0
 11
99.7298268013215
 21
36.57281486985349
 31
0.0
  0
TEXT
  5
48D
330
1F
100
AcDbEntity
  8
0-4_寸法
  6
Continuous
 62
     2
370
   211
100
AcDbText
 10
-46.77015891197447
 20
205.7053675113672
 30
0.0
 40
9.144
  1
φ260
 41
1.1
  7
ＭＳ ゴシック
100
AcDbText
  0
TEXT
  5
48E
330
1F
100
AcDbEntity
  8
0-4_寸法
  6
Continuous
 62
     2
370
   211
100
AcDbText
 10
-46.77015891197445
 20
185.8916251032005
 30
0.0
 40
9.144
  1
φ225
 41
1.1
  7
ＭＳ ゴシック
100
AcDbText
  0
TEXT
  5
48F
330
1F
100
AcDbEntity
  8
0-4_寸法
  6
Continuous
 62
     2
370
   211
100
AcDbText
 10
-46.77013413853508
 20
165.6183173745455
 30
0.0
 40
9.144
  1
φ220
 41
1.1
  7
ＭＳ ゴシック
100
AcDbText
  0
TEXT
  5
490
330
1F
100
AcDbEntity
  8
0-4_寸法
  6
Continuous
 62
     2
370
   211
100
AcDbText
 10
-46.77012175181537
 20
144.920914132017
 30
0.0
 40
9.144
  1
φ162
 41
1.1
  7
ＭＳ ゴシック
100
AcDbText
  0
TEXT
  5
491
330
1F
100
AcDbEntity
  8
0-4_寸法
  6
Continuous
 62
     2
370
   211
100
AcDbText
 10
-46.77010936509569
 20
126.9947823019633
 30
0.0
 40
9.144
  1
φ123
 41
1.1
  7
ＭＳ ゴシック
100
AcDbText
  0
TEXT
  5
492
330
1F
100
AcDbEntity
  8
0-4_寸法
  6
Continuous
 62
     2
370
   211
100
AcDbText
 10
-46.77014652525477
 20
108.673856102631
 30
0.0
 40
9.144
  1
φ118
 41
1.1
  7
ＭＳ ゴシック
100
AcDbText
  0
TEXT
  5
493
330
1F
100
AcDbEntity
  8
0-4_寸法
  6
Continuous
 62
     2
370
   211
100
AcDbText
 10
-43.39512175181538
 20
92.39570239466843
 30
0.0
 40
9.144
  1
φ94
 41
1.09375
  7
ＭＳ ゴシック
100
AcDbText
  0
LINE
  5
494
330
1F
100
AcDbEntity
  8
0-5_文字
  6
Continuous
 62
     7
370
     9
100
AcDbLine
 10
54.8717307316779
 20
12.57283018755678
 30
0.0
 11
57.12702422795995
 21
19.72570731816849
 31
0.0
  0
LINE
  5
495
330
1F
100
AcDbEntity
  8
0-5_文字
  6
Continuous
 62
     7
370
     9
100
AcDbLine
 10
54.8717307316779
 20
12.57283018755678
 30
0.0
 11
58.90147779427909
 21
18.89826603115343
 31
0.0
  0
LINE
  5
496
330
1F
100
AcDbEntity
  8
0-5_文字
  6
Continuous
 62
     7
370
     9
100
AcDbLine
 10
54.8717307316779
 20
12.57283018755678
 30
0.0
 11
107.7192434899814
 21
125.9046870294559
 31
0.0
  0
LINE
  5
497
330
1F
100
AcDbEntity
  8
0-5_文字
  6
Continuous
 62
     7
370
     9
100
AcDbLine
 10
107.7192434899814
 20
125.9046870294559
 30
0.0
 11
206.9484767959618
 21
125.9046870294559
 31
0.0
  0
ENDSEC
  0
SECTION
  2
OBJECTS
  0
DICTIONARY
  5
C
330
0
100
AcDbDictionary
281
     1
  3
ACAD_GROUP
350
D
  3
ACAD_LAYOUT
350
1A
  3
ACAD_MLEADERSTYLE
350
499
  3
ACAD_MLINESTYLE
350
17
  3
ACAD_PLOTSETTINGS
350
19
  3
ACAD_PLOTSTYLENAME
350
E
  3
ACAD_TABLESTYLE
350
498
  3
ACAD_VISUALSTYLE
350
2A
  0
DICTIONARY
  5
D
102
{ACAD_REACTORS
330
C
102
}
330
C
100
AcDbDictionary
281
     1
  0
DICTIONARY
  5
1A
102
{ACAD_REACTORS
330
C
102
}
330
C
100
AcDbDictionary
281
     1
  3
Layout1
350
1E
  3
Layout2
350
26
  3
Model
350
22
  0
DICTIONARY
  5
499
102
{ACAD_REACTORS
330
C
102
}
330
C
100
AcDbDictionary
281
     1
  0
DICTIONARY
  5
17
102
{ACAD_REACTORS
330
C
102
}
330
C
100
AcDbDictionary
281
     1
  3
Standard
350
18
  0
DICTIONARY
  5
19
102
{ACAD_REACTORS
330
C
102
}
330
C
100
AcDbDictionary
281
     1
  0
ACDBDICTIONARYWDFLT
  5
E
102
{ACAD_REACTORS
330
C
102
}
330
C
100
AcDbDictionary
281
     1
  3
Normal
350
F
100
AcDbDictionaryWithDefault
340
F
  0
DICTIONARY
  5
498
102
{ACAD_REACTORS
330
C
102
}
330
C
100
AcDbDictionary
281
     1
  0
DICTIONARY
  5
2A
102
{ACAD_REACTORS
330
C
102
}
330
C
100
AcDbDictionary
281
     1
  3
2dWireframe
350
2F
  3
3D Hidden
350
31
  3
3dWireframe
350
30
  3
Basic
350
32
  3
Brighten
350
36
  3
ColorChange
350
3A
  3
Conceptual
350
34
  3
Dim
350
35
  3
Facepattern
350
39
  3
Flat
350
2B
  3
FlatWithEdges
350
2C
  3
Gouraud
350
2D
  3
GouraudWithEdges
350
2E
  3
Linepattern
350
38
  3
Realistic
350
33
  3
Thicken
350
37
  0
LAYOUT
  5
1E
102
{ACAD_REACTORS
330
1A
102
}
330
1A
100
AcDbPlotSettings
  1

  2
none_device
  4

  6

 40
0.0
 41
0.0
 42
0.0
 43
0.0
 44
0.0
 45
0.0
 46
0.0
 47
0.0
 48
0.0
 49
0.0
140
0.0
141
0.0
142
1.0
143
1.0
 70
   688
 72
     0
 73
     0
 74
     5
  7

 75
    16
 76
     0
 77
     5
 78
   300
147
1.0
148
0.0
149
0.0
100
AcDbLayout
  1
Layout1
 70
     1
 71
     1
 10
0.0
 20
0.0
 11
420.0
 21
297.0
 12
0.0
 22
0.0
 32
0.0
 14
1.000000000000000E+20
 24
1.000000000000000E+20
 34
1.000000000000000E+20
 15
-1.000000000000000E+20
 25
-1.000000000000000E+20
 35
-1.000000000000000E+20
146
0.0
 13
0.0
 23
0.0
 33
0.0
 16
1.0
 26
0.0
 36
0.0
 17
0.0
 27
1.0
 37
0.0
 76
     0
330
1B
  0
LAYOUT
  5
26
102
{ACAD_REACTORS
330
1A
102
}
330
1A
100
AcDbPlotSettings
  1

  2
none_device
  4

  6

 40
0.0
 41
0.0
 42
0.0
 43
0.0
 44
0.0
 45
0.0
 46
0.0
 47
0.0
 48
0.0
 49
0.0
140
0.0
141
0.0
142
1.0
143
1.0
 70
   688
 72
     0
 73
     0
 74
     5
  7

 75
    16
 76
     0
 77
     5
 78
   300
147
1.0
148
0.0
149
0.0
100
AcDbLayout
  1
Layout2
 70
     1
 71
     2
 10
0.0
 20
0.0
 11
0.0
 21
0.0
 12
0.0
 22
0.0
 32
0.0
 14
0.0
 24
0.0
 34
0.0
 15
0.0
 25
0.0
 35
0.0
146
0.0
 13
0.0
 23
0.0
 33
0.0
 16
1.0
 26
0.0
 36
0.0
 17
0.0
 27
1.0
 37
0.0
 76
     0
330
23
  0
LAYOUT
  5
22
102
{ACAD_REACTORS
330
1A
102
}
330
1A
100
AcDbPlotSettings
  1

  2
none_device
  4

  6

 40
0.0
 41
0.0
 42
0.0
 43
0.0
 44
0.0
 45
0.0
 46
0.0
 47
0.0
 48
0.0
 49
0.0
140
0.0
141
0.0
142
1.0
143
1.0
 70
  1712
 72
     0
 73
     0
 74
     0
  7

 75
     0
 76
     0
 77
     5
 78
   300
147
1.0
148
0.0
149
0.0
100
AcDbLayout
  1
Model
 70
     1
 71
     0
 10
-630.0
 20
-445.5
 11
630.0
 21
445.5
 12
0.0
 22
0.0
 32
0.0
 14
-630.0
 24
-445.5
 34
0.0
 15
630.0
 25
445.5
 35
0.0
146
0.0
 13
0.0
 23
0.0
 33
0.0
 16
1.0
 26
0.0
 36
0.0
 17
0.0
 27
1.0
 37
0.0
 76
     0
330
1F
331
29
  0
MLINESTYLE
  5
18
102
{ACAD_REACTORS
330
17
102
}
330
17
100
AcDbMlineStyle
  2
Standard
 70
     0
  3

 62
   256
 51
90.0
 52
90.0
 71
     2
 49
0.5
 62
   256
  6
BYLAYER
 49
-0.5
 62
   256
  6
BYLAYER
  0
ACDBPLACEHOLDER
  5
F
102
{ACAD_REACTORS
330
E
102
}
330
E
  0
VISUALSTYLE
  5
2F
102
{ACAD_REACTORS
330
2A
102
}
330
2A
100
AcDbVisualStyle
  2
2dWireframe
 70
     4
 71
     0
 72
     2
 73
     0
 90
        0
 40
-0.6
 41
-30.0
 62
     5
 63
     7
421
 16777215
 74
     1
 91
        4
 64
     7
 65
   257
 75
     1
175
     1
 42
1.0
 92
        0
 66
   257
 43
1.0
 76
     1
 77
     6
 78
     2
 67
     7
 79
     5
170
     0
171
     0
290
     0
174
     0
 93
        1
 44
0.0
173
     0
291
     0
 45
0.0
1001
ACAD
1000
AcDbSavedByObjectVersion
1070
     0
  0
VISUALSTYLE
  5
31
102
{ACAD_REACTORS
330
2A
102
}
330
2A
100
AcDbVisualStyle
  2
3D Hidden
 70
     6
 71
     1
 72
     2
 73
     2
 90
        0
 40
-0.6
 41
-30.0
 62
     5
 63
     7
421
 16777215
 74
     2
 91
        2
 64
     7
 65
   257
 75
     2
175
     1
 42
40.0
 92
        0
 66
   257
 43
1.0
 76
     1
 77
     6
 78
     2
 67
     7
 79
     3
170
     0
171
     0
290
     0
174
     0
 93
        1
 44
0.0
173
     0
291
     0
 45
0.0
1001
ACAD
1000
AcDbSavedByObjectVersion
1070
     0
  0
VISUALSTYLE
  5
30
102
{ACAD_REACTORS
330
2A
102
}
330
2A
100
AcDbVisualStyle
  2
3dWireframe
 70
     5
 71
     0
 72
     2
 73
     0
 90
        0
 40
-0.6
 41
-30.0
 62
     5
 63
     7
421
 16777215
 74
     1
 91
        4
 64
     7
 65
   257
 75
     1
175
     1
 42
1.0
 92
        0
 66
   257
 43
1.0
 76
     1
 77
     6
 78
     2
 67
     7
 79
     5
170
     0
171
     0
290
     0
174
     0
 93
        1
 44
0.0
173
     0
291
     0
 45
0.0
1001
ACAD
1000
AcDbSavedByObjectVersion
1070
     0
  0
VISUALSTYLE
  5
32
102
{ACAD_REACTORS
330
2A
102
}
330
2A
100
AcDbVisualStyle
  2
Basic
 70
     7
 71
     1
 72
     0
 73
     1
 90
        0
 40
-0.6
 41
-30.0
 62
     5
 63
     7
421
 16777215
 74
     0
 91
        4
 64
     7
 65
   257
 75
     1
175
     1
 42
1.0
 92
        8
 66
     7
 43
1.0
 76
     1
 77
     6
 78
     2
 67
     7
 79
     5
170
     0
171
     0
290
     0
174
     0
 93
        1
 44
0.0
173
     0
291
     1
 45
0.0
1001
ACAD
1000
AcDbSavedByObjectVersion
1070
     0
  0
VISUALSTYLE
  5
36
102
{ACAD_REACTORS
330
2A
102
}
330
2A
100
AcDbVisualStyle
  2
Brighten
 70
    12
 71
     2
 72
     2
 73
     0
 90
        0
 40
-0.6
 41
-30.0
 62
     5
 63
     7
421
 16777215
 74
     1
 91
        4
 64
     7
 65
   257
 75
     1
175
     1
 42
1.0
 92
        8
 66
     7
 43
1.0
 76
     1
 77
     6
 78
     2
 67
     7
 79
     5
170
     0
171
     0
290
     0
174
     0
 93
        1
 44
50.0
173
     0
291
     1
 45
0.0
1001
ACAD
1000
AcDbSavedByObjectVersion
1070
     0
  0
VISUALSTYLE
  5
3A
102
{ACAD_REACTORS
330
2A
102
}
330
2A
100
AcDbVisualStyle
  2
ColorChange
 70
    16
 71
     2
 72
     2
 73
     3
 90
        0
 40
-0.6
 41
-30.0
 62
     5
 63
     8
421
  8421504
 74
     1
 91
        4
 64
     7
 65
   257
 75
     1
175
     1
 42
1.0
 92
        8
 66
     8
424
  8421504
 43
1.0
 76
     1
 77
     6
 78
     2
 67
     7
 79
     5
170
     0
171
     0
290
     0
174
     0
 93
        1
 44
0.0
173
     0
291
     1
 45
0.0
1001
ACAD
1000
AcDbSavedByObjectVersion
1070
     0
  0
VISUALSTYLE
  5
34
102
{ACAD_REACTORS
330
2A
102
}
330
2A
100
AcDbVisualStyle
  2
Conceptual
 70
     9
 71
     3
 72
     2
 73
     0
 90
        0
 40
-0.6
 41
-30.0
 62
     5
 63
     7
421
 16777215
 74
     2
 91
        2
 64
     7
 65
   257
 75
     1
175
     1
 42
40.0
 92
        8
 66
     7
 43
1.0
 76
     1
 77
     6
 78
     2
 67
     7
 79
     3
170
     0
171
     0
290
     0
174
     0
 93
        1
 44
0.0
173
     0
291
     0
 45
0.0
1001
ACAD
1000
AcDbSavedByObjectVersion
1070
     0
  0
VISUALSTYLE
  5
35
102
{ACAD_REACTORS
330
2A
102
}
330
2A
100
AcDbVisualStyle
  2
Dim
 70
    11
 71
     2
 72
     2
 73
     0
 90
        0
 40
-0.6
 41
-30.0
 62
     5
 63
     7
421
 16777215
 74
     1
 91
        4
 64
     7
 65
   257
 75
     1
175
     1
 42
1.0
 92
        8
 66
     7
 43
1.0
 76
     1
 77
     6
 78
     2
 67
     7
 79
     5
170
     0
171
     0
290
     0
174
     0
 93
        1
 44
-50.0
173
     0
291
     1
 45
0.0
1001
ACAD
1000
AcDbSavedByObjectVersion
1070
     0
  0
VISUALSTYLE
  5
39
102
{ACAD_REACTORS
330
2A
102
}
330
2A
100
AcDbVisualStyle
  2
Facepattern
 70
    15
 71
     2
 72
     2
 73
     0
 90
        0
 40
-0.6
 41
-30.0
 62
     5
 63
     7
421
 16777215
 74
     1
 91
        4
 64
     7
 65
   257
 75
     1
175
     1
 42
1.0
 92
        8
 66
     7
 43
1.0
 76
     1
 77
     6
 78
     2
 67
     7
 79
     5
170
     0
171
     0
290
     0
174
     0
 93
        1
 44
0.0
173
     0
291
     1
 45
0.0
1001
ACAD
1000
AcDbSavedByObjectVersion
1070
     0
  0
VISUALSTYLE
  5
2B
102
{ACAD_REACTORS
330
2A
102
}
330
2A
100
AcDbVisualStyle
  2
Flat
 70
     0
 71
     2
 72
     1
 73
     1
 90
        2
 40
-0.6
 41
30.0
 62
     5
 63
     7
421
 16777215
 74
     0
 91
        4
 64
     7
 65
   257
 75
     1
175
     1
 42
1.0
 92
        8
 66
     7
 43
1.0
 76
     1
 77
     6
 78
     2
 67
     7
 79
     5
170
     0
171
     0
290
     0
174
     0
 93
       13
 44
0.0
173
     0
291
     1
 45
0.0
1001
ACAD
1000
AcDbSavedByObjectVersion
1070
     0
  0
VISUALSTYLE
  5
2C
102
{ACAD_REACTORS
330
2A
102
}
330
2A
100
AcDbVisualStyle
  2
FlatWithEdges
 70
     1
 71
     2
 72
     1
 73
     1
 90
        2
 40
-0.6
 41
30.0
 62
     5
 63
     7
421
 16777215
 74
     1
 91
        4
 64
     7
 65
   257
 75
     1
175
     1
 42
1.0
 92
        0
 66
   257
 43
1.0
 76
     1
 77
     6
 78
     2
 67
     7
 79
     5
170
     0
171
     0
290
     0
174
     0
 93
       13
 44
0.0
173
     0
291
     1
 45
0.0
1001
ACAD
1000
AcDbSavedByObjectVersion
1070
     0
  0
VISUALSTYLE
  5
2D
102
{ACAD_REACTORS
330
2A
102
}
330
2A
100
AcDbVisualStyle
  2
Gouraud
 70
     2
 71
     2
 72
     2
 73
     1
 90
        2
 40
-0.6
 41
30.0
 62
     5
 63
     7
421
 16777215
 74
     0
 91
        4
 64
     7
 65
   257
 75
     1
175
     1
 42
1.0
 92
        0
 66
     7
 43
1.0
 76
     1
 77
     6
 78
     2
 67
     7
 79
     5
170
     0
171
     0
290
     0
174
     0
 93
       13
 44
0.0
173
     0
291
     1
 45
0.0
1001
ACAD
1000
AcDbSavedByObjectVersion
1070
     0
  0
VISUALSTYLE
  5
2E
102
{ACAD_REACTORS
330
2A
102
}
330
2A
100
AcDbVisualStyle
  2
GouraudWithEdges
 70
     3
 71
     2
 72
     2
 73
     1
 90
        2
 40
-0.6
 41
30.0
 62
     5
 63
     7
421
 16777215
 74
     1
 91
        4
 64
     7
 65
   257
 75
     1
175
     1
 42
1.0
 92
        0
 66
   257
 43
1.0
 76
     1
 77
     6
 78
     2
 67
     7
 79
     5
170
     0
171
     0
290
     0
174
     0
 93
       13
 44
0.0
173
     0
291
     1
 45
0.0
1001
ACAD
1000
AcDbSavedByObjectVersion
1070
     0
  0
VISUALSTYLE
  5
38
102
{ACAD_REACTORS
330
2A
102
}
330
2A
100
AcDbVisualStyle
  2
Linepattern
 70
    14
 71
     2
 72
     2
 73
     0
 90
        0
 40
-0.6
 41
-30.0
 62
     5
 63
     7
421
 16777215
 74
     1
 91
        4
 64
     7
 65
   257
 75
     7
175
     7
 42
1.0
 92
        8
 66
     7
 43
1.0
 76
     1
 77
     6
 78
     2
 67
     7
 79
     5
170
     0
171
     0
290
     0
174
     0
 93
        1
 44
0.0
173
     0
291
     1
 45
0.0
1001
ACAD
1000
AcDbSavedByObjectVersion
1070
     0
  0
VISUALSTYLE
  5
33
102
{ACAD_REACTORS
330
2A
102
}
330
2A
100
AcDbVisualStyle
  2
Realistic
 70
     8
 71
     2
 72
     2
 73
     0
 90
        0
 40
-0.6
 41
-30.0
 62
     5
 63
     7
421
 16777215
 74
     1
 91
        0
 64
     7
 65
   257
 75
     1
175
     1
 42
1.0
 92
        8
 66
     8
424
  7895160
 43
1.0
 76
     1
 77
     6
 78
     2
 67
     7
 79
     5
170
     0
171
     0
290
     0
174
     0
 93
       13
 44
0.0
173
     0
291
     0
 45
0.0
1001
ACAD
1000
AcDbSavedByObjectVersion
1070
     0
  0
VISUALSTYLE
  5
37
102
{ACAD_REACTORS
330
2A
102
}
330
2A
100
AcDbVisualStyle
  2
Thicken
 70
    13
 71
     2
 72
     2
 73
     0
 90
        0
 40
-0.6
 41
-30.0
 62
     5
 63
     7
421
 16777215
 74
     1
 91
        4
 64
     7
 65
   257
 75
     1
175
     1
 42
1.0
 92
       12
 66
     7
 43
1.0
 76
     1
 77
     6
 78
     2
 67
     7
 79
     5
170
     0
171
     0
290
     0
174
     0
 93
        1
 44
0.0
173
     0
291
     1
 45
0.0
1001
ACAD
1000
AcDbSavedByObjectVersion
1070
     0
  0
ENDSEC
  0
EOF
