  0
SECTION
  2
HEADER
  9
$ACADVER
  1
AC1018
  9
$ACADMAINTVER
 70
     0
  9
$DWGCODEPAGE
  3
ANSI_932
  9
$INSBASE
 10
0.0
 20
0.0
 30
0.0
  9
$EXTMIN
 10
-840.0
 20
-594.0
 30
0.0
  9
$EXTMAX
 10
840.0
 20
594.0
 30
0.0
  9
$LIMMIN
 10
-840.0
 20
-594.0
  9
$LIMMAX
 10
840.0
 20
594.0
  9
$ORTHOMODE
 70
     0
  9
$REGENMODE
 70
     1
  9
$FILLMODE
 70
     1
  9
$QTEXTMODE
 70
     0
  9
$MIRRTEXT
 70
     1
  9
$LTSCALE
 40
4.0
  9
$ATTMODE
 70
     1
  9
$TEXTSIZE
 40
2.5
  9
$TRACEWID
 40
1.0
  9
$TEXTSTYLE
  7
Standard
  9
$CLAYER
  8
0
  9
$CELTYPE
  6
ByLayer
  9
$CECOLOR
 62
   256
  9
$CELTSCALE
 40
1.0
  9
$DISPSILH
 70
     0
  9
$DIMSCALE
 40
1.0
  9
$DIMASZ
 40
2.5
  9
$DIMEXO
 40
0.625
  9
$DIMDLI
 40
3.75
  9
$DIMRND
 40
0.0
  9
$DIMDLE
 40
0.0
  9
$DIMEXE
 40
1.25
  9
$DIMTP
 40
0.0
  9
$DIMTM
 40
0.0
  9
$DIMTXT
 40
2.5
  9
$DIMCEN
 40
2.5
  9
$DIMTSZ
 40
0.0
  9
$DIMTOL
 70
     0
  9
$DIMLIM
 70
     0
  9
$DIMTIH
 70
     0
  9
$DIMTOH
 70
     0
  9
$DIMSE1
 70
     0
  9
$DIMSE2
 70
     0
  9
$DIMTAD
 70
     1
  9
$DIMZIN
 70
     8
  9
$DIMBLK
  1

  9
$DIMASO
 70
     1
  9
$DIMSHO
 70
     1
  9
$DIMPOST
  1

  9
$DIMAPOST
  1

  9
$DIMALT
 70
     0
  9
$DIMALTD
 70
     3
  9
$DIMALTF
 40
0.03937007874016
  9
$DIMLFAC
 40
1.0
  9
$DIMTOFL
 70
     1
  9
$DIMTVP
 40
0.0
  9
$DIMTIX
 70
     0
  9
$DIMSOXD
 70
     0
  9
$DIMSAH
 70
     0
  9
$DIMBLK1
  1

  9
$DIMBLK2
  1

  9
$DIMSTYLE
  2
ISO-25
  9
$DIMCLRD
 70
     0
  9
$DIMCLRE
 70
     0
  9
$DIMCLRT
 70
     0
  9
$DIMTFAC
 40
1.0
  9
$DIMGAP
 40
0.625
  9
$DIMJUST
 70
     0
  9
$DIMSD1
 70
     0
  9
$DIMSD2
 70
     0
  9
$DIMTOLJ
 70
     0
  9
$DIMTZIN
 70
     8
  9
$DIMALTZ
 70
     0
  9
$DIMALTTZ
 70
     0
  9
$DIMUPT
 70
     0
  9
$DIMDEC
 70
     2
  9
$DIMTDEC
 70
     2
  9
$DIMALTU
 70
     2
  9
$DIMALTTD
 70
     3
  9
$DIMTXSTY
  7
Standard
  9
$DIMAUNIT
 70
     0
  9
$DIMADEC
 70
     0
  9
$DIMALTRND
 40
0.0
  9
$DIMAZIN
 70
     0
  9
$DIMDSEP
 70
    44
  9
$DIMATFIT
 70
     3
  9
$DIMFRAC
 70
     0
  9
$DIMLDRBLK
  1

  9
$DIMLUNIT
 70
     2
  9
$DIMLWD
 70
    -2
  9
$DIMLWE
 70
    -2
  9
$DIMTMOVE
 70
     0
  9
$LUNITS
 70
     2
  9
$LUPREC
 70
     4
  9
$SKETCHINC
 40
1.0
  9
$FILLETRAD
 40
10.0
  9
$AUNITS
 70
     0
  9
$AUPREC
 70
     0
  9
$MENU
  1
.
  9
$ELEVATION
 40
0.0
  9
$PELEVATION
 40
0.0
  9
$THICKNESS
 40
0.0
  9
$LIMCHECK
 70
     0
  9
$CHAMFERA
 40
10.0
  9
$CHAMFERB
 40
10.0
  9
$CHAMFERC
 40
20.0
  9
$CHAMFERD
 40
0.0
  9
$SKPOLY
 70
     0
  9
$TDCREATE
 40
2456498.821720984
  9
$TDUCREATE
 40
2456498.446720984
  9
$TDUPDATE
 40
2456498.821720995
  9
$TDUUPDATE
 40
2456498.446720995
  9
$TDINDWG
 40
0.0000000116
  9
$TDUSRTIMER
 40
0.0000000116
  9
$USRTIMER
 70
     1
  9
$ANGBASE
 50
0.0
  9
$ANGDIR
 70
     0
  9
$PDMODE
 70
     0
  9
$PDSIZE
 40
0.0
  9
$PLINEWID
 40
0.0
  9
$SPLFRAME
 70
     0
  9
$SPLINETYPE
 70
     6
  9
$SPLINESEGS
 70
     8
  9
$HANDSEED
  5
4A0
  9
$SURFTAB1
 70
     6
  9
$SURFTAB2
 70
     6
  9
$SURFTYPE
 70
     6
  9
$SURFU
 70
     6
  9
$SURFV
 70
     6
  9
$UCSBASE
  2

  9
$UCSNAME
  2

  9
$UCSORG
 10
0.0
 20
0.0
 30
0.0
  9
$UCSXDIR
 10
1.0
 20
0.0
 30
0.0
  9
$UCSYDIR
 10
0.0
 20
1.0
 30
0.0
  9
$UCSORTHOREF
  2

  9
$UCSORTHOVIEW
 70
     0
  9
$UCSORGTOP
 10
0.0
 20
0.0
 30
0.0
  9
$UCSORGBOTTOM
 10
0.0
 20
0.0
 30
0.0
  9
$UCSORGLEFT
 10
0.0
 20
0.0
 30
0.0
  9
$UCSORGRIGHT
 10
0.0
 20
0.0
 30
0.0
  9
$UCSORGFRONT
 10
0.0
 20
0.0
 30
0.0
  9
$UCSORGBACK
 10
0.0
 20
0.0
 30
0.0
  9
$PUCSBASE
  2

  9
$PUCSNAME
  2

  9
$PUCSORG
 10
0.0
 20
0.0
 30
0.0
  9
$PUCSXDIR
 10
1.0
 20
0.0
 30
0.0
  9
$PUCSYDIR
 10
0.0
 20
1.0
 30
0.0
  9
$PUCSORTHOREF
  2

  9
$PUCSORTHOVIEW
 70
     0
  9
$PUCSORGTOP
 10
0.0
 20
0.0
 30
0.0
  9
$PUCSORGBOTTOM
 10
0.0
 20
0.0
 30
0.0
  9
$PUCSORGLEFT
 10
0.0
 20
0.0
 30
0.0
  9
$PUCSORGRIGHT
 10
0.0
 20
0.0
 30
0.0
  9
$PUCSORGFRONT
 10
0.0
 20
0.0
 30
0.0
  9
$PUCSORGBACK
 10
0.0
 20
0.0
 30
0.0
  9
$USERI1
 70
     0
  9
$USERI2
 70
     0
  9
$USERI3
 70
     0
  9
$USERI4
 70
     0
  9
$USERI5
 70
     0
  9
$USERR1
 40
0.0
  9
$USERR2
 40
0.0
  9
$USERR3
 40
0.0
  9
$USERR4
 40
0.0
  9
$USERR5
 40
0.0
  9
$WORLDVIEW
 70
     1
  9
$SHADEDGE
 70
     3
  9
$SHADEDIF
 70
    70
  9
$TILEMODE
 70
     1
  9
$MAXACTVP
 70
    64
  9
$PINSBASE
 10
0.0
 20
0.0
 30
0.0
  9
$PLIMCHECK
 70
     0
  9
$PEXTMIN
 10
1.000000000000000E+20
 20
1.000000000000000E+20
 30
1.000000000000000E+20
  9
$PEXTMAX
 10
-1.000000000000000E+20
 20
-1.000000000000000E+20
 30
-1.000000000000000E+20
  9
$PLIMMIN
 10
0.0
 20
0.0
  9
$PLIMMAX
 10
420.0
 20
297.0
  9
$UNITMODE
 70
     0
  9
$VISRETAIN
 70
     1
  9
$PLINEGEN
 70
     0
  9
$PSLTSCALE
 70
     1
  9
$TREEDEPTH
 70
  3020
  9
$CMLSTYLE
  2
Standard
  9
$CMLJUST
 70
     0
  9
$CMLSCALE
 40
20.0
  9
$PROXYGRAPHICS
 70
     1
  9
$MEASUREMENT
 70
     1
  9
$CELWEIGHT
370
    -1
  9
$ENDCAPS
280
     0
  9
$JOINSTYLE
280
     0
  9
$LWDISPLAY
290
     0
  9
$INSUNITS
 70
     4
  9
$HYPERLINKBASE
  1

  9
$STYLESHEET
  1

  9
$XEDIT
290
     1
  9
$CEPSNTYPE
380
     0
  9
$PSTYLEMODE
290
     1
  9
$FINGERPRINTGUID
  2
{881C284E-902A-4AEE-B95A-BA0A9340B779}
  9
$VERSIONGUID
  2
{FAEB1C32-E019-11D5-929B-00C0DF256EC4}
  9
$EXTNAMES
290
     1
  9
$PSVPSCALE
 40
0.0
  9
$OLESTARTUP
290
     0
  9
$SORTENTS
280
   127
  9
$INDEXCTL
280
     0
  9
$HIDETEXT
280
     1
  9
$XCLIPFRAME
290
     0
  9
$HALOGAP
280
     0
  9
$OBSCOLOR
 70
   257
  9
$OBSLTYPE
280
     0
  9
$INTERSECTIONDISPLAY
280
     0
  9
$INTERSECTIONCOLOR
 70
   257
  9
$DIMASSOC
280
     2
  9
$PROJECTNAME
  1

  0
ENDSEC
  0
SECTION
  2
CLASSES
  0
CLASS
  1
ACDBDICTIONARYWDFLT
  2
AcDbDictionaryWithDefault
  3
ObjectDBX Classes
 90
        0
 91
        4
280
     0
281
     0
  0
CLASS
  1
VISUALSTYLE
  2
AcDbVisualStyle
  3
ObjectDBX Classes
 90
     4095
 91
        4
280
     0
281
     0
  0
ENDSEC
  0
SECTION
  2
TABLES
  0
TABLE
  2
VPORT
  5
8
330
0
100
AcDbSymbolTable
 70
     1
  0
VPORT
  5
29
330
8
100
AcDbSymbolTableRecord
100
AcDbViewportTableRecord
  2
*Active
 70
     0
 10
0.0
 20
0.0
 11
1.0
 21
1.0
 12
0.0
 22
0.0
 13
0.0
 23
0.0
 14
10.0
 24
10.0
 15
10.0
 25
10.0
 16
0.0
 26
0.0
 36
1.0
 17
0.0
 27
0.0
 37
0.0
 40
1306.8
 41
1.414141414141414
 42
50.0
 43
0.0
 44
0.0
 50
0.0
 51
0.0
 71
     0
 72
 10000
 73
     1
 74
     3
 75
     0
 76
     0
 77
     0
 78
     0
281
     0
 65
     1
110
0.0
120
0.0
130
0.0
111
1.0
121
0.0
131
0.0
112
0.0
122
1.0
132
0.0
 79
     0
146
0.0
  0
ENDTAB
  0
TABLE
  2
LTYPE
  5
5
330
0
100
AcDbSymbolTable
 70
     5
  0
LTYPE
  5
14
330
5
100
AcDbSymbolTableRecord
100
AcDbLinetypeTableRecord
  2
ByBlock
 70
     0
  3

 72
    65
 73
     0
 40
0.0
  0
LTYPE
  5
15
330
5
100
AcDbSymbolTableRecord
100
AcDbLinetypeTableRecord
  2
ByLayer
 70
     0
  3

 72
    65
 73
     0
 40
0.0
  0
LTYPE
  5
16
330
5
100
AcDbSymbolTableRecord
100
AcDbLinetypeTableRecord
  2
Continuous
 70
     0
  3
Solid line
 72
    65
 73
     0
 40
0.0
  0
LTYPE
  5
3C
330
5
100
AcDbSymbolTableRecord
100
AcDbLinetypeTableRecord
  2
JWW_CENTER1
 70
     0
  3
-----  --  ----------  --  -----
 72
    65
 73
     4
 40
6.773333333333333
 49
4.233333333333333
 74
     0
 49
-0.8466666666666667
 74
     0
 49
0.8466666666666667
 74
     0
 49
-0.8466666666666667
 74
     0
  0
LTYPE
  5
3D
330
5
100
AcDbSymbolTableRecord
100
AcDbLinetypeTableRecord
  2
JWW_HOJO
 70
     0
  3
  -   -   -   -   -   -   -   - 
 72
    65
 73
     2
 40
1.693333333333333
 49
-1.27
 74
     0
 49
0.4233333333333333
 74
     0
  0
LTYPE
  5
3E
330
5
100
AcDbSymbolTableRecord
100
AcDbLinetypeTableRecord
  2
JWW_PHANTOM1
 70
     0
  3
----  -  -  --------  -  -  ----
 72
    65
 73
     6
 40
6.773333333333333
 49
3.386666666666667
 74
     0
 49
-0.8466666666666667
 74
     0
 49
0.4233333333333333
 74
     0
 49
-0.8466666666666667
 74
     0
 49
0.4233333333333333
 74
     0
 49
-0.8466666666666667
 74
     0
  0
LTYPE
  5
3F
330
5
100
AcDbSymbolTableRecord
100
AcDbLinetypeTableRecord
  2
JWW_DASHED1
 70
     0
  3
-  --  --  --  --  --  --  --  -
 72
    65
 73
     2
 40
1.693333333333333
 49
0.8466666666666667
 74
     0
 49
-0.8466666666666667
 74
     0
  0
ENDTAB
  0
TABLE
  2
LAYER
  5
2
330
0
100
AcDbSymbolTable
 70
    12
  0
LAYER
  5
10
330
2
100
AcDbSymbolTableRecord
100
AcDbLayerTableRecord
  2
0
 70
     0
 62
     7
  6
Continuous
370
    -3
390
F
  0
LAYER
  5
40
330
2
100
AcDbSymbolTableRecord
100
AcDbLayerTableRecord
  2
F-4ﾚｲﾔ
 70
     0
 62
     7
  6
Continuous
370
    -3
390
F
  0
LAYER
  5
41
330
2
100
AcDbSymbolTableRecord
100
AcDbLayerTableRecord
  2
F-5ﾚｲﾔ
 70
     0
 62
     7
  6
Continuous
370
    -3
390
F
  0
LAYER
  5
42
330
2
100
AcDbSymbolTableRecord
100
AcDbLayerTableRecord
  2
0-5_文字
 70
     0
 62
     7
  6
Continuous
370
    -3
390
F
  0
LAYER
  5
43
330
2
100
AcDbSymbolTableRecord
100
AcDbLayerTableRecord
  2
0-4_寸法
 70
     0
 62
     7
  6
Continuous
370
    -3
390
F
  0
LAYER
  5
44
330
2
100
AcDbSymbolTableRecord
100
AcDbLayerTableRecord
  2
0-1_ピット
 70
     0
 62
     7
  6
Continuous
370
    -3
390
F
  0
LAYER
  5
45
330
2
100
AcDbSymbolTableRecord
100
AcDbLayerTableRecord
  2
0-B
 70
     0
 62
     7
  6
Continuous
370
    -3
390
F
  0
LAYER
  5
46
330
2
100
AcDbSymbolTableRecord
100
AcDbLayerTableRecord
  2
0-A
 70
     0
 62
     7
  6
Continuous
370
    -3
390
F
  0
LAYER
  5
47
330
2
100
AcDbSymbolTableRecord
100
AcDbLayerTableRecord
  2
0-9
 70
     0
 62
     7
  6
Continuous
370
    -3
390
F
  0
LAYER
  5
48
330
2
100
AcDbSymbolTableRecord
100
AcDbLayerTableRecord
  2
0-2_本体（蓋）
 70
     0
 62
     7
  6
Continuous
370
    -3
390
F
  0
LAYER
  5
49
330
2
100
AcDbSymbolTableRecord
100
AcDbLayerTableRecord
  2
0-0_通り芯
 70
     0
 62
     7
  6
Continuous
370
    -3
390
F
  0
LAYER
  5
4A
330
2
100
AcDbSymbolTableRecord
100
AcDbLayerTableRecord
  2
0-6
 70
     0
 62
     7
  6
Continuous
370
    -3
390
F
  0
ENDTAB
  0
TABLE
  2
STYLE
  5
3
330
0
100
AcDbSymbolTable
 70
     2
  0
STYLE
  5
11
330
3
100
AcDbSymbolTableRecord
100
AcDbTextStyleTableRecord
  2
Standard
 70
     0
 40
0.0
 41
1.0
 50
0.0
 71
     0
 42
2.5
  3
txt
  4

1001
ACAD
1000

1071
        0
  0
STYLE
  5
3B
330
3
100
AcDbSymbolTableRecord
100
AcDbTextStyleTableRecord
  2
ＭＳ ゴシック
 70
     0
 40
1.0
 41
1.0
 50
0.0
 71
     0
 42
10.0
  3

  4

1001
ACAD
1000
MS Gothic
1071
    32817
  0
ENDTAB
  0
TABLE
  2
VIEW
  5
6
330
0
100
AcDbSymbolTable
 70
     0
  0
ENDTAB
  0
TABLE
  2
UCS
  5
7
330
0
100
AcDbSymbolTable
 70
     0
  0
ENDTAB
  0
TABLE
  2
APPID
  5
9
330
0
100
AcDbSymbolTable
 70
     1
  0
APPID
  5
12
330
9
100
AcDbSymbolTableRecord
100
AcDbRegAppTableRecord
  2
ACAD
 70
     0
  0
ENDTAB
  0
TABLE
  2
DIMSTYLE
  5
A
330
0
100
AcDbSymbolTable
 70
     1
100
AcDbDimStyleTable
  0
DIMSTYLE
105
27
330
A
100
AcDbSymbolTableRecord
100
AcDbDimStyleTableRecord
  2
ISO-25
 70
     0
 41
2.5
 42
0.625
 43
3.75
 44
1.25
 73
     0
 74
     0
 77
     1
 78
     8
140
2.5
141
2.5
143
0.03937007874016
147
0.625
171
     3
172
     1
271
     2
272
     2
274
     3
278
    44
283
     0
284
     8
340
11
  0
ENDTAB
  0
TABLE
  2
BLOCK_RECORD
  5
1
330
0
100
AcDbSymbolTable
 70
     1
  0
BLOCK_RECORD
  5
1F
330
1
100
AcDbSymbolTableRecord
100
AcDbBlockTableRecord
  2
*Model_Space
340
22
  0
BLOCK_RECORD
  5
1B
330
1
100
AcDbSymbolTableRecord
100
AcDbBlockTableRecord
  2
*Paper_Space
340
1E
  0
BLOCK_RECORD
  5
23
330
1
100
AcDbSymbolTableRecord
100
AcDbBlockTableRecord
  2
*Paper_Space0
340
26
  0
ENDTAB
  0
ENDSEC
  0
SECTION
  2
BLOCKS
  0
BLOCK
  5
20
330
1F
100
AcDbEntity
  8
0
100
AcDbBlockBegin
  2
*Model_Space
 70
     0
 10
0.0
 20
0.0
 30
0.0
  3
*Model_Space
  1

  0
ENDBLK
  5
21
330
1F
100
AcDbEntity
  8
0
100
AcDbBlockEnd
  0
BLOCK
  5
1C
330
1B
100
AcDbEntity
 67
     1
  8
0
100
AcDbBlockBegin
  2
*Paper_Space
 70
     0
 10
0.0
 20
0.0
 30
0.0
  3
*Paper_Space
  1

  0
ENDBLK
  5
1D
330
1B
100
AcDbEntity
 67
     1
  8
0
100
AcDbBlockEnd
  0
BLOCK
  5
24
330
23
100
AcDbEntity
  8
0
100
AcDbBlockBegin
  2
*Paper_Space0
 70
     0
 10
0.0
 20
0.0
 30
0.0
  3
*Paper_Space0
  1

  0
ENDBLK
  5
25
330
23
100
AcDbEntity
  8
0
100
AcDbBlockEnd
  0
ENDSEC
  0
SECTION
  2
ENTITIES
  0
TEXT
  5
4B
330
1F
100
AcDbEntity
  8
F-4ﾚｲﾔ
  6
Continuous
 62
     2
370
     9
100
AcDbText
 10
-49.10047492916178
 20
-443.6228037182321
 30
0.0
 40
12.192
  1
たて引き用　一般型　外断熱用　アスファルト・シート防水用
 41
0.774107142857143
  7
ＭＳ ゴシック
100
AcDbText
  0
TEXT
  5
4C
330
1F
100
AcDbEntity
  8
F-5ﾚｲﾔ
  6
Continuous
 62
     6
370
     5
100
AcDbText
 10
-37.10235388194546
 20
-312.862027600285
 30
0.0
 40
12.192
  1
注）ボルト長さの適用防水層の厚さは、次の通りです。
 41
0.7979999999999997
  7
ＭＳ ゴシック
100
AcDbText
  0
TEXT
  5
4D
330
1F
100
AcDbEntity
  8
F-5ﾚｲﾔ
  6
Continuous
 62
     6
370
     5
100
AcDbText
 10
-37.10232286948768
 20
-332.8620440962733
 30
0.0
 40
12.192
  1
　　　アスファルト防水用の防水層厚さ＝１０～１２ｍｍ
 41
0.7980769230769231
  7
ＭＳ ゴシック
100
AcDbText
  0
TEXT
  5
4E
330
1F
100
AcDbEntity
  8
F-5ﾚｲﾔ
  6
Continuous
 62
     6
370
     5
100
AcDbText
 10
1.297682079308714
 20
-352.8620605922614
 30
0.0
 40
12.192
  1
シート・・
 41
0.7900000000000003
  7
ＭＳ ゴシック
100
AcDbText
  0
TEXT
  5
4F
330
1F
100
AcDbEntity
  8
F-5ﾚｲﾔ
  6
Continuous
 62
     6
370
     5
100
AcDbText
 10
78.09767152187636
 20
-352.8620605922614
 30
0.0
 40
12.192
  1
防水用の防水層厚さ＝３ｍｍ以下
 41
0.7966666666666664
  7
ＭＳ ゴシック
100
AcDbText
  0
TEXT
  5
50
330
1F
100
AcDbEntity
  8
F-5ﾚｲﾔ
  6
Continuous
 62
     6
370
     5
100
AcDbText
 10
-37.10233540643871
 20
-372.8620770882496
 30
0.0
 40
12.192
  1
　上記以外の場合は、防水層の厚さを御指示下さい。
 41
0.7979166666666665
  7
ＭＳ ゴシック
100
AcDbText
  0
LINE
  5
51
330
1F
100
AcDbEntity
  8
0-5_文字
  6
Continuous
 62
     7
370
     9
100
AcDbLine
 10
-170.9850233671432
 20
3.164969553707323
 30
0.0
 11
-174.8118781760536
 21
-6.07379007994976
 31
0.0
  0
LINE
  5
52
330
1F
100
AcDbEntity
  8
0-5_文字
  6
Continuous
 62
     7
370
     9
100
AcDbLine
 10
-170.9850233671432
 20
3.164969553707323
 30
0.0
 11
-177.0726368595418
 21
-4.768495527584861
 31
0.0
  0
LINE
  5
53
330
1F
100
AcDbEntity
  8
0-5_文字
  6
Continuous
 62
     7
370
     9
100
AcDbLine
 10
-170.9850233671432
 20
3.164969553707323
 30
0.0
 11
-219.4823378202682
 21
-80.83481269924872
 31
0.0
  0
LINE
  5
54
330
1F
100
AcDbEntity
  8
0-5_文字
  6
Continuous
 62
     7
370
     9
100
AcDbLine
 10
-219.4823378202682
 20
-80.83481269924872
 30
0.0
 11
-340.6554005314168
 21
-80.83481269924872
 31
0.0
  0
TEXT
  5
55
330
1F
100
AcDbEntity
  8
0-5_文字
  6
Continuous
 62
     7
370
     9
100
AcDbText
 10
-334.5038403408552
 20
-73.15368025625887
 30
0.0
 40
9.144
  1
本体：ＦＣ１５０
 41
1.145833333333334
  7
ＭＳ ゴシック
100
AcDbText
  0
TEXT
  5
56
330
1F
100
AcDbEntity
  8
0-5_文字
  6
Continuous
 62
     7
370
     9
100
AcDbText
 10
-310.514420867671
 20
-94.16424098788892
 30
0.0
 40
9.144
  1
樹脂系塗装
 41
1.133333333333334
  7
ＭＳ ゴシック
100
AcDbText
  0
LINE
  5
57
330
1F
100
AcDbEntity
  8
0-4_寸法
  6
Continuous
 62
     7
370
     9
100
AcDbLine
 10
-100.2349507847951
 20
-211.8797345742488
 30
0.0
 11
13.26495353847341
 21
-211.8797345742488
 31
0.0
  0
LINE
  5
58
330
1F
100
AcDbEntity
  8
0-4_寸法
  6
Continuous
 62
     7
370
     9
100
AcDbLine
 10
-100.2349507847951
 20
-181.9967241223906
 30
0.0
 11
-100.2349507847951
 21
-212.7797226971373
 31
0.0
  0
LINE
  5
59
330
1F
100
AcDbEntity
  8
0-4_寸法
  6
Continuous
 62
     7
370
     9
100
AcDbLine
 10
13.26495353847341
 20
-181.9967241223906
 30
0.0
 11
13.26495353847341
 21
-212.7797226971373
 31
0.0
  0
LINE
  5
5A
330
1F
100
AcDbEntity
  8
0-4_寸法
  6
Continuous
 62
     7
370
     9
100
AcDbLine
 10
-100.2349507847951
 20
-211.8797345742488
 30
0.0
 11
-92.79908718682222
 21
-210.9007636599751
 31
0.0
  0
LINE
  5
5B
330
1F
100
AcDbEntity
  8
0-4_寸法
  6
Continuous
 62
     7
370
     9
100
AcDbLine
 10
-100.2349507847951
 20
-211.8797345742488
 30
0.0
 11
-92.79908718682222
 21
-212.8586065125934
 31
0.0
  0
LINE
  5
5C
330
1F
100
AcDbEntity
  8
0-4_寸法
  6
Continuous
 62
     7
370
     9
100
AcDbLine
 10
13.26495353847341
 20
-211.8797345742488
 30
0.0
 11
5.829287892358515
 21
-210.9007636599751
 31
0.0
  0
LINE
  5
5D
330
1F
100
AcDbEntity
  8
0-4_寸法
  6
Continuous
 62
     7
370
     9
100
AcDbLine
 10
13.26495353847341
 20
-211.8797345742488
 30
0.0
 11
5.829287892358515
 21
-212.8586065125934
 31
0.0
  0
LINE
  5
5E
330
1F
100
AcDbEntity
  8
0-4_寸法
  6
Continuous
 62
     7
370
     9
100
AcDbLine
 10
177.1277696016068
 20
-174.4966746344261
 30
0.0
 11
177.1277696016068
 21
-24.02188710275382
 31
0.0
  0
LINE
  5
5F
330
1F
100
AcDbEntity
  8
0-4_寸法
  6
Continuous
 62
     7
370
     9
100
AcDbLine
 10
20.76505251440248
 20
-174.4966746344261
 30
0.0
 11
178.0277577244954
 21
-174.4966746344261
 31
0.0
  0
LINE
  5
60
330
1F
100
AcDbEntity
  8
0-4_寸法
  6
Continuous
 62
     7
370
     9
100
AcDbLine
 10
30.99089908851571
 20
-24.02188710275382
 30
0.0
 11
178.0277577244954
 21
-24.02188710275382
 31
0.0
  0
LINE
  5
61
330
1F
100
AcDbEntity
  8
0-4_寸法
  6
Continuous
 62
     7
370
     9
100
AcDbLine
 10
177.1277696016068
 20
-174.4966746344261
 30
0.0
 11
176.1487986873332
 21
-167.0608605244177
 31
0.0
  0
LINE
  5
62
330
1F
100
AcDbEntity
  8
0-4_寸法
  6
Continuous
 62
     7
370
     9
100
AcDbLine
 10
177.1277696016068
 20
-174.4966746344261
 30
0.0
 11
178.1067405158805
 21
-167.0608605244177
 31
0.0
  0
LINE
  5
63
330
1F
100
AcDbEntity
  8
0-4_寸法
  6
Continuous
 62
     7
370
     9
100
AcDbLine
 10
177.1277696016068
 20
-24.02188710275382
 30
0.0
 11
176.1487986873332
 21
-31.45770121276226
 31
0.0
  0
LINE
  5
64
330
1F
100
AcDbEntity
  8
0-4_寸法
  6
Continuous
 62
     7
370
     9
100
AcDbLine
 10
177.1277696016068
 20
-24.02188710275382
 30
0.0
 11
178.1067405158805
 21
-31.45770121276226
 31
0.0
  0
LINE
  5
65
330
1F
100
AcDbEntity
  8
0-4_寸法
  6
Continuous
 62
     7
370
     9
100
AcDbLine
 10
177.1277696016068
 20
-24.02188710275382
 30
0.0
 11
177.1277696016068
 21
11.16514441118201
 31
0.0
  0
LINE
  5
66
330
1F
100
AcDbEntity
  8
0-4_寸法
  6
Continuous
 62
     7
370
     9
100
AcDbLine
 10
89.63235548631965
 20
11.16514441118201
 30
0.0
 11
178.0277577244954
 21
11.16514441118201
 31
0.0
  0
LINE
  5
67
330
1F
100
AcDbEntity
  8
0-4_寸法
  6
Continuous
 62
     7
370
     9
100
AcDbLine
 10
177.1277696016068
 20
-24.02188710275382
 30
0.0
 11
176.1487986873332
 21
-16.58602350478085
 31
0.0
  0
LINE
  5
68
330
1F
100
AcDbEntity
  8
0-4_寸法
  6
Continuous
 62
     7
370
     9
100
AcDbLine
 10
177.1277696016068
 20
-24.02188710275382
 30
0.0
 11
178.1067405158805
 21
-16.58602350478085
 31
0.0
  0
LINE
  5
69
330
1F
100
AcDbEntity
  8
0-4_寸法
  6
Continuous
 62
     7
370
     9
100
AcDbLine
 10
177.1277696016068
 20
11.16514441118201
 30
0.0
 11
176.1487986873332
 21
3.729280813208987
 31
0.0
  0
LINE
  5
6A
330
1F
100
AcDbEntity
  8
0-4_寸法
  6
Continuous
 62
     7
370
     9
100
AcDbLine
 10
177.1277696016068
 20
11.16514441118201
 30
0.0
 11
178.1067405158805
 21
3.729280813208987
 31
0.0
  0
LINE
  5
6B
330
1F
100
AcDbEntity
  8
0-4_寸法
  6
Continuous
 62
     7
370
     9
100
AcDbLine
 10
-88.74186590303836
 20
-64.37076075668116
 30
0.0
 11
-81.30600230506545
 21
-63.39178984240752
 31
0.0
  0
LINE
  5
6C
330
1F
100
AcDbEntity
  8
0-4_寸法
  6
Continuous
 62
     7
370
     9
100
AcDbLine
 10
-88.74186590303836
 20
-64.37076075668116
 30
0.0
 11
-81.30600230506545
 21
-65.34968218299028
 31
0.0
  0
LINE
  5
6D
330
1F
100
AcDbEntity
  8
0-4_寸法
  6
Continuous
 62
     7
370
     9
100
AcDbLine
 10
36.25820008091436
 20
-64.37076075668116
 30
0.0
 11
28.82233648294133
 21
-63.39178984240752
 31
0.0
  0
LINE
  5
6E
330
1F
100
AcDbEntity
  8
0-4_寸法
  6
Continuous
 62
     7
370
     9
100
AcDbLine
 10
36.25820008091436
 20
-64.37076075668116
 30
0.0
 11
28.82233648294133
 21
-65.34968218299028
 31
0.0
  0
LINE
  5
6F
330
1F
100
AcDbEntity
  8
0-4_寸法
  6
Continuous
 62
     7
370
     9
100
AcDbLine
 10
-105.9848584072614
 20
-24.3347995024582
 30
0.0
 11
-88.74186590303836
 21
-64.37076075668116
 31
0.0
  0
LINE
  5
70
330
1F
100
AcDbEntity
  8
0-4_寸法
  6
Continuous
 62
     7
370
     9
100
AcDbLine
 10
-88.74186590303836
 20
-64.37076075668116
 30
0.0
 11
36.25820008091436
 21
-64.37076075668116
 31
0.0
  0
LINE
  5
71
330
1F
100
AcDbEntity
  8
0-4_寸法
  6
Continuous
 62
     7
370
     9
100
AcDbLine
 10
19.01510860076227
 20
-24.3347995024582
 30
0.0
 11
36.25820008091436
 21
-64.37076075668116
 31
0.0
  0
LINE
  5
72
330
1F
100
AcDbEntity
  8
0-4_寸法
  6
Continuous
 62
     7
370
     9
100
AcDbLine
 10
144.820838647215
 20
19.02145775577659
 30
0.0
 11
144.820838647215
 21
49.02140826781212
 31
0.0
  0
LINE
  5
73
330
1F
100
AcDbEntity
  8
0-4_寸法
  6
Continuous
 62
     7
370
     9
100
AcDbLine
 10
87.05561614932643
 20
19.02145775577659
 30
0.0
 11
146.0208228110663
 21
19.02145775577659
 31
0.0
  0
LINE
  5
74
330
1F
100
AcDbEntity
  8
0-4_寸法
  6
Continuous
 62
     7
370
     9
100
AcDbLine
 10
108.6321707312522
 20
49.02140826781212
 30
0.0
 11
146.0208228110663
 21
49.02140826781212
 31
0.0
  0
LINE
  5
75
330
1F
100
AcDbEntity
  8
0-4_寸法
  6
Continuous
 62
     7
370
     9
100
AcDbLine
 10
144.820838647215
 20
19.02145775577659
 30
0.0
 11
143.5155440948501
 21
28.93592605708577
 31
0.0
  0
LINE
  5
76
330
1F
100
AcDbEntity
  8
0-4_寸法
  6
Continuous
 62
     7
370
     9
100
AcDbLine
 10
144.820838647215
 20
19.02145775577659
 30
0.0
 11
146.1261331995799
 21
28.93592605708577
 31
0.0
  0
LINE
  5
77
330
1F
100
AcDbEntity
  8
0-4_寸法
  6
Continuous
 62
     7
370
     9
100
AcDbLine
 10
144.820838647215
 20
49.02140826781212
 30
0.0
 11
143.5155440948501
 21
39.10698945446754
 31
0.0
  0
LINE
  5
78
330
1F
100
AcDbEntity
  8
0-4_寸法
  6
Continuous
 62
     7
370
     9
100
AcDbLine
 10
144.820838647215
 20
49.02140826781212
 30
0.0
 11
146.1261331995799
 21
39.10698945446754
 31
0.0
  0
TEXT
  5
79
330
1F
100
AcDbEntity
  8
0-4_寸法
  6
Continuous
 62
     2
370
     9
100
AcDbText
 10
-65.48499862316086
 20
-206.6236751886913
 30
0.0
 40
12.192
  1
φ114
 41
1.1
  7
ＭＳ ゴシック
100
AcDbText
  0
TEXT
  5
7A
330
1F
100
AcDbEntity
  8
0-4_寸法
  6
Continuous
 62
     2
370
     9
100
AcDbText
 10
171.8719081679076
 20
-112.25928086859
 30
0.0
 40
12.192
  1
150
 50
90.0
 41
1.083333333333333
  7
ＭＳ ゴシック
100
AcDbText
  0
TEXT
  5
7B
330
1F
100
AcDbEntity
  8
0-4_寸法
  6
Continuous
 62
     2
370
     9
100
AcDbText
 10
171.8719081679076
 20
-14.92832185782137
 30
0.0
 40
12.192
  1
35
 50
90.0
 41
1.0625
  7
ＭＳ ゴシック
100
AcDbText
  0
TEXT
  5
7C
330
1F
100
AcDbEntity
  8
0-4_寸法
  6
Continuous
 62
     2
370
     9
100
AcDbText
 10
-48.24190714300882
 20
-59.11475085908825
 30
0.0
 40
12.192
  1
φ125
 41
1.1
  7
ＭＳ ゴシック
100
AcDbText
  0
TEXT
  5
7D
330
1F
100
AcDbEntity
  8
0-4_寸法
  6
Continuous
 62
     2
370
     9
100
AcDbText
 10
138.5648254504245
 20
23.39644455898608
 30
0.0
 40
12.192
  1
30
 50
90.0
 41
1.0625
  7
ＭＳ ゴシック
100
AcDbText
  0
LINE
  5
7E
330
1F
100
AcDbEntity
  8
0-4_寸法
  6
Continuous
 62
     7
370
     9
100
AcDbLine
 10
177.1277696016068
 20
11.16514441118201
 30
0.0
 11
177.1277696016068
 21
79.52151949790371
 31
0.0
  0
LINE
  5
7F
330
1F
100
AcDbEntity
  8
0-4_寸法
  6
Continuous
 62
     7
370
     9
100
AcDbLine
 10
177.1277696016068
 20
11.16514441118201
 30
0.0
 11
175.8225076794064
 21
21.07959302492011
 31
0.0
  0
LINE
  5
80
330
1F
100
AcDbEntity
  8
0-4_寸法
  6
Continuous
 62
     7
370
     9
100
AcDbLine
 10
177.1277696016068
 20
11.16514441118201
 30
0.0
 11
178.4330315238074
 21
21.07959302492011
 31
0.0
  0
LINE
  5
81
330
1F
100
AcDbEntity
  8
0-4_寸法
  6
Continuous
 62
     7
370
     9
100
AcDbLine
 10
177.1277696016068
 20
79.52151949790371
 30
0.0
 11
175.8225076794064
 21
69.60707088416561
 31
0.0
  0
LINE
  5
82
330
1F
100
AcDbEntity
  8
0-4_寸法
  6
Continuous
 62
     7
370
     9
100
AcDbLine
 10
177.1277696016068
 20
79.52151949790371
 30
0.0
 11
178.4330315238074
 21
69.60707088416561
 31
0.0
  0
LINE
  5
83
330
1F
100
AcDbEntity
  8
0-4_寸法
  6
Continuous
 62
     7
370
     9
100
AcDbLine
 10
178.3277696492906
 20
79.52151949790371
 30
0.0
 11
36.01499477844383
 21
79.52151949790374
 31
0.0
  0
LINE
  5
84
330
1F
100
AcDbEntity
  8
0-4_寸法
  6
Continuous
 62
     7
370
     9
100
AcDbLine
 10
-198.7383727419191
 20
9.521599621274959
 30
0.0
 11
-198.7383727419191
 21
79.5215194979038
 31
0.0
  0
LINE
  5
85
330
1F
100
AcDbEntity
  8
0-4_寸法
  6
Continuous
 62
     7
370
     9
100
AcDbLine
 10
-198.7383727419191
 20
9.521599621274959
 30
0.0
 11
-200.0436346641196
 21
19.43604823501306
 31
0.0
  0
LINE
  5
86
330
1F
100
AcDbEntity
  8
0-4_寸法
  6
Continuous
 62
     7
370
     9
100
AcDbLine
 10
-198.7383727419191
 20
9.521599621274959
 30
0.0
 11
-197.4331108197186
 21
19.43604823501306
 31
0.0
  0
LINE
  5
87
330
1F
100
AcDbEntity
  8
0-4_寸法
  6
Continuous
 62
     7
370
     9
100
AcDbLine
 10
-198.7383727419191
 20
79.5215194979038
 30
0.0
 11
-200.0436346641196
 21
69.6070708841657
 31
0.0
  0
LINE
  5
88
330
1F
100
AcDbEntity
  8
0-4_寸法
  6
Continuous
 62
     7
370
     9
100
AcDbLine
 10
-198.7383727419191
 20
79.5215194979038
 30
0.0
 11
-197.4331108197186
 21
69.6070708841657
 31
0.0
  0
LINE
  5
89
330
1F
100
AcDbEntity
  8
0-4_寸法
  6
Continuous
 62
     7
370
     9
100
AcDbLine
 10
-199.9383727896028
 20
9.521599621274959
 30
0.0
 11
-145.6534324989929
 21
9.521599621274959
 31
0.0
  0
LINE
  5
8A
330
1F
100
AcDbEntity
  8
0-4_寸法
  6
Continuous
 62
     7
370
     9
100
AcDbLine
 10
-199.9383727896028
 20
79.5215194979038
 30
0.0
 11
-123.9850778628184
 21
79.5215194979038
 31
0.0
  0
TEXT
  5
8B
330
1F
100
AcDbEntity
  8
0-4_寸法
  6
Continuous
 62
     2
370
   211
100
AcDbText
 10
-204.9943727419191
 20
36.02155955958938
 30
0.0
 40
12.192
  1
70
 50
90.0
 41
1.0625
  7
ＭＳ ゴシック
100
AcDbText
  0
TEXT
  5
8C
330
1F
100
AcDbEntity
  8
0-4_寸法
  6
Continuous
 62
     2
370
   211
100
AcDbText
 10
170.8717696016068
 20
36.84333195454286
 30
0.0
 40
12.192
  1
68
 50
90.0
 41
1.0625
  7
ＭＳ ゴシック
100
AcDbText
  0
LINE
  5
8D
330
1F
100
AcDbEntity
  8
0-5_文字
  6
Continuous
 62
     7
370
     9
100
AcDbLine
 10
31.46543776642344
 20
46.52159726470521
 30
0.0
 11
133.9976779320376
 21
266.402695875213
 31
0.0
  0
LINE
  5
8E
330
1F
100
AcDbEntity
  8
0-5_文字
  6
Continuous
 62
     7
370
     9
100
AcDbLine
 10
31.46543776642344
 20
46.52159726470521
 30
0.0
 11
34.47249576146617
 21
56.05876677218748
 31
0.0
  0
LINE
  5
8F
330
1F
100
AcDbEntity
  8
0-5_文字
  6
Continuous
 62
     7
370
     9
100
AcDbLine
 10
31.46543776642344
 20
46.52159726470521
 30
0.0
 11
36.83843384989168
 21
54.95551172283407
 31
0.0
  0
TEXT
  5
90
330
1F
100
AcDbEntity
  8
0-5_文字
  6
Continuous
 62
     7
370
     9
100
AcDbText
 10
129.3159166862955
 20
116.5919802636871
 30
0.0
 40
9.144
  1
断熱材押え：ＦＣ１５０
 41
1.151515151515151
  7
ＭＳ ゴシック
100
AcDbText
  0
TEXT
  5
91
330
1F
100
AcDbEntity
  8
0-5_文字
  6
Continuous
 62
     7
370
     9
100
AcDbText
 10
167.406318000696
 20
96.6037419032564
 30
0.0
 40
9.144
  1
樹脂系塗装
 41
1.133333333333333
  7
ＭＳ ゴシック
100
AcDbText
  0
TEXT
  5
92
330
1F
100
AcDbEntity
  8
0-5_文字
  6
Continuous
 62
     7
370
     9
100
AcDbText
 10
130.0937961588845
 20
170.2073037867738
 30
0.0
 40
9.144
  1
防水層押え：ＦＣ１５０
 41
1.151515151515151
  7
ＭＳ ゴシック
100
AcDbText
  0
TEXT
  5
93
330
1F
100
AcDbEntity
  8
0-5_文字
  6
Continuous
 62
     7
370
     9
100
AcDbText
 10
164.4203408432174
 20
151.5965629189529
 30
0.0
 40
9.144
  1
樹脂系塗装
 41
1.133333333333333
  7
ＭＳ ゴシック
100
AcDbText
  0
TEXT
  5
94
330
1F
100
AcDbEntity
  8
0-5_文字
  6
Continuous
 62
     7
370
     9
100
AcDbText
 10
135.5067803144154
 20
211.8327945502681
 30
0.0
 40
9.144
  1
丸小ネジ：Ｃ２７００
 41
1.15
  7
ＭＳ ゴシック
100
AcDbText
  0
TEXT
  5
95
330
1F
100
AcDbEntity
  8
0-5_文字
  6
Continuous
 62
     7
370
     9
100
AcDbText
 10
177.105010624804
 20
191.0337453790265
 30
0.0
 40
9.144
  1
Ｍ６×１２
 41
1.133333333333333
  7
ＭＳ ゴシック
100
AcDbText
  0
LINE
  5
96
330
1F
100
AcDbEntity
  8
0-5_文字
  6
Continuous
 62
     7
370
     9
100
AcDbLine
 10
133.9976779320376
 20
266.402695875213
 30
0.0
 11
268.5710808618346
 21
266.402695875213
 31
0.0
  0
TEXT
  5
97
330
1F
100
AcDbEntity
  8
0-5_文字
  6
Continuous
 62
     7
370
     9
100
AcDbText
 10
134.1389124558964
 20
271.8204938175245
 30
0.0
 40
9.144
  1
ロート：ＳＵＳ３０４
 41
1.15
  7
ＭＳ ゴシック
100
AcDbText
  0
LINE
  5
98
330
1F
100
AcDbEntity
  8
0-5_文字
  6
Continuous
 62
     7
370
     9
100
AcDbLine
 10
-111.4850002727597
 20
9.521599621274959
 30
0.0
 11
-203.19091454075
 21
168.3609024879898
 31
0.0
  0
LINE
  5
99
330
1F
100
AcDbEntity
  8
0-5_文字
  6
Continuous
 62
     7
370
     9
100
AcDbLine
 10
-203.19091454075
 20
168.3609024879898
 30
0.0
 11
-366.1707663407924
 21
168.3609024879898
 31
0.0
  0
TEXT
  5
9A
330
1F
100
AcDbEntity
  8
0-5_文字
  6
Continuous
 62
     7
370
     9
100
AcDbText
 10
-359.9438293818609
 20
174.6671108125253
 30
0.0
 40
9.144
  1
注） ボルト：Ｃ３６０２
 41
1.152173913043479
  7
ＭＳ ゴシック
100
AcDbText
  0
TEXT
  5
9B
330
1F
100
AcDbEntity
  8
0-5_文字
  6
Continuous
 62
     6
370
     5
100
AcDbText
 10
-362.0644444182839
 20
154.5124939153547
 30
0.0
 40
9.144
  1
アスファルト防水用　Ｍ８×４０
 41
0.8955555555555553
  7
ＭＳ ゴシック
100
AcDbText
  0
TEXT
  5
9C
330
1F
100
AcDbEntity
  8
0-5_文字
  6
Continuous
 62
     6
370
     5
100
AcDbText
 10
-362.0644444182839
 20
141.245265505304
 30
0.0
 40
9.144
  1
　　　シート防水用　Ｍ８×３０
 41
0.8955555555555553
  7
ＭＳ ゴシック
100
AcDbText
  0
TEXT
  5
9D
330
1F
100
AcDbEntity
  8
0-5_文字
  6
Continuous
 62
     7
370
     9
100
AcDbText
 10
-351.347501244462
 20
227.0488241232495
 30
0.0
 40
9.144
  1
丸小ネジ：Ｃ２７００
 41
1.15
  7
ＭＳ ゴシック
100
AcDbText
  0
TEXT
  5
9E
330
1F
100
AcDbEntity
  8
0-5_文字
  6
Continuous
 62
     7
370
     9
100
AcDbText
 10
-312.0180727761845
 20
208.4322817096564
 30
0.0
 40
9.144
  1
Ｍ６×１２
 41
1.133333333333334
  7
ＭＳ ゴシック
100
AcDbText
  0
LINE
  5
9F
330
1F
100
AcDbEntity
  8
0-5_文字
  6
Continuous
 62
     7
370
     9
100
AcDbLine
 10
-352.2147096547538
 20
275.0360614885537
 30
0.0
 11
-181.9826440930983
 21
275.0360614885537
 31
0.0
  0
TEXT
  5
A0
330
1F
100
AcDbEntity
  8
0-5_文字
  6
Continuous
 62
     7
370
     9
100
AcDbText
 10
-350.261219588992
 20
280.5282422845835
 30
0.0
 40
9.144
  1
ストレーナー：ＦＣ１５０
 50
359.9999829189672
 41
1.152777777777779
  7
ＭＳ ゴシック
100
AcDbText
  0
TEXT
  5
A1
330
1F
100
AcDbEntity
  8
0-5_文字
  6
Continuous
 62
     7
370
     9
100
AcDbText
 10
-302.1314659496229
 20
259.5758299112733
 30
0.0
 40
9.144
  1
樹脂系塗装
 41
1.133333333333334
  7
ＭＳ ゴシック
100
AcDbText
  0
LINE
  5
A2
330
1F
100
AcDbEntity
  8
0-5_文字
  6
Continuous
 62
     7
370
     9
100
AcDbLine
 10
-69.10227064431021
 20
79.52151949790377
 30
0.0
 11
-181.9826440930983
 21
275.0360614885537
 31
0.0
  0
LINE
  5
A3
330
1F
100
AcDbEntity
  8
0-5_文字
  6
Continuous
 62
     7
370
     9
100
AcDbLine
 10
-69.10227064431021
 20
79.52151949790377
 30
0.0
 11
-75.18988493439741
 21
87.45505290081613
 31
0.0
  0
LINE
  5
A4
330
1F
100
AcDbEntity
  8
0-5_文字
  6
Continuous
 62
     7
370
     9
100
AcDbLine
 10
-69.10227064431021
 20
79.52151949790377
 30
0.0
 11
-72.92910496796111
 21
88.76031482301664
 31
0.0
  0
TEXT
  5
A5
330
1F
100
AcDbEntity
  8
0-5_文字
  6
Continuous
 62
     7
370
     9
100
AcDbText
 10
-294.9800903048791
 20
92.76677110106615
 30
0.0
 40
9.144
  1
Ｍ８×５０
 41
1.133333333333334
  7
ＭＳ ゴシック
100
AcDbText
  0
TEXT
  5
A6
330
1F
100
AcDbEntity
  8
0-5_文字
  6
Continuous
 62
     7
370
     9
100
AcDbText
 10
-325.1799045600523
 20
111.8560605858634
 30
0.0
 40
9.144
  1
ボルト：Ｃ３６０２
 41
1.148148148148148
  7
ＭＳ ゴシック
100
AcDbText
  0
TEXT
  5
A7
330
1F
100
AcDbEntity
  8
F-4ﾚｲﾔ
  6
Continuous
 62
     2
370
     9
100
AcDbText
 10
0.4017735388968617
 20
-463.2134675371877
 30
0.0
 40
12.192
  1
差し込み式　ルーフドレイン　ＥＳＪＷ－３－１２５
 41
0.7739583333333336
  7
ＭＳ ゴシック
100
AcDbText
  0
LINE
  5
A8
330
1F
100
AcDbEntity
  8
0-1_ピット
  6
Continuous
 62
     2
370
     9
100
AcDbLine
 10
-153.985042190244
 20
10.28937805470287
 30
0.0
 11
-150.9849786806895
 21
12.02143784276246
 31
0.0
  0
LINE
  5
A9
330
1F
100
AcDbEntity
  8
0-1_ピット
  6
Continuous
 62
     2
370
     9
100
AcDbLine
 10
-150.9849786806895
 20
13.02144249698768
 30
0.0
 11
-150.9849786806895
 21
12.02143784276246
 31
0.0
  0
LINE
  5
AA
330
1F
100
AcDbEntity
  8
0-1_ピット
  6
Continuous
 62
     2
370
     9
100
AcDbLine
 10
-156.9850066060409
 20
13.02144249698768
 30
0.0
 11
-156.9850066060409
 21
12.02143784276246
 31
0.0
  0
LINE
  5
AB
330
1F
100
AcDbEntity
  8
0-1_ピット
  6
Continuous
 62
     2
370
     9
100
AcDbLine
 10
-150.9849786806895
 20
12.02143784276246
 30
0.0
 11
-156.9850066060409
 21
12.02143784276246
 31
0.0
  0
LINE
  5
AC
330
1F
100
AcDbEntity
  8
0-1_ピット
  6
Continuous
 62
     2
370
     9
100
AcDbLine
 10
-153.985042190244
 20
10.28937805470287
 30
0.0
 11
-156.9850066060409
 21
12.02143784276246
 31
0.0
  0
LINE
  5
AD
330
1F
100
AcDbEntity
  8
0-B
  6
Continuous
 62
     6
370
     5
100
AcDbLine
 10
-161.4850523234938
 20
30.2997768899918
 30
0.0
 11
-161.4850523234938
 21
24.5214712471385
 31
0.0
  0
LINE
  5
AE
330
1F
100
AcDbEntity
  8
0-B
  6
Continuous
 62
     6
370
     5
100
AcDbLine
 10
-146.4849329632365
 20
30.29977688999179
 30
0.0
 11
-146.4849329632365
 21
24.5214712471385
 31
0.0
  0
LINE
  5
AF
330
1F
100
AcDbEntity
  8
0-B
  6
Continuous
 62
     6
370
     5
100
AcDbLine
 10
-157.7322726316578
 20
30.2997768899918
 30
0.0
 11
-157.7322726316578
 21
24.5214712471385
 31
0.0
  0
LINE
  5
B0
330
1F
100
AcDbEntity
  8
0-B
  6
Continuous
 62
     6
370
     5
100
AcDbLine
 10
-150.2378117488302
 20
30.2997768899918
 30
0.0
 11
-150.2378117488302
 21
24.5214712471385
 31
0.0
  0
LINE
  5
B1
330
1F
100
AcDbEntity
  8
0-B
  6
Continuous
 62
     6
370
     5
100
AcDbLine
 10
-159.608612930697
 20
31.02142717928439
 30
0.0
 11
-148.3614714497909
 21
31.02142717928439
 31
0.0
  0
LINE
  5
B2
330
1F
100
AcDbEntity
  8
0-B
  6
Continuous
 62
     6
370
     5
100
AcDbLine
 10
-149.985023573343
 20
62.34481529736548
 30
0.0
 11
-157.9849617133873
 21
62.34481529736548
 31
0.0
  0
LINE
  5
B3
330
1F
100
AcDbEntity
  8
0-B
  6
Continuous
 62
     6
370
     5
100
AcDbLine
 10
-157.9849617133873
 20
62.34481529736548
 30
0.0
 11
-157.3085477244123
 21
63.02142747385552
 31
0.0
  0
LINE
  5
B4
330
1F
100
AcDbEntity
  8
0-B
  6
Continuous
 62
     6
370
     5
100
AcDbLine
 10
-157.3085477244123
 20
63.02142747385552
 30
0.0
 11
-150.661437562318
 21
63.02142747385552
 31
0.0
  0
LINE
  5
B5
330
1F
100
AcDbEntity
  8
0-B
  6
Continuous
 62
     6
370
     5
100
AcDbLine
 10
-150.661437562318
 20
63.02142747385552
 30
0.0
 11
-149.985023573343
 21
62.34481529736548
 31
0.0
  0
LINE
  5
B6
330
1F
100
AcDbEntity
  8
0-B
  6
Continuous
 62
     6
370
     5
100
AcDbLine
 10
-150.6520236553517
 20
13.02144249698768
 30
0.0
 11
-149.985023573343
 21
13.68844257899628
 31
0.0
  0
LINE
  5
B7
330
1F
100
AcDbEntity
  8
0-B
  6
Continuous
 62
     6
370
     5
100
AcDbLine
 10
-157.3179616313788
 20
13.02144249698768
 30
0.0
 11
-150.6520236553517
 21
13.02144249698768
 31
0.0
  0
LINE
  5
B8
330
1F
100
AcDbEntity
  8
0-B
  6
Continuous
 62
     6
370
     5
100
AcDbLine
 10
-157.3179616313788
 20
13.02144249698768
 30
0.0
 11
-157.9849617133873
 21
13.68844257899628
 31
0.0
  0
LINE
  5
B9
330
1F
100
AcDbEntity
  8
0-B
  6
Continuous
 62
     6
370
     5
100
AcDbLine
 10
-157.9849617133873
 20
13.68844257899628
 30
0.0
 11
-149.985023573343
 21
13.68844257899628
 31
0.0
  0
LINE
  5
BA
330
1F
100
AcDbEntity
  8
0-B
  6
Continuous
 62
     6
370
     5
100
AcDbLine
 10
-150.6520236553516
 20
63.02142747385552
 30
0.0
 11
-150.6520236553517
 21
31.02142717928439
 31
0.0
  0
LINE
  5
BB
330
1F
100
AcDbEntity
  8
0-B
  6
Continuous
 62
     6
370
     5
100
AcDbLine
 10
-150.6520236553517
 20
24.5214712471385
 30
0.0
 11
-150.6520236553517
 21
13.02144249698768
 31
0.0
  0
LINE
  5
BC
330
1F
100
AcDbEntity
  8
0-B
  6
Continuous
 62
     6
370
     5
100
AcDbLine
 10
-149.985023573343
 20
62.34481529736548
 30
0.0
 11
-149.985023573343
 21
31.02142717928439
 31
0.0
  0
LINE
  5
BD
330
1F
100
AcDbEntity
  8
0-B
  6
Continuous
 62
     6
370
     5
100
AcDbLine
 10
-149.985023573343
 20
24.5214712471385
 30
0.0
 11
-149.985023573343
 21
13.68844257899628
 31
0.0
  0
LINE
  5
BE
330
1F
100
AcDbEntity
  8
0-B
  6
Continuous
 62
     6
370
     5
100
AcDbLine
 10
-157.3179616313787
 20
63.02142747385552
 30
0.0
 11
-157.3179616313788
 21
31.02142717928439
 31
0.0
  0
LINE
  5
BF
330
1F
100
AcDbEntity
  8
0-B
  6
Continuous
 62
     6
370
     5
100
AcDbLine
 10
-157.3179616313788
 20
24.5214712471385
 30
0.0
 11
-157.3179616313788
 21
13.02144249698768
 31
0.0
  0
LINE
  5
C0
330
1F
100
AcDbEntity
  8
0-B
  6
Continuous
 62
     6
370
     5
100
AcDbLine
 10
-157.9849617133873
 20
62.34481529736548
 30
0.0
 11
-157.9849617133873
 21
31.02142717928439
 31
0.0
  0
LINE
  5
C1
330
1F
100
AcDbEntity
  8
0-B
  6
Continuous
 62
     6
370
     5
100
AcDbLine
 10
-157.9849617133873
 20
24.5214712471385
 30
0.0
 11
-157.9849617133873
 21
13.68844257899628
 31
0.0
  0
LINE
  5
C2
330
1F
100
AcDbEntity
  8
0-B
  6
JWW_CENTER1
 62
     6
370
     5
100
AcDbLine
 10
-153.9850421902439
 20
65.24974879968056
 30
0.0
 11
-153.985042190244
 21
9.642840833626456
 31
0.0
  0
LINE
  5
C3
330
1F
100
AcDbEntity
  8
0-B
  6
Continuous
 62
     6
370
     5
100
AcDbLine
 10
-149.7368432575815
 20
24.5214712471385
 30
0.0
 11
-146.4849329632365
 21
24.5214712471385
 31
0.0
  0
LINE
  5
C4
330
1F
100
AcDbEntity
  8
0-1_ピット
  6
Continuous
 62
     2
370
     9
100
AcDbLine
 10
-99.18500514496768
 20
1.521562387473178
 30
0.0
 11
34.32844883570281
 21
1.521562387473153
 31
0.0
  0
LINE
  5
C5
330
1F
100
AcDbEntity
  8
0-1_ピット
  6
Continuous
 62
     2
370
     9
100
AcDbLine
 10
52.51500229000985
 20
3.260657832318056
 30
0.0
 11
53.51500694423513
 21
3.010941563314727
 31
0.0
  0
LINE
  5
C6
330
1F
100
AcDbEntity
  8
0-1_ピット
  6
Continuous
 62
     2
370
     9
100
AcDbLine
 10
55.51496670580682
 20
3.546890150975255
 30
0.0
 11
53.51500694423513
 21
3.010941563314727
 31
0.0
  0
LINE
  5
C7
330
1F
100
AcDbEntity
  8
0-1_ピット
  6
Continuous
 62
     2
370
     9
100
AcDbLine
 10
56.51497136003204
 20
4.332455913881712
 30
0.0
 11
55.51496670580682
 21
3.546890150975255
 31
0.0
  0
LINE
  5
C8
330
1F
100
AcDbEntity
  8
0-1_ピット
  6
Continuous
 62
     2
370
     9
100
AcDbLine
 10
74.01497848865549
 20
9.021572520722962
 30
0.0
 11
56.51497136003204
 21
4.332455913881712
 31
0.0
  0
LINE
  5
C9
330
1F
100
AcDbEntity
  8
0-1_ピット
  6
Continuous
 62
     2
370
     9
100
AcDbLine
 10
52.51500229000985
 20
3.260657832318056
 30
0.0
 11
32.96244138799981
 21
-1.978429128875888
 31
0.0
  0
LINE
  5
CA
330
1F
100
AcDbEntity
  8
0-1_ピット
  6
Continuous
 62
     2
370
     9
100
AcDbLine
 10
-139.4850242508568
 20
3.260657832318092
 30
0.0
 11
-140.4850041316427
 21
3.010941563314763
 31
0.0
  0
LINE
  5
CB
330
1F
100
AcDbEntity
  8
0-1_ピット
  6
Continuous
 62
     2
370
     9
100
AcDbLine
 10
-142.4849886666537
 20
3.54689015097529
 30
0.0
 11
-140.4850041316427
 21
3.010941563314763
 31
0.0
  0
LINE
  5
CC
330
1F
100
AcDbEntity
  8
0-1_ピット
  6
Continuous
 62
     2
370
     9
100
AcDbLine
 10
-143.4849685474396
 20
4.332455913881749
 30
0.0
 11
-142.4849886666537
 21
3.54689015097529
 31
0.0
  0
LINE
  5
CD
330
1F
100
AcDbEntity
  8
0-1_ピット
  6
Continuous
 62
     2
370
     9
100
AcDbLine
 10
-139.4850242508568
 20
3.260657832318092
 30
0.0
 11
-119.9324633488468
 21
-1.97842912887586
 31
0.0
  0
LINE
  5
CE
330
1F
100
AcDbEntity
  8
0-1_ピット
  6
JWW_HOJO
 62
     2
370
     9
100
AcDbLine
 10
-141.4850335593073
 20
16.02155555342086
 30
0.0
 11
-141.3516781350964
 21
15.17762356732272
 31
0.0
  0
LINE
  5
CF
330
1F
100
AcDbEntity
  8
0-1_ピット
  6
JWW_HOJO
 62
     2
370
     9
100
AcDbLine
 10
-147.9153513533412
 20
18.60379023430369
 30
0.0
 11
-147.9850142648926
 21
19.02151996921783
 31
0.0
  0
LINE
  5
D0
330
1F
100
AcDbEntity
  8
0-1_ピット
  6
JWW_HOJO
 62
     2
370
     9
100
AcDbLine
 10
-147.9850142648926
 20
19.02151996921783
 30
0.0
 11
-148.4085905315017
 21
19.02151996921783
 31
0.0
  0
LINE
  5
D1
330
1F
100
AcDbEntity
  8
0-1_ピット
  6
Continuous
 62
     2
370
     9
100
AcDbLine
 10
-147.5546500758919
 20
16.43938438209262
 30
0.0
 11
-147.9153513533412
 21
18.60379023430369
 31
0.0
  0
LINE
  5
D2
330
1F
100
AcDbEntity
  8
0-1_ピット
  6
JWW_HOJO
 62
     2
370
     9
100
AcDbLine
 10
-147.4850367112193
 20
16.02155555342086
 30
0.0
 11
-147.5546996227707
 21
16.43938438209262
 31
0.0
  0
LINE
  5
D3
330
1F
100
AcDbEntity
  8
0-1_ピット
  6
JWW_HOJO
 62
     2
370
     9
100
AcDbLine
 10
-147.4850367112193
 20
16.02155555342086
 30
0.0
 11
-147.0614604446102
 21
16.02155555342086
 31
0.0
  0
LINE
  5
D4
330
1F
100
AcDbEntity
  8
0-1_ピット
  6
Continuous
 62
     2
370
     9
100
AcDbLine
 10
-141.3516781350964
 20
15.17767311420153
 30
0.0
 11
-140.8579930350271
 21
12.05334603269057
 31
0.0
  0
LINE
  5
D5
330
1F
100
AcDbEntity
  8
0-1_ピット
  6
JWW_HOJO
 62
     2
370
     9
100
AcDbLine
 10
-127.4850179470328
 20
9.52159962127496
 30
0.0
 11
-127.2920080807822
 21
8.245916133570633
 31
0.0
  0
LINE
  5
D6
330
1F
100
AcDbEntity
  8
0-1_ピット
  6
JWW_HOJO
 62
     2
370
     9
100
AcDbLine
 10
-127.4850179470328
 20
9.52159962127496
 30
0.0
 11
-128.7751443498987
 21
9.52159962127496
 31
0.0
  0
LINE
  5
D7
330
1F
100
AcDbEntity
  8
0-1_ピット
  6
Continuous
 62
     2
370
     9
100
AcDbLine
 10
-127.2920328542216
 20
8.245916133570633
 30
0.0
 11
-126.7590323058479
 21
4.722439396684536
 31
0.0
  0
LINE
  5
D8
330
1F
100
AcDbEntity
  8
0-1_ピット
  6
Continuous
 62
     2
370
     9
100
AcDbLine
 10
-99.24381729006828
 20
1.81572220673365
 30
0.0
 11
-98.48500684169787
 21
-1.978429128875863
 31
0.0
  0
LINE
  5
D9
330
1F
100
AcDbEntity
  8
0-1_ピット
  6
JWW_HOJO
 62
     2
370
     9
100
AcDbLine
 10
-99.48501149592309
 20
3.021544595371548
 30
0.0
 11
-99.24381729006828
 21
1.81572220673365
 31
0.0
  0
LINE
  5
DA
330
1F
100
AcDbEntity
  8
0-1_ピット
  6
JWW_HOJO
 62
     2
370
     9
100
AcDbLine
 10
-99.48501149592309
 20
3.021544595371548
 30
0.0
 11
-100.7147154801284
 21
3.021544595371548
 31
0.0
  0
LINE
  5
DB
330
1F
100
AcDbEntity
  8
0-1_ピット
  6
Continuous
 62
     2
370
     9
100
AcDbLine
 10
40.32203566681407
 20
8.245916133570601
 30
0.0
 11
39.71080059686162
 21
4.205318622956582
 31
0.0
  0
LINE
  5
DC
330
1F
100
AcDbEntity
  8
0-1_ピット
  6
JWW_HOJO
 62
     2
370
     9
100
AcDbLine
 10
40.51499598618583
 20
9.521599621274929
 30
0.0
 11
40.32208521369282
 21
8.245866586691902
 31
0.0
  0
LINE
  5
DD
330
1F
100
AcDbEntity
  8
0-1_ピット
  6
Continuous
 62
     2
370
     9
100
AcDbLine
 10
74.01497848865549
 20
9.021572520722962
 30
0.0
 11
73.69609477688849
 21
10.93492433820378
 31
0.0
  0
LINE
  5
DE
330
1F
100
AcDbEntity
  8
0-1_ピット
  6
JWW_HOJO
 62
     2
370
     9
100
AcDbLine
 10
73.69614432376724
 20
10.93497388508259
 30
0.0
 11
73.51495138810347
 21
12.02153693651993
 31
0.0
  0
LINE
  5
DF
330
1F
100
AcDbEntity
  8
0-1_ピット
  6
JWW_HOJO
 62
     2
370
     9
100
AcDbLine
 10
73.51495138810347
 20
12.02153693651993
 30
0.0
 11
72.450882619628
 21
11.73644419607441
 31
0.0
  0
LINE
  5
E0
330
1F
100
AcDbEntity
  8
0-1_ピット
  6
Continuous
 62
     2
370
     9
100
AcDbLine
 10
72.450882619628
 20
11.73644419607441
 30
0.0
 11
61.8422022185587
 21
8.893840667252642
 31
0.0
  0
LINE
  5
E1
330
1F
100
AcDbEntity
  8
0-1_ピット
  6
Continuous
 62
     2
370
     9
100
AcDbLine
 10
38.25092658732789
 20
2.572600326831973
 30
0.0
 11
34.32844883570281
 21
1.521562387473153
 31
0.0
  0
LINE
  5
E2
330
1F
100
AcDbEntity
  8
0-1_ピット
  6
Continuous
 62
     2
370
     9
100
AcDbLine
 10
58.08872887041978
 20
11.42038465639731
 30
0.0
 11
57.62427642882503
 21
15.1453190023644
 31
0.0
  0
LINE
  5
E3
330
1F
100
AcDbEntity
  8
0-1_ピット
  6
JWW_HOJO
 62
     2
370
     9
100
AcDbLine
 10
57.62427642882503
 20
15.1453685492431
 30
0.0
 11
57.51502556113602
 21
16.02155555342082
 31
0.0
  0
LINE
  5
E4
330
1F
100
AcDbEntity
  8
0-1_ピット
  6
JWW_HOJO
 62
     2
370
     9
100
AcDbLine
 10
56.63195154080925
 20
16.02155555342082
 30
0.0
 11
57.51502556113602
 21
16.02155555342082
 31
0.0
  0
LINE
  5
E5
330
1F
100
AcDbEntity
  8
0-1_ピット
  6
Continuous
 62
     2
370
     9
100
AcDbLine
 10
54.38168094768887
 20
15.17767311420149
 30
0.0
 11
53.88799584761953
 21
12.05334603269054
 31
0.0
  0
LINE
  5
E6
330
1F
100
AcDbEntity
  8
0-1_ピット
  6
JWW_HOJO
 62
     2
370
     9
100
AcDbLine
 10
54.51501159846035
 20
16.02155555342082
 30
0.0
 11
54.38168094768887
 21
15.17767311420149
 31
0.0
  0
LINE
  5
E7
330
1F
100
AcDbEntity
  8
0-1_ピット
  6
Continuous
 62
     2
370
     9
100
AcDbLine
 10
21.5150066496639
 20
-1.978429128875886
 30
0.0
 11
22.30775670999206
 21
0.7962951760303856
 31
0.0
  0
LINE
  5
E8
330
1F
100
AcDbEntity
  8
0-1_ピット
  6
JWW_HOJO
 62
     2
370
     9
100
AcDbLine
 10
22.30775670999206
 20
0.796344722909085
 30
0.0
 11
22.51498653044977
 21
1.521562387473155
 31
0.0
  0
LINE
  5
E9
330
1F
100
AcDbEntity
  8
0-1_ピット
  6
Continuous
 62
     2
370
     9
100
AcDbLine
 10
-106.484994528621
 20
-1.978429128875861
 30
0.0
 11
-105.7261345333718
 21
1.815722206733651
 31
0.0
  0
LINE
  5
EA
330
1F
100
AcDbEntity
  8
0-1_ピット
  6
JWW_HOJO
 62
     2
370
     9
100
AcDbLine
 10
-105.7261345333718
 20
1.815722206733651
 30
0.0
 11
-105.4849898743957
 21
3.021544595371549
 31
0.0
  0
LINE
  5
EB
330
1F
100
AcDbEntity
  8
0-1_ピット
  6
JWW_HOJO
 62
     2
370
     9
100
AcDbLine
 10
-117.2438515192437
 20
1.815722206733652
 30
0.0
 11
-117.4849961782198
 21
3.021544595371551
 31
0.0
  0
LINE
  5
EC
330
1F
100
AcDbEntity
  8
0-1_ピット
  6
Continuous
 62
     2
370
     9
100
AcDbLine
 10
-116.485016297434
 20
-1.97842912887586
 30
0.0
 11
-117.2438515192437
 21
1.815722206733652
 31
0.0
  0
LINE
  5
ED
330
1F
100
AcDbEntity
  8
0-1_ピット
  6
Continuous
 62
     2
370
     9
100
AcDbLine
 10
-161.9850298771671
 20
9.289522041113976
 30
0.0
 11
-143.4849685474396
 21
4.332455913881749
 31
0.0
  0
LINE
  5
EE
330
1F
100
AcDbEntity
  8
0-1_ピット
  6
Continuous
 62
     2
370
     9
100
AcDbLine
 10
-160.5503504554881
 20
18.59769596821491
 30
0.0
 11
-161.9850298771671
 21
9.289522041113976
 31
0.0
  0
LINE
  5
EF
330
1F
100
AcDbEntity
  8
0-1_ピット
  6
JWW_HOJO
 62
     2
370
     9
100
AcDbLine
 10
-160.4849981223898
 20
19.02151996921783
 30
0.0
 11
-160.0561698866311
 21
19.02151996921783
 31
0.0
  0
LINE
  5
F0
330
1F
100
AcDbEntity
  8
0-1_ピット
  6
JWW_HOJO
 62
     2
370
     9
100
AcDbLine
 10
-160.4849981223898
 20
19.02151996921783
 30
0.0
 11
-160.5503504554881
 21
18.59769596821491
 31
0.0
  0
LINE
  5
F1
330
1F
100
AcDbEntity
  8
0-A
  6
JWW_CENTER1
 62
     4
370
     9
100
AcDbLine
 10
-134.4851248469276
 20
22.70389354632107
 30
0.0
 11
-134.4851248469276
 21
2.420788690279099
 31
0.0
  0
LINE
  5
F2
330
1F
100
AcDbEntity
  8
0-9
  6
Continuous
 62
     4
370
     9
100
AcDbLine
 10
-136.6150460715143
 20
4.939058350669145
 30
0.0
 11
-137.484990168967
 21
5.809051995000576
 31
0.0
  0
LINE
  5
F3
330
1F
100
AcDbEntity
  8
0-9
  6
Continuous
 62
     4
370
     9
100
AcDbLine
 10
-132.3550054348257
 20
4.939058350669145
 30
0.0
 11
-131.4850613373731
 21
5.809051995000575
 31
0.0
  0
LINE
  5
F4
330
1F
100
AcDbEntity
  8
0-9
  6
Continuous
 62
     4
370
     9
100
AcDbLine
 10
-132.3550054348257
 20
4.939058350669145
 30
0.0
 11
-136.6150460715143
 21
4.939058350669145
 31
0.0
  0
LINE
  5
F5
330
1F
100
AcDbEntity
  8
0-9
  6
Continuous
 62
     4
370
     9
100
AcDbLine
 10
-131.4850613373731
 20
5.809051995000575
 30
0.0
 11
-137.484990168967
 21
5.809051995000576
 31
0.0
  0
LINE
  5
F6
330
1F
100
AcDbEntity
  8
0-9
  6
Continuous
 62
     4
370
     9
100
AcDbLine
 10
-137.484990168967
 20
16.93906465449323
 30
0.0
 11
-137.484990168967
 21
5.809051995000576
 31
0.0
  0
LINE
  5
F7
330
1F
100
AcDbEntity
  8
0-9
  6
Continuous
 62
     4
370
     9
100
AcDbLine
 10
-136.6150460715143
 20
16.93906465449323
 30
0.0
 11
-136.6150460715143
 21
4.939058350669145
 31
0.0
  0
LINE
  5
F8
330
1F
100
AcDbEntity
  8
0-9
  6
Continuous
 62
     4
370
     9
100
AcDbLine
 10
-132.3550054348257
 20
16.93906465449322
 30
0.0
 11
-132.3550054348257
 21
4.939058350669145
 31
0.0
  0
LINE
  5
F9
330
1F
100
AcDbEntity
  8
0-9
  6
Continuous
 62
     4
370
     9
100
AcDbLine
 10
-131.4850613373731
 20
16.93906465449322
 30
0.0
 11
-131.4850613373731
 21
5.809051995000575
 31
0.0
  0
LINE
  5
FA
330
1F
100
AcDbEntity
  8
0-9
  6
Continuous
 62
     4
370
     9
100
AcDbLine
 10
-139.3034597136023
 20
19.01334473422071
 30
0.0
 11
-139.4849994774174
 21
16.93906465449323
 31
0.0
  0
LINE
  5
FB
330
1F
100
AcDbEntity
  8
0-9
  6
Continuous
 62
     4
370
     9
100
AcDbLine
 10
-131.6589708818576
 20
20.83904812315654
 30
0.0
 11
-137.31117971824
 21
20.83904812315655
 31
0.0
  0
LINE
  5
FC
330
1F
100
AcDbEntity
  8
0-9
  6
Continuous
 62
     4
370
     9
100
AcDbLine
 10
-129.4850520289226
 20
16.93906465449322
 30
0.0
 11
-139.4849994774174
 21
16.93906465449323
 31
0.0
  0
LINE
  5
FD
330
1F
100
AcDbEntity
  8
0-9
  6
Continuous
 62
     4
370
     9
100
AcDbLine
 10
-129.6665917927378
 20
19.01334473422071
 30
0.0
 11
-129.4850520289226
 21
16.93906465449322
 31
0.0
  0
LINE
  5
FE
330
1F
100
AcDbEntity
  8
0-1_ピット
  6
Continuous
 62
     2
370
     9
100
AcDbLine
 10
-137.4850892627245
 20
5.809151088758089
 30
0.0
 11
-137.4850892627245
 21
2.724758791536263
 31
0.0
  0
LINE
  5
FF
330
1F
100
AcDbEntity
  8
0-1_ピット
  6
Continuous
 62
     2
370
     9
100
AcDbLine
 10
-136.6152442590294
 20
4.939256538184284
 30
0.0
 11
-136.6152442590294
 21
2.491690273799807
 31
0.0
  0
LINE
  5
100
330
1F
100
AcDbEntity
  8
0-1_ピット
  6
Continuous
 62
     2
370
     9
100
AcDbLine
 10
-132.3554018098559
 20
4.938661975638981
 30
0.0
 11
-132.3554018098559
 21
1.350278827563445
 31
0.0
  0
LINE
  5
101
330
1F
100
AcDbEntity
  8
0-1_ピット
  6
Continuous
 62
     2
370
     9
100
AcDbLine
 10
-131.4851604311306
 20
5.808952901243062
 30
0.0
 11
-131.4851604311306
 21
1.117111216069476
 31
0.0
  0
LINE
  5
102
330
1F
100
AcDbEntity
  8
0-A
  6
JWW_CENTER1
 62
     4
370
     9
100
AcDbLine
 10
47.51507811264126
 20
22.70389354632104
 30
0.0
 11
47.51507811264126
 21
2.420788690279065
 31
0.0
  0
LINE
  5
103
330
1F
100
AcDbEntity
  8
0-9
  6
Continuous
 62
     4
370
     9
100
AcDbLine
 10
49.64499933722798
 20
4.939058350669112
 30
0.0
 11
50.51494343468065
 21
5.809051995000541
 31
0.0
  0
LINE
  5
104
330
1F
100
AcDbEntity
  8
0-9
  6
Continuous
 62
     4
370
     9
100
AcDbLine
 10
45.38495870053939
 20
4.939058350669113
 30
0.0
 11
44.51501460308678
 21
5.809051995000543
 31
0.0
  0
LINE
  5
105
330
1F
100
AcDbEntity
  8
0-9
  6
Continuous
 62
     4
370
     9
100
AcDbLine
 10
45.38495870053939
 20
4.939058350669113
 30
0.0
 11
49.64499933722798
 21
4.939058350669112
 31
0.0
  0
LINE
  5
106
330
1F
100
AcDbEntity
  8
0-9
  6
Continuous
 62
     4
370
     9
100
AcDbLine
 10
44.51501460308678
 20
5.809051995000543
 30
0.0
 11
50.51494343468065
 21
5.809051995000541
 31
0.0
  0
LINE
  5
107
330
1F
100
AcDbEntity
  8
0-9
  6
Continuous
 62
     4
370
     9
100
AcDbLine
 10
50.51494343468065
 20
16.93906465449319
 30
0.0
 11
50.51494343468065
 21
5.809051995000541
 31
0.0
  0
LINE
  5
108
330
1F
100
AcDbEntity
  8
0-9
  6
Continuous
 62
     4
370
     9
100
AcDbLine
 10
49.64499933722798
 20
16.93906465449319
 30
0.0
 11
49.64499933722798
 21
4.939058350669112
 31
0.0
  0
LINE
  5
109
330
1F
100
AcDbEntity
  8
0-9
  6
Continuous
 62
     4
370
     9
100
AcDbLine
 10
45.38495870053939
 20
16.93906465449319
 30
0.0
 11
45.38495870053939
 21
4.939058350669113
 31
0.0
  0
LINE
  5
10A
330
1F
100
AcDbEntity
  8
0-9
  6
Continuous
 62
     4
370
     9
100
AcDbLine
 10
44.51501460308678
 20
16.93906465449319
 30
0.0
 11
44.51501460308678
 21
5.809051995000543
 31
0.0
  0
LINE
  5
10B
330
1F
100
AcDbEntity
  8
0-9
  6
Continuous
 62
     4
370
     9
100
AcDbLine
 10
52.33341297931597
 20
19.01334473422068
 30
0.0
 11
52.5149527431311
 21
16.93906465449319
 31
0.0
  0
LINE
  5
10C
330
1F
100
AcDbEntity
  8
0-9
  6
Continuous
 62
     4
370
     9
100
AcDbLine
 10
44.68892414757128
 20
20.83904812315652
 30
0.0
 11
50.34113298395366
 21
20.83904812315651
 31
0.0
  0
LINE
  5
10D
330
1F
100
AcDbEntity
  8
0-9
  6
Continuous
 62
     4
370
     9
100
AcDbLine
 10
42.51500529463627
 20
16.93906465449319
 30
0.0
 11
52.5149527431311
 21
16.93906465449319
 31
0.0
  0
LINE
  5
10E
330
1F
100
AcDbEntity
  8
0-9
  6
Continuous
 62
     4
370
     9
100
AcDbLine
 10
42.69654505845146
 20
19.01334473422068
 30
0.0
 11
42.51500529463627
 21
16.93906465449319
 31
0.0
  0
LINE
  5
10F
330
1F
100
AcDbEntity
  8
0-1_ピット
  6
Continuous
 62
     2
370
     9
100
AcDbLine
 10
50.51504252843817
 20
5.809151088758053
 30
0.0
 11
50.51504252843817
 21
2.724758791536229
 31
0.0
  0
LINE
  5
110
330
1F
100
AcDbEntity
  8
0-1_ピット
  6
Continuous
 62
     2
370
     9
100
AcDbLine
 10
49.64519752474306
 20
4.93925653818425
 30
0.0
 11
49.64519752474306
 21
2.491690273799773
 31
0.0
  0
LINE
  5
111
330
1F
100
AcDbEntity
  8
0-1_ピット
  6
Continuous
 62
     2
370
     9
100
AcDbLine
 10
45.38535507556956
 20
4.938661975638949
 30
0.0
 11
45.38535507556956
 21
1.350278827563413
 31
0.0
  0
LINE
  5
112
330
1F
100
AcDbEntity
  8
0-1_ピット
  6
Continuous
 62
     2
370
     9
100
AcDbLine
 10
44.51511369684429
 20
5.80895290124303
 30
0.0
 11
44.51511369684429
 21
1.117111216069445
 31
0.0
  0
LINE
  5
113
330
1F
100
AcDbEntity
  8
0-A
  6
Continuous
 62
     4
370
     9
100
AcDbLine
 10
-107.4849991828462
 20
-14.65836725006762
 30
0.0
 11
-115.4849373228906
 21
-14.65836725006761
 31
0.0
  0
LINE
  5
114
330
1F
100
AcDbEntity
  8
0-A
  6
Continuous
 62
     4
370
     9
100
AcDbLine
 10
-115.4849373228906
 20
-14.65836725006761
 30
0.0
 11
-114.8085233339155
 21
-15.33483078592133
 31
0.0
  0
LINE
  5
115
330
1F
100
AcDbEntity
  8
0-A
  6
Continuous
 62
     4
370
     9
100
AcDbLine
 10
-114.8085233339155
 20
-15.33483078592133
 30
0.0
 11
-108.1615122655788
 21
-15.33483078592133
 31
0.0
  0
LINE
  5
116
330
1F
100
AcDbEntity
  8
0-A
  6
Continuous
 62
     4
370
     9
100
AcDbLine
 10
-108.1615122655788
 20
-15.33483078592133
 30
0.0
 11
-107.4849991828462
 21
-14.65836725006762
 31
0.0
  0
LINE
  5
117
330
1F
100
AcDbEntity
  8
0-A
  6
Continuous
 62
     4
370
     9
100
AcDbLine
 10
-103.9850076664973
 20
7.600468943827192
 30
0.0
 11
-103.9850076664973
 21
3.022188704795664
 31
0.0
  0
LINE
  5
118
330
1F
100
AcDbEntity
  8
0-A
  6
Continuous
 62
     4
370
     9
100
AcDbLine
 10
-115.232248241161
 20
7.600468943827194
 30
0.0
 11
-115.232248241161
 21
3.022188704795666
 31
0.0
  0
LINE
  5
119
330
1F
100
AcDbEntity
  8
0-A
  6
Continuous
 62
     4
370
     9
100
AcDbLine
 10
-107.7377873583333
 20
7.600468943827193
 30
0.0
 11
-107.7377873583333
 21
3.022188704795664
 31
0.0
  0
LINE
  5
11A
330
1F
100
AcDbEntity
  8
0-A
  6
Continuous
 62
     4
370
     9
100
AcDbLine
 10
-117.1085885402002
 20
8.322218326877191
 30
0.0
 11
-105.8614470592941
 21
8.322218326877188
 31
0.0
  0
LINE
  5
11B
330
1F
100
AcDbEntity
  8
0-A
  6
Continuous
 62
     4
370
     9
100
AcDbLine
 10
-115.4849373228906
 20
18.98926495113824
 30
0.0
 11
-107.4849991828462
 21
18.98926495113824
 31
0.0
  0
LINE
  5
11C
330
1F
100
AcDbEntity
  8
0-A
  6
Continuous
 62
     4
370
     9
100
AcDbLine
 10
-107.4849991828462
 20
18.98926495113824
 30
0.0
 11
-108.1615122655788
 21
19.66523301820428
 31
0.0
  0
LINE
  5
11D
330
1F
100
AcDbEntity
  8
0-A
  6
Continuous
 62
     4
370
     9
100
AcDbLine
 10
-114.8085233339155
 20
19.66523301820428
 30
0.0
 11
-115.4849373228906
 21
18.98926495113824
 31
0.0
  0
LINE
  5
11E
330
1F
100
AcDbEntity
  8
0-A
  6
Continuous
 62
     4
370
     9
100
AcDbLine
 10
-107.4849991828462
 20
3.022188704795664
 30
0.0
 11
-107.4849991828462
 21
-14.65836725006762
 31
0.0
  0
LINE
  5
11F
330
1F
100
AcDbEntity
  8
0-A
  6
Continuous
 62
     4
370
     9
100
AcDbLine
 10
-108.1615122655788
 20
3.022188704795664
 30
0.0
 11
-108.1615122655788
 21
-15.33483078592133
 31
0.0
  0
LINE
  5
120
330
1F
100
AcDbEntity
  8
0-A
  6
Continuous
 62
     4
370
     9
100
AcDbLine
 10
-114.8085233339155
 20
3.022188704795666
 30
0.0
 11
-114.8085233339155
 21
-15.36401389751722
 31
0.0
  0
LINE
  5
121
330
1F
100
AcDbEntity
  8
0-A
  6
Continuous
 62
     4
370
     9
100
AcDbLine
 10
-115.4849373228906
 20
3.022188704795666
 30
0.0
 11
-115.4849373228906
 21
-14.65836725006761
 31
0.0
  0
LINE
  5
122
330
1F
100
AcDbEntity
  8
0-A
  6
JWW_CENTER1
 62
     4
370
     9
100
AcDbLine
 10
-111.4850177997472
 20
20.88601856423099
 30
0.0
 11
-111.4850177997472
 21
-19.31498110443533
 31
0.0
  0
LINE
  5
123
330
1F
100
AcDbEntity
  8
0-A
  6
Continuous
 62
     4
370
     9
100
AcDbLine
 10
-118.985027932997
 20
7.600468943827195
 30
0.0
 11
-118.985027932997
 21
3.022188704795667
 31
0.0
  0
LINE
  5
124
330
1F
100
AcDbEntity
  8
0-A
  6
Continuous
 62
     4
370
     9
100
AcDbLine
 10
-114.8085233339155
 20
19.66523301820428
 30
0.0
 11
-108.1615122655788
 21
19.66523301820428
 31
0.0
  0
LINE
  5
125
330
1F
100
AcDbEntity
  8
0-A
  6
Continuous
 62
     4
370
     9
100
AcDbLine
 10
-103.9850076664973
 20
3.022188704795664
 30
0.0
 11
-118.985027932997
 21
3.022188704795667
 31
0.0
  0
LINE
  5
126
330
1F
100
AcDbEntity
  8
0-1_ピット
  6
Continuous
 62
     2
370
     9
100
AcDbLine
 10
-100.7147154801284
 20
3.021544595371548
 30
0.0
 11
-104.2552858901904
 21
3.021544595371549
 31
0.0
  0
LINE
  5
127
330
1F
100
AcDbEntity
  8
0-1_ピット
  6
Continuous
 62
     2
370
     9
100
AcDbLine
 10
-118.7147249358645
 20
3.021544595371552
 30
0.0
 11
-124.7815172803592
 21
3.021544595371553
 31
0.0
  0
LINE
  5
128
330
1F
100
AcDbEntity
  8
0-1_ピット
  6
Continuous
 62
     2
370
     9
100
AcDbLine
 10
32.96244138799981
 20
-1.978429128875888
 30
0.0
 11
-107.4849991828462
 21
-1.978429128875861
 31
0.0
  0
LINE
  5
129
330
1F
100
AcDbEntity
  8
0-1_ピット
  6
Continuous
 62
     2
370
     9
100
AcDbLine
 10
-115.4849373228906
 20
-1.978429128875861
 30
0.0
 11
-119.9324633488468
 21
-1.97842912887586
 31
0.0
  0
LINE
  5
12A
330
1F
100
AcDbEntity
  8
0-1_ピット
  6
Continuous
 62
     2
370
     9
100
AcDbLine
 10
-139.0054352377977
 20
16.02155555342086
 30
0.0
 11
-147.0614604446102
 21
16.02155555342086
 31
0.0
  0
LINE
  5
12B
330
1F
100
AcDbEntity
  8
0-1_ピット
  6
Continuous
 62
     2
370
     9
100
AcDbLine
 10
52.03538850351132
 20
16.02155555342082
 30
0.0
 11
56.63195154080925
 21
16.02155555342082
 31
0.0
  0
LINE
  5
12C
330
1F
100
AcDbEntity
  8
0-1_ピット
  6
Continuous
 62
     2
370
     9
100
AcDbLine
 10
-128.7751443498987
 20
9.52159962127496
 30
0.0
 11
-132.3550054348257
 21
9.52159962127496
 31
0.0
  0
LINE
  5
12D
330
1F
100
AcDbEntity
  8
0-1_ピット
  6
Continuous
 62
     2
370
     9
100
AcDbLine
 10
-136.6150460715143
 20
9.521599621274962
 30
0.0
 11
-137.8947924032779
 21
9.521599621274962
 31
0.0
  0
LINE
  5
12E
330
1F
100
AcDbEntity
  8
0-1_ピット
  6
Continuous
 62
     2
370
     9
100
AcDbLine
 10
49.64499933722798
 20
9.521599621274927
 30
0.0
 11
50.92479521587033
 21
9.521599621274927
 31
0.0
  0
LINE
  5
12F
330
1F
100
AcDbEntity
  8
0-1_ピット
  6
Continuous
 62
     2
370
     9
100
AcDbLine
 10
41.80517193593054
 20
9.521599621274929
 30
0.0
 11
45.38495870053939
 21
9.521599621274929
 31
0.0
  0
LINE
  5
130
330
1F
100
AcDbEntity
  8
0-1_ピット
  6
Continuous
 62
     2
370
     9
100
AcDbLine
 10
-150.6520236553517
 20
19.02151996921783
 30
0.0
 11
-148.4085905315017
 21
19.02151996921783
 31
0.0
  0
LINE
  5
131
330
1F
100
AcDbEntity
  8
0-1_ピット
  6
Continuous
 62
     2
370
     9
100
AcDbLine
 10
-160.0561698866311
 20
19.02151996921783
 30
0.0
 11
-157.3179616313788
 21
19.02151996921783
 31
0.0
  0
LINE
  5
132
330
1F
100
AcDbEntity
  8
0-1_ピット
  6
JWW_PHANTOM1
 62
     2
370
     9
100
AcDbLine
 10
-160.9850252229418
 20
9.021572520723005
 30
0.0
 11
-160.6661415111748
 21
10.93492433820382
 31
0.0
  0
LINE
  5
133
330
1F
100
AcDbEntity
  8
0-1_ピット
  6
JWW_PHANTOM1
 62
     2
370
     9
100
AcDbLine
 10
-159.4209293539143
 20
11.73644419607445
 30
0.0
 11
-148.812248952845
 21
8.89384066725268
 31
0.0
  0
LINE
  5
134
330
1F
100
AcDbEntity
  8
0-A
  6
JWW_PHANTOM1
 62
     4
370
     9
100
AcDbLine
 10
-114.6277763201607
 20
73.11442396068139
 30
0.0
 11
-115.4155469191724
 21
74.05958022010765
 31
0.0
  0
LINE
  5
135
330
1F
100
AcDbEntity
  8
0-A
  6
JWW_PHANTOM1
 62
     4
370
     9
100
AcDbLine
 10
-115.0130776229196
 20
68.87182382532
 30
0.0
 11
-115.9582091089065
 21
68.0841275466264
 31
0.0
  0
LINE
  5
136
330
1F
100
AcDbEntity
  8
0-A
  6
JWW_PHANTOM1
 62
     4
370
     9
100
AcDbLine
 10
-115.0130776229196
 20
68.87182382532
 30
0.0
 11
-114.6277763201607
 21
73.11442396068139
 31
0.0
  0
LINE
  5
137
330
1F
100
AcDbEntity
  8
0-A
  6
JWW_PHANTOM1
 62
     4
370
     9
100
AcDbLine
 10
-115.9582091089065
 20
68.0841275466264
 30
0.0
 11
-115.4155469191724
 21
74.05958022010765
 31
0.0
  0
LINE
  5
138
330
1F
100
AcDbEntity
  8
0-A
  6
JWW_PHANTOM1
 62
     4
370
     9
100
AcDbLine
 10
-126.4999516767568
 20
75.06617460920938
 30
0.0
 11
-115.4155469191724
 21
74.05958022010765
 31
0.0
  0
LINE
  5
139
330
1F
100
AcDbEntity
  8
0-A
  6
JWW_PHANTOM1
 62
     4
370
     9
100
AcDbLine
 10
-126.5786321202444
 20
74.19969879327067
 30
0.0
 11
-114.6277763201607
 21
73.11442396068139
 31
0.0
  0
LINE
  5
13A
330
1F
100
AcDbEntity
  8
0-A
  6
JWW_PHANTOM1
 62
     4
370
     9
100
AcDbLine
 10
-126.9639086495639
 20
69.9571482047881
 30
0.0
 11
-115.0130776229196
 21
68.87182382532
 31
0.0
  0
LINE
  5
13B
330
1F
100
AcDbEntity
  8
0-A
  6
JWW_PHANTOM1
 62
     4
370
     9
100
AcDbLine
 10
-127.0425890930514
 20
69.09072193572814
 30
0.0
 11
-115.9582091089065
 21
68.0841275466264
 31
0.0
  0
LINE
  5
13C
330
1F
100
AcDbEntity
  8
0-A
  6
JWW_PHANTOM1
 62
     4
370
     9
100
AcDbLine
 10
-128.4012636026964
 20
77.06479660505425
 30
0.0
 11
-126.3190560223657
 21
77.05795913578396
 31
0.0
  0
LINE
  5
13D
330
1F
100
AcDbEntity
  8
0-A
  6
JWW_PHANTOM1
 62
     4
370
     9
100
AcDbLine
 10
-130.9108625593016
 20
69.61661250699837
 30
0.0
 11
-130.3996626375869
 21
75.24573249787369
 31
0.0
  0
LINE
  5
13E
330
1F
100
AcDbEntity
  8
0-A
  6
JWW_PHANTOM1
 62
     4
370
     9
100
AcDbLine
 10
-127.2234352005638
 20
67.09893740915356
 30
0.0
 11
-126.3190560223657
 21
77.05795913578396
 31
0.0
  0
LINE
  5
13F
330
1F
100
AcDbEntity
  8
0-A
  6
JWW_PHANTOM1
 62
     4
370
     9
100
AcDbLine
 10
-129.2728427471485
 20
67.46731845281232
 30
0.0
 11
-127.2234352005638
 21
67.09893740915356
 31
0.0
  0
LINE
  5
140
330
1F
100
AcDbEntity
  8
0-A
  6
JWW_PHANTOM1
 62
     4
370
     9
100
AcDbLine
 10
-132.4730261000571
 20
72.59631224937817
 30
0.0
 11
-111.8365529046239
 21
70.72225110676231
 31
0.0
  0
LINE
  5
141
330
1F
100
AcDbEntity
  8
0-1_ピット
  6
JWW_HOJO
 62
     2
370
     9
100
AcDbLine
 10
40.51499598618583
 20
9.521599621274929
 30
0.0
 11
41.80517193593054
 21
9.521599621274929
 31
0.0
  0
LINE
  5
142
330
1F
100
AcDbEntity
  8
0-2_本体（蓋）
  6
Continuous
 62
     6
370
     5
100
AcDbLine
 10
52.5149527431311
 20
15.52152845286886
 30
0.0
 11
51.51504718266339
 21
16.56597665735123
 31
0.0
  0
LINE
  5
143
330
1F
100
AcDbEntity
  8
0-2_本体（蓋）
  6
Continuous
 62
     6
370
     5
100
AcDbLine
 10
43.01495807487013
 20
15.93455123429984
 30
0.0
 11
42.01495342064491
 21
16.97899943878221
 31
0.0
  0
LINE
  5
144
330
1F
100
AcDbEntity
  8
0-2_本体（蓋）
  6
Continuous
 62
     6
370
     5
100
AcDbLine
 10
43.01495807487013
 20
15.93455123429984
 30
0.0
 11
41.51497586697165
 21
9.521599621274929
 31
0.0
  0
LINE
  5
145
330
1F
100
AcDbEntity
  8
0-2_本体（蓋）
  6
Continuous
 62
     6
370
     5
100
AcDbLine
 10
-120.8210618461565
 20
71.52149180820942
 30
0.0
 11
-120.0057431825483
 21
79.52152904201131
 31
0.0
  0
LINE
  5
146
330
1F
100
AcDbEntity
  8
0-2_本体（蓋）
  6
Continuous
 62
     6
370
     5
100
AcDbLine
 10
-120.8210618461565
 20
71.52149180820942
 30
0.0
 11
-122.4816998084683
 21
70.02150960031099
 31
0.0
  0
LINE
  5
147
330
1F
100
AcDbEntity
  8
0-2_本体（蓋）
  6
Continuous
 62
     6
370
     5
100
AcDbLine
 10
34.63506969497416
 20
78.62294684862931
 30
0.0
 11
40.82481261913782
 21
17.88709463288816
 31
0.0
  0
LINE
  5
148
330
1F
100
AcDbEntity
  8
0-2_本体（蓋）
  6
Continuous
 62
     6
370
     5
100
AcDbLine
 10
-120.6102398769879
 20
79.52152904201131
 30
0.0
 11
33.64016836926225
 21
79.52152904201128
 31
0.0
  0
LINE
  5
149
330
1F
100
AcDbEntity
  8
0-2_本体（蓋）
  6
JWW_PHANTOM1
 62
     6
370
     5
100
AcDbLine
 10
-115.9850635172001
 20
79.52152904201131
 30
0.0
 11
-116.5572804201207
 21
49.52148850901176
 31
0.0
  0
LINE
  5
14A
330
1F
100
AcDbEntity
  8
0-2_本体（蓋）
  6
JWW_DASHED1
 62
     6
370
     5
100
AcDbLine
 10
38.72189444348098
 20
38.5215859531705
 30
0.0
 11
33.09151100719701
 21
39.52164015427454
 31
0.0
  0
LINE
  5
14B
330
1F
100
AcDbEntity
  8
0-2_本体（蓋）
  6
JWW_DASHED1
 62
     6
370
     5
100
AcDbLine
 10
-125.6919659512067
 20
38.52158595317053
 30
0.0
 11
-120.0615577414833
 21
39.52164015427456
 31
0.0
  0
LINE
  5
14C
330
1F
100
AcDbEntity
  8
0-2_本体（蓋）
  6
Continuous
 62
     6
370
     5
100
AcDbLine
 10
35.87416281270649
 20
12.21734620142101
 30
0.0
 11
29.01496723603503
 21
79.52152904201128
 31
0.0
  0
LINE
  5
14D
330
1F
100
AcDbEntity
  8
0-2_本体（蓋）
  6
Continuous
 62
     6
370
     5
100
AcDbLine
 10
51.51504718266339
 20
16.56597665735123
 30
0.0
 11
50.51499298155941
 21
16.60947881691171
 31
0.0
  0
LINE
  5
14E
330
1F
100
AcDbEntity
  8
0-2_本体（蓋）
  6
Continuous
 62
     6
370
     5
100
AcDbLine
 10
44.51100130590633
 20
16.87059086803239
 30
0.0
 11
41.77618701184978
 21
16.98940428332398
 31
0.0
  0
LINE
  5
14F
330
1F
100
AcDbEntity
  8
0-2_本体（蓋）
  6
JWW_PHANTOM1
 62
     6
370
     5
100
AcDbLine
 10
29.01496723603503
 20
79.52152904201128
 30
0.0
 11
29.5872336858344
 21
49.52148850901173
 31
0.0
  0
LINE
  5
150
330
1F
100
AcDbEntity
  8
0-2_本体（蓋）
  6
JWW_PHANTOM1
 62
     6
370
     5
100
AcDbLine
 10
-118.1391636186268
 20
49.52148850901176
 30
0.0
 11
-116.5572804201207
 21
49.52148850901176
 31
0.0
  0
LINE
  5
151
330
1F
100
AcDbEntity
  8
0-2_本体（蓋）
  6
Continuous
 62
     6
370
     5
100
AcDbLine
 10
-139.4849747039781
 20
15.5215284528689
 30
0.0
 11
-138.4850195966316
 21
16.56597665735126
 31
0.0
  0
LINE
  5
152
330
1F
100
AcDbEntity
  8
0-2_本体（蓋）
  6
Continuous
 62
     6
370
     5
100
AcDbLine
 10
-129.9849552622777
 20
15.93455123429988
 30
0.0
 11
-128.9849753814919
 21
16.97899943878224
 31
0.0
  0
LINE
  5
153
330
1F
100
AcDbEntity
  8
0-2_本体（蓋）
  6
Continuous
 62
     6
370
     5
100
AcDbLine
 10
-129.9849552622777
 20
15.93455123429988
 30
0.0
 11
-128.4849730543792
 21
9.52159962127496
 31
0.0
  0
LINE
  5
154
330
1F
100
AcDbEntity
  8
0-2_本体（蓋）
  6
Continuous
 62
     6
370
     5
100
AcDbLine
 10
-138.6242710994161
 20
10.35715818486097
 30
0.0
 11
-139.4849747039781
 21
15.5215284528689
 31
0.0
  0
LINE
  5
155
330
1F
100
AcDbEntity
  8
0-2_本体（蓋）
  6
Continuous
 62
     6
370
     5
100
AcDbLine
 10
-138.4850195966316
 20
16.56597665735126
 30
0.0
 11
-137.4849653955276
 21
16.60947881691175
 31
0.0
  0
LINE
  5
156
330
1F
100
AcDbEntity
  8
0-2_本体（蓋）
  6
Continuous
 62
     6
370
     5
100
AcDbLine
 10
-131.4810728136321
 20
16.87059086803242
 30
0.0
 11
-128.7462337461361
 21
16.98940428332401
 31
0.0
  0
LINE
  5
157
330
1F
100
AcDbEntity
  8
0-2_本体（蓋）
  6
Continuous
 62
     6
370
     5
100
AcDbLine
 10
-122.8442095469928
 20
12.21734620142104
 30
0.0
 11
-115.9850635172001
 21
79.52152904201131
 31
0.0
  0
LINE
  5
158
330
1F
100
AcDbEntity
  8
0-2_本体（蓋）
  6
JWW_PHANTOM1
 62
     6
370
     5
100
AcDbLine
 10
31.16914165777995
 20
49.52148850901173
 30
0.0
 11
29.5872336858344
 21
49.52148850901173
 31
0.0
  0
LINE
  5
159
330
1F
100
AcDbEntity
  8
0-2_本体（蓋）
  6
Continuous
 62
     6
370
     5
100
AcDbLine
 10
-118.3290272580755
 20
9.521599621274959
 30
0.0
 11
-128.5869157574496
 21
9.52159962127496
 31
0.0
  0
LINE
  5
15A
330
1F
100
AcDbEntity
  8
0-2_本体（蓋）
  6
Continuous
 62
     6
370
     5
100
AcDbLine
 10
-121.605091655821
 20
78.62294684862934
 30
0.0
 11
-127.7949089003029
 21
17.88709463288819
 31
0.0
  0
LINE
  5
15B
330
1F
100
AcDbEntity
  8
0-2_本体（蓋）
  6
Continuous
 62
     6
370
     5
100
AcDbLine
 10
51.65427391200857
 20
10.35715818486093
 30
0.0
 11
52.5149527431311
 21
15.52152845286886
 31
0.0
  0
LINE
  5
15C
330
1F
100
AcDbEntity
  8
0-2_本体（蓋）
  6
Continuous
 62
     6
370
     5
100
AcDbLine
 10
-115.4849373228906
 20
9.521599621274957
 30
0.0
 11
-128.7751443498987
 21
9.52159962127496
 31
0.0
  0
LINE
  5
15D
330
1F
100
AcDbEntity
  8
0-2_本体（蓋）
  6
Continuous
 62
     6
370
     5
100
AcDbLine
 10
41.80517193593054
 20
9.521599621274929
 30
0.0
 11
-107.4849991828462
 21
9.521599621274957
 31
0.0
  0
LINE
  5
15E
330
1F
100
AcDbEntity
  8
0-A
  6
JWW_PHANTOM1
 62
     4
370
     9
100
AcDbLine
 10
-115.4849373228906
 20
8.989267955764602
 30
0.0
 11
-107.4849991828462
 21
8.989267955764602
 31
0.0
  0
LINE
  5
15F
330
1F
100
AcDbEntity
  8
0-A
  6
JWW_PHANTOM1
 62
     4
370
     9
100
AcDbLine
 10
-107.4849991828462
 20
8.989267955764602
 30
0.0
 11
-108.1615122655788
 21
9.665236022830753
 31
0.0
  0
LINE
  5
160
330
1F
100
AcDbEntity
  8
0-A
  6
JWW_PHANTOM1
 62
     4
370
     9
100
AcDbLine
 10
-114.8085233339155
 20
9.665236022830753
 30
0.0
 11
-115.4849373228906
 21
8.989267955764602
 31
0.0
  0
LINE
  5
161
330
1F
100
AcDbEntity
  8
0-A
  6
JWW_PHANTOM1
 62
     4
370
     9
100
AcDbLine
 10
-114.8085233339155
 20
9.665236022830753
 30
0.0
 11
-108.1615122655788
 21
9.665236022830753
 31
0.0
  0
LINE
  5
162
330
1F
100
AcDbEntity
  8
0-0_通り芯
  6
Continuous
 62
     3
370
     9
100
AcDbLine
 10
-100.6350440990654
 20
-19.69664071160458
 30
0.0
 11
-95.23507842250376
 21
-174.4966477106167
 31
0.0
  0
LINE
  5
163
330
1F
100
AcDbEntity
  8
0-0_通り芯
  6
Continuous
 62
     3
370
     9
100
AcDbLine
 10
-154.2314883652485
 20
7.211971867387667
 30
0.0
 11
-151.3336896134763
 21
6.435473183296159
 31
0.0
  0
LINE
  5
164
330
1F
100
AcDbEntity
  8
0-0_通り芯
  6
Continuous
 62
     3
370
     9
100
AcDbLine
 10
-168.985012909865
 20
11.16521823072925
 30
0.0
 11
-157.1293366638994
 21
7.988470551479061
 31
0.0
  0
LINE
  5
165
330
1F
100
AcDbEntity
  8
0-0_通り芯
  6
Continuous
 62
     3
370
     9
100
AcDbLine
 10
-132.9811788887275
 20
1.51804455908041
 30
0.0
 11
-135.2818882044362
 21
2.134506824743087
 31
0.0
  0
LINE
  5
166
330
1F
100
AcDbEntity
  8
0-0_通り芯
  6
Continuous
 62
     3
370
     9
100
AcDbLine
 10
-136.2890276092044
 20
1.832072676727878
 30
0.0
 11
-137.4891025599049
 21
0.47855104247515
 31
0.0
  0
LINE
  5
167
330
1F
100
AcDbEntity
  8
0-0_通り芯
  6
Continuous
 62
     3
370
     9
100
AcDbLine
 10
-143.9702554515574
 20
1.356719921803691
 30
0.0
 11
-138.9998116670572
 21
0.0248998204523367
 31
0.0
  0
LINE
  5
168
330
1F
100
AcDbEntity
  8
0-0_通り芯
  6
Continuous
 62
     3
370
     9
100
AcDbLine
 10
-145.4143487802027
 20
4.277112050295163
 30
0.0
 11
-145.0516656276026
 21
2.504820196673909
 31
0.0
  0
LINE
  5
169
330
1F
100
AcDbEntity
  8
0-0_通り芯
  6
Continuous
 62
     3
370
     9
100
AcDbLine
 10
-146.1350576787986
 20
5.042611327299487
 30
0.0
 11
-148.4360395023405
 21
5.659073592962278
 31
0.0
  0
LINE
  5
16A
330
1F
100
AcDbEntity
  8
0-0_通り芯
  6
Continuous
 62
     3
370
     9
100
AcDbLine
 10
-169.9850918844083
 20
1.165171688476798
 30
0.0
 11
-170.985121312073
 21
3.165180996927356
 31
0.0
  0
LINE
  5
16B
330
1F
100
AcDbEntity
  8
0-0_通り芯
  6
Continuous
 62
     3
370
     9
100
AcDbLine
 10
-151.6081545484256
 20
1.332739232478735
 30
0.0
 11
-157.6060271845505
 21
2.939940886036545
 31
0.0
  0
LINE
  5
16C
330
1F
100
AcDbEntity
  8
0-0_通り芯
  6
Continuous
 62
     3
370
     9
100
AcDbLine
 10
-149.4455571572897
 20
-0.9634613172619257
 30
0.0
 11
-149.3306083985421
 21
-1.524926547489253
 31
0.0
  0
LINE
  5
16D
330
1F
100
AcDbEntity
  8
0-0_通り芯
  6
Continuous
 62
     3
370
     9
100
AcDbLine
 10
-151.1411999894529
 20
1.165171688476795
 30
0.0
 11
-169.9850918844083
 21
1.165171688476798
 31
0.0
  0
LINE
  5
16E
330
1F
100
AcDbEntity
  8
0-0_通り芯
  6
Continuous
 62
     3
370
     9
100
AcDbLine
 10
-110.4609085890001
 20
-24.02178594699762
 30
0.0
 11
-120.4064287911655
 21
-23.32634595657476
 31
0.0
  0
LINE
  5
16F
330
1F
100
AcDbEntity
  8
0-0_通り芯
  6
Continuous
 62
     3
370
     9
100
AcDbLine
 10
-105.8132874931291
 20
-28.81832018701334
 30
0.0
 11
-100.2350521467511
 21
-174.4966477106167
 31
0.0
  0
LINE
  5
170
330
1F
100
AcDbEntity
  8
0-0_通り芯
  6
Continuous
 62
     3
370
     9
100
AcDbLine
 10
-126.6226049751533
 20
-0.1857735080799312
 30
0.0
 11
-130.0833801369553
 21
0.7415458749890167
 31
0.0
  0
LINE
  5
171
330
1F
100
AcDbEntity
  8
0-0_通り芯
  6
Continuous
 62
     3
370
     9
100
AcDbLine
 10
-124.4214105654551
 20
-2.717916294525708
 30
0.0
 11
-123.9963231190435
 21
-6.180252183009088
 31
0.0
  0
LINE
  5
172
330
1F
100
AcDbEntity
  8
0-0_通り芯
  6
JWW_DASHED1
 62
     3
370
     9
100
AcDbLine
 10
-123.9963231190435
 20
-6.180252183009088
 30
0.0
 11
-122.8260010690447
 21
-15.71148615833476
 31
0.0
  0
LINE
  5
173
330
1F
100
AcDbEntity
  8
0-0_通り芯
  6
Continuous
 62
     3
370
     9
100
AcDbLine
 10
-101.1995812357767
 20
-19.65720139610324
 30
0.0
 11
-100.6350440990654
 21
-19.69664071160458
 31
0.0
  0
LINE
  5
174
330
1F
100
AcDbEntity
  8
0-0_通り芯
  6
JWW_DASHED1
 62
     3
370
     9
100
AcDbLine
 10
-101.1995812357767
 20
-19.65720139610324
 30
0.0
 11
-120.0576435380605
 21
-18.3385607645049
 31
0.0
  0
LINE
  5
175
330
1F
100
AcDbEntity
  8
0-0_通り芯
  6
Continuous
 62
     3
370
     9
100
AcDbLine
 10
-103.409917044608
 20
-8.253392684524787
 30
0.0
 11
-102.5900152947135
 21
-18.28306826028188
 31
0.0
  0
LINE
  5
176
330
1F
100
AcDbEntity
  8
0-0_通り芯
  6
Continuous
 62
     3
370
     9
100
AcDbLine
 10
67.26144163096214
 20
7.211971867387626
 30
0.0
 11
64.36364287919
 21
6.43547318329612
 31
0.0
  0
LINE
  5
177
330
1F
100
AcDbEntity
  8
0-0_通り芯
  6
Continuous
 62
     3
370
     9
100
AcDbLine
 10
82.01501572245738
 20
11.1652182307292
 30
0.0
 11
70.15924038273428
 21
7.988470551479018
 31
0.0
  0
LINE
  5
178
330
1F
100
AcDbEntity
  8
0-0_通り芯
  6
Continuous
 62
     3
370
     9
100
AcDbLine
 10
46.01118170131989
 20
1.518044559080378
 30
0.0
 11
48.31194056390738
 21
2.134506824743053
 31
0.0
  0
LINE
  5
179
330
1F
100
AcDbEntity
  8
0-0_通り芯
  6
Continuous
 62
     3
370
     9
100
AcDbLine
 10
49.31893132803928
 20
1.832072676727845
 30
0.0
 11
50.51915491937613
 21
0.4785510424751145
 31
0.0
  0
LINE
  5
17A
330
1F
100
AcDbEntity
  8
0-0_通り芯
  6
Continuous
 62
     3
370
     9
100
AcDbLine
 10
57.00018394383168
 20
1.356719921803656
 30
0.0
 11
52.02974015933146
 21
0.0248998204523012
 31
0.0
  0
LINE
  5
17B
330
1F
100
AcDbEntity
  8
0-0_通り芯
  6
Continuous
 62
     3
370
     9
100
AcDbLine
 10
58.44427727247697
 20
4.277112050295126
 30
0.0
 11
58.08159411987683
 21
2.504820196673871
 31
0.0
  0
LINE
  5
17C
330
1F
100
AcDbEntity
  8
0-0_通り芯
  6
Continuous
 62
     3
370
     9
100
AcDbLine
 10
59.16508526483037
 20
5.04261132729945
 30
0.0
 11
61.46594322117543
 21
5.659073592962239
 31
0.0
  0
LINE
  5
17D
330
1F
100
AcDbEntity
  8
0-0_通り芯
  6
Continuous
 62
     3
370
     9
100
AcDbLine
 10
83.01506992356136
 20
1.165171688476752
 30
0.0
 11
84.01512412466539
 21
3.16518099692731
 31
0.0
  0
LINE
  5
17E
330
1F
100
AcDbEntity
  8
0-0_通り芯
  6
Continuous
 62
     3
370
     9
100
AcDbLine
 10
64.6380334938211
 20
1.332739232478696
 30
0.0
 11
70.63598045026416
 21
2.939940886036503
 31
0.0
  0
LINE
  5
17F
330
1F
100
AcDbEntity
  8
0-0_通り芯
  6
Continuous
 62
     3
370
     9
100
AcDbLine
 10
62.47551042300334
 20
-0.9634613172619648
 30
0.0
 11
62.36056166425576
 21
-1.524926547489292
 31
0.0
  0
LINE
  5
180
330
1F
100
AcDbEntity
  8
0-0_通り芯
  6
Continuous
 62
     3
370
     9
100
AcDbLine
 10
64.1711037082878
 20
1.165171688476756
 30
0.0
 11
83.01506992356136
 21
1.165171688476752
 31
0.0
  0
LINE
  5
181
330
1F
100
AcDbEntity
  8
0-0_通り芯
  6
Continuous
 62
     3
370
     9
100
AcDbLine
 10
39.65265733462443
 20
-0.1857735080799632
 30
0.0
 11
43.11330862922959
 21
0.7415458749889847
 31
0.0
  0
LINE
  5
182
330
1F
100
AcDbEntity
  8
0-0_通り芯
  6
Continuous
 62
     3
370
     9
100
AcDbLine
 10
-100.2350521467511
 20
-174.4966477106167
 30
0.0
 11
13.26493109214658
 21
-174.4966477106167
 31
0.0
  0
LINE
  5
183
330
1F
100
AcDbEntity
  8
0-0_通り芯
  6
Continuous
 62
     3
370
     9
100
AcDbLine
 10
-100.6350440990654
 20
-19.69664071160458
 30
0.0
 11
13.66489827102154
 21
-19.6966407116046
 31
0.0
  0
LINE
  5
184
330
1F
100
AcDbEntity
  8
0-0_通り芯
  6
Continuous
 62
     3
370
     9
100
AcDbLine
 10
13.66489827102154
 20
-19.6966407116046
 30
0.0
 11
8.264957367899171
 21
-174.4966477106167
 31
0.0
  0
LINE
  5
185
330
1F
100
AcDbEntity
  8
0-0_通り芯
  6
Continuous
 62
     3
370
     9
100
AcDbLine
 10
37.45138860460813
 20
-2.717916294525736
 30
0.0
 11
35.85597910819767
 21
-15.71148615833479
 31
0.0
  0
LINE
  5
186
330
1F
100
AcDbEntity
  8
0-0_通り芯
  6
Continuous
 62
     3
370
     9
100
AcDbLine
 10
50.01347947464431
 20
-5.691819052089418
 30
0.0
 11
61.27934967572569
 21
-2.673225009874761
 31
0.0
  0
LINE
  5
187
330
1F
100
AcDbEntity
  8
0-0_通り芯
  6
Continuous
 62
     3
370
     9
100
AcDbLine
 10
40.81869357960969
 20
-16.32081367345464
 30
0.0
 11
41.73863047774174
 21
-8.828136478262792
 31
0.0
  0
LINE
  5
188
330
1F
100
AcDbEntity
  8
0-0_通り芯
  6
Continuous
 62
     3
370
     9
100
AcDbLine
 10
-127.7887650873354
 20
-16.32081367345461
 30
0.0
 11
-128.7087515323462
 21
-8.828136478262763
 31
0.0
  0
LINE
  5
189
330
1F
100
AcDbEntity
  8
0-0_通り芯
  6
Continuous
 62
     3
370
     9
100
AcDbLine
 10
-170.0946152599305
 20
10.28913032030904
 30
0.0
 11
-170.985121312073
 21
3.165180996927356
 31
0.0
  0
LINE
  5
18A
330
1F
100
AcDbEntity
  8
0-0_通り芯
  6
Continuous
 62
     3
370
     9
100
AcDbLine
 10
83.1244694318867
 20
10.2892294140665
 30
0.0
 11
84.01512412466539
 21
3.16518099692731
 31
0.0
  0
LINE
  5
18B
330
1F
100
AcDbEntity
  8
0-0_通り芯
  6
Continuous
 62
     3
370
     9
100
AcDbLine
 10
-136.9835757558094
 20
-5.691819052089382
 30
0.0
 11
-148.2493468631332
 21
-2.673225009874722
 31
0.0
  0
LINE
  5
18C
330
1F
100
AcDbEntity
  8
0-0_通り芯
  6
Continuous
 62
     3
370
     9
100
AcDbLine
 10
33.04151820651757
 20
-18.34143448347359
 30
0.0
 11
13.66489827102154
 21
-19.6966407116046
 31
0.0
  0
LINE
  5
18D
330
1F
100
AcDbEntity
  8
0-0_通り芯
  6
Continuous
 62
     3
370
     9
100
AcDbLine
 10
-114.8084737870368
 20
-16.33478589326785
 30
0.0
 11
-108.1614627187
 21
-16.33478589326785
 31
0.0
  0
LINE
  5
18E
330
1F
100
AcDbEntity
  8
0-0_通り芯
  6
Continuous
 62
     3
370
     9
100
AcDbLine
 10
-108.1614627187
 20
-15.33483078592133
 30
0.0
 11
-108.1614627187
 21
-16.33478589326785
 31
0.0
  0
LINE
  5
18F
330
1F
100
AcDbEntity
  8
0-0_通り芯
  6
Continuous
 62
     3
370
     9
100
AcDbLine
 10
-114.8084737870368
 20
-16.33478589326785
 30
0.0
 11
-114.8084737870368
 21
-15.33483078592133
 31
0.0
  0
LINE
  5
190
330
1F
100
AcDbEntity
  8
0-0_通り芯
  6
Continuous
 62
     3
370
     9
100
AcDbLine
 10
-108.1614627187
 20
-16.33478589326785
 30
0.0
 11
-111.4849682528684
 21
-18.25363741429226
 31
0.0
  0
LINE
  5
191
330
1F
100
AcDbEntity
  8
0-0_通り芯
  6
Continuous
 62
     3
370
     9
100
AcDbLine
 10
-114.8084737870368
 20
-16.33478589326785
 30
0.0
 11
-111.4849682528684
 21
-18.25363741429226
 31
0.0
  0
LINE
  5
192
330
1F
100
AcDbEntity
  8
0-0_通り芯
  6
Continuous
 62
     3
370
     9
100
AcDbLine
 10
-104.4065772845162
 20
-7.334793552119553
 30
0.0
 11
-108.1614627187
 21
-7.334793552119553
 31
0.0
  0
LINE
  5
193
330
1F
100
AcDbEntity
  8
0-0_通り芯
  6
Continuous
 62
     3
370
     9
100
AcDbLine
 10
-114.8084737870368
 20
-7.33479355211955
 30
0.0
 11
-119.485055033549
 21
-7.33479355211955
 31
0.0
  0
LINE
  5
194
330
1F
100
AcDbEntity
  8
0-0_通り芯
  6
JWW_HOJO
 62
     3
370
     9
100
AcDbLine
 10
19.01499501410078
 20
-24.33482312706977
 30
0.0
 11
18.94681850891257
 21
-26.115736137597
 31
0.0
  0
LINE
  5
195
330
1F
100
AcDbEntity
  8
0-0_通り芯
  6
JWW_HOJO
 62
     3
370
     9
100
AcDbLine
 10
19.01499501410078
 20
-24.33482312706977
 30
0.0
 11
20.45789921765564
 21
-24.23394568189295
 31
0.0
  0
LINE
  5
196
330
1F
100
AcDbEntity
  8
0-0_通り芯
  6
Continuous
 62
     3
370
     9
100
AcDbLine
 10
18.84326553228217
 20
-28.81841928077088
 30
0.0
 11
13.26493109214658
 21
-174.4966477106167
 31
0.0
  0
LINE
  5
197
330
1F
100
AcDbEntity
  8
0-0_通り芯
  6
Continuous
 62
     3
370
     9
100
AcDbLine
 10
23.49076276095619
 20
-24.02188504075517
 30
0.0
 11
33.43630773656097
 21
-23.32634595657478
 31
0.0
  0
LINE
  5
198
330
1F
100
AcDbEntity
  8
0-0_通り芯
  6
JWW_HOJO
 62
     3
370
     9
100
AcDbLine
 10
-105.9850417483871
 20
-24.33482312706974
 30
0.0
 11
-105.9168404697595
 21
-26.11573613759697
 31
0.0
  0
LINE
  5
199
330
1F
100
AcDbEntity
  8
0-0_通り芯
  6
JWW_HOJO
 62
     3
370
     9
100
AcDbLine
 10
-105.9850417483871
 20
-24.33482312706974
 30
0.0
 11
-107.4279707253814
 21
-24.23394568189292
 31
0.0
  0
LINE
  5
19A
330
1F
100
AcDbEntity
  8
0-0_通り芯
  6
Continuous
 62
     3
370
     9
100
AcDbLine
 10
82.13224363762842
 20
11.1652182307292
 30
0.0
 11
73.62851283424553
 21
11.1652182307292
 31
0.0
  0
LINE
  5
19B
330
1F
100
AcDbEntity
  8
0-0_通り芯
  6
Continuous
 62
     3
370
     9
100
AcDbLine
 10
-161.6959238395411
 20
11.16521823072924
 30
0.0
 11
-169.1023399187935
 21
11.16521823072925
 31
0.0
  0
LINE
  5
19C
330
1F
100
AcDbEntity
  8
0-A
  6
Continuous
 62
     4
370
     9
100
AcDbLine
 10
-107.4849991828462
 20
18.98926495113824
 30
0.0
 11
-107.4849991828462
 21
8.32221832687719
 31
0.0
  0
LINE
  5
19D
330
1F
100
AcDbEntity
  8
0-A
  6
Continuous
 62
     4
370
     9
100
AcDbLine
 10
-108.1615122655788
 20
19.66523301820428
 30
0.0
 11
-108.1615122655788
 21
8.32221832687719
 31
0.0
  0
LINE
  5
19E
330
1F
100
AcDbEntity
  8
0-A
  6
Continuous
 62
     4
370
     9
100
AcDbLine
 10
-114.8085233339155
 20
19.66523301820428
 30
0.0
 11
-114.8085233339155
 21
8.32221832687719
 31
0.0
  0
LINE
  5
19F
330
1F
100
AcDbEntity
  8
0-A
  6
Continuous
 62
     4
370
     9
100
AcDbLine
 10
-115.4849373228906
 20
18.98926495113824
 30
0.0
 11
-115.4849373228906
 21
8.322218326877191
 31
0.0
  0
ARC
  5
1A0
330
1F
100
AcDbEntity
  8
0-B
  6
Continuous
 62
     6
370
     5
100
AcDbCircle
 10
-159.608612930697
 20
28.22123577869014
 30
0.0
 40
2.80017378822717
100
AcDbArc
 50
47.92556762695312
 51
132.0746307373047
  0
ARC
  5
1A1
330
1F
100
AcDbEntity
  8
0-B
  6
Continuous
 62
     6
370
     5
100
AcDbCircle
 10
-153.985042190244
 20
20.93199806772999
 30
0.0
 40
10.08940975730484
100
AcDbArc
 50
68.19786071777345
 51
111.8021392822266
  0
ARC
  5
1A2
330
1F
100
AcDbEntity
  8
0-B
  6
Continuous
 62
     6
370
     5
100
AcDbCircle
 10
-148.3614714497909
 20
28.22123577869013
 30
0.0
 40
2.800189852254271
100
AcDbArc
 50
47.92572021484374
 51
132.0742797851562
  0
ARC
  5
1A3
330
1F
100
AcDbEntity
  8
0-1_ピット
  6
Continuous
 62
     2
370
     9
100
AcDbCircle
 10
-148.4085905315017
 20
18.52159196242338
 30
0.0
 40
0.5000000046026752
100
AcDbArc
 50
9.462646484375
 51
90.0
  0
ARC
  5
1A4
330
1F
100
AcDbEntity
  8
0-1_ピット
  6
Continuous
 62
     2
370
     9
100
AcDbCircle
 10
-147.0614604446102
 20
16.52158265397293
 30
0.0
 40
0.5000000046026752
100
AcDbArc
 50
189.461669921875
 51
270.0
  0
ARC
  5
1A5
330
1F
100
AcDbEntity
  8
0-1_ピット
  6
Continuous
 62
     2
370
     9
100
AcDbCircle
 10
-142.339419936826
 20
15.02155089919563
 30
0.0
 40
1.00000000920535
100
AcDbArc
 50
8.979400634765625
 51
90.0
  0
ARC
  5
1A6
330
1F
100
AcDbEntity
  8
0-1_ピット
  6
Continuous
 62
     2
370
     9
100
AcDbCircle
 10
-137.8947924032779
 20
12.52156403707193
 30
0.0
 40
3.000000027616052
100
AcDbArc
 50
188.9791870117187
 51
270.0
  0
ARC
  5
1A7
330
1F
100
AcDbEntity
  8
0-1_ピット
  6
Continuous
 62
     2
370
     9
100
AcDbCircle
 10
-128.7751443498987
 20
8.021567866497778
 30
0.0
 40
1.500000013808026
100
AcDbArc
 50
8.602279663085938
 51
90.0
  0
ARC
  5
1A8
330
1F
100
AcDbEntity
  8
0-1_ピット
  6
Continuous
 62
     2
370
     9
100
AcDbCircle
 10
-124.7815172803592
 20
5.02155390382211
 30
0.0
 40
2.000000018410701
100
AcDbArc
 50
188.6022033691406
 51
270.0
  0
ARC
  5
1A9
330
1F
100
AcDbEntity
  8
0-1_ピット
  6
Continuous
 62
     2
370
     9
100
AcDbCircle
 10
-100.7147154801284
 20
1.521562387473178
 30
0.0
 40
1.500000013808026
100
AcDbArc
 50
11.30999755859375
 51
90.00000000000001
  0
ARC
  5
1AA
330
1F
100
AcDbEntity
  8
0-1_ピット
  6
Continuous
 62
     2
370
     9
100
AcDbCircle
 10
37.733285571373
 20
4.504433130094156
 30
0.0
 40
2.000000018410701
100
AcDbArc
 50
285.0002593994141
 51
351.3977966308594
  0
ARC
  5
1AB
330
1F
100
AcDbEntity
  8
0-1_ピット
  6
Continuous
 62
     2
370
     9
100
AcDbCircle
 10
41.80517193593054
 20
8.021567866497746
 30
0.0
 40
1.500000013808026
100
AcDbArc
 50
90.0
 51
171.3977203369141
  0
ARC
  5
1AC
330
1F
100
AcDbEntity
  8
0-1_ピット
  6
Continuous
 62
     2
370
     9
100
AcDbCircle
 10
50.92479521587033
 20
12.52156403707189
 30
0.0
 40
3.000000027616052
100
AcDbArc
 50
270.0
 51
351.0208740234375
  0
ARC
  5
1AD
330
1F
100
AcDbEntity
  8
0-1_ピット
  6
Continuous
 62
     2
370
     9
100
AcDbCircle
 10
61.0657035344672
 20
11.79163941902478
 30
0.0
 40
3.000000027616052
100
AcDbArc
 50
187.1079406738281
 51
285.0002136230469
  0
ARC
  5
1AE
330
1F
100
AcDbEntity
  8
0-1_ピット
  6
Continuous
 62
     2
370
     9
100
AcDbCircle
 10
72.70971551432515
 20
10.77052779444326
 30
0.0
 40
1.00000000920535
100
AcDbArc
 50
9.462493896484375
 51
105.0002593994141
  0
ARC
  5
1AF
330
1F
100
AcDbEntity
  8
0-1_ピット
  6
Continuous
 62
     2
370
     9
100
AcDbCircle
 10
55.36944752285783
 20
15.0215508991956
 30
0.0
 40
1.00000000920535
100
AcDbArc
 50
90.0
 51
171.0209045410156
  0
ARC
  5
1B0
330
1F
100
AcDbEntity
  8
0-1_ピット
  6
Continuous
 62
     2
370
     9
100
AcDbCircle
 10
56.63195154080925
 20
15.0215508991956
 30
0.0
 40
1.00000000920535
100
AcDbArc
 50
7.108108520507802
 51
89.99999999999999
  0
ARC
  5
1B1
330
1F
100
AcDbEntity
  8
0-1_ピット
  6
Continuous
 62
     2
370
     9
100
AcDbCircle
 10
23.2693129862914
 20
0.5215577332478194
 30
0.0
 40
1.00000000920535
100
AcDbArc
 50
90.0
 51
164.0551605224609
  0
ARC
  5
1B2
330
1F
100
AcDbEntity
  8
0-1_ピット
  6
Continuous
 62
     2
370
     9
100
AcDbCircle
 10
-104.2552858901904
 20
1.521562387473178
 30
0.0
 40
1.500000013808026
100
AcDbArc
 50
90.0
 51
168.6903228759766
  0
ARC
  5
1B3
330
1F
100
AcDbEntity
  8
0-1_ピット
  6
Continuous
 62
     2
370
     9
100
AcDbCircle
 10
-118.7147249358645
 20
1.521562387473182
 30
0.0
 40
1.500000013808026
100
AcDbArc
 50
11.30967712402344
 51
90.0
  0
ARC
  5
1B4
330
1F
100
AcDbEntity
  8
0-1_ピット
  6
Continuous
 62
     2
370
     9
100
AcDbCircle
 10
-160.0561698866311
 20
18.52154241554457
 30
0.0
 40
0.5000000046026752
100
AcDbArc
 50
90.0
 51
171.2358551025391
  0
ARC
  5
1B5
330
1F
100
AcDbEntity
  8
0-9
  6
Continuous
 62
     4
370
     9
100
AcDbCircle
 10
-137.31117971824
 20
18.83903881470599
 30
0.0
 40
2.000000018410701
100
AcDbArc
 50
90.0
 51
174.9999847412109
  0
ARC
  5
1B6
330
1F
100
AcDbEntity
  8
0-9
  6
Continuous
 62
     4
370
     9
100
AcDbCircle
 10
-131.6589708818576
 20
18.83903881470599
 30
0.0
 40
2.000000018410701
100
AcDbArc
 50
5.000015258789053
 51
89.99999999999999
  0
ARC
  5
1B7
330
1F
100
AcDbEntity
  8
0-9
  6
Continuous
 62
     4
370
     9
100
AcDbCircle
 10
50.34113298395366
 20
18.83903881470595
 30
0.0
 40
2.000000018410701
100
AcDbArc
 50
5.000015258789053
 51
89.99999999999999
  0
ARC
  5
1B8
330
1F
100
AcDbEntity
  8
0-9
  6
Continuous
 62
     4
370
     9
100
AcDbCircle
 10
44.68892414757128
 20
18.83903881470596
 30
0.0
 40
2.000000018410701
100
AcDbArc
 50
90.0
 51
174.9999847412109
  0
ARC
  5
1B9
330
1F
100
AcDbEntity
  8
0-A
  6
Continuous
 62
     4
370
     9
100
AcDbCircle
 10
-111.4850177997472
 20
-1.767161237798293
 30
0.0
 40
10.08940975730484
100
AcDbArc
 50
68.19786071777345
 51
111.8021392822266
  0
ARC
  5
1BA
330
1F
100
AcDbEntity
  8
0-A
  6
Continuous
 62
     4
370
     9
100
AcDbCircle
 10
-105.8614470592941
 20
5.522026926283044
 30
0.0
 40
2.800189852254271
100
AcDbArc
 50
47.92572021484374
 51
132.0742797851562
  0
ARC
  5
1BB
330
1F
100
AcDbEntity
  8
0-A
  6
Continuous
 62
     4
370
     9
100
AcDbCircle
 10
-117.1085885402002
 20
5.522026926283046
 30
0.0
 40
2.800189852254271
100
AcDbArc
 50
47.92572021484374
 51
132.0742797851562
  0
ARC
  5
1BC
330
1F
100
AcDbEntity
  8
0-1_ピット
  6
JWW_PHANTOM1
 62
     2
370
     9
100
AcDbCircle
 10
-159.6797622486115
 20
10.7705277944433
 30
0.0
 40
1.00000000920535
100
AcDbArc
 50
74.99974060058592
 51
170.5375061035156
  0
ARC
  5
1BD
330
1F
100
AcDbEntity
  8
0-A
  6
JWW_PHANTOM1
 62
     4
370
     9
100
AcDbCircle
 10
-128.4078781110123
 20
75.06483684348257
 30
0.0
 40
2.000000018410701
100
AcDbArc
 50
89.81100463867186
 51
174.8109893798828
  0
ARC
  5
1BE
330
1F
100
AcDbEntity
  8
0-A
  6
JWW_PHANTOM1
 62
     4
370
     9
100
AcDbCircle
 10
-128.919078032727
 20
69.43571685260719
 30
0.0
 40
2.000000018410701
100
AcDbArc
 50
174.8109893798828
 51
259.8109741210938
  0
ARC
  5
1BF
330
1F
100
AcDbEntity
  8
0-2_本体（蓋）
  6
Continuous
 62
     6
370
     5
100
AcDbCircle
 10
38.85864382888762
 20
12.52146494331438
 30
0.0
 40
3.000000027616052
100
AcDbArc
 50
185.8186645507813
 51
270.0000000000001
  0
ARC
  5
1C0
330
1F
100
AcDbEntity
  8
0-2_本体（蓋）
  6
Continuous
 62
     6
370
     5
100
AcDbCircle
 10
41.81968917141032
 20
17.98846754685266
 30
0.0
 40
1.00000000920535
100
AcDbArc
 50
185.8187255859375
 51
267.5108795166016
  0
ARC
  5
1C1
330
1F
100
AcDbEntity
  8
0-2_本体（蓋）
  6
Continuous
 62
     6
370
     5
100
AcDbCircle
 10
33.64016836926225
 20
78.52157393466481
 30
0.0
 40
1.00000000920535
100
AcDbArc
 50
5.818725585937499
 51
90.0
  0
ARC
  5
1C2
330
1F
100
AcDbEntity
  8
0-2_本体（蓋）
  6
Continuous
 62
     6
370
     5
100
AcDbCircle
 10
-120.6102398769879
 20
78.52157393466484
 30
0.0
 40
1.00000000920535
100
AcDbArc
 50
90.0
 51
174.1813659667969
  0
ARC
  5
1C3
330
1F
100
AcDbEntity
  8
0-2_本体（蓋）
  6
JWW_PHANTOM1
 62
     6
370
     5
100
AcDbCircle
 10
-118.1391636186268
 20
48.52153340166535
 30
0.0
 40
1.00000000920535
100
AcDbArc
 50
90.0
 51
174.1813659667969
  0
ARC
  5
1C4
330
1F
100
AcDbEntity
  8
0-2_本体（蓋）
  6
JWW_PHANTOM1
 62
     6
370
     5
100
AcDbCircle
 10
31.16914165777995
 20
48.52153340166532
 30
0.0
 40
1.00000000920535
100
AcDbArc
 50
5.818634033203121
 51
90.0
  0
ARC
  5
1C5
330
1F
100
AcDbEntity
  8
0-2_本体（蓋）
  6
Continuous
 62
     6
370
     5
100
AcDbCircle
 10
-125.8287153366133
 20
12.52146494331441
 30
0.0
 40
3.000000027616052
100
AcDbArc
 50
270.0
 51
354.1813354492188
  0
ARC
  5
1C6
330
1F
100
AcDbEntity
  8
0-2_本体（蓋）
  6
Continuous
 62
     6
370
     5
100
AcDbCircle
 10
-128.7897111322573
 20
17.98846754685269
 30
0.0
 40
1.00000000920535
100
AcDbArc
 50
272.4891204833984
 51
354.1812744140625
  0
ARC
  5
1C7
330
1F
100
AcDbEntity
  8
0-2_本体（蓋）
  6
Continuous
 62
     6
370
     5
100
AcDbCircle
 10
50.66789464944518
 20
10.52155472862145
 30
0.0
 40
1.00000000920535
100
AcDbArc
 50
270.0
 51
350.5377044677734
  0
ARC
  5
1C8
330
1F
100
AcDbEntity
  8
0-2_本体（蓋）
  6
Continuous
 62
     6
370
     5
100
AcDbCircle
 10
-137.6378670634134
 20
10.52155472862148
 30
0.0
 40
1.00000000920535
100
AcDbArc
 50
189.4620819091797
 51
269.9999999999999
  0
ARC
  5
1C9
330
1F
100
AcDbEntity
  8
0-0_通り芯
  6
Continuous
 62
     3
370
     9
100
AcDbCircle
 10
-138.6115870984509
 20
1.473848743217108
 30
0.0
 40
1.500000013808026
100
AcDbArc
 50
254.9999084472656
 51
318.4355773925781
  0
ARC
  5
1CA
330
1F
100
AcDbEntity
  8
0-0_通り芯
  6
Continuous
 62
     3
370
     9
100
AcDbCircle
 10
-143.5819813360723
 20
2.805569750810951
 30
0.0
 40
1.500000013808026
100
AcDbArc
 50
191.5648956298828
 51
254.9999084472656
  0
ARC
  5
1CB
330
1F
100
AcDbEntity
  8
0-0_通り芯
  6
Continuous
 62
     3
370
     9
100
AcDbCircle
 10
-149.7231435456015
 20
6.651101199705414
 30
0.0
 40
1.625007563116007
100
AcDbArc
 50
187.620590209961
 51
322.3789062500001
  0
ARC
  5
1CC
330
1F
100
AcDbEntity
  8
0-0_通り芯
  6
Continuous
 62
     3
370
     9
100
AcDbCircle
 10
-146.3939153469351
 20
4.07664537878964
 30
0.0
 40
1.00000000920535
100
AcDbArc
 50
11.56642150878906
 51
75.00077819824219
  0
ARC
  5
1CD
330
1F
100
AcDbEntity
  8
0-0_通り芯
  6
Continuous
 62
     3
370
     9
100
AcDbCircle
 10
-135.5407706460121
 20
1.168639969990753
 30
0.0
 40
1.00000000920535
100
AcDbArc
 50
75.00022888183594
 51
138.4349822998047
  0
ARC
  5
1CE
330
1F
100
AcDbEntity
  8
0-0_通り芯
  6
Continuous
 62
     3
370
     9
100
AcDbCircle
 10
-155.5187162757064
 20
8.203900380373291
 30
0.0
 40
1.625007563116007
100
AcDbArc
 50
187.6192932128906
 51
322.3796997070312
  0
ARC
  5
1CF
330
1F
100
AcDbEntity
  8
0-0_通り芯
  6
Continuous
 62
     3
370
     9
100
AcDbCircle
 10
-131.3704841802163
 20
1.733573481732153
 30
0.0
 40
1.625007563116007
100
AcDbArc
 50
187.620590209961
 51
322.3807373046876
  0
ARC
  5
1D0
330
1F
100
AcDbEntity
  8
0-0_通り芯
  6
Continuous
 62
     3
370
     9
100
AcDbCircle
 10
-160.4529908387041
 20
-7.685387266299578
 30
0.0
 40
11.00000087542884
100
AcDbArc
 50
75.0002899169922
 51
126.4291534423828
  0
ARC
  5
1D1
330
1F
100
AcDbEntity
  8
0-0_通り芯
  6
Continuous
 62
     3
370
     9
100
AcDbCircle
 10
-147.8611222945269
 20
-1.224276087109837
 30
0.0
 40
1.500000013808026
100
AcDbArc
 50
191.56640625
 51
255.0011596679688
  0
ARC
  5
1D2
330
1F
100
AcDbEntity
  8
0-0_通り芯
  6
Continuous
 62
     3
370
     9
100
AcDbCircle
 10
-152.3846284590777
 20
-1.564960425535896
 30
0.0
 40
3.000000027616052
100
AcDbArc
 50
11.56622314453124
 51
75.00025939941406
  0
ARC
  5
1D3
330
1F
100
AcDbEntity
  8
0-0_通り芯
  6
Continuous
 62
     3
370
     9
100
AcDbCircle
 10
-119.8483575221338
 20
-15.34592928676602
 30
0.0
 40
8.000000073642804
100
AcDbArc
 50
186.9998626708985
 51
266.0000457763672
  0
ARC
  5
1D4
330
1F
100
AcDbEntity
  8
0-0_通り芯
  6
JWW_DASHED1
 62
     3
370
     9
100
AcDbCircle
 10
-119.8483575221338
 20
-15.34592928676602
 30
0.0
 40
3.000000027616052
100
AcDbArc
 50
186.9998626708985
 51
266.0000457763672
  0
ARC
  5
1D5
330
1F
100
AcDbEntity
  8
0-0_通り芯
  6
Continuous
 62
     3
370
     9
100
AcDbCircle
 10
-110.8096938421051
 20
-29.00976932658261
 30
0.0
 40
5.000000046026753
100
AcDbArc
 50
2.193252563476571
 51
85.99998474121094
  0
ARC
  5
1D6
330
1F
100
AcDbEntity
  8
0-0_通り芯
  6
Continuous
 62
     3
370
     9
100
AcDbCircle
 10
-127.3990045654872
 20
-3.083473166094562
 30
0.0
 40
3.000000027616052
100
AcDbArc
 50
7.000015258789069
 51
75.00001525878906
  0
ARC
  5
1D7
330
1F
100
AcDbEntity
  8
0-0_通り芯
  6
Continuous
 62
     3
370
     9
100
AcDbCircle
 10
-121.5149411098981
 20
-5.87553887857041
 30
0.0
 40
2.500000023013377
100
AcDbArc
 50
186.9997406005859
 51
324.2872924804688
  0
ARC
  5
1D8
330
1F
100
AcDbEntity
  8
0-0_通り芯
  6
Continuous
 62
     3
370
     9
100
AcDbCircle
 10
-101.0949877746921
 20
-18.16078656347634
 30
0.0
 40
1.500000013808026
100
AcDbArc
 50
184.674057006836
 51
265.9997406005859
  0
ARC
  5
1D9
330
1F
100
AcDbEntity
  8
0-0_通り芯
  6
Continuous
 62
     3
370
     9
100
AcDbCircle
 10
-104.4065772845162
 20
-8.334847753223475
 30
0.0
 40
1.00000000920535
100
AcDbArc
 50
4.675003051757816
 51
90.00000000000001
  0
ARC
  5
1DA
330
1F
100
AcDbEntity
  8
0-0_通り芯
  6
Continuous
 62
     3
370
     9
100
AcDbCircle
 10
51.64149081728576
 20
1.473848743217072
 30
0.0
 40
1.500000013808026
100
AcDbArc
 50
221.5644226074219
 51
285.0000915527344
  0
ARC
  5
1DB
330
1F
100
AcDbEntity
  8
0-0_通り芯
  6
Continuous
 62
     3
370
     9
100
AcDbCircle
 10
56.61193460178593
 20
2.805569750810913
 30
0.0
 40
1.500000013808026
100
AcDbArc
 50
285.0000915527344
 51
348.4351043701172
  0
ARC
  5
1DC
330
1F
100
AcDbEntity
  8
0-0_通り芯
  6
Continuous
 62
     3
370
     9
100
AcDbCircle
 10
62.75317113163332
 20
6.651101199705375
 30
0.0
 40
1.625007563116007
100
AcDbArc
 50
217.62109375
 51
352.3794097900391
  0
ARC
  5
1DD
330
1F
100
AcDbEntity
  8
0-0_通り芯
  6
Continuous
 62
     3
370
     9
100
AcDbCircle
 10
59.42381906577001
 20
4.076645378789602
 30
0.0
 40
1.00000000920535
100
AcDbArc
 50
104.9992218017578
 51
168.433578491211
  0
ARC
  5
1DE
330
1F
100
AcDbEntity
  8
0-0_通り芯
  6
Continuous
 62
     3
370
     9
100
AcDbCircle
 10
48.57067436484696
 20
1.168639969990718
 30
0.0
 40
1.00000000920535
100
AcDbArc
 50
41.5650177001953
 51
104.999771118164
  0
ARC
  5
1DF
330
1F
100
AcDbEntity
  8
0-0_通り芯
  6
Continuous
 62
     3
370
     9
100
AcDbCircle
 10
68.5487686351776
 20
8.203900380373248
 30
0.0
 40
1.625007563116007
100
AcDbArc
 50
217.6203002929688
 51
352.3807067871094
  0
ARC
  5
1E0
330
1F
100
AcDbEntity
  8
0-0_通り芯
  6
Continuous
 62
     3
370
     9
100
AcDbCircle
 10
44.40053653968747
 20
1.733573481732121
 30
0.0
 40
1.625007563116007
100
AcDbArc
 50
217.6192626953125
 51
352.3794097900391
  0
ARC
  5
1E1
330
1F
100
AcDbEntity
  8
0-0_通り芯
  6
Continuous
 62
     3
370
     9
100
AcDbCircle
 10
73.48294410441773
 20
-7.685387266299621
 30
0.0
 40
11.00000087542884
100
AcDbArc
 50
53.5708465576172
 51
104.9997100830078
  0
ARC
  5
1E2
330
1F
100
AcDbEntity
  8
0-0_通り芯
  6
Continuous
 62
     3
370
     9
100
AcDbCircle
 10
60.89110033367994
 20
-1.224276087109876
 30
0.0
 40
1.500000013808026
100
AcDbArc
 50
284.9988403320312
 51
348.43359375
  0
ARC
  5
1E3
330
1F
100
AcDbEntity
  8
0-0_通り芯
  6
Continuous
 62
     3
370
     9
100
AcDbCircle
 10
65.41453217791255
 20
-1.564960425535935
 30
0.0
 40
3.000000027616052
100
AcDbArc
 50
104.9997406005859
 51
168.4337768554687
  0
ARC
  5
1E4
330
1F
100
AcDbEntity
  8
0-0_通り芯
  6
Continuous
 62
     3
370
     9
100
AcDbCircle
 10
32.87831078784749
 20
-15.34592928676605
 30
0.0
 40
8.000000073642804
100
AcDbArc
 50
273.9999542236328
 51
353.0001373291016
  0
ARC
  5
1E5
330
1F
100
AcDbEntity
  8
0-0_通り芯
  6
Continuous
 62
     3
370
     9
100
AcDbCircle
 10
32.87831078784749
 20
-15.34592928676605
 30
0.0
 40
3.000000027616052
100
AcDbArc
 50
273.9999542236328
 51
353.0001373291016
  0
ARC
  5
1E6
330
1F
100
AcDbEntity
  8
0-0_通り芯
  6
Continuous
 62
     3
370
     9
100
AcDbCircle
 10
23.83957278750061
 20
-29.00976932658264
 30
0.0
 40
5.000000046026753
100
AcDbArc
 50
94.00001525878906
 51
177.8067474365234
  0
ARC
  5
1E7
330
1F
100
AcDbEntity
  8
0-0_通り芯
  6
Continuous
 62
     3
370
     9
100
AcDbCircle
 10
40.42890828432204
 20
-3.083473166094594
 30
0.0
 40
3.000000027616052
100
AcDbArc
 50
104.9999847412109
 51
172.9999847412109
  0
ARC
  5
1E8
330
1F
100
AcDbEntity
  8
0-0_通り芯
  6
Continuous
 62
     3
370
     9
100
AcDbCircle
 10
46.70136972259312
 20
-9.437364899625013
 30
0.0
 40
5.000000046026753
100
AcDbArc
 50
48.51486206054687
 51
173.0002288818359
  0
ARC
  5
1E9
330
1F
100
AcDbEntity
  8
0-0_通り芯
  6
Continuous
 62
     3
370
     9
100
AcDbCircle
 10
-133.6714412303188
 20
-9.437364899624978
 30
0.0
 40
5.000000046026753
100
AcDbArc
 50
6.999771118164077
 51
131.4851379394531
  0
ARC
  5
1EA
330
1F
100
AcDbEntity
  8
0-0_通り芯
  6
Continuous
 62
     3
370
     9
100
AcDbCircle
 10
-169.1023399187935
 20
10.16516402962521
 30
0.0
 40
1.00000000920535
100
AcDbArc
 50
90.0
 51
172.8760375976562
  0
ARC
  5
1EB
330
1F
100
AcDbEntity
  8
0-0_通り芯
  6
Continuous
 62
     3
370
     9
100
AcDbCircle
 10
82.13224363762842
 20
10.16516402962517
 30
0.0
 40
1.00000000920535
100
AcDbArc
 50
7.126770019531255
 51
90.00000000000001
  0
LINE
  5
1EC
330
1F
100
AcDbEntity
  8
0-6
  6
Continuous
 62
     4
370
     9
100
AcDbLine
 10
-118.4355035005533
 20
46.52162318697242
 30
0.0
 11
-103.085508855858
 21
11.52160892972551
 31
0.0
  0
LINE
  5
1ED
330
1F
100
AcDbEntity
  8
0-6
  6
Continuous
 62
     4
370
     9
100
AcDbLine
 10
-118.4355035005533
 20
46.52162318697242
 30
0.0
 11
-118.9850031595577
 21
46.28052807487506
 31
0.0
  0
LINE
  5
1EE
330
1F
100
AcDbEntity
  8
0-6
  6
Continuous
 62
     4
370
     9
100
AcDbLine
 10
-103.085508855858
 20
11.52160892972551
 30
0.0
 11
-103.6350085148624
 21
11.28061291138567
 31
0.0
  0
LINE
  5
1EF
330
1F
100
AcDbEntity
  8
0-6
  6
JWW_PHANTOM1
 62
     4
370
     9
100
AcDbLine
 10
-108.7214415425643
 20
21.38441061778349
 30
0.0
 11
-108.17194188356
 21
21.62540663612333
 31
0.0
  0
LINE
  5
1F0
330
1F
100
AcDbEntity
  8
0-6
  6
JWW_PHANTOM1
 62
     4
370
     9
100
AcDbLine
 10
-106.9433774775664
 20
17.3302868092652
 30
0.0
 11
-108.7214415425643
 21
21.38441061778349
 31
0.0
  0
LINE
  5
1F1
330
1F
100
AcDbEntity
  8
0-6
  6
JWW_PHANTOM1
 62
     4
370
     9
100
AcDbLine
 10
-107.22693426477
 20
16.55140987499271
 30
0.0
 11
-135.0009574018074
 21
2.818402392412511
 31
0.0
  0
LINE
  5
1F2
330
1F
100
AcDbEntity
  8
0-6
  6
JWW_PHANTOM1
 62
     4
370
     9
100
AcDbLine
 10
-106.9609666195299
 20
16.01352895906006
 30
0.0
 11
-134.7350145300067
 21
2.280521476479865
 31
0.0
  0
LINE
  5
1F3
330
1F
100
AcDbEntity
  8
0-6
  6
JWW_PHANTOM1
 62
     4
370
     9
100
AcDbLine
 10
-134.7350145300067
 20
2.280521476479865
 30
0.0
 11
-135.0009574018074
 21
2.818402392412511
 31
0.0
  0
LINE
  5
1F4
330
1F
100
AcDbEntity
  8
0-6
  6
Continuous
 62
     4
370
     9
100
AcDbLine
 10
32.01500597215009
 20
46.28052807487504
 30
0.0
 11
16.66496178057603
 21
11.28061291138565
 31
0.0
  0
LINE
  5
1F5
330
1F
100
AcDbEntity
  8
0-6
  6
JWW_PHANTOM1
 62
     4
370
     9
100
AcDbLine
 10
21.75137003483864
 20
21.38441061778346
 30
0.0
 11
21.20191992271302
 21
21.6254066361233
 31
0.0
  0
LINE
  5
1F6
330
1F
100
AcDbEntity
  8
0-6
  6
JWW_PHANTOM1
 62
     4
370
     9
100
AcDbLine
 10
19.97333074328001
 20
17.33028680926518
 30
0.0
 11
21.75137003483864
 21
21.38441061778346
 31
0.0
  0
LINE
  5
1F7
330
1F
100
AcDbEntity
  8
0-6
  6
JWW_PHANTOM1
 62
     4
370
     9
100
AcDbLine
 10
20.25691230392304
 20
16.55140987499269
 30
0.0
 11
48.03091066752101
 21
2.818402392412477
 31
0.0
  0
LINE
  5
1F8
330
1F
100
AcDbEntity
  8
0-6
  6
JWW_PHANTOM1
 62
     4
370
     9
100
AcDbLine
 10
19.99096943212235
 20
16.01352895906004
 30
0.0
 11
47.76504211603848
 21
2.280521476479831
 31
0.0
  0
LINE
  5
1F9
330
1F
100
AcDbEntity
  8
0-6
  6
JWW_PHANTOM1
 62
     4
370
     9
100
AcDbLine
 10
47.76504211603848
 20
2.280521476479831
 30
0.0
 11
48.03091066752101
 21
2.818402392412477
 31
0.0
  0
LINE
  5
1FA
330
1F
100
AcDbEntity
  8
0-6
  6
Continuous
 62
     4
370
     9
100
AcDbLine
 10
31.46548153970637
 20
46.52162318697239
 30
0.0
 11
32.01500597215009
 21
46.28052807487504
 31
0.0
  0
LINE
  5
1FB
330
1F
100
AcDbEntity
  8
0-6
  6
Continuous
 62
     4
370
     9
100
AcDbLine
 10
31.46548153970637
 20
46.52162318697239
 30
0.0
 11
-118.4355035005533
 21
46.52162318697242
 31
0.0
  0
LINE
  5
1FC
330
1F
100
AcDbEntity
  8
0-6
  6
Continuous
 62
     4
370
     9
100
AcDbLine
 10
31.46548153970637
 20
46.52162318697239
 30
0.0
 11
16.11551166845047
 21
11.52160892972549
 31
0.0
  0
LINE
  5
1FD
330
1F
100
AcDbEntity
  8
0-6
  6
Continuous
 62
     4
370
     9
100
AcDbLine
 10
16.11551166845047
 20
11.52160892972549
 30
0.0
 11
-103.085508855858
 21
11.52160892972551
 31
0.0
  0
LINE
  5
1FE
330
1F
100
AcDbEntity
  8
0-6
  6
Continuous
 62
     4
370
     9
100
AcDbLine
 10
16.11551166845047
 20
11.52160892972549
 30
0.0
 11
16.66496178057603
 21
11.28061291138565
 31
0.0
  0
LINE
  5
1FF
330
1F
100
AcDbEntity
  8
0-6
  6
Continuous
 62
     4
370
     9
100
AcDbLine
 10
16.66496178057603
 20
11.28061291138565
 30
0.0
 11
-103.6350085148624
 21
11.28061291138567
 31
0.0
  0
LINE
  5
200
330
1F
100
AcDbEntity
  8
0-6
  6
Continuous
 62
     4
370
     9
100
AcDbLine
 10
-118.9850031595577
 20
46.28052807487506
 30
0.0
 11
-103.6350085148624
 21
11.28061291138567
 31
0.0
  0
ARC
  5
201
330
1F
100
AcDbEntity
  8
0-6
  6
JWW_PHANTOM1
 62
     4
370
     9
100
AcDbCircle
 10
-107.4928771365707
 20
17.08924124404666
 30
0.0
 40
0.6000000248774598
100
AcDbArc
 50
296.3094940185547
 51
23.67950439453125
  0
ARC
  5
202
330
1F
100
AcDbEntity
  8
0-6
  6
JWW_PHANTOM1
 62
     4
370
     9
100
AcDbCircle
 10
-107.4928771365707
 20
17.08924124404666
 30
0.0
 40
1.20000004975492
100
AcDbArc
 50
296.3094940185547
 51
23.67950439453125
  0
ARC
  5
203
330
1F
100
AcDbEntity
  8
0-6
  6
JWW_PHANTOM1
 62
     4
370
     9
100
AcDbCircle
 10
20.52285517572378
 20
17.08924124404664
 30
0.0
 40
0.6000000248774598
100
AcDbArc
 50
156.3204956054688
 51
243.6905059814453
  0
ARC
  5
204
330
1F
100
AcDbEntity
  8
0-6
  6
JWW_PHANTOM1
 62
     4
370
     9
100
AcDbCircle
 10
20.52285517572378
 20
17.08924124404664
 30
0.0
 40
1.20000004975492
100
AcDbArc
 50
156.3204956054688
 51
243.6905059814453
  0
LINE
  5
205
330
1F
100
AcDbEntity
  8
0-A
  6
Continuous
 62
     4
370
     9
100
AcDbLine
 10
-188.4850293469389
 20
33.02153558149236
 30
0.0
 11
-187.4850246927136
 21
29.02151696459147
 31
0.0
  0
LINE
  5
206
330
1F
100
AcDbEntity
  8
0-A
  6
Continuous
 62
     4
370
     9
100
AcDbLine
 10
101.5149826126525
 20
33.0215355814923
 30
0.0
 11
100.5149779584273
 21
29.02151696459142
 31
0.0
  0
LINE
  5
207
330
1F
100
AcDbEntity
  8
0-A
  6
JWW_HOJO
 62
     4
370
     9
100
AcDbLine
 10
-182.9850285221395
 20
49.02156050221733
 30
0.0
 11
-182.8755299200566
 21
48.14552213867593
 31
0.0
  0
LINE
  5
208
330
1F
100
AcDbEntity
  8
0-A
  6
Continuous
 62
     4
370
     9
100
AcDbLine
 10
-186.5945186405712
 20
48.14552213867593
 30
0.0
 11
-188.4850293469389
 21
33.02153558149236
 31
0.0
  0
LINE
  5
209
330
1F
100
AcDbEntity
  8
0-A
  6
JWW_HOJO
 62
     4
370
     9
100
AcDbLine
 10
-186.4850200384884
 20
49.02156050221733
 30
0.0
 11
-186.5945186405712
 21
48.14552213867593
 31
0.0
  0
LINE
  5
20A
330
1F
100
AcDbEntity
  8
0-A
  6
JWW_HOJO
 62
     4
370
     9
100
AcDbLine
 10
-186.4850200384884
 20
49.02156050221733
 30
0.0
 11
-185.6022432994342
 21
49.02156050221733
 31
0.0
  0
LINE
  5
20B
330
1F
100
AcDbEntity
  8
0-A
  6
Continuous
 62
     4
370
     9
100
AcDbLine
 10
-181.3135150199375
 20
35.64940293772271
 30
0.0
 11
-182.8755299200566
 21
48.14552213867593
 31
0.0
  0
LINE
  5
20C
330
1F
100
AcDbEntity
  8
0-A
  6
JWW_HOJO
 62
     4
370
     9
100
AcDbLine
 10
-166.4850260477413
 20
19.02151996921783
 30
0.0
 11
-166.9673649125722
 21
21.43321429337244
 31
0.0
  0
LINE
  5
20D
330
1F
100
AcDbEntity
  8
0-A
  6
JWW_HOJO
 62
     4
370
     9
100
AcDbLine
 10
-166.4850260477413
 20
19.02151996921783
 30
0.0
 11
-164.0256180793306
 21
19.02151996921783
 31
0.0
  0
LINE
  5
20E
330
1F
100
AcDbEntity
  8
0-A
  6
Continuous
 62
     4
370
     9
100
AcDbLine
 10
-166.9673649125722
 20
21.43321429337244
 30
0.0
 11
-168.0026964913608
 21
26.60987218731555
 31
0.0
  0
LINE
  5
20F
330
1F
100
AcDbEntity
  8
0-A
  6
Continuous
 62
     4
370
     9
100
AcDbLine
 10
-170.9444433246024
 20
29.02151696459147
 30
0.0
 11
-187.4850246927136
 21
29.02151696459147
 31
0.0
  0
LINE
  5
210
330
1F
100
AcDbEntity
  8
0-A
  6
JWW_HOJO
 62
     4
370
     9
100
AcDbLine
 10
-168.4850353561917
 20
29.02151696459146
 30
0.0
 11
-170.9444433246024
 21
29.02151696459147
 31
0.0
  0
LINE
  5
211
330
1F
100
AcDbEntity
  8
0-A
  6
JWW_HOJO
 62
     4
370
     9
100
AcDbLine
 10
-168.0026964913608
 20
26.60987218731555
 30
0.0
 11
-168.4850353561917
 21
29.02151696459146
 31
0.0
  0
LINE
  5
212
330
1F
100
AcDbEntity
  8
0-A
  6
Continuous
 62
     4
370
     9
100
AcDbLine
 10
-167.6652327000548
 20
33.02153558149235
 30
0.0
 11
-178.336664223087
 21
33.02153558149236
 31
0.0
  0
LINE
  5
213
330
1F
100
AcDbEntity
  8
0-A
  6
JWW_HOJO
 62
     4
370
     9
100
AcDbLine
 10
-164.7234858668133
 20
30.60989080421644
 30
0.0
 11
-165.2058247316442
 21
33.02153558149235
 31
0.0
  0
LINE
  5
214
330
1F
100
AcDbEntity
  8
0-A
  6
JWW_HOJO
 62
     4
370
     9
100
AcDbLine
 10
-165.2058247316442
 20
33.02153558149235
 30
0.0
 11
-167.6652327000548
 21
33.02153558149235
 31
0.0
  0
LINE
  5
215
330
1F
100
AcDbEntity
  8
0-A
  6
JWW_HOJO
 62
     4
370
     9
100
AcDbLine
 10
75.91807410223086
 20
21.43316474649369
 30
0.0
 11
75.43573523739994
 21
19.02151996921778
 31
0.0
  0
LINE
  5
216
330
1F
100
AcDbEntity
  8
0-A
  6
JWW_HOJO
 62
     4
370
     9
100
AcDbLine
 10
74.95656737281033
 20
37.0215541983932
 30
0.0
 11
74.47422850797935
 21
34.60985987423859
 31
0.0
  0
LINE
  5
217
330
1F
100
AcDbEntity
  8
0-A
  6
JWW_HOJO
 62
     4
370
     9
100
AcDbLine
 10
74.95656737281033
 20
37.0215541983932
 30
0.0
 11
77.41597534122096
 21
37.0215541983932
 31
0.0
  0
LINE
  5
218
330
1F
100
AcDbEntity
  8
0-A
  6
Continuous
 62
     4
370
     9
100
AcDbLine
 10
80.6951859657685
 20
33.02153558149231
 30
0.0
 11
101.5149826126525
 21
33.0215355814923
 31
0.0
  0
LINE
  5
219
330
1F
100
AcDbEntity
  8
0-A
  6
Continuous
 62
     4
370
     9
100
AcDbLine
 10
77.75343913252689
 20
30.6098908042164
 30
0.0
 11
75.91807410223086
 21
21.43316474649369
 31
0.0
  0
LINE
  5
21A
330
1F
100
AcDbEntity
  8
0-A
  6
JWW_HOJO
 62
     4
370
     9
100
AcDbLine
 10
78.23577799735781
 20
33.02153558149231
 30
0.0
 11
77.75343913252689
 21
30.60994035109521
 31
0.0
  0
LINE
  5
21B
330
1F
100
AcDbEntity
  8
0-A
  6
JWW_HOJO
 62
     4
370
     9
100
AcDbLine
 10
78.23577799735781
 20
33.02153558149231
 30
0.0
 11
80.6951859657685
 21
33.02153558149231
 31
0.0
  0
LINE
  5
21C
330
1F
100
AcDbEntity
  8
0-A
  6
Continuous
 62
     4
370
     9
100
AcDbLine
 10
83.97439659031605
 20
29.02151696459142
 30
0.0
 11
100.5149779584273
 21
29.02151696459142
 31
0.0
  0
LINE
  5
21D
330
1F
100
AcDbEntity
  8
0-A
  6
JWW_HOJO
 62
     4
370
     9
100
AcDbLine
 10
81.51498862190536
 20
29.02151696459142
 30
0.0
 11
83.97439659031605
 21
29.02151696459142
 31
0.0
  0
LINE
  5
21E
330
1F
100
AcDbEntity
  8
0-A
  6
JWW_HOJO
 62
     4
370
     9
100
AcDbLine
 10
81.51498862190536
 20
29.02151696459142
 30
0.0
 11
81.0326993039532
 21
26.60987218731551
 31
0.0
  0
LINE
  5
21F
330
1F
100
AcDbEntity
  8
0-A
  6
Continuous
 62
     4
370
     9
100
AcDbLine
 10
81.03264975707444
 20
26.60987218731551
 30
0.0
 11
79.99731817828584
 21
21.43316474649369
 31
0.0
  0
LINE
  5
220
330
1F
100
AcDbEntity
  8
0-A
  6
JWW_HOJO
 62
     4
370
     9
100
AcDbLine
 10
79.99731817828584
 20
21.43311519961488
 30
0.0
 11
79.51497931345492
 21
19.02151996921778
 31
0.0
  0
LINE
  5
221
330
1F
100
AcDbEntity
  8
0-A
  6
JWW_HOJO
 62
     4
370
     9
100
AcDbLine
 10
79.51497931345492
 20
19.02151996921778
 30
0.0
 11
77.05557134504423
 21
19.02151996921778
 31
0.0
  0
LINE
  5
222
330
1F
100
AcDbEntity
  8
0-A
  6
Continuous
 62
     4
370
     9
100
AcDbLine
 10
91.86661981591325
 20
37.02155419839319
 30
0.0
 11
77.41597534122096
 21
37.0215541983932
 31
0.0
  0
LINE
  5
223
330
1F
100
AcDbEntity
  8
0-A
  6
JWW_HOJO
 62
     4
370
     9
100
AcDbLine
 10
94.51499957995466
 20
37.02155419839319
 30
0.0
 11
94.84349538620316
 21
39.64942155462366
 31
0.0
  0
LINE
  5
224
330
1F
100
AcDbEntity
  8
0-A
  6
JWW_HOJO
 62
     4
370
     9
100
AcDbLine
 10
94.51499957995466
 20
37.02155419839319
 30
0.0
 11
91.86661981591325
 21
37.02155419839319
 31
0.0
  0
LINE
  5
225
330
1F
100
AcDbEntity
  8
0-A
  6
Continuous
 62
     4
370
     9
100
AcDbLine
 10
94.84349538620316
 20
39.64942155462366
 30
0.0
 11
95.9054831857703
 21
48.14552213867587
 31
0.0
  0
LINE
  5
226
330
1F
100
AcDbEntity
  8
0-A
  6
JWW_HOJO
 62
     4
370
     9
100
AcDbLine
 10
95.9054831857703
 20
48.14562123243338
 30
0.0
 11
96.01498178785315
 21
49.02156050221727
 31
0.0
  0
LINE
  5
227
330
1F
100
AcDbEntity
  8
0-A
  6
Continuous
 62
     4
370
     9
100
AcDbLine
 10
98.63219656514784
 20
49.02156050221727
 30
0.0
 11
96.01498178785315
 21
49.02156050221727
 31
0.0
  0
LINE
  5
228
330
1F
100
AcDbEntity
  8
0-A
  6
Continuous
 62
     4
370
     9
100
AcDbLine
 10
99.62447190628492
 20
48.14552213867587
 30
0.0
 11
101.5149826126525
 21
33.0215355814923
 31
0.0
  0
LINE
  5
229
330
1F
100
AcDbEntity
  8
0-A
  6
JWW_HOJO
 62
     4
370
     9
100
AcDbLine
 10
99.51497330420207
 20
49.02156050221727
 30
0.0
 11
99.62447190628492
 21
48.14552213867587
 31
0.0
  0
LINE
  5
22A
330
1F
100
AcDbEntity
  8
0-A
  6
JWW_HOJO
 62
     4
370
     9
100
AcDbLine
 10
99.51497330420207
 20
49.02156050221727
 30
0.0
 11
98.63219656514784
 21
49.02156050221727
 31
0.0
  0
LINE
  5
22B
330
1F
100
AcDbEntity
  8
0-A
  6
Continuous
 62
     4
370
     9
100
AcDbLine
 10
-158.9850159144914
 20
19.02151996921783
 30
0.0
 11
-159.7610686766739
 21
23.28983493466104
 31
0.0
  0
LINE
  5
22C
330
1F
100
AcDbEntity
  8
0-A
  6
JWW_HOJO
 62
     4
370
     9
100
AcDbLine
 10
-159.7610686766739
 20
23.28983493466104
 30
0.0
 11
-159.9850205687166
 21
24.5215207940172
 31
0.0
  0
LINE
  5
22D
330
1F
100
AcDbEntity
  8
0-A
  6
Continuous
 62
     4
370
     9
100
AcDbLine
 10
-147.4850119377799
 20
19.02151996921783
 30
0.0
 11
-148.2610646999624
 21
23.28983493466104
 31
0.0
  0
LINE
  5
22E
330
1F
100
AcDbEntity
  8
0-A
  6
JWW_HOJO
 62
     4
370
     9
100
AcDbLine
 10
-149.7368680310209
 20
24.5215207940172
 30
0.0
 11
-148.4850165920052
 21
24.5215207940172
 31
0.0
  0
LINE
  5
22F
330
1F
100
AcDbEntity
  8
0-A
  6
JWW_HOJO
 62
     4
370
     9
100
AcDbLine
 10
-148.2610646999624
 20
23.28983493466104
 30
0.0
 11
-148.4850165920052
 21
24.5215207940172
 31
0.0
  0
LINE
  5
230
330
1F
100
AcDbEntity
  8
0-A
  6
Continuous
 62
     4
370
     9
100
AcDbLine
 10
61.51499463115821
 20
19.02151996921778
 30
0.0
 11
62.23094702939213
 21
21.88532956215337
 31
0.0
  0
LINE
  5
231
330
1F
100
AcDbEntity
  8
0-A
  6
JWW_HOJO
 62
     4
370
     9
100
AcDbLine
 10
62.23094702939213
 20
21.88528001527455
 30
0.0
 11
62.51499928538343
 21
23.02148903923997
 31
0.0
  0
LINE
  5
232
330
1F
100
AcDbEntity
  8
0-A
  6
Continuous
 62
     4
370
     9
100
AcDbLine
 10
-163.7469664331252
 20
25.72734318265521
 30
0.0
 11
-164.7234858668133
 21
30.60989080421644
 31
0.0
  0
LINE
  5
233
330
1F
100
AcDbEntity
  8
0-A
  6
JWW_HOJO
 62
     4
370
     9
100
AcDbLine
 10
72.39766927182845
 20
24.22736097475669
 30
0.0
 11
72.15657415973115
 21
23.02148903923997
 31
0.0
  0
LINE
  5
234
330
1F
100
AcDbEntity
  8
0-A
  6
JWW_HOJO
 62
     4
370
     9
100
AcDbLine
 10
72.15657415973115
 20
23.02148903923997
 30
0.0
 11
70.9268701755258
 21
23.02148903923997
 31
0.0
  0
LINE
  5
235
330
1F
100
AcDbEntity
  8
0-A
  6
Continuous
 62
     4
370
     9
100
AcDbLine
 10
74.47422850797935
 20
34.60985987423859
 30
0.0
 11
72.39776836558602
 21
24.22736097475669
 31
0.0
  0
LINE
  5
236
330
1F
100
AcDbEntity
  8
0-A
  6
Continuous
 62
     4
370
     9
100
AcDbLine
 10
-162.2760930165044
 20
24.5215207940172
 30
0.0
 11
-149.7368680310209
 21
24.5215207940172
 31
0.0
  0
LINE
  5
237
330
1F
100
AcDbEntity
  8
0-A
  6
Continuous
 62
     4
370
     9
100
AcDbLine
 10
-160.0561698866311
 20
19.02151996921783
 30
0.0
 11
-164.0256180793306
 21
19.02151996921783
 31
0.0
  0
LINE
  5
238
330
1F
100
AcDbEntity
  8
0-A
  6
Continuous
 62
     4
370
     9
100
AcDbLine
 10
-185.6022432994342
 20
49.02156050221733
 30
0.0
 11
-157.9849617133873
 21
49.02156050221732
 31
0.0
  0
LINE
  5
239
330
1F
100
AcDbEntity
  8
0-A
  6
Continuous
 62
     4
370
     9
100
AcDbLine
 10
-139.3028403776177
 20
19.02151996921782
 30
0.0
 11
-148.4085905315017
 21
19.02151996921783
 31
0.0
  0
LINE
  5
23A
330
1F
100
AcDbEntity
  8
0-A
  6
Continuous
 62
     4
370
     9
100
AcDbLine
 10
77.05557134504423
 20
19.02151996921778
 30
0.0
 11
52.33276886989191
 21
19.02151996921779
 31
0.0
  0
LINE
  5
23B
330
1F
100
AcDbEntity
  8
0-A
  6
Continuous
 62
     4
370
     9
100
AcDbLine
 10
37.65188004955308
 20
49.02156050221728
 30
0.0
 11
96.01498178785315
 21
49.02156050221727
 31
0.0
  0
LINE
  5
23C
330
1F
100
AcDbEntity
  8
0-A
  6
Continuous
 62
     4
370
     9
100
AcDbLine
 10
70.9268701755258
 20
23.02148903923997
 30
0.0
 11
40.30159757932123
 21
23.02148903923998
 31
0.0
  0
LINE
  5
23D
330
1F
100
AcDbEntity
  8
0-A
  6
Continuous
 62
     4
370
     9
100
AcDbLine
 10
42.69726348819362
 20
19.02151996921779
 30
0.0
 11
40.7092445244056
 21
19.02151996921779
 31
0.0
  0
LINE
  5
23E
330
1F
100
AcDbEntity
  8
0-A
  6
Continuous
 62
     4
370
     9
100
AcDbLine
 10
-149.985023573343
 20
49.02156050221732
 30
0.0
 11
-124.6219763307181
 21
49.02156050221731
 31
0.0
  0
LINE
  5
23F
330
1F
100
AcDbEntity
  8
0-A
  6
Continuous
 62
     4
370
     9
100
AcDbLine
 10
-127.2716690870469
 20
23.02148903924001
 30
0.0
 11
-148.2122362509341
 21
23.02148903924002
 31
0.0
  0
LINE
  5
240
330
1F
100
AcDbEntity
  8
0-A
  6
Continuous
 62
     4
370
     9
100
AcDbLine
 10
-127.6793160321313
 20
19.02151996921782
 30
0.0
 11
-129.66731022248
 21
19.02151996921782
 31
0.0
  0
ARC
  5
241
330
1F
100
AcDbEntity
  8
0-A
  6
Continuous
 62
     4
370
     9
100
AcDbCircle
 10
-185.6022432994342
 20
48.0215558479921
 30
0.0
 40
1.00000000920535
100
AcDbArc
 50
90.0
 51
172.8746795654297
  0
ARC
  5
242
330
1F
100
AcDbEntity
  8
0-A
  6
Continuous
 62
     4
370
     9
100
AcDbCircle
 10
-183.8678052611937
 20
48.0215558479921
 30
0.0
 40
1.00000000920535
100
AcDbArc
 50
7.124832153320312
 51
90.00000000000001
  0
ARC
  5
243
330
1F
100
AcDbEntity
  8
0-A
  6
Continuous
 62
     4
370
     9
100
AcDbCircle
 10
-178.336664223087
 20
36.02149999728933
 30
0.0
 40
3.000000027616052
100
AcDbArc
 50
187.1249847412109
 51
270.0
  0
ARC
  5
244
330
1F
100
AcDbEntity
  8
0-A
  6
Continuous
 62
     4
370
     9
100
AcDbCircle
 10
-167.6652327000548
 20
30.02152161881668
 30
0.0
 40
3.000000027616052
100
AcDbArc
 50
11.31002807617188
 51
89.9998321533203
  0
ARC
  5
245
330
1F
100
AcDbEntity
  8
0-A
  6
Continuous
 62
     4
370
     9
100
AcDbCircle
 10
-170.9444433246024
 20
26.0215525487945
 30
0.0
 40
3.000000027616052
100
AcDbArc
 50
11.30998229980469
 51
90.0
  0
ARC
  5
246
330
1F
100
AcDbEntity
  8
0-A
  6
Continuous
 62
     4
370
     9
100
AcDbCircle
 10
-164.0256180793306
 20
22.02153393189349
 30
0.0
 40
3.000000027616052
100
AcDbArc
 50
191.3099822998047
 51
270.0
  0
ARC
  5
247
330
1F
100
AcDbEntity
  8
0-A
  6
Continuous
 62
     4
370
     9
100
AcDbCircle
 10
77.05557134504423
 20
22.02153393189345
 30
0.0
 40
3.000000027616052
100
AcDbArc
 50
270.0
 51
348.6899261474609
  0
ARC
  5
248
330
1F
100
AcDbEntity
  8
0-A
  6
Continuous
 62
     4
370
     9
100
AcDbCircle
 10
77.41597534122096
 20
34.02154023571753
 30
0.0
 40
3.000000027616052
100
AcDbArc
 50
90.0
 51
168.6900787353516
  0
ARC
  5
249
330
1F
100
AcDbEntity
  8
0-A
  6
Continuous
 62
     4
370
     9
100
AcDbCircle
 10
80.6951859657685
 20
30.02152161881664
 30
0.0
 40
3.000000027616052
100
AcDbArc
 50
90.0
 51
168.6899261474609
  0
ARC
  5
24A
330
1F
100
AcDbEntity
  8
0-A
  6
Continuous
 62
     4
370
     9
100
AcDbCircle
 10
83.97439659031605
 20
26.02155254879445
 30
0.0
 40
3.000000027616052
100
AcDbArc
 50
90.0
 51
168.6899261474609
  0
ARC
  5
24B
330
1F
100
AcDbEntity
  8
0-A
  6
Continuous
 62
     4
370
     9
100
AcDbCircle
 10
72.97632726898925
 20
22.02153393189345
 30
0.0
 40
3.000000027616052
100
AcDbArc
 50
270.0
 51
348.6898345947266
  0
ARC
  5
24C
330
1F
100
AcDbEntity
  8
0-A
  6
Continuous
 62
     4
370
     9
100
AcDbCircle
 10
91.86661981591325
 20
40.02151861419016
 30
0.0
 40
3.000000027616052
100
AcDbArc
 50
270.0
 51
352.8750610351562
  0
ARC
  5
24D
330
1F
100
AcDbEntity
  8
0-A
  6
Continuous
 62
     4
370
     9
100
AcDbCircle
 10
98.63219656514784
 20
48.02155584799205
 30
0.0
 40
1.00000000920535
100
AcDbArc
 50
7.125259399414062
 51
90.0
  0
ARC
  5
24E
330
1F
100
AcDbEntity
  8
0-A
  6
Continuous
 62
     4
370
     9
100
AcDbCircle
 10
96.89775852690732
 20
48.02155584799205
 30
0.0
 40
1.00000000920535
100
AcDbArc
 50
90.0
 51
172.8747406005859
  0
ARC
  5
24F
330
1F
100
AcDbEntity
  8
0-A
  6
Continuous
 62
     4
370
     9
100
AcDbCircle
 10
-161.2368720077324
 20
23.02148903924002
 30
0.0
 40
1.500000013808026
100
AcDbArc
 50
10.30532836914063
 51
90.0
  0
ARC
  5
250
330
1F
100
AcDbEntity
  8
0-A
  6
Continuous
 62
     4
370
     9
100
AcDbCircle
 10
-149.7368680310209
 20
23.02148903924002
 30
0.0
 40
1.500000013808026
100
AcDbArc
 50
10.30538940429688
 51
90.0
  0
ARC
  5
251
330
1F
100
AcDbEntity
  8
0-A
  6
Continuous
 62
     4
370
     9
100
AcDbCircle
 10
63.68618840576082
 20
21.52150683134149
 30
0.0
 40
1.500000013808026
100
AcDbArc
 50
90.0
 51
165.9637603759766
  0
ARC
  5
252
330
1F
100
AcDbEntity
  8
0-A
  6
Continuous
 62
     4
370
     9
100
AcDbCircle
 10
-162.2760930165044
 20
26.02150300191568
 30
0.0
 40
1.500000013808026
100
AcDbArc
 50
191.3098602294922
 51
270.0
  0
ARC
  5
253
330
1F
100
AcDbEntity
  8
0-A
  6
Continuous
 62
     4
370
     9
100
AcDbCircle
 10
70.9268701755258
 20
24.52152079401716
 30
0.0
 40
1.500000013808026
100
AcDbArc
 50
270.0
 51
348.6900634765625
  0
LINE
  5
254
330
1F
100
AcDbEntity
  8
0-1_ピット
  6
Continuous
 62
     2
370
     9
100
AcDbLine
 10
50.68206505677356
 20
376.9074930710951
 30
0.0
 11
55.99894061763715
 21
378.332139249823
 31
0.0
  0
LINE
  5
255
330
1F
100
AcDbEntity
  8
0-1_ピット
  6
Continuous
 62
     2
370
     9
100
AcDbLine
 10
52.45009587882053
 20
375.8282877311552
 30
0.0
 11
55.35230430280323
 21
376.6059507668978
 31
0.0
  0
LINE
  5
256
330
1F
100
AcDbEntity
  8
0-1_ピット
  6
Continuous
 62
     2
370
     9
100
AcDbLine
 10
55.35230430280323
 20
376.6059507668978
 30
0.0
 11
55.99894061763715
 21
378.332139249823
 31
0.0
  0
LINE
  5
257
330
1F
100
AcDbEntity
  8
0-1_ピット
  6
Continuous
 62
     2
370
     9
100
AcDbLine
 10
52.45009587882053
 20
375.8282877311552
 30
0.0
 11
50.68206505677356
 21
376.9074930710951
 31
0.0
  0
LINE
  5
258
330
1F
100
AcDbEntity
  8
0-1_ピット
  6
Continuous
 62
     2
370
     9
100
AcDbLine
 10
27.520608598877
 20
421.1653664000515
 30
0.0
 11
31.41283798101266
 21
425.0575710087478
 31
0.0
  0
LINE
  5
259
330
1F
100
AcDbEntity
  8
0-1_ピット
  6
Continuous
 62
     2
370
     9
100
AcDbLine
 10
29.59137085021177
 20
421.1148038102662
 30
0.0
 11
31.71591623845193
 21
423.2393491985063
 31
0.0
  0
LINE
  5
25A
330
1F
100
AcDbEntity
  8
0-1_ピット
  6
Continuous
 62
     2
370
     9
100
AcDbLine
 10
49.60303313090939
 20
386.4534672428551
 30
0.0
 11
52.50524155489209
 21
387.231155052037
 31
0.0
  0
LINE
  5
25B
330
1F
100
AcDbEntity
  8
0-1_ピット
  6
Continuous
 62
     2
370
     9
100
AcDbLine
 10
48.61150099295387
 20
384.6348738310228
 30
0.0
 11
53.92837655381746
 21
386.0595200097508
 31
0.0
  0
LINE
  5
25C
330
1F
100
AcDbEntity
  8
0-1_ピット
  6
Continuous
 62
     2
370
     9
100
AcDbLine
 10
48.61150099295387
 20
384.6348738310228
 30
0.0
 11
49.60303313090939
 21
386.4535167897338
 31
0.0
  0
LINE
  5
25D
330
1F
100
AcDbEntity
  8
0-1_ピット
  6
Continuous
 62
     2
370
     9
100
AcDbLine
 10
52.50524155489209
 20
387.231155052037
 30
0.0
 11
53.92837655381746
 21
386.0595200097508
 31
0.0
  0
LINE
  5
25E
330
1F
100
AcDbEntity
  8
0-1_ピット
  6
Continuous
 62
     2
370
     9
100
AcDbLine
 10
31.71591623845193
 20
423.2393491985063
 30
0.0
 11
31.41283798101266
 21
425.0575710087478
 31
0.0
  0
LINE
  5
25F
330
1F
100
AcDbEntity
  8
0-1_ピット
  6
Continuous
 62
     2
370
     9
100
AcDbLine
 10
29.59137085021177
 20
421.1148038102662
 30
0.0
 11
27.520608598877
 21
421.1653664000515
 31
0.0
  0
LINE
  5
260
330
1F
100
AcDbEntity
  8
0-1_ピット
  6
Continuous
 62
     2
370
     9
100
AcDbLine
 10
-14.66670066625972
 20
447.9131002636759
 30
0.0
 11
-13.24205448753179
 21
453.2299758245395
 31
0.0
  0
LINE
  5
261
330
1F
100
AcDbEntity
  8
0-1_ピット
  6
Continuous
 62
     2
370
     9
100
AcDbLine
 10
-12.84808248098807
 20
448.9046571750707
 30
0.0
 11
-12.07046899212429
 21
451.8068655990534
 31
0.0
  0
LINE
  5
262
330
1F
100
AcDbEntity
  8
0-1_ピット
  6
Continuous
 62
     2
370
     9
100
AcDbLine
 10
21.81317976610483
 20
428.8929205740549
 30
0.0
 11
23.9377499277844
 21
431.0175402826133
 31
0.0
  0
LINE
  5
263
330
1F
100
AcDbEntity
  8
0-1_ピット
  6
Continuous
 62
     2
370
     9
100
AcDbLine
 10
21.86376712932951
 20
426.8222326430383
 30
0.0
 11
25.75597173802583
 21
430.7144372517346
 31
0.0
  0
LINE
  5
264
330
1F
100
AcDbEntity
  8
0-1_ピット
  6
Continuous
 62
     2
370
     9
100
AcDbLine
 10
21.86376712932951
 20
426.8222326430383
 30
0.0
 11
21.81317976610483
 21
428.8929701209337
 31
0.0
  0
LINE
  5
265
330
1F
100
AcDbEntity
  8
0-1_ピット
  6
Continuous
 62
     2
370
     9
100
AcDbLine
 10
23.9377499277844
 20
431.0175402826133
 30
0.0
 11
25.75597173802583
 21
430.7144372517346
 31
0.0
  0
LINE
  5
266
330
1F
100
AcDbEntity
  8
0-1_ピット
  6
Continuous
 62
     2
370
     9
100
AcDbLine
 10
-12.07046899212429
 20
451.8068655990534
 30
0.0
 11
-13.24205448753179
 21
453.2299758245395
 31
0.0
  0
LINE
  5
267
330
1F
100
AcDbEntity
  8
0-1_ピット
  6
Continuous
 62
     2
370
     9
100
AcDbLine
 10
-12.84808248098807
 20
448.9046571750707
 30
0.0
 11
-14.66670066625972
 21
447.9131002636759
 31
0.0
  0
LINE
  5
268
330
1F
100
AcDbEntity
  8
0-1_ピット
  6
Continuous
 62
     2
370
     9
100
AcDbLine
 10
-64.57589098778067
 20
449.9836643274955
 30
0.0
 11
-66.0005371665086
 21
455.3005151149197
 31
0.0
  0
LINE
  5
269
330
1F
100
AcDbEntity
  8
0-1_ピット
  6
Continuous
 62
     2
370
     9
100
AcDbLine
 10
-63.49673519471952
 20
451.7516703761031
 30
0.0
 11
-64.27434868358336
 21
454.6538788000858
 31
0.0
  0
LINE
  5
26A
330
1F
100
AcDbEntity
  8
0-1_ピット
  6
Continuous
 62
     2
370
     9
100
AcDbLine
 10
-23.47328676612739
 20
451.7516703761031
 30
0.0
 11
-22.69559895694545
 21
454.6538788000858
 31
0.0
  0
LINE
  5
26B
330
1F
100
AcDbEntity
  8
0-1_ピット
  6
Continuous
 62
     2
370
     9
100
AcDbLine
 10
-22.39410619962684
 20
449.9836643274955
 30
0.0
 11
-20.96946002089897
 21
455.3005151149197
 31
0.0
  0
LINE
  5
26C
330
1F
100
AcDbEntity
  8
0-1_ピット
  6
Continuous
 62
     2
370
     9
100
AcDbLine
 10
-22.39410619962684
 20
449.9836643274955
 30
0.0
 11
-23.47328676612739
 21
451.7516703761031
 31
0.0
  0
LINE
  5
26D
330
1F
100
AcDbEntity
  8
0-1_ピット
  6
Continuous
 62
     2
370
     9
100
AcDbLine
 10
-22.69559895694545
 20
454.6538788000858
 30
0.0
 11
-20.96946002089897
 21
455.3005151149197
 31
0.0
  0
LINE
  5
26E
330
1F
100
AcDbEntity
  8
0-1_ピット
  6
Continuous
 62
     2
370
     9
100
AcDbLine
 10
-64.27434868358336
 20
454.6538788000858
 30
0.0
 11
-66.0005371665086
 21
455.3005151149197
 31
0.0
  0
LINE
  5
26F
330
1F
100
AcDbEntity
  8
0-1_ピット
  6
Continuous
 62
     2
370
     9
100
AcDbLine
 10
-63.49673519471952
 20
451.7516703761031
 30
0.0
 11
-64.57589098778067
 21
449.9836643274955
 31
0.0
  0
LINE
  5
270
330
1F
100
AcDbEntity
  8
0-1_ピット
  6
Continuous
 62
     2
370
     9
100
AcDbLine
 10
-108.8337643167371
 20
426.8222326430383
 30
0.0
 11
-112.7259689254334
 21
430.7144372517346
 31
0.0
  0
LINE
  5
271
330
1F
100
AcDbEntity
  8
0-1_ピット
  6
Continuous
 62
     2
370
     9
100
AcDbLine
 10
-108.783152180073
 20
428.8929701209337
 30
0.0
 11
-110.9077471151919
 21
431.0175402826133
 31
0.0
  0
LINE
  5
272
330
1F
100
AcDbEntity
  8
0-1_ピット
  6
Continuous
 62
     2
370
     9
100
AcDbLine
 10
-74.12188993298003
 20
448.9046571750707
 30
0.0
 11
-74.89955296872262
 21
451.8068655990534
 31
0.0
  0
LINE
  5
273
330
1F
100
AcDbEntity
  8
0-1_ピット
  6
Continuous
 62
     2
370
     9
100
AcDbLine
 10
-72.30329652114779
 20
447.9131002636759
 30
0.0
 11
-73.7279179264363
 21
453.2299758245395
 31
0.0
  0
LINE
  5
274
330
1F
100
AcDbEntity
  8
0-1_ピット
  6
Continuous
 62
     2
370
     9
100
AcDbLine
 10
-72.30329652114779
 20
447.9131002636759
 30
0.0
 11
-74.12191470641943
 21
448.9046571750707
 31
0.0
  0
LINE
  5
275
330
1F
100
AcDbEntity
  8
0-1_ピット
  6
Continuous
 62
     2
370
     9
100
AcDbLine
 10
-74.89955296872262
 20
451.8068655990534
 30
0.0
 11
-73.7279179264363
 21
453.2299758245395
 31
0.0
  0
LINE
  5
276
330
1F
100
AcDbEntity
  8
0-1_ピット
  6
Continuous
 62
     2
370
     9
100
AcDbLine
 10
-110.9077471151919
 20
431.0175402826133
 30
0.0
 11
-112.7259689254334
 21
430.7144372517346
 31
0.0
  0
LINE
  5
277
330
1F
100
AcDbEntity
  8
0-1_ピット
  6
Continuous
 62
     2
370
     9
100
AcDbLine
 10
-108.783152180073
 20
428.8929701209337
 30
0.0
 11
-108.8337643167371
 21
426.8222326430383
 31
0.0
  0
LINE
  5
278
330
1F
100
AcDbEntity
  8
0-1_ピット
  6
Continuous
 62
     2
370
     9
100
AcDbLine
 10
-135.5814981803615
 20
384.6348986044623
 30
0.0
 11
-140.898373741225
 21
386.0595695566295
 31
0.0
  0
LINE
  5
279
330
1F
100
AcDbEntity
  8
0-1_ピット
  6
Continuous
 62
     2
370
     9
100
AcDbLine
 10
-136.5730550917563
 20
386.4535167897338
 30
0.0
 11
-139.475263515739
 21
387.231155052037
 31
0.0
  0
LINE
  5
27A
330
1F
100
AcDbEntity
  8
0-1_ピット
  6
Continuous
 62
     2
370
     9
100
AcDbLine
 10
-116.5613432641799
 20
421.1148038102662
 30
0.0
 11
-118.6859134258594
 21
423.2393491985063
 31
0.0
  0
LINE
  5
27B
330
1F
100
AcDbEntity
  8
0-1_ピット
  6
Continuous
 62
     2
370
     9
100
AcDbLine
 10
-114.4905810128451
 20
421.1653664000515
 30
0.0
 11
-118.3828351684202
 21
425.0575710087478
 31
0.0
  0
LINE
  5
27C
330
1F
100
AcDbEntity
  8
0-1_ピット
  6
Continuous
 62
     2
370
     9
100
AcDbLine
 10
-114.4905810128451
 20
421.1653664000515
 30
0.0
 11
-116.5613928110587
 21
421.1148285837056
 31
0.0
  0
LINE
  5
27D
330
1F
100
AcDbEntity
  8
0-1_ピット
  6
Continuous
 62
     2
370
     9
100
AcDbLine
 10
-118.6859134258594
 20
423.2393491985063
 30
0.0
 11
-118.3828351684202
 21
425.0575710087478
 31
0.0
  0
LINE
  5
27E
330
1F
100
AcDbEntity
  8
0-1_ピット
  6
Continuous
 62
     2
370
     9
100
AcDbLine
 10
-139.475263515739
 20
387.231155052037
 30
0.0
 11
-140.898373741225
 21
386.0595695566295
 31
0.0
  0
LINE
  5
27F
330
1F
100
AcDbEntity
  8
0-1_ピット
  6
Continuous
 62
     2
370
     9
100
AcDbLine
 10
-136.5730550917563
 20
386.4535167897338
 30
0.0
 11
-135.5814981803615
 21
384.6348986044623
 31
0.0
  0
LINE
  5
280
330
1F
100
AcDbEntity
  8
0-1_ピット
  6
Continuous
 62
     2
370
     9
100
AcDbLine
 10
-139.4200435193493
 20
375.828337278034
 30
0.0
 11
-142.322251943332
 21
376.6059755403371
 31
0.0
  0
LINE
  5
281
330
1F
100
AcDbEntity
  8
0-1_ピット
  6
Continuous
 62
     2
370
     9
100
AcDbLine
 10
-137.6520622441811
 20
376.9074930710951
 30
0.0
 11
-142.9689378050447
 21
378.332139249823
 31
0.0
  0
LINE
  5
282
330
1F
100
AcDbEntity
  8
0-1_ピット
  6
Continuous
 62
     2
370
     9
100
AcDbLine
 10
-137.6520622441811
 20
376.9074930710951
 30
0.0
 11
-139.4200682927887
 21
375.8282877311552
 31
0.0
  0
LINE
  5
283
330
1F
100
AcDbEntity
  8
0-1_ピット
  6
Continuous
 62
     2
370
     9
100
AcDbLine
 10
-142.322251943332
 20
376.6059755403371
 30
0.0
 11
-142.9689378050447
 21
378.332139249823
 31
0.0
  0
LINE
  5
284
330
1F
100
AcDbEntity
  8
0-1_ピット
  6
Continuous
 62
     2
370
     9
100
AcDbLine
 10
13.7534385433845
 20
439.0317479237435
 30
0.0
 11
14.72857066446692
 21
439.5732953087052
 31
0.0
  0
LINE
  5
285
330
1F
100
AcDbEntity
  8
0-1_ピット
  6
Continuous
 62
     2
370
     9
100
AcDbLine
 10
15.25802861100862
 20
441.6377155595573
 30
0.0
 11
13.7534385433845
 21
439.0317479237435
 31
0.0
  0
LINE
  5
286
330
1F
100
AcDbEntity
  8
0-1_ピット
  6
Continuous
 62
     2
370
     9
100
AcDbLine
 10
-0.0378360686298791
 20
446.9941790765586
 30
0.0
 11
-0.0564409216081643
 21
448.1094545442434
 31
0.0
  0
LINE
  5
287
330
1F
100
AcDbEntity
  8
0-1_ピット
  6
Continuous
 62
     2
370
     9
100
AcDbLine
 10
1.466704452115486
 20
449.6001714858118
 30
0.0
 11
-0.0378360686298791
 21
446.9941790765586
 31
0.0
  0
LINE
  5
288
330
1F
100
AcDbEntity
  8
0-1_ピット
  6
JWW_CENTER1
 62
     2
370
     9
100
AcDbLine
 10
2.171161974474614
 20
457.0514522637908
 30
0.0
 11
20.89864347775875
 21
446.239084644096
 31
0.0
  0
LINE
  5
289
330
1F
100
AcDbEntity
  8
0-1_ピット
  6
Continuous
 62
     2
370
     9
100
AcDbLine
 10
-144.1706478027447
 20
363.7789822829545
 30
0.0
 11
-145.1271998442882
 21
364.3527103656776
 31
0.0
  0
LINE
  5
28A
330
1F
100
AcDbEntity
  8
0-1_ピット
  6
Continuous
 62
     2
370
     9
100
AcDbLine
 10
-147.1797783911142
 20
363.7789822829545
 30
0.0
 11
-144.1706478027447
 21
363.7789822829545
 31
0.0
  0
LINE
  5
28B
330
1F
100
AcDbEntity
  8
0-9
  6
Continuous
 62
     4
370
     9
100
AcDbLine
 10
48.1151403614309
 20
357.4167171269119
 30
0.0
 11
48.1151403614309
 21
358.5666010894179
 31
0.0
  0
LINE
  5
28C
330
1F
100
AcDbEntity
  8
0-9
  6
Continuous
 62
     4
370
     9
100
AcDbLine
 10
46.91491677009405
 20
358.5666010894179
 30
0.0
 11
48.1151403614309
 21
358.5666010894179
 31
0.0
  0
LINE
  5
28D
330
1F
100
AcDbEntity
  8
0-9
  6
Continuous
 62
     4
370
     9
100
AcDbLine
 10
46.91491677009405
 20
357.4167171269119
 30
0.0
 11
46.91491677009405
 21
358.5666010894179
 31
0.0
  0
LINE
  5
28E
330
1F
100
AcDbEntity
  8
0-9
  6
Continuous
 62
     4
370
     9
100
AcDbLine
 10
52.47883306850739
 20
356.4167124726866
 30
0.0
 11
42.55112496925998
 21
356.4167124726866
 31
0.0
  0
LINE
  5
28F
330
1F
100
AcDbEntity
  8
0-9
  6
Continuous
 62
     4
370
     9
100
AcDbLine
 10
-135.0851870957172
 20
357.4167171269119
 30
0.0
 11
-135.0851870957172
 21
358.5666010894179
 31
0.0
  0
LINE
  5
290
330
1F
100
AcDbEntity
  8
0-9
  6
Continuous
 62
     4
370
     9
100
AcDbLine
 10
-133.8849635043804
 20
358.5666010894179
 30
0.0
 11
-135.0851870957172
 21
358.5666010894179
 31
0.0
  0
LINE
  5
291
330
1F
100
AcDbEntity
  8
0-9
  6
Continuous
 62
     4
370
     9
100
AcDbLine
 10
-133.8849635043804
 20
357.4167171269119
 30
0.0
 11
-133.8849635043804
 21
358.5666010894179
 31
0.0
  0
LINE
  5
292
330
1F
100
AcDbEntity
  8
0-9
  6
Continuous
 62
     4
370
     9
100
AcDbLine
 10
-139.4488798027937
 20
356.4167124726866
 30
0.0
 11
-129.5211717035463
 21
356.4167124726866
 31
0.0
  0
LINE
  5
293
330
1F
100
AcDbEntity
  8
0-B
  6
Continuous
 62
     6
370
     5
100
AcDbLine
 10
19.26498379093743
 20
451.5124084985202
 30
0.0
 11
15.51210500534381
 21
445.012427792935
 31
0.0
  0
LINE
  5
294
330
1F
100
AcDbEntity
  8
0-B
  6
Continuous
 62
     6
370
     5
100
AcDbLine
 10
19.26498379093743
 20
451.5124084985202
 30
0.0
 11
15.51210500534381
 21
458.0124635244237
 31
0.0
  0
LINE
  5
295
330
1F
100
AcDbEntity
  8
0-B
  6
Continuous
 62
     6
370
     5
100
AcDbLine
 10
15.51210500534381
 20
458.0124635244237
 30
0.0
 11
8.01764412251623
 21
458.0124635244237
 31
0.0
  0
LINE
  5
296
330
1F
100
AcDbEntity
  8
0-B
  6
Continuous
 62
     6
370
     5
100
AcDbLine
 10
4.264864430680113
 20
451.5124084985202
 30
0.0
 11
8.01764412251623
 21
458.0124635244237
 31
0.0
  0
LINE
  5
297
330
1F
100
AcDbEntity
  8
0-B
  6
Continuous
 62
     6
370
     5
100
AcDbLine
 10
4.264864430680113
 20
451.5124084985202
 30
0.0
 11
8.017644122516224
 21
445.012427792935
 31
0.0
  0
LINE
  5
298
330
1F
100
AcDbEntity
  8
0-B
  6
Continuous
 62
     6
370
     5
100
AcDbLine
 10
9.169509960173052
 20
449.4365676921115
 30
0.0
 11
14.86046445575403
 21
452.7222194108992
 31
0.0
  0
LINE
  5
299
330
1F
100
AcDbEntity
  8
0-B
  6
Continuous
 62
     6
370
     5
100
AcDbLine
 10
8.669482859621091
 20
450.3025975861413
 30
0.0
 11
14.36043735520207
 21
453.588249304929
 31
0.0
  0
LINE
  5
29A
330
1F
100
AcDbEntity
  8
0-1_ピット
  6
Continuous
 62
     2
370
     9
100
AcDbLine
 10
1.466704452115486
 20
449.6001714858118
 30
0.0
 11
1.847397895148724
 21
449.732783706841
 31
0.0
  0
LINE
  5
29B
330
1F
100
AcDbEntity
  8
0-1_ピット
  6
Continuous
 62
     2
370
     9
100
AcDbLine
 10
1.122452738417955
 20
450.1513309652549
 30
0.0
 11
-0.0564409216081643
 21
448.109429770804
 31
0.0
  0
LINE
  5
29C
330
1F
100
AcDbEntity
  8
0-1_ピット
  6
Continuous
 62
     2
370
     9
100
AcDbLine
 10
15.25802861100862
 20
441.6377155595573
 30
0.0
 11
15.18246962088357
 21
442.0338180818882
 31
0.0
  0
LINE
  5
29D
330
1F
100
AcDbEntity
  8
0-1_ピット
  6
Continuous
 62
     2
370
     9
100
AcDbLine
 10
15.9074890979325
 20
441.6152460500349
 30
0.0
 11
14.72857066446692
 21
439.5732705352658
 31
0.0
  0
LINE
  5
29E
330
1F
100
AcDbEntity
  8
0-B
  6
Continuous
 62
     6
370
     5
100
AcDbLine
 10
15.51210500534381
 20
445.012427792935
 30
0.0
 11
8.017644122516224
 21
445.012427792935
 31
0.0
  0
LINE
  5
29F
330
1F
100
AcDbEntity
  8
0-1_ピット
  6
JWW_CENTER1
 62
     2
370
     9
100
AcDbLine
 10
6.358789847840107
 20
442.1486677468782
 30
0.0
 11
17.17115746753501
 21
460.8761492501623
 31
0.0
  0
LINE
  5
2A0
330
1F
100
AcDbEntity
  8
0-B
  6
Continuous
 62
     6
370
     5
100
AcDbLine
 10
-157.7349977099901
 20
362.3118248822415
 30
0.0
 11
-150.229438326318
 21
362.3118001088021
 31
0.0
  0
LINE
  5
2A1
330
1F
100
AcDbEntity
  8
0-B
  6
Continuous
 62
     6
370
     5
100
AcDbLine
 10
-150.229438326318
 20
362.3118001088021
 30
0.0
 11
-146.4822078849042
 21
355.8214067242589
 31
0.0
  0
LINE
  5
2A2
330
1F
100
AcDbEntity
  8
0-B
  6
Continuous
 62
     6
370
     5
100
AcDbLine
 10
-157.7349977099901
 20
362.3118248822415
 30
0.0
 11
-161.4850027766151
 21
355.8166006770182
 31
0.0
  0
LINE
  5
2A3
330
1F
100
AcDbEntity
  8
0-B
  6
Continuous
 62
     6
370
     5
100
AcDbLine
 10
-154.9849477507117
 20
355.8166006770182
 30
0.0
 11
-157.0804338945529
 21
357.0264363628365
 31
0.0
  0
LINE
  5
2A4
330
1F
100
AcDbEntity
  8
0-B
  6
Continuous
 62
     6
370
     5
100
AcDbLine
 10
-152.9849384422612
 20
355.8166006770182
 30
0.0
 11
-156.5804563408797
 21
357.8924910303057
 31
0.0
  0
LINE
  5
2A5
330
1F
100
AcDbEntity
  8
0-1_ピット
  6
JWW_CENTER1
 62
     2
370
     9
100
AcDbLine
 10
-153.9849926433652
 20
355.8166254504576
 30
0.0
 11
-153.9850917371227
 21
363.590282995157
 31
0.0
  0
LINE
  5
2A6
330
1F
100
AcDbEntity
  8
0-1_ピット
  6
Continuous
 62
     2
370
     9
100
AcDbLine
 10
-147.4850119377799
 20
364.3527103656776
 30
0.0
 11
-145.1271998442882
 21
364.3527103656776
 31
0.0
  0
LINE
  5
2A7
330
1F
100
AcDbEntity
  8
0-1_ピット
  6
Continuous
 62
     2
370
     9
100
AcDbLine
 10
-147.1797783911142
 20
363.7789822829545
 30
0.0
 11
-147.4850119377799
 21
363.5155167550923
 31
0.0
  0
LINE
  5
2A8
330
1F
100
AcDbEntity
  8
0-2_本体（蓋）
  6
Continuous
 62
     6
370
     5
100
AcDbLine
 10
50.9871747362424
 20
365.8165976723918
 30
0.0
 11
40.31794804931551
 21
365.8165976723918
 31
0.0
  0
LINE
  5
2A9
330
1F
100
AcDbEntity
  8
0-2_本体（蓋）
  6
Continuous
 62
     6
370
     5
100
AcDbLine
 10
51.88268502314063
 20
366.816602326617
 30
0.0
 11
40.29589968826262
 21
366.816602326617
 31
0.0
  0
LINE
  5
2AA
330
1F
100
AcDbEntity
  8
0-2_本体（蓋）
  6
Continuous
 62
     6
370
     5
100
AcDbLine
 10
40.29589968826262
 20
366.816602326617
 30
0.0
 11
40.31794804931551
 21
365.8165976723918
 31
0.0
  0
LINE
  5
2AB
330
1F
100
AcDbEntity
  8
0-2_本体（蓋）
  6
Continuous
 62
     6
370
     5
100
AcDbLine
 10
51.88268502314063
 20
366.816602326617
 30
0.0
 11
50.9871747362424
 21
365.8165976723918
 31
0.0
  0
LINE
  5
2AC
330
1F
100
AcDbEntity
  8
0-2_本体（蓋）
  6
Continuous
 62
     6
370
     5
100
AcDbLine
 10
50.32324656071754
 20
360.8165744012656
 30
0.0
 11
47.01500146521048
 21
360.8165744012656
 31
0.0
  0
LINE
  5
2AD
330
1F
100
AcDbEntity
  8
0-2_本体（蓋）
  6
Continuous
 62
     6
370
     5
100
AcDbLine
 10
51.05242797558314
 20
361.1322375659125
 30
0.0
 11
52.1068351026984
 21
360.1263368331136
 31
0.0
  0
LINE
  5
2AE
330
1F
100
AcDbEntity
  8
0-2_本体（蓋）
  6
Continuous
 62
     6
370
     5
100
AcDbLine
 10
33.11970318121744
 20
388.0672586312894
 30
0.0
 11
34.43987976605772
 21
388.4962355076845
 31
0.0
  0
LINE
  5
2AF
330
1F
100
AcDbEntity
  8
0-2_本体（蓋）
  6
Continuous
 62
     6
370
     5
100
AcDbLine
 10
27.63337729495867
 20
398.834786325697
 30
0.0
 11
28.75633252885296
 21
399.6507243252898
 31
0.0
  0
LINE
  5
2B0
330
1F
100
AcDbEntity
  8
0-2_本体（蓋）
  6
Continuous
 62
     6
370
     5
100
AcDbLine
 10
19.40435916091887
 20
410.1611037188784
 30
0.0
 11
20.52736394169192
 21
410.9770417184712
 31
0.0
  0
LINE
  5
2B1
330
1F
100
AcDbEntity
  8
0-2_本体（蓋）
  6
Continuous
 62
     6
370
     5
100
AcDbLine
 10
10.85918239344442
 20
418.7063052597922
 30
0.0
 11
11.67514516647662
 21
419.8292852671258
 31
0.0
  0
LINE
  5
2B2
330
1F
100
AcDbEntity
  8
0-2_本体（蓋）
  6
Continuous
 62
     6
370
     5
100
AcDbLine
 10
-0.467035905979408
 20
426.9352986203926
 30
0.0
 11
0.3489268670527323
 21
428.058328174605
 31
0.0
  0
LINE
  5
2B3
330
1F
100
AcDbEntity
  8
0-2_本体（蓋）
  6
Continuous
 62
     6
370
     5
100
AcDbLine
 10
-11.234563600387
 20
432.4217236004089
 30
0.0
 11
-10.8055867239919
 21
433.7418506383705
 31
0.0
  0
LINE
  5
2B4
330
1F
100
AcDbEntity
  8
0-2_本体（蓋）
  6
Continuous
 62
     6
370
     5
100
AcDbLine
 10
-24.54929633238658
 20
436.7480579608924
 30
0.0
 11
-24.12031945599148
 21
438.068184998854
 31
0.0
  0
LINE
  5
2B5
330
1F
100
AcDbEntity
  8
0-2_本体（蓋）
  6
Continuous
 62
     6
370
     5
100
AcDbLine
 10
-36.48518897508161
 20
438.6384695735026
 30
0.0
 11
-36.4851642016422
 21
440.0265749291372
 31
0.0
  0
LINE
  5
2B6
330
1F
100
AcDbEntity
  8
0-2_本体（蓋）
  6
Continuous
 62
     6
370
     5
100
AcDbLine
 10
37.48770646674692
 20
374.7656062752853
 30
0.0
 11
38.76618935310186
 21
375.1810073068972
 31
0.0
  0
LINE
  5
2B7
330
1F
100
AcDbEntity
  8
0-2_本体（蓋）
  6
Continuous
 62
     6
370
     5
100
AcDbLine
 10
39.23438258404381
 20
363.8165883639413
 30
0.0
 11
40.53246126095244
 21
363.8166379108201
 31
0.0
  0
LINE
  5
2B8
330
1F
100
AcDbEntity
  8
0-2_本体（蓋）
  6
Continuous
 62
     6
370
     5
100
AcDbLine
 10
-137.9572462439681
 20
365.8165976723918
 30
0.0
 11
-127.2880195570412
 21
365.8165976723918
 31
0.0
  0
LINE
  5
2B9
330
1F
100
AcDbEntity
  8
0-2_本体（蓋）
  6
Continuous
 62
     6
370
     5
100
AcDbLine
 10
-138.8527317574269
 20
366.816602326617
 30
0.0
 11
-127.2659711959883
 21
366.816602326617
 31
0.0
  0
LINE
  5
2BA
330
1F
100
AcDbEntity
  8
0-2_本体（蓋）
  6
Continuous
 62
     6
370
     5
100
AcDbLine
 10
-127.2659711959883
 20
366.816602326617
 30
0.0
 11
-127.2880195570412
 21
365.8165976723918
 31
0.0
  0
LINE
  5
2BB
330
1F
100
AcDbEntity
  8
0-2_本体（蓋）
  6
Continuous
 62
     6
370
     5
100
AcDbLine
 10
-138.8527317574269
 20
366.816602326617
 30
0.0
 11
-137.9572462439681
 21
365.8165976723918
 31
0.0
  0
LINE
  5
2BC
330
1F
100
AcDbEntity
  8
0-2_本体（蓋）
  6
Continuous
 62
     6
370
     5
100
AcDbLine
 10
-137.293367615322
 20
360.8165744012656
 30
0.0
 11
-133.9850234260574
 21
360.8165744012656
 31
0.0
  0
LINE
  5
2BD
330
1F
100
AcDbEntity
  8
0-2_本体（蓋）
  6
Continuous
 62
     6
370
     5
100
AcDbLine
 10
-138.0224747098695
 20
361.1322375659125
 30
0.0
 11
-139.0769313838635
 21
360.1263368331136
 31
0.0
  0
LINE
  5
2BE
330
1F
100
AcDbEntity
  8
0-2_本体（蓋）
  6
Continuous
 62
     6
370
     5
100
AcDbLine
 10
-120.0897499155037
 20
388.0672586312894
 30
0.0
 11
-121.409926500344
 21
388.4962355076845
 31
0.0
  0
LINE
  5
2BF
330
1F
100
AcDbEntity
  8
0-2_本体（蓋）
  6
Continuous
 62
     6
370
     5
100
AcDbLine
 10
-106.374455442084
 20
410.1611037188784
 30
0.0
 11
-107.4974354494176
 21
410.9770417184712
 31
0.0
  0
LINE
  5
2C0
330
1F
100
AcDbEntity
  8
0-2_本体（蓋）
  6
Continuous
 62
     6
370
     5
100
AcDbLine
 10
-97.8292786746095
 20
418.7063052597923
 30
0.0
 11
-98.64519190076288
 21
419.8292852671259
 31
0.0
  0
LINE
  5
2C1
330
1F
100
AcDbEntity
  8
0-2_本体（蓋）
  6
Continuous
 62
     6
370
     5
100
AcDbLine
 10
-86.50306037518567
 20
426.9352986203926
 30
0.0
 11
-87.3189983747784
 21
428.0583281746051
 31
0.0
  0
LINE
  5
2C2
330
1F
100
AcDbEntity
  8
0-2_本体（蓋）
  6
Continuous
 62
     6
370
     5
100
AcDbLine
 10
-75.73553268077808
 20
432.4217236004089
 30
0.0
 11
-76.16450955717318
 21
433.7418506383705
 31
0.0
  0
LINE
  5
2C3
330
1F
100
AcDbEntity
  8
0-2_本体（蓋）
  6
Continuous
 62
     6
370
     5
100
AcDbLine
 10
-62.4207999487785
 20
436.7480579608924
 30
0.0
 11
-62.84972727829484
 21
438.068184998854
 31
0.0
  0
LINE
  5
2C4
330
1F
100
AcDbEntity
  8
0-2_本体（蓋）
  6
Continuous
 62
     6
370
     5
100
AcDbLine
 10
-50.48490730608348
 20
438.6384695735026
 30
0.0
 11
-50.48490730608348
 21
440.0265749291372
 31
0.0
  0
LINE
  5
2C5
330
1F
100
AcDbEntity
  8
0-2_本体（蓋）
  6
Continuous
 62
     6
370
     5
100
AcDbLine
 10
-124.457802747912
 20
374.7656062752853
 30
0.0
 11
-125.7362608608276
 21
375.1810073068972
 31
0.0
  0
LINE
  5
2C6
330
1F
100
AcDbEntity
  8
0-2_本体（蓋）
  6
Continuous
 62
     6
370
     5
100
AcDbLine
 10
-126.2044788652089
 20
363.8165883639413
 30
0.0
 11
-127.5025327686782
 21
363.8166379108201
 31
0.0
  0
LINE
  5
2C7
330
1F
100
AcDbEntity
  8
0-2_本体（蓋）
  6
Continuous
 62
     6
370
     5
100
AcDbLine
 10
-41.98509070612347
 20
433.8451063337282
 30
0.0
 11
-41.98509070612347
 21
434.3971576569892
 31
0.0
  0
LINE
  5
2C8
330
1F
100
AcDbEntity
  8
0-2_本体（蓋）
  6
Continuous
 62
     6
370
     5
100
AcDbLine
 10
-44.98498080160221
 20
433.8451063337282
 30
0.0
 11
-44.98498080160221
 21
434.3971576569892
 31
0.0
  0
LINE
  5
2C9
330
1F
100
AcDbEntity
  8
0-2_本体（蓋）
  6
Continuous
 62
     6
370
     5
100
AcDbLine
 10
51.38325248513386
 20
359.8166192939191
 30
0.0
 11
50.51509207531692
 21
359.8166192939191
 31
0.0
  0
LINE
  5
2CA
330
1F
100
AcDbEntity
  8
0-2_本体（蓋）
  6
Continuous
 62
     6
370
     5
100
AcDbLine
 10
-138.353348766299
 20
359.8166192939191
 30
0.0
 11
-137.4851140361639
 21
359.8166192939191
 31
0.0
  0
LINE
  5
2CB
330
1F
100
AcDbEntity
  8
0-1_ピット
  6
Continuous
 62
     2
370
     9
100
AcDbLine
 10
-126.0288599534068
 20
367.8165822074029
 30
0.0
 11
-124.7801299677536
 21
368.0309963252822
 31
0.0
  0
LINE
  5
2CC
330
1F
100
AcDbEntity
  8
0-1_ピット
  6
Continuous
 62
     2
370
     9
100
AcDbLine
 10
-124.8120629311212
 20
367.8165822074029
 30
0.0
 11
-126.0288599534068
 21
367.8165822074029
 31
0.0
  0
LINE
  5
2CD
330
1F
100
AcDbEntity
  8
0-A
  6
Continuous
 62
     4
370
     9
100
AcDbLine
 10
-40.48500940446747
 20
427.1990366560881
 30
0.0
 11
-40.48500940446747
 21
428.2544842676575
 31
0.0
  0
LINE
  5
2CE
330
1F
100
AcDbEntity
  8
0-A
  6
Continuous
 62
     4
370
     9
100
AcDbLine
 10
-40.98496218470127
 20
427.0310975104954
 30
0.0
 11
-40.98496218470127
 21
428.2735102691054
 31
0.0
  0
LINE
  5
2CF
330
1F
100
AcDbEntity
  8
0-A
  6
Continuous
 62
     4
370
     9
100
AcDbLine
 10
-45.98501022926684
 20
427.0310231901773
 30
0.0
 11
-45.98501022926684
 21
428.2735102691054
 31
0.0
  0
LINE
  5
2D0
330
1F
100
AcDbEntity
  8
0-A
  6
Continuous
 62
     4
370
     9
100
AcDbLine
 10
-46.4849877829401
 20
427.1989871092093
 30
0.0
 11
-46.4849877829401
 21
428.2544842676575
 31
0.0
  0
LINE
  5
2D1
330
1F
100
AcDbEntity
  8
0-A
  6
Continuous
 62
     4
370
     9
100
AcDbLine
 10
-40.98496218470127
 20
434.4924363048649
 30
0.0
 11
-40.98496218470127
 21
438.6695354664917
 31
0.0
  0
LINE
  5
2D2
330
1F
100
AcDbEntity
  8
0-A
  6
Continuous
 62
     4
370
     9
100
AcDbLine
 10
-40.48500940446747
 20
434.6604497707757
 30
0.0
 11
-40.48500940446747
 21
438.7007500001171
 31
0.0
  0
LINE
  5
2D3
330
1F
100
AcDbEntity
  8
0-A
  6
Continuous
 62
     4
370
     9
100
AcDbLine
 10
-46.4849877829401
 20
434.6603506770182
 30
0.0
 11
-46.4849877829401
 21
438.7007500001171
 31
0.0
  0
LINE
  5
2D4
330
1F
100
AcDbEntity
  8
0-A
  6
Continuous
 62
     4
370
     9
100
AcDbLine
 10
-45.98501022926684
 20
434.4923867579861
 30
0.0
 11
-45.98501022926684
 21
438.6695354664917
 31
0.0
  0
LINE
  5
2D5
330
1F
100
AcDbEntity
  8
0-A
  6
Continuous
 62
     4
370
     9
100
AcDbLine
 10
-42.98502104003052
 20
441.0497922960664
 30
0.0
 11
-43.98502569425575
 21
441.0497922960664
 31
0.0
  0
LINE
  5
2D6
330
1F
100
AcDbEntity
  8
0-A
  6
Continuous
 62
     4
370
     9
100
AcDbLine
 10
-43.98502569425575
 20
443.0269357199643
 30
0.0
 11
-43.98502569425575
 21
441.0497922960664
 31
0.0
  0
LINE
  5
2D7
330
1F
100
AcDbEntity
  8
0-A
  6
Continuous
 62
     4
370
     9
100
AcDbLine
 10
-42.98502104003052
 20
443.0269357199643
 30
0.0
 11
-42.98502104003052
 21
441.0497922960664
 31
0.0
  0
LINE
  5
2D8
330
1F
100
AcDbEntity
  8
0-1_ピット
  6
JWW_CENTER1
 62
     2
370
     9
100
AcDbLine
 10
-17.18811655345168
 20
401.3642288072498
 30
0.0
 11
-12.21388243272555
 21
409.9798116894571
 31
0.0
  0
LINE
  5
2D9
330
1F
100
AcDbEntity
  8
0-0_通り芯
  6
JWW_CENTER1
 62
     3
370
     9
100
AcDbLine
 10
-43.48502336714312
 20
512.137696854285
 30
0.0
 11
-43.48502336714315
 21
349.4947410006129
 31
0.0
  0
LINE
  5
2DA
330
1F
100
AcDbEntity
  8
0-0_通り芯
  6
JWW_CENTER1
 62
     3
370
     9
100
AcDbLine
 10
-198.3184992827648
 20
355.8166006770182
 30
0.0
 11
110.5625895042993
 21
355.8166006770182
 31
0.0
  0
ARC
  5
2DB
330
1F
100
AcDbEntity
  8
0-1_ピット
  6
Continuous
 62
     2
370
     9
100
AcDbCircle
 10
-43.4849985937038
 20
355.8166006770182
 30
0.0
 40
96.5000341776255
100
AcDbArc
 50
17.37562561035151
 51
42.62435913085933
  0
ARC
  5
2DC
330
1F
100
AcDbEntity
  8
0-1_ピット
  6
Continuous
 62
     2
370
     9
100
AcDbCircle
 10
-43.4849985937038
 20
355.8166006770182
 30
0.0
 40
98.00002877224367
100
AcDbArc
 50
18.21726989746088
 51
41.78273010253901
  0
ARC
  5
2DD
330
1F
100
AcDbEntity
  8
0-1_ピット
  6
Continuous
 62
     2
370
     9
100
AcDbCircle
 10
-43.4849985937038
 20
355.8166006770182
 30
0.0
 40
101.00001796148
100
AcDbArc
 50
18.12161254882812
 51
41.87838745117188
  0
ARC
  5
2DE
330
1F
100
AcDbEntity
  8
0-1_ピット
  6
Continuous
 62
     2
370
     9
100
AcDbCircle
 10
-43.4849985937038
 20
355.8166006770182
 30
0.0
 40
102.0000040356257
100
AcDbArc
 50
17.24746704101555
 51
42.7525329589843
  0
ARC
  5
2DF
330
1F
100
AcDbEntity
  8
0-1_ピット
  6
Continuous
 62
     2
370
     9
100
AcDbCircle
 10
-43.4849985937038
 20
355.8166006770182
 30
0.0
 40
96.5000341776255
100
AcDbArc
 50
47.37562561035158
 51
72.62435913085939
  0
ARC
  5
2E0
330
1F
100
AcDbEntity
  8
0-1_ピット
  6
Continuous
 62
     2
370
     9
100
AcDbCircle
 10
-43.4849985937038
 20
355.8166006770182
 30
0.0
 40
98.00002877224367
100
AcDbArc
 50
48.21726989746095
 51
71.78273010253906
  0
ARC
  5
2E1
330
1F
100
AcDbEntity
  8
0-1_ピット
  6
Continuous
 62
     2
370
     9
100
AcDbCircle
 10
-43.4849985937038
 20
355.8166006770182
 30
0.0
 40
98.00002877224367
100
AcDbArc
 50
78.21726989746091
 51
101.782730102539
  0
ARC
  5
2E2
330
1F
100
AcDbEntity
  8
0-1_ピット
  6
Continuous
 62
     2
370
     9
100
AcDbCircle
 10
-43.4849985937038
 20
355.8166006770182
 30
0.0
 40
101.00001796148
100
AcDbArc
 50
78.12161254882815
 51
101.8783874511719
  0
ARC
  5
2E3
330
1F
100
AcDbEntity
  8
0-1_ピット
  6
Continuous
 62
     2
370
     9
100
AcDbCircle
 10
-43.4849985937038
 20
355.8166006770182
 30
0.0
 40
102.0000040356257
100
AcDbArc
 50
77.24746704101558
 51
102.7525329589843
  0
ARC
  5
2E4
330
1F
100
AcDbEntity
  8
0-1_ピット
  6
Continuous
 62
     2
370
     9
100
AcDbCircle
 10
-43.4849985937038
 20
355.8166006770182
 30
0.0
 40
96.5000341776255
100
AcDbArc
 50
107.3756256103516
 51
132.6243591308594
  0
ARC
  5
2E5
330
1F
100
AcDbEntity
  8
0-1_ピット
  6
Continuous
 62
     2
370
     9
100
AcDbCircle
 10
-43.4849985937038
 20
355.8166006770182
 30
0.0
 40
98.00002877224367
100
AcDbArc
 50
108.2172698974609
 51
131.7827301025391
  0
ARC
  5
2E6
330
1F
100
AcDbEntity
  8
0-1_ピット
  6
Continuous
 62
     2
370
     9
100
AcDbCircle
 10
-43.4849985937038
 20
355.8166006770182
 30
0.0
 40
101.00001796148
100
AcDbArc
 50
108.1216125488282
 51
131.8783874511719
  0
ARC
  5
2E7
330
1F
100
AcDbEntity
  8
0-1_ピット
  6
Continuous
 62
     2
370
     9
100
AcDbCircle
 10
-43.4849985937038
 20
355.8166006770182
 30
0.0
 40
102.0000040356257
100
AcDbArc
 50
107.2474670410156
 51
132.7525329589843
  0
ARC
  5
2E8
330
1F
100
AcDbEntity
  8
0-1_ピット
  6
Continuous
 62
     2
370
     9
100
AcDbCircle
 10
-43.4849985937038
 20
355.8166006770182
 30
0.0
 40
96.5000341776255
100
AcDbArc
 50
137.3756256103515
 51
162.6243591308593
  0
ARC
  5
2E9
330
1F
100
AcDbEntity
  8
0-1_ピット
  6
Continuous
 62
     2
370
     9
100
AcDbCircle
 10
-43.4849985937038
 20
355.8166006770182
 30
0.0
 40
98.00002877224367
100
AcDbArc
 50
138.2172698974609
 51
161.782730102539
  0
ARC
  5
2EA
330
1F
100
AcDbEntity
  8
0-1_ピット
  6
Continuous
 62
     2
370
     9
100
AcDbCircle
 10
-43.4849985937038
 20
355.8166006770182
 30
0.0
 40
101.00001796148
100
AcDbArc
 50
138.1216125488282
 51
161.8783874511719
  0
ARC
  5
2EB
330
1F
100
AcDbEntity
  8
0-1_ピット
  6
Continuous
 62
     2
370
     9
100
AcDbCircle
 10
-43.4849985937038
 20
355.8166006770182
 30
0.0
 40
102.0000040356257
100
AcDbArc
 50
137.2474670410156
 51
162.7525329589843
  0
ARC
  5
2EC
330
1F
100
AcDbEntity
  8
0-1_ピット
  6
Continuous
 62
     2
370
     9
100
AcDbCircle
 10
-43.4849985937038
 20
355.8166006770182
 30
0.0
 40
96.5000341776255
100
AcDbArc
 50
5.407623291015625
 51
12.62435913085938
  0
ARC
  5
2ED
330
1F
100
AcDbEntity
  8
0-1_ピット
  6
Continuous
 62
     2
370
     9
100
AcDbCircle
 10
-43.4849985937038
 20
355.8166006770182
 30
0.0
 40
96.5000341776255
100
AcDbArc
 50
167.3756256103515
 51
174.5923767089843
  0
ARC
  5
2EE
330
1F
100
AcDbEntity
  8
0-1_ピット
  6
Continuous
 62
     2
370
     9
100
AcDbCircle
 10
-43.4849985937038
 20
355.8166006770182
 30
0.0
 40
96.97295294213019
100
AcDbArc
 50
88.20872497558592
 51
91.79127502441406
  0
ARC
  5
2EF
330
1F
100
AcDbEntity
  8
0-1_ピット
  6
Continuous
 62
     2
370
     9
100
AcDbCircle
 10
-43.4849985937038
 20
355.8166006770182
 30
0.0
 40
96.5000341776255
100
AcDbArc
 50
93.00114440917969
 51
102.6243591308594
  0
ARC
  5
2F0
330
1F
100
AcDbEntity
  8
0-1_ピット
  6
Continuous
 62
     2
370
     9
100
AcDbCircle
 10
-43.4849985937038
 20
355.8166006770182
 30
0.0
 40
96.5000341776255
100
AcDbArc
 50
77.37562561035155
 51
86.9988555908203
  0
ARC
  5
2F1
330
1F
100
AcDbEntity
  8
0-1_ピット
  6
Continuous
 62
     2
370
     9
100
AcDbCircle
 10
-43.4849985937038
 20
355.8166006770182
 30
0.0
 40
98.00002877224367
100
AcDbArc
 50
168.2172698974609
 51
180.0
  0
ARC
  5
2F2
330
1F
100
AcDbEntity
  8
0-1_ピット
  6
Continuous
 62
     2
370
     9
100
AcDbCircle
 10
-43.4849985937038
 20
355.8166006770182
 30
0.0
 40
96.97295294213019
100
AcDbArc
 50
175.2184600830078
 51
180.0
  0
ARC
  5
2F3
330
1F
100
AcDbEntity
  8
0-1_ピット
  6
Continuous
 62
     2
370
     9
100
AcDbCircle
 10
-43.4849985937038
 20
355.8166006770182
 30
0.0
 40
96.97295294213019
100
AcDbArc
 50
0.0
 51
4.781539916992188
  0
ARC
  5
2F4
330
1F
100
AcDbEntity
  8
0-1_ピット
  6
Continuous
 62
     2
370
     9
100
AcDbCircle
 10
-43.4849985937038
 20
355.8166006770182
 30
0.0
 40
98.00002877224367
100
AcDbArc
 50
0.0
 51
11.78273010253906
  0
ARC
  5
2F5
330
1F
100
AcDbEntity
  8
0-1_ピット
  6
Continuous
 62
     2
370
     9
100
AcDbCircle
 10
-43.4849985937038
 20
355.8166006770182
 30
0.0
 40
101.00001796148
100
AcDbArc
 50
0.0
 51
11.87838745117188
  0
ARC
  5
2F6
330
1F
100
AcDbEntity
  8
0-1_ピット
  6
Continuous
 62
     2
370
     9
100
AcDbCircle
 10
-43.4849985937038
 20
355.8166006770182
 30
0.0
 40
102.0000040356257
100
AcDbArc
 50
0.0
 51
12.75253295898438
  0
ARC
  5
2F7
330
1F
100
AcDbEntity
  8
0-1_ピット
  6
Continuous
 62
     2
370
     9
100
AcDbCircle
 10
-43.4849985937038
 20
355.8166006770182
 30
0.0
 40
101.00001796148
100
AcDbArc
 50
48.12161254882819
 51
55.4783782958985
  0
ARC
  5
2F8
330
1F
100
AcDbEntity
  8
0-1_ピット
  6
Continuous
 62
     2
370
     9
100
AcDbCircle
 10
-43.4849985937038
 20
355.8166006770182
 30
0.0
 40
102.0000040356257
100
AcDbArc
 50
47.24746704101562
 51
55.19946289062499
  0
ARC
  5
2F9
330
1F
100
AcDbEntity
  8
0-1_ピット
  6
Continuous
 62
     2
370
     9
100
AcDbCircle
 10
-43.4849985937038
 20
355.8166006770182
 30
0.0
 40
101.00001796148
100
AcDbArc
 50
64.52166748046878
 51
71.87838745117192
  0
ARC
  5
2FA
330
1F
100
AcDbEntity
  8
0-1_ピット
  6
Continuous
 62
     2
370
     9
100
AcDbCircle
 10
-43.4849985937038
 20
355.8166006770182
 30
0.0
 40
102.0000040356257
100
AcDbArc
 50
64.80058288574222
 51
72.7525329589844
  0
ARC
  5
2FB
330
1F
100
AcDbEntity
  8
0-1_ピット
  6
Continuous
 62
     2
370
     9
100
AcDbCircle
 10
-43.4849985937038
 20
355.8166006770182
 30
0.0
 40
102.0000040356257
100
AcDbArc
 50
167.2474670410156
 51
175.1994628906249
  0
ARC
  5
2FC
330
1F
100
AcDbEntity
  8
0-1_ピット
  6
Continuous
 62
     2
370
     9
100
AcDbCircle
 10
-43.4849985937038
 20
355.8166006770182
 30
0.0
 40
101.00001796148
100
AcDbArc
 50
168.1216125488282
 51
175.4783782958985
  0
ARC
  5
2FD
330
1F
100
AcDbEntity
  8
0-9
  6
Continuous
 62
     4
370
     9
100
AcDbCircle
 10
45.91496166274758
 20
357.4167171269119
 30
0.0
 40
1.00000000920535
100
AcDbArc
 50
270.0
 51
0.0
  0
ARC
  5
2FE
330
1F
100
AcDbEntity
  8
0-9
  6
Continuous
 62
     4
370
     9
100
AcDbCircle
 10
49.11519456253493
 20
357.4167171269119
 30
0.0
 40
1.00000000920535
100
AcDbArc
 50
180.0
 51
270.0
  0
ARC
  5
2FF
330
1F
100
AcDbEntity
  8
0-9
  6
Continuous
 62
     4
370
     9
100
AcDbCircle
 10
47.51502856576244
 20
355.8166006770182
 30
0.0
 40
5.000000046026753
100
AcDbArc
 50
0.0
 51
180.0
  0
ARC
  5
300
330
1F
100
AcDbEntity
  8
0-1_ピット
  6
Continuous
 62
     2
370
     9
100
AcDbCircle
 10
51.59001161024319
 20
364.8165930181665
 30
0.0
 40
1.00000000920535
100
AcDbArc
 50
305.1406402587891
 51
5.407730102539048
  0
ARC
  5
301
330
1F
100
AcDbEntity
  8
0-1_ピット
  6
Continuous
 62
     2
370
     9
100
AcDbCircle
 10
52.15395418440918
 20
363.8165883639413
 30
0.0
 40
1.00000000920535
100
AcDbArc
 50
276.0271301269531
 51
4.781631469726561
  0
ARC
  5
302
330
1F
100
AcDbEntity
  8
0-9
  6
Continuous
 62
     4
370
     9
100
AcDbCircle
 10
-132.8850083970339
 20
357.4167171269119
 30
0.0
 40
1.00000000920535
100
AcDbArc
 50
180.0
 51
270.0
  0
ARC
  5
303
330
1F
100
AcDbEntity
  8
0-9
  6
Continuous
 62
     4
370
     9
100
AcDbCircle
 10
-136.0852412968212
 20
357.4167171269119
 30
0.0
 40
1.00000000920535
100
AcDbArc
 50
270.0
 51
0.0
  0
ARC
  5
304
330
1F
100
AcDbEntity
  8
0-9
  6
Continuous
 62
     4
370
     9
100
AcDbCircle
 10
-134.4850753000488
 20
355.8166006770182
 30
0.0
 40
5.000000046026753
100
AcDbArc
 50
0.0
 51
180.0
  0
ARC
  5
305
330
1F
100
AcDbEntity
  8
0-1_ピット
  6
Continuous
 62
     2
370
     9
100
AcDbCircle
 10
-138.5600087976508
 20
364.8165930181665
 30
0.0
 40
1.00000000920535
100
AcDbArc
 50
174.5922698974609
 51
234.8582000732422
  0
ARC
  5
306
330
1F
100
AcDbEntity
  8
0-1_ピット
  6
Continuous
 62
     2
370
     9
100
AcDbCircle
 10
-139.1239513718167
 20
363.8165883639413
 30
0.0
 40
1.00000000920535
100
AcDbArc
 50
175.2183685302734
 51
263.9728698730469
  0
ARC
  5
307
330
1F
100
AcDbEntity
  8
0-1_ピット
  6
Continuous
 62
     2
370
     9
100
AcDbCircle
 10
-40.48500940446746
 20
451.7426280707274
 30
0.0
 40
1.00000000920535
100
AcDbArc
 50
88.20921325683592
 51
176.9606475830078
  0
ARC
  5
308
330
1F
100
AcDbEntity
  8
0-1_ピット
  6
Continuous
 62
     2
370
     9
100
AcDbCircle
 10
-46.4849877829401
 20
451.7426280707274
 30
0.0
 40
1.00000000920535
100
AcDbArc
 50
3.039352416992188
 51
91.79078674316408
  0
ARC
  5
309
330
1F
100
AcDbEntity
  8
0-1_ピット
  6
Continuous
 62
     2
370
     9
100
AcDbCircle
 10
-48.48499709139054
 20
451.1856468330287
 30
0.0
 40
1.00000000920535
100
AcDbArc
 50
32.73223876953125
 51
93.00099182128905
  0
ARC
  5
30A
330
1F
100
AcDbEntity
  8
0-1_ピット
  6
Continuous
 62
     2
370
     9
100
AcDbCircle
 10
-38.48502486945637
 20
451.1856468330287
 30
0.0
 40
1.00000000920535
100
AcDbArc
 50
86.99900817871094
 51
147.2700653076172
  0
CIRCLE
  5
30B
330
1F
100
AcDbEntity
  8
0-B
  6
Continuous
 62
     6
370
     5
100
AcDbCircle
 10
11.75942440726526
 20
451.5124084985202
 30
0.0
 40
6.50000160817474
  0
CIRCLE
  5
30C
330
1F
100
AcDbEntity
  8
0-B
  6
Continuous
 62
     6
370
     5
100
AcDbCircle
 10
11.76497365768756
 20
451.5124084985202
 30
0.0
 40
4.000000036821402
  0
CIRCLE
  5
30D
330
1F
100
AcDbEntity
  8
0-B
  6
Continuous
 62
     6
370
     5
100
AcDbCircle
 10
11.76497365768756
 20
451.5124084985202
 30
0.0
 40
3.32350011497851
  0
ARC
  5
30E
330
1F
100
AcDbEntity
  8
0-1_ピット
  6
Continuous
 62
     2
370
     9
100
AcDbCircle
 10
-43.4849985937038
 20
355.8166006770182
 30
0.0
 40
104.0000381175155
100
AcDbArc
 50
55.60906982421877
 51
59.05395507812503
  0
ARC
  5
30F
330
1F
100
AcDbEntity
  8
0-1_ピット
  6
Continuous
 62
     2
370
     9
100
AcDbCircle
 10
-43.4849985937038
 20
355.8166006770182
 30
0.0
 40
104.0000381175155
100
AcDbArc
 50
60.94104003906254
 51
64.39099121093753
  0
ARC
  5
310
330
1F
100
AcDbEntity
  8
0-1_ピット
  6
Continuous
 62
     2
370
     9
100
AcDbCircle
 10
-43.4849985937038
 20
355.8166006770182
 30
0.0
 40
104.4999908977494
100
AcDbArc
 50
61.39530944824222
 51
62.86540222167972
  0
ARC
  5
311
330
1F
100
AcDbEntity
  8
0-1_ピット
  6
Continuous
 62
     2
370
     9
100
AcDbCircle
 10
-43.4849985937038
 20
355.8166006770182
 30
0.0
 40
104.4999908977494
100
AcDbArc
 50
57.1346130371094
 51
58.59976196289065
  0
ARC
  5
312
330
1F
100
AcDbEntity
  8
0-B
  6
Continuous
 62
     6
370
     5
100
AcDbCircle
 10
-153.982218018154
 20
355.8118194032168
 30
0.0
 40
6.50000160817474
100
AcDbArc
 50
0.0421447753906464
 51
179.9578552246094
  0
ARC
  5
313
330
1F
100
AcDbEntity
  8
0-B
  6
Continuous
 62
     6
370
     5
100
AcDbCircle
 10
-153.9849926433652
 20
355.8166254504576
 30
0.0
 40
3.32350011497851
100
AcDbArc
 50
359.9995727539062
 51
180.0004272460938
  0
ARC
  5
314
330
1F
100
AcDbEntity
  8
0-B
  6
Continuous
 62
     6
370
     5
100
AcDbCircle
 10
-153.9849926433652
 20
355.8166254504576
 30
0.0
 40
4.000000036821402
100
AcDbArc
 50
359.9996490478516
 51
180.0003509521485
  0
ARC
  5
315
330
1F
100
AcDbEntity
  8
0-1_ピット
  6
Continuous
 62
     2
370
     9
100
AcDbCircle
 10
-43.4849985937038
 20
355.8166006770182
 30
0.0
 40
104.0000381175155
100
AcDbArc
 50
175.6090698242188
 51
179.0539245605469
  0
ARC
  5
316
330
1F
100
AcDbEntity
  8
0-1_ピット
  6
Continuous
 62
     2
370
     9
100
AcDbCircle
 10
-43.4849985937038
 20
355.8166006770182
 30
0.0
 40
104.4999908977494
100
AcDbArc
 50
177.1345825195313
 51
178.5997314453125
  0
ARC
  5
317
330
1F
100
AcDbEntity
  8
0-2_本体（蓋）
  6
Continuous
 62
     6
370
     5
100
AcDbCircle
 10
51.38325248513386
 20
360.8165744012656
 30
0.0
 40
1.00000000920535
100
AcDbArc
 50
270.0
 51
3.016998291015629
  0
ARC
  5
318
330
1F
100
AcDbEntity
  8
0-2_本体（蓋）
  6
Continuous
 62
     6
370
     5
100
AcDbCircle
 10
-43.48502336714315
 20
355.8166006770182
 30
0.0
 40
96.00000088371365
100
AcDbArc
 50
3.016967773437499
 51
176.9830322265625
  0
ARC
  5
319
330
1F
100
AcDbEntity
  8
0-2_本体（蓋）
  6
Continuous
 62
     6
370
     5
100
AcDbCircle
 10
50.32324656071754
 20
361.8165790554908
 30
0.0
 40
1.00000000920535
100
AcDbArc
 50
270.0
 51
3.659759521484371
  0
ARC
  5
31A
330
1F
100
AcDbEntity
  8
0-2_本体（蓋）
  6
Continuous
 62
     6
370
     5
100
AcDbCircle
 10
-43.48502336714315
 20
355.8166006770182
 30
0.0
 40
95.00000242284827
100
AcDbArc
 50
3.659667968750006
 51
6.042327880859381
  0
ARC
  5
31B
330
1F
100
AcDbEntity
  8
0-2_本体（蓋）
  6
Continuous
 62
     6
370
     5
100
AcDbCircle
 10
32.81065452488637
 20
389.0183109692894
 30
0.0
 40
1.00000000920535
100
AcDbArc
 50
203.5166320800782
 51
287.9993438720703
  0
ARC
  5
31C
330
1F
100
AcDbEntity
  8
0-2_本体（蓋）
  6
Continuous
 62
     6
370
     5
100
AcDbCircle
 10
28.22115191781324
 20
398.0257848891321
 30
0.0
 40
1.00000000920535
100
AcDbArc
 50
125.9990692138672
 51
210.4821624755859
  0
ARC
  5
31D
330
1F
100
AcDbEntity
  8
0-2_本体（蓋）
  6
Continuous
 62
     6
370
     5
100
AcDbCircle
 10
-43.48502336714315
 20
355.8166006770182
 30
0.0
 40
82.20692400398401
100
AcDbArc
 50
23.51733398437501
 51
30.48281860351564
  0
ARC
  5
31E
330
1F
100
AcDbEntity
  8
0-2_本体（蓋）
  6
Continuous
 62
     6
370
     5
100
AcDbCircle
 10
18.8165597646249
 20
410.9701547023221
 30
0.0
 40
1.00000000920535
100
AcDbArc
 50
221.5166320800781
 51
305.9993438720703
  0
ARC
  5
31F
330
1F
100
AcDbEntity
  8
0-2_本体（蓋）
  6
Continuous
 62
     6
370
     5
100
AcDbCircle
 10
11.6682333768881
 20
418.1185306369376
 30
0.0
 40
1.00000000920535
100
AcDbArc
 50
143.9990692138672
 51
228.482162475586
  0
ARC
  5
320
330
1F
100
AcDbEntity
  8
0-2_本体（蓋）
  6
Continuous
 62
     6
370
     5
100
AcDbCircle
 10
-43.48502336714315
 20
355.8166997707757
 30
0.0
 40
82.20692400398401
100
AcDbArc
 50
41.51733398437501
 51
48.48281860351564
  0
ARC
  5
321
330
1F
100
AcDbEntity
  8
0-2_本体（蓋）
  6
Continuous
 62
     6
370
     5
100
AcDbCircle
 10
-1.276062115983741
 20
427.523122790126
 30
0.0
 40
1.00000000920535
100
AcDbArc
 50
239.5166320800782
 51
323.9993438720704
  0
ARC
  5
322
330
1F
100
AcDbEntity
  8
0-2_本体（蓋）
  6
Continuous
 62
     6
370
     5
100
AcDbCircle
 10
-10.28346171550823
 20
432.1126501706385
 30
0.0
 40
1.00000000920535
100
AcDbArc
 50
161.9990692138672
 51
246.4821624755859
  0
ARC
  5
323
330
1F
100
AcDbEntity
  8
0-2_本体（蓋）
  6
Continuous
 62
     6
370
     5
100
AcDbCircle
 10
-43.48502336714315
 20
355.8168979582908
 30
0.0
 40
82.20692400398401
100
AcDbArc
 50
59.51733398437499
 51
66.48281860351561
  0
ARC
  5
324
330
1F
100
AcDbEntity
  8
0-2_本体（蓋）
  6
Continuous
 62
     6
370
     5
100
AcDbCircle
 10
-25.50034867038654
 20
437.0570322969054
 30
0.0
 40
1.00000000920535
100
AcDbArc
 50
257.5166320800781
 51
341.9993438720703
  0
ARC
  5
325
330
1F
100
AcDbEntity
  8
0-2_本体（蓋）
  6
Continuous
 62
     6
370
     5
100
AcDbCircle
 10
-35.48515954741698
 20
438.6384695735026
 30
0.0
 40
1.00000000920535
100
AcDbArc
 50
179.9990692138672
 51
264.4821624755859
  0
ARC
  5
326
330
1F
100
AcDbEntity
  8
0-2_本体（蓋）
  6
Continuous
 62
     6
370
     5
100
AcDbCircle
 10
-43.48502336714315
 20
355.8169970520484
 30
0.0
 40
82.20692400398401
100
AcDbArc
 50
77.51733398437499
 51
84.48281860351561
  0
ARC
  5
327
330
1F
100
AcDbEntity
  8
0-2_本体（蓋）
  6
Continuous
 62
     6
370
     5
100
AcDbCircle
 10
37.75555689338032
 20
373.8021176707139
 30
0.0
 40
1.00000000920535
100
AcDbArc
 50
108.0003204345703
 51
192.4830322265625
  0
ARC
  5
328
330
1F
100
AcDbEntity
  8
0-2_本体（蓋）
  6
Continuous
 62
     6
370
     5
100
AcDbCircle
 10
39.23433303716499
 20
364.8165930181665
 30
0.0
 40
1.00000000920535
100
AcDbArc
 50
186.2087707519532
 51
270.0010070800781
  0
ARC
  5
329
330
1F
100
AcDbEntity
  8
0-2_本体（蓋）
  6
Continuous
 62
     6
370
     5
100
AcDbCircle
 10
-43.48447835147672
 20
355.8174429739573
 30
0.0
 40
82.20692400398401
100
AcDbArc
 50
6.208908081054696
 51
12.48266601562501
  0
ARC
  5
32A
330
1F
100
AcDbEntity
  8
0-2_本体（蓋）
  6
Continuous
 62
     6
370
     5
100
AcDbCircle
 10
-43.48502336714315
 20
355.8166006770182
 30
0.0
 40
84.39750918826542
100
AcDbArc
 50
0.0
 51
6.804779052734375
  0
ARC
  5
32B
330
1F
100
AcDbEntity
  8
0-2_本体（蓋）
  6
Continuous
 62
     6
370
     5
100
AcDbCircle
 10
47.01500146521048
 20
355.8166006770182
 30
0.0
 40
5.000005852301609
100
AcDbArc
 50
90.0
 51
180.0
  0
ARC
  5
32C
330
1F
100
AcDbEntity
  8
0-2_本体（蓋）
  6
Continuous
 62
     6
370
     5
100
AcDbCircle
 10
-138.353348766299
 20
360.8165744012656
 30
0.0
 40
1.00000000920535
100
AcDbArc
 50
176.9830017089844
 51
270.0
  0
ARC
  5
32D
330
1F
100
AcDbEntity
  8
0-2_本体（蓋）
  6
Continuous
 62
     6
370
     5
100
AcDbCircle
 10
-137.293367615322
 20
361.8165790554908
 30
0.0
 40
1.00000000920535
100
AcDbArc
 50
176.3402404785156
 51
270.0
  0
ARC
  5
32E
330
1F
100
AcDbEntity
  8
0-2_本体（蓋）
  6
Continuous
 62
     6
370
     5
100
AcDbCircle
 10
-43.48502336714315
 20
355.8166006770182
 30
0.0
 40
95.00000242284827
100
AcDbArc
 50
173.9576721191407
 51
176.34033203125
  0
ARC
  5
32F
330
1F
100
AcDbEntity
  8
0-2_本体（蓋）
  6
Continuous
 62
     6
370
     5
100
AcDbCircle
 10
-119.7807508060515
 20
389.0183109692894
 30
0.0
 40
1.00000000920535
100
AcDbArc
 50
252.0006561279297
 51
336.4833679199219
  0
ARC
  5
330
330
1F
100
AcDbEntity
  8
0-2_本体（蓋）
  6
Continuous
 62
     6
370
     5
100
AcDbCircle
 10
-115.1911986520996
 20
398.0257848891321
 30
0.0
 40
1.00000000920535
100
AcDbArc
 50
329.5178375244141
 51
54.00093078613281
  0
ARC
  5
331
330
1F
100
AcDbEntity
  8
0-2_本体（蓋）
  6
Continuous
 62
     6
370
     5
100
AcDbCircle
 10
-43.48502336714315
 20
355.8166006770182
 30
0.0
 40
82.20692400398401
100
AcDbArc
 50
149.5171813964844
 51
156.482666015625
  0
ARC
  5
332
330
1F
100
AcDbEntity
  8
0-2_本体（蓋）
  6
Continuous
 62
     6
370
     5
100
AcDbCircle
 10
-105.78665604579
 20
410.9701547023221
 30
0.0
 40
1.00000000920535
100
AcDbArc
 50
234.0006561279297
 51
318.4833679199219
  0
ARC
  5
333
330
1F
100
AcDbEntity
  8
0-2_本体（蓋）
  6
Continuous
 62
     6
370
     5
100
AcDbCircle
 10
-98.63830488461383
 20
418.1185306369376
 30
0.0
 40
1.00000000920535
100
AcDbArc
 50
311.5178375244141
 51
36.00093078613281
  0
ARC
  5
334
330
1F
100
AcDbEntity
  8
0-2_本体（蓋）
  6
Continuous
 62
     6
370
     5
100
AcDbCircle
 10
-43.48502336714315
 20
355.8166997707757
 30
0.0
 40
82.20692400398401
100
AcDbArc
 50
131.5171813964843
 51
138.482666015625
  0
ARC
  5
335
330
1F
100
AcDbEntity
  8
0-2_本体（蓋）
  6
Continuous
 62
     6
370
     5
100
AcDbCircle
 10
-85.69405893862074
 20
427.523122790126
 30
0.0
 40
1.00000000920535
100
AcDbArc
 50
216.0006561279297
 51
300.4833679199219
  0
ARC
  5
336
330
1F
100
AcDbEntity
  8
0-2_本体（蓋）
  6
Continuous
 62
     6
370
     5
100
AcDbCircle
 10
-76.68658501877803
 20
432.1126501706385
 30
0.0
 40
1.00000000920535
100
AcDbArc
 50
293.5178375244141
 51
18.00093078613282
  0
ARC
  5
337
330
1F
100
AcDbEntity
  8
0-2_本体（蓋）
  6
Continuous
 62
     6
370
     5
100
AcDbCircle
 10
-43.48502336714315
 20
355.8168979582908
 30
0.0
 40
82.20692400398401
100
AcDbArc
 50
113.5171813964844
 51
120.482666015625
  0
ARC
  5
338
330
1F
100
AcDbEntity
  8
0-2_本体（蓋）
  6
Continuous
 62
     6
370
     5
100
AcDbCircle
 10
-61.46974761077855
 20
437.0570322969054
 30
0.0
 40
1.00000000920535
100
AcDbArc
 50
198.0006561279297
 51
282.4833679199219
  0
ARC
  5
339
330
1F
100
AcDbEntity
  8
0-2_本体（蓋）
  6
Continuous
 62
     6
370
     5
100
AcDbCircle
 10
-51.4849119603087
 20
438.6384695735026
 30
0.0
 40
1.00000000920535
100
AcDbArc
 50
275.5178375244141
 51
0.0009307861328158
  0
ARC
  5
33A
330
1F
100
AcDbEntity
  8
0-2_本体（蓋）
  6
Continuous
 62
     6
370
     5
100
AcDbCircle
 10
-43.48502336714315
 20
355.8169970520484
 30
0.0
 40
82.20692400398401
100
AcDbArc
 50
95.51718139648439
 51
102.482666015625
  0
ARC
  5
33B
330
1F
100
AcDbEntity
  8
0-2_本体（蓋）
  6
Continuous
 62
     6
370
     5
100
AcDbCircle
 10
-124.7256036276667
 20
373.8021176707139
 30
0.0
 40
1.00000000920535
100
AcDbArc
 50
347.5169677734375
 51
71.99967956542969
  0
ARC
  5
33C
330
1F
100
AcDbEntity
  8
0-2_本体（蓋）
  6
Continuous
 62
     6
370
     5
100
AcDbCircle
 10
-126.2044293183301
 20
364.8165930181665
 30
0.0
 40
1.00000000920535
100
AcDbArc
 50
269.9989929199219
 51
353.7912292480469
  0
ARC
  5
33D
330
1F
100
AcDbEntity
  8
0-2_本体（蓋）
  6
Continuous
 62
     6
370
     5
100
AcDbCircle
 10
-43.48556838280964
 20
355.8174429739573
 30
0.0
 40
82.20692400398401
100
AcDbArc
 50
167.517333984375
 51
173.7910919189453
  0
ARC
  5
33E
330
1F
100
AcDbEntity
  8
0-2_本体（蓋）
  6
Continuous
 62
     6
370
     5
100
AcDbCircle
 10
-43.48502336714315
 20
355.8166006770182
 30
0.0
 40
84.39750918826542
100
AcDbArc
 50
173.1952209472656
 51
180.0
  0
ARC
  5
33F
330
1F
100
AcDbEntity
  8
0-2_本体（蓋）
  6
Continuous
 62
     6
370
     5
100
AcDbCircle
 10
-133.9850234260574
 20
355.8166006770182
 30
0.0
 40
5.000005852301609
100
AcDbArc
 50
0.0
 51
90.0
  0
ARC
  5
340
330
1F
100
AcDbEntity
  8
0-2_本体（蓋）
  6
Continuous
 62
     6
370
     5
100
AcDbCircle
 10
-43.48502336714315
 20
355.8166006770182
 30
0.0
 40
78.02848707663047
100
AcDbArc
 50
0.0
 51
88.89852905273438
  0
ARC
  5
341
330
1F
100
AcDbEntity
  8
0-2_本体（蓋）
  6
Continuous
 62
     6
370
     5
100
AcDbCircle
 10
-43.48502336714315
 20
355.8166006770182
 30
0.0
 40
78.02848707663047
100
AcDbArc
 50
91.10147094726568
 51
180.0000000000001
  0
ARC
  5
342
330
1F
100
AcDbEntity
  8
0-2_本体（蓋）
  6
Continuous
 62
     6
370
     5
100
AcDbCircle
 10
-43.48502336714314
 20
433.8594749285717
 30
0.0
 40
1.500000013808026
100
AcDbArc
 50
180.0
 51
359.4492645263672
  0
ARC
  5
343
330
1F
100
AcDbEntity
  8
0-2_本体（蓋）
  6
Continuous
 62
     6
370
     5
100
AcDbCircle
 10
-43.48502336714315
 20
355.8166006770182
 30
0.0
 40
84.49998452028252
100
AcDbArc
 50
7.479843139648431
 51
86.73126220703124
  0
ARC
  5
344
330
1F
100
AcDbEntity
  8
0-2_本体（蓋）
  6
Continuous
 62
     6
370
     5
100
AcDbCircle
 10
-43.48502336714315
 20
355.8166006770182
 30
0.0
 40
84.49998452028252
100
AcDbArc
 50
93.26870727539062
 51
172.5201568603516
  0
ARC
  5
345
330
1F
100
AcDbEntity
  8
0-2_本体（蓋）
  6
Continuous
 62
     6
370
     5
100
AcDbCircle
 10
-43.48502336714314
 20
434.6669899587735
 30
0.0
 40
1.500000013808026
100
AcDbArc
 50
190.4199523925781
 51
349.5813598632812
  0
ARC
  5
346
330
1F
100
AcDbEntity
  8
0-1_ピット
  6
Continuous
 62
     2
370
     9
100
AcDbCircle
 10
-9.485013764121454
 20
414.7063114163307
 30
0.0
 40
12.00000011046421
100
AcDbArc
 50
198.1558380126953
 51
281.8441314697266
  0
ARC
  5
347
330
1F
100
AcDbEntity
  8
0-1_ピット
  6
Continuous
 62
     2
370
     9
100
AcDbCircle
 10
-9.485013764121454
 20
414.7063114163307
 30
0.0
 40
12.99998463626994
100
AcDbArc
 50
194.5714874267579
 51
285.4285278320312
  0
ARC
  5
348
330
1F
100
AcDbEntity
  8
0-1_ピット
  6
Continuous
 62
     2
370
     9
100
AcDbCircle
 10
-111.4850177997472
 20
355.8165759035788
 30
0.0
 40
12.00000011046421
100
AcDbArc
 50
0.0
 51
41.84410095214844
  0
ARC
  5
349
330
1F
100
AcDbEntity
  8
0-1_ピット
  6
Continuous
 62
     2
370
     9
100
AcDbCircle
 10
-111.4850177997472
 20
355.8165759035788
 30
0.0
 40
12.99998463626994
100
AcDbArc
 50
0.00006103515625
 51
45.42849731445312
  0
ARC
  5
34A
330
1F
100
AcDbEntity
  8
0-1_ピット
  6
Continuous
 62
     2
370
     9
100
AcDbCircle
 10
-43.48502336714315
 20
355.8166006770182
 30
0.0
 40
83.41153249409207
100
AcDbArc
 50
171.7284545898438
 51
174.4963073730469
  0
ELLIPSE
  5
34B
330
1F
100
AcDbEntity
  8
0-A
  6
Continuous
 62
     4
370
     9
100
AcDbEllipse
 10
-43.48502336714314
 20
439.1372084552065
 30
0.0
 11
-5.250011660877802
 21
6.429197637552528E-16
 31
0.0
210
0.0
220
0.0
230
1.0
 40
0.1013
 41
0.0
 42
3.141592653589792
  0
ELLIPSE
  5
34C
330
1F
100
AcDbEntity
  8
0-A
  6
Continuous
 62
     4
370
     9
100
AcDbEllipse
 10
-43.48502336714314
 20
427.1990366560881
 30
0.0
 11
-2.999836677596492
 21
-3.035838360289961E-5
 31
0.0
210
0.0
220
0.0
230
1.0
 40
0.1013
 41
0.0
 42
3.141592653589792
  0
ELLIPSE
  5
34D
330
1F
100
AcDbEntity
  8
0-A
  6
Continuous
 62
     4
370
     9
100
AcDbEllipse
 10
-43.48502336714314
 20
434.6604002238969
 30
0.0
 11
-2.999836677596492
 21
-3.035838360289961E-5
 31
0.0
210
0.0
220
0.0
230
1.0
 40
0.1013
 41
0.0
 42
3.141592653589792
  0
ARC
  5
34E
330
1F
100
AcDbEntity
  8
0-A
  6
Continuous
 62
     4
370
     9
100
AcDbCircle
 10
-43.48502336714314
 20
437.5712298047857
 30
0.0
 40
5.478573348071124
100
AcDbArc
 50
16.60847473144531
 51
84.76361083984374
  0
ARC
  5
34F
330
1F
100
AcDbEntity
  8
0-A
  6
Continuous
 62
     4
370
     9
100
AcDbCircle
 10
-43.48502336714314
 20
437.5712298047857
 30
0.0
 40
5.478573348071124
100
AcDbArc
 50
95.23638916015625
 51
163.3915252685547
  0
ARC
  5
350
330
1F
100
AcDbEntity
  8
0-2_本体（蓋）
  6
Continuous
 62
     6
370
     5
100
AcDbCircle
 10
-43.48502336714315
 20
355.8166006770182
 30
0.0
 40
72.50000298989785
100
AcDbArc
 50
0.0
 51
180.0
  0
ARC
  5
351
330
1F
100
AcDbEntity
  8
0-0_通り芯
  6
Continuous
 62
     3
370
     9
100
AcDbCircle
 10
-43.4849985937038
 20
355.8165759035788
 30
0.0
 40
51.74998073504238
100
AcDbArc
 50
0.0
 51
180.0
  0
ARC
  5
352
330
1F
100
AcDbEntity
  8
0-0_通り芯
  6
Continuous
 62
     3
370
     9
100
AcDbCircle
 10
-43.4849985937038
 20
355.8165759035788
 30
0.0
 40
57.14992163816474
100
AcDbArc
 50
0.0
 51
53.4150390625
  0
ARC
  5
353
330
1F
100
AcDbEntity
  8
0-0_通り芯
  6
Continuous
 62
     3
370
     9
100
AcDbCircle
 10
-43.4849985937038
 20
355.8165759035788
 30
0.0
 40
57.14992163816474
100
AcDbArc
 50
66.58499145507814
 51
173.4150543212891
  0
LINE
  5
354
330
1F
100
AcDbEntity
  8
0-6
  6
JWW_DASHED1
 62
     4
370
     9
100
AcDbLine
 10
-30.9849899627671
 20
443.8380181254375
 30
0.0
 11
-30.9849899627671
 21
439.3868256304523
 31
0.0
  0
LINE
  5
355
330
1F
100
AcDbEntity
  8
0-6
  6
Continuous
 62
     4
370
     9
100
AcDbLine
 10
-30.9849899627671
 20
439.3868256304523
 30
0.0
 11
-30.9849899627671
 21
437.0680317039925
 31
0.0
  0
LINE
  5
356
330
1F
100
AcDbEntity
  8
0-6
  6
JWW_DASHED1
 62
     4
370
     9
100
AcDbLine
 10
-30.9849899627671
 20
437.0680317039925
 30
0.0
 11
-30.9849899627671
 21
430.2746591557676
 31
0.0
  0
LINE
  5
357
330
1F
100
AcDbEntity
  8
0-6
  6
JWW_DASHED1
 62
     4
370
     9
100
AcDbLine
 10
-55.98505677151923
 20
443.8380181254375
 30
0.0
 11
-55.98505677151923
 21
439.3868256304523
 31
0.0
  0
LINE
  5
358
330
1F
100
AcDbEntity
  8
0-6
  6
JWW_DASHED1
 62
     4
370
     9
100
AcDbLine
 10
-55.98505677151923
 20
437.0680317039925
 30
0.0
 11
-55.98505677151923
 21
430.2746591557676
 31
0.0
  0
LINE
  5
359
330
1F
100
AcDbEntity
  8
0-6
  6
Continuous
 62
     4
370
     9
100
AcDbLine
 10
-55.98505677151923
 20
439.3868256304523
 30
0.0
 11
-55.98505677151923
 21
437.0680317039925
 31
0.0
  0
ARC
  5
35A
330
1F
100
AcDbEntity
  8
0-6
  6
JWW_DASHED1
 62
     4
370
     9
100
AcDbCircle
 10
-52.98504280884351
 20
443.8380181254375
 30
0.0
 40
3.000000027616052
100
AcDbArc
 50
95.95938110351562
 51
180.0
  0
ARC
  5
35B
330
1F
100
AcDbEntity
  8
0-6
  6
JWW_DASHED1
 62
     4
370
     9
100
AcDbCircle
 10
-33.98500392544282
 20
443.8380181254375
 30
0.0
 40
3.000000027616052
100
AcDbArc
 50
0.0
 51
84.04061889648438
  0
ARC
  5
35C
330
1F
100
AcDbEntity
  8
0-6
  6
JWW_DASHED1
 62
     4
370
     9
100
AcDbCircle
 10
-43.48502336714315
 20
352.8324912624278
 30
0.0
 40
94.50000009573564
100
AcDbArc
 50
84.04051208496094
 51
95.95948791503906
  0
ARC
  5
35D
330
1F
100
AcDbEntity
  8
0-6
  6
Continuous
 62
     4
370
     9
100
AcDbCircle
 10
-43.48502336714315
 20
355.8166006770182
 30
0.0
 40
59.6005040687944
100
AcDbArc
 50
0.0
 51
180.0
  0
ARC
  5
35E
330
1F
100
AcDbEntity
  8
0-6
  6
JWW_DASHED1
 62
     4
370
     9
100
AcDbCircle
 10
-43.48502336714315
 20
355.8166006770182
 30
0.0
 40
75.50002314593341
100
AcDbArc
 50
0.0
 51
180.0
  0
ARC
  5
35F
330
1F
100
AcDbEntity
  8
0-6
  6
JWW_DASHED1
 62
     4
370
     9
100
AcDbCircle
 10
-43.48502336714315
 20
355.8166006770182
 30
0.0
 40
74.95046155333058
100
AcDbArc
 50
0.0
 51
180.0
  0
LINE
  5
360
330
1F
100
AcDbEntity
  8
0-A
  6
Continuous
 62
     4
370
     9
100
AcDbLine
 10
-179.5503893388888
 20
386.5811743228861
 30
0.0
 11
-182.9336979557332
 21
387.4877335637501
 31
0.0
  0
LINE
  5
361
330
1F
100
AcDbEntity
  8
0-A
  6
Continuous
 62
     4
370
     9
100
AcDbLine
 10
-177.278863134776
 20
387.5254635119339
 30
0.0
 11
-184.526233733175
 21
389.467379105026
 31
0.0
  0
LINE
  5
362
330
1F
100
AcDbEntity
  8
0-A
  6
Continuous
 62
     4
370
     9
100
AcDbLine
 10
-182.9336979557332
 20
387.4877335637501
 30
0.0
 11
-184.526233733175
 21
389.467379105026
 31
0.0
  0
LINE
  5
363
330
1F
100
AcDbEntity
  8
0-A
  6
Continuous
 62
     4
370
     9
100
AcDbLine
 10
-177.278863134776
 20
387.5254635119339
 30
0.0
 11
-179.5503893388888
 21
386.5811743228861
 31
0.0
  0
LINE
  5
364
330
1F
100
AcDbEntity
  8
0-A
  6
Continuous
 62
     4
370
     9
100
AcDbLine
 10
92.58039215148128
 20
386.5811990963255
 30
0.0
 11
95.96370076832565
 21
387.4877831106289
 31
0.0
  0
LINE
  5
365
330
1F
100
AcDbEntity
  8
0-A
  6
Continuous
 62
     4
370
     9
100
AcDbLine
 10
97.55618699888865
 20
389.4673791050259
 30
0.0
 11
95.96370076832565
 21
387.4877831106289
 31
0.0
  0
LINE
  5
366
330
1F
100
AcDbEntity
  8
0-A
  6
Continuous
 62
     4
370
     9
100
AcDbLine
 10
92.58039215148128
 20
386.5811990963255
 30
0.0
 11
90.30886594736839
 21
387.5254635119339
 31
0.0
  0
LINE
  5
367
330
1F
100
AcDbEntity
  8
0-A
  6
Continuous
 62
     4
370
     9
100
AcDbLine
 10
89.73332940357014
 20
397.2064033814647
 30
0.0
 11
93.11668756729327
 21
398.1129626223287
 31
0.0
  0
LINE
  5
368
330
1F
100
AcDbEntity
  8
0-A
  6
Continuous
 62
     4
370
     9
100
AcDbLine
 10
58.96878053114164
 20
450.492213491196
 30
0.0
 11
61.44552990712196
 21
452.9689876406158
 31
0.0
  0
LINE
  5
369
330
1F
100
AcDbEntity
  8
0-A
  6
Continuous
 62
     4
370
     9
100
AcDbLine
 10
56.52948859551184
 20
450.1741968498075
 30
0.0
 11
61.83486928050063
 21
455.4796518551145
 31
0.0
  0
LINE
  5
36A
330
1F
100
AcDbEntity
  8
0-A
  6
Continuous
 62
     4
370
     9
100
AcDbLine
 10
88.2383018835487
 20
395.252869045301
 30
0.0
 11
95.48567248194777
 21
397.1948094118325
 31
0.0
  0
LINE
  5
36B
330
1F
100
AcDbEntity
  8
0-A
  6
Continuous
 62
     4
370
     9
100
AcDbLine
 10
93.11668756729327
 20
398.1129626223287
 30
0.0
 11
95.48567248194777
 21
397.1948094118325
 31
0.0
  0
LINE
  5
36C
330
1F
100
AcDbEntity
  8
0-A
  6
Continuous
 62
     4
370
     9
100
AcDbLine
 10
88.2383018835487
 20
395.252869045301
 30
0.0
 11
89.73332940357014
 21
397.2064033814647
 31
0.0
  0
LINE
  5
36D
330
1F
100
AcDbEntity
  8
0-A
  6
Continuous
 62
     4
370
     9
100
AcDbLine
 10
61.83486928050063
 20
455.4796518551145
 30
0.0
 11
61.44552990712196
 21
452.9689876406158
 31
0.0
  0
LINE
  5
36E
330
1F
100
AcDbEntity
  8
0-A
  6
Continuous
 62
     4
370
     9
100
AcDbLine
 10
58.96878053114164
 20
450.492213491196
 30
0.0
 11
56.52948859551184
 21
450.1741968498075
 31
0.0
  0
LINE
  5
36F
330
1F
100
AcDbEntity
  8
0-A
  6
Continuous
 62
     4
370
     9
100
AcDbLine
 10
51.19061422047411
 20
458.2703798018636
 30
0.0
 11
53.66736359645443
 21
460.7471539512833
 31
0.0
  0
LINE
  5
370
330
1F
100
AcDbEntity
  8
0-A
  6
Continuous
 62
     4
370
     9
100
AcDbLine
 10
-2.09522066269659
 20
489.0349782211708
 30
0.0
 11
-1.188686195271934
 21
492.4183116114547
 31
0.0
  0
LINE
  5
371
330
1F
100
AcDbEntity
  8
0-A
  6
Continuous
 62
     4
370
     9
100
AcDbLine
 10
-4.048754998860318
 20
487.5399011542707
 30
0.0
 11
-2.106864179207655
 21
494.7872965261091
 31
0.0
  0
LINE
  5
372
330
1F
100
AcDbEntity
  8
0-A
  6
Continuous
 62
     4
370
     9
100
AcDbLine
 10
50.87257280564619
 20
455.8310878662338
 30
0.0
 11
56.1780030375138
 21
461.136493324662
 31
0.0
  0
LINE
  5
373
330
1F
100
AcDbEntity
  8
0-A
  6
Continuous
 62
     4
370
     9
100
AcDbLine
 10
53.66736359645443
 20
460.7471539512833
 30
0.0
 11
56.1780030375138
 21
461.136493324662
 31
0.0
  0
LINE
  5
374
330
1F
100
AcDbEntity
  8
0-A
  6
Continuous
 62
     4
370
     9
100
AcDbLine
 10
50.87257280564619
 20
455.8310878662338
 30
0.0
 11
51.19061422047411
 21
458.2703798018636
 31
0.0
  0
LINE
  5
375
330
1F
100
AcDbEntity
  8
0-A
  6
Continuous
 62
     4
370
     9
100
AcDbLine
 10
-2.106864179207655
 20
494.7872965261091
 30
0.0
 11
-1.188686195271934
 21
492.4183116114547
 31
0.0
  0
LINE
  5
376
330
1F
100
AcDbEntity
  8
0-A
  6
Continuous
 62
     4
370
     9
100
AcDbLine
 10
-2.09522066269659
 20
489.0349782211708
 30
0.0
 11
-4.048754998860318
 21
487.5399011542707
 31
0.0
  0
LINE
  5
377
330
1F
100
AcDbEntity
  8
0-A
  6
Continuous
 62
     4
370
     9
100
AcDbLine
 10
-12.72044972127525
 20
491.8819914222032
 30
0.0
 11
-11.8138904804112
 21
495.265324812487
 31
0.0
  0
LINE
  5
378
330
1F
100
AcDbEntity
  8
0-A
  6
Continuous
 62
     4
370
     9
100
AcDbLine
 10
-74.24959701301105
 20
491.8819914222032
 30
0.0
 11
-75.15618102731446
 21
495.265324812487
 31
0.0
  0
LINE
  5
379
330
1F
100
AcDbEntity
  8
0-A
  6
Continuous
 62
     4
370
     9
100
AcDbLine
 10
-75.19386142861947
 20
489.6104899915298
 30
0.0
 11
-77.13580179515088
 21
496.85781104305
 31
0.0
  0
LINE
  5
37A
330
1F
100
AcDbEntity
  8
0-A
  6
Continuous
 62
     4
370
     9
100
AcDbLine
 10
-11.77616053222743
 20
489.6104899915298
 30
0.0
 11
-9.834244939135424
 21
496.85781104305
 31
0.0
  0
LINE
  5
37B
330
1F
100
AcDbEntity
  8
0-A
  6
Continuous
 62
     4
370
     9
100
AcDbLine
 10
-11.8138904804112
 20
495.265324812487
 30
0.0
 11
-9.834244939135424
 21
496.85781104305
 31
0.0
  0
LINE
  5
37C
330
1F
100
AcDbEntity
  8
0-A
  6
Continuous
 62
     4
370
     9
100
AcDbLine
 10
-11.77616053222743
 20
489.6104899915298
 30
0.0
 11
-12.72044972127525
 21
491.8819914222032
 31
0.0
  0
LINE
  5
37D
330
1F
100
AcDbEntity
  8
0-A
  6
Continuous
 62
     4
370
     9
100
AcDbLine
 10
-77.13580179515088
 20
496.85781104305
 30
0.0
 11
-75.15618102731446
 21
495.265324812487
 31
0.0
  0
LINE
  5
37E
330
1F
100
AcDbEntity
  8
0-A
  6
Continuous
 62
     4
370
     9
100
AcDbLine
 10
-74.24959701301105
 20
491.8819914222032
 30
0.0
 11
-75.19386142861947
 21
489.6104899915298
 31
0.0
  0
LINE
  5
37F
330
1F
100
AcDbEntity
  8
0-A
  6
Continuous
 62
     4
370
     9
100
AcDbLine
 10
-84.87480129815032
 20
489.0349782211708
 30
0.0
 11
-85.78138531245378
 21
492.4183116114547
 31
0.0
  0
LINE
  5
380
330
1F
100
AcDbEntity
  8
0-A
  6
Continuous
 62
     4
370
     9
100
AcDbLine
 10
-138.1606114078816
 20
458.2703798018636
 30
0.0
 11
-140.6373855573013
 21
460.7471291778439
 31
0.0
  0
LINE
  5
381
330
1F
100
AcDbEntity
  8
0-A
  6
Continuous
 62
     4
370
     9
100
AcDbLine
 10
-137.8426195399325
 20
455.8310878662338
 30
0.0
 11
-143.1480497718001
 21
461.136493324662
 31
0.0
  0
LINE
  5
382
330
1F
100
AcDbEntity
  8
0-A
  6
Continuous
 62
     4
370
     9
100
AcDbLine
 10
-82.921291735426
 20
487.5399011542707
 30
0.0
 11
-84.86318255507865
 21
494.7872965261091
 31
0.0
  0
LINE
  5
383
330
1F
100
AcDbEntity
  8
0-A
  6
Continuous
 62
     4
370
     9
100
AcDbLine
 10
-85.78138531245378
 20
492.4183116114547
 30
0.0
 11
-84.86318255507865
 21
494.7872965261091
 31
0.0
  0
LINE
  5
384
330
1F
100
AcDbEntity
  8
0-A
  6
Continuous
 62
     4
370
     9
100
AcDbLine
 10
-82.921291735426
 20
487.5399011542707
 30
0.0
 11
-84.87480129815032
 21
489.0349782211708
 31
0.0
  0
LINE
  5
385
330
1F
100
AcDbEntity
  8
0-A
  6
Continuous
 62
     4
370
     9
100
AcDbLine
 10
-143.1480497718001
 20
461.136493324662
 30
0.0
 11
-140.6373855573013
 21
460.7471291778439
 31
0.0
  0
LINE
  5
386
330
1F
100
AcDbEntity
  8
0-A
  6
Continuous
 62
     4
370
     9
100
AcDbLine
 10
-138.1606114078816
 20
458.2703798018636
 30
0.0
 11
-137.8426195399325
 21
455.8310878662338
 31
0.0
  0
LINE
  5
387
330
1F
100
AcDbEntity
  8
0-A
  6
Continuous
 62
     4
370
     9
100
AcDbLine
 10
-145.9388024919886
 20
450.4922134911961
 30
0.0
 11
-148.4155766414083
 21
452.968938093737
 31
0.0
  0
LINE
  5
388
330
1F
100
AcDbEntity
  8
0-A
  6
Continuous
 62
     4
370
     9
100
AcDbLine
 10
-176.7033761378565
 20
397.2064033814647
 30
0.0
 11
-180.0866847547009
 21
398.11291307545
 31
0.0
  0
LINE
  5
389
330
1F
100
AcDbEntity
  8
0-A
  6
Continuous
 62
     4
370
     9
100
AcDbLine
 10
-175.2083486178351
 20
395.252869045301
 30
0.0
 11
-182.4556696693553
 21
397.1948094118325
 31
0.0
  0
LINE
  5
38A
330
1F
100
AcDbEntity
  8
0-A
  6
Continuous
 62
     4
370
     9
100
AcDbLine
 10
-143.4994857829194
 20
450.1741968498076
 30
0.0
 11
-148.804916014787
 21
455.4796518551145
 31
0.0
  0
LINE
  5
38B
330
1F
100
AcDbEntity
  8
0-A
  6
Continuous
 62
     4
370
     9
100
AcDbLine
 10
-148.4155766414083
 20
452.968938093737
 30
0.0
 11
-148.804916014787
 21
455.4796518551145
 31
0.0
  0
LINE
  5
38C
330
1F
100
AcDbEntity
  8
0-A
  6
Continuous
 62
     4
370
     9
100
AcDbLine
 10
-143.4994857829194
 20
450.1741968498076
 30
0.0
 11
-145.9388024919886
 21
450.4922134911961
 31
0.0
  0
LINE
  5
38D
330
1F
100
AcDbEntity
  8
0-A
  6
Continuous
 62
     4
370
     9
100
AcDbLine
 10
-182.4556696693553
 20
397.1948094118325
 30
0.0
 11
-180.0866847547009
 21
398.11291307545
 31
0.0
  0
LINE
  5
38E
330
1F
100
AcDbEntity
  8
0-A
  6
Continuous
 62
     4
370
     9
100
AcDbLine
 10
-176.7033761378565
 20
397.2064033814647
 30
0.0
 11
-175.2083486178351
 21
395.252869045301
 31
0.0
  0
LINE
  5
38F
330
1F
100
AcDbEntity
  8
0-A
  6
Continuous
 62
     4
370
     9
100
AcDbLine
 10
-148.4850165920052
 20
362.8166084831554
 30
0.0
 11
-148.4850165920052
 21
366.816602326617
 31
0.0
  0
LINE
  5
390
330
1F
100
AcDbEntity
  8
0-A
  6
Continuous
 62
     4
370
     9
100
AcDbLine
 10
15.07718250349625
 20
443.2492525650076
 30
0.0
 11
18.54127730617596
 21
441.2492680299965
 31
0.0
  0
LINE
  5
391
330
1F
100
AcDbEntity
  8
0-A
  6
Continuous
 62
     4
370
     9
100
AcDbLine
 10
2.952763987079429
 20
450.2492851445842
 30
0.0
 11
-0.511306042160875
 21
452.2492696795953
 31
0.0
  0
LINE
  5
392
330
1F
100
AcDbEntity
  8
0-A
  6
Continuous
 62
     4
370
     9
100
AcDbLine
 10
90.30886594736839
 20
387.5254635119339
 30
0.0
 11
97.55618699888865
 21
389.4673791050259
 31
0.0
  0
LINE
  5
393
330
1F
100
AcDbEntity
  8
0-A
  6
Continuous
 62
     4
370
     9
100
AcDbLine
 10
67.45001705156272
 20
431.4120077579447
 30
0.0
 11
57.76157082989811
 21
425.8183881057084
 31
0.0
  0
LINE
  5
394
330
1F
100
AcDbEntity
  8
0-A
  6
JWW_HOJO
 62
     4
370
     9
100
AcDbLine
 10
57.76152128301936
 20
425.818363332269
 30
0.0
 11
56.57190072373935
 21
425.1315197253128
 31
0.0
  0
LINE
  5
395
330
1F
100
AcDbEntity
  8
0-A
  6
JWW_HOJO
 62
     4
370
     9
100
AcDbLine
 10
55.96445599001293
 20
422.4714468978815
 30
0.0
 11
54.56614397735154
 21
421.6640309614373
 31
0.0
  0
LINE
  5
396
330
1F
100
AcDbEntity
  8
0-A
  6
Continuous
 62
     4
370
     9
100
AcDbLine
 10
54.56609443047278
 20
421.6640309614373
 30
0.0
 11
53.80629304452696
 21
421.2253428968032
 31
0.0
  0
LINE
  5
397
330
1F
100
AcDbEntity
  8
0-A
  6
JWW_HOJO
 62
     4
370
     9
100
AcDbLine
 10
53.80629304452696
 20
421.2253428968032
 30
0.0
 11
52.42358829867828
 21
420.4270435860527
 31
0.0
  0
LINE
  5
398
330
1F
100
AcDbEntity
  8
0-A
  6
Continuous
 62
     4
370
     9
100
AcDbLine
 10
69.60723860635204
 20
429.1933480734799
 30
0.0
 11
56.77816438006101
 21
421.786510845758
 31
0.0
  0
LINE
  5
399
330
1F
100
AcDbEntity
  8
0-A
  6
JWW_HOJO
 62
     4
370
     9
100
AcDbLine
 10
56.77816438006101
 20
421.786510845758
 30
0.0
 11
55.40908502587421
 21
420.9960399418533
 31
0.0
  0
LINE
  5
39A
330
1F
100
AcDbEntity
  8
0-A
  6
Continuous
 62
     4
370
     9
100
AcDbLine
 10
77.45006359381512
 20
414.0914841976674
 30
0.0
 11
67.7615678252717
 21
408.4978397719917
 31
0.0
  0
LINE
  5
39B
330
1F
100
AcDbEntity
  8
0-A
  6
JWW_HOJO
 62
     4
370
     9
100
AcDbLine
 10
67.7615678252717
 20
408.4978397719917
 30
0.0
 11
66.57194726599175
 21
407.8109713915961
 31
0.0
  0
LINE
  5
39C
330
1F
100
AcDbEntity
  8
0-A
  6
JWW_HOJO
 62
     4
370
     9
100
AcDbLine
 10
63.96449322381476
 20
408.6149685934052
 30
0.0
 11
62.56613166427461
 21
407.8077012975972
 31
0.0
  0
LINE
  5
39D
330
1F
100
AcDbEntity
  8
0-A
  6
Continuous
 62
     4
370
     9
100
AcDbLine
 10
62.56613166427461
 20
407.8076517507185
 30
0.0
 11
61.80628073145009
 21
407.3689636860844
 31
0.0
  0
LINE
  5
39E
330
1F
100
AcDbEntity
  8
0-A
  6
JWW_HOJO
 62
     4
370
     9
100
AcDbLine
 10
61.80628073145009
 20
407.3689884595237
 30
0.0
 11
60.42357598560141
 21
406.5706643753339
 31
0.0
  0
LINE
  5
39F
330
1F
100
AcDbEntity
  8
0-A
  6
Continuous
 62
     4
370
     9
100
AcDbLine
 10
76.6072216390499
 20
417.0689791039419
 30
0.0
 11
63.77819695963768
 21
409.6620923293412
 31
0.0
  0
LINE
  5
3A0
330
1F
100
AcDbEntity
  8
0-A
  6
JWW_HOJO
 62
     4
370
     9
100
AcDbLine
 10
63.77819695963768
 20
409.6620923293412
 30
0.0
 11
62.40911760545088
 21
408.8716709723152
 31
0.0
  0
LINE
  5
3A1
330
1F
100
AcDbEntity
  8
0-A
  6
Continuous
 62
     4
370
     9
100
AcDbLine
 10
-53.48502036251671
 20
489.6868665051545
 30
0.0
 11
-53.48502036251671
 21
478.4996024272425
 31
0.0
  0
LINE
  5
3A2
330
1F
100
AcDbEntity
  8
0-A
  6
JWW_HOJO
 62
     4
370
     9
100
AcDbLine
 10
-53.48502036251671
 20
478.4995776538032
 30
0.0
 11
-53.48504513595611
 21
477.1259152133301
 31
0.0
  0
LINE
  5
3A3
330
1F
100
AcDbEntity
  8
0-A
  6
JWW_HOJO
 62
     4
370
     9
100
AcDbLine
 10
-51.48503582750561
 20
475.2697900408292
 30
0.0
 11
-51.48501105406626
 21
473.6551315820163
 31
0.0
  0
LINE
  5
3A4
330
1F
100
AcDbEntity
  8
0-A
  6
Continuous
 62
     4
370
     9
100
AcDbLine
 10
-51.48503582750561
 20
473.6550820351376
 30
0.0
 11
-51.48501105406626
 21
472.77768113243
 31
0.0
  0
LINE
  5
3A5
330
1F
100
AcDbEntity
  8
0-A
  6
JWW_HOJO
 62
     4
370
     9
100
AcDbLine
 10
-51.48498628062686
 20
472.7777306793088
 30
0.0
 11
-51.48498628062686
 21
471.1811320578078
 31
0.0
  0
LINE
  5
3A6
330
1F
100
AcDbEntity
  8
0-A
  6
Continuous
 62
     4
370
     9
100
AcDbLine
 10
-50.48503117328039
 20
490.4457265004037
 30
0.0
 11
-50.48503117328039
 21
475.632002498081
 31
0.0
  0
LINE
  5
3A7
330
1F
100
AcDbEntity
  8
0-A
  6
JWW_HOJO
 62
     4
370
     9
100
AcDbLine
 10
-50.48503117328039
 20
475.632002498081
 30
0.0
 11
-50.48503117328039
 21
474.0511350105897
 31
0.0
  0
LINE
  5
3A8
330
1F
100
AcDbEntity
  8
0-A
  6
Continuous
 62
     4
370
     9
100
AcDbLine
 10
-33.4850015983302
 20
489.6868912785939
 30
0.0
 11
-33.4850015983302
 21
478.4996024272425
 31
0.0
  0
LINE
  5
3A9
330
1F
100
AcDbEntity
  8
0-A
  6
JWW_HOJO
 62
     4
370
     9
100
AcDbLine
 10
-33.4850015983302
 20
478.4995776538032
 30
0.0
 11
-33.4850015983302
 21
477.1259152133301
 31
0.0
  0
LINE
  5
3AA
330
1F
100
AcDbEntity
  8
0-A
  6
JWW_HOJO
 62
     4
370
     9
100
AcDbLine
 10
-35.48498613334124
 20
475.269839587708
 30
0.0
 11
-35.48503568022005
 21
473.6551315820163
 31
0.0
  0
LINE
  5
3AB
330
1F
100
AcDbEntity
  8
0-A
  6
Continuous
 62
     4
370
     9
100
AcDbLine
 10
-35.48501090678064
 20
473.6550820351376
 30
0.0
 11
-35.48501090678064
 21
472.77768113243
 31
0.0
  0
LINE
  5
3AC
330
1F
100
AcDbEntity
  8
0-A
  6
JWW_HOJO
 62
     4
370
     9
100
AcDbLine
 10
-35.48503568022005
 20
472.7777306793088
 30
0.0
 11
-35.48503568022005
 21
471.1811072843684
 31
0.0
  0
LINE
  5
3AD
330
1F
100
AcDbEntity
  8
0-A
  6
Continuous
 62
     4
370
     9
100
AcDbLine
 10
-36.48501556100587
 20
490.4457017269643
 30
0.0
 11
-36.48499078756652
 21
475.632002498081
 31
0.0
  0
LINE
  5
3AE
330
1F
100
AcDbEntity
  8
0-A
  6
JWW_HOJO
 62
     4
370
     9
100
AcDbLine
 10
-36.48499078756652
 20
475.632002498081
 30
0.0
 11
-36.48501556100587
 21
474.0511350105897
 31
0.0
  0
LINE
  5
3AF
330
1F
100
AcDbEntity
  8
0-A
  6
Continuous
 62
     4
370
     9
100
AcDbLine
 10
-164.4200607812226
 20
414.0914841976674
 30
0.0
 11
-154.731614559558
 21
408.4978397719917
 31
0.0
  0
LINE
  5
3B0
330
1F
100
AcDbEntity
  8
0-A
  6
JWW_HOJO
 62
     4
370
     9
100
AcDbLine
 10
-154.7315897861186
 20
408.4978397719917
 30
0.0
 11
-153.5419692268386
 21
407.8109713915961
 31
0.0
  0
LINE
  5
3B1
330
1F
100
AcDbEntity
  8
0-A
  6
JWW_HOJO
 62
     4
370
     9
100
AcDbLine
 10
-150.9345399581011
 20
408.6149685934052
 30
0.0
 11
-149.5361536251216
 21
407.8076765241579
 31
0.0
  0
LINE
  5
3B2
330
1F
100
AcDbEntity
  8
0-A
  6
Continuous
 62
     4
370
     9
100
AcDbLine
 10
-149.5361288516822
 20
407.8076517507185
 30
0.0
 11
-148.7762779188576
 21
407.3689636860844
 31
0.0
  0
LINE
  5
3B3
330
1F
100
AcDbEntity
  8
0-A
  6
JWW_HOJO
 62
     4
370
     9
100
AcDbLine
 10
-148.776302692297
 20
407.3689884595237
 30
0.0
 11
-147.3936227198877
 21
406.5706643753339
 31
0.0
  0
LINE
  5
3B4
330
1F
100
AcDbEntity
  8
0-A
  6
Continuous
 62
     4
370
     9
100
AcDbLine
 10
-163.5772683733362
 20
417.0689791039419
 30
0.0
 11
-150.7481941470452
 21
409.6620923293412
 31
0.0
  0
LINE
  5
3B5
330
1F
100
AcDbEntity
  8
0-A
  6
JWW_HOJO
 62
     4
370
     9
100
AcDbLine
 10
-150.7481941470452
 20
409.6620923293412
 30
0.0
 11
-149.3791395662978
 21
408.8716709723152
 31
0.0
  0
LINE
  5
3B6
330
1F
100
AcDbEntity
  8
0-A
  6
Continuous
 62
     4
370
     9
100
AcDbLine
 10
-154.420063785849
 20
431.4120077579447
 30
0.0
 11
-144.731592790745
 21
425.8183881057084
 31
0.0
  0
LINE
  5
3B7
330
1F
100
AcDbEntity
  8
0-A
  6
JWW_HOJO
 62
     4
370
     9
100
AcDbLine
 10
-144.7315680173056
 20
425.8183385588296
 30
0.0
 11
-143.5419474580257
 21
425.1315197253128
 31
0.0
  0
LINE
  5
3B8
330
1F
100
AcDbEntity
  8
0-A
  6
JWW_HOJO
 62
     4
370
     9
100
AcDbLine
 10
-142.9345274977386
 20
422.4714468978815
 30
0.0
 11
-141.5361659381984
 21
421.6640309614373
 31
0.0
  0
LINE
  5
3B9
330
1F
100
AcDbEntity
  8
0-A
  6
Continuous
 62
     4
370
     9
100
AcDbLine
 10
-141.536141164759
 20
421.6640309614373
 30
0.0
 11
-140.7762902319345
 21
421.2253428968032
 31
0.0
  0
LINE
  5
3BA
330
1F
100
AcDbEntity
  8
0-A
  6
JWW_HOJO
 62
     4
370
     9
100
AcDbLine
 10
-140.7763150053739
 20
421.2253428968032
 30
0.0
 11
-139.3936350329646
 21
420.4270435860527
 31
0.0
  0
LINE
  5
3BB
330
1F
100
AcDbEntity
  8
0-A
  6
Continuous
 62
     4
370
     9
100
AcDbLine
 10
-156.5772357937596
 20
429.19334807348
 30
0.0
 11
-143.7481615674685
 21
421.786510845758
 31
0.0
  0
LINE
  5
3BC
330
1F
100
AcDbEntity
  8
0-A
  6
JWW_HOJO
 62
     4
370
     9
100
AcDbLine
 10
-143.7481615674685
 20
421.786510845758
 30
0.0
 11
-142.3791317601605
 21
420.9960399418533
 31
0.0
  0
LINE
  5
3BD
330
1F
100
AcDbEntity
  8
0-A
  6
Continuous
 62
     4
370
     9
100
AcDbLine
 10
3.318791553996611
 20
448.8832776968812
 30
0.0
 11
-4.005203292421015
 21
453.111756971793
 31
0.0
  0
LINE
  5
3BE
330
1F
100
AcDbEntity
  8
0-A
  6
Continuous
 62
     4
370
     9
100
AcDbLine
 10
-3.56495450110566
 20
454.012271493447
 30
0.0
 11
-1.377335936190661
 21
452.7492472332685
 31
0.0
  0
LINE
  5
3BF
330
1F
100
AcDbEntity
  8
0-A
  6
Continuous
 62
     4
370
     9
100
AcDbLine
 10
13.7111255089145
 20
442.8832249980904
 30
0.0
 11
21.03514512877148
 21
438.6547457231787
 31
0.0
  0
LINE
  5
3C0
330
1F
100
AcDbEntity
  8
0-A
  6
Continuous
 62
     4
370
     9
100
AcDbLine
 10
19.4073072002057
 20
440.7492657028839
 30
0.0
 11
21.59482667136319
 21
439.4862909895842
 31
0.0
  0
LINE
  5
3C1
330
1F
100
AcDbEntity
  8
0-A
  6
Continuous
 62
     4
370
     9
100
AcDbLine
 10
4.150386367280873
 20
462.3235374462459
 30
0.0
 11
-0.8773088356386438
 21
453.6153019007377
 31
0.0
  0
LINE
  5
3C2
330
1F
100
AcDbEntity
  8
0-A
  6
Continuous
 62
     4
370
     9
100
AcDbLine
 10
3.066127245706355
 20
462.4455466352182
 30
0.0
 11
-1.74333872966838
 21
454.1153290012897
 31
0.0
  0
LINE
  5
3C3
330
1F
100
AcDbEntity
  8
0-A
  6
Continuous
 62
     4
370
     9
100
AcDbLine
 10
24.93497995679848
 20
450.3235806893006
 30
0.0
 11
19.90725998043956
 21
441.6152955969137
 31
0.0
  0
LINE
  5
3C4
330
1F
100
AcDbEntity
  8
0-A
  6
Continuous
 62
     4
370
     9
100
AcDbLine
 10
25.5828053967229
 20
449.445535677169
 30
0.0
 11
20.7733394213481
 21
441.1152684963616
 31
0.0
  0
LINE
  5
3C5
330
1F
100
AcDbEntity
  8
0-A
  6
Continuous
 62
     4
370
     9
100
AcDbLine
 10
-147.4850119377799
 20
361.8166038289302
 30
0.0
 11
-147.4850119377799
 21
370.2735623787538
 31
0.0
  0
LINE
  5
3C6
330
1F
100
AcDbEntity
  8
0-A
  6
Continuous
 62
     4
370
     9
100
AcDbLine
 10
-148.4850165920052
 20
367.8165822074029
 30
0.0
 11
-148.4850165920052
 21
370.3424573136841
 31
0.0
  0
LINE
  5
3C7
330
1F
100
AcDbEntity
  8
0-A
  6
Continuous
 62
     4
370
     9
100
AcDbLine
 10
-159.1039779704194
 20
368.8165868616281
 30
0.0
 11
-149.4850212462304
 21
368.8165868616281
 31
0.0
  0
LINE
  5
3C8
330
1F
100
AcDbEntity
  8
0-A
  6
Continuous
 62
     4
370
     9
100
AcDbLine
 10
-159.5404364255088
 20
367.8165822074029
 30
0.0
 11
-149.4850212462304
 21
367.8165822074029
 31
0.0
  0
LINE
  5
3C9
330
1F
100
AcDbEntity
  8
0-A
  6
Continuous
 62
     4
370
     9
100
AcDbLine
 10
14.71113016313972
 20
444.61528478615
 30
0.0
 11
14.94043311808962
 21
445.012427792935
 31
0.0
  0
LINE
  5
3CA
330
1F
100
AcDbEntity
  8
0-A
  6
Continuous
 62
     4
370
     9
100
AcDbLine
 10
13.34514748887607
 20
444.2492819926722
 30
0.0
 11
13.78574310834289
 21
445.012427792935
 31
0.0
  0
LINE
  5
3CB
330
1F
100
AcDbEntity
  8
0-A
  6
Continuous
 62
     4
370
     9
100
AcDbLine
 10
4.31884575510059
 20
450.615287938062
 30
0.0
 11
4.550824241504124
 21
451.0171131248908
 31
0.0
  0
LINE
  5
3CC
330
1F
100
AcDbEntity
  8
0-A
  6
Continuous
 62
     4
370
     9
100
AcDbLine
 10
4.684823775139016
 20
449.2492557169196
 30
0.0
 11
5.128169246377517
 21
450.017133244105
 31
0.0
  0
LINE
  5
3CD
330
1F
100
AcDbEntity
  8
0-A
  6
Continuous
 62
     4
370
     9
100
AcDbLine
 10
-149.4850212462304
 20
361.8166038289302
 30
0.0
 11
-149.9435280623727
 21
361.8166038289302
 31
0.0
  0
LINE
  5
3CE
330
1F
100
AcDbEntity
  8
0-A
  6
Continuous
 62
     4
370
     9
100
AcDbLine
 10
-148.4850165920052
 20
360.8165991747049
 30
0.0
 11
-149.3661830574993
 21
360.8165991747049
 31
0.0
  0
ARC
  5
3CF
330
1F
100
AcDbEntity
  8
0-A
  6
Continuous
 62
     4
370
     9
100
AcDbCircle
 10
-43.4849985937038
 20
355.8166006770182
 30
0.0
 40
142.9999966713452
100
AcDbArc
 50
17.20423889160157
 51
42.79577636718751
  0
ARC
  5
3D0
330
1F
100
AcDbEntity
  8
0-A
  6
Continuous
 62
     4
370
     9
100
AcDbCircle
 10
-43.4849985937038
 20
355.8166006770182
 30
0.0
 40
139.5000051549963
100
AcDbArc
 50
17.25956726074219
 51
42.74044799804688
  0
ARC
  5
3D1
330
1F
100
AcDbEntity
  8
0-A
  6
Continuous
 62
     4
370
     9
100
AcDbCircle
 10
-43.4849985937038
 20
355.8166006770182
 30
0.0
 40
142.9999966713452
100
AcDbArc
 50
47.20423889160154
 51
72.79577636718747
  0
ARC
  5
3D2
330
1F
100
AcDbEntity
  8
0-A
  6
Continuous
 62
     4
370
     9
100
AcDbCircle
 10
-43.4849985937038
 20
355.8166006770182
 30
0.0
 40
139.5000051549963
100
AcDbArc
 50
47.25956726074216
 51
72.74044799804685
  0
ARC
  5
3D3
330
1F
100
AcDbEntity
  8
0-A
  6
Continuous
 62
     4
370
     9
100
AcDbCircle
 10
-43.4849985937038
 20
355.8166006770182
 30
0.0
 40
137.4999958465458
100
AcDbArc
 50
46.66702270507811
 51
73.33297729492186
  0
ARC
  5
3D4
330
1F
100
AcDbEntity
  8
0-A
  6
Continuous
 62
     4
370
     9
100
AcDbCircle
 10
-43.4849985937038
 20
355.8166006770182
 30
0.0
 40
142.9999966713452
100
AcDbArc
 50
77.20423889160156
 51
102.7957763671875
  0
ARC
  5
3D5
330
1F
100
AcDbEntity
  8
0-A
  6
Continuous
 62
     4
370
     9
100
AcDbCircle
 10
-43.4849985937038
 20
355.8166006770182
 30
0.0
 40
139.5000051549963
100
AcDbArc
 50
77.25956726074217
 51
102.7404479980469
  0
ARC
  5
3D6
330
1F
100
AcDbEntity
  8
0-A
  6
Continuous
 62
     4
370
     9
100
AcDbCircle
 10
-43.4849985937038
 20
355.8166006770182
 30
0.0
 40
142.9999966713452
100
AcDbArc
 50
107.2042388916016
 51
132.7957763671875
  0
ARC
  5
3D7
330
1F
100
AcDbEntity
  8
0-A
  6
Continuous
 62
     4
370
     9
100
AcDbCircle
 10
-43.4849985937038
 20
355.8166006770182
 30
0.0
 40
139.5000051549963
100
AcDbArc
 50
107.2595672607422
 51
132.7404479980469
  0
ARC
  5
3D8
330
1F
100
AcDbEntity
  8
0-A
  6
Continuous
 62
     4
370
     9
100
AcDbCircle
 10
-43.4849985937038
 20
355.8166006770182
 30
0.0
 40
137.4999958465458
100
AcDbArc
 50
106.6670227050782
 51
133.3329772949219
  0
ARC
  5
3D9
330
1F
100
AcDbEntity
  8
0-A
  6
Continuous
 62
     4
370
     9
100
AcDbCircle
 10
-43.4849985937038
 20
355.8166006770182
 30
0.0
 40
142.9999966713452
100
AcDbArc
 50
137.2042388916015
 51
162.7957763671875
  0
ARC
  5
3DA
330
1F
100
AcDbEntity
  8
0-A
  6
Continuous
 62
     4
370
     9
100
AcDbCircle
 10
-43.4849985937038
 20
355.8166006770182
 30
0.0
 40
139.5000051549963
100
AcDbArc
 50
137.2595672607422
 51
162.7404479980468
  0
ARC
  5
3DB
330
1F
100
AcDbEntity
  8
0-A
  6
Continuous
 62
     4
370
     9
100
AcDbCircle
 10
-159.1039779704194
 20
371.8166008243038
 30
0.0
 40
3.000000027616052
100
AcDbArc
 50
172.1209869384766
 51
270.0
  0
ARC
  5
3DC
330
1F
100
AcDbEntity
  8
0-A
  6
Continuous
 62
     4
370
     9
100
AcDbCircle
 10
-159.5404364255088
 20
370.8165961700786
 30
0.0
 40
3.000000027616052
100
AcDbArc
 50
172.6355133056641
 51
270.0
  0
ARC
  5
3DD
330
1F
100
AcDbEntity
  8
0-A
  6
Continuous
 62
     4
370
     9
100
AcDbCircle
 10
-149.4850212462304
 20
366.816602326617
 30
0.0
 40
1.00000000920535
100
AcDbArc
 50
0.0
 51
90.0
  0
ARC
  5
3DE
330
1F
100
AcDbEntity
  8
0-A
  6
Continuous
 62
     4
370
     9
100
AcDbCircle
 10
-149.4850212462304
 20
367.8165822074029
 30
0.0
 40
1.00000000920535
100
AcDbArc
 50
0.0
 51
90.0
  0
ARC
  5
3DF
330
1F
100
AcDbEntity
  8
0-A
  6
Continuous
 62
     4
370
     9
100
AcDbCircle
 10
-149.4850212462304
 20
362.8166084831554
 30
0.0
 40
1.00000000920535
100
AcDbArc
 50
270.0
 51
0.0
  0
ARC
  5
3E0
330
1F
100
AcDbEntity
  8
0-A
  6
Continuous
 62
     4
370
     9
100
AcDbCircle
 10
-148.4850165920052
 20
361.8166038289302
 30
0.0
 40
1.00000000920535
100
AcDbArc
 50
270.0
 51
0.0
  0
ARC
  5
3E1
330
1F
100
AcDbEntity
  8
0-A
  6
Continuous
 62
     4
370
     9
100
AcDbCircle
 10
0.4680375636170879
 20
463.9455288431167
 30
0.0
 40
3.000000027616052
100
AcDbArc
 50
330.0
 51
67.87901306152342
  0
ARC
  5
3E2
330
1F
100
AcDbEntity
  8
0-A
  6
Continuous
 62
     4
370
     9
100
AcDbCircle
 10
28.18089507881222
 20
447.9455534692705
 30
0.0
 40
3.000000027616052
100
AcDbArc
 50
52.12098693847655
 51
150.0
  0
ARC
  5
3E3
330
1F
100
AcDbEntity
  8
0-A
  6
Continuous
 62
     4
370
     9
100
AcDbCircle
 10
27.53309441232715
 20
448.8235489345234
 30
0.0
 40
3.000000027616052
100
AcDbArc
 50
52.63551330566406
 51
150.0
  0
ARC
  5
3E4
330
1F
100
AcDbEntity
  8
0-A
  6
Continuous
 62
     4
370
     9
100
AcDbCircle
 10
1.55229668519155
 20
463.8235444275837
 30
0.0
 40
3.000000027616052
100
AcDbArc
 50
330.0
 51
67.36448669433591
  0
ARC
  5
3E5
330
1F
100
AcDbEntity
  8
0-A
  6
Continuous
 62
     4
370
     9
100
AcDbCircle
 10
-43.4849985937038
 20
355.8166006770182
 30
0.0
 40
120.0207736335666
100
AcDbArc
 50
52.63543701171872
 51
67.36456298828122
  0
ARC
  5
3E6
330
1F
100
AcDbEntity
  8
0-A
  6
Continuous
 62
     4
370
     9
100
AcDbCircle
 10
19.04130440672798
 20
442.1152979240263
 30
0.0
 40
1.00000000920535
100
AcDbArc
 50
240.0
 51
330.0
  0
ARC
  5
3E7
330
1F
100
AcDbEntity
  8
0-A
  6
Continuous
 62
     4
370
     9
100
AcDbCircle
 10
19.90725998043956
 20
441.6152955969137
 30
0.0
 40
1.00000000920535
100
AcDbArc
 50
240.0
 51
330.0
  0
ARC
  5
3E8
330
1F
100
AcDbEntity
  8
0-A
  6
Continuous
 62
     4
370
     9
100
AcDbCircle
 10
-0.0113037150482569
 20
453.1152995736251
 30
0.0
 40
1.00000000920535
100
AcDbArc
 50
150.0
 51
240.0
  0
ARC
  5
3E9
330
1F
100
AcDbEntity
  8
0-A
  6
Continuous
 62
     4
370
     9
100
AcDbCircle
 10
-0.8773088356386438
 20
453.6153019007377
 30
0.0
 40
1.00000000920535
100
AcDbArc
 50
150.0
 51
240.0
  0
ARC
  5
3EA
330
1F
100
AcDbEntity
  8
0-A
  6
Continuous
 62
     4
370
     9
100
AcDbCircle
 10
15.57716005716946
 20
444.1153072324767
 30
0.0
 40
1.00000000920535
100
AcDbArc
 50
150.0
 51
240.0
  0
ARC
  5
3EB
330
1F
100
AcDbEntity
  8
0-A
  6
Continuous
 62
     4
370
     9
100
AcDbCircle
 10
14.21112783602711
 20
443.7492301186808
 30
0.0
 40
1.00000000920535
100
AcDbArc
 50
150.0
 51
240.0
  0
ARC
  5
3EC
330
1F
100
AcDbEntity
  8
0-A
  6
Continuous
 62
     4
370
     9
100
AcDbCircle
 10
3.45276631419204
 20
451.115315038614
 30
0.0
 40
1.00000000920535
100
AcDbArc
 50
240.0
 51
330.0
  0
ARC
  5
3ED
330
1F
100
AcDbEntity
  8
0-A
  6
Continuous
 62
     4
370
     9
100
AcDbCircle
 10
3.818843427987979
 20
449.7492580440322
 30
0.0
 40
1.00000000920535
100
AcDbArc
 50
240.0
 51
330.0
  0
ARC
  5
3EE
330
1F
100
AcDbEntity
  8
0-A
  6
Continuous
 62
     4
370
     9
100
AcDbCircle
 10
-43.4849985937038
 20
355.8166006770182
 30
0.0
 40
139.5000051549963
100
AcDbArc
 50
167.2595672607422
 51
180.0
  0
ARC
  5
3EF
330
1F
100
AcDbEntity
  8
0-A
  6
Continuous
 62
     4
370
     9
100
AcDbCircle
 10
-43.4849985937038
 20
355.8166006770182
 30
0.0
 40
137.4999958465458
100
AcDbArc
 50
166.6670227050781
 51
180.0
  0
ARC
  5
3F0
330
1F
100
AcDbEntity
  8
0-A
  6
Continuous
 62
     4
370
     9
100
AcDbCircle
 10
-43.4849985937038
 20
355.8166006770182
 30
0.0
 40
120.0207736335666
100
AcDbArc
 50
172.6354370117188
 51
180.0
  0
ARC
  5
3F1
330
1F
100
AcDbEntity
  8
0-A
  6
Continuous
 62
     4
370
     9
100
AcDbCircle
 10
-43.4849985937038
 20
355.8166006770182
 30
0.0
 40
139.5000051549963
100
AcDbArc
 50
0.0
 51
12.74044799804688
  0
ARC
  5
3F2
330
1F
100
AcDbEntity
  8
0-A
  6
Continuous
 62
     4
370
     9
100
AcDbCircle
 10
-43.4849985937038
 20
355.8166006770182
 30
0.0
 40
137.4999958465458
100
AcDbArc
 50
0.0
 51
13.33297729492188
  0
ARC
  5
3F3
330
1F
100
AcDbEntity
  8
0-A
  6
Continuous
 62
     4
370
     9
100
AcDbCircle
 10
68.1072068515748
 20
431.7914377555692
 30
0.0
 40
3.000000027616052
100
AcDbArc
 50
299.9998779296875
 51
34.24807739257812
  0
ARC
  5
3F4
330
1F
100
AcDbEntity
  8
0-A
  6
Continuous
 62
     4
370
     9
100
AcDbCircle
 10
65.9500348436643
 20
434.0100726665946
 30
0.0
 40
3.000000027616052
100
AcDbArc
 50
299.9998779296875
 51
35.54643249511718
  0
ARC
  5
3F5
330
1F
100
AcDbEntity
  8
0-A
  6
Continuous
 62
     4
370
     9
100
AcDbCircle
 10
-43.4849985937038
 20
355.8166006770182
 30
0.0
 40
137.4999958465458
100
AcDbArc
 50
35.54653930664062
 51
43.33297729492188
  0
ARC
  5
3F6
330
1F
100
AcDbEntity
  8
0-A
  6
Continuous
 62
     4
370
     9
100
AcDbCircle
 10
57.01157972594887
 20
427.1174081733137
 30
0.0
 40
1.500000013808026
100
AcDbArc
 50
215.3547058105469
 51
300.0005493164062
  0
ARC
  5
3F7
330
1F
100
AcDbEntity
  8
0-A
  6
JWW_HOJO
 62
     4
370
     9
100
AcDbCircle
 10
-43.4849985937038
 20
355.8166006770182
 30
0.0
 40
121.720801364501
100
AcDbArc
 50
34.71247863769531
 51
35.35511779785156
  0
ARC
  5
3F8
330
1F
100
AcDbEntity
  8
0-A
  6
Continuous
 62
     4
370
     9
100
AcDbCircle
 10
53.81610332652354
 20
422.9631005759213
 30
0.0
 40
1.500000013808026
100
AcDbArc
 50
300.0007171630859
 51
34.60917663574219
  0
ARC
  5
3F9
330
1F
100
AcDbEntity
  8
0-A
  6
Continuous
 62
     4
370
     9
100
AcDbCircle
 10
-43.4849985937038
 20
355.8166006770182
 30
0.0
 40
119.7207796693309
100
AcDbArc
 50
34.60916137695312
 51
52.12112426757812
  0
ARC
  5
3FA
330
1F
100
AcDbEntity
  8
0-A
  6
JWW_HOJO
 62
     4
370
     9
100
AcDbCircle
 10
-43.4849985937038
 20
355.8166006770182
 30
0.0
 40
119.7207796693309
100
AcDbArc
 50
33.83149719238281
 51
34.60916137695312
  0
ARC
  5
3FB
330
1F
100
AcDbEntity
  8
0-A
  6
Continuous
 62
     4
370
     9
100
AcDbCircle
 10
54.5562841484762
 20
419.9263228291979
 30
0.0
 40
1.500000013808026
100
AcDbArc
 50
120.0005493164063
 51
213.1804962158203
  0
ARC
  5
3FC
330
1F
100
AcDbEntity
  8
0-A
  6
JWW_HOJO
 62
     4
370
     9
100
AcDbCircle
 10
-43.4849985937038
 20
355.8166006770182
 30
0.0
 40
115.6415603667152
100
AcDbArc
 50
33.1808929443359
 51
33.96684265136715
  0
ARC
  5
3FD
330
1F
100
AcDbEntity
  8
0-A
  6
JWW_HOJO
 62
     4
370
     9
100
AcDbCircle
 10
-43.4849985937038
 20
355.8166006770182
 30
0.0
 40
118.4415907399535
100
AcDbArc
 50
32.62826538085934
 51
33.38821411132809
  0
ARC
  5
3FE
330
1F
100
AcDbEntity
  8
0-A
  6
Continuous
 62
     4
370
     9
100
AcDbCircle
 10
57.52815548401025
 20
420.4874660047133
 30
0.0
 40
1.500000013808026
100
AcDbArc
 50
120.0005493164063
 51
212.6285705566406
  0
ARC
  5
3FF
330
1F
100
AcDbEntity
  8
0-A
  6
Continuous
 62
     4
370
     9
100
AcDbCircle
 10
78.10725339382714
 20
414.4709141952919
 30
0.0
 40
3.000000027616052
100
AcDbArc
 50
25.75183105468754
 51
120.0000305175782
  0
ARC
  5
400
330
1F
100
AcDbEntity
  8
0-A
  6
Continuous
 62
     4
370
     9
100
AcDbCircle
 10
78.95004580171354
 20
411.4933945155781
 30
0.0
 40
3.000000027616052
100
AcDbArc
 50
24.45347595214849
 51
120.0000305175782
  0
ARC
  5
401
330
1F
100
AcDbEntity
  8
0-A
  6
Continuous
 62
     4
370
     9
100
AcDbCircle
 10
68.51155892922094
 20
407.1987701575077
 30
0.0
 40
1.500000013808026
100
AcDbArc
 50
119.9994812011719
 51
204.6453247070313
  0
ARC
  5
402
330
1F
100
AcDbEntity
  8
0-A
  6
JWW_HOJO
 62
     4
370
     9
100
AcDbCircle
 10
-43.4849985937038
 20
355.8166006770182
 30
0.0
 40
121.720801364501
100
AcDbArc
 50
24.64488220214848
 51
25.28752136230473
  0
ARC
  5
403
330
1F
100
AcDbEntity
  8
0-A
  6
Continuous
 62
     4
370
     9
100
AcDbCircle
 10
63.31612276822386
 20
406.5085821362345
 30
0.0
 40
1.500000013808026
100
AcDbArc
 50
25.39085388183595
 51
119.9993133544922
  0
ARC
  5
404
330
1F
100
AcDbEntity
  8
0-A
  6
Continuous
 62
     4
370
     9
100
AcDbCircle
 10
61.05624008062204
 20
408.6679837536897
 30
0.0
 40
1.500000013808026
100
AcDbArc
 50
206.8195343017578
 51
299.9994812011719
  0
ARC
  5
405
330
1F
100
AcDbEntity
  8
0-A
  6
JWW_HOJO
 62
     4
370
     9
100
AcDbCircle
 10
-43.4849985937038
 20
355.8166006770182
 30
0.0
 40
115.6415603667152
100
AcDbArc
 50
26.03315734863276
 51
26.81910705566401
  0
ARC
  5
406
330
1F
100
AcDbEntity
  8
0-A
  6
JWW_HOJO
 62
     4
370
     9
100
AcDbCircle
 10
-43.4849985937038
 20
355.8166006770182
 30
0.0
 40
118.4415907399535
100
AcDbArc
 50
26.61178588867185
 51
27.3717346191406
  0
ARC
  5
407
330
1F
100
AcDbEntity
  8
0-A
  6
Continuous
 62
     4
370
     9
100
AcDbCircle
 10
63.02815630880968
 20
410.9611619438252
 30
0.0
 40
1.500000013808026
100
AcDbArc
 50
207.3714599609375
 51
299.9994812011719
  0
ARC
  5
408
330
1F
100
AcDbEntity
  8
0-A
  6
Continuous
 62
     4
370
     9
100
AcDbCircle
 10
-43.4849985937038
 20
355.8166006770182
 30
0.0
 40
118.4415907399535
100
AcDbArc
 50
27.37174987792962
 51
32.62826538085931
  0
ARC
  5
409
330
1F
100
AcDbEntity
  8
0-A
  6
Continuous
 62
     4
370
     9
100
AcDbCircle
 10
-43.4849985937038
 20
355.8166006770182
 30
0.0
 40
115.6415603667152
100
AcDbArc
 50
26.8191223144531
 51
33.18089294433591
  0
ARC
  5
40A
330
1F
100
AcDbEntity
  8
0-A
  6
Continuous
 62
     4
370
     9
100
AcDbCircle
 10
-43.4849985937038
 20
355.8166006770182
 30
0.0
 40
119.7207796693309
100
AcDbArc
 50
0.0
 51
25.39085388183594
  0
ARC
  5
40B
330
1F
100
AcDbEntity
  8
0-A
  6
JWW_HOJO
 62
     4
370
     9
100
AcDbCircle
 10
-43.4849985937038
 20
355.8166006770182
 30
0.0
 40
119.7207796693309
100
AcDbArc
 50
25.3908386230469
 51
26.16850280761721
  0
ARC
  5
40C
330
1F
100
AcDbEntity
  8
0-A
  6
Continuous
 62
     4
370
     9
100
AcDbCircle
 10
-43.4849985937038
 20
355.8166006770182
 30
0.0
 40
121.720801364501
100
AcDbArc
 50
0.0
 51
24.64488220214844
  0
ARC
  5
40D
330
1F
100
AcDbEntity
  8
0-A
  6
Continuous
 62
     4
370
     9
100
AcDbCircle
 10
-43.4849985937038
 20
355.8166006770182
 30
0.0
 40
138.0000105603781
100
AcDbArc
 50
25.75196838378901
 51
34.24803161621088
  0
ARC
  5
40E
330
1F
100
AcDbEntity
  8
0-A
  6
Continuous
 62
     4
370
     9
100
AcDbCircle
 10
-43.4849985937038
 20
355.8166006770182
 30
0.0
 40
137.4999958465458
100
AcDbArc
 50
16.66702270507815
 51
24.4534606933594
  0
ARC
  5
40F
330
1F
100
AcDbEntity
  8
0-A
  6
Continuous
 62
     4
370
     9
100
AcDbCircle
 10
-53.48502036251671
 20
490.4457760472824
 30
0.0
 40
3.000000027616052
100
AcDbArc
 50
359.9998779296875
 51
94.2480773925781
  0
ARC
  5
410
330
1F
100
AcDbEntity
  8
0-A
  6
Continuous
 62
     4
370
     9
100
AcDbCircle
 10
-56.48500955175302
 20
489.6868665051545
 30
0.0
 40
3.000000027616052
100
AcDbArc
 50
359.9998779296875
 51
95.54643249511717
  0
ARC
  5
411
330
1F
100
AcDbEntity
  8
0-A
  6
Continuous
 62
     4
370
     9
100
AcDbCircle
 10
-54.9850273438546
 20
478.4996024272425
 30
0.0
 40
1.500000013808026
100
AcDbArc
 50
275.3547058105469
 51
0.0005493164062567
  0
ARC
  5
412
330
1F
100
AcDbEntity
  8
0-A
  6
JWW_HOJO
 62
     4
370
     9
100
AcDbCircle
 10
-43.4849985937038
 20
355.8166006770182
 30
0.0
 40
121.720801364501
100
AcDbArc
 50
94.71247863769536
 51
95.35511779785159
  0
ARC
  5
413
330
1F
100
AcDbEntity
  8
0-A
  6
Continuous
 62
     4
370
     9
100
AcDbCircle
 10
-52.9850180354041
 20
473.6550820351376
 30
0.0
 40
1.500000013808026
100
AcDbArc
 50
0.0007171630859163
 51
94.60917663574217
  0
ARC
  5
414
330
1F
100
AcDbEntity
  8
0-A
  6
JWW_HOJO
 62
     4
370
     9
100
AcDbCircle
 10
-43.4849985937038
 20
355.8166006770182
 30
0.0
 40
119.7207796693309
100
AcDbArc
 50
93.83149719238286
 51
94.60916137695317
  0
ARC
  5
415
330
1F
100
AcDbEntity
  8
0-A
  6
Continuous
 62
     4
370
     9
100
AcDbCircle
 10
-49.98500407272843
 20
472.77768113243
 30
0.0
 40
1.500000013808026
100
AcDbArc
 50
180.0005493164062
 51
273.1804962158203
  0
ARC
  5
416
330
1F
100
AcDbEntity
  8
0-A
  6
JWW_HOJO
 62
     4
370
     9
100
AcDbCircle
 10
-43.4849985937038
 20
355.8166006770182
 30
0.0
 40
115.6415603667152
100
AcDbArc
 50
93.18089294433594
 51
93.96684265136719
  0
ARC
  5
417
330
1F
100
AcDbEntity
  8
0-A
  6
JWW_HOJO
 62
     4
370
     9
100
AcDbCircle
 10
-43.4849985937038
 20
355.8166006770182
 30
0.0
 40
118.4415907399535
100
AcDbArc
 50
92.62826538085938
 51
93.38821411132812
  0
ARC
  5
418
330
1F
100
AcDbEntity
  8
0-A
  6
Continuous
 62
     4
370
     9
100
AcDbCircle
 10
-48.98502419194256
 20
475.632002498081
 30
0.0
 40
1.500000013808026
100
AcDbArc
 50
180.0005493164062
 51
272.6285705566406
  0
ARC
  5
419
330
1F
100
AcDbEntity
  8
0-A
  6
Continuous
 62
     4
370
     9
100
AcDbCircle
 10
-33.4850015983302
 20
490.4457760472824
 30
0.0
 40
3.000000027616052
100
AcDbArc
 50
85.7518310546875
 51
180.0000305175782
  0
ARC
  5
41A
330
1F
100
AcDbEntity
  8
0-A
  6
Continuous
 62
     4
370
     9
100
AcDbCircle
 10
-30.48498763565447
 20
489.6868665051545
 30
0.0
 40
3.000000027616052
100
AcDbArc
 50
84.4534759521485
 51
180.0000305175782
  0
ARC
  5
41B
330
1F
100
AcDbEntity
  8
0-A
  6
Continuous
 62
     4
370
     9
100
AcDbCircle
 10
-31.98499461699231
 20
478.4995776538032
 30
0.0
 40
1.500000013808026
100
AcDbArc
 50
179.9994812011719
 51
264.6453247070312
  0
ARC
  5
41C
330
1F
100
AcDbEntity
  8
0-A
  6
JWW_HOJO
 62
     4
370
     9
100
AcDbCircle
 10
-43.4849985937038
 20
355.8166006770182
 30
0.0
 40
121.720801364501
100
AcDbArc
 50
84.64488220214847
 51
85.28752136230472
  0
ARC
  5
41D
330
1F
100
AcDbEntity
  8
0-A
  6
Continuous
 62
     4
370
     9
100
AcDbCircle
 10
-33.98500392544281
 20
473.6550820351376
 30
0.0
 40
1.500000013808026
100
AcDbArc
 50
85.39085388183594
 51
179.9993133544922
  0
ARC
  5
41E
330
1F
100
AcDbEntity
  8
0-A
  6
Continuous
 62
     4
370
     9
100
AcDbCircle
 10
-36.98504266155788
 20
472.77768113243
 30
0.0
 40
1.500000013808026
100
AcDbArc
 50
266.8195343017578
 51
359.9994812011719
  0
ARC
  5
41F
330
1F
100
AcDbEntity
  8
0-A
  6
JWW_HOJO
 62
     4
370
     9
100
AcDbCircle
 10
-43.4849985937038
 20
355.8166006770182
 30
0.0
 40
115.6415603667152
100
AcDbArc
 50
86.0331573486328
 51
86.81910705566405
  0
ARC
  5
420
330
1F
100
AcDbEntity
  8
0-A
  6
JWW_HOJO
 62
     4
370
     9
100
AcDbCircle
 10
-43.4849985937038
 20
355.8166006770182
 30
0.0
 40
118.4415907399535
100
AcDbArc
 50
86.61178588867188
 51
87.37173461914062
  0
ARC
  5
421
330
1F
100
AcDbEntity
  8
0-A
  6
Continuous
 62
     4
370
     9
100
AcDbCircle
 10
-37.98499776890435
 20
475.632002498081
 30
0.0
 40
1.500000013808026
100
AcDbArc
 50
267.3714599609375
 51
359.9994812011719
  0
ARC
  5
422
330
1F
100
AcDbEntity
  8
0-A
  6
Continuous
 62
     4
370
     9
100
AcDbCircle
 10
-43.4849985937038
 20
355.8166006770182
 30
0.0
 40
118.4415907399535
100
AcDbArc
 50
87.37174987792966
 51
92.62826538085935
  0
ARC
  5
423
330
1F
100
AcDbEntity
  8
0-A
  6
Continuous
 62
     4
370
     9
100
AcDbCircle
 10
-43.4849985937038
 20
355.8166006770182
 30
0.0
 40
115.6415603667152
100
AcDbArc
 50
86.81912231445312
 51
93.18089294433594
  0
ARC
  5
424
330
1F
100
AcDbEntity
  8
0-A
  6
JWW_HOJO
 62
     4
370
     9
100
AcDbCircle
 10
-43.4849985937038
 20
355.8166006770182
 30
0.0
 40
119.7207796693309
100
AcDbArc
 50
85.39083862304689
 51
86.1685028076172
  0
ARC
  5
425
330
1F
100
AcDbEntity
  8
0-A
  6
Continuous
 62
     4
370
     9
100
AcDbCircle
 10
-165.0772505812347
 20
414.470914195292
 30
0.0
 40
3.000000027616052
100
AcDbArc
 50
59.99987792968746
 51
154.2480773925781
  0
ARC
  5
426
330
1F
100
AcDbEntity
  8
0-A
  6
Continuous
 62
     4
370
     9
100
AcDbCircle
 10
-165.9200677625604
 20
411.4933945155781
 30
0.0
 40
3.000000027616052
100
AcDbArc
 50
59.99987792968746
 51
155.5464324951171
  0
ARC
  5
427
330
1F
100
AcDbEntity
  8
0-A
  6
Continuous
 62
     4
370
     9
100
AcDbCircle
 10
-155.4816056635072
 20
407.1987701575077
 30
0.0
 40
1.500000013808026
100
AcDbArc
 50
335.3547058105469
 51
60.00054931640624
  0
ARC
  5
428
330
1F
100
AcDbEntity
  8
0-A
  6
JWW_HOJO
 62
     4
370
     9
100
AcDbCircle
 10
-43.4849985937038
 20
355.8166006770182
 30
0.0
 40
121.720801364501
100
AcDbArc
 50
154.7124786376953
 51
155.3551177978516
  0
ARC
  5
429
330
1F
100
AcDbEntity
  8
0-A
  6
Continuous
 62
     4
370
     9
100
AcDbCircle
 10
-150.2861199556314
 20
406.5085821362345
 30
0.0
 40
1.500000013808026
100
AcDbArc
 50
60.0007171630859
 51
154.6091766357421
  0
ARC
  5
42A
330
1F
100
AcDbEntity
  8
0-A
  6
JWW_HOJO
 62
     4
370
     9
100
AcDbCircle
 10
-43.4849985937038
 20
355.8166006770182
 30
0.0
 40
119.7207796693309
100
AcDbArc
 50
153.8314971923828
 51
154.6091613769532
  0
ARC
  5
42B
330
1F
100
AcDbEntity
  8
0-A
  6
Continuous
 62
     4
370
     9
100
AcDbCircle
 10
-148.0262868149084
 20
408.6679837536897
 30
0.0
 40
1.500000013808026
100
AcDbArc
 50
240.0005493164062
 51
333.1804962158203
  0
ARC
  5
42C
330
1F
100
AcDbEntity
  8
0-A
  6
JWW_HOJO
 62
     4
370
     9
100
AcDbCircle
 10
-43.4849985937038
 20
355.8166006770182
 30
0.0
 40
115.6415603667152
100
AcDbArc
 50
153.1808929443359
 51
153.9668426513672
  0
ARC
  5
42D
330
1F
100
AcDbEntity
  8
0-A
  6
JWW_HOJO
 62
     4
370
     9
100
AcDbCircle
 10
-43.4849985937038
 20
355.8166006770182
 30
0.0
 40
118.4415907399535
100
AcDbArc
 50
152.6282653808594
 51
153.3882141113281
  0
ARC
  5
42E
330
1F
100
AcDbEntity
  8
0-A
  6
Continuous
 62
     4
370
     9
100
AcDbCircle
 10
-149.9982030430959
 20
410.9611619438252
 30
0.0
 40
1.500000013808026
100
AcDbArc
 50
240.0005493164062
 51
332.6285705566406
  0
ARC
  5
42F
330
1F
100
AcDbEntity
  8
0-A
  6
Continuous
 62
     4
370
     9
100
AcDbCircle
 10
-155.0772783593005
 20
431.7914377555693
 30
0.0
 40
3.000000027616052
100
AcDbArc
 50
145.7518310546875
 51
240.0000305175781
  0
ARC
  5
430
330
1F
100
AcDbEntity
  8
0-A
  6
Continuous
 62
     4
370
     9
100
AcDbCircle
 10
-152.9200568045112
 20
434.0100726665946
 30
0.0
 40
3.000000027616052
100
AcDbArc
 50
144.4534759521485
 51
240.0000305175781
  0
ARC
  5
431
330
1F
100
AcDbEntity
  8
0-A
  6
Continuous
 62
     4
370
     9
100
AcDbCircle
 10
-143.9815769133564
 20
427.1174081733137
 30
0.0
 40
1.500000013808026
100
AcDbArc
 50
239.9994812011719
 51
324.6453247070313
  0
ARC
  5
432
330
1F
100
AcDbEntity
  8
0-A
  6
JWW_HOJO
 62
     4
370
     9
100
AcDbCircle
 10
-43.4849985937038
 20
355.8166006770182
 30
0.0
 40
121.720801364501
100
AcDbArc
 50
144.6448822021484
 51
145.2875213623047
  0
ARC
  5
433
330
1F
100
AcDbEntity
  8
0-A
  6
Continuous
 62
     4
370
     9
100
AcDbCircle
 10
-140.7861252873704
 20
422.9631005759214
 30
0.0
 40
1.500000013808026
100
AcDbArc
 50
145.390853881836
 51
239.9993133544922
  0
ARC
  5
434
330
1F
100
AcDbEntity
  8
0-A
  6
Continuous
 62
     4
370
     9
100
AcDbCircle
 10
-141.5263061093231
 20
419.9262980557585
 30
0.0
 40
1.500000013808026
100
AcDbArc
 50
326.8195343017578
 51
59.9994812011719
  0
ARC
  5
435
330
1F
100
AcDbEntity
  8
0-A
  6
JWW_HOJO
 62
     4
370
     9
100
AcDbCircle
 10
-43.4849985937038
 20
355.8166006770182
 30
0.0
 40
115.6415603667152
100
AcDbArc
 50
146.0331573486328
 51
146.819107055664
  0
ARC
  5
436
330
1F
100
AcDbEntity
  8
0-A
  6
JWW_HOJO
 62
     4
370
     9
100
AcDbCircle
 10
-43.4849985937038
 20
355.8166006770182
 30
0.0
 40
118.4415907399535
100
AcDbArc
 50
146.6117858886719
 51
147.3717346191406
  0
ARC
  5
437
330
1F
100
AcDbEntity
  8
0-A
  6
Continuous
 62
     4
370
     9
100
AcDbCircle
 10
-144.4981774448572
 20
420.487441231274
 30
0.0
 40
1.500000013808026
100
AcDbArc
 50
327.3714599609375
 51
59.9994812011719
  0
ARC
  5
438
330
1F
100
AcDbEntity
  8
0-A
  6
Continuous
 62
     4
370
     9
100
AcDbCircle
 10
-43.4849985937038
 20
355.8166006770182
 30
0.0
 40
118.4415907399535
100
AcDbArc
 50
147.3717498779296
 51
152.6282653808593
  0
ARC
  5
439
330
1F
100
AcDbEntity
  8
0-A
  6
Continuous
 62
     4
370
     9
100
AcDbCircle
 10
-43.4849985937038
 20
355.8166006770182
 30
0.0
 40
115.6415603667152
100
AcDbArc
 50
146.8191223144531
 51
153.1808929443359
  0
ARC
  5
43A
330
1F
100
AcDbEntity
  8
0-A
  6
JWW_HOJO
 62
     4
370
     9
100
AcDbCircle
 10
-43.4849985937038
 20
355.8166006770182
 30
0.0
 40
119.7207796693309
100
AcDbArc
 50
145.3908386230469
 51
146.1685028076172
  0
ARC
  5
43B
330
1F
100
AcDbEntity
  8
0-A
  6
Continuous
 62
     4
370
     9
100
AcDbCircle
 10
-43.4849985937038
 20
355.8166006770182
 30
0.0
 40
138.0000105603781
100
AcDbArc
 50
145.751968383789
 51
154.2480316162109
  0
ARC
  5
43C
330
1F
100
AcDbEntity
  8
0-A
  6
Continuous
 62
     4
370
     9
100
AcDbCircle
 10
-43.4849985937038
 20
355.8166006770182
 30
0.0
 40
121.720801364501
100
AcDbArc
 50
35.35511779785156
 51
84.64486694335938
  0
ARC
  5
43D
330
1F
100
AcDbEntity
  8
0-A
  6
Continuous
 62
     4
370
     9
100
AcDbCircle
 10
-43.4849985937038
 20
355.8166006770182
 30
0.0
 40
119.7207796693309
100
AcDbArc
 50
67.87886047363283
 51
85.39083862304689
  0
ARC
  5
43E
330
1F
100
AcDbEntity
  8
0-A
  6
Continuous
 62
     4
370
     9
100
AcDbCircle
 10
-43.4849985937038
 20
355.8166006770182
 30
0.0
 40
138.0000105603781
100
AcDbArc
 50
85.75196838378903
 51
94.24803161621091
  0
ARC
  5
43F
330
1F
100
AcDbEntity
  8
0-A
  6
Continuous
 62
     4
370
     9
100
AcDbCircle
 10
-43.4849985937038
 20
355.8166006770182
 30
0.0
 40
137.4999958465458
100
AcDbArc
 50
76.66702270507812
 51
84.45344543457031
  0
ARC
  5
440
330
1F
100
AcDbEntity
  8
0-A
  6
Continuous
 62
     4
370
     9
100
AcDbCircle
 10
-43.4849985937038
 20
355.8166006770182
 30
0.0
 40
137.4999958465458
100
AcDbArc
 50
95.54653930664062
 51
103.3329772949219
  0
ARC
  5
441
330
1F
100
AcDbEntity
  8
0-A
  6
Continuous
 62
     4
370
     9
100
AcDbCircle
 10
-43.4849985937038
 20
355.8166006770182
 30
0.0
 40
121.720801364501
100
AcDbArc
 50
95.35513305664061
 51
144.6448822021484
  0
ARC
  5
442
330
1F
100
AcDbEntity
  8
0-A
  6
Continuous
 62
     4
370
     9
100
AcDbCircle
 10
-43.4849985937038
 20
355.8166006770182
 30
0.0
 40
119.7207796693309
100
AcDbArc
 50
94.60916137695311
 51
145.3908538818359
  0
ARC
  5
443
330
1F
100
AcDbEntity
  8
0-A
  6
Continuous
 62
     4
370
     9
100
AcDbCircle
 10
-43.4849985937038
 20
355.8166006770182
 30
0.0
 40
119.7207796693309
100
AcDbArc
 50
154.6091613769531
 51
172.1211242675781
  0
ARC
  5
444
330
1F
100
AcDbEntity
  8
0-A
  6
Continuous
 62
     4
370
     9
100
AcDbCircle
 10
-43.4849985937038
 20
355.8166006770182
 30
0.0
 40
121.720801364501
100
AcDbArc
 50
155.3551330566406
 51
180.0
  0
ARC
  5
445
330
1F
100
AcDbEntity
  8
0-A
  6
Continuous
 62
     4
370
     9
100
AcDbCircle
 10
-43.4849985937038
 20
355.8166006770182
 30
0.0
 40
137.4999958465458
100
AcDbArc
 50
155.5465393066406
 51
163.3329772949218
  0
ARC
  5
446
330
1F
100
AcDbEntity
  8
0-A
  6
Continuous
 62
     4
370
     9
100
AcDbCircle
 10
-43.4849985937038
 20
355.8166006770182
 30
0.0
 40
137.4999958465458
100
AcDbArc
 50
136.6670227050781
 51
144.4534606933593
  0
ARC
  5
447
330
1F
100
AcDbEntity
  8
0-A
  6
Continuous
 62
     4
370
     9
100
AcDbCircle
 10
-43.4849985937038
 20
355.8166006770182
 30
0.0
 40
105.9999978790872
100
AcDbArc
 50
0.0
 51
52.12356567382812
  0
ARC
  5
448
330
1F
100
AcDbEntity
  8
0-A
  6
Continuous
 62
     4
370
     9
100
AcDbCircle
 10
-43.4849985937038
 20
355.8166006770182
 30
0.0
 40
105.0000179983014
100
AcDbArc
 50
67.91398620605469
 51
172.0860748291016
  0
ARC
  5
449
330
1F
100
AcDbEntity
  8
0-A
  6
Continuous
 62
     4
370
     9
100
AcDbCircle
 10
-43.4849985937038
 20
355.8166006770182
 30
0.0
 40
105.9999978790872
100
AcDbArc
 50
67.87649536132812
 51
172.1236114501953
  0
ARC
  5
44A
330
1F
100
AcDbEntity
  8
0-A
  6
Continuous
 62
     4
370
     9
100
AcDbCircle
 10
-43.4849985937038
 20
355.8166006770182
 30
0.0
 40
142.9999966713452
100
AcDbArc
 50
167.2042388916016
 51
180.0
  0
ARC
  5
44B
330
1F
100
AcDbEntity
  8
0-A
  6
Continuous
 62
     4
370
     9
100
AcDbCircle
 10
-43.4849985937038
 20
355.8166006770182
 30
0.0
 40
105.0000179983014
100
AcDbArc
 50
0.0
 51
52.08602905273438
  0
ARC
  5
44C
330
1F
100
AcDbEntity
  8
0-A
  6
Continuous
 62
     4
370
     9
100
AcDbCircle
 10
-43.4849985937038
 20
355.8166006770182
 30
0.0
 40
145.0000059797957
100
AcDbArc
 50
0.0
 51
180.0
  0
ARC
  5
44D
330
1F
100
AcDbEntity
  8
0-A
  6
Continuous
 62
     4
370
     9
100
AcDbCircle
 10
-43.4849985937038
 20
355.8166006770182
 30
0.0
 40
142.9999966713452
100
AcDbArc
 50
0.0
 51
12.7957763671875
  0
LINE
  5
44E
330
1F
100
AcDbEntity
  8
0-5_文字
  6
Continuous
 62
     7
370
     9
100
AcDbLine
 10
-111.4850002727597
 20
9.521599621274959
 30
0.0
 11
-117.5726145628469
 21
17.45513302418731
 31
0.0
  0
LINE
  5
44F
330
1F
100
AcDbEntity
  8
0-5_文字
  6
Continuous
 62
     7
370
     9
100
AcDbLine
 10
-111.4850002727597
 20
9.521599621274959
 30
0.0
 11
-115.3118345964106
 21
18.76039494638783
 31
0.0
  0
LINE
  5
450
330
1F
100
AcDbEntity
  8
0-5_文字
  6
Continuous
 62
     7
370
     9
100
AcDbLine
 10
-128.6243501415194
 20
77.05308731403474
 30
0.0
 11
-134.7119644316066
 21
84.9866207169471
 31
0.0
  0
LINE
  5
451
330
1F
100
AcDbEntity
  8
0-5_文字
  6
Continuous
 62
     7
370
     9
100
AcDbLine
 10
-128.6243501415194
 20
77.05308731403474
 30
0.0
 11
-132.4511844651703
 21
86.29188263914762
 31
0.0
  0
LINE
  5
452
330
1F
100
AcDbEntity
  8
0-5_文字
  6
Continuous
 62
     7
370
     9
100
AcDbLine
 10
-153.985042190244
 20
31.02142717928439
 30
0.0
 11
-160.0726564803312
 21
38.95496058219675
 31
0.0
  0
LINE
  5
453
330
1F
100
AcDbEntity
  8
0-5_文字
  6
Continuous
 62
     7
370
     9
100
AcDbLine
 10
-153.985042190244
 20
31.02142717928439
 30
0.0
 11
-157.8118765138949
 21
40.26022250439726
 31
0.0
  0
LINE
  5
454
330
1F
100
AcDbEntity
  8
0-5_文字
  6
Continuous
 62
     7
370
     9
100
AcDbLine
 10
-197.1159644039914
 20
105.7263758307959
 30
0.0
 11
-323.6993302357279
 21
105.7263758307959
 31
0.0
  0
LINE
  5
455
330
1F
100
AcDbEntity
  8
0-5_文字
  6
Continuous
 62
     7
370
     9
100
AcDbLine
 10
-153.985042190244
 20
31.02142717928439
 30
0.0
 11
-197.1159644039914
 21
105.7263758307959
 31
0.0
  0
LINE
  5
456
330
1F
100
AcDbEntity
  8
0-5_文字
  6
Continuous
 62
     7
370
     9
100
AcDbLine
 10
-212.0077567166257
 20
221.4773840102917
 30
0.0
 11
-353.3501281242126
 21
221.4773840102917
 31
0.0
  0
LINE
  5
457
330
1F
100
AcDbEntity
  8
0-5_文字
  6
Continuous
 62
     7
370
     9
100
AcDbLine
 10
-128.6243501415194
 20
77.05308731403474
 30
0.0
 11
-212.0077567166257
 21
221.4773840102917
 31
0.0
  0
LINE
  5
458
330
1F
100
AcDbEntity
  8
0-5_文字
  6
Continuous
 62
     7
370
     9
100
AcDbLine
 10
47.51494246259555
 20
20.77752227017237
 30
0.0
 11
50.52200045763828
 21
30.31469177765464
 31
0.0
  0
LINE
  5
459
330
1F
100
AcDbEntity
  8
0-5_文字
  6
Continuous
 62
     7
370
     9
100
AcDbLine
 10
47.51494246259555
 20
20.77752227017237
 30
0.0
 11
52.88793854606379
 21
29.21143672830121
 31
0.0
  0
LINE
  5
45A
330
1F
100
AcDbEntity
  8
0-5_文字
  6
Continuous
 62
     7
370
     9
100
AcDbLine
 10
56.63195154080925
 20
16.02155090840095
 30
0.0
 11
59.63900953585198
 21
25.55872041588323
 31
0.0
  0
LINE
  5
45B
330
1F
100
AcDbEntity
  8
0-5_文字
  6
Continuous
 62
     7
370
     9
100
AcDbLine
 10
56.63195154080925
 20
16.02155090840095
 30
0.0
 11
62.00494762427748
 21
24.45546536652982
 31
0.0
  0
LINE
  5
45C
330
1F
100
AcDbEntity
  8
0-5_文字
  6
Continuous
 62
     7
370
     9
100
AcDbLine
 10
47.51494246259555
 20
20.77752227017237
 30
0.0
 11
133.7915364485225
 21
205.798275150986
 31
0.0
  0
LINE
  5
45D
330
1F
100
AcDbEntity
  8
0-5_文字
  6
Continuous
 62
     7
370
     9
100
AcDbLine
 10
133.7915364485225
 20
205.798275150986
 30
0.0
 11
276.9404334499728
 21
205.798275150986
 31
0.0
  0
LINE
  5
45E
330
1F
100
AcDbEntity
  8
0-5_文字
  6
Continuous
 62
     7
370
     9
100
AcDbLine
 10
56.63195154080925
 20
16.02155090840095
 30
0.0
 11
126.1590311674176
 21
165.1228543304817
 31
0.0
  0
LINE
  5
45F
330
1F
100
AcDbEntity
  8
0-5_文字
  6
Continuous
 62
     7
370
     9
100
AcDbLine
 10
126.1590311674176
 20
165.1228543304817
 30
0.0
 11
282.864228089839
 21
165.1228543304817
 31
0.0
  0
LINE
  5
460
330
1F
100
AcDbEntity
  8
0-5_文字
  6
Continuous
 62
     7
370
     9
100
AcDbLine
 10
98.63209608690559
 20
49.02150965922507
 30
0.0
 11
101.6391540819483
 21
58.55867916670735
 31
0.0
  0
LINE
  5
461
330
1F
100
AcDbEntity
  8
0-5_文字
  6
Continuous
 62
     7
370
     9
100
AcDbLine
 10
98.63209608690559
 20
49.02150965922507
 30
0.0
 11
104.0050921703738
 21
57.45542411735394
 31
0.0
  0
LINE
  5
462
330
1F
100
AcDbEntity
  8
0-5_文字
  6
Continuous
 62
     7
370
     9
100
AcDbLine
 10
98.63209608690559
 20
49.02150965922507
 30
0.0
 11
127.0686925029337
 21
110.0039874691347
 31
0.0
  0
LINE
  5
463
330
1F
100
AcDbEntity
  8
0-5_文字
  6
Continuous
 62
     7
370
     9
100
AcDbLine
 10
127.0686925029337
 20
110.0039874691347
 30
0.0
 11
283.8810791387871
 21
110.0039874691347
 31
0.0
  0
LINE
  5
464
330
1F
100
AcDbEntity
  8
0-4_寸法
  6
Continuous
 62
     7
370
     9
100
AcDbLine
 10
-103.085508855858
 20
96.14271002269112
 30
0.0
 11
16.11551166845047
 21
96.14271002269112
 31
0.0
  0
LINE
  5
465
330
1F
100
AcDbEntity
  8
0-4_寸法
  6
Continuous
 62
     7
370
     9
100
AcDbLine
 10
-103.085508855858
 20
96.14271002269112
 30
0.0
 11
-93.17106024211992
 21
97.44797194489163
 31
0.0
  0
LINE
  5
466
330
1F
100
AcDbEntity
  8
0-4_寸法
  6
Continuous
 62
     7
370
     9
100
AcDbLine
 10
-103.085508855858
 20
96.14271002269112
 30
0.0
 11
-93.17106024211992
 21
94.8374481004906
 31
0.0
  0
LINE
  5
467
330
1F
100
AcDbEntity
  8
0-4_寸法
  6
Continuous
 62
     7
370
     9
100
AcDbLine
 10
16.11551166845047
 20
96.14271002269112
 30
0.0
 11
6.201063054712369
 21
97.44797194489163
 31
0.0
  0
LINE
  5
468
330
1F
100
AcDbEntity
  8
0-4_寸法
  6
Continuous
 62
     7
370
     9
100
AcDbLine
 10
16.11551166845047
 20
96.14271002269112
 30
0.0
 11
6.201063054712369
 21
94.8374481004906
 31
0.0
  0
LINE
  5
469
330
1F
100
AcDbEntity
  8
0-4_寸法
  6
Continuous
 62
     7
370
     9
100
AcDbLine
 10
-103.085508855858
 20
97.34271002269112
 30
0.0
 11
-103.085508855858
 21
19.52160892972552
 31
0.0
  0
LINE
  5
46A
330
1F
100
AcDbEntity
  8
0-4_寸法
  6
Continuous
 62
     7
370
     9
100
AcDbLine
 10
16.11551166845047
 20
97.34271002269112
 30
0.0
 11
16.11551166845047
 21
19.52160892972549
 31
0.0
  0
LINE
  5
46B
330
1F
100
AcDbEntity
  8
0-4_寸法
  6
Continuous
 62
     7
370
     9
100
AcDbLine
 10
-115.9850635172001
 20
120.3135840376351
 30
0.0
 11
29.01496723603503
 21
120.3135840376351
 31
0.0
  0
LINE
  5
46C
330
1F
100
AcDbEntity
  8
0-4_寸法
  6
Continuous
 62
     7
370
     9
100
AcDbLine
 10
-115.9850635172001
 20
120.3135840376351
 30
0.0
 11
-106.070614903462
 21
121.6188459598356
 31
0.0
  0
LINE
  5
46D
330
1F
100
AcDbEntity
  8
0-4_寸法
  6
Continuous
 62
     7
370
     9
100
AcDbLine
 10
-115.9850635172001
 20
120.3135840376351
 30
0.0
 11
-106.070614903462
 21
119.0083221154346
 31
0.0
  0
LINE
  5
46E
330
1F
100
AcDbEntity
  8
0-4_寸法
  6
Continuous
 62
     7
370
     9
100
AcDbLine
 10
29.01496723603503
 20
120.3135840376351
 30
0.0
 11
19.10051862229692
 21
121.6188459598356
 31
0.0
  0
LINE
  5
46F
330
1F
100
AcDbEntity
  8
0-4_寸法
  6
Continuous
 62
     7
370
     9
100
AcDbLine
 10
29.01496723603503
 20
120.3135840376351
 30
0.0
 11
19.10051862229692
 21
119.0083221154346
 31
0.0
  0
LINE
  5
470
330
1F
100
AcDbEntity
  8
0-4_寸法
  6
Continuous
 62
     7
370
     9
100
AcDbLine
 10
-115.9850635172001
 20
121.5135840376351
 30
0.0
 11
-115.9850635172001
 21
87.52152904201131
 31
0.0
  0
LINE
  5
471
330
1F
100
AcDbEntity
  8
0-4_寸法
  6
Continuous
 62
     7
370
     9
100
AcDbLine
 10
29.01496723603503
 20
121.5135840376351
 30
0.0
 11
29.01496723603503
 21
87.52152904201128
 31
0.0
  0
LINE
  5
472
330
1F
100
AcDbEntity
  8
0-4_寸法
  6
Continuous
 62
     7
370
     9
100
AcDbLine
 10
-118.9850031595577
 20
141.7394034536892
 30
0.0
 11
32.01500597215009
 21
141.7394034536892
 31
0.0
  0
LINE
  5
473
330
1F
100
AcDbEntity
  8
0-4_寸法
  6
Continuous
 62
     7
370
     9
100
AcDbLine
 10
-118.9850031595577
 20
141.7394034536892
 30
0.0
 11
-109.0705545458196
 21
143.0446653758897
 31
0.0
  0
LINE
  5
474
330
1F
100
AcDbEntity
  8
0-4_寸法
  6
Continuous
 62
     7
370
     9
100
AcDbLine
 10
-118.9850031595577
 20
141.7394034536892
 30
0.0
 11
-109.0705545458196
 21
140.4341415314886
 31
0.0
  0
LINE
  5
475
330
1F
100
AcDbEntity
  8
0-4_寸法
  6
Continuous
 62
     7
370
     9
100
AcDbLine
 10
32.01500597215009
 20
141.7394034536892
 30
0.0
 11
22.10055735841198
 21
143.0446653758897
 31
0.0
  0
LINE
  5
476
330
1F
100
AcDbEntity
  8
0-4_寸法
  6
Continuous
 62
     7
370
     9
100
AcDbLine
 10
32.01500597215009
 20
141.7394034536892
 30
0.0
 11
22.10055735841198
 21
140.4341415314886
 31
0.0
  0
LINE
  5
477
330
1F
100
AcDbEntity
  8
0-4_寸法
  6
Continuous
 62
     7
370
     9
100
AcDbLine
 10
-118.9850031595577
 20
142.9394034536892
 30
0.0
 11
-118.9850031595577
 21
54.28052807487506
 31
0.0
  0
LINE
  5
478
330
1F
100
AcDbEntity
  8
0-4_寸法
  6
Continuous
 62
     7
370
     9
100
AcDbLine
 10
32.01500597215009
 20
142.9394034536892
 30
0.0
 11
32.01500597215009
 21
54.28052807487504
 31
0.0
  0
LINE
  5
479
330
1F
100
AcDbEntity
  8
0-4_寸法
  6
Continuous
 62
     7
370
     9
100
AcDbLine
 10
-139.4849747039781
 20
165.6840931945673
 30
0.0
 11
52.5149527431311
 21
165.6840931945673
 31
0.0
  0
LINE
  5
47A
330
1F
100
AcDbEntity
  8
0-4_寸法
  6
Continuous
 62
     7
370
     9
100
AcDbLine
 10
-139.4849747039781
 20
165.6840931945673
 30
0.0
 11
-129.57052609024
 21
166.9893551167678
 31
0.0
  0
LINE
  5
47B
330
1F
100
AcDbEntity
  8
0-4_寸法
  6
Continuous
 62
     7
370
     9
100
AcDbLine
 10
-139.4849747039781
 20
165.6840931945673
 30
0.0
 11
-129.57052609024
 21
164.3788312723668
 31
0.0
  0
LINE
  5
47C
330
1F
100
AcDbEntity
  8
0-4_寸法
  6
Continuous
 62
     7
370
     9
100
AcDbLine
 10
52.5149527431311
 20
165.6840931945673
 30
0.0
 11
42.60050412939299
 21
166.9893551167678
 31
0.0
  0
LINE
  5
47D
330
1F
100
AcDbEntity
  8
0-4_寸法
  6
Continuous
 62
     7
370
     9
100
AcDbLine
 10
52.5149527431311
 20
165.6840931945673
 30
0.0
 11
42.60050412939299
 21
164.3788312723668
 31
0.0
  0
LINE
  5
47E
330
1F
100
AcDbEntity
  8
0-4_寸法
  6
Continuous
 62
     7
370
     9
100
AcDbLine
 10
-139.4849747039781
 20
166.8840931945673
 30
0.0
 11
-139.4849747039781
 21
23.52152845286889
 31
0.0
  0
LINE
  5
47F
330
1F
100
AcDbEntity
  8
0-4_寸法
  6
Continuous
 62
     7
370
     9
100
AcDbLine
 10
52.5149527431311
 20
166.8840931945673
 30
0.0
 11
52.5149527431311
 21
23.52152845286886
 31
0.0
  0
LINE
  5
480
330
1F
100
AcDbEntity
  8
0-4_寸法
  6
Continuous
 62
     7
370
     9
100
AcDbLine
 10
-168.4850353561917
 20
194.0434887210757
 30
0.0
 11
81.51498862190536
 21
194.0434887210757
 31
0.0
  0
LINE
  5
481
330
1F
100
AcDbEntity
  8
0-4_寸法
  6
Continuous
 62
     7
370
     9
100
AcDbLine
 10
-168.4850353561917
 20
194.0434887210757
 30
0.0
 11
-158.5705867424536
 21
195.3487506432762
 31
0.0
  0
LINE
  5
482
330
1F
100
AcDbEntity
  8
0-4_寸法
  6
Continuous
 62
     7
370
     9
100
AcDbLine
 10
-168.4850353561917
 20
194.0434887210757
 30
0.0
 11
-158.5705867424536
 21
192.7382267988752
 31
0.0
  0
LINE
  5
483
330
1F
100
AcDbEntity
  8
0-4_寸法
  6
Continuous
 62
     7
370
     9
100
AcDbLine
 10
81.51498862190536
 20
194.0434887210757
 30
0.0
 11
71.60054000816726
 21
195.3487506432762
 31
0.0
  0
LINE
  5
484
330
1F
100
AcDbEntity
  8
0-4_寸法
  6
Continuous
 62
     7
370
     9
100
AcDbLine
 10
81.51498862190536
 20
194.0434887210757
 30
0.0
 11
71.60054000816726
 21
192.7382267988752
 31
0.0
  0
LINE
  5
485
330
1F
100
AcDbEntity
  8
0-4_寸法
  6
Continuous
 62
     7
370
     9
100
AcDbLine
 10
-168.4850353561917
 20
195.2434887210757
 30
0.0
 11
-168.4850353561917
 21
37.02151696459146
 31
0.0
  0
LINE
  5
486
330
1F
100
AcDbEntity
  8
0-4_寸法
  6
Continuous
 62
     7
370
     9
100
AcDbLine
 10
81.51498862190536
 20
195.2434887210757
 30
0.0
 11
81.51498862190536
 21
37.02151696459143
 31
0.0
  0
LINE
  5
487
330
1F
100
AcDbEntity
  8
0-4_寸法
  6
Continuous
 62
     7
370
     9
100
AcDbLine
 10
-170.985121312073
 20
220.7928634603701
 30
0.0
 11
84.0151241246654
 21
220.7928634603701
 31
0.0
  0
LINE
  5
488
330
1F
100
AcDbEntity
  8
0-4_寸法
  6
Continuous
 62
     7
370
     9
100
AcDbLine
 10
-170.985121312073
 20
220.7928634603701
 30
0.0
 11
-161.0706726983349
 21
222.0981253825707
 31
0.0
  0
LINE
  5
489
330
1F
100
AcDbEntity
  8
0-4_寸法
  6
Continuous
 62
     7
370
     9
100
AcDbLine
 10
-170.985121312073
 20
220.7928634603701
 30
0.0
 11
-161.0706726983349
 21
219.4876015381696
 31
0.0
  0
LINE
  5
48A
330
1F
100
AcDbEntity
  8
0-4_寸法
  6
Continuous
 62
     7
370
     9
100
AcDbLine
 10
84.0151241246654
 20
220.7928634603701
 30
0.0
 11
74.1006755109273
 21
222.0981253825707
 31
0.0
  0
LINE
  5
48B
330
1F
100
AcDbEntity
  8
0-4_寸法
  6
Continuous
 62
     7
370
     9
100
AcDbLine
 10
84.0151241246654
 20
220.7928634603701
 30
0.0
 11
74.1006755109273
 21
219.4876015381696
 31
0.0
  0
LINE
  5
48C
330
1F
100
AcDbEntity
  8
0-4_寸法
  6
Continuous
 62
     7
370
     9
100
AcDbLine
 10
-170.985121312073
 20
221.9928634603701
 30
0.0
 11
-170.985121312073
 21
11.16518099692735
 31
0.0
  0
LINE
  5
48D
330
1F
100
AcDbEntity
  8
0-4_寸法
  6
Continuous
 62
     7
370
     9
100
AcDbLine
 10
84.0151241246654
 20
221.9928634603701
 30
0.0
 11
84.0151241246654
 21
11.16518099692732
 31
0.0
  0
LINE
  5
48E
330
1F
100
AcDbEntity
  8
0-4_寸法
  6
Continuous
 62
     7
370
     9
100
AcDbLine
 10
-188.4850293469389
 20
246.0124100187102
 30
0.0
 11
101.5149826126525
 21
246.0124100187102
 31
0.0
  0
LINE
  5
48F
330
1F
100
AcDbEntity
  8
0-4_寸法
  6
Continuous
 62
     7
370
     9
100
AcDbLine
 10
-188.4850293469389
 20
246.0124100187102
 30
0.0
 11
-178.5705807332008
 21
247.3176719409107
 31
0.0
  0
LINE
  5
490
330
1F
100
AcDbEntity
  8
0-4_寸法
  6
Continuous
 62
     7
370
     9
100
AcDbLine
 10
-188.4850293469389
 20
246.0124100187102
 30
0.0
 11
-178.5705807332008
 21
244.7071480965097
 31
0.0
  0
LINE
  5
491
330
1F
100
AcDbEntity
  8
0-4_寸法
  6
Continuous
 62
     7
370
     9
100
AcDbLine
 10
101.5149826126525
 20
246.0124100187102
 30
0.0
 11
91.60053399891441
 21
247.3176719409107
 31
0.0
  0
LINE
  5
492
330
1F
100
AcDbEntity
  8
0-4_寸法
  6
Continuous
 62
     7
370
     9
100
AcDbLine
 10
101.5149826126525
 20
246.0124100187102
 30
0.0
 11
91.60053399891441
 21
244.7071480965097
 31
0.0
  0
LINE
  5
493
330
1F
100
AcDbEntity
  8
0-4_寸法
  6
Continuous
 62
     7
370
     9
100
AcDbLine
 10
-188.4850293469389
 20
247.2124100187102
 30
0.0
 11
-188.4850293469389
 21
41.02153558149234
 31
0.0
  0
LINE
  5
494
330
1F
100
AcDbEntity
  8
0-4_寸法
  6
Continuous
 62
     7
370
     9
100
AcDbLine
 10
101.5149826126525
 20
247.2124100187102
 30
0.0
 11
101.5149826126525
 21
41.02153558149229
 31
0.0
  0
TEXT
  5
495
330
1F
100
AcDbEntity
  8
0-4_寸法
  6
Continuous
 62
     2
370
   211
100
AcDbText
 10
-65.48502336714319
 20
250.6684100187103
 30
0.0
 40
12.192
  1
φ290
 41
1.1
  7
ＭＳ ゴシック
100
AcDbText
  0
TEXT
  5
496
330
1F
100
AcDbEntity
  8
0-4_寸法
  6
Continuous
 62
     2
370
   211
100
AcDbText
 10
-65.48499859370378
 20
225.4488634603701
 30
0.0
 40
12.192
  1
φ255
 41
1.1
  7
ＭＳ ゴシック
100
AcDbText
  0
TEXT
  5
497
330
1F
100
AcDbEntity
  8
0-4_寸法
  6
Continuous
 62
     2
370
   211
100
AcDbText
 10
-65.48502336714319
 20
198.6994887210757
 30
0.0
 40
12.192
  1
φ250
 41
1.1
  7
ＭＳ ゴシック
100
AcDbText
  0
TEXT
  5
498
330
1F
100
AcDbEntity
  8
0-4_寸法
  6
Continuous
 62
     2
370
   211
100
AcDbText
 10
-65.48501098042348
 20
170.3400931945673
 30
0.0
 40
12.192
  1
φ192
 41
1.1
  7
ＭＳ ゴシック
100
AcDbText
  0
TEXT
  5
499
330
1F
100
AcDbEntity
  8
0-4_寸法
  6
Continuous
 62
     2
370
   211
100
AcDbText
 10
-65.48499859370379
 20
146.3954034536892
 30
0.0
 40
12.192
  1
φ151
 41
1.1
  7
ＭＳ ゴシック
100
AcDbText
  0
TEXT
  5
49A
330
1F
100
AcDbEntity
  8
0-4_寸法
  6
Continuous
 62
     2
370
   211
100
AcDbText
 10
-65.48504814058252
 20
124.9695840376351
 30
0.0
 40
12.192
  1
φ145
 41
1.1
  7
ＭＳ ゴシック
100
AcDbText
  0
TEXT
  5
49B
330
1F
100
AcDbEntity
  8
0-4_寸法
  6
Continuous
 62
     2
370
   211
100
AcDbText
 10
-65.48499859370378
 20
100.7987100226911
 30
0.0
 40
12.192
  1
φ120
 41
1.1
  7
ＭＳ ゴシック
100
AcDbText
  0
LINE
  5
49C
330
1F
100
AcDbEntity
  8
0-0_通り芯
  6
JWW_CENTER1
 62
     3
370
     9
100
AcDbLine
 10
-43.48502336714314
 20
88.25277911270841
 30
0.0
 11
-43.48502336714316
 21
-38.36702154358478
 31
0.0
  0
LINE
  5
49D
330
1F
100
AcDbEntity
  8
0-0_通り芯
  6
JWW_CENTER1
 62
     3
370
     9
100
AcDbLine
 10
-43.48502336714316
 20
-71.3261827163229
 30
0.0
 11
-43.48502336714319
 21
-180.3409993428712
 31
0.0
  0
ENDSEC
  0
SECTION
  2
OBJECTS
  0
DICTIONARY
  5
C
330
0
100
AcDbDictionary
281
     1
  3
ACAD_GROUP
350
D
  3
ACAD_LAYOUT
350
1A
  3
ACAD_MLEADERSTYLE
350
49F
  3
ACAD_MLINESTYLE
350
17
  3
ACAD_PLOTSETTINGS
350
19
  3
ACAD_PLOTSTYLENAME
350
E
  3
ACAD_TABLESTYLE
350
49E
  3
ACAD_VISUALSTYLE
350
2A
  0
DICTIONARY
  5
D
102
{ACAD_REACTORS
330
C
102
}
330
C
100
AcDbDictionary
281
     1
  0
DICTIONARY
  5
1A
102
{ACAD_REACTORS
330
C
102
}
330
C
100
AcDbDictionary
281
     1
  3
Layout1
350
1E
  3
Layout2
350
26
  3
Model
350
22
  0
DICTIONARY
  5
49F
102
{ACAD_REACTORS
330
C
102
}
330
C
100
AcDbDictionary
281
     1
  0
DICTIONARY
  5
17
102
{ACAD_REACTORS
330
C
102
}
330
C
100
AcDbDictionary
281
     1
  3
Standard
350
18
  0
DICTIONARY
  5
19
102
{ACAD_REACTORS
330
C
102
}
330
C
100
AcDbDictionary
281
     1
  0
ACDBDICTIONARYWDFLT
  5
E
102
{ACAD_REACTORS
330
C
102
}
330
C
100
AcDbDictionary
281
     1
  3
Normal
350
F
100
AcDbDictionaryWithDefault
340
F
  0
DICTIONARY
  5
49E
102
{ACAD_REACTORS
330
C
102
}
330
C
100
AcDbDictionary
281
     1
  0
DICTIONARY
  5
2A
102
{ACAD_REACTORS
330
C
102
}
330
C
100
AcDbDictionary
281
     1
  3
2dWireframe
350
2F
  3
3D Hidden
350
31
  3
3dWireframe
350
30
  3
Basic
350
32
  3
Brighten
350
36
  3
ColorChange
350
3A
  3
Conceptual
350
34
  3
Dim
350
35
  3
Facepattern
350
39
  3
Flat
350
2B
  3
FlatWithEdges
350
2C
  3
Gouraud
350
2D
  3
GouraudWithEdges
350
2E
  3
Linepattern
350
38
  3
Realistic
350
33
  3
Thicken
350
37
  0
LAYOUT
  5
1E
102
{ACAD_REACTORS
330
1A
102
}
330
1A
100
AcDbPlotSettings
  1

  2
none_device
  4

  6

 40
0.0
 41
0.0
 42
0.0
 43
0.0
 44
0.0
 45
0.0
 46
0.0
 47
0.0
 48
0.0
 49
0.0
140
0.0
141
0.0
142
1.0
143
1.0
 70
   688
 72
     0
 73
     0
 74
     5
  7

 75
    16
 76
     0
 77
     5
 78
   300
147
1.0
148
0.0
149
0.0
100
AcDbLayout
  1
Layout1
 70
     1
 71
     1
 10
0.0
 20
0.0
 11
420.0
 21
297.0
 12
0.0
 22
0.0
 32
0.0
 14
1.000000000000000E+20
 24
1.000000000000000E+20
 34
1.000000000000000E+20
 15
-1.000000000000000E+20
 25
-1.000000000000000E+20
 35
-1.000000000000000E+20
146
0.0
 13
0.0
 23
0.0
 33
0.0
 16
1.0
 26
0.0
 36
0.0
 17
0.0
 27
1.0
 37
0.0
 76
     0
330
1B
  0
LAYOUT
  5
26
102
{ACAD_REACTORS
330
1A
102
}
330
1A
100
AcDbPlotSettings
  1

  2
none_device
  4

  6

 40
0.0
 41
0.0
 42
0.0
 43
0.0
 44
0.0
 45
0.0
 46
0.0
 47
0.0
 48
0.0
 49
0.0
140
0.0
141
0.0
142
1.0
143
1.0
 70
   688
 72
     0
 73
     0
 74
     5
  7

 75
    16
 76
     0
 77
     5
 78
   300
147
1.0
148
0.0
149
0.0
100
AcDbLayout
  1
Layout2
 70
     1
 71
     2
 10
0.0
 20
0.0
 11
0.0
 21
0.0
 12
0.0
 22
0.0
 32
0.0
 14
0.0
 24
0.0
 34
0.0
 15
0.0
 25
0.0
 35
0.0
146
0.0
 13
0.0
 23
0.0
 33
0.0
 16
1.0
 26
0.0
 36
0.0
 17
0.0
 27
1.0
 37
0.0
 76
     0
330
23
  0
LAYOUT
  5
22
102
{ACAD_REACTORS
330
1A
102
}
330
1A
100
AcDbPlotSettings
  1

  2
none_device
  4

  6

 40
0.0
 41
0.0
 42
0.0
 43
0.0
 44
0.0
 45
0.0
 46
0.0
 47
0.0
 48
0.0
 49
0.0
140
0.0
141
0.0
142
1.0
143
1.0
 70
  1712
 72
     0
 73
     0
 74
     0
  7

 75
     0
 76
     0
 77
     5
 78
   300
147
1.0
148
0.0
149
0.0
100
AcDbLayout
  1
Model
 70
     1
 71
     0
 10
-840.0
 20
-594.0
 11
840.0
 21
594.0
 12
0.0
 22
0.0
 32
0.0
 14
-840.0
 24
-594.0
 34
0.0
 15
840.0
 25
594.0
 35
0.0
146
0.0
 13
0.0
 23
0.0
 33
0.0
 16
1.0
 26
0.0
 36
0.0
 17
0.0
 27
1.0
 37
0.0
 76
     0
330
1F
331
29
  0
MLINESTYLE
  5
18
102
{ACAD_REACTORS
330
17
102
}
330
17
100
AcDbMlineStyle
  2
Standard
 70
     0
  3

 62
   256
 51
90.0
 52
90.0
 71
     2
 49
0.5
 62
   256
  6
BYLAYER
 49
-0.5
 62
   256
  6
BYLAYER
  0
ACDBPLACEHOLDER
  5
F
102
{ACAD_REACTORS
330
E
102
}
330
E
  0
VISUALSTYLE
  5
2F
102
{ACAD_REACTORS
330
2A
102
}
330
2A
100
AcDbVisualStyle
  2
2dWireframe
 70
     4
 71
     0
 72
     2
 73
     0
 90
        0
 40
-0.6
 41
-30.0
 62
     5
 63
     7
421
 16777215
 74
     1
 91
        4
 64
     7
 65
   257
 75
     1
175
     1
 42
1.0
 92
        0
 66
   257
 43
1.0
 76
     1
 77
     6
 78
     2
 67
     7
 79
     5
170
     0
171
     0
290
     0
174
     0
 93
        1
 44
0.0
173
     0
291
     0
 45
0.0
1001
ACAD
1000
AcDbSavedByObjectVersion
1070
     0
  0
VISUALSTYLE
  5
31
102
{ACAD_REACTORS
330
2A
102
}
330
2A
100
AcDbVisualStyle
  2
3D Hidden
 70
     6
 71
     1
 72
     2
 73
     2
 90
        0
 40
-0.6
 41
-30.0
 62
     5
 63
     7
421
 16777215
 74
     2
 91
        2
 64
     7
 65
   257
 75
     2
175
     1
 42
40.0
 92
        0
 66
   257
 43
1.0
 76
     1
 77
     6
 78
     2
 67
     7
 79
     3
170
     0
171
     0
290
     0
174
     0
 93
        1
 44
0.0
173
     0
291
     0
 45
0.0
1001
ACAD
1000
AcDbSavedByObjectVersion
1070
     0
  0
VISUALSTYLE
  5
30
102
{ACAD_REACTORS
330
2A
102
}
330
2A
100
AcDbVisualStyle
  2
3dWireframe
 70
     5
 71
     0
 72
     2
 73
     0
 90
        0
 40
-0.6
 41
-30.0
 62
     5
 63
     7
421
 16777215
 74
     1
 91
        4
 64
     7
 65
   257
 75
     1
175
     1
 42
1.0
 92
        0
 66
   257
 43
1.0
 76
     1
 77
     6
 78
     2
 67
     7
 79
     5
170
     0
171
     0
290
     0
174
     0
 93
        1
 44
0.0
173
     0
291
     0
 45
0.0
1001
ACAD
1000
AcDbSavedByObjectVersion
1070
     0
  0
VISUALSTYLE
  5
32
102
{ACAD_REACTORS
330
2A
102
}
330
2A
100
AcDbVisualStyle
  2
Basic
 70
     7
 71
     1
 72
     0
 73
     1
 90
        0
 40
-0.6
 41
-30.0
 62
     5
 63
     7
421
 16777215
 74
     0
 91
        4
 64
     7
 65
   257
 75
     1
175
     1
 42
1.0
 92
        8
 66
     7
 43
1.0
 76
     1
 77
     6
 78
     2
 67
     7
 79
     5
170
     0
171
     0
290
     0
174
     0
 93
        1
 44
0.0
173
     0
291
     1
 45
0.0
1001
ACAD
1000
AcDbSavedByObjectVersion
1070
     0
  0
VISUALSTYLE
  5
36
102
{ACAD_REACTORS
330
2A
102
}
330
2A
100
AcDbVisualStyle
  2
Brighten
 70
    12
 71
     2
 72
     2
 73
     0
 90
        0
 40
-0.6
 41
-30.0
 62
     5
 63
     7
421
 16777215
 74
     1
 91
        4
 64
     7
 65
   257
 75
     1
175
     1
 42
1.0
 92
        8
 66
     7
 43
1.0
 76
     1
 77
     6
 78
     2
 67
     7
 79
     5
170
     0
171
     0
290
     0
174
     0
 93
        1
 44
50.0
173
     0
291
     1
 45
0.0
1001
ACAD
1000
AcDbSavedByObjectVersion
1070
     0
  0
VISUALSTYLE
  5
3A
102
{ACAD_REACTORS
330
2A
102
}
330
2A
100
AcDbVisualStyle
  2
ColorChange
 70
    16
 71
     2
 72
     2
 73
     3
 90
        0
 40
-0.6
 41
-30.0
 62
     5
 63
     8
421
  8421504
 74
     1
 91
        4
 64
     7
 65
   257
 75
     1
175
     1
 42
1.0
 92
        8
 66
     8
424
  8421504
 43
1.0
 76
     1
 77
     6
 78
     2
 67
     7
 79
     5
170
     0
171
     0
290
     0
174
     0
 93
        1
 44
0.0
173
     0
291
     1
 45
0.0
1001
ACAD
1000
AcDbSavedByObjectVersion
1070
     0
  0
VISUALSTYLE
  5
34
102
{ACAD_REACTORS
330
2A
102
}
330
2A
100
AcDbVisualStyle
  2
Conceptual
 70
     9
 71
     3
 72
     2
 73
     0
 90
        0
 40
-0.6
 41
-30.0
 62
     5
 63
     7
421
 16777215
 74
     2
 91
        2
 64
     7
 65
   257
 75
     1
175
     1
 42
40.0
 92
        8
 66
     7
 43
1.0
 76
     1
 77
     6
 78
     2
 67
     7
 79
     3
170
     0
171
     0
290
     0
174
     0
 93
        1
 44
0.0
173
     0
291
     0
 45
0.0
1001
ACAD
1000
AcDbSavedByObjectVersion
1070
     0
  0
VISUALSTYLE
  5
35
102
{ACAD_REACTORS
330
2A
102
}
330
2A
100
AcDbVisualStyle
  2
Dim
 70
    11
 71
     2
 72
     2
 73
     0
 90
        0
 40
-0.6
 41
-30.0
 62
     5
 63
     7
421
 16777215
 74
     1
 91
        4
 64
     7
 65
   257
 75
     1
175
     1
 42
1.0
 92
        8
 66
     7
 43
1.0
 76
     1
 77
     6
 78
     2
 67
     7
 79
     5
170
     0
171
     0
290
     0
174
     0
 93
        1
 44
-50.0
173
     0
291
     1
 45
0.0
1001
ACAD
1000
AcDbSavedByObjectVersion
1070
     0
  0
VISUALSTYLE
  5
39
102
{ACAD_REACTORS
330
2A
102
}
330
2A
100
AcDbVisualStyle
  2
Facepattern
 70
    15
 71
     2
 72
     2
 73
     0
 90
        0
 40
-0.6
 41
-30.0
 62
     5
 63
     7
421
 16777215
 74
     1
 91
        4
 64
     7
 65
   257
 75
     1
175
     1
 42
1.0
 92
        8
 66
     7
 43
1.0
 76
     1
 77
     6
 78
     2
 67
     7
 79
     5
170
     0
171
     0
290
     0
174
     0
 93
        1
 44
0.0
173
     0
291
     1
 45
0.0
1001
ACAD
1000
AcDbSavedByObjectVersion
1070
     0
  0
VISUALSTYLE
  5
2B
102
{ACAD_REACTORS
330
2A
102
}
330
2A
100
AcDbVisualStyle
  2
Flat
 70
     0
 71
     2
 72
     1
 73
     1
 90
        2
 40
-0.6
 41
30.0
 62
     5
 63
     7
421
 16777215
 74
     0
 91
        4
 64
     7
 65
   257
 75
     1
175
     1
 42
1.0
 92
        8
 66
     7
 43
1.0
 76
     1
 77
     6
 78
     2
 67
     7
 79
     5
170
     0
171
     0
290
     0
174
     0
 93
       13
 44
0.0
173
     0
291
     1
 45
0.0
1001
ACAD
1000
AcDbSavedByObjectVersion
1070
     0
  0
VISUALSTYLE
  5
2C
102
{ACAD_REACTORS
330
2A
102
}
330
2A
100
AcDbVisualStyle
  2
FlatWithEdges
 70
     1
 71
     2
 72
     1
 73
     1
 90
        2
 40
-0.6
 41
30.0
 62
     5
 63
     7
421
 16777215
 74
     1
 91
        4
 64
     7
 65
   257
 75
     1
175
     1
 42
1.0
 92
        0
 66
   257
 43
1.0
 76
     1
 77
     6
 78
     2
 67
     7
 79
     5
170
     0
171
     0
290
     0
174
     0
 93
       13
 44
0.0
173
     0
291
     1
 45
0.0
1001
ACAD
1000
AcDbSavedByObjectVersion
1070
     0
  0
VISUALSTYLE
  5
2D
102
{ACAD_REACTORS
330
2A
102
}
330
2A
100
AcDbVisualStyle
  2
Gouraud
 70
     2
 71
     2
 72
     2
 73
     1
 90
        2
 40
-0.6
 41
30.0
 62
     5
 63
     7
421
 16777215
 74
     0
 91
        4
 64
     7
 65
   257
 75
     1
175
     1
 42
1.0
 92
        0
 66
     7
 43
1.0
 76
     1
 77
     6
 78
     2
 67
     7
 79
     5
170
     0
171
     0
290
     0
174
     0
 93
       13
 44
0.0
173
     0
291
     1
 45
0.0
1001
ACAD
1000
AcDbSavedByObjectVersion
1070
     0
  0
VISUALSTYLE
  5
2E
102
{ACAD_REACTORS
330
2A
102
}
330
2A
100
AcDbVisualStyle
  2
GouraudWithEdges
 70
     3
 71
     2
 72
     2
 73
     1
 90
        2
 40
-0.6
 41
30.0
 62
     5
 63
     7
421
 16777215
 74
     1
 91
        4
 64
     7
 65
   257
 75
     1
175
     1
 42
1.0
 92
        0
 66
   257
 43
1.0
 76
     1
 77
     6
 78
     2
 67
     7
 79
     5
170
     0
171
     0
290
     0
174
     0
 93
       13
 44
0.0
173
     0
291
     1
 45
0.0
1001
ACAD
1000
AcDbSavedByObjectVersion
1070
     0
  0
VISUALSTYLE
  5
38
102
{ACAD_REACTORS
330
2A
102
}
330
2A
100
AcDbVisualStyle
  2
Linepattern
 70
    14
 71
     2
 72
     2
 73
     0
 90
        0
 40
-0.6
 41
-30.0
 62
     5
 63
     7
421
 16777215
 74
     1
 91
        4
 64
     7
 65
   257
 75
     7
175
     7
 42
1.0
 92
        8
 66
     7
 43
1.0
 76
     1
 77
     6
 78
     2
 67
     7
 79
     5
170
     0
171
     0
290
     0
174
     0
 93
        1
 44
0.0
173
     0
291
     1
 45
0.0
1001
ACAD
1000
AcDbSavedByObjectVersion
1070
     0
  0
VISUALSTYLE
  5
33
102
{ACAD_REACTORS
330
2A
102
}
330
2A
100
AcDbVisualStyle
  2
Realistic
 70
     8
 71
     2
 72
     2
 73
     0
 90
        0
 40
-0.6
 41
-30.0
 62
     5
 63
     7
421
 16777215
 74
     1
 91
        0
 64
     7
 65
   257
 75
     1
175
     1
 42
1.0
 92
        8
 66
     8
424
  7895160
 43
1.0
 76
     1
 77
     6
 78
     2
 67
     7
 79
     5
170
     0
171
     0
290
     0
174
     0
 93
       13
 44
0.0
173
     0
291
     0
 45
0.0
1001
ACAD
1000
AcDbSavedByObjectVersion
1070
     0
  0
VISUALSTYLE
  5
37
102
{ACAD_REACTORS
330
2A
102
}
330
2A
100
AcDbVisualStyle
  2
Thicken
 70
    13
 71
     2
 72
     2
 73
     0
 90
        0
 40
-0.6
 41
-30.0
 62
     5
 63
     7
421
 16777215
 74
     1
 91
        4
 64
     7
 65
   257
 75
     1
175
     1
 42
1.0
 92
       12
 66
     7
 43
1.0
 76
     1
 77
     6
 78
     2
 67
     7
 79
     5
170
     0
171
     0
290
     0
174
     0
 93
        1
 44
0.0
173
     0
291
     1
 45
0.0
1001
ACAD
1000
AcDbSavedByObjectVersion
1070
     0
  0
ENDSEC
  0
EOF
