  0
SECTION
  2
HEADER
  9
$ACADVER
  1
AC1018
  9
$ACADMAINTVER
 70
     0
  9
$DWGCODEPAGE
  3
ANSI_932
  9
$INSBASE
 10
0.0
 20
0.0
 30
0.0
  9
$EXTMIN
 10
-840.0
 20
-594.0
 30
0.0
  9
$EXTMAX
 10
840.0
 20
594.0
 30
0.0
  9
$LIMMIN
 10
-840.0
 20
-594.0
  9
$LIMMAX
 10
840.0
 20
594.0
  9
$ORTHOMODE
 70
     0
  9
$REGENMODE
 70
     1
  9
$FILLMODE
 70
     1
  9
$QTEXTMODE
 70
     0
  9
$MIRRTEXT
 70
     1
  9
$LTSCALE
 40
4.0
  9
$ATTMODE
 70
     1
  9
$TEXTSIZE
 40
2.5
  9
$TRACEWID
 40
1.0
  9
$TEXTSTYLE
  7
Standard
  9
$CLAYER
  8
0
  9
$CELTYPE
  6
ByLayer
  9
$CECOLOR
 62
   256
  9
$CELTSCALE
 40
1.0
  9
$DISPSILH
 70
     0
  9
$DIMSCALE
 40
1.0
  9
$DIMASZ
 40
2.5
  9
$DIMEXO
 40
0.625
  9
$DIMDLI
 40
3.75
  9
$DIMRND
 40
0.0
  9
$DIMDLE
 40
0.0
  9
$DIMEXE
 40
1.25
  9
$DIMTP
 40
0.0
  9
$DIMTM
 40
0.0
  9
$DIMTXT
 40
2.5
  9
$DIMCEN
 40
2.5
  9
$DIMTSZ
 40
0.0
  9
$DIMTOL
 70
     0
  9
$DIMLIM
 70
     0
  9
$DIMTIH
 70
     0
  9
$DIMTOH
 70
     0
  9
$DIMSE1
 70
     0
  9
$DIMSE2
 70
     0
  9
$DIMTAD
 70
     1
  9
$DIMZIN
 70
     8
  9
$DIMBLK
  1

  9
$DIMASO
 70
     1
  9
$DIMSHO
 70
     1
  9
$DIMPOST
  1

  9
$DIMAPOST
  1

  9
$DIMALT
 70
     0
  9
$DIMALTD
 70
     3
  9
$DIMALTF
 40
0.03937007874016
  9
$DIMLFAC
 40
1.0
  9
$DIMTOFL
 70
     1
  9
$DIMTVP
 40
0.0
  9
$DIMTIX
 70
     0
  9
$DIMSOXD
 70
     0
  9
$DIMSAH
 70
     0
  9
$DIMBLK1
  1

  9
$DIMBLK2
  1

  9
$DIMSTYLE
  2
ISO-25
  9
$DIMCLRD
 70
     0
  9
$DIMCLRE
 70
     0
  9
$DIMCLRT
 70
     0
  9
$DIMTFAC
 40
1.0
  9
$DIMGAP
 40
0.625
  9
$DIMJUST
 70
     0
  9
$DIMSD1
 70
     0
  9
$DIMSD2
 70
     0
  9
$DIMTOLJ
 70
     0
  9
$DIMTZIN
 70
     8
  9
$DIMALTZ
 70
     0
  9
$DIMALTTZ
 70
     0
  9
$DIMUPT
 70
     0
  9
$DIMDEC
 70
     2
  9
$DIMTDEC
 70
     2
  9
$DIMALTU
 70
     2
  9
$DIMALTTD
 70
     3
  9
$DIMTXSTY
  7
Standard
  9
$DIMAUNIT
 70
     0
  9
$DIMADEC
 70
     0
  9
$DIMALTRND
 40
0.0
  9
$DIMAZIN
 70
     0
  9
$DIMDSEP
 70
    44
  9
$DIMATFIT
 70
     3
  9
$DIMFRAC
 70
     0
  9
$DIMLDRBLK
  1

  9
$DIMLUNIT
 70
     2
  9
$DIMLWD
 70
    -2
  9
$DIMLWE
 70
    -2
  9
$DIMTMOVE
 70
     0
  9
$LUNITS
 70
     2
  9
$LUPREC
 70
     4
  9
$SKETCHINC
 40
1.0
  9
$FILLETRAD
 40
10.0
  9
$AUNITS
 70
     0
  9
$AUPREC
 70
     0
  9
$MENU
  1
.
  9
$ELEVATION
 40
0.0
  9
$PELEVATION
 40
0.0
  9
$THICKNESS
 40
0.0
  9
$LIMCHECK
 70
     0
  9
$CHAMFERA
 40
0.0
  9
$CHAMFERB
 40
0.0
  9
$CHAMFERC
 40
0.0
  9
$CHAMFERD
 40
0.0
  9
$SKPOLY
 70
     0
  9
$TDCREATE
 40
2460035.465800845
  9
$TDUCREATE
 40
2460035.090800845
  9
$TDUPDATE
 40
2460035.465800961
  9
$TDUUPDATE
 40
2460035.090800961
  9
$TDINDWG
 40
0.0000000116
  9
$TDUSRTIMER
 40
0.0000000116
  9
$USRTIMER
 70
     1
  9
$ANGBASE
 50
0.0
  9
$ANGDIR
 70
     0
  9
$PDMODE
 70
     0
  9
$PDSIZE
 40
0.0
  9
$PLINEWID
 40
0.0
  9
$SPLFRAME
 70
     0
  9
$SPLINETYPE
 70
     6
  9
$SPLINESEGS
 70
     8
  9
$HANDSEED
  5
3BF
  9
$SURFTAB1
 70
     6
  9
$SURFTAB2
 70
     6
  9
$SURFTYPE
 70
     6
  9
$SURFU
 70
     6
  9
$SURFV
 70
     6
  9
$UCSBASE
  2

  9
$UCSNAME
  2

  9
$UCSORG
 10
0.0
 20
0.0
 30
0.0
  9
$UCSXDIR
 10
1.0
 20
0.0
 30
0.0
  9
$UCSYDIR
 10
0.0
 20
1.0
 30
0.0
  9
$UCSORTHOREF
  2

  9
$UCSORTHOVIEW
 70
     0
  9
$UCSORGTOP
 10
0.0
 20
0.0
 30
0.0
  9
$UCSORGBOTTOM
 10
0.0
 20
0.0
 30
0.0
  9
$UCSORGLEFT
 10
0.0
 20
0.0
 30
0.0
  9
$UCSORGRIGHT
 10
0.0
 20
0.0
 30
0.0
  9
$UCSORGFRONT
 10
0.0
 20
0.0
 30
0.0
  9
$UCSORGBACK
 10
0.0
 20
0.0
 30
0.0
  9
$PUCSBASE
  2

  9
$PUCSNAME
  2

  9
$PUCSORG
 10
0.0
 20
0.0
 30
0.0
  9
$PUCSXDIR
 10
1.0
 20
0.0
 30
0.0
  9
$PUCSYDIR
 10
0.0
 20
1.0
 30
0.0
  9
$PUCSORTHOREF
  2

  9
$PUCSORTHOVIEW
 70
     0
  9
$PUCSORGTOP
 10
0.0
 20
0.0
 30
0.0
  9
$PUCSORGBOTTOM
 10
0.0
 20
0.0
 30
0.0
  9
$PUCSORGLEFT
 10
0.0
 20
0.0
 30
0.0
  9
$PUCSORGRIGHT
 10
0.0
 20
0.0
 30
0.0
  9
$PUCSORGFRONT
 10
0.0
 20
0.0
 30
0.0
  9
$PUCSORGBACK
 10
0.0
 20
0.0
 30
0.0
  9
$USERI1
 70
     0
  9
$USERI2
 70
     0
  9
$USERI3
 70
     0
  9
$USERI4
 70
     0
  9
$USERI5
 70
     0
  9
$USERR1
 40
0.0
  9
$USERR2
 40
0.0
  9
$USERR3
 40
0.0
  9
$USERR4
 40
0.0
  9
$USERR5
 40
0.0
  9
$WORLDVIEW
 70
     1
  9
$SHADEDGE
 70
     3
  9
$SHADEDIF
 70
    70
  9
$TILEMODE
 70
     1
  9
$MAXACTVP
 70
    64
  9
$PINSBASE
 10
0.0
 20
0.0
 30
0.0
  9
$PLIMCHECK
 70
     0
  9
$PEXTMIN
 10
1.000000000000000E+20
 20
1.000000000000000E+20
 30
1.000000000000000E+20
  9
$PEXTMAX
 10
-1.000000000000000E+20
 20
-1.000000000000000E+20
 30
-1.000000000000000E+20
  9
$PLIMMIN
 10
0.0
 20
0.0
  9
$PLIMMAX
 10
420.0
 20
297.0
  9
$UNITMODE
 70
     0
  9
$VISRETAIN
 70
     1
  9
$PLINEGEN
 70
     0
  9
$PSLTSCALE
 70
     1
  9
$TREEDEPTH
 70
  3020
  9
$CMLSTYLE
  2
Standard
  9
$CMLJUST
 70
     0
  9
$CMLSCALE
 40
20.0
  9
$PROXYGRAPHICS
 70
     1
  9
$MEASUREMENT
 70
     1
  9
$CELWEIGHT
370
    -1
  9
$ENDCAPS
280
     0
  9
$JOINSTYLE
280
     0
  9
$LWDISPLAY
290
     0
  9
$INSUNITS
 70
     4
  9
$HYPERLINKBASE
  1

  9
$STYLESHEET
  1

  9
$XEDIT
290
     1
  9
$CEPSNTYPE
380
     0
  9
$PSTYLEMODE
290
     1
  9
$FINGERPRINTGUID
  2
{0BA0E378-C8B3-4EEC-89BD-31F4C8BA1599}
  9
$VERSIONGUID
  2
{FAEB1C32-E019-11D5-929B-00C0DF256EC4}
  9
$EXTNAMES
290
     1
  9
$PSVPSCALE
 40
0.0
  9
$OLESTARTUP
290
     0
  9
$SORTENTS
280
   127
  9
$INDEXCTL
280
     0
  9
$HIDETEXT
280
     1
  9
$XCLIPFRAME
290
     0
  9
$HALOGAP
280
     0
  9
$OBSCOLOR
 70
   257
  9
$OBSLTYPE
280
     0
  9
$INTERSECTIONDISPLAY
280
     0
  9
$INTERSECTIONCOLOR
 70
   257
  9
$DIMASSOC
280
     2
  9
$PROJECTNAME
  1

  0
ENDSEC
  0
SECTION
  2
CLASSES
  0
CLASS
  1
ACDBDICTIONARYWDFLT
  2
AcDbDictionaryWithDefault
  3
ObjectDBX Classes
 90
        0
 91
        4
280
     0
281
     0
  0
CLASS
  1
VISUALSTYLE
  2
AcDbVisualStyle
  3
ObjectDBX Classes
 90
     4095
 91
        4
280
     0
281
     0
  0
CLASS
  1
MATERIAL
  2
AcDbMaterial
  3
ObjectDBX Classes
 90
     1153
 91
        4
280
     0
281
     0
  0
CLASS
  1
SCALE
  2
AcDbScale
  3
ObjectDBX Classes
 90
     1153
 91
        4
280
     0
281
     0
  0
CLASS
  1
TABLESTYLE
  2
AcDbTableStyle
  3
ObjectDBX Classes
 90
     4095
 91
        4
280
     0
281
     0
  0
CLASS
  1
MLEADERSTYLE
  2
AcDbMLeaderStyle
  3
ACDB_MLEADERSTYLE_CLASS
 90
     4095
 91
        4
280
     0
281
     0
  0
CLASS
  1
SUN
  2
AcDbSun
  3
SCENEOE
 90
     1153
 91
        4
280
     0
281
     0
  0
CLASS
  1
DICTIONARYVAR
  2
AcDbDictionaryVar
  3
ObjectDBX Classes
 90
        0
 91
        4
280
     0
281
     0
  0
CLASS
  1
CELLSTYLEMAP
  2
AcDbCellStyleMap
  3
ObjectDBX Classes
 90
     1152
 91
        4
280
     0
281
     0
  0
ENDSEC
  0
SECTION
  2
TABLES
  0
TABLE
  2
VPORT
  5
8
102
{ACAD_XDICTIONARY
360
376
102
}
330
0
100
AcDbSymbolTable
 70
     1
  0
VPORT
  5
29
330
8
100
AcDbSymbolTableRecord
100
AcDbViewportTableRecord
  2
*Active
 70
     0
 10
0.0
 20
0.0
 11
1.0
 21
1.0
 12
0.0
 22
0.0
 13
0.0
 23
0.0
 14
10.0
 24
10.0
 15
10.0
 25
10.0
 16
0.0
 26
0.0
 36
1.0
 17
0.0
 27
0.0
 37
0.0
 40
1306.8
 41
1.414141414141414
 42
50.0
 43
0.0
 44
0.0
 50
0.0
 51
0.0
 71
     0
 72
 10000
 73
     1
 74
     3
 75
     0
 76
     0
 77
     0
 78
     0
281
     0
 65
     1
110
0.0
120
0.0
130
0.0
111
1.0
121
0.0
131
0.0
112
0.0
122
1.0
132
0.0
 79
     0
146
0.0
  0
ENDTAB
  0
TABLE
  2
LTYPE
  5
5
330
0
100
AcDbSymbolTable
 70
     4
  0
LTYPE
  5
14
330
5
100
AcDbSymbolTableRecord
100
AcDbLinetypeTableRecord
  2
ByBlock
 70
     0
  3

 72
    65
 73
     0
 40
0.0
  0
LTYPE
  5
15
330
5
100
AcDbSymbolTableRecord
100
AcDbLinetypeTableRecord
  2
ByLayer
 70
     0
  3

 72
    65
 73
     0
 40
0.0
  0
LTYPE
  5
16
330
5
100
AcDbSymbolTableRecord
100
AcDbLinetypeTableRecord
  2
Continuous
 70
     0
  3
Solid line
 72
    65
 73
     0
 40
0.0
  0
LTYPE
  5
6F
330
5
100
AcDbSymbolTableRecord
100
AcDbLinetypeTableRecord
  2
JWW_DASHED1
 70
     0
  3
-  --  --  --  --  --  --  --  -
 72
    65
 73
     2
 40
1.693333333333333
 49
0.8466666666666667
 74
     0
 49
-0.8466666666666667
 74
     0
  0
LTYPE
  5
70
330
5
100
AcDbSymbolTableRecord
100
AcDbLinetypeTableRecord
  2
JWW_CENTER1
 70
     0
  3
-----  --  ----------  --  -----
 72
    65
 73
     4
 40
6.773333333333333
 49
4.233333333333333
 74
     0
 49
-0.8466666666666667
 74
     0
 49
0.8466666666666667
 74
     0
 49
-0.8466666666666667
 74
     0
  0
LTYPE
  5
71
330
5
100
AcDbSymbolTableRecord
100
AcDbLinetypeTableRecord
  2
JWW_PHANTOM1
 70
     0
  3
----  -  -  --------  -  -  ----
 72
    65
 73
     6
 40
6.773333333333333
 49
3.386666666666667
 74
     0
 49
-0.8466666666666667
 74
     0
 49
0.4233333333333333
 74
     0
 49
-0.8466666666666667
 74
     0
 49
0.4233333333333333
 74
     0
 49
-0.8466666666666667
 74
     0
  0
ENDTAB
  0
TABLE
  2
LAYER
  5
2
330
0
100
AcDbSymbolTable
 70
     7
  0
LAYER
  5
10
330
2
100
AcDbSymbolTableRecord
100
AcDbLayerTableRecord
  2
0
 70
     0
 62
     7
  6
Continuous
370
    -3
390
F
  0
LAYER
  5
72
330
2
100
AcDbSymbolTableRecord
100
AcDbLayerTableRecord
  2
躯体
 70
     0
 62
     7
  6
Continuous
370
    -3
390
F
  0
LAYER
  5
73
330
2
100
AcDbSymbolTableRecord
100
AcDbLayerTableRecord
  2
仕上
 70
     0
 62
     7
  6
Continuous
370
    -3
390
F
  0
LAYER
  5
74
330
2
100
AcDbSymbolTableRecord
100
AcDbLayerTableRecord
  2
通り芯
 70
     0
 62
     7
  6
Continuous
370
    -3
390
F
  0
LAYER
  5
75
330
2
100
AcDbSymbolTableRecord
100
AcDbLayerTableRecord
  2
その他
 70
     0
 62
     7
  6
Continuous
370
    -3
390
F
  0
LAYER
  5
76
330
2
100
AcDbSymbolTableRecord
100
AcDbLayerTableRecord
  2
寸法
 70
     0
 62
     7
  6
Continuous
370
    -3
390
F
  0
LAYER
  5
77
330
2
100
AcDbSymbolTableRecord
100
AcDbLayerTableRecord
  2
F-4ﾚｲﾔ
 70
     0
 62
     7
  6
Continuous
370
    -3
390
F
  0
ENDTAB
  0
TABLE
  2
STYLE
  5
3
330
0
100
AcDbSymbolTable
 70
     2
  0
STYLE
  5
11
330
3
100
AcDbSymbolTableRecord
100
AcDbTextStyleTableRecord
  2
Standard
 70
     0
 40
0.0
 41
1.0
 50
0.0
 71
     0
 42
2.5
  3
txt
  4

  0
STYLE
  5
6E
330
3
100
AcDbSymbolTableRecord
100
AcDbTextStyleTableRecord
  2
ＭＳ ゴシック
 70
     0
 40
1.0
 41
1.0
 50
0.0
 71
     0
 42
2.5
  3

  4

1001
ACAD
1000
MS Gothic
1071
    32817
  0
ENDTAB
  0
TABLE
  2
VIEW
  5
6
330
0
100
AcDbSymbolTable
 70
     0
  0
ENDTAB
  0
TABLE
  2
UCS
  5
7
330
0
100
AcDbSymbolTable
 70
     0
  0
ENDTAB
  0
TABLE
  2
APPID
  5
9
330
0
100
AcDbSymbolTable
 70
     2
  0
APPID
  5
12
330
9
100
AcDbSymbolTableRecord
100
AcDbRegAppTableRecord
  2
ACAD
 70
     0
  0
APPID
  5
3B5
330
9
100
AcDbSymbolTableRecord
100
AcDbRegAppTableRecord
  2
ACAD_MLEADERVER
 70
     0
  0
ENDTAB
  0
TABLE
  2
DIMSTYLE
  5
A
330
0
100
AcDbSymbolTable
 70
     1
100
AcDbDimStyleTable
  0
DIMSTYLE
105
27
330
A
100
AcDbSymbolTableRecord
100
AcDbDimStyleTableRecord
  2
ISO-25
 70
     0
 41
2.5
 42
0.625
 43
3.75
 44
1.25
 73
     0
 74
     0
 77
     1
 78
     8
140
2.5
141
2.5
143
0.03937007874016
147
0.625
171
     3
172
     1
178
     0
271
     2
272
     2
274
     3
278
    44
283
     0
284
     8
340
11
  0
ENDTAB
  0
TABLE
  2
BLOCK_RECORD
  5
1
330
0
100
AcDbSymbolTable
 70
     1
  0
BLOCK_RECORD
  5
1F
330
1
100
AcDbSymbolTableRecord
100
AcDbBlockTableRecord
  2
*Model_Space
340
22
  0
BLOCK_RECORD
  5
1B
330
1
100
AcDbSymbolTableRecord
100
AcDbBlockTableRecord
  2
*Paper_Space
340
1E
  0
BLOCK_RECORD
  5
23
330
1
100
AcDbSymbolTableRecord
100
AcDbBlockTableRecord
  2
*Paper_Space0
340
26
  0
ENDTAB
  0
ENDSEC
  0
SECTION
  2
BLOCKS
  0
BLOCK
  5
20
330
1F
100
AcDbEntity
  8
0
100
AcDbBlockBegin
  2
*Model_Space
 70
     0
 10
0.0
 20
0.0
 30
0.0
  3
*Model_Space
  1

  0
ENDBLK
  5
21
330
1F
100
AcDbEntity
  8
0
100
AcDbBlockEnd
  0
BLOCK
  5
1C
330
1B
100
AcDbEntity
 67
     1
  8
0
100
AcDbBlockBegin
  2
*Paper_Space
 70
     0
 10
0.0
 20
0.0
 30
0.0
  3
*Paper_Space
  1

  0
ENDBLK
  5
1D
330
1B
100
AcDbEntity
 67
     1
  8
0
100
AcDbBlockEnd
  0
BLOCK
  5
24
330
23
100
AcDbEntity
  8
0
100
AcDbBlockBegin
  2
*Paper_Space0
 70
     0
 10
0.0
 20
0.0
 30
0.0
  3
*Paper_Space0
  1

  0
ENDBLK
  5
25
330
23
100
AcDbEntity
  8
0
100
AcDbBlockEnd
  0
ENDSEC
  0
SECTION
  2
ENTITIES
  0
LINE
  5
78
330
1F
100
AcDbEntity
  8
躯体
  6
Continuous
 62
     2
370
     9
100
AcDbLine
 10
-189.5760368912156
 20
332.887240631011
 30
0.0
 11
-193.5030058523643
 21
333.6684576390347
 31
0.0
  0
LINE
  5
79
330
1F
100
AcDbEntity
  8
躯体
  6
Continuous
 62
     2
370
     9
100
AcDbLine
 10
-187.8696918743237
 20
334.077327201957
 30
0.0
 11
-194.2484925499994
 21
335.34619861243
 31
0.0
  0
LINE
  5
7A
330
1F
100
AcDbEntity
  8
躯体
  6
Continuous
 62
     2
370
     9
100
AcDbLine
 10
94.56574282795668
 20
345.6375177636124
 30
0.0
 11
98.49281076503439
 21
346.418635795707
 31
0.0
  0
LINE
  5
7B
330
1F
100
AcDbEntity
  8
躯体
  6
Continuous
 62
     2
370
     9
100
AcDbLine
 10
93.44474145549054
 20
343.8851489397104
 30
0.0
 11
99.8234431552371
 21
345.1539213742543
 31
0.0
  0
LINE
  5
7C
330
1F
100
AcDbEntity
  8
躯体
  6
Continuous
 62
     2
370
     9
100
AcDbLine
 10
77.81604635413919
 20
386.0749253860786
 30
0.0
 11
81.14520070380138
 21
388.2994093915684
 31
0.0
  0
LINE
  5
7D
330
1F
100
AcDbEntity
  8
躯体
  6
Continuous
 62
     2
370
     9
100
AcDbLine
 10
75.78426848251752
 20
386.5213068261124
 30
0.0
 11
81.19191734231481
 21
390.1346210680887
 31
0.0
  0
LINE
  5
7E
330
1F
100
AcDbEntity
  8
躯体
  6
Continuous
 62
     2
370
     9
100
AcDbLine
 10
70.59357485920668
 20
396.8840865980719
 30
0.0
 11
73.92272920886887
 21
399.1084716276327
 31
0.0
  0
LINE
  5
7F
330
1F
100
AcDbEntity
  8
躯体
  6
Continuous
 62
     2
370
     9
100
AcDbLine
 10
70.22855163285533
 20
394.8360766740854
 30
0.0
 11
75.63620049265262
 21
398.4492919401327
 31
0.0
  0
LINE
  5
80
330
1F
100
AcDbEntity
  8
躯体
  6
Continuous
 62
     2
370
     9
100
AcDbLine
 10
39.64419774772023
 20
427.8334637095583
 30
0.0
 11
41.86868175321013
 21
431.1626180592205
 31
0.0
  0
LINE
  5
81
330
1F
100
AcDbEntity
  8
躯体
  6
Continuous
 62
     2
370
     9
100
AcDbLine
 10
37.59618782373377
 20
427.468440483207
 30
0.0
 11
41.20950206571013
 21
432.8759903670752
 31
0.0
  0
LINE
  5
82
330
1F
100
AcDbEntity
  8
躯体
  6
Continuous
 62
     2
370
     9
100
AcDbLine
 10
28.83513551165606
 20
435.0559352044907
 30
0.0
 11
31.0595205412169
 21
438.3849905782238
 31
0.0
  0
LINE
  5
83
330
1F
100
AcDbEntity
  8
躯体
  6
Continuous
 62
     2
370
     9
100
AcDbLine
 10
29.28151695168981
 20
433.0240583569401
 30
0.0
 11
32.89483119366616
 21
438.4317072167374
 31
0.0
  0
LINE
  5
84
330
1F
100
AcDbEntity
  8
躯体
  6
Continuous
 62
     2
370
     9
100
AcDbLine
 10
-11.60227211081019
 20
451.8054337264502
 30
0.0
 11
-10.82115407871561
 21
455.7325016635279
 31
0.0
  0
LINE
  5
85
330
1F
100
AcDbEntity
  8
躯体
  6
Continuous
 62
     2
370
     9
100
AcDbLine
 10
-13.35464093471217
 20
450.6845313299131
 30
0.0
 11
-12.08586850016832
 21
457.0633320055887
 31
0.0
  0
LINE
  5
86
330
1F
100
AcDbEntity
  8
躯体
  6
Continuous
 62
     2
370
     9
100
AcDbLine
 10
-24.35245026748248
 20
454.3416919084604
 30
0.0
 11
-23.5713322353879
 21
458.2687598455381
 31
0.0
  0
LINE
  5
87
330
1F
100
AcDbEntity
  8
躯体
  6
Continuous
 62
     2
370
     9
100
AcDbLine
 10
-23.16246267246561
 20
452.6354458674975
 30
0.0
 11
-21.89369023792165
 21
459.0142465431732
 31
0.0
  0
LINE
  5
88
330
1F
100
AcDbEntity
  8
躯体
  6
Continuous
 62
     2
370
     9
100
AcDbLine
 10
-68.12158561376623
 20
454.3416919084604
 30
0.0
 11
-68.90270364586081
 21
458.2687598455381
 31
0.0
  0
LINE
  5
89
330
1F
100
AcDbEntity
  8
躯体
  6
Continuous
 62
     2
370
     9
100
AcDbLine
 10
-69.3115732087831
 20
452.6354458674975
 30
0.0
 11
-70.58039513129154
 21
459.0142465431732
 31
0.0
  0
LINE
  5
8A
330
1F
100
AcDbEntity
  8
躯体
  6
Continuous
 62
     2
370
     9
100
AcDbLine
 10
-80.87181325840311
 20
451.8054337264502
 30
0.0
 11
-81.6528818025331
 21
455.732600639457
 31
0.0
  0
LINE
  5
8B
330
1F
100
AcDbEntity
  8
躯体
  6
Continuous
 62
     2
370
     9
100
AcDbLine
 10
-79.11939494653654
 20
450.6845313299131
 30
0.0
 11
-80.38826635700946
 21
457.0632330296597
 31
0.0
  0
LINE
  5
8C
330
1F
100
AcDbEntity
  8
躯体
  6
Continuous
 62
     2
370
     9
100
AcDbLine
 10
-121.3091713929048
 20
435.0559352044907
 30
0.0
 11
-123.5336553983947
 21
438.3849905782238
 31
0.0
  0
LINE
  5
8D
330
1F
100
AcDbEntity
  8
躯体
  6
Continuous
 62
     2
370
     9
100
AcDbLine
 10
-121.7556023209031
 20
433.0240583569401
 30
0.0
 11
-125.3689165628795
 21
438.4317072167374
 31
0.0
  0
LINE
  5
8E
330
1F
100
AcDbEntity
  8
躯体
  6
Continuous
 62
     2
370
     9
100
AcDbLine
 10
-132.1182831169335
 20
427.8334637095583
 30
0.0
 11
-134.3427176344588
 21
431.1626180592205
 31
0.0
  0
LINE
  5
8F
330
1F
100
AcDbEntity
  8
躯体
  6
Continuous
 62
     2
370
     9
100
AcDbLine
 10
-130.070273192947
 20
427.468440483207
 30
0.0
 11
-133.6835874349233
 21
432.8759903670752
 31
0.0
  0
LINE
  5
90
330
1F
100
AcDbEntity
  8
躯体
  6
Continuous
 62
     2
370
     9
100
AcDbLine
 10
-163.0677097163845
 20
396.8839876221428
 30
0.0
 11
-166.3968640660466
 21
399.1084716276327
 31
0.0
  0
LINE
  5
91
330
1F
100
AcDbEntity
  8
躯体
  6
Continuous
 62
     2
370
     9
100
AcDbLine
 10
-162.7026370020686
 20
394.8360766740854
 30
0.0
 11
-168.1103353498304
 21
398.4492919401327
 31
0.0
  0
LINE
  5
92
330
1F
100
AcDbEntity
  8
躯体
  6
Continuous
 62
     2
370
     9
100
AcDbLine
 10
-170.2900822353879
 20
386.0749253860786
 30
0.0
 11
-173.6192365850501
 21
388.2994093915684
 31
0.0
  0
LINE
  5
93
330
1F
100
AcDbEntity
  8
躯体
  6
Continuous
 62
     2
370
     9
100
AcDbLine
 10
-168.2583043637662
 20
386.5213068261124
 30
0.0
 11
-173.6660027115281
 21
390.1346210680887
 31
0.0
  0
LINE
  5
94
330
1F
100
AcDbEntity
  8
躯体
  6
Continuous
 62
     2
370
     9
100
AcDbLine
 10
-187.0397787092054
 20
345.6375177636124
 30
0.0
 11
-190.9667971583186
 21
346.418635795707
 31
0.0
  0
LINE
  5
95
330
1F
100
AcDbEntity
  8
躯体
  6
Continuous
 62
     2
370
     9
100
AcDbLine
 10
-185.9187773367393
 20
343.8851489397104
 30
0.0
 11
-192.2976275003795
 21
345.1539213742543
 31
0.0
  0
LINE
  5
96
330
1F
100
AcDbEntity
  8
躯体
  6
Continuous
 62
     2
370
     9
100
AcDbLine
 10
95.39565599307502
 20
334.077327201957
 30
0.0
 11
101.7744566687506
 21
335.34619861243
 31
0.0
  0
LINE
  5
97
330
1F
100
AcDbEntity
  8
躯体
  6
Continuous
 62
     2
370
     9
100
AcDbLine
 10
97.10190203403783
 20
332.887240631011
 30
0.0
 11
101.0288709951865
 21
333.6684576390347
 31
0.0
  0
LINE
  5
98
330
1F
100
AcDbEntity
  8
躯体
  6
Continuous
 62
     2
370
     9
100
AcDbLine
 10
99.8234431552371
 20
345.1539213742543
 30
0.0
 11
98.49281076503439
 21
346.418635795707
 31
0.0
  0
LINE
  5
99
330
1F
100
AcDbEntity
  8
躯体
  6
Continuous
 62
     2
370
     9
100
AcDbLine
 10
94.56574282795668
 20
345.6375177636124
 30
0.0
 11
93.44474145549054
 21
343.8850499637813
 31
0.0
  0
LINE
  5
9A
330
1F
100
AcDbEntity
  8
躯体
  6
Continuous
 62
     2
370
     9
100
AcDbLine
 10
101.7743576928216
 20
335.34619861243
 30
0.0
 11
101.0288709951865
 21
333.6684576390347
 31
0.0
  0
LINE
  5
9B
330
1F
100
AcDbEntity
  8
躯体
  6
Continuous
 62
     2
370
     9
100
AcDbLine
 10
97.10190203403783
 20
332.887240631011
 30
0.0
 11
95.39565599307502
 21
334.077327201957
 31
0.0
  0
LINE
  5
9C
330
1F
100
AcDbEntity
  8
躯体
  6
Continuous
 62
     2
370
     9
100
AcDbLine
 10
81.19191734231481
 20
390.1346210680887
 30
0.0
 11
81.14520070380138
 21
388.2993104156394
 31
0.0
  0
LINE
  5
9D
330
1F
100
AcDbEntity
  8
躯体
  6
Continuous
 62
     2
370
     9
100
AcDbLine
 10
77.81604635413919
 20
386.0749253860786
 30
0.0
 11
75.78426848251752
 21
386.5213068261124
 31
0.0
  0
LINE
  5
9E
330
1F
100
AcDbEntity
  8
躯体
  6
Continuous
 62
     2
370
     9
100
AcDbLine
 10
75.63620049265262
 20
398.4492919401327
 30
0.0
 11
73.92272920886887
 21
399.1084716276327
 31
0.0
  0
LINE
  5
9F
330
1F
100
AcDbEntity
  8
躯体
  6
Continuous
 62
     2
370
     9
100
AcDbLine
 10
70.59357485920668
 20
396.8839876221428
 30
0.0
 11
70.22855163285533
 21
394.8359776981563
 31
0.0
  0
LINE
  5
A0
330
1F
100
AcDbEntity
  8
躯体
  6
Continuous
 62
     2
370
     9
100
AcDbLine
 10
41.20950206571013
 20
432.8759903670752
 30
0.0
 11
41.86868175321013
 21
431.1626180592205
 31
0.0
  0
LINE
  5
A1
330
1F
100
AcDbEntity
  8
躯体
  6
Continuous
 62
     2
370
     9
100
AcDbLine
 10
39.64419774772023
 20
427.8334637095583
 30
0.0
 11
37.59618782373377
 21
427.4683415072779
 31
0.0
  0
LINE
  5
A2
330
1F
100
AcDbEntity
  8
躯体
  6
Continuous
 62
     2
370
     9
100
AcDbLine
 10
32.8947322177371
 20
438.4316082408083
 30
0.0
 11
31.0595205412169
 21
438.3849905782238
 31
0.0
  0
LINE
  5
A3
330
1F
100
AcDbEntity
  8
躯体
  6
Continuous
 62
     2
370
     9
100
AcDbLine
 10
28.835036535727
 20
435.0557372526327
 30
0.0
 11
29.28151695168981
 21
433.023959381011
 31
0.0
  0
LINE
  5
A4
330
1F
100
AcDbEntity
  8
躯体
  6
Continuous
 62
     2
370
     9
100
AcDbLine
 10
-12.08586850016832
 20
457.0633320055887
 30
0.0
 11
-10.82115407871561
 21
455.732600639457
 31
0.0
  0
LINE
  5
A5
330
1F
100
AcDbEntity
  8
躯体
  6
Continuous
 62
     2
370
     9
100
AcDbLine
 10
-11.60227211081019
 20
451.8054337264502
 30
0.0
 11
-13.35464093471217
 21
450.6845313299131
 31
0.0
  0
LINE
  5
A6
330
1F
100
AcDbEntity
  8
躯体
  6
Continuous
 62
     2
370
     9
100
AcDbLine
 10
-21.89369023792165
 20
459.0142465431732
 30
0.0
 11
-23.5713322353879
 21
458.2687598455381
 31
0.0
  0
LINE
  5
A7
330
1F
100
AcDbEntity
  8
躯体
  6
Continuous
 62
     2
370
     9
100
AcDbLine
 10
-24.35254924341154
 20
454.3416919084604
 30
0.0
 11
-23.16246267246561
 21
452.6354458674975
 31
0.0
  0
LINE
  5
A8
330
1F
100
AcDbEntity
  8
躯体
  6
Continuous
 62
     2
370
     9
100
AcDbLine
 10
-70.58044461925613
 20
459.0142465431732
 30
0.0
 11
-68.90270364586081
 21
458.2687598455381
 31
0.0
  0
LINE
  5
A9
330
1F
100
AcDbEntity
  8
躯体
  6
Continuous
 62
     2
370
     9
100
AcDbLine
 10
-68.12158561376623
 20
454.3416919084604
 30
0.0
 11
-69.3115732087831
 21
452.6354458674975
 31
0.0
  0
LINE
  5
AA
330
1F
100
AcDbEntity
  8
躯体
  6
Continuous
 62
     2
370
     9
100
AcDbLine
 10
-80.38826635700946
 20
457.0632330296597
 30
0.0
 11
-81.65293129049769
 21
455.732600639457
 31
0.0
  0
LINE
  5
AB
330
1F
100
AcDbEntity
  8
躯体
  6
Continuous
 62
     2
370
     9
100
AcDbLine
 10
-80.87181325840311
 20
451.8054337264502
 30
0.0
 11
-79.11939494653654
 21
450.6845313299131
 31
0.0
  0
LINE
  5
AC
330
1F
100
AcDbEntity
  8
躯体
  6
Continuous
 62
     2
370
     9
100
AcDbLine
 10
-125.3689660508439
 20
438.4317072167374
 30
0.0
 11
-123.5336553983947
 21
438.3849905782238
 31
0.0
  0
LINE
  5
AD
330
1F
100
AcDbEntity
  8
躯体
  6
Continuous
 62
     2
370
     9
100
AcDbLine
 10
-121.3091713929048
 20
435.0557372526327
 30
0.0
 11
-121.7556518088676
 21
433.023959381011
 31
0.0
  0
LINE
  5
AE
330
1F
100
AcDbEntity
  8
躯体
  6
Continuous
 62
     2
370
     9
100
AcDbLine
 10
-133.6835379469588
 20
432.8759903670752
 30
0.0
 11
-134.3427176344588
 21
431.1626180592205
 31
0.0
  0
LINE
  5
AF
330
1F
100
AcDbEntity
  8
躯体
  6
Continuous
 62
     2
370
     9
100
AcDbLine
 10
-132.1182831169335
 20
427.8334637095583
 30
0.0
 11
-130.070273192947
 21
427.4683415072779
 31
0.0
  0
LINE
  5
B0
330
1F
100
AcDbEntity
  8
躯体
  6
Continuous
 62
     2
370
     9
100
AcDbLine
 10
-168.1103353498304
 20
398.4492919401327
 30
0.0
 11
-166.3968640660466
 21
399.1084716276327
 31
0.0
  0
LINE
  5
B1
330
1F
100
AcDbEntity
  8
躯体
  6
Continuous
 62
     2
370
     9
100
AcDbLine
 10
-163.0677097163845
 20
396.8839876221428
 30
0.0
 11
-162.7026370020686
 21
394.8360766740854
 31
0.0
  0
LINE
  5
B2
330
1F
100
AcDbEntity
  8
躯体
  6
Continuous
 62
     2
370
     9
100
AcDbLine
 10
-173.6659532235635
 20
390.1346210680887
 30
0.0
 11
-173.6192860730146
 21
388.2993104156394
 31
0.0
  0
LINE
  5
B3
330
1F
100
AcDbEntity
  8
躯体
  6
Continuous
 62
     2
370
     9
100
AcDbLine
 10
-170.2900822353879
 20
386.0749253860786
 30
0.0
 11
-168.2583043637662
 21
386.5213068261124
 31
0.0
  0
LINE
  5
B4
330
1F
100
AcDbEntity
  8
躯体
  6
Continuous
 62
     2
370
     9
100
AcDbLine
 10
-192.2976275003795
 20
345.1539213742543
 30
0.0
 11
-190.9668466462831
 21
346.418635795707
 31
0.0
  0
LINE
  5
B5
330
1F
100
AcDbEntity
  8
躯体
  6
Continuous
 62
     2
370
     9
100
AcDbLine
 10
-187.03982819717
 20
345.6375177636124
 30
0.0
 11
-185.9187773367393
 21
343.8850499637813
 31
0.0
  0
LINE
  5
B6
330
1F
100
AcDbEntity
  8
躯体
  6
Continuous
 62
     2
370
     9
100
AcDbLine
 10
-194.2484925499994
 20
335.3460996365009
 30
0.0
 11
-193.5030058523643
 21
333.6683586631056
 31
0.0
  0
LINE
  5
B7
330
1F
100
AcDbEntity
  8
躯体
  6
Continuous
 62
     2
370
     9
100
AcDbLine
 10
-189.575987403251
 20
332.887240631011
 30
0.0
 11
-187.8696918743237
 21
334.077327201957
 31
0.0
  0
LINE
  5
B8
330
1F
100
AcDbEntity
  8
仕上
  6
Continuous
 62
     4
370
     9
100
AcDbLine
 10
-181.7370443342054
 20
311.5028973033083
 30
0.0
 11
-178.7370344366126
 21
311.5028973033083
 31
0.0
  0
LINE
  5
B9
330
1F
100
AcDbEntity
  8
仕上
  6
Continuous
 62
     4
370
     9
100
AcDbLine
 10
-182.2370707277865
 20
312.0027257450313
 30
0.0
 11
-182.2370707277865
 21
315.9776980317711
 31
0.0
  0
LINE
  5
BA
330
1F
100
AcDbEntity
  8
仕上
  6
Continuous
 62
     4
370
     9
100
AcDbLine
 10
-183.2370245390197
 20
312.0027257450313
 30
0.0
 11
-183.2370245390197
 21
315.9776980317711
 31
0.0
  0
LINE
  5
BB
330
1F
100
AcDbEntity
  8
仕上
  6
Continuous
 62
     4
370
     9
100
AcDbLine
 10
-183.7370509326007
 20
311.5028973033083
 30
0.0
 11
-186.7370608301936
 21
311.5028973033083
 31
0.0
  0
LINE
  5
BC
330
1F
100
AcDbEntity
  8
仕上
  6
Continuous
 62
     4
370
     9
100
AcDbLine
 10
89.26300845295668
 20
311.5028973033083
 30
0.0
 11
86.26294906739929
 21
311.5028973033083
 31
0.0
  0
LINE
  5
BD
330
1F
100
AcDbEntity
  8
仕上
  6
Continuous
 62
     4
370
     9
100
AcDbLine
 10
89.76303484653783
 20
312.0027257450313
 30
0.0
 11
89.76303484653783
 21
315.9776980317711
 31
0.0
  0
LINE
  5
BE
330
1F
100
AcDbEntity
  8
仕上
  6
Continuous
 62
     4
370
     9
100
AcDbLine
 10
90.76298865777096
 20
312.0027257450313
 30
0.0
 11
90.76298865777096
 21
315.9776980317711
 31
0.0
  0
LINE
  5
BF
330
1F
100
AcDbEntity
  8
仕上
  6
Continuous
 62
     4
370
     9
100
AcDbLine
 10
91.263015051352
 20
311.5028973033083
 30
0.0
 11
94.26297546098033
 21
311.5028973033083
 31
0.0
  0
LINE
  5
C0
330
1F
100
AcDbEntity
  8
躯体
  6
Continuous
 62
     2
370
     9
100
AcDbLine
 10
-199.5165853498304
 20
-52.70120425919168
 30
0.0
 11
-204.3825884378795
 21
-51.39749332169168
 31
0.0
  0
LINE
  5
C1
330
1F
100
AcDbEntity
  8
躯体
  6
Continuous
 62
     2
370
     9
100
AcDbLine
 10
-174.9502648789689
 20
-58.07351871231668
 30
0.0
 11
-175.6668506053203
 21
-53.81448550919168
 31
0.0
  0
LINE
  5
C2
330
1F
100
AcDbEntity
  8
躯体
  6
Continuous
 62
     2
370
     9
100
AcDbLine
 10
107.0425494685817
 20
-52.70120425919168
 30
0.0
 11
111.9085030686662
 21
-51.39749332169168
 31
0.0
  0
LINE
  5
C3
330
1F
100
AcDbEntity
  8
躯体
  6
Continuous
 62
     2
370
     9
100
AcDbLine
 10
-190.2369981454385
 20
-60.36411863841465
 30
0.0
 11
-160.2561994756751
 21
-68.39740094415794
 31
0.0
  0
LINE
  5
C4
330
1F
100
AcDbEntity
  8
躯体
  6
Continuous
 62
     2
370
     9
100
AcDbLine
 10
-216.2370344366126
 20
-53.39740094415794
 30
0.0
 11
-194.2370113422292
 21
-59.2923083026883
 31
0.0
  0
LINE
  5
C5
330
1F
100
AcDbEntity
  8
躯体
  6
Continuous
 62
     2
370
     9
100
AcDbLine
 10
-193.237057530996
 20
-60.07788025159033
 30
0.0
 11
-191.2370509326007
 21
-60.61373593148897
 31
0.0
  0
LINE
  5
C6
330
1F
100
AcDbEntity
  8
躯体
  6
Continuous
 62
     2
370
     9
100
AcDbLine
 10
-190.2369981454385
 20
-60.36411863841465
 30
0.0
 11
-191.2370509326007
 21
-60.61373593148897
 31
0.0
  0
LINE
  5
C7
330
1F
100
AcDbEntity
  8
躯体
  6
Continuous
 62
     2
370
     9
100
AcDbLine
 10
-193.237057530996
 20
-60.07788025159033
 30
0.0
 11
-194.2370113422292
 21
-59.2923083026883
 31
0.0
  0
LINE
  5
C8
330
1F
100
AcDbEntity
  8
躯体
  6
Continuous
 62
     2
370
     9
100
AcDbLine
 10
100.7629226738183
 20
-60.07788025159033
 30
0.0
 11
98.76291607542294
 21
-60.61373593148897
 31
0.0
  0
LINE
  5
C9
330
1F
100
AcDbEntity
  8
躯体
  6
Continuous
 62
     2
370
     9
100
AcDbLine
 10
123.7629490673993
 20
-53.39740094415794
 30
0.0
 11
101.7629754609803
 21
-59.2923083026883
 31
0.0
  0
LINE
  5
CA
330
1F
100
AcDbEntity
  8
躯体
  6
Continuous
 62
     2
370
     9
100
AcDbLine
 10
100.7629226738183
 20
-60.07788025159033
 30
0.0
 11
101.7629754609803
 21
-59.2923083026883
 31
0.0
  0
LINE
  5
CB
330
1F
100
AcDbEntity
  8
躯体
  6
Continuous
 62
     2
370
     9
100
AcDbLine
 10
97.76296226418981
 20
-60.36411863841465
 30
0.0
 11
98.76291607542294
 21
-60.61373593148897
 31
0.0
  0
LINE
  5
CC
330
1F
100
AcDbEntity
  8
躯体
  6
Continuous
 62
     2
370
     9
100
AcDbLine
 10
97.76296226418981
 20
-60.36411863841465
 30
0.0
 11
67.78216359442638
 21
-68.39740094415794
 31
0.0
  0
LINE
  5
CD
330
1F
100
AcDbEntity
  8
躯体
  6
Continuous
 62
     2
370
     9
100
AcDbLine
 10
-138.028135840751
 20
-63.65081231451262
 30
0.0
 11
-137.237021239822
 21
-68.39740094415794
 31
0.0
  0
LINE
  5
CE
330
1F
100
AcDbEntity
  8
躯体
  6
Continuous
 62
     2
370
     9
100
AcDbLine
 10
-145.3762572776176
 20
-63.23303491797549
 30
0.0
 11
-146.2370509326007
 21
-68.39740094415794
 31
0.0
  0
LINE
  5
CF
330
1F
100
AcDbEntity
  8
躯体
  6
Continuous
 62
     2
370
     9
100
AcDbLine
 10
-159.0977357140619
 20
-63.23303491797549
 30
0.0
 11
-158.2369915470433
 21
-68.39740094415794
 31
0.0
  0
LINE
  5
D0
330
1F
100
AcDbEntity
  8
躯体
  6
Continuous
 62
     2
370
     9
100
AcDbLine
 10
81.02157976841283
 20
-59.67356358140455
 30
0.0
 11
67.12407264214596
 21
-63.39743393613429
 31
0.0
  0
LINE
  5
D1
330
1F
100
AcDbEntity
  8
躯体
  6
Continuous
 62
     2
370
     9
100
AcDbLine
 10
-173.495665137626
 20
-59.67356358140455
 30
0.0
 11
-163.3299959283778
 21
-62.39748012490116
 31
0.0
  0
LINE
  5
D2
330
1F
100
AcDbEntity
  8
躯体
  6
Continuous
 62
     2
370
     9
100
AcDbLine
 10
56.60223855219658
 20
-64.20131643191127
 30
0.0
 11
55.76292267381825
 21
-68.39740094415794
 31
0.0
  0
LINE
  5
D3
330
1F
100
AcDbEntity
  8
躯体
  6
JWW_DASHED1
 62
     2
370
     9
100
AcDbLine
 10
107.0425494685817
 20
-52.70120425919168
 30
0.0
 11
81.02157976841283
 21
-59.67356358140455
 31
0.0
  0
LINE
  5
D4
330
1F
100
AcDbEntity
  8
躯体
  6
JWW_DASHED1
 62
     2
370
     9
100
AcDbLine
 10
-199.516634837795
 20
-52.70120425919168
 30
0.0
 11
-173.4956156496615
 21
-59.67356358140455
 31
0.0
  0
LINE
  5
D5
330
1F
100
AcDbEntity
  8
躯体
  6
Continuous
 62
     2
370
     9
100
AcDbLine
 10
83.05246685667294
 20
-54.64855566333023
 30
0.0
 11
82.47622899772023
 21
-58.07351871231668
 31
0.0
  0
LINE
  5
D6
330
1F
100
AcDbEntity
  8
躯体
  6
Continuous
 62
     2
370
     9
100
AcDbLine
 10
-215.3465974908778
 20
-51.39749332169168
 30
0.0
 11
-204.3825884378795
 21
-51.39749332169168
 31
0.0
  0
LINE
  5
D7
330
1F
100
AcDbEntity
  8
躯体
  6
Continuous
 62
     2
370
     9
100
AcDbLine
 10
-215.8316785191716
 20
-51.77617522625252
 30
0.0
 11
-216.2370344366126
 21
-53.39740094415794
 31
0.0
  0
LINE
  5
D8
330
1F
100
AcDbEntity
  8
躯体
  6
Continuous
 62
     2
370
     9
100
AcDbLine
 10
123.3576426379229
 20
-51.77617522625252
 30
0.0
 11
123.7629490673993
 21
-53.39740094415794
 31
0.0
  0
LINE
  5
D9
330
1F
100
AcDbEntity
  8
躯体
  6
Continuous
 62
     2
370
     9
100
AcDbLine
 10
122.872561609629
 20
-51.39749332169168
 30
0.0
 11
111.9085030686662
 21
-51.39749332169168
 31
0.0
  0
LINE
  5
DA
330
1F
100
AcDbEntity
  8
躯体
  6
Continuous
 62
     4
370
     9
100
AcDbLine
 10
-147.2370542317983
 20
-74.55370373132007
 30
0.0
 11
-157.2370377358102
 21
-74.55370373132007
 31
0.0
  0
LINE
  5
DB
330
1F
100
AcDbEntity
  8
躯体
  6
Continuous
 62
     4
370
     9
100
AcDbLine
 10
-156.5370304775754
 20
-75.25376047751939
 30
0.0
 11
-157.2370377358102
 21
-74.55370373132007
 31
0.0
  0
LINE
  5
DC
330
1F
100
AcDbEntity
  8
躯体
  6
Continuous
 62
     4
370
     9
100
AcDbLine
 10
-147.2370542317983
 20
-74.55370373132007
 30
0.0
 11
-147.9370120020686
 21
-75.25376047751939
 31
0.0
  0
LINE
  5
DD
330
1F
100
AcDbEntity
  8
躯体
  6
Continuous
 62
     4
370
     9
100
AcDbLine
 10
-147.9370120020686
 20
-75.25376047751939
 30
0.0
 11
-156.5370304775754
 21
-75.25376047751939
 31
0.0
  0
LINE
  5
DE
330
1F
100
AcDbEntity
  8
躯体
  6
Continuous
 62
     4
370
     9
100
AcDbLine
 10
-147.2370542317983
 20
-35.95378423174236
 30
0.0
 11
-157.2370377358102
 21
-35.95378423174236
 31
0.0
  0
LINE
  5
DF
330
1F
100
AcDbEntity
  8
躯体
  6
Continuous
 62
     4
370
     9
100
AcDbLine
 10
-147.9370120020686
 20
-35.25372748554304
 30
0.0
 11
-156.5370304775754
 21
-35.25372748554304
 31
0.0
  0
LINE
  5
E0
330
1F
100
AcDbEntity
  8
躯体
  6
Continuous
 62
     4
370
     9
100
AcDbLine
 10
-147.2370542317983
 20
-35.95378423174236
 30
0.0
 11
-147.9370120020686
 21
-35.25372748554304
 31
0.0
  0
LINE
  5
E1
330
1F
100
AcDbEntity
  8
躯体
  6
Continuous
 62
     4
370
     9
100
AcDbLine
 10
-156.5370304775754
 20
-35.25372748554304
 30
0.0
 11
-157.2370377358102
 21
-35.95378423174236
 31
0.0
  0
LINE
  5
E2
330
1F
100
AcDbEntity
  8
躯体
  6
JWW_CENTER1
 62
     4
370
     9
100
AcDbLine
 10
-152.237021239822
 20
-79.72776939854981
 30
0.0
 11
-152.237021239822
 21
-32.46478375665794
 31
0.0
  0
LINE
  5
E3
330
1F
100
AcDbEntity
  8
躯体
  6
Continuous
 62
     4
370
     9
100
AcDbLine
 10
-162.0370733671447
 20
-55.29239408182684
 30
0.0
 11
-162.0370733671447
 21
-62.39748012490116
 31
0.0
  0
LINE
  5
E4
330
1F
100
AcDbEntity
  8
躯体
  6
Continuous
 62
     4
370
     9
100
AcDbLine
 10
-142.4370680884284
 20
-55.29239408182684
 30
0.0
 11
-142.4370680884284
 21
-62.39748012490116
 31
0.0
  0
LINE
  5
E5
330
1F
100
AcDbEntity
  8
躯体
  6
Continuous
 62
     4
370
     9
100
AcDbLine
 10
-157.129599364822
 20
-55.29239408182684
 30
0.0
 11
-157.129599364822
 21
-62.39748012490116
 31
0.0
  0
LINE
  5
E6
330
1F
100
AcDbEntity
  8
躯体
  6
Continuous
 62
     4
370
     9
100
AcDbLine
 10
-147.3444926027865
 20
-55.29239408182684
 30
0.0
 11
-147.3444926027865
 21
-62.39748012490116
 31
0.0
  0
LINE
  5
E7
330
1F
100
AcDbEntity
  8
躯体
  6
Continuous
 62
     4
370
     9
100
AcDbLine
 10
-159.583311622001
 20
-54.39745373132007
 30
0.0
 11
-144.8907803456075
 21
-54.39745373132007
 31
0.0
  0
LINE
  5
E8
330
1F
100
AcDbEntity
  8
躯体
  6
Continuous
 62
     4
370
     9
100
AcDbLine
 10
-147.2370542317983
 20
-74.55370373132007
 30
0.0
 11
-147.2370542317983
 21
-62.39748012490116
 31
0.0
  0
LINE
  5
E9
330
1F
100
AcDbEntity
  8
躯体
  6
Continuous
 62
     4
370
     9
100
AcDbLine
 10
-147.2370542317983
 20
-54.39745373132007
 30
0.0
 11
-147.2370542317983
 21
-35.95378423174236
 31
0.0
  0
LINE
  5
EA
330
1F
100
AcDbEntity
  8
躯体
  6
Continuous
 62
     4
370
     9
100
AcDbLine
 10
-147.9370120020686
 20
-75.25376047751939
 30
0.0
 11
-147.9370120020686
 21
-62.39748012490116
 31
0.0
  0
LINE
  5
EB
330
1F
100
AcDbEntity
  8
躯体
  6
Continuous
 62
     4
370
     9
100
AcDbLine
 10
-147.9370120020686
 20
-54.39745373132007
 30
0.0
 11
-147.9370120020686
 21
-35.25372748554304
 31
0.0
  0
LINE
  5
EC
330
1F
100
AcDbEntity
  8
躯体
  6
Continuous
 62
     4
370
     9
100
AcDbLine
 10
-156.5370304775754
 20
-75.25376047751939
 30
0.0
 11
-156.5370304775754
 21
-62.39748012490116
 31
0.0
  0
LINE
  5
ED
330
1F
100
AcDbEntity
  8
躯体
  6
Continuous
 62
     4
370
     9
100
AcDbLine
 10
-156.5370304775754
 20
-54.39745373132007
 30
0.0
 11
-156.5370304775754
 21
-35.25372748554304
 31
0.0
  0
LINE
  5
EE
330
1F
100
AcDbEntity
  8
躯体
  6
Continuous
 62
     4
370
     9
100
AcDbLine
 10
-157.2370377358102
 20
-74.55370373132007
 30
0.0
 11
-157.2370377358102
 21
-62.39748012490116
 31
0.0
  0
LINE
  5
EF
330
1F
100
AcDbEntity
  8
躯体
  6
Continuous
 62
     4
370
     9
100
AcDbLine
 10
-157.2370377358102
 20
-54.39745373132007
 30
0.0
 11
-157.2370377358102
 21
-35.95378423174236
 31
0.0
  0
LINE
  5
F0
330
1F
100
AcDbEntity
  8
躯体
  6
Continuous
 62
     2
370
     9
100
AcDbLine
 10
-179.7370377358102
 20
-57.69741018191127
 30
0.0
 11
-179.7370377358102
 21
-63.17750942177616
 31
0.0
  0
LINE
  5
F1
330
1F
100
AcDbEntity
  8
躯体
  6
Continuous
 62
     2
370
     9
100
AcDbLine
 10
-180.437044994045
 20
-58.39736795218158
 30
0.0
 11
-180.437044994045
 21
-62.98995003621872
 31
0.0
  0
LINE
  5
F2
330
1F
100
AcDbEntity
  8
躯体
  6
Continuous
 62
     2
370
     9
100
AcDbLine
 10
-185.0370997607257
 20
-58.39736795218158
 30
0.0
 11
-185.0370997607257
 21
-61.75740279170861
 31
0.0
  0
LINE
  5
F3
330
1F
100
AcDbEntity
  8
躯体
  6
Continuous
 62
     2
370
     9
100
AcDbLine
 10
-185.737057530996
 20
-57.69741018191127
 30
0.0
 11
-185.737057530996
 21
-61.56984340615116
 31
0.0
  0
LINE
  5
F4
330
1F
100
AcDbEntity
  8
仕上
  6
Continuous
 62
     4
370
     9
100
AcDbLine
 10
85.26299525616616
 20
-43.89739434576262
 30
0.0
 11
85.26299525616616
 21
-46.39742733773897
 31
0.0
  0
LINE
  5
F5
330
1F
100
AcDbEntity
  8
仕上
  6
Continuous
 62
     4
370
     9
100
AcDbLine
 10
95.26302824814252
 20
-43.89739434576262
 30
0.0
 11
95.26302824814252
 21
-46.39742733773897
 31
0.0
  0
LINE
  5
F6
330
1F
100
AcDbEntity
  8
仕上
  6
Continuous
 62
     4
370
     9
100
AcDbLine
 10
87.26300185456148
 20
-57.69741018191127
 30
0.0
 11
87.26300185456148
 21
-46.39742733773897
 31
0.0
  0
LINE
  5
F7
330
1F
100
AcDbEntity
  8
仕上
  6
Continuous
 62
     4
370
     9
100
AcDbLine
 10
87.26300185456148
 20
-57.69741018191127
 30
0.0
 11
93.26302164974732
 21
-57.69741018191127
 31
0.0
  0
LINE
  5
F8
330
1F
100
AcDbEntity
  8
仕上
  6
Continuous
 62
     4
370
     9
100
AcDbLine
 10
93.26302164974732
 20
-57.69741018191127
 30
0.0
 11
93.26302164974732
 21
-46.39742733773897
 31
0.0
  0
LINE
  5
F9
330
1F
100
AcDbEntity
  8
仕上
  6
Continuous
 62
     4
370
     9
100
AcDbLine
 10
87.96295962483168
 20
-58.39736795218158
 30
0.0
 11
87.96295962483168
 21
-46.39742733773897
 31
0.0
  0
LINE
  5
FA
330
1F
100
AcDbEntity
  8
仕上
  6
Continuous
 62
     4
370
     9
100
AcDbLine
 10
87.96295962483168
 20
-58.39736795218158
 30
0.0
 11
92.56296490354794
 21
-58.39736795218158
 31
0.0
  0
LINE
  5
FB
330
1F
100
AcDbEntity
  8
仕上
  6
Continuous
 62
     4
370
     9
100
AcDbLine
 10
92.56296490354794
 20
-58.39736795218158
 30
0.0
 11
92.56296490354794
 21
-46.39742733773897
 31
0.0
  0
LINE
  5
FC
330
1F
100
AcDbEntity
  8
仕上
  6
Continuous
 62
     4
370
     9
100
AcDbLine
 10
87.26300185456148
 20
-57.69741018191127
 30
0.0
 11
87.96295962483168
 21
-58.39736795218158
 31
0.0
  0
LINE
  5
FD
330
1F
100
AcDbEntity
  8
仕上
  6
Continuous
 62
     4
370
     9
100
AcDbLine
 10
92.56296490354794
 20
-58.39736795218158
 30
0.0
 11
93.26302164974732
 21
-57.69741018191127
 31
0.0
  0
LINE
  5
FE
330
1F
100
AcDbEntity
  8
仕上
  6
Continuous
 62
     4
370
     9
100
AcDbLine
 10
90.76298865777096
 20
-43.39736795218158
 30
0.0
 11
89.76303484653783
 21
-43.39736795218158
 31
0.0
  0
LINE
  5
FF
330
1F
100
AcDbEntity
  8
仕上
  6
Continuous
 62
     4
370
     9
100
AcDbLine
 10
89.76303484653783
 20
-43.39736795218158
 30
0.0
 11
89.76303484653783
 21
-42.39741414094846
 31
0.0
  0
LINE
  5
100
330
1F
100
AcDbEntity
  8
仕上
  6
Continuous
 62
     4
370
     9
100
AcDbLine
 10
90.76298865777096
 20
-43.39736795218158
 30
0.0
 11
90.76298865777096
 21
-42.39741414094846
 31
0.0
  0
LINE
  5
101
330
1F
100
AcDbEntity
  8
仕上
  6
Continuous
 62
     4
370
     9
100
AcDbLine
 10
93.76294906739929
 20
-42.39741414094846
 30
0.0
 11
90.76298865777096
 21
-42.39741414094846
 31
0.0
  0
LINE
  5
102
330
1F
100
AcDbEntity
  8
仕上
  6
Continuous
 62
     4
370
     9
100
AcDbLine
 10
89.76303484653783
 20
-42.39741414094846
 30
0.0
 11
86.76297546098033
 21
-42.39741414094846
 31
0.0
  0
LINE
  5
103
330
1F
100
AcDbEntity
  8
仕上
  6
JWW_CENTER1
 62
     4
370
     9
100
AcDbLine
 10
90.26296226418981
 20
-64.12698550919168
 30
0.0
 11
90.26296226418981
 21
-40.6774104458471
 31
0.0
  0
LINE
  5
104
330
1F
100
AcDbEntity
  8
躯体
  6
Continuous
 62
     2
370
     9
100
AcDbLine
 10
87.26300185456148
 20
-57.69741018191127
 30
0.0
 11
87.26300185456148
 21
-63.17750942177616
 31
0.0
  0
LINE
  5
105
330
1F
100
AcDbEntity
  8
躯体
  6
Continuous
 62
     2
370
     9
100
AcDbLine
 10
87.96295962483168
 20
-58.39736795218158
 30
0.0
 11
87.96295962483168
 21
-62.98995003621872
 31
0.0
  0
LINE
  5
106
330
1F
100
AcDbEntity
  8
躯体
  6
Continuous
 62
     2
370
     9
100
AcDbLine
 10
92.56296490354794
 20
-58.39736795218158
 30
0.0
 11
92.56296490354794
 21
-61.75740279170861
 31
0.0
  0
LINE
  5
107
330
1F
100
AcDbEntity
  8
躯体
  6
Continuous
 62
     2
370
     9
100
AcDbLine
 10
93.26302164974732
 20
-57.69741018191127
 30
0.0
 11
93.26302164974732
 21
-61.56984340615116
 31
0.0
  0
LINE
  5
108
330
1F
100
AcDbEntity
  8
躯体
  6
JWW_DASHED1
 62
     2
370
     9
100
AcDbLine
 10
97.55224251123377
 20
-53.37443852861736
 30
0.0
 11
97.73901008935877
 21
-52.11803808520523
 31
0.0
  0
LINE
  5
109
330
1F
100
AcDbEntity
  8
躯体
  6
Continuous
 62
     2
370
     9
100
AcDbLine
 10
102.7759940948487
 20
-46.76878502354981
 30
0.0
 11
103.2220786070952
 21
-50.20780265446194
 31
0.0
  0
LINE
  5
10A
330
1F
100
AcDbEntity
  8
躯体
  6
Continuous
 62
     2
370
     9
100
AcDbLine
 10
98.53626119788919
 20
-46.75037550074575
 30
0.0
 11
97.73891111342971
 21
-52.11774115741804
 31
0.0
  0
LINE
  5
10B
330
1F
100
AcDbEntity
  8
躯体
  6
Continuous
 62
     2
370
     9
100
AcDbLine
 10
-195.2500794640619
 20
-46.76878502354981
 30
0.0
 11
-195.696213464273
 21
-50.20780265446194
 31
0.0
  0
LINE
  5
10C
330
1F
100
AcDbEntity
  8
躯体
  6
Continuous
 62
     2
370
     9
100
AcDbLine
 10
-191.0102970791379
 20
-46.75037550074575
 30
0.0
 11
-190.2129469946784
 21
-52.11774115741804
 31
0.0
  0
LINE
  5
10D
330
1F
100
AcDbEntity
  8
躯体
  6
JWW_DASHED1
 62
     2
370
     9
100
AcDbLine
 10
-190.2130459706075
 20
-52.11774115741804
 30
0.0
 11
-190.0263773684115
 21
-53.37443852861736
 31
0.0
  0
LINE
  5
10E
330
1F
100
AcDbEntity
  8
躯体
  6
Continuous
 62
     2
370
     9
100
AcDbLine
 10
-188.7915536775331
 20
-53.39740094415794
 30
0.0
 11
-186.5244605345855
 21
-53.39740094415794
 31
0.0
  0
LINE
  5
10F
330
1F
100
AcDbEntity
  8
躯体
  6
Continuous
 62
     2
370
     9
100
AcDbLine
 10
94.05037516537232
 20
-53.39740094415794
 30
0.0
 11
96.31751779628439
 21
-53.39740094415794
 31
0.0
  0
LINE
  5
110
330
1F
100
AcDbEntity
  8
通り芯
  6
Continuous
 62
     3
370
     9
100
AcDbLine
 10
-189.2369453582764
 20
-71.9538040269282
 30
0.0
 11
-195.2370146414268
 21
-71.9538040269282
 31
0.0
  0
LINE
  5
111
330
1F
100
AcDbEntity
  8
通り芯
  6
Continuous
 62
     3
370
     9
100
AcDbLine
 10
-189.9369526165112
 20
-71.25384625665794
 30
0.0
 11
-189.2369453582764
 21
-71.9538040269282
 31
0.0
  0
LINE
  5
112
330
1F
100
AcDbEntity
  8
通り芯
  6
Continuous
 62
     3
370
     9
100
AcDbLine
 10
-195.2370146414268
 20
-94.25387265023897
 30
0.0
 11
-195.2370146414268
 21
-71.25384625665794
 31
0.0
  0
LINE
  5
113
330
1F
100
AcDbEntity
  8
通り芯
  6
Continuous
 62
     3
370
     9
100
AcDbLine
 10
-197.2370707277865
 20
-102.253800067891
 30
0.0
 11
-203.2369915470433
 21
-102.253800067891
 31
0.0
  0
LINE
  5
114
330
1F
100
AcDbEntity
  8
通り芯
  6
Continuous
 62
     3
370
     9
100
AcDbLine
 10
-203.2369915470433
 20
-102.253800067891
 30
0.0
 11
-203.2369915470433
 21
-96.25387924863429
 31
0.0
  0
LINE
  5
115
330
1F
100
AcDbEntity
  8
通り芯
  6
Continuous
 62
     3
370
     9
100
AcDbLine
 10
-197.2370707277865
 20
-96.25387924863429
 30
0.0
 11
-203.2369915470433
 21
-96.25387924863429
 31
0.0
  0
LINE
  5
116
330
1F
100
AcDbEntity
  8
通り芯
  6
JWW_CENTER1
 62
     3
370
     9
100
AcDbLine
 10
-197.2370707277865
 20
-99.25393863419168
 30
0.0
 11
-204.4429142666379
 21
-99.25393863419168
 31
0.0
  0
LINE
  5
117
330
1F
100
AcDbEntity
  8
通り芯
  6
Continuous
 62
     3
370
     9
100
AcDbLine
 10
-194.5369578952274
 20
-69.58164793528965
 30
0.0
 11
-194.5369578952274
 21
-81.25387924863429
 31
0.0
  0
LINE
  5
118
330
1F
100
AcDbEntity
  8
通り芯
  6
Continuous
 62
     3
370
     9
100
AcDbLine
 10
-189.9369526165112
 20
-69.58164793528965
 30
0.0
 11
-189.9369526165112
 21
-81.25387924863429
 31
0.0
  0
LINE
  5
119
330
1F
100
AcDbEntity
  8
通り芯
  6
Continuous
 62
     3
370
     9
100
AcDbLine
 10
-189.2369453582764
 20
-71.25384625665794
 30
0.0
 11
-189.2369453582764
 21
-94.25387265023897
 31
0.0
  0
LINE
  5
11A
330
1F
100
AcDbEntity
  8
通り芯
  6
JWW_CENTER1
 62
     3
370
     9
100
AcDbLine
 10
-192.2370047438338
 20
-67.3672594745633
 30
0.0
 11
-192.2370047438338
 21
-94.25387265023897
 31
0.0
  0
LINE
  5
11B
330
1F
100
AcDbEntity
  8
通り芯
  6
Continuous
 62
     3
370
     9
100
AcDbLine
 10
-226.2370179406244
 20
-61.25381326468158
 30
0.0
 11
-225.2370641293912
 21
-63.25381986307684
 31
0.0
  0
LINE
  5
11C
330
1F
100
AcDbEntity
  8
通り芯
  6
Continuous
 62
     3
370
     9
100
AcDbLine
 10
-217.2370377358102
 20
-63.25381986307684
 30
0.0
 11
-225.2370641293912
 21
-63.25381986307684
 31
0.0
  0
LINE
  5
11D
330
1F
100
AcDbEntity
  8
通り芯
  6
JWW_PHANTOM1
 62
     3
370
     9
100
AcDbLine
 10
-186.1985328002105
 20
-68.80250942177616
 30
0.0
 11
-186.9887071298135
 21
-69.69349073512075
 31
0.0
  0
LINE
  5
11E
330
1F
100
AcDbEntity
  8
通り芯
  6
Continuous
 62
     3
370
     9
100
AcDbLine
 10
-201.9536696509284
 20
-64.58088911983361
 30
0.0
 11
-201.714840734121
 21
-65.74771634745184
 31
0.0
  0
LINE
  5
11F
330
1F
100
AcDbEntity
  8
通り芯
  6
Continuous
 62
     3
370
     9
100
AcDbLine
 10
-203.3953530335298
 20
-63.05002842515455
 30
0.0
 11
-208.2432930145264
 21
-61.75096935632007
 31
0.0
  0
LINE
  5
120
330
1F
100
AcDbEntity
  8
通り芯
  6
Continuous
 62
     3
370
     9
100
AcDbLine
 10
-225.3271322248304
 20
-52.15426327523897
 30
0.0
 11
-226.2370179406244
 21
-61.25381326468158
 31
0.0
  0
LINE
  5
121
330
1F
100
AcDbEntity
  8
通り芯
  6
Continuous
 62
     3
370
     9
100
AcDbLine
 10
133.7629820593756
 20
-61.25381326468158
 30
0.0
 11
132.7629292722135
 21
-63.25381986307684
 31
0.0
  0
LINE
  5
122
330
1F
100
AcDbEntity
  8
通り芯
  6
Continuous
 62
     3
370
     9
100
AcDbLine
 10
124.7630018545615
 20
-63.25381986307684
 30
0.0
 11
132.7629292722135
 21
-63.25381986307684
 31
0.0
  0
LINE
  5
123
330
1F
100
AcDbEntity
  8
通り芯
  6
Continuous
 62
     3
370
     9
100
AcDbLine
 10
93.72444743099732
 20
-68.80250942177616
 30
0.0
 11
94.51467124856481
 21
-69.69349073512075
 31
0.0
  0
LINE
  5
124
330
1F
100
AcDbEntity
  8
通り芯
  6
Continuous
 62
     3
370
     9
100
AcDbLine
 10
109.4795347937506
 20
-64.58088911983361
 30
0.0
 11
109.2407058769433
 21
-65.74771634745184
 31
0.0
  0
LINE
  5
125
330
1F
100
AcDbEntity
  8
通り芯
  6
Continuous
 62
     3
370
     9
100
AcDbLine
 10
110.9213171522811
 20
-63.05002842515455
 30
0.0
 11
115.7691581573487
 21
-61.75096935632007
 31
0.0
  0
LINE
  5
126
330
1F
100
AcDbEntity
  8
通り芯
  6
Continuous
 62
     3
370
     9
100
AcDbLine
 10
132.8529973676527
 20
-52.15426327523897
 30
0.0
 11
133.7629820593756
 21
-61.25381326468158
 31
0.0
  0
LINE
  5
127
330
1F
100
AcDbEntity
  8
通り芯
  6
Continuous
 62
     3
370
     9
100
AcDbLine
 10
-152.0260540470433
 20
-129.7747499728741
 30
0.0
 11
-153.5520154332341
 21
-131.2538462566579
 31
0.0
  0
LINE
  5
128
330
1F
100
AcDbEntity
  8
通り芯
  6
Continuous
 62
     3
370
     9
100
AcDbLine
 10
-152.237021239822
 20
-79.25387265023897
 30
0.0
 11
-147.9370120020686
 21
-76.77125942177616
 31
0.0
  0
LINE
  5
129
330
1F
100
AcDbEntity
  8
通り芯
  6
Continuous
 62
     3
370
     9
100
AcDbLine
 10
-152.237021239822
 20
-79.25387265023897
 30
0.0
 11
-156.5369809896108
 21
-76.77125942177616
 31
0.0
  0
LINE
  5
12A
330
1F
100
AcDbEntity
  8
通り芯
  6
Continuous
 62
     3
370
     9
100
AcDbLine
 10
-156.5369809896108
 20
-76.77125942177616
 30
0.0
 11
-147.9370120020686
 21
-76.77125942177616
 31
0.0
  0
LINE
  5
12B
330
1F
100
AcDbEntity
  8
通り芯
  6
Continuous
 62
     3
370
     9
100
AcDbLine
 10
59.55201816579461
 20
-129.7747499728741
 30
0.0
 11
61.07793006402096
 21
-131.2538462566579
 31
0.0
  0
LINE
  5
12C
330
1F
100
AcDbEntity
  8
通り芯
  6
Continuous
 62
     3
370
     9
100
AcDbLine
 10
62.76299525616616
 20
-82.25383305986736
 30
0.0
 11
62.76299525616616
 21
-97.25383305986736
 31
0.0
  0
LINE
  5
12D
330
1F
100
AcDbEntity
  8
通り芯
  6
Continuous
 62
     3
370
     9
100
AcDbLine
 10
-155.2370311374149
 20
-82.25383305986736
 30
0.0
 11
-155.2370311374149
 21
-97.25383305986736
 31
0.0
  0
LINE
  5
12E
330
1F
100
AcDbEntity
  8
通り芯
  6
Continuous
 62
     3
370
     9
100
AcDbLine
 10
108.0382473148655
 20
-66.92830122920861
 30
0.0
 11
108.1593938520277
 21
-66.89573814854981
 31
0.0
  0
LINE
  5
12F
330
1F
100
AcDbEntity
  8
通り芯
  6
Continuous
 62
     3
370
     9
100
AcDbLine
 10
96.02514290185877
 20
-70.14719639390455
 30
0.0
 11
108.0382473148655
 21
-66.92840020513762
 31
0.0
  0
LINE
  5
130
330
1F
100
AcDbEntity
  8
通り芯
  6
Continuous
 62
     3
370
     9
100
AcDbLine
 10
-197.4211659558271
 20
-79.96610343571194
 30
0.0
 11
-199.0501117961987
 21
-68.577042255391
 31
0.0
  0
LINE
  5
131
330
1F
100
AcDbEntity
  8
通り芯
  6
Continuous
 62
     3
370
     9
100
AcDbLine
 10
-188.5246650848389
 20
-81.25378027270523
 30
0.0
 11
-195.9363290681581
 21
-81.25378027270523
 31
0.0
  0
LINE
  5
132
330
1F
100
AcDbEntity
  8
通り芯
  6
Continuous
 62
     3
370
     9
100
AcDbLine
 10
-187.0419561796447
 20
-79.98094982507007
 30
0.0
 11
-185.5329691652865
 21
-70.13363669162413
 31
0.0
  0
LINE
  5
133
330
1F
100
AcDbEntity
  8
通り芯
  6
Continuous
 62
     3
370
     9
100
AcDbLine
 10
-192.2370047438338
 20
-68.25378687110049
 30
0.0
 11
-194.537007383192
 21
-69.58164793528965
 31
0.0
  0
LINE
  5
134
330
1F
100
AcDbEntity
  8
通り芯
  6
Continuous
 62
     3
370
     9
100
AcDbLine
 10
-192.2370047438338
 20
-68.25378687110049
 30
0.0
 11
-189.9370021044757
 21
-69.58164793528965
 31
0.0
  0
LINE
  5
135
330
1F
100
AcDbEntity
  8
通り芯
  6
Continuous
 62
     3
370
     9
100
AcDbLine
 10
-194.537007383192
 20
-69.58164793528965
 30
0.0
 11
-189.9370021044757
 21
-69.58164793528965
 31
0.0
  0
LINE
  5
136
330
1F
100
AcDbEntity
  8
通り芯
  6
Continuous
 62
     3
370
     9
100
AcDbLine
 10
-190.5282348166801
 20
-63.39189128410726
 30
0.0
 11
-195.4987564858102
 21
-62.05997220682684
 31
0.0
  0
LINE
  5
137
330
1F
100
AcDbEntity
  8
通り芯
  6
Continuous
 62
     3
370
     9
100
AcDbLine
 10
-189.0176641874572
 20
-62.93818562532346
 30
0.0
 11
-187.8174325837831
 21
-61.58468979550929
 31
0.0
  0
LINE
  5
138
330
1F
100
AcDbEntity
  8
通り芯
  6
Continuous
 62
     3
370
     9
100
AcDbLine
 10
-196.5800685107257
 20
-60.91185142979981
 30
0.0
 11
-196.9427163147798
 21
-59.13958844415794
 31
0.0
  0
LINE
  5
139
330
1F
100
AcDbEntity
  8
通り芯
  6
Continuous
 62
     3
370
     9
100
AcDbLine
 10
-208.6577547174403
 20
-55.42818905648897
 30
0.0
 11
-224.2371103181581
 21
-51.25378027270523
 31
0.0
  0
LINE
  5
13A
330
1F
100
AcDbEntity
  8
通り芯
  6
Continuous
 62
     3
370
     9
100
AcDbLine
 10
-205.7599869545602
 20
-56.2047541958471
 30
0.0
 11
-202.8622191916801
 21
-56.98122035927616
 31
0.0
  0
LINE
  5
13B
330
1F
100
AcDbEntity
  8
通り芯
  6
Continuous
 62
     3
370
     9
100
AcDbLine
 10
-197.663607494045
 20
-58.37420758478294
 30
0.0
 11
-199.9644514288001
 21
-57.75768652270523
 31
0.0
  0
LINE
  5
13C
330
1F
100
AcDbEntity
  8
通り芯
  6
Continuous
 62
     3
370
     9
100
AcDbLine
 10
-186.8104019936227
 20
-61.28231833224913
 30
0.0
 11
-184.5096570347966
 21
-61.89874041839778
 31
0.0
  0
LINE
  5
13D
330
1F
100
AcDbEntity
  8
通り芯
  6
Continuous
 62
     3
370
     9
100
AcDbLine
 10
-181.6118397839521
 20
-62.67520658182684
 30
0.0
 11
-178.7141215090365
 21
-63.45167274525591
 31
0.0
  0
LINE
  5
13E
330
1F
100
AcDbEntity
  8
通り芯
  6
Continuous
 62
     3
370
     9
100
AcDbLine
 10
98.05405047153783
 20
-63.39189128410726
 30
0.0
 11
103.0246216286324
 21
-62.05997220682684
 31
0.0
  0
LINE
  5
13F
330
1F
100
AcDbEntity
  8
通り芯
  6
Continuous
 62
     3
370
     9
100
AcDbLine
 10
96.54357881824387
 20
-62.93818562532346
 30
0.0
 11
95.34339670253439
 21
-61.58468979550929
 31
0.0
  0
LINE
  5
140
330
1F
100
AcDbEntity
  8
通り芯
  6
Continuous
 62
     3
370
     9
100
AcDbLine
 10
104.106032629477
 20
-60.91185142979981
 30
0.0
 11
104.468581457602
 21
-59.13958844415794
 31
0.0
  0
LINE
  5
141
330
1F
100
AcDbEntity
  8
通り芯
  6
Continuous
 62
     3
370
     9
100
AcDbLine
 10
116.183669348227
 20
-55.42818905648897
 30
0.0
 11
131.7629754609803
 21
-51.25378027270523
 31
0.0
  0
LINE
  5
142
330
1F
100
AcDbEntity
  8
通り芯
  6
Continuous
 62
     3
370
     9
100
AcDbLine
 10
113.2859510733115
 20
-56.2047541958471
 30
0.0
 11
110.3881338224669
 21
-56.98122035927616
 31
0.0
  0
LINE
  5
143
330
1F
100
AcDbEntity
  8
通り芯
  6
Continuous
 62
     3
370
     9
100
AcDbLine
 10
105.1895221248317
 20
-58.37420758478294
 30
0.0
 11
107.4904155475514
 21
-57.75768652270523
 31
0.0
  0
LINE
  5
144
330
1F
100
AcDbEntity
  8
通り芯
  6
Continuous
 62
     3
370
     9
100
AcDbLine
 10
94.33631662440939
 20
-61.28231833224913
 30
0.0
 11
92.03552217761887
 21
-61.89874041839778
 31
0.0
  0
LINE
  5
145
330
1F
100
AcDbEntity
  8
通り芯
  6
Continuous
 62
     3
370
     9
100
AcDbLine
 10
89.13780390270335
 20
-62.67520658182684
 30
0.0
 11
86.23998665185877
 21
-63.45167274525591
 31
0.0
  0
LINE
  5
146
330
1F
100
AcDbEntity
  8
通り芯
  6
Continuous
 62
     3
370
     9
100
AcDbLine
 10
69.49979186723033
 20
-67.93716287405658
 30
0.0
 11
83.34216940101419
 21
-64.2280399327559
 31
0.0
  0
LINE
  5
147
330
1F
100
AcDbEntity
  8
通り芯
  6
Continuous
 62
     3
370
     9
100
AcDbLine
 10
67.18811006824387
 20
-71.71101607295861
 30
0.0
 11
67.28758087694325
 21
-70.57348572034033
 31
0.0
  0
LINE
  5
148
330
1F
100
AcDbEntity
  8
通り芯
  6
Continuous
 62
     3
370
     9
100
AcDbLine
 10
-175.816304258192
 20
-64.2280399327559
 30
0.0
 11
-161.9737782605146
 21
-67.93716287405658
 31
0.0
  0
LINE
  5
149
330
1F
100
AcDbEntity
  8
通り芯
  6
Continuous
 62
     3
370
     9
100
AcDbLine
 10
-142.0530414836987
 20
-70.54161547118497
 30
0.0
 11
-140.3798534030399
 21
-82.25383305986736
 31
0.0
  0
LINE
  5
14A
330
1F
100
AcDbEntity
  8
通り芯
  6
Continuous
 62
     3
370
     9
100
AcDbLine
 10
54.48524240565939
 20
-75.17398587870184
 30
0.0
 11
64.42014923631825
 21
-74.44156400370184
 31
0.0
  0
LINE
  5
14B
330
1F
100
AcDbEntity
  8
通り芯
  6
Continuous
 62
     3
370
     9
100
AcDbLine
 10
53.14035748167294
 20
-76.30627050708023
 30
0.0
 11
51.65344209949387
 21
-82.25383305986736
 31
0.0
  0
LINE
  5
14C
330
1F
100
AcDbEntity
  8
通り芯
  6
Continuous
 62
     3
370
     9
100
AcDbLine
 10
72.80281657162232
 20
-110.797501239766
 30
0.0
 11
75.98241829248377
 21
-74.45542063376939
 31
0.0
  0
LINE
  5
14D
330
1F
100
AcDbEntity
  8
通り芯
  6
Continuous
 62
     3
370
     9
100
AcDbLine
 10
-165.2770009167646
 20
-110.797501239766
 30
0.0
 11
-168.4564046857679
 21
-74.45542063376939
 31
0.0
  0
LINE
  5
14E
330
1F
100
AcDbEntity
  8
通り芯
  6
Continuous
 62
     3
370
     9
100
AcDbLine
 10
70.16797836427429
 20
-111.2537802727052
 30
0.0
 11
72.30476969662232
 21
-111.2537802727052
 31
0.0
  0
LINE
  5
14F
330
1F
100
AcDbEntity
  8
通り芯
  6
Continuous
 62
     3
370
     9
100
AcDbLine
 10
67.39803801376752
 20
-129.9030227769282
 30
0.0
 11
69.17297334949387
 21
-112.154362251168
 31
0.0
  0
LINE
  5
150
330
1F
100
AcDbEntity
  8
通り芯
  6
Continuous
 62
     3
370
     9
100
AcDbLine
 10
-162.642014245523
 20
-111.2537802727052
 30
0.0
 11
-164.7789045538001
 21
-111.2537802727052
 31
0.0
  0
LINE
  5
151
330
1F
100
AcDbEntity
  8
通り芯
  6
Continuous
 62
     3
370
     9
100
AcDbLine
 10
-159.8720738950162
 20
-129.9030227769282
 30
0.0
 11
-161.6470092307426
 21
-112.154362251168
 31
0.0
  0
LINE
  5
152
330
1F
100
AcDbEntity
  8
通り芯
  6
Continuous
 62
     3
370
     9
100
AcDbLine
 10
-152.0260540470433
 20
-129.7747499728741
 30
0.0
 11
-151.0098186954808
 21
-97.25383305986736
 31
0.0
  0
LINE
  5
153
330
1F
100
AcDbEntity
  8
通り芯
  6
Continuous
 62
     3
370
     9
100
AcDbLine
 10
-153.5520154332341
 20
-131.2538462566579
 30
0.0
 11
-152.4894593468744
 21
-97.25383305986736
 31
0.0
  0
LINE
  5
154
330
1F
100
AcDbEntity
  8
通り芯
  6
Continuous
 62
     3
370
     9
100
AcDbLine
 10
59.55201816579461
 20
-129.7747499728741
 30
0.0
 11
58.53563435033846
 21
-97.25383305986736
 31
0.0
  0
LINE
  5
155
330
1F
100
AcDbEntity
  8
通り芯
  6
Continuous
 62
     3
370
     9
100
AcDbLine
 10
61.07793006402096
 20
-131.2538462566579
 30
0.0
 11
60.01542346562564
 21
-97.25383305986736
 31
0.0
  0
LINE
  5
156
330
1F
100
AcDbEntity
  8
通り芯
  6
Continuous
 62
     3
370
     9
100
AcDbLine
 10
59.55201816579461
 20
-129.7747499728741
 30
0.0
 11
-152.0260540470433
 21
-129.7747499728741
 31
0.0
  0
LINE
  5
157
330
1F
100
AcDbEntity
  8
通り芯
  6
Continuous
 62
     3
370
     9
100
AcDbLine
 10
65.90548100363242
 20
-131.2538462566579
 30
0.0
 11
-158.3795663728456
 21
-131.2538462566579
 31
0.0
  0
LINE
  5
158
330
1F
100
AcDbEntity
  8
通り芯
  6
Continuous
 62
     3
370
     9
100
AcDbLine
 10
62.76299525616616
 20
-97.25383305986736
 30
0.0
 11
-155.2370311374149
 21
-97.25383305986736
 31
0.0
  0
LINE
  5
159
330
1F
100
AcDbEntity
  8
通り芯
  6
Continuous
 62
     3
370
     9
100
AcDbLine
 10
62.76299525616616
 20
-82.25383305986736
 30
0.0
 11
-155.2370311374149
 21
-82.25383305986736
 31
0.0
  0
LINE
  5
15A
330
1F
100
AcDbEntity
  8
躯体
  6
Continuous
 62
     2
370
     9
100
AcDbLine
 10
-163.3299959283778
 20
-62.39748012490116
 30
0.0
 11
-139.5076775162156
 21
-62.39748012490116
 31
0.0
  0
LINE
  5
15B
330
1F
100
AcDbEntity
  8
躯体
  6
Continuous
 62
     2
370
     9
100
AcDbLine
 10
67.78216359442638
 20
-68.39740094415794
 30
0.0
 11
-147.2370542317983
 21
-68.39740094415794
 31
0.0
  0
LINE
  5
15C
330
1F
100
AcDbEntity
  8
躯体
  6
Continuous
 62
     2
370
     9
100
AcDbLine
 10
-157.2370377358102
 20
-68.39740094415794
 30
0.0
 11
-160.2561994756751
 21
-68.39740094415794
 31
0.0
  0
LINE
  5
15D
330
1F
100
AcDbEntity
  8
通り芯
  6
Continuous
 62
     3
370
     9
100
AcDbLine
 10
-147.9370120020686
 20
-75.25376047751939
 30
0.0
 11
-147.9370120020686
 21
-76.77125942177616
 31
0.0
  0
LINE
  5
15E
330
1F
100
AcDbEntity
  8
通り芯
  6
Continuous
 62
     3
370
     9
100
AcDbLine
 10
-156.5370304775754
 20
-75.25376047751939
 30
0.0
 11
-156.5370304775754
 21
-76.77125942177616
 31
0.0
  0
LINE
  5
15F
330
1F
100
AcDbEntity
  8
通り芯
  6
Continuous
 62
     3
370
     9
100
AcDbLine
 10
-143.5379773472966
 20
-69.25383965826262
 30
0.0
 11
-147.9370120020686
 21
-69.25383965826262
 31
0.0
  0
LINE
  5
160
330
1F
100
AcDbEntity
  8
通り芯
  6
Continuous
 62
     3
370
     9
100
AcDbLine
 10
-156.5370304775754
 20
-69.25383965826262
 30
0.0
 11
-160.2007234674403
 21
-69.25383965826262
 31
0.0
  0
LINE
  5
161
330
1F
100
AcDbEntity
  8
躯体
  6
Continuous
 62
     2
370
     9
100
AcDbLine
 10
-138.0935094418912
 20
-63.39743393613429
 30
0.0
 11
67.12407264214596
 21
-63.39743393613429
 31
0.0
  0
LINE
  5
162
330
1F
100
AcDbEntity
  8
仕上
  6
Continuous
 62
     4
370
     9
100
AcDbLine
 10
-186.7370608301936
 20
311.0026729578692
 30
0.0
 11
-186.7370608301936
 21
311.5028973033083
 31
0.0
  0
LINE
  5
163
330
1F
100
AcDbEntity
  8
仕上
  6
Continuous
 62
     4
370
     9
100
AcDbLine
 10
-178.7370344366126
 20
311.0026729578692
 30
0.0
 11
-178.7370344366126
 21
311.5028973033083
 31
0.0
  0
LINE
  5
164
330
1F
100
AcDbEntity
  8
仕上
  6
Continuous
 62
     4
370
     9
100
AcDbLine
 10
94.26297546098033
 20
311.0026729578692
 30
0.0
 11
94.26297546098033
 21
311.5028973033083
 31
0.0
  0
LINE
  5
165
330
1F
100
AcDbEntity
  8
仕上
  6
Continuous
 62
     4
370
     9
100
AcDbLine
 10
86.26294906739929
 20
311.0026729578692
 30
0.0
 11
86.26294906739929
 21
311.5028973033083
 31
0.0
  0
LINE
  5
166
330
1F
100
AcDbEntity
  8
仕上
  6
JWW_CENTER1
 62
     4
370
     9
100
AcDbLine
 10
-182.7370476334031
 20
308.9355606795752
 30
0.0
 11
-182.7370476334031
 21
317.2218254599806
 31
0.0
  0
LINE
  5
167
330
1F
100
AcDbEntity
  8
仕上
  6
JWW_CENTER1
 62
     4
370
     9
100
AcDbLine
 10
90.26296226418981
 20
308.9355606795752
 30
0.0
 11
90.26296226418981
 21
317.2670574595583
 31
0.0
  0
LINE
  5
168
330
1F
100
AcDbEntity
  8
通り芯
  6
Continuous
 62
     3
370
     9
100
AcDbLine
 10
91.71048522660533
 20
-68.19766751932684
 30
0.0
 11
78.1945303068419
 21
-71.81909778748565
 31
0.0
  0
LINE
  5
169
330
1F
100
AcDbEntity
  8
通り芯
  6
Continuous
 62
     3
370
     9
100
AcDbLine
 10
-200.5122337081497
 20
-66.92820225327955
 30
0.0
 11
-200.6334792212409
 21
-66.89573814854981
 31
0.0
  0
LINE
  5
16A
330
1F
100
AcDbEntity
  8
通り芯
  6
JWW_PHANTOM1
 62
     3
370
     9
100
AcDbLine
 10
-188.4992777590365
 20
-70.14719639390455
 30
0.0
 11
-200.5122337081497
 21
-66.92820225327955
 31
0.0
  0
LINE
  5
16B
330
1F
100
AcDbEntity
  8
通り芯
  6
Continuous
 62
     3
370
     9
100
AcDbLine
 10
-170.6685661880906
 20
-71.81919676341465
 30
0.0
 11
-183.0383798494081
 21
-68.50469085125252
 31
0.0
  0
LINE
  5
16C
330
1F
100
AcDbEntity
  8
通り芯
  6
JWW_PHANTOM1
 62
     3
370
     9
100
AcDbLine
 10
-183.0383303614436
 20
-68.50469085125252
 30
0.0
 11
-184.184521107854
 21
-68.19756854339778
 31
0.0
  0
LINE
  5
16D
330
1F
100
AcDbEntity
  8
通り芯
  6
Continuous
 62
     3
370
     9
100
AcDbLine
 10
-195.2370146414268
 20
-71.9538040269282
 30
0.0
 11
-194.5369578952274
 21
-71.25384625665794
 31
0.0
  0
LINE
  5
16E
330
1F
100
AcDbEntity
  8
通り芯
  6
Continuous
 62
     3
370
     9
100
AcDbLine
 10
-189.2370443342054
 20
-71.25384625665794
 30
0.0
 11
-195.2370641293912
 21
-71.25384625665794
 31
0.0
  0
LINE
  5
16F
330
1F
100
AcDbEntity
  8
その他
  6
Continuous
 62
     7
370
     9
100
AcDbLine
 10
-189.2370443342054
 20
51.60264854380665
 30
0.0
 11
96.76300845295668
 21
51.60264854380665
 31
0.0
  0
LINE
  5
170
330
1F
100
AcDbEntity
  8
その他
  6
Continuous
 62
     7
370
     9
100
AcDbLine
 10
-189.2370443342054
 20
-36.39749332169168
 30
0.0
 11
-189.2370443342054
 21
52.80263270765801
 31
0.0
  0
LINE
  5
171
330
1F
100
AcDbEntity
  8
その他
  6
Continuous
 62
     7
370
     9
100
AcDbLine
 10
96.76300845295668
 20
-36.39749332169168
 30
0.0
 11
96.76300845295668
 21
52.80263270765801
 31
0.0
  0
LINE
  5
172
330
1F
100
AcDbEntity
  8
その他
  6
Continuous
 62
     7
370
     9
100
AcDbLine
 10
-189.2370443342054
 20
51.60264854380665
 30
0.0
 11
-179.3225760328963
 21
52.90789360820696
 31
0.0
  0
LINE
  5
173
330
1F
100
AcDbEntity
  8
その他
  6
Continuous
 62
     7
370
     9
100
AcDbLine
 10
-189.2370443342054
 20
51.60264854380665
 30
0.0
 11
-179.3225760328963
 21
50.29740347940623
 31
0.0
  0
LINE
  5
174
330
1F
100
AcDbEntity
  8
その他
  6
Continuous
 62
     7
370
     9
100
AcDbLine
 10
96.76300845295668
 20
51.60264854380665
 30
0.0
 11
86.8485896396121
 21
52.90789360820696
 31
0.0
  0
LINE
  5
175
330
1F
100
AcDbEntity
  8
その他
  6
Continuous
 62
     7
370
     9
100
AcDbLine
 10
96.76300845295668
 20
51.60264854380665
 30
0.0
 11
86.8485896396121
 21
50.29740347940623
 31
0.0
  0
LINE
  5
176
330
1F
100
AcDbEntity
  8
その他
  6
Continuous
 62
     7
370
     9
100
AcDbLine
 10
-216.2370344366126
 20
83.60265514220185
 30
0.0
 11
123.7629490673993
 21
83.60265514220185
 31
0.0
  0
LINE
  5
177
330
1F
100
AcDbEntity
  8
その他
  6
Continuous
 62
     7
370
     9
100
AcDbLine
 10
-216.2370344366126
 20
-43.39736795218158
 30
0.0
 11
-216.2370344366126
 21
84.80263930605321
 31
0.0
  0
LINE
  5
178
330
1F
100
AcDbEntity
  8
その他
  6
Continuous
 62
     7
370
     9
100
AcDbLine
 10
123.7629490673993
 20
-43.39736795218158
 30
0.0
 11
123.7629490673993
 21
84.80263930605321
 31
0.0
  0
LINE
  5
179
330
1F
100
AcDbEntity
  8
その他
  6
Continuous
 62
     7
370
     9
100
AcDbLine
 10
-216.2370344366126
 20
83.60265514220185
 30
0.0
 11
-206.3225661353034
 21
84.90790020660228
 31
0.0
  0
LINE
  5
17A
330
1F
100
AcDbEntity
  8
その他
  6
Continuous
 62
     7
370
     9
100
AcDbLine
 10
-216.2370344366126
 20
83.60265514220185
 30
0.0
 11
-206.3225661353034
 21
82.29741007780154
 31
0.0
  0
LINE
  5
17B
330
1F
100
AcDbEntity
  8
その他
  6
Continuous
 62
     7
370
     9
100
AcDbLine
 10
123.7629490673993
 20
83.60265514220185
 30
0.0
 11
113.8485302540547
 21
84.90790020660228
 31
0.0
  0
LINE
  5
17C
330
1F
100
AcDbEntity
  8
その他
  6
Continuous
 62
     7
370
     9
100
AcDbLine
 10
123.7629490673993
 20
83.60265514220185
 30
0.0
 11
113.8485302540547
 21
82.29741007780154
 31
0.0
  0
LINE
  5
17D
330
1F
100
AcDbEntity
  8
その他
  6
Continuous
 62
     7
370
     9
100
AcDbLine
 10
-226.2370179406244
 20
115.6026617405972
 30
0.0
 11
133.7629820593756
 21
115.6026617405972
 31
0.0
  0
LINE
  5
17E
330
1F
100
AcDbEntity
  8
その他
  6
Continuous
 62
     7
370
     9
100
AcDbLine
 10
133.7629820593756
 20
-51.25378027270523
 30
0.0
 11
133.7629820593756
 21
116.8026459044485
 31
0.0
  0
LINE
  5
17F
330
1F
100
AcDbEntity
  8
その他
  6
Continuous
 62
     7
370
     9
100
AcDbLine
 10
-226.2370179406244
 20
115.6026617405972
 30
0.0
 11
-216.3225496393153
 21
116.9079068049975
 31
0.0
  0
LINE
  5
180
330
1F
100
AcDbEntity
  8
その他
  6
Continuous
 62
     7
370
     9
100
AcDbLine
 10
-226.2370179406244
 20
115.6026617405972
 30
0.0
 11
-216.3225496393153
 21
114.2974166761969
 31
0.0
  0
LINE
  5
181
330
1F
100
AcDbEntity
  8
その他
  6
Continuous
 62
     7
370
     9
100
AcDbLine
 10
133.7629820593756
 20
115.6026617405972
 30
0.0
 11
123.8485632460311
 21
116.9079068049975
 31
0.0
  0
LINE
  5
182
330
1F
100
AcDbEntity
  8
その他
  6
Continuous
 62
     7
370
     9
100
AcDbLine
 10
133.7629820593756
 20
115.6026617405972
 30
0.0
 11
123.8485632460311
 21
114.2974166761969
 31
0.0
  0
LINE
  5
183
330
1F
100
AcDbEntity
  8
その他
  6
Continuous
 62
     7
370
     9
100
AcDbLine
 10
-152.0260540470433
 20
-171.253854504652
 30
0.0
 11
59.55201816579461
 21
-171.253854504652
 31
0.0
  0
LINE
  5
184
330
1F
100
AcDbEntity
  8
その他
  6
Continuous
 62
     7
370
     9
100
AcDbLine
 10
-152.0260540470433
 20
-139.7747829648505
 30
0.0
 11
-152.0260540470433
 21
-172.4538634124856
 31
0.0
  0
LINE
  5
185
330
1F
100
AcDbEntity
  8
その他
  6
Continuous
 62
     7
370
     9
100
AcDbLine
 10
59.55201816579461
 20
-139.7747829648505
 30
0.0
 11
59.55201816579461
 21
-172.4538634124856
 31
0.0
  0
LINE
  5
186
330
1F
100
AcDbEntity
  8
その他
  6
Continuous
 62
     7
370
     9
100
AcDbLine
 10
-152.0260540470433
 20
-171.253854504652
 30
0.0
 11
-142.1115857457341
 21
-169.9485846962694
 31
0.0
  0
LINE
  5
187
330
1F
100
AcDbEntity
  8
その他
  6
Continuous
 62
     7
370
     9
100
AcDbLine
 10
-152.0260540470433
 20
-171.253854504652
 30
0.0
 11
-142.1115857457341
 21
-172.5591243130346
 31
0.0
  0
LINE
  5
188
330
1F
100
AcDbEntity
  8
その他
  6
Continuous
 62
     7
370
     9
100
AcDbLine
 10
59.55201816579461
 20
-171.253854504652
 30
0.0
 11
49.63759935245002
 21
-169.9485846962694
 31
0.0
  0
LINE
  5
189
330
1F
100
AcDbEntity
  8
その他
  6
Continuous
 62
     7
370
     9
100
AcDbLine
 10
59.55201816579461
 20
-171.253854504652
 30
0.0
 11
49.63759935245002
 21
-172.5591243130346
 31
0.0
  0
LINE
  5
18A
330
1F
100
AcDbEntity
  8
その他
  6
Continuous
 62
     7
370
     9
100
AcDbLine
 10
173.763015051352
 20
-131.2538462566579
 30
0.0
 11
173.763015051352
 21
-51.25382976066976
 31
0.0
  0
LINE
  5
18B
330
1F
100
AcDbEntity
  8
その他
  6
Continuous
 62
     7
370
     9
100
AcDbLine
 10
82.76296226418981
 20
-131.2538462566579
 30
0.0
 11
174.9629992152034
 21
-131.2538462566579
 31
0.0
  0
LINE
  5
18C
330
1F
100
AcDbEntity
  8
その他
  6
Continuous
 62
     7
370
     9
100
AcDbLine
 10
141.8580253448487
 20
-51.25382976066976
 30
0.0
 11
174.9629992152034
 21
-51.25382976066976
 31
0.0
  0
LINE
  5
18D
330
1F
100
AcDbEntity
  8
その他
  6
Continuous
 62
     7
370
     9
100
AcDbLine
 10
173.763015051352
 20
-131.2538462566579
 30
0.0
 11
172.4577204989871
 21
-121.3394274433133
 31
0.0
  0
LINE
  5
18E
330
1F
100
AcDbEntity
  8
その他
  6
Continuous
 62
     7
370
     9
100
AcDbLine
 10
173.763015051352
 20
-131.2538462566579
 30
0.0
 11
175.0683096037169
 21
-121.3394274433133
 31
0.0
  0
LINE
  5
18F
330
1F
100
AcDbEntity
  8
その他
  6
Continuous
 62
     7
370
     9
100
AcDbLine
 10
173.763015051352
 20
-51.25382976066976
 30
0.0
 11
172.4577204989871
 21
-61.16829806197887
 31
0.0
  0
LINE
  5
190
330
1F
100
AcDbEntity
  8
その他
  6
Continuous
 62
     7
370
     9
100
AcDbLine
 10
173.763015051352
 20
-51.25382976066976
 30
0.0
 11
175.0683096037169
 21
-61.16829806197887
 31
0.0
  0
LINE
  5
191
330
1F
100
AcDbEntity
  8
その他
  6
Continuous
 62
     7
370
     9
100
AcDbLine
 10
173.763015051352
 20
-51.25382976066976
 30
0.0
 11
173.763015051352
 21
11.60266503979477
 31
0.0
  0
LINE
  5
192
330
1F
100
AcDbEntity
  8
その他
  6
Continuous
 62
     7
370
     9
100
AcDbLine
 10
173.763015051352
 20
-51.25382976066976
 30
0.0
 11
172.4577204989871
 21
-41.33936145936059
 31
0.0
  0
LINE
  5
193
330
1F
100
AcDbEntity
  8
その他
  6
Continuous
 62
     7
370
     9
100
AcDbLine
 10
173.763015051352
 20
-51.25382976066976
 30
0.0
 11
175.0683096037169
 21
-41.33936145936059
 31
0.0
  0
LINE
  5
194
330
1F
100
AcDbEntity
  8
その他
  6
Continuous
 62
     7
370
     9
100
AcDbLine
 10
173.763015051352
 20
11.60266503979477
 30
0.0
 11
172.4577204989871
 21
1.688196738485715
 31
0.0
  0
LINE
  5
195
330
1F
100
AcDbEntity
  8
その他
  6
Continuous
 62
     7
370
     9
100
AcDbLine
 10
173.763015051352
 20
11.60266503979477
 30
0.0
 11
175.0683096037169
 21
1.688196738485715
 31
0.0
  0
LINE
  5
196
330
1F
100
AcDbEntity
  8
その他
  6
Continuous
 62
     7
370
     9
100
AcDbLine
 10
-266.2370014446362
 20
-53.39740094415794
 30
0.0
 11
-266.2370014446362
 21
11.60266503979477
 31
0.0
  0
LINE
  5
197
330
1F
100
AcDbEntity
  8
その他
  6
Continuous
 62
     7
370
     9
100
AcDbLine
 10
-198.72928132217
 20
-53.39740094415794
 30
0.0
 11
-267.4369856084876
 21
-53.39740094415794
 31
0.0
  0
LINE
  5
198
330
1F
100
AcDbEntity
  8
その他
  6
Continuous
 62
     7
370
     9
100
AcDbLine
 10
-266.2370014446362
 20
-53.39740094415794
 30
0.0
 11
-267.5422465090365
 21
-43.4829821308133
 31
0.0
  0
LINE
  5
199
330
1F
100
AcDbEntity
  8
その他
  6
Continuous
 62
     7
370
     9
100
AcDbLine
 10
-266.2370014446362
 20
-53.39740094415794
 30
0.0
 11
-264.9317563802358
 21
-43.4829821308133
 31
0.0
  0
LINE
  5
19A
330
1F
100
AcDbEntity
  8
その他
  6
Continuous
 62
     7
370
     9
100
AcDbLine
 10
-266.2370014446362
 20
11.60266503979477
 30
0.0
 11
-267.5422465090365
 21
1.688196738485715
 31
0.0
  0
LINE
  5
19B
330
1F
100
AcDbEntity
  8
その他
  6
Continuous
 62
     7
370
     9
100
AcDbLine
 10
-266.2370014446362
 20
11.60266503979477
 30
0.0
 11
-264.9317563802358
 21
1.688196738485715
 31
0.0
  0
LINE
  5
19C
330
1F
100
AcDbEntity
  8
仕上
  6
Continuous
 62
     6
370
     9
100
AcDbLine
 10
-187.991135339273
 20
-52.21176829001939
 30
0.0
 11
-189.2370443342054
 21
-46.39752631366804
 31
0.0
  0
LINE
  5
19D
330
1F
100
AcDbEntity
  8
仕上
  6
Continuous
 62
     6
370
     9
100
AcDbLine
 10
95.51709945802429
 20
-52.21176829001939
 30
0.0
 11
96.76300845295668
 21
-46.39752631366804
 31
0.0
  0
LINE
  5
19E
330
1F
100
AcDbEntity
  8
仕上
  6
Continuous
 62
     6
370
     9
100
AcDbLine
 10
-176.5389275162156
 20
-46.39752631366804
 30
0.0
 11
-189.2370443342054
 21
-46.39752631366804
 31
0.0
  0
LINE
  5
19F
330
1F
100
AcDbEntity
  8
仕上
  6
Continuous
 62
     6
370
     9
100
AcDbLine
 10
-168.071239857854
 20
-50.43277494120184
 30
0.0
 11
-157.3404675816716
 21
-10.38493657549242
 31
0.0
  0
LINE
  5
1A0
330
1F
100
AcDbEntity
  8
仕上
  6
Continuous
 62
     6
370
     9
100
AcDbLine
 10
84.06499061089596
 20
-46.39752631366804
 30
0.0
 11
96.76300845295668
 21
-46.39752631366804
 31
0.0
  0
LINE
  5
1A1
330
1F
100
AcDbEntity
  8
仕上
  6
Continuous
 62
     6
370
     9
100
AcDbLine
 10
81.16717336005138
 20
-44.17393309153965
 30
0.0
 11
71.62807126967971
 21
-8.573083218228874
 31
0.0
  0
LINE
  5
1A2
330
1F
100
AcDbEntity
  8
仕上
  6
Continuous
 62
     6
370
     9
100
AcDbLine
 10
75.59730295253439
 20
-50.43277494120184
 30
0.0
 11
64.866530676352
 21
-10.38493657549242
 31
0.0
  0
LINE
  5
1A3
330
1F
100
AcDbEntity
  8
仕上
  6
Continuous
 62
     6
370
     9
100
AcDbLine
 10
-173.6412092413001
 20
-44.17393309153965
 30
0.0
 11
-164.1019091990703
 21
-8.573083218228874
 31
0.0
  0
LINE
  5
1A4
330
1F
100
AcDbEntity
  8
仕上
  6
JWW_DASHED1
 62
     6
370
     9
100
AcDbLine
 10
-175.318257383192
 20
-50.43277494120184
 30
0.0
 11
-173.6412092413001
 21
-44.17393309153965
 31
0.0
  0
LINE
  5
1A5
330
1F
100
AcDbEntity
  8
仕上
  6
JWW_DASHED1
 62
     6
370
     9
100
AcDbLine
 10
-147.2370047438338
 20
4.277753458291443
 30
0.0
 11
-146.2369519566716
 21
3.412505886500924
 31
0.0
  0
LINE
  5
1A6
330
1F
100
AcDbEntity
  8
仕上
  6
JWW_DASHED1
 62
     6
370
     9
100
AcDbLine
 10
-146.2369519566716
 20
3.412505886500924
 30
0.0
 11
-147.2370047438338
 21
-2.797045950492418
 31
0.0
  0
LINE
  5
1A7
330
1F
100
AcDbEntity
  8
仕上
  6
JWW_DASHED1
 62
     6
370
     9
100
AcDbLine
 10
-78.73695195667165
 20
10.84777562889957
 30
0.0
 11
-80.23703113741487
 21
3.768027423663
 31
0.0
  0
LINE
  5
1A8
330
1F
100
AcDbEntity
  8
仕上
  6
JWW_DASHED1
 62
     6
370
     9
100
AcDbLine
 10
-13.736984948648
 20
10.84777562889957
 30
0.0
 11
-12.23700474383384
 21
3.768027423663
 31
0.0
  0
LINE
  5
1A9
330
1F
100
AcDbEntity
  8
仕上
  6
JWW_DASHED1
 62
     6
370
     9
100
AcDbLine
 10
54.76306783851419
 20
4.277753458291443
 30
0.0
 11
53.763015051352
 21
3.412505886500924
 31
0.0
  0
LINE
  5
1AA
330
1F
100
AcDbEntity
  8
仕上
  6
JWW_DASHED1
 62
     6
370
     9
100
AcDbLine
 10
53.763015051352
 20
3.412505886500924
 30
0.0
 11
54.76306783851419
 21
-2.797045950492418
 31
0.0
  0
LINE
  5
1AB
330
1F
100
AcDbEntity
  8
仕上
  6
JWW_DASHED1
 62
     6
370
     9
100
AcDbLine
 10
-58.23695855506696
 20
11.49963109764957
 30
0.0
 11
-56.73697835025268
 21
4.523015810487379
 31
0.0
  0
LINE
  5
1AC
330
1F
100
AcDbEntity
  8
仕上
  6
JWW_DASHED1
 62
     6
370
     9
100
AcDbLine
 10
-156.5730082277865
 20
-8.397499920087
 30
0.0
 11
-164.053905873479
 21
-8.397499920087
 31
0.0
  0
LINE
  5
1AD
330
1F
100
AcDbEntity
  8
仕上
  6
JWW_DASHED1
 62
     6
370
     9
100
AcDbLine
 10
-34.23697835025268
 20
11.49963109764957
 30
0.0
 11
-35.73695855506696
 21
4.523015810487379
 31
0.0
  0
LINE
  5
1AE
330
1F
100
AcDbEntity
  8
仕上
  6
JWW_DASHED1
 62
     6
370
     9
100
AcDbLine
 10
-1.237017940624355
 20
10.154746173663
 30
0.0
 11
-0.2369651534621653
 21
9.087389754744152
 31
0.0
  0
LINE
  5
1AF
330
1F
100
AcDbEntity
  8
仕上
  6
JWW_DASHED1
 62
     6
370
     9
100
AcDbLine
 10
-0.2369651534621653
 20
9.087389754744152
 30
0.0
 11
-1.237017940624355
 21
3.139926177886025
 31
0.0
  0
LINE
  5
1B0
330
1F
100
AcDbEntity
  8
仕上
  6
JWW_DASHED1
 62
     6
370
     9
100
AcDbLine
 10
-91.23701794062436
 20
10.154746173663
 30
0.0
 11
-92.23697175185748
 21
9.087389754744152
 31
0.0
  0
LINE
  5
1B1
330
1F
100
AcDbEntity
  8
仕上
  6
JWW_DASHED1
 62
     6
370
     9
100
AcDbLine
 10
-92.23697175185748
 20
9.087389754744152
 30
0.0
 11
-91.23701794062436
 21
3.139926177886025
 31
0.0
  0
LINE
  5
1B2
330
1F
100
AcDbEntity
  8
仕上
  6
Continuous
 62
     6
370
     9
100
AcDbLine
 10
-71.02098647947571
 20
324.0026663594738
 30
0.0
 11
-21.45285144991487
 21
324.0026663594738
 31
0.0
  0
LINE
  5
1B3
330
1F
100
AcDbEntity
  8
仕上
  6
Continuous
 62
     6
370
     9
100
AcDbLine
 10
78.48007586216283
 20
339.8063509033928
 30
0.0
 11
70.03356905261887
 21
337.3262120731563
 31
0.0
  0
LINE
  5
1B4
330
1F
100
AcDbEntity
  8
仕上
  6
Continuous
 62
     6
370
     9
100
AcDbLine
 10
65.313308020102
 20
373.7764733696091
 30
0.0
 11
57.90763208049054
 21
369.0171168451157
 31
0.0
  0
LINE
  5
1B5
330
1F
100
AcDbEntity
  8
仕上
  6
Continuous
 62
     6
370
     9
100
AcDbLine
 10
74.2541006193419
 20
354.19873767493
 30
0.0
 11
65.807692785727
 21
351.7185988446934
 31
0.0
  0
LINE
  5
1B6
330
1F
100
AcDbEntity
  8
仕上
  6
Continuous
 62
     6
370
     9
100
AcDbLine
 10
43.10934502390262
 20
402.6610146491698
 30
0.0
 11
37.34449203614929
 21
396.0080506500144
 31
0.0
  0
LINE
  5
1B7
330
1F
100
AcDbEntity
  8
仕上
  6
Continuous
 62
     6
370
     9
100
AcDbLine
 10
57.20371527305804
 20
386.3953104684265
 30
0.0
 11
49.79803933344658
 21
381.6359539439333
 31
0.0
  0
LINE
  5
1B8
330
1F
100
AcDbEntity
  8
仕上
  6
Continuous
 62
     6
370
     9
100
AcDbLine
 10
13.66697540819325
 20
424.1199858273793
 30
0.0
 11
10.01011175743304
 21
416.1124372631901
 31
0.0
  0
LINE
  5
1B9
330
1F
100
AcDbEntity
  8
仕上
  6
Continuous
 62
     6
370
     9
100
AcDbLine
 10
31.77303801376752
 20
412.4839797040684
 30
0.0
 11
26.00828400194325
 21
405.8310157049131
 31
0.0
  0
LINE
  5
1BA
330
1F
100
AcDbEntity
  8
仕上
  6
Continuous
 62
     6
370
     9
100
AcDbLine
 10
-20.62828298496561
 20
436.4147757344738
 30
0.0
 11
-21.88112029493175
 21
427.7013308442711
 31
0.0
  0
LINE
  5
1BB
330
1F
100
AcDbEntity
  8
仕上
  6
Continuous
 62
     6
370
     9
100
AcDbLine
 10
0.0225497325175184
 20
430.3512133928354
 30
0.0
 11
-3.634412894171646
 21
422.3435658527171
 31
0.0
  0
LINE
  5
1BC
330
1F
100
AcDbEntity
  8
仕上
  6
Continuous
 62
     6
370
     9
100
AcDbLine
 10
-56.99827480295539
 20
438.5494885723118
 30
0.0
 11
-55.74553646891832
 21
429.8360436821091
 31
0.0
  0
LINE
  5
1BD
330
1F
100
AcDbEntity
  8
仕上
  6
Continuous
 62
     6
370
     9
100
AcDbLine
 10
-35.47556312643519
 20
438.5495875482407
 30
0.0
 11
-36.72840043640133
 21
429.8360436821091
 31
0.0
  0
LINE
  5
1BE
330
1F
100
AcDbEntity
  8
仕上
  6
Continuous
 62
     6
370
     9
100
AcDbLine
 10
-92.49648663783717
 20
430.3512133928354
 30
0.0
 11
-88.83962298707706
 21
422.3435658527171
 31
0.0
  0
LINE
  5
1BF
330
1F
100
AcDbEntity
  8
仕上
  6
Continuous
 62
     6
370
     9
100
AcDbLine
 10
-71.84565392035404
 20
436.4147757344738
 30
0.0
 11
-70.5928166103879
 21
427.7013308442711
 31
0.0
  0
LINE
  5
1C0
330
1F
100
AcDbEntity
  8
仕上
  6
Continuous
 62
     6
370
     9
100
AcDbLine
 10
-124.2470738950162
 20
412.4839797040684
 30
0.0
 11
-118.4822209072629
 21
405.8310157049131
 31
0.0
  0
LINE
  5
1C1
330
1F
100
AcDbEntity
  8
仕上
  6
Continuous
 62
     6
370
     9
100
AcDbLine
 10
-106.141011289442
 20
424.1199858273793
 30
0.0
 11
-102.4840486627527
 21
416.1124372631901
 31
0.0
  0
LINE
  5
1C2
330
1F
100
AcDbEntity
  8
仕上
  6
Continuous
 62
     6
370
     9
100
AcDbLine
 10
-149.6775532024487
 20
386.3953104684265
 30
0.0
 11
-142.2719762387662
 21
381.6359539439333
 31
0.0
  0
LINE
  5
1C3
330
1F
100
AcDbEntity
  8
仕上
  6
Continuous
 62
     6
370
     9
100
AcDbLine
 10
-135.5831829532933
 20
402.6610146491698
 30
0.0
 11
-129.8184289414689
 21
396.0080506500144
 31
0.0
  0
LINE
  5
1C4
330
1F
100
AcDbEntity
  8
仕上
  6
Continuous
 62
     6
370
     9
100
AcDbLine
 10
81.54308393859867
 20
320.5027785321934
 30
0.0
 11
72.57180675321013
 21
320.5027785321934
 31
0.0
  0
LINE
  5
1C5
330
1F
100
AcDbEntity
  8
仕上
  6
Continuous
 62
     6
370
     9
100
AcDbLine
 10
84.51711265481481
 20
-52.21176829001939
 30
0.0
 11
85.76302164974732
 21
-46.39752631366804
 31
0.0
  0
LINE
  5
1C6
330
1F
100
AcDbEntity
  8
仕上
  6
JWW_DASHED1
 62
     6
370
     9
100
AcDbLine
 10
64.0990713224669
 20
-8.397499920087
 30
0.0
 11
71.57996896815939
 21
-8.397499920087
 31
0.0
  0
LINE
  5
1C7
330
1F
100
AcDbEntity
  8
仕上
  6
Continuous
 62
     6
370
     9
100
AcDbLine
 10
-91.20178250988113
 20
319.8296432386969
 30
0.0
 11
-139.8341991061649
 21
335.6312492881056
 31
0.0
  0
LINE
  5
1C8
330
1F
100
AcDbEntity
  8
仕上
  6
Continuous
 62
     6
370
     9
100
AcDbLine
 10
-92.0454533291379
 20
314.5027587370077
 30
0.0
 11
-143.0189475753372
 21
314.5027587370077
 31
0.0
  0
LINE
  5
1C9
330
1F
100
AcDbEntity
  8
仕上
  6
Continuous
 62
     6
370
     9
100
AcDbLine
 10
-92.0454533291379
 20
313.5027059498455
 30
0.0
 11
-143.0189475753372
 21
313.5027059498455
 31
0.0
  0
LINE
  5
1CA
330
1F
100
AcDbEntity
  8
仕上
  6
Continuous
 62
     6
370
     9
100
AcDbLine
 10
-91.1084482087831
 20
321.9021991930887
 30
0.0
 11
-139.363667539442
 21
337.5812730423286
 31
0.0
  0
LINE
  5
1CB
330
1F
100
AcDbEntity
  8
仕上
  6
Continuous
 62
     6
370
     9
100
AcDbLine
 10
-90.79944535827644
 20
322.8533578712982
 30
0.0
 11
-139.0546646889352
 21
338.5323327446091
 31
0.0
  0
LINE
  5
1CC
330
1F
100
AcDbEntity
  8
仕上
  6
Continuous
 62
     6
370
     9
100
AcDbLine
 10
-86.27337509856352
 20
333.2925470604874
 30
0.0
 11
-127.6425421171447
 21
363.3489633400482
 31
0.0
  0
LINE
  5
1CD
330
1F
100
AcDbEntity
  8
仕上
  6
Continuous
 62
     6
370
     9
100
AcDbLine
 10
-88.72184163150268
 20
328.487067753055
 30
0.0
 11
-137.2005486099656
 21
344.2386909582914
 31
0.0
  0
LINE
  5
1CE
330
1F
100
AcDbEntity
  8
仕上
  6
Continuous
 62
     6
370
     9
100
AcDbLine
 10
-89.03084448200946
 20
327.5360080507746
 30
0.0
 11
-137.5095514604724
 21
343.287631256011
 31
0.0
  0
LINE
  5
1CF
330
1F
100
AcDbEntity
  8
仕上
  6
Continuous
 62
     6
370
     9
100
AcDbLine
 10
-85.54412045329332
 20
335.2348506922442
 30
0.0
 11
-126.5925064858102
 21
365.0581786588827
 31
0.0
  0
LINE
  5
1D0
330
1F
100
AcDbEntity
  8
仕上
  6
Continuous
 62
     6
370
     9
100
AcDbLine
 10
-84.95640138657029
 20
336.043879936332
 30
0.0
 11
-126.0046884431581
 21
365.8671089270414
 31
0.0
  0
LINE
  5
1D1
330
1F
100
AcDbEntity
  8
仕上
  6
Continuous
 62
     6
370
     9
100
AcDbLine
 10
-77.42591680042165
 20
344.5734275503523
 30
0.0
 11
-107.4824320559115
 21
385.9425945689333
 31
0.0
  0
LINE
  5
1D2
330
1F
100
AcDbEntity
  8
仕上
  6
Continuous
 62
     6
370
     9
100
AcDbLine
 10
-81.23955832280342
 20
340.7598850038996
 30
0.0
 11
-122.477978139104
 21
370.7212843915684
 31
0.0
  0
LINE
  5
1D3
330
1F
100
AcDbEntity
  8
仕上
  6
Continuous
 62
     6
370
     9
100
AcDbLine
 10
-81.8273763654554
 20
339.9508557598118
 30
0.0
 11
-123.0657961817561
 21
369.9122551474806
 31
0.0
  0
LINE
  5
1D4
330
1F
100
AcDbEntity
  8
仕上
  6
Continuous
 62
     6
370
     9
100
AcDbLine
 10
-76.13210345582706
 20
346.1954450756901
 30
0.0
 11
-105.9555303983947
 21
387.2437321322779
 31
0.0
  0
LINE
  5
1D5
330
1F
100
AcDbEntity
  8
仕上
  6
Continuous
 62
     6
370
     9
100
AcDbLine
 10
-75.32317318766832
 20
346.783164142413
 30
0.0
 11
-105.1466001302358
 21
387.8314511990009
 31
0.0
  0
LINE
  5
1D6
330
1F
100
AcDbEntity
  8
仕上
  6
Continuous
 62
     6
370
     9
100
AcDbLine
 10
-65.52554597060748
 20
352.5683071956225
 30
0.0
 11
-81.32715202001623
 21
401.2007237919063
 31
0.0
  0
LINE
  5
1D7
330
1F
100
AcDbEntity
  8
仕上
  6
Continuous
 62
     6
370
     9
100
AcDbLine
 10
-70.33092630211081
 20
350.1198406626833
 30
0.0
 11
-100.2924246657088
 21
391.3582604789841
 31
0.0
  0
LINE
  5
1D8
330
1F
100
AcDbEntity
  8
仕上
  6
Continuous
 62
     6
370
     9
100
AcDbLine
 10
-71.13995554619873
 20
349.5320226200313
 30
0.0
 11
-101.1014539097966
 21
390.770442436332
 31
0.0
  0
LINE
  5
1D9
330
1F
100
AcDbEntity
  8
仕上
  6
Continuous
 62
     6
370
     9
100
AcDbLine
 10
-63.79396209180675
 20
353.7110832724806
 30
0.0
 11
-79.47293696511758
 21
401.9662036272104
 31
0.0
  0
LINE
  5
1DA
330
1F
100
AcDbEntity
  8
仕上
  6
Continuous
 62
     6
370
     9
100
AcDbLine
 10
-62.84280341359738
 20
354.0200861229874
 30
0.0
 11
-78.52197623876623
 21
402.2753054536461
 31
0.0
  0
LINE
  5
1DB
330
1F
100
AcDbEntity
  8
仕上
  6
Continuous
 62
     6
370
     9
100
AcDbLine
 10
-51.73691236630009
 20
356.4944843493387
 30
0.0
 11
-51.73691236630009
 21
407.6296062876833
 31
0.0
  0
LINE
  5
1DC
330
1F
100
AcDbEntity
  8
仕上
  6
Continuous
 62
     6
370
     9
100
AcDbLine
 10
-57.06389584391832
 20
355.650813530082
 30
0.0
 11
-72.81551904915477
 21
404.1294215326157
 31
0.0
  0
LINE
  5
1DD
330
1F
100
AcDbEntity
  8
仕上
  6
Continuous
 62
     6
370
     9
100
AcDbLine
 10
-58.01495554619873
 20
355.3417117036461
 30
0.0
 11
-73.76657875143519
 21
403.8204186821091
 31
0.0
  0
LINE
  5
1DE
330
1F
100
AcDbEntity
  8
仕上
  6
Continuous
 62
     6
370
     9
100
AcDbLine
 10
-49.73700474383384
 20
357.046176177886
 30
0.0
 11
-49.73700474383384
 21
407.784602592582
 31
0.0
  0
LINE
  5
1DF
330
1F
100
AcDbEntity
  8
仕上
  6
Continuous
 62
     6
370
     9
100
AcDbLine
 10
-48.73695195667165
 20
357.046176177886
 30
0.0
 11
-48.73695195667165
 21
407.784602592582
 31
0.0
  0
LINE
  5
1E0
330
1F
100
AcDbEntity
  8
仕上
  6
Continuous
 62
     6
370
     9
100
AcDbLine
 10
-37.41014663572571
 20
355.967536503055
 30
0.0
 11
-21.6084416103879
 21
404.5999530993387
 31
0.0
  0
LINE
  5
1E1
330
1F
100
AcDbEntity
  8
仕上
  6
Continuous
 62
     6
370
     9
100
AcDbLine
 10
-42.73693216148581
 20
356.8112073223118
 30
0.0
 11
-42.73693216148581
 21
407.784602592582
 31
0.0
  0
LINE
  5
1E2
330
1F
100
AcDbEntity
  8
仕上
  6
Continuous
 62
     6
370
     9
100
AcDbLine
 10
-43.736984948648
 20
356.8112073223118
 30
0.0
 11
-43.736984948648
 21
407.784602592582
 31
0.0
  0
LINE
  5
1E3
330
1F
100
AcDbEntity
  8
仕上
  6
Continuous
 62
     6
370
     9
100
AcDbLine
 10
-35.33749170540477
 20
355.874202201957
 30
0.0
 11
-19.65841785616487
 21
404.1294215326157
 31
0.0
  0
LINE
  5
1E4
330
1F
100
AcDbEntity
  8
仕上
  6
Continuous
 62
     6
370
     9
100
AcDbLine
 10
-34.38643200312436
 20
355.5651993514502
 30
0.0
 11
-18.70735815388446
 21
403.8204186821091
 31
0.0
  0
LINE
  5
1E5
330
1F
100
AcDbEntity
  8
仕上
  6
Continuous
 62
     6
370
     9
100
AcDbLine
 10
-23.94724281393519
 20
351.0391290917374
 30
0.0
 11
6.109272441554708
 21
392.4082961103184
 31
0.0
  0
LINE
  5
1E6
330
1F
100
AcDbEntity
  8
仕上
  6
Continuous
 62
     6
370
     9
100
AcDbLine
 10
-28.75272212136758
 20
353.4875956246765
 30
0.0
 11
-13.00099994020206
 21
401.9662036272104
 31
0.0
  0
LINE
  5
1E7
330
1F
100
AcDbEntity
  8
仕上
  6
Continuous
 62
     6
370
     9
100
AcDbLine
 10
-29.70368284771894
 20
353.7965984751833
 30
0.0
 11
-13.95205964248248
 21
402.2753054536461
 31
0.0
  0
LINE
  5
1E8
330
1F
100
AcDbEntity
  8
仕上
  6
Continuous
 62
     6
370
     9
100
AcDbLine
 10
-22.00484020624936
 20
350.3098744464671
 30
0.0
 11
7.818487760389189
 21
391.3582604789841
 31
0.0
  0
LINE
  5
1E9
330
1F
100
AcDbEntity
  8
仕上
  6
Continuous
 62
     6
370
     9
100
AcDbLine
 10
-21.19590993809061
 20
349.7221553797442
 30
0.0
 11
8.627517004477
 21
390.770442436332
 31
0.0
  0
LINE
  5
1EA
330
1F
100
AcDbEntity
  8
仕上
  6
Continuous
 62
     6
370
     9
100
AcDbLine
 10
-12.66616437221217
 20
342.1916707935955
 30
0.0
 11
28.70300264636887
 21
372.2480870731563
 31
0.0
  0
LINE
  5
1EB
330
1F
100
AcDbEntity
  8
仕上
  6
Continuous
 62
     6
370
     9
100
AcDbLine
 10
-16.479904870523
 20
346.0053123159773
 30
0.0
 11
13.48159349307502
 21
387.2437321322779
 31
0.0
  0
LINE
  5
1EC
330
1F
100
AcDbEntity
  8
仕上
  6
Continuous
 62
     6
370
     9
100
AcDbLine
 10
-17.28883513868175
 20
346.5931303586293
 30
0.0
 11
12.6725642489871
 21
387.8314511990009
 31
0.0
  0
LINE
  5
1ED
330
1F
100
AcDbEntity
  8
仕上
  6
Continuous
 62
     6
370
     9
100
AcDbLine
 10
-11.04424582280342
 20
340.89795642493
 30
0.0
 11
30.00404123378439
 21
370.7212843915684
 31
0.0
  0
LINE
  5
1EE
330
1F
100
AcDbEntity
  8
仕上
  6
Continuous
 62
     6
370
     9
100
AcDbLine
 10
-10.45652675608039
 20
340.0889271808421
 30
0.0
 11
30.59176030050742
 21
369.9122551474806
 31
0.0
  0
LINE
  5
1EF
330
1F
100
AcDbEntity
  8
仕上
  6
Continuous
 62
     6
370
     9
100
AcDbLine
 10
-4.671383702871026
 20
330.2912999637813
 30
0.0
 11
43.96103289341283
 21
346.0929060131901
 31
0.0
  0
LINE
  5
1F0
330
1F
100
AcDbEntity
  8
仕上
  6
Continuous
 62
     6
370
     9
100
AcDbLine
 10
-7.11985023581019
 20
335.0966802952847
 30
0.0
 11
34.11856958049054
 21
365.0581786588827
 31
0.0
  0
LINE
  5
1F1
330
1F
100
AcDbEntity
  8
仕上
  6
Continuous
 62
     6
370
     9
100
AcDbLine
 10
-7.707668278462165
 20
335.9057095393725
 30
0.0
 11
33.53085051376752
 21
365.8672079029705
 31
0.0
  0
LINE
  5
1F2
330
1F
100
AcDbEntity
  8
仕上
  6
Continuous
 62
     6
370
     9
100
AcDbLine
 10
-3.528607626012899
 20
328.5596171090515
 30
0.0
 11
44.72661170464596
 21
344.2386909582914
 31
0.0
  0
LINE
  5
1F3
330
1F
100
AcDbEntity
  8
仕上
  6
Continuous
 62
     6
370
     9
100
AcDbLine
 10
-3.219604775506127
 20
327.6085574067711
 30
0.0
 11
45.03561455515262
 21
343.287631256011
 31
0.0
  0
LINE
  5
1F4
330
1F
100
AcDbEntity
  8
仕上
  6
Continuous
 62
     6
370
     9
100
AcDbLine
 10
-0.7452065491547728
 20
316.5027653354029
 30
0.0
 11
50.38991538918981
 21
316.5027653354029
 31
0.0
  0
LINE
  5
1F5
330
1F
100
AcDbEntity
  8
仕上
  6
Continuous
 62
     6
370
     9
100
AcDbLine
 10
-1.588976344340608
 20
321.8296498370921
 30
0.0
 11
46.88973063412232
 21
337.5812730423286
 31
0.0
  0
LINE
  5
1F6
330
1F
100
AcDbEntity
  8
仕上
  6
Continuous
 62
     6
370
     9
100
AcDbLine
 10
-1.89797919484738
 20
322.7807095393725
 30
0.0
 11
46.58072778361554
 21
338.5323327446091
 31
0.0
  0
LINE
  5
1F7
330
1F
100
AcDbEntity
  8
仕上
  6
Continuous
 62
     6
370
     9
100
AcDbLine
 10
-0.1935147206074816
 20
314.5027587370077
 30
0.0
 11
50.54501067001752
 21
314.5027587370077
 31
0.0
  0
LINE
  5
1F8
330
1F
100
AcDbEntity
  8
仕上
  6
Continuous
 62
     6
370
     9
100
AcDbLine
 10
-0.1936136965365449
 20
313.5027059498455
 30
0.0
 11
50.54501067001752
 21
313.5027059498455
 31
0.0
  0
LINE
  5
1F9
330
1F
100
AcDbEntity
  8
仕上
  6
Continuous
 62
     6
370
     9
100
AcDbLine
 10
-170.9541117434115
 20
339.8063509033928
 30
0.0
 11
-162.5076049338676
 21
337.3262120731563
 31
0.0
  0
LINE
  5
1FA
330
1F
100
AcDbEntity
  8
仕上
  6
Continuous
 62
     6
370
     9
100
AcDbLine
 10
-157.7873439013507
 20
373.7764733696091
 30
0.0
 11
-150.3816679617393
 21
369.0171168451157
 31
0.0
  0
LINE
  5
1FB
330
1F
100
AcDbEntity
  8
仕上
  6
Continuous
 62
     6
370
     9
100
AcDbLine
 10
-166.7281365005906
 20
354.19873767493
 30
0.0
 11
-158.2817286669757
 21
351.7185988446934
 31
0.0
  0
LINE
  5
1FC
330
1F
100
AcDbEntity
  8
仕上
  6
Continuous
 62
     6
370
     9
100
AcDbLine
 10
-174.0171198198474
 20
320.5027785321934
 30
0.0
 11
-165.0458426344588
 21
320.5027785321934
 31
0.0
  0
LINE
  5
1FD
330
1F
100
AcDbEntity
  8
仕上
  6
Continuous
 62
     6
370
     9
100
AcDbLine
 10
95.15603526883513
 20
315.0027851305887
 30
0.0
 11
93.26282369788919
 21
315.0027851305887
 31
0.0
  0
LINE
  5
1FE
330
1F
100
AcDbEntity
  8
仕上
  6
Continuous
 62
     6
370
     9
100
AcDbLine
 10
-187.6300711500838
 20
315.0027851305887
 30
0.0
 11
-185.7369090671024
 21
315.0027851305887
 31
0.0
  0
LINE
  5
1FF
330
1F
100
AcDbEntity
  8
仕上
  6
Continuous
 62
     6
370
     9
100
AcDbLine
 10
94.05047414130138
 20
-53.39749992008694
 30
0.0
 11
93.26302164974732
 21
-53.39749992008694
 31
0.0
  0
LINE
  5
200
330
1F
100
AcDbEntity
  8
躯体
  6
Continuous
 62
     2
370
     9
100
AcDbLine
 10
99.52532765692638
 20
-45.89740094415794
 30
0.0
 11
101.7843542616561
 21
-45.89740094415794
 31
0.0
  0
LINE
  5
201
330
1F
100
AcDbEntity
  8
躯体
  6
Continuous
 62
     2
370
     9
100
AcDbLine
 10
-194.2583901429048
 20
-45.89740094415794
 30
0.0
 11
-191.9994625141042
 21
-45.89740094415794
 31
0.0
  0
LINE
  5
202
330
1F
100
AcDbEntity
  8
その他
  6
Continuous
 62
     7
370
     9
100
AcDbLine
 10
-1.237017940624355
 20
11.60266503979477
 30
0.0
 11
174.9629992152034
 21
11.60266503979477
 31
0.0
  0
LINE
  5
203
330
1F
100
AcDbEntity
  8
その他
  6
Continuous
 62
     7
370
     9
100
AcDbLine
 10
-91.23701794062436
 20
11.60266503979477
 30
0.0
 11
-267.4369856084876
 21
11.60266503979477
 31
0.0
  0
LINE
  5
204
330
1F
100
AcDbEntity
  8
その他
  6
Continuous
 62
     7
370
     9
100
AcDbLine
 10
-226.2370179406244
 20
-51.25378027270523
 30
0.0
 11
-226.2370179406244
 21
116.8026459044485
 31
0.0
  0
LINE
  5
205
330
1F
100
AcDbEntity
  8
仕上
  6
Continuous
 62
     6
370
     9
100
AcDbLine
 10
87.26300185456148
 20
-53.39749992008694
 30
0.0
 11
-147.2370542317983
 21
-53.39749992008694
 31
0.0
  0
LINE
  5
206
330
1F
100
AcDbEntity
  8
仕上
  6
Continuous
 62
     6
370
     9
100
AcDbLine
 10
-157.2370377358102
 20
-53.39749992008694
 30
0.0
 11
-186.524411046621
 21
-53.39749992008694
 31
0.0
  0
LINE
  5
207
330
1F
100
AcDbEntity
  8
通り芯
  6
JWW_CENTER1
 62
     3
370
     9
100
AcDbLine
 10
-46.23701794062436
 20
19.08851148194009
 30
0.0
 11
-46.23701794062436
 21
-147.0573328487187
 31
0.0
  0
ARC
  5
208
330
1F
100
AcDbEntity
  8
躯体
  6
Continuous
 62
     2
370
     9
100
AcDbCircle
 10
-46.23701794062436
 20
311.0026729578692
 30
0.0
 40
144.9999835040118
100
AcDbArc
 50
13.81929016113281
 51
31.18070983886718
  0
ARC
  5
209
330
1F
100
AcDbEntity
  8
躯体
  6
Continuous
 62
     2
370
     9
100
AcDbCircle
 10
-46.23701794062436
 20
311.0026729578692
 30
0.0
 40
148.9999843288113
100
AcDbArc
 50
13.75027465820312
 51
31.24972534179688
  0
ARC
  5
20A
330
1F
100
AcDbEntity
  8
躯体
  6
Continuous
 62
     2
370
     9
100
AcDbCircle
 10
-46.23701794062436
 20
311.0026729578692
 30
0.0
 40
149.9999876280089
100
AcDbArc
 50
13.16020202636719
 51
31.83979797363282
  0
ARC
  5
20B
330
1F
100
AcDbEntity
  8
躯体
  6
Continuous
 62
     2
370
     9
100
AcDbCircle
 10
-46.23701794062436
 20
311.0026729578692
 30
0.0
 40
143.4999909272065
100
AcDbArc
 50
13.24676513671875
 51
31.75323486328125
  0
ARC
  5
20C
330
1F
100
AcDbEntity
  8
躯体
  6
Continuous
 62
     2
370
     9
100
AcDbCircle
 10
-46.23701794062436
 20
311.0026729578692
 30
0.0
 40
144.9999835040118
100
AcDbArc
 50
36.31929016113281
 51
53.68070983886719
  0
ARC
  5
20D
330
1F
100
AcDbEntity
  8
躯体
  6
Continuous
 62
     2
370
     9
100
AcDbCircle
 10
-46.23701794062436
 20
311.0026729578692
 30
0.0
 40
148.9999843288113
100
AcDbArc
 50
36.25027465820312
 51
53.74972534179688
  0
ARC
  5
20E
330
1F
100
AcDbEntity
  8
躯体
  6
Continuous
 62
     2
370
     9
100
AcDbCircle
 10
-46.23701794062436
 20
311.0026729578692
 30
0.0
 40
149.9999876280089
100
AcDbArc
 50
35.66020202636719
 51
54.33979797363281
  0
ARC
  5
20F
330
1F
100
AcDbEntity
  8
躯体
  6
Continuous
 62
     2
370
     9
100
AcDbCircle
 10
-46.23701794062436
 20
311.0026729578692
 30
0.0
 40
143.4999909272065
100
AcDbArc
 50
35.74676513671875
 51
54.25323486328125
  0
ARC
  5
210
330
1F
100
AcDbEntity
  8
躯体
  6
Continuous
 62
     2
370
     9
100
AcDbCircle
 10
-46.23701794062436
 20
311.0026729578692
 30
0.0
 40
144.9999835040118
100
AcDbArc
 50
58.81929016113281
 51
76.18070983886719
  0
ARC
  5
211
330
1F
100
AcDbEntity
  8
躯体
  6
Continuous
 62
     2
370
     9
100
AcDbCircle
 10
-46.23701794062436
 20
311.0026729578692
 30
0.0
 40
148.9999843288113
100
AcDbArc
 50
58.75027465820312
 51
76.24972534179688
  0
ARC
  5
212
330
1F
100
AcDbEntity
  8
躯体
  6
Continuous
 62
     2
370
     9
100
AcDbCircle
 10
-46.23701794062436
 20
311.0026729578692
 30
0.0
 40
149.9999876280089
100
AcDbArc
 50
58.16020202636719
 51
76.83979797363281
  0
ARC
  5
213
330
1F
100
AcDbEntity
  8
躯体
  6
Continuous
 62
     2
370
     9
100
AcDbCircle
 10
-46.23701794062436
 20
311.0026729578692
 30
0.0
 40
143.4999909272065
100
AcDbArc
 50
58.24676513671875
 51
76.75323486328125
  0
ARC
  5
214
330
1F
100
AcDbEntity
  8
躯体
  6
Continuous
 62
     2
370
     9
100
AcDbCircle
 10
-46.23701794062436
 20
311.0026729578692
 30
0.0
 40
144.9999835040118
100
AcDbArc
 50
81.31929016113281
 51
98.6807098388672
  0
ARC
  5
215
330
1F
100
AcDbEntity
  8
躯体
  6
Continuous
 62
     2
370
     9
100
AcDbCircle
 10
-46.23701794062436
 20
311.0026729578692
 30
0.0
 40
148.9999843288113
100
AcDbArc
 50
81.25027465820312
 51
98.74972534179689
  0
ARC
  5
216
330
1F
100
AcDbEntity
  8
躯体
  6
Continuous
 62
     2
370
     9
100
AcDbCircle
 10
-46.23701794062436
 20
311.0026729578692
 30
0.0
 40
149.9999876280089
100
AcDbArc
 50
80.66020202636719
 51
99.33979797363283
  0
ARC
  5
217
330
1F
100
AcDbEntity
  8
躯体
  6
Continuous
 62
     2
370
     9
100
AcDbCircle
 10
-46.23701794062436
 20
311.0026729578692
 30
0.0
 40
144.9999835040118
100
AcDbArc
 50
103.8192901611328
 51
121.1807098388672
  0
ARC
  5
218
330
1F
100
AcDbEntity
  8
躯体
  6
Continuous
 62
     2
370
     9
100
AcDbCircle
 10
-46.23701794062436
 20
311.0026729578692
 30
0.0
 40
148.9999843288113
100
AcDbArc
 50
103.7502746582031
 51
121.2497253417969
  0
ARC
  5
219
330
1F
100
AcDbEntity
  8
躯体
  6
Continuous
 62
     2
370
     9
100
AcDbCircle
 10
-46.23701794062436
 20
311.0026729578692
 30
0.0
 40
149.9999876280089
100
AcDbArc
 50
103.1602020263672
 51
121.8397979736328
  0
ARC
  5
21A
330
1F
100
AcDbEntity
  8
躯体
  6
Continuous
 62
     2
370
     9
100
AcDbCircle
 10
-46.23701794062436
 20
311.0026729578692
 30
0.0
 40
143.4999909272065
100
AcDbArc
 50
103.2467651367188
 51
121.7532348632813
  0
ARC
  5
21B
330
1F
100
AcDbEntity
  8
躯体
  6
Continuous
 62
     2
370
     9
100
AcDbCircle
 10
-46.23701794062436
 20
311.0026729578692
 30
0.0
 40
144.9999835040118
100
AcDbArc
 50
126.3192901611328
 51
143.6807098388672
  0
ARC
  5
21C
330
1F
100
AcDbEntity
  8
躯体
  6
Continuous
 62
     2
370
     9
100
AcDbCircle
 10
-46.23701794062436
 20
311.0026729578692
 30
0.0
 40
148.9999843288113
100
AcDbArc
 50
126.2502746582032
 51
143.7497253417969
  0
ARC
  5
21D
330
1F
100
AcDbEntity
  8
躯体
  6
Continuous
 62
     2
370
     9
100
AcDbCircle
 10
-46.23701794062436
 20
311.0026729578692
 30
0.0
 40
149.9999876280089
100
AcDbArc
 50
125.6602020263672
 51
144.3397979736328
  0
ARC
  5
21E
330
1F
100
AcDbEntity
  8
躯体
  6
Continuous
 62
     2
370
     9
100
AcDbCircle
 10
-46.23701794062436
 20
311.0026729578692
 30
0.0
 40
143.4999909272065
100
AcDbArc
 50
125.7467651367188
 51
144.2532348632813
  0
ARC
  5
21F
330
1F
100
AcDbEntity
  8
躯体
  6
Continuous
 62
     2
370
     9
100
AcDbCircle
 10
-46.23701794062436
 20
311.0026729578692
 30
0.0
 40
144.9999835040118
100
AcDbArc
 50
148.8192901611328
 51
166.1807098388672
  0
ARC
  5
220
330
1F
100
AcDbEntity
  8
躯体
  6
Continuous
 62
     2
370
     9
100
AcDbCircle
 10
-46.23701794062436
 20
311.0026729578692
 30
0.0
 40
148.9999843288113
100
AcDbArc
 50
148.7502746582031
 51
166.2497253417969
  0
ARC
  5
221
330
1F
100
AcDbEntity
  8
躯体
  6
Continuous
 62
     2
370
     9
100
AcDbCircle
 10
-46.23701794062436
 20
311.0026729578692
 30
0.0
 40
149.9999876280089
100
AcDbArc
 50
148.1602020263672
 51
166.8397979736328
  0
ARC
  5
222
330
1F
100
AcDbEntity
  8
躯体
  6
Continuous
 62
     2
370
     9
100
AcDbCircle
 10
-46.23701794062436
 20
311.0026729578692
 30
0.0
 40
143.4999909272065
100
AcDbArc
 50
148.2467651367188
 51
166.7532348632813
  0
ARC
  5
223
330
1F
100
AcDbEntity
  8
躯体
  6
Continuous
 62
     2
370
     9
100
AcDbCircle
 10
-46.23701794062436
 20
311.0026729578692
 30
0.0
 40
143.4999909272065
100
AcDbArc
 50
4.490386962890625
 51
9.25323486328125
  0
ARC
  5
224
330
1F
100
AcDbEntity
  8
躯体
  6
Continuous
 62
     2
370
     9
100
AcDbCircle
 10
-46.23701794062436
 20
311.0026729578692
 30
0.0
 40
143.4999909272065
100
AcDbArc
 50
170.7467651367187
 51
175.5096130371093
  0
ARC
  5
225
330
1F
100
AcDbEntity
  8
躯体
  6
Continuous
 62
     2
370
     9
100
AcDbCircle
 10
-46.23701794062436
 20
311.0026729578692
 30
0.0
 40
143.4999909272065
100
AcDbArc
 50
80.74676513671875
 51
87.14422607421874
  0
ARC
  5
226
330
1F
100
AcDbEntity
  8
躯体
  6
Continuous
 62
     2
370
     9
100
AcDbCircle
 10
-46.23706742858883
 20
311.0026729578692
 30
0.0
 40
143.8229864996833
100
AcDbArc
 50
88.04168701171876
 51
91.95828247070314
  0
ARC
  5
227
330
1F
100
AcDbEntity
  8
躯体
  6
Continuous
 62
     2
370
     9
100
AcDbCircle
 10
-46.23701794062436
 20
311.0026729578692
 30
0.0
 40
143.4999909272065
100
AcDbArc
 50
92.85577392578126
 51
99.25323486328125
  0
ARC
  5
228
330
1F
100
AcDbEntity
  8
躯体
  6
Continuous
 62
     2
370
     9
100
AcDbCircle
 10
93.83163836216283
 20
322.0027587370077
 30
0.0
 40
4.000000051549963
100
AcDbArc
 50
312.5380249023438
 51
330.2130432128907
  0
ARC
  5
229
330
1F
100
AcDbEntity
  8
躯体
  6
Continuous
 62
     2
370
     9
100
AcDbCircle
 10
93.83163836216283
 20
322.0027587370077
 30
0.0
 40
3.000000038662472
100
AcDbArc
 50
330.5938415527344
 51
4.490402221679705
  0
ARC
  5
22A
330
1F
100
AcDbEntity
  8
躯体
  6
Continuous
 62
     2
370
     9
100
AcDbCircle
 10
-186.3057732193406
 20
322.0027587370077
 30
0.0
 40
3.000000038662472
100
AcDbArc
 50
175.5095977783203
 51
209.4060363769531
  0
ARC
  5
22B
330
1F
100
AcDbEntity
  8
躯体
  6
Continuous
 62
     2
370
     9
100
AcDbCircle
 10
-186.3057732193406
 20
322.0027587370077
 30
0.0
 40
4.000000051549963
100
AcDbArc
 50
209.7869567871093
 51
227.4621124267578
  0
ARC
  5
22C
330
1F
100
AcDbEntity
  8
躯体
  6
Continuous
 62
     2
370
     9
100
AcDbCircle
 10
-39.23704433420539
 20
451.3282707724806
 30
0.0
 40
4.000000051549963
100
AcDbArc
 50
121.4208221435547
 51
139.0964813232422
  0
ARC
  5
22D
330
1F
100
AcDbEntity
  8
躯体
  6
Continuous
 62
     2
370
     9
100
AcDbCircle
 10
-39.23704433420539
 20
451.3282707724806
 30
0.0
 40
3.000000038662472
100
AcDbArc
 50
87.14437866210939
 51
121.0404968261719
  0
ARC
  5
22E
330
1F
100
AcDbEntity
  8
躯体
  6
Continuous
 62
     2
370
     9
100
AcDbCircle
 10
-53.23704103500779
 20
451.3282707724806
 30
0.0
 40
4.000000051549963
100
AcDbArc
 50
40.90351867675781
 51
58.57917785644531
  0
ARC
  5
22F
330
1F
100
AcDbEntity
  8
躯体
  6
Continuous
 62
     2
370
     9
100
AcDbCircle
 10
-53.23704103500779
 20
451.3282707724806
 30
0.0
 40
3.000000038662472
100
AcDbArc
 50
58.95950317382813
 51
92.85562133789064
  0
ARC
  5
230
330
1F
100
AcDbEntity
  8
仕上
  6
Continuous
 62
     4
370
     9
100
AcDbCircle
 10
-181.7370443342054
 20
312.0027257450313
 30
0.0
 40
0.5000000064437454
100
AcDbArc
 50
180.0
 51
270.0
  0
ARC
  5
231
330
1F
100
AcDbEntity
  8
仕上
  6
Continuous
 62
     4
370
     9
100
AcDbCircle
 10
-183.7370509326007
 20
312.0027257450313
 30
0.0
 40
0.5000000064437454
100
AcDbArc
 50
270.0
 51
0.0
  0
ARC
  5
232
330
1F
100
AcDbEntity
  8
仕上
  6
Continuous
 62
     4
370
     9
100
AcDbCircle
 10
89.26300845295668
 20
312.0027257450313
 30
0.0
 40
0.5000000064437454
100
AcDbArc
 50
270.0
 51
0.0
  0
ARC
  5
233
330
1F
100
AcDbEntity
  8
仕上
  6
Continuous
 62
     4
370
     9
100
AcDbCircle
 10
91.263015051352
 20
312.0027257450313
 30
0.0
 40
0.5000000064437454
100
AcDbArc
 50
180.0
 51
270.0
  0
ARC
  5
234
330
1F
100
AcDbEntity
  8
躯体
  6
Continuous
 62
     2
370
     9
100
AcDbCircle
 10
-172.9780210286733
 20
-57.74165242219846
 30
0.0
 40
2.000000025774982
100
AcDbArc
 50
189.5514068603516
 51
255.0001525878906
  0
ARC
  5
235
330
1F
100
AcDbEntity
  8
躯体
  6
Continuous
 62
     2
370
     9
100
AcDbCircle
 10
80.50393565946013
 20
-57.74165242219846
 30
0.0
 40
2.000000025774982
100
AcDbArc
 50
284.9998474121094
 51
350.4485931396484
  0
ARC
  5
236
330
1F
100
AcDbEntity
  8
躯体
  6
Continuous
 62
     2
370
     9
100
AcDbCircle
 10
-176.1599486838676
 20
-53.89742733773897
 30
0.0
 40
0.5000000064437454
100
AcDbArc
 50
9.548660278320312
 51
90.0
  0
ARC
  5
237
330
1F
100
AcDbEntity
  8
躯体
  6
Continuous
 62
     2
370
     9
100
AcDbCircle
 10
-139.5076775162156
 20
-63.89746032971533
 30
0.0
 40
1.500000019331236
100
AcDbArc
 50
9.462326049804688
 51
90.0
  0
ARC
  5
238
330
1F
100
AcDbEntity
  8
躯体
  6
Continuous
 62
     2
370
     9
100
AcDbCircle
 10
-144.3898631686649
 20
-63.39743393613429
 30
0.0
 40
1.000000012887491
100
AcDbArc
 50
90.0
 51
170.5379180908203
  0
ARC
  5
239
330
1F
100
AcDbEntity
  8
躯体
  6
Continuous
 62
     2
370
     9
100
AcDbCircle
 10
-160.0841298230146
 20
-63.39743393613429
 30
0.0
 40
1.000000012887491
100
AcDbArc
 50
9.462203979492188
 51
90.0
  0
ARC
  5
23A
330
1F
100
AcDbEntity
  8
躯体
  6
Continuous
 62
     2
370
     9
100
AcDbCircle
 10
57.58279308133513
 20
-64.39738774736736
 30
0.0
 40
1.000000012887491
100
AcDbArc
 50
90.0
 51
168.6906280517578
  0
ARC
  5
23B
330
1F
100
AcDbEntity
  8
躯体
  6
Continuous
 62
     2
370
     9
100
AcDbCircle
 10
84.53166211638575
 20
-54.8973811489721
 30
0.0
 40
1.500000019331236
100
AcDbArc
 50
90.0
 51
170.4493103027344
  0
ARC
  5
23C
330
1F
100
AcDbEntity
  8
躯体
  6
Continuous
 62
     2
370
     9
100
AcDbCircle
 10
-215.3465974908778
 20
-51.89742073934372
 30
0.0
 40
0.5000000064437454
100
AcDbArc
 50
90.0
 51
165.9665069580078
  0
ARC
  5
23D
330
1F
100
AcDbEntity
  8
躯体
  6
Continuous
 62
     2
370
     9
100
AcDbCircle
 10
122.872561609629
 20
-51.89742073934372
 30
0.0
 40
0.5000000064437454
100
AcDbArc
 50
14.03349304199219
 51
90.0
  0
ARC
  5
23E
330
1F
100
AcDbEntity
  8
躯体
  6
Continuous
 62
     4
370
     9
100
AcDbCircle
 10
-159.583311622001
 20
-58.20891778326262
 30
0.0
 40
3.811438921335581
100
AcDbArc
 50
49.92564392089844
 51
130.0743560791016
  0
ARC
  5
23F
330
1F
100
AcDbEntity
  8
躯体
  6
Continuous
 62
     4
370
     9
100
AcDbCircle
 10
-152.2370707277865
 20
-68.21904632000252
 30
0.0
 40
13.82162351866026
100
AcDbArc
 50
69.26925659179688
 51
110.7307434082031
  0
ARC
  5
240
330
1F
100
AcDbEntity
  8
躯体
  6
Continuous
 62
     4
370
     9
100
AcDbCircle
 10
-144.8907803456075
 20
-58.20891778326262
 30
0.0
 40
3.811438921335581
100
AcDbArc
 50
49.92564392089844
 51
130.0743560791016
  0
ARC
  5
241
330
1F
100
AcDbEntity
  8
仕上
  6
Continuous
 62
     4
370
     9
100
AcDbCircle
 10
86.76297546098033
 20
-43.89739434576262
 30
0.0
 40
1.500000019331236
100
AcDbArc
 50
90.0
 51
180.0
  0
ARC
  5
242
330
1F
100
AcDbEntity
  8
仕上
  6
Continuous
 62
     4
370
     9
100
AcDbCircle
 10
93.76294906739929
 20
-43.89739434576262
 30
0.0
 40
1.500000019331236
100
AcDbArc
 50
0.0
 51
90.0
  0
ARC
  5
243
330
1F
100
AcDbEntity
  8
躯体
  6
Continuous
 62
     2
370
     9
100
AcDbCircle
 10
106.1971960585311
 20
-49.82189550708023
 30
0.0
 40
3.000000038662472
100
AcDbArc
 50
187.3901672363282
 51
284.9997406005859
  0
ARC
  5
244
330
1F
100
AcDbEntity
  8
躯体
  6
Continuous
 62
     2
370
     9
100
AcDbCircle
 10
96.25526193690939
 20
-51.89742073934372
 30
0.0
 40
1.500000019331236
100
AcDbArc
 50
270.0
 51
351.5511169433593
  0
ARC
  5
245
330
1F
100
AcDbEntity
  8
躯体
  6
JWW_DASHED1
 62
     2
370
     9
100
AcDbCircle
 10
94.58484518226419
 20
-52.93340178875252
 30
0.0
 40
3.000000038662472
100
AcDbArc
 50
285.0009002685546
 51
351.5465850830078
  0
ARC
  5
246
330
1F
100
AcDbEntity
  8
躯体
  6
Continuous
 62
     2
370
     9
100
AcDbCircle
 10
101.7843542616561
 20
-46.89745373132007
 30
0.0
 40
1.000000012887491
100
AcDbArc
 50
7.390167236328124
 51
90.0
  0
ARC
  5
247
330
1F
100
AcDbEntity
  8
躯体
  6
Continuous
 62
     2
370
     9
100
AcDbCircle
 10
99.52532765692638
 20
-46.89745373132007
 30
0.0
 40
1.000000012887491
100
AcDbArc
 50
90.0
 51
171.5495300292969
  0
ARC
  5
248
330
1F
100
AcDbEntity
  8
躯体
  6
Continuous
 62
     2
370
     9
100
AcDbCircle
 10
-198.6712319397798
 20
-49.82189550708023
 30
0.0
 40
3.000000038662472
100
AcDbArc
 50
255.000259399414
 51
352.6098327636718
  0
ARC
  5
249
330
1F
100
AcDbEntity
  8
躯体
  6
Continuous
 62
     2
370
     9
100
AcDbCircle
 10
-188.7292978181581
 20
-51.89742073934372
 30
0.0
 40
1.500000019331236
100
AcDbArc
 50
188.4488830566407
 51
270.0
  0
ARC
  5
24A
330
1F
100
AcDbEntity
  8
躯体
  6
Continuous
 62
     2
370
     9
100
AcDbCircle
 10
-194.2583901429048
 20
-46.89745373132007
 30
0.0
 40
1.000000012887491
100
AcDbArc
 50
90.0
 51
172.6098327636719
  0
ARC
  5
24B
330
1F
100
AcDbEntity
  8
躯体
  6
Continuous
 62
     2
370
     9
100
AcDbCircle
 10
-191.9994625141042
 20
-46.89745373132007
 30
0.0
 40
1.000000012887491
100
AcDbArc
 50
8.450469970703125
 51
90.0
  0
ARC
  5
24C
330
1F
100
AcDbEntity
  8
躯体
  6
JWW_DASHED1
 62
     2
370
     9
100
AcDbCircle
 10
-187.0588810635129
 20
-52.93340178875252
 30
0.0
 40
3.000000038662472
100
AcDbArc
 50
188.4534149169922
 51
254.9990997314453
  0
ARC
  5
24D
330
1F
100
AcDbEntity
  8
通り芯
  6
Continuous
 62
     3
370
     9
100
AcDbCircle
 10
-197.2370707277865
 20
-94.25387265023897
 30
0.0
 40
2.000000025774982
100
AcDbArc
 50
270.0
 51
0.0
  0
ARC
  5
24E
330
1F
100
AcDbEntity
  8
通り芯
  6
Continuous
 62
     3
370
     9
100
AcDbCircle
 10
-197.2370707277865
 20
-94.25387265023897
 30
0.0
 40
8.000000103099927
100
AcDbArc
 50
270.0
 51
0.0
  0
ARC
  5
24F
330
1F
100
AcDbEntity
  8
通り芯
  6
JWW_CENTER1
 62
     3
370
     9
100
AcDbCircle
 10
-197.2370707277865
 20
-94.25387265023897
 30
0.0
 40
5.000000257749815
100
AcDbArc
 50
270.0
 51
0.0
  0
ARC
  5
250
330
1F
100
AcDbEntity
  8
通り芯
  6
Continuous
 62
     3
370
     9
100
AcDbCircle
 10
-211.0902861258018
 20
-72.37613431620184
 30
0.0
 40
10.99999840195115
100
AcDbArc
 50
75.00009155273439
 51
123.9725341796875
  0
ARC
  5
251
330
1F
100
AcDbEntity
  8
通り芯
  6
Continuous
 62
     3
370
     9
100
AcDbCircle
 10
-200.2452461395264
 20
-65.44692849905658
 30
0.0
 40
1.499999922675056
100
AcDbArc
 50
191.5652618408203
 51
254.9999084472656
  0
ARC
  5
252
330
1F
100
AcDbEntity
  8
通り芯
  6
JWW_PHANTOM1
 62
     3
370
     9
100
AcDbCircle
 10
-188.1110941652865
 20
-68.69828776848226
 30
0.0
 40
1.499999922675056
100
AcDbArc
 50
255.000244140625
 51
318.4352111816406
  0
ARC
  5
253
330
1F
100
AcDbEntity
  8
通り芯
  6
JWW_PHANTOM1
 62
     3
370
     9
100
AcDbCircle
 10
-184.7021157288423
 20
-70.12938072667481
 30
0.0
 40
1.999999639150259
100
AcDbArc
 50
75.00006103515625
 51
138.435073852539
  0
ARC
  5
254
330
1F
100
AcDbEntity
  8
通り芯
  6
Continuous
 62
     3
370
     9
100
AcDbCircle
 10
-203.9130961184115
 20
-64.98174163250252
 30
0.0
 40
1.999999639150259
100
AcDbArc
 50
11.56510925292969
 51
74.99981689453125
  0
ARC
  5
255
330
1F
100
AcDbEntity
  8
通り芯
  6
Continuous
 62
     3
370
     9
100
AcDbCircle
 10
-224.332028234121
 20
-52.25383305986736
 30
0.0
 40
0.9999998195751294
100
AcDbArc
 50
90.0
 51
174.2891998291016
  0
ARC
  5
256
330
1F
100
AcDbEntity
  8
通り芯
  6
Continuous
 62
     3
370
     9
100
AcDbCircle
 10
118.6162007565885
 20
-72.37613431620184
 30
0.0
 40
10.99999840195115
100
AcDbArc
 50
56.0274658203125
 51
104.9999084472656
  0
ARC
  5
257
330
1F
100
AcDbEntity
  8
通り芯
  6
Continuous
 62
     3
370
     9
100
AcDbCircle
 10
107.7712102582777
 20
-65.44692849905658
 30
0.0
 40
1.499999922675056
100
AcDbArc
 50
285.0000915527344
 51
348.4347381591797
  0
ARC
  5
258
330
1F
100
AcDbEntity
  8
通り芯
  6
Continuous
 62
     3
370
     9
100
AcDbCircle
 10
95.63695930810877
 20
-68.69828776848226
 30
0.0
 40
1.499999922675056
100
AcDbArc
 50
221.5647888183594
 51
284.999755859375
  0
ARC
  5
259
330
1F
100
AcDbEntity
  8
通り芯
  6
Continuous
 62
     3
370
     9
100
AcDbCircle
 10
111.4389612612338
 20
-64.98174163250252
 30
0.0
 40
1.999999639150259
100
AcDbArc
 50
105.0001831054688
 51
168.4348907470703
  0
ARC
  5
25A
330
1F
100
AcDbEntity
  8
通り芯
  6
Continuous
 62
     3
370
     9
100
AcDbCircle
 10
131.8579923528723
 20
-52.25383305986736
 30
0.0
 40
0.9999998195751294
100
AcDbArc
 50
5.710800170898438
 51
90.00000000000001
  0
ARC
  5
25B
330
1F
100
AcDbEntity
  8
通り芯
  6
Continuous
 62
     3
370
     9
100
AcDbCircle
 10
-183.5560239583608
 20
-70.43660201045861
 30
0.0
 40
2.000000025774982
100
AcDbArc
 50
75.00083923339844
 51
171.2867584228516
  0
ARC
  5
25C
330
1F
100
AcDbEntity
  8
通り芯
  6
Continuous
 62
     3
370
     9
100
AcDbCircle
 10
-201.029927305067
 20
-68.86021238841465
 30
0.0
 40
2.000000025774982
100
AcDbArc
 50
8.13934326171875
 51
75.00083923339844
  0
ARC
  5
25D
330
1F
100
AcDbEntity
  8
通り芯
  6
Continuous
 62
     3
370
     9
100
AcDbCircle
 10
-195.9363290681581
 20
-79.753800067891
 30
0.0
 40
1.500000019331236
100
AcDbArc
 50
188.1389312744141
 51
270.0018920898438
  0
ARC
  5
25E
330
1F
100
AcDbEntity
  8
通り芯
  6
Continuous
 62
     3
370
     9
100
AcDbCircle
 10
-188.5246650848389
 20
-79.753800067891
 30
0.0
 40
1.500000019331236
100
AcDbArc
 50
270.0
 51
351.2890930175781
  0
ARC
  5
25F
330
1F
100
AcDbEntity
  8
通り芯
  6
Continuous
 62
     3
370
     9
100
AcDbCircle
 10
-201.2515838981835
 20
-56.76574976172549
 30
0.0
 40
1.624993182517387
100
AcDbArc
 50
187.6192932128906
 51
322.3808135986329
  0
ARC
  5
260
330
1F
100
AcDbEntity
  8
通り芯
  6
Continuous
 62
     3
370
     9
100
AcDbCircle
 10
-207.0471194239436
 20
-55.21281743486736
 30
0.0
 40
1.624993182517387
100
AcDbArc
 50
187.6192932128906
 51
322.3808135986329
  0
ARC
  5
261
330
1F
100
AcDbEntity
  8
通り芯
  6
Continuous
 62
     3
370
     9
100
AcDbCircle
 10
-182.8989722533355
 20
-61.6832698208471
 30
0.0
 40
1.624993182517387
100
AcDbArc
 50
187.6193542480469
 51
322.3808746337891
  0
ARC
  5
262
330
1F
100
AcDbEntity
  8
通り芯
  6
Continuous
 62
     3
370
     9
100
AcDbCircle
 10
-177.1034367275754
 20
-63.23620214770523
 30
0.0
 40
1.624993182517387
100
AcDbArc
 50
187.6193542480469
 51
322.3808746337891
  0
ARC
  5
263
330
1F
100
AcDbEntity
  8
通り芯
  6
Continuous
 62
     3
370
     9
100
AcDbCircle
 10
-195.1105728920602
 20
-60.61116255733361
 30
0.0
 40
1.500000019331236
100
AcDbArc
 50
191.5652618408203
 51
254.9999084472656
  0
ARC
  5
264
330
1F
100
AcDbEntity
  8
通り芯
  6
Continuous
 62
     3
370
     9
100
AcDbCircle
 10
-190.1400017349656
 20
-61.94298265868497
 30
0.0
 40
1.500000019331236
100
AcDbArc
 50
255.000244140625
 51
318.4352111816406
  0
ARC
  5
265
330
1F
100
AcDbEntity
  8
通り芯
  6
Continuous
 62
     3
370
     9
100
AcDbCircle
 10
-187.0692735360635
 20
-62.24822442388762
 30
0.0
 40
1.000000012887491
100
AcDbArc
 50
74.99990844726562
 51
138.4345703125
  0
ARC
  5
266
330
1F
100
AcDbEntity
  8
通り芯
  6
Continuous
 62
     3
370
     9
100
AcDbCircle
 10
-197.9224295485213
 20
-59.34001470049236
 30
0.0
 40
1.000000012887491
100
AcDbArc
 50
11.56475830078125
 51
74.99972534179689
  0
ARC
  5
267
330
1F
100
AcDbEntity
  8
通り芯
  6
Continuous
 62
     3
370
     9
100
AcDbCircle
 10
108.7774985289702
 20
-56.76574976172549
 30
0.0
 40
1.624993182517387
100
AcDbArc
 50
217.6191864013672
 51
352.3807067871094
  0
ARC
  5
268
330
1F
100
AcDbEntity
  8
通り芯
  6
Continuous
 62
     3
370
     9
100
AcDbCircle
 10
114.5731330306594
 20
-55.21281743486736
 30
0.0
 40
1.624993182517387
100
AcDbArc
 50
217.6191864013672
 51
352.3807067871094
  0
ARC
  5
269
330
1F
100
AcDbEntity
  8
通り芯
  6
Continuous
 62
     3
370
     9
100
AcDbCircle
 10
90.42488688412232
 20
-61.6832698208471
 30
0.0
 40
1.624993182517387
100
AcDbArc
 50
217.6185607910156
 51
352.3800811767578
  0
ARC
  5
26A
330
1F
100
AcDbEntity
  8
通り芯
  6
Continuous
 62
     3
370
     9
100
AcDbCircle
 10
84.62925238243304
 20
-63.23620214770523
 30
0.0
 40
1.624993182517387
100
AcDbArc
 50
217.6185607910156
 51
352.3800811767578
  0
ARC
  5
26B
330
1F
100
AcDbEntity
  8
通り芯
  6
Continuous
 62
     3
370
     9
100
AcDbCircle
 10
102.6364380348824
 20
-60.61116255733361
 30
0.0
 40
1.500000019331236
100
AcDbArc
 50
285.0000915527344
 51
348.4347381591797
  0
ARC
  5
26C
330
1F
100
AcDbEntity
  8
通り芯
  6
Continuous
 62
     3
370
     9
100
AcDbCircle
 10
97.6659658537169
 20
-61.94298265868497
 30
0.0
 40
1.500000019331236
100
AcDbArc
 50
221.5647888183594
 51
284.999755859375
  0
ARC
  5
26D
330
1F
100
AcDbEntity
  8
通り芯
  6
Continuous
 62
     3
370
     9
100
AcDbCircle
 10
94.59513867888575
 20
-62.24822442388762
 30
0.0
 40
1.000000012887491
100
AcDbArc
 50
41.5654296875
 51
105.0000915527344
  0
ARC
  5
26E
330
1F
100
AcDbEntity
  8
通り芯
  6
Continuous
 62
     3
370
     9
100
AcDbCircle
 10
105.448344179308
 20
-59.34001470049236
 30
0.0
 40
1.000000012887491
100
AcDbArc
 50
105.0002746582031
 51
168.4352416992187
  0
ARC
  5
26F
330
1F
100
AcDbEntity
  8
通り芯
  6
Continuous
 62
     3
370
     9
100
AcDbCircle
 10
-143.5379773472966
 20
-70.7539188390059
 30
0.0
 40
1.500000019331236
100
AcDbArc
 50
8.129165649414062
 51
90.00000000000001
  0
ARC
  5
270
330
1F
100
AcDbEntity
  8
通り芯
  6
Continuous
 62
     3
370
     9
100
AcDbCircle
 10
70.27615905473033
 20
-70.8348811489721
 30
0.0
 40
3.000000038662472
100
AcDbArc
 50
104.9999847412109
 51
175.0010833740234
  0
ARC
  5
271
330
1F
100
AcDbEntity
  8
通り芯
  6
Continuous
 62
     3
370
     9
100
AcDbCircle
 10
-162.7502444239436
 20
-70.8348811489721
 30
0.0
 40
3.000000038662472
100
AcDbArc
 50
31.80506896972656
 51
75.00001525878906
  0
ARC
  5
272
330
1F
100
AcDbEntity
  8
通り芯
  6
Continuous
 62
     3
370
     9
100
AcDbCircle
 10
64.19953189045668
 20
-71.44962064432684
 30
0.0
 40
3.000000038662472
100
AcDbArc
 50
274.2175598144531
 51
355.0002136230469
  0
ARC
  5
273
330
1F
100
AcDbEntity
  8
通り芯
  6
Continuous
 62
     3
370
     9
100
AcDbCircle
 10
54.59560056655471
 20
-76.66990807042481
 30
0.0
 40
1.500000019331236
100
AcDbArc
 50
94.21667480468751
 51
165.9646759033203
  0
ARC
  5
274
330
1F
100
AcDbEntity
  8
通り芯
  6
Continuous
 62
     3
370
     9
100
AcDbCircle
 10
-164.7789045538001
 20
-110.7538528550532
 30
0.0
 40
0.5000000064437454
100
AcDbArc
 50
184.9969177246094
 51
269.9985809326172
  0
ARC
  5
275
330
1F
100
AcDbEntity
  8
通り芯
  6
Continuous
 62
     3
370
     9
100
AcDbCircle
 10
72.30476969662232
 20
-110.7538528550532
 30
0.0
 40
0.5000000064437454
100
AcDbArc
 50
270.0014190673828
 51
355.0030822753906
  0
ARC
  5
276
330
1F
100
AcDbEntity
  8
通り芯
  6
Continuous
 62
     3
370
     9
100
AcDbCircle
 10
78.9708974943419
 20
-74.71681606240116
 30
0.0
 40
3.000000038662472
100
AcDbArc
 50
104.9997406005859
 51
175.0001525878906
  0
ARC
  5
277
330
1F
100
AcDbEntity
  8
通り芯
  6
Continuous
 62
     3
370
     9
100
AcDbCircle
 10
-171.4450323515197
 20
-74.71681606240116
 30
0.0
 40
3.000000038662472
100
AcDbArc
 50
4.999847412109375
 51
75.00025939941408
  0
ARC
  5
278
330
1F
100
AcDbEntity
  8
通り芯
  6
Continuous
 62
     3
370
     9
100
AcDbCircle
 10
70.16797836427429
 20
-112.2538330598674
 30
0.0
 40
1.000000012887491
100
AcDbArc
 50
90.0
 51
174.2899780273438
  0
ARC
  5
279
330
1F
100
AcDbEntity
  8
通り芯
  6
Continuous
 62
     3
370
     9
100
AcDbCircle
 10
65.90548100363242
 20
-129.7538660518437
 30
0.0
 40
1.500000019331236
100
AcDbArc
 50
270.0
 51
354.2901611328126
  0
ARC
  5
27A
330
1F
100
AcDbEntity
  8
通り芯
  6
Continuous
 62
     3
370
     9
100
AcDbCircle
 10
-162.642014245523
 20
-112.2538330598674
 30
0.0
 40
1.000000012887491
100
AcDbArc
 50
5.710021972656251
 51
90.0
  0
ARC
  5
27B
330
1F
100
AcDbEntity
  8
通り芯
  6
Continuous
 62
     3
370
     9
100
AcDbCircle
 10
-158.3795663728456
 20
-129.7538660518437
 30
0.0
 40
1.500000019331236
100
AcDbArc
 50
185.7098388671875
 51
270.0
  0
ARC
  5
27C
330
1F
100
AcDbEntity
  8
通り芯
  6
Continuous
 62
     3
370
     9
100
AcDbCircle
 10
-46.23701794062436
 20
311.0026729578692
 30
0.0
 40
179.9999876280089
100
AcDbArc
 50
0.0
 51
180.0
  0
ARC
  5
27D
330
1F
100
AcDbEntity
  8
通り芯
  6
Continuous
 62
     3
370
     9
100
AcDbCircle
 10
-46.23701794062436
 20
311.0026729578692
 30
0.0
 40
178.9999843288113
100
AcDbArc
 50
0.0
 51
180.0
  0
ARC
  5
27E
330
1F
100
AcDbEntity
  8
躯体
  6
Continuous
 62
     2
370
     9
100
AcDbCircle
 10
-46.23701794062436
 20
311.0026729578692
 30
0.0
 40
170.0000041239971
100
AcDbArc
 50
0.0
 51
180.0
  0
ARC
  5
27F
330
1F
100
AcDbEntity
  8
躯体
  6
Continuous
 62
     2
370
     9
100
AcDbCircle
 10
-46.23701794062436
 20
311.0026729578692
 30
0.0
 40
169.4999901024071
100
AcDbArc
 50
0.0
 51
180.0
  0
ARC
  5
280
330
1F
100
AcDbEntity
  8
躯体
  6
Continuous
 62
     2
370
     9
100
AcDbCircle
 10
-46.23701794062436
 20
311.0026729578692
 30
0.0
 40
158.1455581252639
100
AcDbArc
 50
0.0
 51
180.0
  0
ARC
  5
281
330
1F
100
AcDbEntity
  8
躯体
  6
Continuous
 62
     2
370
     9
100
AcDbCircle
 10
-46.23701794062436
 20
311.0026729578692
 30
0.0
 40
149.9999876280089
100
AcDbArc
 50
170.6602020263672
 51
180.0
  0
ARC
  5
282
330
1F
100
AcDbEntity
  8
躯体
  6
Continuous
 62
     2
370
     9
100
AcDbCircle
 10
-46.23701794062436
 20
311.0026729578692
 30
0.0
 40
148.9999843288113
100
AcDbArc
 50
171.2502746582031
 51
180.0
  0
ARC
  5
283
330
1F
100
AcDbEntity
  8
躯体
  6
Continuous
 62
     2
370
     9
100
AcDbCircle
 10
-46.23701794062436
 20
311.0026729578692
 30
0.0
 40
143.8229864996833
100
AcDbArc
 50
176.4070739746094
 51
180.0
  0
ARC
  5
284
330
1F
100
AcDbEntity
  8
躯体
  6
Continuous
 62
     2
370
     9
100
AcDbCircle
 10
-46.23701794062436
 20
311.0026729578692
 30
0.0
 40
144.9999835040118
100
AcDbArc
 50
171.3192901611328
 51
180.0
  0
ARC
  5
285
330
1F
100
AcDbEntity
  8
仕上
  6
Continuous
 62
     4
370
     9
100
AcDbCircle
 10
-182.7370476334031
 20
311.0026729578692
 30
0.0
 40
5.000000257749815
100
AcDbArc
 50
0.0
 51
180.0
  0
ARC
  5
286
330
1F
100
AcDbEntity
  8
躯体
  6
Continuous
 62
     2
370
     9
100
AcDbCircle
 10
-46.23701794062436
 20
311.0026729578692
 30
0.0
 40
148.9999719568201
100
AcDbArc
 50
0.0
 51
8.749725341796877
  0
ARC
  5
287
330
1F
100
AcDbEntity
  8
躯体
  6
Continuous
 62
     2
370
     9
100
AcDbCircle
 10
-46.23701794062436
 20
311.0026729578692
 30
0.0
 40
149.9999752560177
100
AcDbArc
 50
0.0
 51
9.339797973632812
  0
ARC
  5
288
330
1F
100
AcDbEntity
  8
躯体
  6
Continuous
 62
     2
370
     9
100
AcDbCircle
 10
-46.23701794062436
 20
311.0026729578692
 30
0.0
 40
144.9999835040118
100
AcDbArc
 50
0.0
 51
8.680709838867188
  0
ARC
  5
289
330
1F
100
AcDbEntity
  8
躯体
  6
Continuous
 62
     2
370
     9
100
AcDbCircle
 10
-46.23701794062436
 20
311.0026729578692
 30
0.0
 40
143.8229864996833
100
AcDbArc
 50
0.0
 51
3.592926025390625
  0
ARC
  5
28A
330
1F
100
AcDbEntity
  8
仕上
  6
Continuous
 62
     4
370
     9
100
AcDbCircle
 10
90.26296226418981
 20
311.0026729578692
 30
0.0
 40
5.000000257749815
100
AcDbArc
 50
0.0
 51
180.0
  0
ARC
  5
28B
330
1F
100
AcDbEntity
  8
通り芯
  6
Continuous
 62
     3
370
     9
100
AcDbCircle
 10
92.22803035962897
 20
-70.12938072667481
 30
0.0
 40
1.999999639150259
100
AcDbArc
 50
41.56492614746094
 51
104.9986419677735
  0
ARC
  5
28C
330
1F
100
AcDbEntity
  8
仕上
  6
Continuous
 62
     6
370
     9
100
AcDbCircle
 10
-186.524411046621
 20
-51.89742073934372
 30
0.0
 40
1.499999922675056
100
AcDbArc
 50
192.0923767089844
 51
270.0
  0
ARC
  5
28D
330
1F
100
AcDbEntity
  8
仕上
  6
Continuous
 62
     6
370
     9
100
AcDbCircle
 10
94.05047414130138
 20
-51.89742073934372
 30
0.0
 40
1.499999922675056
100
AcDbArc
 50
270.0
 51
347.9076232910156
  0
ARC
  5
28E
330
1F
100
AcDbEntity
  8
仕上
  6
Continuous
 62
     6
370
     9
100
AcDbCircle
 10
-176.5389275162156
 20
-43.39736795218158
 30
0.0
 40
2.999999845350111
100
AcDbArc
 50
270.0
 51
345.0001373291016
  0
ARC
  5
28F
330
1F
100
AcDbEntity
  8
仕上
  6
Continuous
 62
     6
370
     9
100
AcDbCircle
 10
-171.9349632003372
 20
-49.39748672329642
 30
0.0
 40
4.000000051549963
100
AcDbArc
 50
270.0
 51
344.9998779296876
  0
ARC
  5
290
330
1F
100
AcDbEntity
  8
仕上
  6
Continuous
 62
     6
370
     9
100
AcDbCircle
 10
55.20727180810877
 20
-12.97295916839778
 30
0.0
 40
10.00000051549963
100
AcDbArc
 50
14.99993896484375
 51
81.45838928222656
  0
ARC
  5
291
330
1F
100
AcDbEntity
  8
仕上
  6
Continuous
 62
     6
370
     9
100
AcDbCircle
 10
55.20727180810877
 20
-12.97295916839778
 30
0.0
 40
17.0000004123997
100
AcDbArc
 50
14.99993896484375
 51
81.45838928222656
  0
ARC
  5
292
330
1F
100
AcDbEntity
  8
仕上
  6
Continuous
 62
     6
370
     9
100
AcDbCircle
 10
-147.6812087134284
 20
-12.97295916839778
 30
0.0
 40
10.00000051549963
100
AcDbArc
 50
98.54161071777345
 51
165.0000610351562
  0
ARC
  5
293
330
1F
100
AcDbEntity
  8
仕上
  6
Continuous
 62
     6
370
     9
100
AcDbCircle
 10
-147.6812087134284
 20
-12.97295916839778
 30
0.0
 40
17.0000004123997
100
AcDbArc
 50
98.54161071777345
 51
165.0000610351562
  0
ARC
  5
294
330
1F
100
AcDbEntity
  8
仕上
  6
Continuous
 62
     6
370
     9
100
AcDbCircle
 10
-46.23701794062436
 20
-688.3973679521816
 30
0.0
 40
693.0000593855575
100
AcDbArc
 50
81.45840454101562
 51
98.54159545898438
  0
ARC
  5
295
330
1F
100
AcDbEntity
  8
仕上
  6
Continuous
 62
     6
370
     9
100
AcDbCircle
 10
-46.23701794062436
 20
-688.3973679521816
 30
0.0
 40
700.0000329919764
100
AcDbArc
 50
81.45840454101562
 51
98.54159545898438
  0
ARC
  5
296
330
1F
100
AcDbEntity
  8
仕上
  6
Continuous
 62
     6
370
     9
100
AcDbCircle
 10
84.06499061089596
 20
-43.39736795218158
 30
0.0
 40
2.999999845350111
100
AcDbArc
 50
194.999740600586
 51
270.0
  0
ARC
  5
297
330
1F
100
AcDbEntity
  8
仕上
  6
Continuous
 62
     6
370
     9
100
AcDbCircle
 10
79.46102629501752
 20
-49.39748672329642
 30
0.0
 40
4.000000051549963
100
AcDbArc
 50
195.0000305175782
 51
270.0
  0
ARC
  5
298
330
1F
100
AcDbEntity
  8
仕上
  6
JWW_DASHED1
 62
     6
370
     9
100
AcDbCircle
 10
-179.181881749746
 20
-49.39748672329642
 30
0.0
 40
4.000000051549963
100
AcDbArc
 50
270.0
 51
344.9999694824218
  0
ARC
  5
299
330
1F
100
AcDbEntity
  8
仕上
  6
JWW_DASHED1
 62
     6
370
     9
100
AcDbCircle
 10
-46.23701794062436
 20
-688.3973679521816
 30
0.0
 40
699.0000296927788
100
AcDbArc
 50
81.77496337890625
 51
86.22673034667969
  0
ARC
  5
29A
330
1F
100
AcDbEntity
  8
仕上
  6
JWW_DASHED1
 62
     6
370
     9
100
AcDbCircle
 10
-46.23701794062436
 20
-688.3973679521816
 30
0.0
 40
699.0000296927788
100
AcDbArc
 50
93.77326965332031
 51
98.22503662109376
  0
ARC
  5
29B
330
1F
100
AcDbEntity
  8
仕上
  6
Continuous
 62
     6
370
     9
100
AcDbCircle
 10
-21.45285144991487
 20
327.0027257450313
 30
0.0
 40
2.999999845350111
100
AcDbArc
 50
270.0
 51
32.84521484375001
  0
ARC
  5
29C
330
1F
100
AcDbEntity
  8
仕上
  6
Continuous
 62
     6
370
     9
100
AcDbCircle
 10
-71.02098647947571
 20
327.0027257450313
 30
0.0
 40
2.999999845350111
100
AcDbArc
 50
147.15478515625
 51
270.0
  0
ARC
  5
29D
330
1F
100
AcDbEntity
  8
仕上
  6
Continuous
 62
     6
370
     9
100
AcDbCircle
 10
-46.23701794062436
 20
311.0026729578692
 30
0.0
 40
32.49999896900074
100
AcDbArc
 50
32.84530639648438
 51
147.1546936035156
  0
ARC
  5
29E
330
1F
100
AcDbEntity
  8
仕上
  6
Continuous
 62
     6
370
     9
100
AcDbCircle
 10
-143.0189475753372
 20
317.502719146636
 30
0.0
 40
2.999999845350111
100
AcDbArc
 50
176.1576538085938
 51
270.0004119873047
  0
ARC
  5
29F
330
1F
100
AcDbEntity
  8
仕上
  6
Continuous
 62
     6
370
     9
100
AcDbCircle
 10
-143.0189475753372
 20
317.502719146636
 30
0.0
 40
4.000000051549963
100
AcDbArc
 50
176.1576538085938
 51
270.0004119873047
  0
ARC
  5
2A0
330
1F
100
AcDbEntity
  8
仕上
  6
Continuous
 62
     6
370
     9
100
AcDbCircle
 10
70.45619626967971
 20
335.8870030887813
 30
0.0
 40
1.499999922675056
100
AcDbArc
 50
106.36376953125
 51
192.0377502441406
  0
ARC
  5
2A1
330
1F
100
AcDbEntity
  8
仕上
  6
Continuous
 62
     6
370
     9
100
AcDbCircle
 10
65.38506556866616
 20
353.1579068049975
 30
0.0
 40
1.499999922675056
100
AcDbArc
 50
200.6893615722656
 51
286.3636016845703
  0
ARC
  5
2A2
330
1F
100
AcDbEntity
  8
仕上
  6
Continuous
 62
     6
370
     9
100
AcDbCircle
 10
58.71864084315939
 20
367.7552727256056
 30
0.0
 40
1.499999922675056
100
AcDbArc
 50
122.7274017333985
 51
208.4013824462891
  0
ARC
  5
2A3
330
1F
100
AcDbEntity
  8
仕上
  6
Continuous
 62
     6
370
     9
100
AcDbCircle
 10
-46.23701794062436
 20
311.0026729578692
 30
0.0
 40
117.8169250488281
100
AcDbArc
 50
20.68949890136719
 51
28.40133666992188
  0
ARC
  5
2A4
330
1F
100
AcDbEntity
  8
仕上
  6
Continuous
 62
     6
370
     9
100
AcDbCircle
 10
48.98712954670668
 20
382.8978970393725
 30
0.0
 40
1.499999922675056
100
AcDbArc
 50
217.0529937744141
 51
302.7272338867188
  0
ARC
  5
2A5
330
1F
100
AcDbEntity
  8
仕上
  6
Continuous
 62
     6
370
     9
100
AcDbCircle
 10
38.47816232753439
 20
395.025813530082
 30
0.0
 40
1.499999922675056
100
AcDbArc
 50
139.0910339355469
 51
224.7650146484375
  0
ARC
  5
2A6
330
1F
100
AcDbEntity
  8
仕上
  6
Continuous
 62
     6
370
     9
100
AcDbCircle
 10
-46.23701794062436
 20
311.0026729578692
 30
0.0
 40
117.8169250488281
100
AcDbArc
 50
37.05313110351562
 51
44.76496887207031
  0
ARC
  5
2A7
330
1F
100
AcDbEntity
  8
仕上
  6
Continuous
 62
     6
370
     9
100
AcDbCircle
 10
24.87461371055804
 20
406.8132528248455
 30
0.0
 40
1.499999922675056
100
AcDbArc
 50
233.4166259765625
 51
319.0908660888672
  0
ARC
  5
2A8
330
1F
100
AcDbEntity
  8
仕上
  6
Continuous
 62
     6
370
     9
100
AcDbCircle
 10
11.37459391537232
 20
415.4892848138657
 30
0.0
 40
1.499999922675056
100
AcDbArc
 50
155.4546661376953
 51
241.128646850586
  0
ARC
  5
2A9
330
1F
100
AcDbEntity
  8
仕上
  6
Continuous
 62
     6
370
     9
100
AcDbCircle
 10
-46.23701794062436
 20
311.0026729578692
 30
0.0
 40
117.8169250488281
100
AcDbArc
 50
53.41676330566406
 51
61.12860107421876
  0
ARC
  5
2AA
330
1F
100
AcDbEntity
  8
仕上
  6
Continuous
 62
     6
370
     9
100
AcDbCircle
 10
-4.998895052110811
 20
422.9667183020414
 30
0.0
 40
1.499999922675056
100
AcDbArc
 50
249.7802581787109
 51
335.4544982910156
  0
ARC
  5
2AB
330
1F
100
AcDbEntity
  8
仕上
  6
Continuous
 62
     6
370
     9
100
AcDbCircle
 10
-20.39638238319196
 20
427.4879387412306
 30
0.0
 40
1.499999922675056
100
AcDbArc
 50
171.8182983398438
 51
257.4922790527344
  0
ARC
  5
2AC
330
1F
100
AcDbEntity
  8
仕上
  6
Continuous
 62
     6
370
     9
100
AcDbCircle
 10
-46.23701794062436
 20
311.0026729578692
 30
0.0
 40
117.8169250488281
100
AcDbArc
 50
69.7803955078125
 51
77.49223327636719
  0
ARC
  5
2AD
330
1F
100
AcDbEntity
  8
仕上
  6
Continuous
 62
     6
370
     9
100
AcDbCircle
 10
-38.21323732407029
 20
430.0496337370077
 30
0.0
 40
1.499999922675056
100
AcDbArc
 50
266.1439056396484
 51
351.8181457519532
  0
ARC
  5
2AE
330
1F
100
AcDbEntity
  8
仕上
  6
Continuous
 62
     6
370
     9
100
AcDbCircle
 10
-54.26079855717842
 20
430.0495347610786
 30
0.0
 40
1.499999922675056
100
AcDbArc
 50
188.1819458007813
 51
273.8559265136719
  0
ARC
  5
2AF
330
1F
100
AcDbEntity
  8
仕上
  6
Continuous
 62
     6
370
     9
100
AcDbCircle
 10
-46.23701794062436
 20
311.0026729578692
 30
0.0
 40
117.8169250488281
100
AcDbArc
 50
86.14404296875
 51
93.8558807373047
  0
ARC
  5
2B0
330
1F
100
AcDbEntity
  8
仕上
  6
Continuous
 62
     6
370
     9
100
AcDbCircle
 10
-72.07765349805675
 20
427.4879387412306
 30
0.0
 40
1.499999922675056
100
AcDbArc
 50
282.5075531005859
 51
8.181793212890621
  0
ARC
  5
2B1
330
1F
100
AcDbEntity
  8
仕上
  6
Continuous
 62
     6
370
     9
100
AcDbCircle
 10
-87.4751408291379
 20
422.9667183020414
 30
0.0
 40
1.499999922675056
100
AcDbArc
 50
204.5455932617188
 51
290.2195739746094
  0
ARC
  5
2B2
330
1F
100
AcDbEntity
  8
仕上
  6
Continuous
 62
     6
370
     9
100
AcDbCircle
 10
-46.23701794062436
 20
311.0026729578692
 30
0.0
 40
117.8169250488281
100
AcDbArc
 50
102.5076904296875
 51
110.2195281982422
  0
ARC
  5
2B3
330
1F
100
AcDbEntity
  8
仕上
  6
Continuous
 62
     6
370
     9
100
AcDbCircle
 10
-103.848530820692
 20
415.4892848138657
 30
0.0
 40
1.499999922675056
100
AcDbArc
 50
298.8712005615234
 51
24.54544067382815
  0
ARC
  5
2B4
330
1F
100
AcDbEntity
  8
仕上
  6
Continuous
 62
     6
370
     9
100
AcDbCircle
 10
-117.3486495918067
 20
406.8132528248455
 30
0.0
 40
1.499999922675056
100
AcDbArc
 50
220.9092407226563
 51
306.5832214355469
  0
ARC
  5
2B5
330
1F
100
AcDbEntity
  8
仕上
  6
Continuous
 62
     6
370
     9
100
AcDbCircle
 10
-46.23701794062436
 20
311.0026729578692
 30
0.0
 40
117.8169250488281
100
AcDbArc
 50
118.871337890625
 51
126.5831756591797
  0
ARC
  5
2B6
330
1F
100
AcDbEntity
  8
仕上
  6
Continuous
 62
     6
370
     9
100
AcDbCircle
 10
-130.952099232854
 20
395.025813530082
 30
0.0
 40
1.499999922675056
100
AcDbArc
 50
315.2348480224609
 51
40.90908813476562
  0
ARC
  5
2B7
330
1F
100
AcDbEntity
  8
仕上
  6
Continuous
 62
     6
370
     9
100
AcDbCircle
 10
-141.4609674760974
 20
382.8978970393725
 30
0.0
 40
1.499999922675056
100
AcDbArc
 50
237.2728881835937
 51
322.9468688964844
  0
ARC
  5
2B8
330
1F
100
AcDbEntity
  8
仕上
  6
Continuous
 62
     6
370
     9
100
AcDbCircle
 10
-46.23701794062436
 20
311.0026729578692
 30
0.0
 40
117.8169250488281
100
AcDbArc
 50
135.2349853515625
 51
142.9468231201172
  0
ARC
  5
2B9
330
1F
100
AcDbEntity
  8
仕上
  6
Continuous
 62
     6
370
     9
100
AcDbCircle
 10
95.15603526883513
 20
316.5027653354029
 30
0.0
 40
1.499999922675056
100
AcDbArc
 50
270.0
 51
2.228103637695305
  0
ARC
  5
2BA
330
1F
100
AcDbEntity
  8
仕上
  6
Continuous
 62
     6
370
     9
100
AcDbCircle
 10
-46.23701794062436
 20
311.0026729578692
 30
0.0
 40
143.0000016495988
100
AcDbArc
 50
2.227615356445312
 51
177.7723846435547
  0
ARC
  5
2BB
330
1F
100
AcDbEntity
  8
仕上
  6
Continuous
 62
     6
370
     9
100
AcDbCircle
 10
72.57180675321013
 20
322.0027587370077
 30
0.0
 40
1.499999922675056
100
AcDbArc
 50
185.2895202636719
 51
270.0
  0
ARC
  5
2BC
330
1F
100
AcDbEntity
  8
仕上
  6
Continuous
 62
     6
370
     9
100
AcDbCircle
 10
-46.23701794062436
 20
311.0026729578692
 30
0.0
 40
117.8169250488281
100
AcDbArc
 50
5.289703369140625
 51
12.03770446777344
  0
ARC
  5
2BD
330
1F
100
AcDbEntity
  8
仕上
  6
Continuous
 62
     6
370
     9
100
AcDbCircle
 10
83.0504873380919
 20
-51.89742073934372
 30
0.0
 40
1.499999922675056
100
AcDbArc
 50
270.0
 51
347.9053802490235
  0
ARC
  5
2BE
330
1F
100
AcDbEntity
  8
仕上
  6
Continuous
 62
     6
370
     9
100
AcDbCircle
 10
-140.7612076576852
 20
332.7780701812644
 30
0.0
 40
2.999999845350111
100
AcDbArc
 50
72.00015258789062
 51
167.0272216796875
  0
ARC
  5
2BF
330
1F
100
AcDbEntity
  8
仕上
  6
Continuous
 62
     6
370
     9
100
AcDbCircle
 10
-92.0454533291379
 20
317.2330097399637
 30
0.0
 40
2.730238437652588
100
AcDbArc
 50
270.0
 51
72.00022888183595
  0
ARC
  5
2C0
330
1F
100
AcDbEntity
  8
仕上
  6
Continuous
 62
     6
370
     9
100
AcDbCircle
 10
-92.03555573623248
 20
319.0491190621765
 30
0.0
 40
2.999999845350111
100
AcDbArc
 50
350.0351867675781
 51
72.00015258789062
  0
ARC
  5
2C1
330
1F
100
AcDbEntity
  8
仕上
  6
Continuous
 62
     6
370
     9
100
AcDbCircle
 10
-46.23701794062436
 20
311.0026729578692
 30
0.0
 40
43.50000123719911
100
AcDbArc
 50
170.0354156494141
 51
172.2549285888672
  0
ARC
  5
2C2
330
1F
100
AcDbEntity
  8
仕上
  6
Continuous
 62
     6
370
     9
100
AcDbCircle
 10
-92.03555573623248
 20
319.0491190621765
 30
0.0
 40
4.000000051549963
100
AcDbArc
 50
350.0351867675781
 51
72.00015258789062
  0
ARC
  5
2C3
330
1F
100
AcDbEntity
  8
仕上
  6
Continuous
 62
     6
370
     9
100
AcDbCircle
 10
-46.23701794062436
 20
311.0026729578692
 30
0.0
 40
42.49999793800148
100
AcDbArc
 50
170.0353851318359
 51
172.2549285888672
  0
ARC
  5
2C4
330
1F
100
AcDbEntity
  8
仕上
  6
Continuous
 62
     6
370
     9
100
AcDbCircle
 10
-92.0454533291379
 20
317.2330097399637
 30
0.0
 40
3.730238450540079
100
AcDbArc
 50
270.0
 51
352.2549896240235
  0
ARC
  5
2C5
330
1F
100
AcDbEntity
  8
仕上
  6
Continuous
 62
     6
370
     9
100
AcDbCircle
 10
-46.23701794062436
 20
311.0026729578692
 30
0.0
 40
100.0000020619985
100
AcDbArc
 50
165.8423004150391
 51
176.1576843261719
  0
ARC
  5
2C6
330
1F
100
AcDbEntity
  8
仕上
  6
Continuous
 62
     6
370
     9
100
AcDbCircle
 10
-140.2906760909622
 20
334.7280939354874
 30
0.0
 40
2.999999845350111
100
AcDbArc
 50
72.0
 51
165.8424682617187
  0
ARC
  5
2C7
330
1F
100
AcDbEntity
  8
仕上
  6
Continuous
 62
     6
370
     9
100
AcDbCircle
 10
-140.2906760909622
 20
334.7280939354874
 30
0.0
 40
4.000000051549963
100
AcDbArc
 50
72.0
 51
165.8424682617187
  0
ARC
  5
2C8
330
1F
100
AcDbEntity
  8
仕上
  6
Continuous
 62
     6
370
     9
100
AcDbCircle
 10
-46.23701794062436
 20
311.0026729578692
 30
0.0
 40
100.999992989205
100
AcDbArc
 50
165.8423004150391
 51
176.1576843261719
  0
ARC
  5
2C9
330
1F
100
AcDbEntity
  8
仕上
  6
Continuous
 62
     6
370
     9
100
AcDbCircle
 10
-136.2735400584453
 20
347.0918700651327
 30
0.0
 40
2.999999845350111
100
AcDbArc
 50
158.1576538085938
 51
252.0004119873047
  0
ARC
  5
2CA
330
1F
100
AcDbEntity
  8
仕上
  6
Continuous
 62
     6
370
     9
100
AcDbCircle
 10
-136.2735400584453
 20
347.0918700651327
 30
0.0
 40
4.000000051549963
100
AcDbArc
 50
158.1576538085938
 51
252.0004119873047
  0
ARC
  5
2CB
330
1F
100
AcDbEntity
  8
仕上
  6
Continuous
 62
     6
370
     9
100
AcDbCircle
 10
-129.4058972691716
 20
360.9218756077847
 30
0.0
 40
2.999999845350111
100
AcDbArc
 50
54.00015258789063
 51
149.0272216796875
  0
ARC
  5
2CC
330
1F
100
AcDbEntity
  8
仕上
  6
Continuous
 62
     6
370
     9
100
AcDbCircle
 10
-87.87817081224603
 20
331.0836022758591
 30
0.0
 40
2.730238437652588
100
AcDbArc
 50
252.0
 51
54.00022888183594
  0
ARC
  5
2CD
330
1F
100
AcDbEntity
  8
仕上
  6
Continuous
 62
     6
370
     9
100
AcDbCircle
 10
-87.30747560532029
 20
332.8077629599806
 30
0.0
 40
2.999999845350111
100
AcDbArc
 50
332.0351867675781
 51
54.00015258789068
  0
ARC
  5
2CE
330
1F
100
AcDbEntity
  8
仕上
  6
Continuous
 62
     6
370
     9
100
AcDbCircle
 10
-46.23701794062436
 20
311.0026729578692
 30
0.0
 40
43.50000123719911
100
AcDbArc
 50
152.0354156494141
 51
154.2549285888672
  0
ARC
  5
2CF
330
1F
100
AcDbEntity
  8
仕上
  6
Continuous
 62
     6
370
     9
100
AcDbCircle
 10
-87.30747560532029
 20
332.8077629599806
 30
0.0
 40
4.000000051549963
100
AcDbArc
 50
332.0351867675781
 51
54.00015258789068
  0
ARC
  5
2D0
330
1F
100
AcDbEntity
  8
仕上
  6
Continuous
 62
     6
370
     9
100
AcDbCircle
 10
-46.23701794062436
 20
311.0026729578692
 30
0.0
 40
42.49999793800148
100
AcDbArc
 50
152.0353851318359
 51
154.2549285888672
  0
ARC
  5
2D1
330
1F
100
AcDbEntity
  8
仕上
  6
Continuous
 62
     6
370
     9
100
AcDbCircle
 10
-87.87817081224603
 20
331.0836022758591
 30
0.0
 40
3.730238450540079
100
AcDbArc
 50
252.0
 51
334.2549896240234
  0
ARC
  5
2D2
330
1F
100
AcDbEntity
  8
仕上
  6
Continuous
 62
     6
370
     9
100
AcDbCircle
 10
-46.23701794062436
 20
311.0026729578692
 30
0.0
 40
100.0000020619985
100
AcDbArc
 50
147.8423004150391
 51
158.1576843261719
  0
ARC
  5
2D3
330
1F
100
AcDbEntity
  8
仕上
  6
Continuous
 62
     6
370
     9
100
AcDbCircle
 10
-128.3558616378372
 20
362.6310909266192
 30
0.0
 40
2.999999845350111
100
AcDbArc
 50
54.0
 51
147.8424682617188
  0
ARC
  5
2D4
330
1F
100
AcDbEntity
  8
仕上
  6
Continuous
 62
     6
370
     9
100
AcDbCircle
 10
-128.3558616378372
 20
362.6310909266192
 30
0.0
 40
4.000000051549963
100
AcDbArc
 50
54.0
 51
147.8424682617188
  0
ARC
  5
2D5
330
1F
100
AcDbEntity
  8
仕上
  6
Continuous
 62
     6
370
     9
100
AcDbCircle
 10
-46.23701794062436
 20
311.0026729578692
 30
0.0
 40
100.999992989205
100
AcDbArc
 50
147.8423004150391
 51
158.1576843261719
  0
ARC
  5
2D6
330
1F
100
AcDbEntity
  8
仕上
  6
Continuous
 62
     6
370
     9
100
AcDbCircle
 10
-120.7146229870771
 20
373.148372123832
 30
0.0
 40
2.999999845350111
100
AcDbArc
 50
140.1576538085938
 51
234.0004119873047
  0
ARC
  5
2D7
330
1F
100
AcDbEntity
  8
仕上
  6
Continuous
 62
     6
370
     9
100
AcDbCircle
 10
-120.7146229870771
 20
373.148372123832
 30
0.0
 40
4.000000051549963
100
AcDbArc
 50
140.1576538085938
 51
234.0004119873047
  0
ARC
  5
2D8
330
1F
100
AcDbEntity
  8
仕上
  6
Continuous
 62
     6
370
     9
100
AcDbCircle
 10
-109.909420812246
 20
384.1792394169063
 30
0.0
 40
2.999999845350111
100
AcDbArc
 50
36.00015258789062
 51
131.0272216796875
  0
ARC
  5
2D9
330
1F
100
AcDbEntity
  8
仕上
  6
Continuous
 62
     6
370
     9
100
AcDbCircle
 10
-79.63476260912103
 20
342.9686318366698
 30
0.0
 40
2.730238437652588
100
AcDbArc
 50
234.0
 51
36.00022888183594
  0
ARC
  5
2DA
330
1F
100
AcDbEntity
  8
仕上
  6
Continuous
 62
     6
370
     9
100
AcDbCircle
 10
-78.55919118809061
 20
344.432089923663
 30
0.0
 40
2.999999845350111
100
AcDbArc
 50
314.0351867675782
 51
36.00015258789067
  0
ARC
  5
2DB
330
1F
100
AcDbEntity
  8
仕上
  6
Continuous
 62
     6
370
     9
100
AcDbCircle
 10
-46.23701794062436
 20
311.0026729578692
 30
0.0
 40
43.50000123719911
100
AcDbArc
 50
134.0354156494141
 51
136.2549285888672
  0
ARC
  5
2DC
330
1F
100
AcDbEntity
  8
仕上
  6
Continuous
 62
     6
370
     9
100
AcDbCircle
 10
-78.55919118809061
 20
344.432089923663
 30
0.0
 40
4.000000051549963
100
AcDbArc
 50
314.0351867675782
 51
36.00015258789067
  0
ARC
  5
2DD
330
1F
100
AcDbEntity
  8
仕上
  6
Continuous
 62
     6
370
     9
100
AcDbCircle
 10
-46.23701794062436
 20
311.0026729578692
 30
0.0
 40
42.49999793800148
100
AcDbArc
 50
134.0353851318359
 51
136.2549285888672
  0
ARC
  5
2DE
330
1F
100
AcDbEntity
  8
仕上
  6
Continuous
 62
     6
370
     9
100
AcDbCircle
 10
-79.63476260912103
 20
342.9686318366698
 30
0.0
 40
3.730238450540079
100
AcDbArc
 50
234.0
 51
316.2549896240234
  0
ARC
  5
2DF
330
1F
100
AcDbEntity
  8
仕上
  6
Continuous
 62
     6
370
     9
100
AcDbCircle
 10
-46.23701794062436
 20
311.0026729578692
 30
0.0
 40
100.0000020619985
100
AcDbArc
 50
129.8423004150391
 51
140.1576843261719
  0
ARC
  5
2E0
330
1F
100
AcDbEntity
  8
仕上
  6
Continuous
 62
     6
370
     9
100
AcDbCircle
 10
-108.3826181306581
 20
385.4803769802509
 30
0.0
 40
2.999999845350111
100
AcDbArc
 50
36.0
 51
129.8424682617188
  0
ARC
  5
2E1
330
1F
100
AcDbEntity
  8
仕上
  6
Continuous
 62
     6
370
     9
100
AcDbCircle
 10
-108.3826181306581
 20
385.4803769802509
 30
0.0
 40
4.000000051549963
100
AcDbArc
 50
36.0
 51
129.8424682617188
  0
ARC
  5
2E2
330
1F
100
AcDbEntity
  8
仕上
  6
Continuous
 62
     6
370
     9
100
AcDbCircle
 10
-46.23701794062436
 20
311.0026729578692
 30
0.0
 40
100.999992989205
100
AcDbArc
 50
129.8423004150391
 51
140.1576843261719
  0
ARC
  5
2E3
330
1F
100
AcDbEntity
  8
仕上
  6
Continuous
 62
     6
370
     9
100
AcDbCircle
 10
-97.86543590937436
 20
393.1217146069401
 30
0.0
 40
2.999999845350111
100
AcDbArc
 50
122.1576538085938
 51
216.0004119873047
  0
ARC
  5
2E4
330
1F
100
AcDbEntity
  8
仕上
  6
Continuous
 62
     6
370
     9
100
AcDbCircle
 10
-97.86543590937436
 20
393.1217146069401
 30
0.0
 40
4.000000051549963
100
AcDbArc
 50
122.1576538085938
 51
216.0004119873047
  0
ARC
  5
2E5
330
1F
100
AcDbEntity
  8
仕上
  6
Continuous
 62
     6
370
     9
100
AcDbCircle
 10
-84.18033112685748
 20
400.273715240386
 30
0.0
 40
2.999999845350111
100
AcDbArc
 50
18.00015258789062
 51
113.0272216796875
  0
ARC
  5
2E6
330
1F
100
AcDbEntity
  8
仕上
  6
Continuous
 62
     6
370
     9
100
AcDbCircle
 10
-68.12217946934061
 20
351.7246363763657
 30
0.0
 40
2.730238437652588
100
AcDbArc
 50
216.0
 51
18.00022888183594
  0
ARC
  5
2E7
330
1F
100
AcDbEntity
  8
仕上
  6
Continuous
 62
     6
370
     9
100
AcDbCircle
 10
-66.64704222271894
 20
352.7840747209604
 30
0.0
 40
2.999999845350111
100
AcDbArc
 50
296.0351867675781
 51
18.00015258789062
  0
ARC
  5
2E8
330
1F
100
AcDbEntity
  8
仕上
  6
Continuous
 62
     6
370
     9
100
AcDbCircle
 10
-46.23701794062436
 20
311.0026729578692
 30
0.0
 40
43.50000123719911
100
AcDbArc
 50
116.0354156494141
 51
118.2549285888672
  0
ARC
  5
2E9
330
1F
100
AcDbEntity
  8
仕上
  6
Continuous
 62
     6
370
     9
100
AcDbCircle
 10
-66.64704222271894
 20
352.7840747209604
 30
0.0
 40
4.000000051549963
100
AcDbArc
 50
296.0351867675781
 51
18.00015258789062
  0
ARC
  5
2EA
330
1F
100
AcDbEntity
  8
仕上
  6
Continuous
 62
     6
370
     9
100
AcDbCircle
 10
-46.23701794062436
 20
311.0026729578692
 30
0.0
 40
42.49999793800148
100
AcDbArc
 50
116.035385131836
 51
118.2549285888672
  0
ARC
  5
2EB
330
1F
100
AcDbEntity
  8
仕上
  6
Continuous
 62
     6
370
     9
100
AcDbCircle
 10
-68.12217946934061
 20
351.7246363763657
 30
0.0
 40
3.730238450540079
100
AcDbArc
 50
216.0
 51
298.2549896240234
  0
ARC
  5
2EC
330
1F
100
AcDbEntity
  8
仕上
  6
Continuous
 62
     6
370
     9
100
AcDbCircle
 10
-46.23701794062436
 20
311.0026729578692
 30
0.0
 40
100.0000020619985
100
AcDbArc
 50
111.8423004150391
 51
122.1576843261719
  0
ARC
  5
2ED
330
1F
100
AcDbEntity
  8
仕上
  6
Continuous
 62
     6
370
     9
100
AcDbCircle
 10
-82.32611607195884
 20
401.0391950756901
 30
0.0
 40
2.999999845350111
100
AcDbArc
 50
18.0
 51
111.8424682617188
  0
ARC
  5
2EE
330
1F
100
AcDbEntity
  8
仕上
  6
Continuous
 62
     6
370
     9
100
AcDbCircle
 10
-82.32611607195884
 20
401.0391950756901
 30
0.0
 40
4.000000051549963
100
AcDbArc
 50
18.0
 51
111.8424682617188
  0
ARC
  5
2EF
330
1F
100
AcDbEntity
  8
仕上
  6
Continuous
 62
     6
370
     9
100
AcDbCircle
 10
-46.23701794062436
 20
311.0026729578692
 30
0.0
 40
100.999992989205
100
AcDbArc
 50
111.8423004150391
 51
122.1576843261719
  0
ARC
  5
2F0
330
1F
100
AcDbEntity
  8
仕上
  6
Continuous
 62
     6
370
     9
100
AcDbCircle
 10
-69.96233994231352
 20
405.056430084136
 30
0.0
 40
2.999999845350111
100
AcDbArc
 50
104.1576538085938
 51
198.0004119873047
  0
ARC
  5
2F1
330
1F
100
AcDbEntity
  8
仕上
  6
Continuous
 62
     6
370
     9
100
AcDbCircle
 10
-69.96233994231352
 20
405.056430084136
 30
0.0
 40
4.000000051549963
100
AcDbArc
 50
104.1576538085938
 51
198.0004119873047
  0
ARC
  5
2F2
330
1F
100
AcDbEntity
  8
仕上
  6
Continuous
 62
     6
370
     9
100
AcDbCircle
 10
-54.73697175185748
 20
407.6295073117543
 30
0.0
 40
2.999999845350111
100
AcDbArc
 50
0.000152587890625
 51
95.0272216796875
  0
ARC
  5
2F3
330
1F
100
AcDbEntity
  8
仕上
  6
Continuous
 62
     6
370
     9
100
AcDbCircle
 10
-54.46726234518519
 20
356.4943853734097
 30
0.0
 40
2.730238437652588
100
AcDbArc
 50
198.0
 51
0.0002288818359711
  0
ARC
  5
2F4
330
1F
100
AcDbEntity
  8
仕上
  6
Continuous
 62
     6
370
     9
100
AcDbCircle
 10
-52.73696515346217
 20
357.046176177886
 30
0.0
 40
2.999999845350111
100
AcDbArc
 50
278.0351867675781
 51
0.0001525878906262
  0
ARC
  5
2F5
330
1F
100
AcDbEntity
  8
仕上
  6
Continuous
 62
     6
370
     9
100
AcDbCircle
 10
-46.23701794062436
 20
311.0026729578692
 30
0.0
 40
43.50000123719911
100
AcDbArc
 50
98.03541564941406
 51
100.2549285888672
  0
ARC
  5
2F6
330
1F
100
AcDbEntity
  8
仕上
  6
Continuous
 62
     6
370
     9
100
AcDbCircle
 10
-52.73696515346217
 20
357.046176177886
 30
0.0
 40
4.000000051549963
100
AcDbArc
 50
278.0351867675781
 51
0.0001525878906262
  0
ARC
  5
2F7
330
1F
100
AcDbEntity
  8
仕上
  6
Continuous
 62
     6
370
     9
100
AcDbCircle
 10
-46.23701794062436
 20
311.0026729578692
 30
0.0
 40
42.49999793800148
100
AcDbArc
 50
98.03538513183597
 51
100.2549285888672
  0
ARC
  5
2F8
330
1F
100
AcDbEntity
  8
仕上
  6
Continuous
 62
     6
370
     9
100
AcDbCircle
 10
-54.46726234518519
 20
356.4943853734097
 30
0.0
 40
3.730238450540079
100
AcDbArc
 50
198.0
 51
280.2549896240234
  0
ARC
  5
2F9
330
1F
100
AcDbEntity
  8
仕上
  6
Continuous
 62
     6
370
     9
100
AcDbCircle
 10
-46.23701794062436
 20
311.0026729578692
 30
0.0
 40
100.0000020619985
100
AcDbArc
 50
93.84230041503908
 51
104.1576843261719
  0
ARC
  5
2FA
330
1F
100
AcDbEntity
  8
仕上
  6
Continuous
 62
     6
370
     9
100
AcDbCircle
 10
-52.73696515346217
 20
407.784602592582
 30
0.0
 40
2.999999845350111
100
AcDbArc
 50
0.0
 51
93.84246826171875
  0
ARC
  5
2FB
330
1F
100
AcDbEntity
  8
仕上
  6
Continuous
 62
     6
370
     9
100
AcDbCircle
 10
-52.73696515346217
 20
407.784602592582
 30
0.0
 40
4.000000051549963
100
AcDbArc
 50
0.0
 51
93.84246826171875
  0
ARC
  5
2FC
330
1F
100
AcDbEntity
  8
仕上
  6
Continuous
 62
     6
370
     9
100
AcDbCircle
 10
-46.23701794062436
 20
311.0026729578692
 30
0.0
 40
100.999992989205
100
AcDbArc
 50
93.84230041503908
 51
104.1576843261719
  0
ARC
  5
2FD
330
1F
100
AcDbEntity
  8
仕上
  6
Continuous
 62
     6
370
     9
100
AcDbCircle
 10
-39.73697175185748
 20
407.784701568511
 30
0.0
 40
2.999999845350111
100
AcDbArc
 50
86.15765380859375
 51
180.0004119873047
  0
ARC
  5
2FE
330
1F
100
AcDbEntity
  8
仕上
  6
Continuous
 62
     6
370
     9
100
AcDbCircle
 10
-39.73697175185748
 20
407.784701568511
 30
0.0
 40
4.000000051549963
100
AcDbArc
 50
86.15765380859375
 51
180.0004119873047
  0
ARC
  5
2FF
330
1F
100
AcDbEntity
  8
仕上
  6
Continuous
 62
     6
370
     9
100
AcDbCircle
 10
-24.46162071722904
 20
405.5269616508591
 30
0.0
 40
2.999999845350111
100
AcDbArc
 50
342.0001525878906
 51
77.0272216796875
  0
ARC
  5
300
330
1F
100
AcDbEntity
  8
仕上
  6
Continuous
 62
     6
370
     9
100
AcDbCircle
 10
-40.00668115852977
 20
356.8112073223118
 30
0.0
 40
2.730238437652588
100
AcDbArc
 50
180.0
 51
342.0002288818359
  0
ARC
  5
301
330
1F
100
AcDbEntity
  8
仕上
  6
Continuous
 62
     6
370
     9
100
AcDbCircle
 10
-38.19067081224603
 20
356.8013097294063
 30
0.0
 40
2.999999845350111
100
AcDbArc
 50
260.0351867675781
 51
342.0001525878906
  0
ARC
  5
302
330
1F
100
AcDbEntity
  8
仕上
  6
Continuous
 62
     6
370
     9
100
AcDbCircle
 10
-46.23701794062436
 20
311.0026729578692
 30
0.0
 40
43.50000123719911
100
AcDbArc
 50
80.03541564941406
 51
82.25492858886719
  0
ARC
  5
303
330
1F
100
AcDbEntity
  8
仕上
  6
Continuous
 62
     6
370
     9
100
AcDbCircle
 10
-38.19067081224603
 20
356.8013097294063
 30
0.0
 40
4.000000051549963
100
AcDbArc
 50
260.0351867675781
 51
342.0001525878906
  0
ARC
  5
304
330
1F
100
AcDbEntity
  8
仕上
  6
Continuous
 62
     6
370
     9
100
AcDbCircle
 10
-46.23701794062436
 20
311.0026729578692
 30
0.0
 40
42.49999793800148
100
AcDbArc
 50
80.03538513183595
 51
82.25492858886719
  0
ARC
  5
305
330
1F
100
AcDbEntity
  8
仕上
  6
Continuous
 62
     6
370
     9
100
AcDbCircle
 10
-40.00668115852977
 20
356.8112073223118
 30
0.0
 40
3.730238450540079
100
AcDbArc
 50
180.0
 51
262.2549896240234
  0
ARC
  5
306
330
1F
100
AcDbEntity
  8
仕上
  6
Continuous
 62
     6
370
     9
100
AcDbCircle
 10
-46.23701794062436
 20
311.0026729578692
 30
0.0
 40
100.0000020619985
100
AcDbArc
 50
75.84230041503906
 51
86.15768432617188
  0
ARC
  5
307
330
1F
100
AcDbEntity
  8
仕上
  6
Continuous
 62
     6
370
     9
100
AcDbCircle
 10
-22.51159696300613
 20
405.056430084136
 30
0.0
 40
2.999999845350111
100
AcDbArc
 50
342.0
 51
75.84246826171875
  0
ARC
  5
308
330
1F
100
AcDbEntity
  8
仕上
  6
Continuous
 62
     6
370
     9
100
AcDbCircle
 10
-22.51159696300613
 20
405.056430084136
 30
0.0
 40
4.000000051549963
100
AcDbArc
 50
342.0
 51
75.84246826171875
  0
ARC
  5
309
330
1F
100
AcDbEntity
  8
仕上
  6
Continuous
 62
     6
370
     9
100
AcDbCircle
 10
-46.23701794062436
 20
311.0026729578692
 30
0.0
 40
100.999992989205
100
AcDbArc
 50
75.84230041503906
 51
86.15768432617188
  0
ARC
  5
30A
330
1F
100
AcDbEntity
  8
仕上
  6
Continuous
 62
     6
370
     9
100
AcDbCircle
 10
-10.14782083336081
 20
401.0391950756901
 30
0.0
 40
2.999999845350111
100
AcDbArc
 50
68.15765380859375
 51
162.0004119873047
  0
ARC
  5
30B
330
1F
100
AcDbEntity
  8
仕上
  6
Continuous
 62
     6
370
     9
100
AcDbCircle
 10
-10.14782083336081
 20
401.0391950756901
 30
0.0
 40
4.000000051549963
100
AcDbArc
 50
68.15765380859375
 51
162.0004119873047
  0
ARC
  5
30C
330
1F
100
AcDbEntity
  8
仕上
  6
Continuous
 62
     6
370
     9
100
AcDbCircle
 10
3.682184709291164
 20
394.1716512623455
 30
0.0
 40
2.999999845350111
100
AcDbArc
 50
324.0001525878906
 51
59.02722167968749
  0
ARC
  5
30D
330
1F
100
AcDbEntity
  8
仕上
  6
Continuous
 62
     6
370
     9
100
AcDbCircle
 10
-26.15598964670539
 20
352.6439248054198
 30
0.0
 40
2.730238437652588
100
AcDbArc
 50
162.0
 51
324.0002288818359
  0
ARC
  5
30E
330
1F
100
AcDbEntity
  8
仕上
  6
Continuous
 62
     6
370
     9
100
AcDbCircle
 10
-24.4319279385129
 20
352.0732295984942
 30
0.0
 40
2.999999845350111
100
AcDbArc
 50
242.0351867675781
 51
324.0001525878906
  0
ARC
  5
30F
330
1F
100
AcDbEntity
  8
仕上
  6
Continuous
 62
     6
370
     9
100
AcDbCircle
 10
-46.23701794062436
 20
311.0026729578692
 30
0.0
 40
43.50000123719911
100
AcDbArc
 50
62.03541564941408
 51
64.2549285888672
  0
ARC
  5
310
330
1F
100
AcDbEntity
  8
仕上
  6
Continuous
 62
     6
370
     9
100
AcDbCircle
 10
-24.4319279385129
 20
352.0732295984942
 30
0.0
 40
4.000000051549963
100
AcDbArc
 50
242.0351867675781
 51
324.0001525878906
  0
ARC
  5
311
330
1F
100
AcDbEntity
  8
仕上
  6
Continuous
 62
     6
370
     9
100
AcDbCircle
 10
-46.23701794062436
 20
311.0026729578692
 30
0.0
 40
42.49999793800148
100
AcDbArc
 50
62.03538513183594
 51
64.25492858886719
  0
ARC
  5
312
330
1F
100
AcDbEntity
  8
仕上
  6
Continuous
 62
     6
370
     9
100
AcDbCircle
 10
-26.15598964670539
 20
352.6439248054198
 30
0.0
 40
3.730238450540079
100
AcDbArc
 50
162.0
 51
244.2549896240234
  0
ARC
  5
313
330
1F
100
AcDbEntity
  8
仕上
  6
Continuous
 62
     6
370
     9
100
AcDbCircle
 10
-46.23701794062436
 20
311.0026729578692
 30
0.0
 40
100.0000020619985
100
AcDbArc
 50
57.84230041503906
 51
68.15768432617188
  0
ARC
  5
314
330
1F
100
AcDbEntity
  8
仕上
  6
Continuous
 62
     6
370
     9
100
AcDbCircle
 10
5.391400028125645
 20
393.1217146069401
 30
0.0
 40
2.999999845350111
100
AcDbArc
 50
324.0
 51
57.84246826171875
  0
ARC
  5
315
330
1F
100
AcDbEntity
  8
仕上
  6
Continuous
 62
     6
370
     9
100
AcDbCircle
 10
5.391400028125645
 20
393.1217146069401
 30
0.0
 40
4.000000051549963
100
AcDbArc
 50
324.0
 51
57.84246826171875
  0
ARC
  5
316
330
1F
100
AcDbEntity
  8
仕上
  6
Continuous
 62
     6
370
     9
100
AcDbCircle
 10
-46.23701794062436
 20
311.0026729578692
 30
0.0
 40
100.999992989205
100
AcDbArc
 50
57.84230041503906
 51
68.15768432617188
  0
ARC
  5
317
330
1F
100
AcDbEntity
  8
仕上
  6
Continuous
 62
     6
370
     9
100
AcDbCircle
 10
15.90868122533846
 20
385.4803769802509
 30
0.0
 40
2.999999845350111
100
AcDbArc
 50
50.15765380859374
 51
144.0004119873047
  0
ARC
  5
318
330
1F
100
AcDbEntity
  8
仕上
  6
Continuous
 62
     6
370
     9
100
AcDbCircle
 10
15.90868122533846
 20
385.4803769802509
 30
0.0
 40
4.000000051549963
100
AcDbArc
 50
50.15765380859374
 51
144.0004119873047
  0
ARC
  5
319
330
1F
100
AcDbEntity
  8
仕上
  6
Continuous
 62
     6
370
     9
100
AcDbCircle
 10
26.9396474943419
 20
374.6751748054198
 30
0.0
 40
2.999999845350111
100
AcDbArc
 50
306.0001525878906
 51
41.0272216796875
  0
ARC
  5
31A
330
1F
100
AcDbEntity
  8
仕上
  6
Continuous
 62
     6
370
     9
100
AcDbCircle
 10
-14.27105906182373
 20
344.4005166022948
 30
0.0
 40
2.730238437652588
100
AcDbArc
 50
144.0
 51
306.0002288818359
  0
ARC
  5
31B
330
1F
100
AcDbEntity
  8
仕上
  6
Continuous
 62
     6
370
     9
100
AcDbCircle
 10
-12.80769995075946
 20
343.3249451812644
 30
0.0
 40
2.999999845350111
100
AcDbArc
 50
224.0351867675781
 51
306.0001525878906
  0
ARC
  5
31C
330
1F
100
AcDbEntity
  8
仕上
  6
Continuous
 62
     6
370
     9
100
AcDbCircle
 10
-46.23701794062436
 20
311.0026729578692
 30
0.0
 40
43.50000123719911
100
AcDbArc
 50
44.03541564941406
 51
46.25492858886719
  0
ARC
  5
31D
330
1F
100
AcDbEntity
  8
仕上
  6
Continuous
 62
     6
370
     9
100
AcDbCircle
 10
-12.80769995075946
 20
343.3249451812644
 30
0.0
 40
4.000000051549963
100
AcDbArc
 50
224.0351867675781
 51
306.0001525878906
  0
ARC
  5
31E
330
1F
100
AcDbEntity
  8
仕上
  6
Continuous
 62
     6
370
     9
100
AcDbCircle
 10
-46.23701794062436
 20
311.0026729578692
 30
0.0
 40
42.49999793800148
100
AcDbArc
 50
44.03538513183594
 51
46.25492858886719
  0
ARC
  5
31F
330
1F
100
AcDbEntity
  8
仕上
  6
Continuous
 62
     6
370
     9
100
AcDbCircle
 10
-14.27105906182373
 20
344.4005166022948
 30
0.0
 40
3.730238450540079
100
AcDbArc
 50
144.0
 51
226.2549896240234
  0
ARC
  5
320
330
1F
100
AcDbEntity
  8
仕上
  6
Continuous
 62
     6
370
     9
100
AcDbCircle
 10
-46.23701794062436
 20
311.0026729578692
 30
0.0
 40
100.0000020619985
100
AcDbArc
 50
39.84230041503906
 51
50.15768432617187
  0
ARC
  5
321
330
1F
100
AcDbEntity
  8
仕上
  6
Continuous
 62
     6
370
     9
100
AcDbCircle
 10
28.24068608175742
 20
373.148372123832
 30
0.0
 40
2.999999845350111
100
AcDbArc
 50
306.0
 51
39.84246826171875
  0
ARC
  5
322
330
1F
100
AcDbEntity
  8
仕上
  6
Continuous
 62
     6
370
     9
100
AcDbCircle
 10
28.24068608175742
 20
373.148372123832
 30
0.0
 40
4.000000051549963
100
AcDbArc
 50
306.0
 51
39.84246826171875
  0
ARC
  5
323
330
1F
100
AcDbEntity
  8
仕上
  6
Continuous
 62
     6
370
     9
100
AcDbCircle
 10
-46.23701794062436
 20
311.0026729578692
 30
0.0
 40
100.999992989205
100
AcDbArc
 50
39.84230041503906
 51
50.15768432617187
  0
ARC
  5
324
330
1F
100
AcDbEntity
  8
仕上
  6
Continuous
 62
     6
370
     9
100
AcDbCircle
 10
35.88192473251752
 20
362.6311899025482
 30
0.0
 40
2.999999845350111
100
AcDbArc
 50
32.15765380859375
 51
126.0004119873047
  0
ARC
  5
325
330
1F
100
AcDbEntity
  8
仕上
  6
Continuous
 62
     6
370
     9
100
AcDbCircle
 10
35.88192473251752
 20
362.6311899025482
 30
0.0
 40
4.000000051549963
100
AcDbArc
 50
32.15765380859375
 51
126.0004119873047
  0
ARC
  5
326
330
1F
100
AcDbEntity
  8
仕上
  6
Continuous
 62
     6
370
     9
100
AcDbCircle
 10
43.03392536596346
 20
348.9460851200313
 30
0.0
 40
2.999999845350111
100
AcDbArc
 50
288.0001525878907
 51
23.02722167968755
  0
ARC
  5
327
330
1F
100
AcDbEntity
  8
仕上
  6
Continuous
 62
     6
370
     9
100
AcDbCircle
 10
-5.515153498056748
 20
332.8879334625144
 30
0.0
 40
2.730238437652588
100
AcDbArc
 50
126.0
 51
288.0002288818359
  0
ARC
  5
328
330
1F
100
AcDbEntity
  8
仕上
  6
Continuous
 62
     6
370
     9
100
AcDbCircle
 10
-4.455715153462165
 20
331.4127962158928
 30
0.0
 40
2.999999845350111
100
AcDbArc
 50
206.0351867675781
 51
288.0001525878906
  0
ARC
  5
329
330
1F
100
AcDbEntity
  8
仕上
  6
Continuous
 62
     6
370
     9
100
AcDbCircle
 10
-46.23701794062436
 20
311.0026729578692
 30
0.0
 40
43.50000123719911
100
AcDbArc
 50
26.03541564941406
 51
28.25492858886718
  0
ARC
  5
32A
330
1F
100
AcDbEntity
  8
仕上
  6
Continuous
 62
     6
370
     9
100
AcDbCircle
 10
-4.455715153462165
 20
331.4127962158928
 30
0.0
 40
4.000000051549963
100
AcDbArc
 50
206.0351867675781
 51
288.0001525878906
  0
ARC
  5
32B
330
1F
100
AcDbEntity
  8
仕上
  6
Continuous
 62
     6
370
     9
100
AcDbCircle
 10
-46.23701794062436
 20
311.0026729578692
 30
0.0
 40
42.49999793800148
100
AcDbArc
 50
26.03538513183593
 51
28.25492858886718
  0
ARC
  5
32C
330
1F
100
AcDbEntity
  8
仕上
  6
Continuous
 62
     6
370
     9
100
AcDbCircle
 10
-5.515153498056748
 20
332.8879334625144
 30
0.0
 40
3.730238450540079
100
AcDbArc
 50
126.0
 51
208.2549896240235
  0
ARC
  5
32D
330
1F
100
AcDbEntity
  8
仕上
  6
Continuous
 62
     6
370
     9
100
AcDbCircle
 10
-46.23701794062436
 20
311.0026729578692
 30
0.0
 40
100.0000020619985
100
AcDbArc
 50
21.84230041503906
 51
32.15768432617188
  0
ARC
  5
32E
330
1F
100
AcDbEntity
  8
仕上
  6
Continuous
 62
     6
370
     9
100
AcDbCircle
 10
43.79960315312564
 20
347.0918700651327
 30
0.0
 40
2.999999845350111
100
AcDbArc
 50
288.0
 51
21.84246826171875
  0
ARC
  5
32F
330
1F
100
AcDbEntity
  8
仕上
  6
Continuous
 62
     6
370
     9
100
AcDbCircle
 10
43.79960315312564
 20
347.0918700651327
 30
0.0
 40
4.000000051549963
100
AcDbArc
 50
288.0
 51
21.84246826171875
  0
ARC
  5
330
330
1F
100
AcDbEntity
  8
仕上
  6
Continuous
 62
     6
370
     9
100
AcDbCircle
 10
-46.23701794062436
 20
311.0026729578692
 30
0.0
 40
100.999992989205
100
AcDbArc
 50
21.84230041503906
 51
32.15768432617188
  0
ARC
  5
331
330
1F
100
AcDbEntity
  8
仕上
  6
Continuous
 62
     6
370
     9
100
AcDbCircle
 10
47.81683816157158
 20
334.7280939354874
 30
0.0
 40
2.999999845350111
100
AcDbArc
 50
14.15765380859375
 51
108.0004119873047
  0
ARC
  5
332
330
1F
100
AcDbEntity
  8
仕上
  6
Continuous
 62
     6
370
     9
100
AcDbCircle
 10
47.81683816157158
 20
334.7280939354874
 30
0.0
 40
4.000000051549963
100
AcDbArc
 50
14.15765380859375
 51
108.0004119873047
  0
ARC
  5
333
330
1F
100
AcDbEntity
  8
仕上
  6
Continuous
 62
     6
370
     9
100
AcDbCircle
 10
50.38991538918981
 20
319.5027257450313
 30
0.0
 40
2.999999845350111
100
AcDbArc
 50
270.0001525878906
 51
5.027221679687496
  0
ARC
  5
334
330
1F
100
AcDbEntity
  8
仕上
  6
Continuous
 62
     6
370
     9
100
AcDbCircle
 10
-0.7453055250838361
 20
319.2330163383591
 30
0.0
 40
2.730238437652588
100
AcDbArc
 50
108.0
 51
270.0002288818359
  0
ARC
  5
335
330
1F
100
AcDbEntity
  8
仕上
  6
Continuous
 62
     6
370
     9
100
AcDbCircle
 10
-0.1936136965365449
 20
317.502719146636
 30
0.0
 40
2.999999845350111
100
AcDbArc
 50
188.0351867675782
 51
270.0001525878906
  0
ARC
  5
336
330
1F
100
AcDbEntity
  8
仕上
  6
Continuous
 62
     6
370
     9
100
AcDbCircle
 10
-46.23701794062436
 20
311.0026729578692
 30
0.0
 40
43.50000123719911
100
AcDbArc
 50
8.035415649414062
 51
10.25492858886719
  0
ARC
  5
337
330
1F
100
AcDbEntity
  8
仕上
  6
Continuous
 62
     6
370
     9
100
AcDbCircle
 10
-0.1936136965365449
 20
317.502719146636
 30
0.0
 40
4.000000051549963
100
AcDbArc
 50
188.0351867675782
 51
270.0001525878906
  0
ARC
  5
338
330
1F
100
AcDbEntity
  8
仕上
  6
Continuous
 62
     6
370
     9
100
AcDbCircle
 10
-46.23701794062436
 20
311.0026729578692
 30
0.0
 40
42.49999793800148
100
AcDbArc
 50
8.035385131835938
 51
10.25492858886719
  0
ARC
  5
339
330
1F
100
AcDbEntity
  8
仕上
  6
Continuous
 62
     6
370
     9
100
AcDbCircle
 10
-0.7453055250838361
 20
319.2330163383591
 30
0.0
 40
3.730238450540079
100
AcDbArc
 50
108.0
 51
190.2549896240234
  0
ARC
  5
33A
330
1F
100
AcDbEntity
  8
仕上
  6
Continuous
 62
     6
370
     9
100
AcDbCircle
 10
-46.23701794062436
 20
311.0026729578692
 30
0.0
 40
100.0000020619985
100
AcDbArc
 50
3.842300415039063
 51
14.15768432617188
  0
ARC
  5
33B
330
1F
100
AcDbEntity
  8
仕上
  6
Continuous
 62
     6
370
     9
100
AcDbCircle
 10
50.54501067001752
 20
317.502719146636
 30
0.0
 40
2.999999845350111
100
AcDbArc
 50
270.0
 51
3.842468261718752
  0
ARC
  5
33C
330
1F
100
AcDbEntity
  8
仕上
  6
Continuous
 62
     6
370
     9
100
AcDbCircle
 10
50.54501067001752
 20
317.502719146636
 30
0.0
 40
4.000000051549963
100
AcDbArc
 50
270.0
 51
3.842468261718752
  0
ARC
  5
33D
330
1F
100
AcDbEntity
  8
仕上
  6
Continuous
 62
     6
370
     9
100
AcDbCircle
 10
-46.23701794062436
 20
311.0026729578692
 30
0.0
 40
100.999992989205
100
AcDbArc
 50
3.842300415039063
 51
14.15768432617188
  0
ARC
  5
33E
330
1F
100
AcDbEntity
  8
仕上
  6
Continuous
 62
     6
370
     9
100
AcDbCircle
 10
-162.9302321509284
 20
335.8870030887813
 30
0.0
 40
1.499999922675056
100
AcDbArc
 50
347.9622192382813
 51
73.6361999511719
  0
ARC
  5
33F
330
1F
100
AcDbEntity
  8
仕上
  6
Continuous
 62
     6
370
     9
100
AcDbCircle
 10
-157.8591014499149
 20
353.1579068049975
 30
0.0
 40
1.499999922675056
100
AcDbArc
 50
253.6355285644532
 51
339.3097686767578
  0
ARC
  5
340
330
1F
100
AcDbEntity
  8
仕上
  6
Continuous
 62
     6
370
     9
100
AcDbCircle
 10
-151.1926767244081
 20
367.7552727256056
 30
0.0
 40
1.499999922675056
100
AcDbArc
 50
331.5977478027344
 51
57.27172851562497
  0
ARC
  5
341
330
1F
100
AcDbEntity
  8
仕上
  6
Continuous
 62
     6
370
     9
100
AcDbCircle
 10
-46.23701794062436
 20
311.0026729578692
 30
0.0
 40
117.8169250488281
100
AcDbArc
 50
151.5986785888672
 51
159.3105163574219
  0
ARC
  5
342
330
1F
100
AcDbEntity
  8
仕上
  6
Continuous
 62
     6
370
     9
100
AcDbCircle
 10
-187.6300711500838
 20
316.5027653354029
 30
0.0
 40
1.499999922675056
100
AcDbArc
 50
177.7718963623047
 51
270.0
  0
ARC
  5
343
330
1F
100
AcDbEntity
  8
仕上
  6
Continuous
 62
     6
370
     9
100
AcDbCircle
 10
-165.0458426344588
 20
322.0027587370077
 30
0.0
 40
1.499999922675056
100
AcDbArc
 50
270.0
 51
354.7104797363281
  0
ARC
  5
344
330
1F
100
AcDbEntity
  8
仕上
  6
Continuous
 62
     6
370
     9
100
AcDbCircle
 10
-46.23701794062436
 20
311.0026729578692
 30
0.0
 40
117.8169250488281
100
AcDbArc
 50
167.9623107910156
 51
174.7103118896484
  0
ARC
  5
345
330
1F
100
AcDbEntity
  8
仕上
  6
Continuous
 62
     6
370
     9
100
AcDbCircle
 10
-46.23701794062436
 20
311.0026729578692
 30
0.0
 40
128.0000016495988
100
AcDbArc
 50
0.0
 51
180.0
  0
TEXT
  5
346
330
1F
100
AcDbEntity
  8
その他
  6
Continuous
 62
     2
370
     9
100
AcDbText
 10
-59.23701794062436
 20
-164.9978660518437
 30
0.0
 40
12.192
  1
PT8
 41
1.083333333333333
  7
ＭＳ ゴシック
100
AcDbText
  0
TEXT
  5
347
330
1F
100
AcDbEntity
  8
その他
  6
Continuous
 62
     2
370
     9
100
AcDbText
 10
-68.23704268460659
 20
121.8586749373877
 30
0.0
 40
12.192
  1
φ360
 41
1.1
  7
ＭＳ ゴシック
100
AcDbText
  0
TEXT
  5
348
330
1F
100
AcDbEntity
  8
その他
  6
Continuous
 62
     2
370
     9
100
AcDbText
 10
-68.23709217257118
 20
89.85866833899249
 30
0.0
 40
12.192
  1
φ340
 41
1.1
  7
ＭＳ ゴシック
100
AcDbText
  0
TEXT
  5
349
330
1F
100
AcDbEntity
  8
その他
  6
Continuous
 62
     2
370
     9
100
AcDbText
 10
-68.23704268460659
 20
57.85866174059717
 30
0.0
 40
12.192
  1
φ286
 41
1.1
  7
ＭＳ ゴシック
100
AcDbText
  0
TEXT
  5
34A
330
1F
100
AcDbEntity
  8
その他
  6
Continuous
 62
     2
370
     9
100
AcDbText
 10
-272.4930146414267
 20
-29.39736795218155
 30
0.0
 40
12.192
  1
65
 50
90.0
 41
1.0625
  7
ＭＳ ゴシック
100
AcDbText
  0
TEXT
  5
34B
330
1F
100
AcDbEntity
  8
その他
  6
Continuous
 62
     2
370
     9
100
AcDbText
 10
167.5070018545615
 20
-28.32555761645523
 30
0.0
 40
12.192
  1
63
 50
90.0
 41
1.0625
  7
ＭＳ ゴシック
100
AcDbText
  0
TEXT
  5
34C
330
1F
100
AcDbEntity
  8
その他
  6
Continuous
 62
     2
370
     9
100
AcDbText
 10
167.5070018545615
 20
-99.75381326468155
 30
0.0
 40
12.192
  1
80
 50
90.0
 41
1.0625
  7
ＭＳ ゴシック
100
AcDbText
  0
LINE
  5
34D
330
1F
100
AcDbEntity
  8
通り芯
  6
JWW_CENTER1
 62
     3
370
     9
100
AcDbLine
 10
-246.9612191833941
 20
311.0026729578692
 30
0.0
 11
163.0519942284012
 21
311.0026729578692
 31
0.0
  0
LINE
  5
34E
330
1F
100
AcDbEntity
  8
通り芯
  6
JWW_CENTER1
 62
     3
370
     9
100
AcDbLine
 10
-46.23701794062436
 20
297.0375944053904
 30
0.0
 11
-46.23701794062436
 21
515.185650259102
 31
0.0
  0
LINE
  5
34F
330
1F
100
AcDbEntity
  8
寸法
  6
Continuous
 62
     7
370
     9
100
AcDbLine
 10
-203.2369915470433
 20
-102.253800067891
 30
0.0
 11
-207.0638463559537
 21
-111.4926091895126
 31
0.0
  0
LINE
  5
350
330
1F
100
AcDbEntity
  8
寸法
  6
Continuous
 62
     7
370
     9
100
AcDbLine
 10
-203.2369915470433
 20
-102.253800067891
 30
0.0
 11
-209.324605039442
 21
-110.1873146371478
 31
0.0
  0
LINE
  5
351
330
1F
100
AcDbEntity
  8
寸法
  6
Continuous
 62
     7
370
     9
100
AcDbLine
 10
-225.2370641293912
 20
-63.25381986307684
 30
0.0
 11
-229.0639189383018
 21
-72.49262898469846
 31
0.0
  0
LINE
  5
352
330
1F
100
AcDbEntity
  8
寸法
  6
Continuous
 62
     7
370
     9
100
AcDbLine
 10
-225.2370641293912
 20
-63.25381986307684
 30
0.0
 11
-231.3246776217899
 21
-71.18733443233361
 31
0.0
  0
LINE
  5
353
330
1F
100
AcDbEntity
  8
寸法
  6
Continuous
 62
     7
370
     9
100
AcDbLine
 10
-225.2370641293912
 20
-63.25381986307684
 30
0.0
 11
-247.7537415734369
 21
-102.253800067891
 31
0.0
  0
LINE
  5
354
330
1F
100
AcDbEntity
  8
寸法
  6
Continuous
 62
     7
370
     9
100
AcDbLine
 10
-203.2369915470433
 20
-102.253800067891
 30
0.0
 11
-230.9498062904977
 21
-150.2538099654839
 31
0.0
  0
LINE
  5
355
330
1F
100
AcDbEntity
  8
寸法
  6
Continuous
 62
     7
370
     9
100
AcDbLine
 10
-247.7537415734369
 20
-102.253800067891
 30
0.0
 11
-363.5336553983947
 21
-102.253800067891
 31
0.0
  0
LINE
  5
356
330
1F
100
AcDbEntity
  8
寸法
  6
Continuous
 62
     7
370
     9
100
AcDbLine
 10
93.76294906739929
 20
-42.39741414094846
 30
0.0
 11
95.06824361976419
 21
-32.48294583963934
 31
0.0
  0
LINE
  5
357
330
1F
100
AcDbEntity
  8
寸法
  6
Continuous
 62
     7
370
     9
100
AcDbLine
 10
93.76294906739929
 20
-42.39741414094846
 30
0.0
 11
97.58975438834523
 21
-33.15860501932684
 31
0.0
  0
LINE
  5
358
330
1F
100
AcDbEntity
  8
寸法
  6
Continuous
 62
     7
370
     9
100
AcDbLine
 10
-152.237021239822
 20
-35.25372748554304
 30
0.0
 11
-158.3246347322206
 21
-27.32021291628627
 31
0.0
  0
LINE
  5
359
330
1F
100
AcDbEntity
  8
寸法
  6
Continuous
 62
     7
370
     9
100
AcDbLine
 10
-152.237021239822
 20
-35.25372748554304
 30
0.0
 11
-156.0638760487325
 21
-26.01491836392142
 31
0.0
  0
LINE
  5
35A
330
1F
100
AcDbEntity
  8
寸法
  6
Continuous
 62
     7
370
     9
100
AcDbLine
 10
-91.23701794062436
 20
10.154746173663
 30
0.0
 11
-97.324631433023
 21
18.08826074291977
 31
0.0
  0
LINE
  5
35B
330
1F
100
AcDbEntity
  8
寸法
  6
Continuous
 62
     7
370
     9
100
AcDbLine
 10
-91.23701794062436
 20
10.154746173663
 30
0.0
 11
-95.06387274953488
 21
19.39355529528467
 31
0.0
  0
LINE
  5
35C
330
1F
100
AcDbEntity
  8
寸法
  6
Continuous
 62
     7
370
     9
100
AcDbLine
 10
93.76294906739929
 20
-42.39741414094846
 30
0.0
 11
141.457865663683
 21
135.6026782365853
 31
0.0
  0
LINE
  5
35D
330
1F
100
AcDbEntity
  8
寸法
  6
Continuous
 62
     7
370
     9
100
AcDbLine
 10
-152.237021239822
 20
-35.25372748554304
 30
0.0
 11
-239.3340077527021
 21
115.6026617405972
 31
0.0
  0
LINE
  5
35E
330
1F
100
AcDbEntity
  8
寸法
  6
Continuous
 62
     7
370
     9
100
AcDbLine
 10
-91.23701794062436
 20
10.154746173663
 30
0.0
 11
-179.8302235730146
 21
163.6026716381901
 31
0.0
  0
LINE
  5
35F
330
1F
100
AcDbEntity
  8
寸法
  6
Continuous
 62
     7
370
     9
100
AcDbLine
 10
-352.1815122396108
 20
163.6026716381901
 30
0.0
 11
-179.8302235730146
 21
163.6026716381901
 31
0.0
  0
TEXT
  5
360
330
1F
100
AcDbEntity
  8
寸法
  6
Continuous
 62
     7
370
     9
100
AcDbText
 10
-349.1574000536945
 20
171.4035649553353
 30
0.0
 40
9.144
  1
ストレーナー：ＦＣ１５０
 41
1.152777777777778
  7
ＭＳ ゴシック
100
AcDbText
  0
TEXT
  5
361
330
1F
100
AcDbEntity
  8
寸法
  6
Continuous
 62
     7
370
     9
100
AcDbText
 10
-359.3441940254006
 20
-95.57549173807683
 30
0.0
 40
9.144
  1
本体：ＦＣ１５０
 41
1.145833333333333
  7
ＭＳ ゴシック
100
AcDbText
  0
TEXT
  5
362
330
1F
100
AcDbEntity
  8
寸法
  6
Continuous
 62
     7
370
     9
100
AcDbText
 10
-342.1453645807214
 20
-115.2837766831782
 30
0.0
 40
9.144
  1
樹脂系塗装
 41
1.133333333333333
  7
ＭＳ ゴシック
100
AcDbText
  0
LINE
  5
363
330
1F
100
AcDbEntity
  8
通り芯
  6
Continuous
 62
     3
370
     9
100
AcDbLine
 10
51.65344209949387
 20
-75.17398587870184
 30
0.0
 11
-140.3798534030399
 21
-75.17398587870184
 31
0.0
  0
TEXT
  5
364
330
1F
100
AcDbEntity
  8
F-4ﾚｲﾔ
  6
Continuous
 62
     6
370
     9
100
AcDbText
 10
-41.00537968212657
 20
-442.7661662404759
 30
0.0
 40
12.192
  1
鋳鉄製ルーフドレン　たて引き用　後付型　ねじ込み式
 41
0.7979999999999998
  7
ＭＳ ゴシック
100
AcDbText
  0
TEXT
  5
365
330
1F
100
AcDbEntity
  8
F-4ﾚｲﾔ
  6
Continuous
 62
     6
370
     9
100
AcDbText
 10
-2.379540849521362
 20
-460.7661637660776
 30
0.0
 40
12.192
  1
アスファルト・シート防水用　　ＥＳＲ－４－２００
 41
0.7979166666666669
  7
ＭＳ ゴシック
100
AcDbText
  0
TEXT
  5
366
330
1F
100
AcDbEntity
  8
寸法
  6
Continuous
 62
     7
370
     9
100
AcDbText
 10
-377.985124871971
 20
122.5420190832914
 30
0.0
 40
9.144
  1
ボルト：Ｃ３６０２Ｗ
 41
1.15
  7
ＭＳ ゴシック
100
AcDbText
  0
LINE
  5
367
330
1F
100
AcDbEntity
  8
寸法
  6
Continuous
 62
     7
370
     9
100
AcDbLine
 10
-239.3340077527021
 20
115.6026617405972
 30
0.0
 11
-379.4657205578664
 21
115.6026617405972
 31
0.0
  0
LINE
  5
368
330
1F
100
AcDbEntity
  8
寸法
  6
Continuous
 62
     7
370
     9
100
AcDbLine
 10
-372.712975857216
 20
-150.2538099654839
 30
0.0
 11
-230.9498062904977
 21
-150.2538099654839
 31
0.0
  0
TEXT
  5
369
330
1F
100
AcDbEntity
  8
寸法
  6
Continuous
 62
     7
370
     9
100
AcDbText
 10
-371.8702478704635
 20
-143.1096714255768
 30
0.0
 40
9.144
  1
アンカー：ＳＷＲＭ８
 41
1.15
  7
ＭＳ ゴシック
100
AcDbText
  0
TEXT
  5
36A
330
1F
100
AcDbEntity
  8
寸法
  6
Continuous
 62
     7
370
     9
100
AcDbText
 10
140.3103996471151
 20
141.4985818472273
 30
0.0
 40
9.144
  1
丸小ねじ：Ｃ２７００Ｗ
 41
1.151515151515151
  7
ＭＳ ゴシック
100
AcDbText
  0
LINE
  5
36B
330
1F
100
AcDbEntity
  8
寸法
  6
Continuous
 62
     7
370
     9
100
AcDbLine
 10
141.457865663683
 20
135.6026782365853
 30
0.0
 11
290.3891653908906
 21
135.6026782365853
 31
0.0
  0
LINE
  5
36C
330
1F
100
AcDbEntity
  8
寸法
  6
Continuous
 62
     7
370
     9
100
AcDbLine
 10
101.7843542616561
 20
-45.89745371843258
 30
0.0
 11
103.089648814021
 21
-35.98298541712347
 31
0.0
  0
LINE
  5
36D
330
1F
100
AcDbEntity
  8
寸法
  6
Continuous
 62
     7
370
     9
100
AcDbLine
 10
101.7843542616561
 20
-45.89745371843258
 30
0.0
 11
105.611159582602
 21
-36.65864459681097
 31
0.0
  0
LINE
  5
36E
330
1F
100
AcDbEntity
  8
寸法
  6
Continuous
 62
     7
370
     9
100
AcDbLine
 10
101.7843542616561
 20
-45.89745371843258
 30
0.0
 11
137.1242909276035
 21
85.99316356477232
 31
0.0
  0
TEXT
  5
36F
330
1F
100
AcDbEntity
  8
寸法
  6
Continuous
 62
     7
370
     9
100
AcDbText
 10
137.552146104093
 20
92.04235451508771
 30
0.0
 40
9.144
  1
防水層押え：ＦＣ１５０
 41
1.151515151515152
  7
ＭＳ ゴシック
100
AcDbText
  0
LINE
  5
370
330
1F
100
AcDbEntity
  8
寸法
  6
Continuous
 62
     7
370
     9
100
AcDbLine
 10
137.1242909276035
 20
85.99316356477232
 30
0.0
 11
288.9368234389377
 21
85.99316356477232
 31
0.0
  0
TEXT
  5
371
330
1F
100
AcDbEntity
  8
寸法
  6
Continuous
 62
     7
370
     9
100
AcDbText
 10
179.0305571832706
 20
71.69404071418356
 30
0.0
 40
9.144
  1
樹脂系塗装
 41
1.133333333333333
  7
ＭＳ ゴシック
100
AcDbText
  0
TEXT
  5
372
330
1F
100
AcDbEntity
  8
寸法
  6
Continuous
 62
     7
370
     9
100
AcDbText
 10
181.9235155272868
 20
121.2647347188488
 30
0.0
 40
9.144
  1
Ｍ６×１２
 41
1.133333333333333
  7
ＭＳ ゴシック
100
AcDbText
  0
TEXT
  5
373
330
1F
100
AcDbEntity
  8
寸法
  6
Continuous
 62
     7
370
     9
100
AcDbText
 10
-300.0058679063127
 20
149.2267708516613
 30
0.0
 40
9.144
  1
樹脂系塗装
 41
1.133333333333333
  7
ＭＳ ゴシック
100
AcDbText
  0
TEXT
  5
374
330
1F
100
AcDbEntity
  8
寸法
  6
Continuous
 62
     7
370
     9
100
AcDbText
 10
-350.3998641552843
 20
102.7068964851073
 30
0.0
 40
9.144
  1
Ｍ１０×４０
 41
1.138888888888889
  7
ＭＳ ゴシック
100
AcDbText
  0
TEXT
  5
375
330
1F
100
AcDbEntity
  8
寸法
  6
Continuous
 62
     7
370
     9
100
AcDbText
 10
-335.8313910738568
 20
-164.1344352030262
 30
0.0
 40
9.144
  1
樹脂系塗装
 41
1.133333333333333
  7
ＭＳ ゴシック
100
AcDbText
  0
ENDSEC
  0
SECTION
  2
OBJECTS
  0
DICTIONARY
  5
C
330
0
100
AcDbDictionary
281
     1
  3
ACAD_DETAILVIEWSTYLE
350
3BB
  3
ACAD_GROUP
350
D
  3
ACAD_LAYOUT
350
1A
  3
ACAD_MATERIAL
350
43
  3
ACAD_MLEADERSTYLE
350
6B
  3
ACAD_MLINESTYLE
350
17
  3
ACAD_PLOTSETTINGS
350
19
  3
ACAD_PLOTSTYLENAME
350
E
  3
ACAD_SCALELIST
350
47
  3
ACAD_SECTIONVIEWSTYLE
350
3BC
  3
ACAD_TABLESTYLE
350
69
  3
ACAD_VISUALSTYLE
350
2A
  3
ACDB_RECOMPOSE_DATA
350
3B8
  3
AcDbVariableDictionary
350
378
  0
DICTIONARY
  5
376
330
8
100
AcDbDictionary
280
     1
281
     1
  3
ACAD_XREC_ROUNDTRIP
360
377
  0
DICTIONARY
  5
3BB
102
{ACAD_REACTORS
330
C
102
}
330
C
100
AcDbDictionary
281
     1
  0
DICTIONARY
  5
D
102
{ACAD_REACTORS
330
C
102
}
330
C
100
AcDbDictionary
281
     1
  0
DICTIONARY
  5
1A
102
{ACAD_REACTORS
330
C
102
}
330
C
100
AcDbDictionary
281
     1
  3
Layout1
350
1E
  3
Layout2
350
26
  3
Model
350
22
  0
DICTIONARY
  5
43
102
{ACAD_REACTORS
330
C
102
}
330
C
100
AcDbDictionary
281
     1
  3
ByBlock
350
45
  3
ByLayer
350
44
  3
Global
350
46
  0
DICTIONARY
  5
6B
102
{ACAD_REACTORS
330
C
102
}
330
C
100
AcDbDictionary
281
     1
  3
Standard
350
6C
  0
DICTIONARY
  5
17
102
{ACAD_REACTORS
330
C
102
}
330
C
100
AcDbDictionary
281
     1
  3
Standard
350
18
  0
DICTIONARY
  5
19
102
{ACAD_REACTORS
330
C
102
}
330
C
100
AcDbDictionary
281
     1
  0
ACDBDICTIONARYWDFLT
  5
E
102
{ACAD_REACTORS
330
C
102
}
330
C
100
AcDbDictionary
281
     1
  3
Normal
350
F
100
AcDbDictionaryWithDefault
340
F
  0
DICTIONARY
  5
47
102
{ACAD_REACTORS
330
C
102
}
330
C
100
AcDbDictionary
281
     1
  3
A0
350
48
  3
A1
350
49
  3
A2
350
4A
  3
A3
350
4B
  3
A4
350
4C
  3
A5
350
4D
  3
A6
350
4E
  3
A7
350
4F
  3
A8
350
50
  3
A9
350
51
  3
B0
350
52
  3
B1
350
53
  3
B2
350
54
  3
B3
350
55
  3
B4
350
56
  3
B5
350
57
  3
B6
350
58
  3
B7
350
59
  3
B8
350
5A
  3
B9
350
5B
  3
C0
350
5C
  3
C1
350
5D
  3
C2
350
5E
  3
C3
350
5F
  3
C4
350
60
  3
C5
350
61
  3
C6
350
62
  3
C7
350
63
  3
C8
350
64
  3
C9
350
65
  3
D0
350
66
  3
D1
350
67
  3
D2
350
68
  0
DICTIONARY
  5
3BC
102
{ACAD_REACTORS
330
C
102
}
330
C
100
AcDbDictionary
281
     1
  0
DICTIONARY
  5
69
102
{ACAD_REACTORS
330
C
102
}
330
C
100
AcDbDictionary
281
     1
  3
Standard
350
6A
  0
DICTIONARY
  5
2A
102
{ACAD_REACTORS
330
C
102
}
330
C
100
AcDbDictionary
281
     1
  3
2dWireframe
350
2F
  3
Basic
350
32
  3
Brighten
350
36
  3
ColorChange
350
3A
  3
Conceptual
350
34
  3
Dim
350
35
  3
EdgeColorOff
350
3D
  3
Facepattern
350
39
  3
Flat
350
2B
  3
FlatWithEdges
350
2C
  3
Gouraud
350
2D
  3
GouraudWithEdges
350
2E
  3
Hidden
350
31
  3
JitterOff
350
3B
  3
Linepattern
350
38
  3
OverhangOff
350
3C
  3
Realistic
350
33
  3
Shaded
350
42
  3
Shaded with edges
350
41
  3
Shades of Gray
350
3E
  3
Sketchy
350
3F
  3
Thicken
350
37
  3
Wireframe
350
30
  3
X-Ray
350
40
  0
XRECORD
  5
3B8
102
{ACAD_REACTORS
330
C
102
}
330
C
100
AcDbXrecord
280
     1
 90
        1
330
6A
  0
DICTIONARY
  5
378
102
{ACAD_REACTORS
330
C
102
}
330
C
100
AcDbDictionary
281
     1
  3
CANNOSCALE
350
379
  3
CENTEREXE
350
3BD
  3
CENTERLTYPEFILE
350
3BE
  3
CMLEADERSTYLE
350
3BA
  3
CTABLESTYLE
350
3B9
  3
MSLTSCALE
350
37A
  3
XCLIPFRAME
350
37B
  0
XRECORD
  5
377
102
{ACAD_REACTORS
330
376
102
}
330
376
100
AcDbXrecord
280
     1
102
VTR_0.000_0.000_1.000_1.000_VISUALSTYLE
340
2F
102
VTR_0.000_0.000_1.000_1.000_GRIDDISPLAY
 70
     3
102
VTR_0.000_0.000_1.000_1.000_GRIDMAJOR
 70
     5
102
VTR_0.000_0.000_1.000_1.000_DEFAULTLIGHTING
280
     1
102
VTR_0.000_0.000_1.000_1.000_DEFAULTLIGHTINGTYPE
 70
     1
102
VTR_0.000_0.000_1.000_1.000_BRIGHTNESS
141
0.0
102
VTR_0.000_0.000_1.000_1.000_CONTRAST
142
0.0
  0
LAYOUT
  5
1E
102
{ACAD_REACTORS
330
1A
102
}
330
1A
100
AcDbPlotSettings
  1

  2
none_device
  4

  6

 40
0.0
 41
0.0
 42
0.0
 43
0.0
 44
0.0
 45
0.0
 46
0.0
 47
0.0
 48
0.0
 49
0.0
140
0.0
141
0.0
142
1.0
143
1.0
 70
   688
 72
     1
 73
     0
 74
     5
  7

 75
    16
 76
     0
 77
     5
 78
   300
147
1.0
148
0.0
149
0.0
100
AcDbLayout
  1
Layout1
 70
     1
 71
     1
 10
0.0
 20
0.0
 11
420.0
 21
297.0
 12
0.0
 22
0.0
 32
0.0
 14
1.000000000000000E+20
 24
1.000000000000000E+20
 34
1.000000000000000E+20
 15
-1.000000000000000E+20
 25
-1.000000000000000E+20
 35
-1.000000000000000E+20
146
0.0
 13
0.0
 23
0.0
 33
0.0
 16
1.0
 26
0.0
 36
0.0
 17
0.0
 27
1.0
 37
0.0
 76
     0
330
1B
  0
LAYOUT
  5
26
102
{ACAD_REACTORS
330
1A
102
}
330
1A
100
AcDbPlotSettings
  1

  2
none_device
  4

  6

 40
0.0
 41
0.0
 42
0.0
 43
0.0
 44
0.0
 45
0.0
 46
0.0
 47
0.0
 48
0.0
 49
0.0
140
0.0
141
0.0
142
1.0
143
1.0
 70
   688
 72
     1
 73
     0
 74
     5
  7

 75
    16
 76
     0
 77
     5
 78
   300
147
1.0
148
0.0
149
0.0
100
AcDbLayout
  1
Layout2
 70
     1
 71
     2
 10
0.0
 20
0.0
 11
0.0
 21
0.0
 12
0.0
 22
0.0
 32
0.0
 14
0.0
 24
0.0
 34
0.0
 15
0.0
 25
0.0
 35
0.0
146
0.0
 13
0.0
 23
0.0
 33
0.0
 16
1.0
 26
0.0
 36
0.0
 17
0.0
 27
1.0
 37
0.0
 76
     0
330
23
  0
LAYOUT
  5
22
102
{ACAD_REACTORS
330
1A
102
}
330
1A
100
AcDbPlotSettings
  1

  2
none_device
  4
Letter_(8.50_x_11.00_Inches)
  6

 40
6.35
 41
6.35
 42
6.35000508
 43
6.35000508
 44
215.9
 45
279.4
 46
0.0
 47
0.0
 48
0.0
 49
0.0
140
0.0
141
0.0
142
1.0
143
1.0
 70
  1712
 72
     1
 73
     0
 74
     0
  7

 75
     0
 76
     0
 77
     5
 78
   300
147
1.0
148
0.0
149
0.0
100
AcDbLayout
  1
Model
 70
     1
 71
     0
 10
-840.0
 20
-594.0
 11
840.0
 21
594.0
 12
0.0
 22
0.0
 32
0.0
 14
-840.0
 24
-594.0
 34
0.0
 15
840.0
 25
594.0
 35
0.0
146
0.0
 13
0.0
 23
0.0
 33
0.0
 16
1.0
 26
0.0
 36
0.0
 17
0.0
 27
1.0
 37
0.0
 76
     0
330
1F
331
29
  0
MATERIAL
  5
45
102
{ACAD_REACTORS
330
43
102
}
102
{ACAD_XDICTIONARY
360
3AE
102
}
330
43
100
AcDbMaterial
  1
ByBlock
  0
MATERIAL
  5
44
102
{ACAD_REACTORS
330
43
102
}
102
{ACAD_XDICTIONARY
360
3AC
102
}
330
43
100
AcDbMaterial
  1
ByLayer
  0
MATERIAL
  5
46
102
{ACAD_REACTORS
330
43
102
}
102
{ACAD_XDICTIONARY
360
3B0
102
}
330
43
100
AcDbMaterial
  1
Global
  0
MLEADERSTYLE
  5
6C
102
{ACAD_REACTORS
330
6B
102
}
102
{ACAD_XDICTIONARY
360
3B6
102
}
330
6B
100
AcDbMLeaderStyle
170
     2
171
     1
172
     0
 90
        2
 40
0.0
 41
0.0
173
     1
 91
-1056964608
340
14
 92
       -2
290
     1
 42
2.0
291
     1
 43
8.0
  3
Standard
341
0
 44
4.0
300

342
11
174
     1
178
     6
175
     1
176
     0
 93
-1056964608
 45
4.0
292
     0
297
     0
 46
4.0
343
0
 94
-1056964608
 47
1.0
 49
1.0
140
1.0
293
     1
141
0.0
294
     1
177
     0
142
1.0
295
     0
296
     0
143
3.75
1001
ACAD_MLEADERVER
1070
     2
  0
MLINESTYLE
  5
18
102
{ACAD_REACTORS
330
17
102
}
330
17
100
AcDbMlineStyle
  2
Standard
 70
     0
  3

 62
   256
 51
90.0
 52
90.0
 71
     2
 49
0.5
 62
   256
  6
BYLAYER
 49
-0.5
 62
   256
  6
BYLAYER
  0
ACDBPLACEHOLDER
  5
F
102
{ACAD_REACTORS
330
E
102
}
330
E
  0
SCALE
  5
48
102
{ACAD_REACTORS
330
47
102
}
330
47
100
AcDbScale
 70
     0
300
1:1
140
1.0
141
1.0
290
     1
  0
SCALE
  5
49
102
{ACAD_REACTORS
330
47
102
}
330
47
100
AcDbScale
 70
     0
300
1:2
140
1.0
141
2.0
290
     0
  0
SCALE
  5
4A
102
{ACAD_REACTORS
330
47
102
}
330
47
100
AcDbScale
 70
     0
300
1:4
140
1.0
141
4.0
290
     0
  0
SCALE
  5
4B
102
{ACAD_REACTORS
330
47
102
}
330
47
100
AcDbScale
 70
     0
300
1:5
140
1.0
141
5.0
290
     0
  0
SCALE
  5
4C
102
{ACAD_REACTORS
330
47
102
}
330
47
100
AcDbScale
 70
     0
300
1:8
140
1.0
141
8.0
290
     0
  0
SCALE
  5
4D
102
{ACAD_REACTORS
330
47
102
}
330
47
100
AcDbScale
 70
     0
300
1:10
140
1.0
141
10.0
290
     0
  0
SCALE
  5
4E
102
{ACAD_REACTORS
330
47
102
}
330
47
100
AcDbScale
 70
     0
300
1:16
140
1.0
141
16.0
290
     0
  0
SCALE
  5
4F
102
{ACAD_REACTORS
330
47
102
}
330
47
100
AcDbScale
 70
     0
300
1:20
140
1.0
141
20.0
290
     0
  0
SCALE
  5
50
102
{ACAD_REACTORS
330
47
102
}
330
47
100
AcDbScale
 70
     0
300
1:30
140
1.0
141
30.0
290
     0
  0
SCALE
  5
51
102
{ACAD_REACTORS
330
47
102
}
330
47
100
AcDbScale
 70
     0
300
1:40
140
1.0
141
40.0
290
     0
  0
SCALE
  5
52
102
{ACAD_REACTORS
330
47
102
}
330
47
100
AcDbScale
 70
     0
300
1:50
140
1.0
141
50.0
290
     0
  0
SCALE
  5
53
102
{ACAD_REACTORS
330
47
102
}
330
47
100
AcDbScale
 70
     0
300
1:100
140
1.0
141
100.0
290
     0
  0
SCALE
  5
54
102
{ACAD_REACTORS
330
47
102
}
330
47
100
AcDbScale
 70
     0
300
2:1
140
2.0
141
1.0
290
     0
  0
SCALE
  5
55
102
{ACAD_REACTORS
330
47
102
}
330
47
100
AcDbScale
 70
     0
300
4:1
140
4.0
141
1.0
290
     0
  0
SCALE
  5
56
102
{ACAD_REACTORS
330
47
102
}
330
47
100
AcDbScale
 70
     0
300
8:1
140
8.0
141
1.0
290
     0
  0
SCALE
  5
57
102
{ACAD_REACTORS
330
47
102
}
330
47
100
AcDbScale
 70
     0
300
10:1
140
10.0
141
1.0
290
     0
  0
SCALE
  5
58
102
{ACAD_REACTORS
330
47
102
}
330
47
100
AcDbScale
 70
     0
300
100:1
140
100.0
141
1.0
290
     0
  0
SCALE
  5
59
102
{ACAD_REACTORS
330
47
102
}
330
47
100
AcDbScale
 70
     0
300
1/128" = 1'-0"
140
0.0078125
141
12.0
290
     0
  0
SCALE
  5
5A
102
{ACAD_REACTORS
330
47
102
}
330
47
100
AcDbScale
 70
     0
300
1/64" = 1'-0"
140
0.015625
141
12.0
290
     0
  0
SCALE
  5
5B
102
{ACAD_REACTORS
330
47
102
}
330
47
100
AcDbScale
 70
     0
300
1/32" = 1'-0"
140
0.03125
141
12.0
290
     0
  0
SCALE
  5
5C
102
{ACAD_REACTORS
330
47
102
}
330
47
100
AcDbScale
 70
     0
300
1/16" = 1'-0"
140
0.0625
141
12.0
290
     0
  0
SCALE
  5
5D
102
{ACAD_REACTORS
330
47
102
}
330
47
100
AcDbScale
 70
     0
300
3/32" = 1'-0"
140
0.09375
141
12.0
290
     0
  0
SCALE
  5
5E
102
{ACAD_REACTORS
330
47
102
}
330
47
100
AcDbScale
 70
     0
300
1/8" = 1'-0"
140
0.125
141
12.0
290
     0
  0
SCALE
  5
5F
102
{ACAD_REACTORS
330
47
102
}
330
47
100
AcDbScale
 70
     0
300
3/16" = 1'-0"
140
0.1875
141
12.0
290
     0
  0
SCALE
  5
60
102
{ACAD_REACTORS
330
47
102
}
330
47
100
AcDbScale
 70
     0
300
1/4" = 1'-0"
140
0.25
141
12.0
290
     0
  0
SCALE
  5
61
102
{ACAD_REACTORS
330
47
102
}
330
47
100
AcDbScale
 70
     0
300
3/8" = 1'-0"
140
0.375
141
12.0
290
     0
  0
SCALE
  5
62
102
{ACAD_REACTORS
330
47
102
}
330
47
100
AcDbScale
 70
     0
300
1/2" = 1'-0"
140
0.5
141
12.0
290
     0
  0
SCALE
  5
63
102
{ACAD_REACTORS
330
47
102
}
330
47
100
AcDbScale
 70
     0
300
3/4" = 1'-0"
140
0.75
141
12.0
290
     0
  0
SCALE
  5
64
102
{ACAD_REACTORS
330
47
102
}
330
47
100
AcDbScale
 70
     0
300
1" = 1'-0"
140
1.0
141
12.0
290
     0
  0
SCALE
  5
65
102
{ACAD_REACTORS
330
47
102
}
330
47
100
AcDbScale
 70
     0
300
1-1/2" = 1'-0"
140
1.5
141
12.0
290
     0
  0
SCALE
  5
66
102
{ACAD_REACTORS
330
47
102
}
330
47
100
AcDbScale
 70
     0
300
3" = 1'-0"
140
3.0
141
12.0
290
     0
  0
SCALE
  5
67
102
{ACAD_REACTORS
330
47
102
}
330
47
100
AcDbScale
 70
     0
300
6" = 1'-0"
140
6.0
141
12.0
290
     0
  0
SCALE
  5
68
102
{ACAD_REACTORS
330
47
102
}
330
47
100
AcDbScale
 70
     0
300
1'-0" = 1'-0"
140
12.0
141
12.0
290
     0
  0
TABLESTYLE
  5
6A
102
{ACAD_REACTORS
330
69
102
}
102
{ACAD_XDICTIONARY
360
3B2
102
}
330
69
100
AcDbTableStyle
  3
Standard
 70
     0
 71
     0
 40
0.06
 41
0.06
280
     0
281
     0
  7
Standard
140
4.5
170
     2
 62
     0
 63
   257
283
     0
274
    -2
284
     1
 64
     0
275
    -2
285
     1
 65
     0
276
    -2
286
     1
 66
     0
277
    -2
287
     1
 67
     0
278
    -2
288
     1
 68
     0
279
    -2
289
     1
 69
     0
  7
Standard
140
6.0
170
     5
 62
     0
 63
   257
283
     0
274
    -2
284
     1
 64
     0
275
    -2
285
     1
 65
     0
276
    -2
286
     1
 66
     0
277
    -2
287
     1
 67
     0
278
    -2
288
     1
 68
     0
279
    -2
289
     1
 69
     0
  7
Standard
140
4.5
170
     5
 62
     0
 63
   257
283
     0
274
    -2
284
     1
 64
     0
275
    -2
285
     1
 65
     0
276
    -2
286
     1
 66
     0
277
    -2
287
     1
 67
     0
278
    -2
288
     1
 68
     0
279
    -2
289
     1
 69
     0
  0
VISUALSTYLE
  5
2F
102
{ACAD_REACTORS
330
2A
102
}
102
{ACAD_XDICTIONARY
360
384
102
}
330
2A
100
AcDbVisualStyle
  2
2dWireframe
 70
     4
 71
     0
 72
     2
 73
     0
 90
        0
 40
0.6
 41
30.0
 62
     5
 63
     7
421
 16777215
 74
     1
 91
        4
 64
     7
 65
   257
 75
     1
175
     1
 42
1.0
 92
        0
 66
   257
 43
1.0
 76
     1
 77
     6
 78
     2
 67
     7
 79
     5
170
     0
171
     0
290
     0
174
     0
 93
        1
 44
0.0
173
     0
291
     0
 45
0.0
1001
ACAD
1000
AcDbSavedByObjectVersion
1070
     0
  0
VISUALSTYLE
  5
32
102
{ACAD_REACTORS
330
2A
102
}
102
{ACAD_XDICTIONARY
360
38A
102
}
330
2A
100
AcDbVisualStyle
  2
Basic
 70
     7
 71
     1
 72
     0
 73
     1
 90
        0
 40
0.6
 41
30.0
 62
     5
 63
     7
421
 16777215
 74
     0
 91
        4
 64
     7
 65
   257
 75
     1
175
     1
 42
1.0
 92
        8
 66
     7
 43
1.0
 76
     1
 77
     6
 78
     2
 67
     7
 79
     5
170
     0
171
     0
290
     0
174
     0
 93
        1
 44
0.0
173
     0
291
     1
 45
0.0
1001
ACAD
1000
AcDbSavedByObjectVersion
1070
     0
  0
VISUALSTYLE
  5
36
102
{ACAD_REACTORS
330
2A
102
}
102
{ACAD_XDICTIONARY
360
392
102
}
330
2A
100
AcDbVisualStyle
  2
Brighten
 70
    12
 71
     2
 72
     2
 73
     0
 90
        0
 40
0.6
 41
30.0
 62
     5
 63
     7
421
 16777215
 74
     1
 91
        4
 64
     7
 65
   257
 75
     1
175
     1
 42
1.0
 92
        8
 66
     7
 43
1.0
 76
     1
 77
     6
 78
     2
 67
     7
 79
     5
170
     0
171
     0
290
     0
174
     0
 93
        1
 44
50.0
173
     0
291
     1
 45
0.0
1001
ACAD
1000
AcDbSavedByObjectVersion
1070
     0
  0
VISUALSTYLE
  5
3A
102
{ACAD_REACTORS
330
2A
102
}
102
{ACAD_XDICTIONARY
360
39A
102
}
330
2A
100
AcDbVisualStyle
  2
ColorChange
 70
    16
 71
     2
 72
     2
 73
     3
 90
        0
 40
0.6
 41
30.0
 62
     5
 63
     8
421
  8421504
 74
     1
 91
        4
 64
     7
 65
   257
 75
     1
175
     1
 42
1.0
 92
        8
 66
     8
424
  8421504
 43
1.0
 76
     1
 77
     6
 78
     2
 67
     7
 79
     5
170
     0
171
     0
290
     0
174
     0
 93
        1
 44
0.0
173
     0
291
     1
 45
0.0
1001
ACAD
1000
AcDbSavedByObjectVersion
1070
     0
  0
VISUALSTYLE
  5
34
102
{ACAD_REACTORS
330
2A
102
}
102
{ACAD_XDICTIONARY
360
38E
102
}
330
2A
100
AcDbVisualStyle
  2
Conceptual
 70
     9
 71
     3
 72
     2
 73
     0
 90
        0
 40
0.6
 41
30.0
 62
     5
 63
     7
421
 16777215
 74
     2
 91
        2
 64
     7
 65
   257
 75
     1
175
     1
 42
179.0
 92
        8
 66
     7
 43
1.0
 76
     1
 77
     6
 78
     2
 67
     7
 79
     3
170
     0
171
     0
290
     0
174
     0
 93
        1
 44
0.0
173
     0
291
     0
 45
0.0
1001
ACAD
1000
AcDbSavedByObjectVersion
1070
     0
  0
VISUALSTYLE
  5
35
102
{ACAD_REACTORS
330
2A
102
}
102
{ACAD_XDICTIONARY
360
390
102
}
330
2A
100
AcDbVisualStyle
  2
Dim
 70
    11
 71
     2
 72
     2
 73
     0
 90
        0
 40
0.6
 41
30.0
 62
     5
 63
     7
421
 16777215
 74
     1
 91
        4
 64
     7
 65
   257
 75
     1
175
     1
 42
1.0
 92
        8
 66
     7
 43
1.0
 76
     1
 77
     6
 78
     2
 67
     7
 79
     5
170
     0
171
     0
290
     0
174
     0
 93
        1
 44
-50.0
173
     0
291
     1
 45
0.0
1001
ACAD
1000
AcDbSavedByObjectVersion
1070
     0
  0
VISUALSTYLE
  5
3D
102
{ACAD_REACTORS
330
2A
102
}
102
{ACAD_XDICTIONARY
360
3A0
102
}
330
2A
100
AcDbVisualStyle
  2
EdgeColorOff
 70
    22
 71
     2
 72
     2
 73
     0
 90
        0
 40
0.6
 41
30.0
 62
     5
 63
     7
421
 16777215
 74
     1
 91
        4
 64
     7
 65
   257
 75
     1
175
     1
 42
1.0
 92
        8
 66
     7
 43
1.0
 76
     1
 77
     6
 78
     2
 67
     7
 79
     5
170
     0
171
     0
290
     0
174
     0
 93
        1
 44
0.0
173
     0
291
     1
 45
0.0
1001
ACAD
1000
AcDbSavedByObjectVersion
1070
     0
  0
VISUALSTYLE
  5
39
102
{ACAD_REACTORS
330
2A
102
}
102
{ACAD_XDICTIONARY
360
398
102
}
330
2A
100
AcDbVisualStyle
  2
Facepattern
 70
    15
 71
     2
 72
     2
 73
     0
 90
        0
 40
0.6
 41
30.0
 62
     5
 63
     7
421
 16777215
 74
     1
 91
        4
 64
     7
 65
   257
 75
     1
175
     1
 42
1.0
 92
        8
 66
     7
 43
1.0
 76
     1
 77
     6
 78
     2
 67
     7
 79
     5
170
     0
171
     0
290
     0
174
     0
 93
        1
 44
0.0
173
     0
291
     1
 45
0.0
1001
ACAD
1000
AcDbSavedByObjectVersion
1070
     0
  0
VISUALSTYLE
  5
2B
102
{ACAD_REACTORS
330
2A
102
}
102
{ACAD_XDICTIONARY
360
37C
102
}
330
2A
100
AcDbVisualStyle
  2
Flat
 70
     0
 71
     2
 72
     1
 73
     1
 90
        2
 40
0.6
 41
30.0
 62
     5
 63
     7
421
 16777215
 74
     0
 91
        0
 64
     7
 65
   257
 75
     1
175
     1
 42
1.0
 92
        8
 66
     7
 43
1.0
 76
     1
 77
     6
 78
     2
 67
     7
 79
     5
170
     0
171
     0
290
     0
174
     0
 93
       13
 44
0.0
173
     0
291
     1
 45
0.0
1001
ACAD
1000
AcDbSavedByObjectVersion
1070
     0
  0
VISUALSTYLE
  5
2C
102
{ACAD_REACTORS
330
2A
102
}
102
{ACAD_XDICTIONARY
360
37E
102
}
330
2A
100
AcDbVisualStyle
  2
FlatWithEdges
 70
     1
 71
     2
 72
     1
 73
     1
 90
        2
 40
0.6
 41
30.0
 62
     5
 63
     7
421
 16777215
 74
     1
 91
        0
 64
     7
 65
   257
 75
     1
175
     1
 42
1.0
 92
        0
 66
   257
 43
1.0
 76
     1
 77
     6
 78
     2
 67
     7
 79
     5
170
     0
171
     0
290
     0
174
     0
 93
       13
 44
0.0
173
     0
291
     1
 45
0.0
1001
ACAD
1000
AcDbSavedByObjectVersion
1070
     0
  0
VISUALSTYLE
  5
2D
102
{ACAD_REACTORS
330
2A
102
}
102
{ACAD_XDICTIONARY
360
380
102
}
330
2A
100
AcDbVisualStyle
  2
Gouraud
 70
     2
 71
     2
 72
     2
 73
     1
 90
        2
 40
0.6
 41
30.0
 62
     5
 63
     7
421
 16777215
 74
     0
 91
        0
 64
     7
 65
   257
 75
     1
175
     1
 42
1.0
 92
        0
 66
     7
 43
1.0
 76
     1
 77
     6
 78
     2
 67
     7
 79
     5
170
     0
171
     0
290
     0
174
     0
 93
       13
 44
0.0
173
     0
291
     1
 45
0.0
1001
ACAD
1000
AcDbSavedByObjectVersion
1070
     0
  0
VISUALSTYLE
  5
2E
102
{ACAD_REACTORS
330
2A
102
}
102
{ACAD_XDICTIONARY
360
382
102
}
330
2A
100
AcDbVisualStyle
  2
GouraudWithEdges
 70
     3
 71
     2
 72
     2
 73
     1
 90
        2
 40
0.6
 41
30.0
 62
     5
 63
     7
421
 16777215
 74
     1
 91
        0
 64
     7
 65
   257
 75
     1
175
     1
 42
1.0
 92
        0
 66
   257
 43
1.0
 76
     1
 77
     6
 78
     2
 67
     7
 79
     5
170
     0
171
     0
290
     0
174
     0
 93
       13
 44
0.0
173
     0
291
     1
 45
0.0
1001
ACAD
1000
AcDbSavedByObjectVersion
1070
     0
  0
VISUALSTYLE
  5
31
102
{ACAD_REACTORS
330
2A
102
}
102
{ACAD_XDICTIONARY
360
388
102
}
330
2A
100
AcDbVisualStyle
  2
Hidden
 70
     6
 71
     1
 72
     2
 73
     2
 90
        0
 40
0.6
 41
30.0
 62
     5
 63
     7
421
 16777215
 74
     2
 91
        2
 64
     7
 65
   257
 75
     2
175
     1
 42
40.0
 92
        0
 66
   257
 43
1.0
 76
     1
 77
     6
 78
     2
 67
     7
 79
     3
170
     0
171
     0
290
     0
174
     0
 93
        1
 44
0.0
173
     0
291
     0
 45
0.0
1001
ACAD
1000
AcDbSavedByObjectVersion
1070
     0
  0
VISUALSTYLE
  5
3B
102
{ACAD_REACTORS
330
2A
102
}
102
{ACAD_XDICTIONARY
360
39C
102
}
330
2A
100
AcDbVisualStyle
  2
JitterOff
 70
    20
 71
     2
 72
     2
 73
     0
 90
        0
 40
0.6
 41
30.0
 62
     5
 63
     7
421
 16777215
 74
     1
 91
        4
 64
     7
 65
   257
 75
     1
175
     1
 42
1.0
 92
       10
 66
     7
 43
1.0
 76
     1
 77
     6
 78
     2
 67
     7
 79
     5
170
     0
171
     0
290
     0
174
     0
 93
        1
 44
0.0
173
     0
291
     1
 45
0.0
1001
ACAD
1000
AcDbSavedByObjectVersion
1070
     0
  0
VISUALSTYLE
  5
38
102
{ACAD_REACTORS
330
2A
102
}
102
{ACAD_XDICTIONARY
360
396
102
}
330
2A
100
AcDbVisualStyle
  2
Linepattern
 70
    14
 71
     2
 72
     2
 73
     0
 90
        0
 40
0.6
 41
30.0
 62
     5
 63
     7
421
 16777215
 74
     1
 91
        4
 64
     7
 65
   257
 75
     7
175
     7
 42
1.0
 92
        8
 66
     7
 43
1.0
 76
     1
 77
     6
 78
     2
 67
     7
 79
     5
170
     0
171
     0
290
     0
174
     0
 93
        1
 44
0.0
173
     0
291
     1
 45
0.0
1001
ACAD
1000
AcDbSavedByObjectVersion
1070
     0
  0
VISUALSTYLE
  5
3C
102
{ACAD_REACTORS
330
2A
102
}
102
{ACAD_XDICTIONARY
360
39E
102
}
330
2A
100
AcDbVisualStyle
  2
OverhangOff
 70
    21
 71
     2
 72
     2
 73
     0
 90
        0
 40
0.6
 41
30.0
 62
     5
 63
     7
421
 16777215
 74
     1
 91
        4
 64
     7
 65
   257
 75
     1
175
     1
 42
1.0
 92
        9
 66
     7
 43
1.0
 76
     1
 77
     6
 78
     2
 67
     7
 79
     5
170
     0
171
     0
290
     0
174
     0
 93
        1
 44
0.0
173
     0
291
     1
 45
0.0
1001
ACAD
1000
AcDbSavedByObjectVersion
1070
     0
  0
VISUALSTYLE
  5
33
102
{ACAD_REACTORS
330
2A
102
}
102
{ACAD_XDICTIONARY
360
38C
102
}
330
2A
100
AcDbVisualStyle
  2
Realistic
 70
     8
 71
     2
 72
     3
 73
     0
 90
        2
 40
0.6
 41
30.0
 62
     5
 63
     7
421
 16777215
 74
     0
 91
        0
 64
     7
 65
   257
 75
     1
175
     1
 42
1.0
 92
        8
 66
   257
 43
1.0
 76
     1
 77
     6
 78
     2
 67
     7
 79
     3
170
     0
171
     0
290
     0
174
     0
 93
       13
 44
0.0
173
     0
291
     0
 45
0.0
1001
ACAD
1000
AcDbSavedByObjectVersion
1070
     0
  0
VISUALSTYLE
  5
42
102
{ACAD_REACTORS
330
2A
102
}
102
{ACAD_XDICTIONARY
360
3AA
102
}
330
2A
100
AcDbVisualStyle
  2
Shaded
 70
    27
 71
     2
 72
     2
 73
     1
 90
        2
 40
0.6
 41
30.0
 62
     5
 63
     7
421
 16777215
 74
     0
 91
        4
 64
     7
 65
   257
 75
     1
175
     1
 42
1.0
 92
        8
 66
   257
 43
1.0
 76
     1
 77
     6
 78
     2
 67
     8
425
  7895160
 79
     3
170
     0
171
     0
290
     0
174
     0
 93
        5
 44
0.0
173
     0
291
     0
 45
0.0
1001
ACAD
1000
AcDbSavedByObjectVersion
1070
     0
  0
VISUALSTYLE
  5
41
102
{ACAD_REACTORS
330
2A
102
}
102
{ACAD_XDICTIONARY
360
3A8
102
}
330
2A
100
AcDbVisualStyle
  2
Shaded with edges
 70
    26
 71
     2
 72
     2
 73
     1
 90
        2
 40
0.6
 41
30.0
 62
     5
 63
     7
421
 16777215
 74
     1
 91
       10
 64
     7
 65
   257
 75
     2
175
     1
 42
1.0
 92
        8
 66
   257
 43
1.0
 76
     1
 77
     6
 78
     2
 67
     7
 79
     3
170
     0
171
     0
290
     0
174
     0
 93
        5
 44
0.0
173
     0
291
     0
 45
0.0
1001
ACAD
1000
AcDbSavedByObjectVersion
1070
     0
  0
VISUALSTYLE
  5
3E
102
{ACAD_REACTORS
330
2A
102
}
102
{ACAD_XDICTIONARY
360
3A2
102
}
330
2A
100
AcDbVisualStyle
  2
Shades of Gray
 70
    23
 71
     2
 72
     2
 73
     3
 90
        0
 40
0.6
 41
30.0
 62
     5
 63
     7
421
 16777215
 74
     2
 91
        2
 64
     7
 65
     7
 75
     1
175
     1
 42
40.0
 92
        8
 66
     7
 43
1.0
 76
     1
 77
     6
 78
     2
 67
     7
 79
     3
170
     0
171
     0
290
     0
174
     0
 93
        1
 44
0.0
173
     0
291
     0
 45
0.0
1001
ACAD
1000
AcDbSavedByObjectVersion
1070
     0
  0
VISUALSTYLE
  5
3F
102
{ACAD_REACTORS
330
2A
102
}
102
{ACAD_XDICTIONARY
360
3A4
102
}
330
2A
100
AcDbVisualStyle
  2
Sketchy
 70
    24
 71
     1
 72
     2
 73
     2
 90
        0
 40
0.6
 41
30.0
 62
     5
 63
     7
421
 16777215
 74
     2
 91
        2
 64
     7
 65
     7
 75
     1
175
     1
 42
40.0
 92
       11
 66
     7
 43
1.0
 76
     1
 77
     6
 78
     2
 67
     7
 79
     6
170
     0
171
     0
290
     0
174
     0
 93
        1
 44
0.0
173
     0
291
     0
 45
0.0
1001
ACAD
1000
AcDbSavedByObjectVersion
1070
     0
  0
VISUALSTYLE
  5
37
102
{ACAD_REACTORS
330
2A
102
}
102
{ACAD_XDICTIONARY
360
394
102
}
330
2A
100
AcDbVisualStyle
  2
Thicken
 70
    13
 71
     2
 72
     2
 73
     0
 90
        0
 40
0.6
 41
30.0
 62
     5
 63
     7
421
 16777215
 74
     1
 91
        4
 64
     7
 65
   257
 75
     1
175
     1
 42
1.0
 92
       12
 66
     7
 43
1.0
 76
     1
 77
     6
 78
     2
 67
     7
 79
     5
170
     0
171
     0
290
     0
174
     0
 93
        1
 44
0.0
173
     0
291
     1
 45
0.0
1001
ACAD
1000
AcDbSavedByObjectVersion
1070
     0
  0
VISUALSTYLE
  5
30
102
{ACAD_REACTORS
330
2A
102
}
102
{ACAD_XDICTIONARY
360
386
102
}
330
2A
100
AcDbVisualStyle
  2
Wireframe
 70
     5
 71
     0
 72
     2
 73
     0
 90
        0
 40
0.6
 41
30.0
 62
     5
 63
     7
421
 16777215
 74
     1
 91
        4
 64
     7
 65
   257
 75
     1
175
     1
 42
1.0
 92
        0
 66
   257
 43
1.0
 76
     1
 77
     6
 78
     2
 67
     7
 79
     3
170
     0
171
     0
290
     0
174
     0
 93
        1
 44
0.0
173
     0
291
     0
 45
0.0
1001
ACAD
1000
AcDbSavedByObjectVersion
1070
     0
  0
VISUALSTYLE
  5
40
102
{ACAD_REACTORS
330
2A
102
}
102
{ACAD_XDICTIONARY
360
3A6
102
}
330
2A
100
AcDbVisualStyle
  2
X-Ray
 70
    25
 71
     2
 72
     2
 73
     1
 90
        1
 40
0.5
 41
30.0
 62
     5
 63
     7
421
 16777215
 74
     1
 91
        0
 64
     7
 65
   257
 75
     1
175
     1
 42
1.0
 92
        8
 66
     7
 43
1.0
 76
     1
 77
     6
 78
     2
 67
     7
 79
     3
170
     0
171
     0
290
     0
174
     0
 93
       13
 44
0.0
173
     0
291
     0
 45
0.0
1001
ACAD
1000
AcDbSavedByObjectVersion
1070
     0
  0
DICTIONARYVAR
  5
379
102
{ACAD_REACTORS
330
378
102
}
330
378
100
DictionaryVariables
280
     0
  1
1:1
  0
DICTIONARYVAR
  5
3BD
102
{ACAD_REACTORS
330
378
102
}
330
378
100
DictionaryVariables
280
     0
  1
3.500000
  0
DICTIONARYVAR
  5
3BE
102
{ACAD_REACTORS
330
378
102
}
330
378
100
DictionaryVariables
280
     0
  1
acadiso.lin
  0
DICTIONARYVAR
  5
3BA
102
{ACAD_REACTORS
330
378
102
}
330
378
100
DictionaryVariables
280
     0
  1
Standard
  0
DICTIONARYVAR
  5
3B9
102
{ACAD_REACTORS
330
378
102
}
330
378
100
DictionaryVariables
280
     0
  1
Standard
  0
DICTIONARYVAR
  5
37A
102
{ACAD_REACTORS
330
378
102
}
330
378
100
DictionaryVariables
280
     0
  1
1
  0
DICTIONARYVAR
  5
37B
102
{ACAD_REACTORS
330
378
102
}
330
378
100
DictionaryVariables
280
     0
  1
2
  0
DICTIONARY
  5
3AE
330
45
100
AcDbDictionary
280
     1
281
     1
  3
ACAD_XREC_ROUNDTRIP
360
3AF
  0
DICTIONARY
  5
3AC
330
44
100
AcDbDictionary
280
     1
281
     1
  3
ACAD_XREC_ROUNDTRIP
360
3AD
  0
DICTIONARY
  5
3B0
330
46
100
AcDbDictionary
280
     1
281
     1
  3
ACAD_XREC_ROUNDTRIP
360
3B1
  0
DICTIONARY
  5
3B6
330
6C
100
AcDbDictionary
280
     1
281
     1
  3
ACAD_XREC_ROUNDTRIP
360
3B7
  0
DICTIONARY
  5
3B2
330
6A
100
AcDbDictionary
280
     1
281
     1
  3
ACAD_ROUNDTRIP_2008_TABLESTYLE_CELLSTYLEMAP
360
3B4
  3
ACAD_XREC_ROUNDTRIP
360
3B3
  0
DICTIONARY
  5
384
330
2F
100
AcDbDictionary
280
     1
281
     1
  3
ACAD_XREC_ROUNDTRIP
360
385
  0
DICTIONARY
  5
38A
330
32
100
AcDbDictionary
280
     1
281
     1
  3
ACAD_XREC_ROUNDTRIP
360
38B
  0
DICTIONARY
  5
392
330
36
100
AcDbDictionary
280
     1
281
     1
  3
ACAD_XREC_ROUNDTRIP
360
393
  0
DICTIONARY
  5
39A
330
3A
100
AcDbDictionary
280
     1
281
     1
  3
ACAD_XREC_ROUNDTRIP
360
39B
  0
DICTIONARY
  5
38E
330
34
100
AcDbDictionary
280
     1
281
     1
  3
ACAD_XREC_ROUNDTRIP
360
38F
  0
DICTIONARY
  5
390
330
35
100
AcDbDictionary
280
     1
281
     1
  3
ACAD_XREC_ROUNDTRIP
360
391
  0
DICTIONARY
  5
3A0
330
3D
100
AcDbDictionary
280
     1
281
     1
  3
ACAD_XREC_ROUNDTRIP
360
3A1
  0
DICTIONARY
  5
398
330
39
100
AcDbDictionary
280
     1
281
     1
  3
ACAD_XREC_ROUNDTRIP
360
399
  0
DICTIONARY
  5
37C
330
2B
100
AcDbDictionary
280
     1
281
     1
  3
ACAD_XREC_ROUNDTRIP
360
37D
  0
DICTIONARY
  5
37E
330
2C
100
AcDbDictionary
280
     1
281
     1
  3
ACAD_XREC_ROUNDTRIP
360
37F
  0
DICTIONARY
  5
380
330
2D
100
AcDbDictionary
280
     1
281
     1
  3
ACAD_XREC_ROUNDTRIP
360
381
  0
DICTIONARY
  5
382
330
2E
100
AcDbDictionary
280
     1
281
     1
  3
ACAD_XREC_ROUNDTRIP
360
383
  0
DICTIONARY
  5
388
330
31
100
AcDbDictionary
280
     1
281
     1
  3
ACAD_XREC_ROUNDTRIP
360
389
  0
DICTIONARY
  5
39C
330
3B
100
AcDbDictionary
280
     1
281
     1
  3
ACAD_XREC_ROUNDTRIP
360
39D
  0
DICTIONARY
  5
396
330
38
100
AcDbDictionary
280
     1
281
     1
  3
ACAD_XREC_ROUNDTRIP
360
397
  0
DICTIONARY
  5
39E
330
3C
100
AcDbDictionary
280
     1
281
     1
  3
ACAD_XREC_ROUNDTRIP
360
39F
  0
DICTIONARY
  5
38C
330
33
100
AcDbDictionary
280
     1
281
     1
  3
ACAD_XREC_ROUNDTRIP
360
38D
  0
DICTIONARY
  5
3AA
330
42
100
AcDbDictionary
280
     1
281
     1
  3
ACAD_XREC_ROUNDTRIP
360
3AB
  0
DICTIONARY
  5
3A8
330
41
100
AcDbDictionary
280
     1
281
     1
  3
ACAD_XREC_ROUNDTRIP
360
3A9
  0
DICTIONARY
  5
3A2
330
3E
100
AcDbDictionary
280
     1
281
     1
  3
ACAD_XREC_ROUNDTRIP
360
3A3
  0
DICTIONARY
  5
3A4
330
3F
100
AcDbDictionary
280
     1
281
     1
  3
ACAD_XREC_ROUNDTRIP
360
3A5
  0
DICTIONARY
  5
394
330
37
100
AcDbDictionary
280
     1
281
     1
  3
ACAD_XREC_ROUNDTRIP
360
395
  0
DICTIONARY
  5
386
330
30
100
AcDbDictionary
280
     1
281
     1
  3
ACAD_XREC_ROUNDTRIP
360
387
  0
DICTIONARY
  5
3A6
330
40
100
AcDbDictionary
280
     1
281
     1
  3
ACAD_XREC_ROUNDTRIP
360
3A7
  0
XRECORD
  5
3AF
102
{ACAD_REACTORS
330
3AE
102
}
330
3AE
100
AcDbXrecord
280
     1
102
MATERIAL
148
0.0
149
0.0
149
0.0
 93
        0
 94
      127
282
     0
 72
     1
 77
     1
171
     1
175
     1
179
     1
273
     0
  0
XRECORD
  5
3AD
102
{ACAD_REACTORS
330
3AC
102
}
330
3AC
100
AcDbXrecord
280
     1
102
MATERIAL
148
0.0
149
0.0
149
0.0
 93
        0
 94
      127
282
     0
 72
     1
 77
     1
171
     1
175
     1
179
     1
273
     0
  0
XRECORD
  5
3B1
102
{ACAD_REACTORS
330
3B0
102
}
330
3B0
100
AcDbXrecord
280
     1
102
MATERIAL
148
0.0
149
0.0
149
0.0
 93
        0
 94
      127
282
     0
 72
     1
 77
     1
171
     1
175
     1
179
     1
273
     0
  0
XRECORD
  5
3B7
102
{ACAD_REACTORS
330
3B6
102
}
330
3B6
100
AcDbXrecord
280
     1
102
ACAD_ROUNDTRIP_2010_MLEADER_STYLE
  0
CELLSTYLEMAP
  5
3B4
102
{ACAD_REACTORS
330
3B2
102
}
330
3B2
100
AcDbCellStyleMap
 90
        3
300
CELLSTYLE
  1
TABLEFORMAT_BEGIN
 90
        5
170
     1
 91
        0
 92
    32768
 62
   257
 93
        1
300
CONTENTFORMAT
  1
CONTENTFORMAT_BEGIN
 90
        0
 91
        0
 92
        4
 93
        0
300

 40
0.0
140
1.0
 94
        5
 62
     0
340
11
144
6.0
309
CONTENTFORMAT_END
171
     1
301
MARGIN
  1
CELLMARGIN_BEGIN
 40
1.5
 40
1.5
 40
1.5
 40
1.5
 40
1.5
 40
1.5
309
CELLMARGIN_END
 94
        6
 95
        1
302
GRIDFORMAT
  1
GRIDFORMAT_BEGIN
 90
        0
 91
        1
 62
     0
 92
       -2
340
14
 93
        0
 40
0.045
309
GRIDFORMAT_END
 95
        2
302
GRIDFORMAT
  1
GRIDFORMAT_BEGIN
 90
        0
 91
        1
 62
     0
 92
       -2
340
14
 93
        0
 40
0.045
309
GRIDFORMAT_END
 95
        4
302
GRIDFORMAT
  1
GRIDFORMAT_BEGIN
 90
        0
 91
        1
 62
     0
 92
       -2
340
14
 93
        0
 40
0.045
309
GRIDFORMAT_END
 95
        8
302
GRIDFORMAT
  1
GRIDFORMAT_BEGIN
 90
        0
 91
        1
 62
     0
 92
       -2
340
14
 93
        0
 40
0.045
309
GRIDFORMAT_END
 95
       16
302
GRIDFORMAT
  1
GRIDFORMAT_BEGIN
 90
        0
 91
        1
 62
     0
 92
       -2
340
14
 93
        0
 40
0.045
309
GRIDFORMAT_END
 95
       32
302
GRIDFORMAT
  1
GRIDFORMAT_BEGIN
 90
        0
 91
        1
 62
     0
 92
       -2
340
14
 93
        0
 40
0.045
309
GRIDFORMAT_END
309
TABLEFORMAT_END
  1
CELLSTYLE_BEGIN
 90
        1
 91
        1
300
_TITLE
309
CELLSTYLE_END
300
CELLSTYLE
  1
TABLEFORMAT_BEGIN
 90
        5
170
     1
 91
        0
 92
        0
 62
   257
 93
        1
300
CONTENTFORMAT
  1
CONTENTFORMAT_BEGIN
 90
        0
 91
        0
 92
        4
 93
        0
300

 40
0.0
140
1.0
 94
        5
 62
     0
340
11
144
4.5
309
CONTENTFORMAT_END
171
     1
301
MARGIN
  1
CELLMARGIN_BEGIN
 40
1.5
 40
1.5
 40
1.5
 40
1.5
 40
1.5
 40
1.5
309
CELLMARGIN_END
 94
        6
 95
        1
302
GRIDFORMAT
  1
GRIDFORMAT_BEGIN
 90
        0
 91
        1
 62
     0
 92
       -2
340
14
 93
        0
 40
0.045
309
GRIDFORMAT_END
 95
        2
302
GRIDFORMAT
  1
GRIDFORMAT_BEGIN
 90
        0
 91
        1
 62
     0
 92
       -2
340
14
 93
        0
 40
0.045
309
GRIDFORMAT_END
 95
        4
302
GRIDFORMAT
  1
GRIDFORMAT_BEGIN
 90
        0
 91
        1
 62
     0
 92
       -2
340
14
 93
        0
 40
0.045
309
GRIDFORMAT_END
 95
        8
302
GRIDFORMAT
  1
GRIDFORMAT_BEGIN
 90
        0
 91
        1
 62
     0
 92
       -2
340
14
 93
        0
 40
0.045
309
GRIDFORMAT_END
 95
       16
302
GRIDFORMAT
  1
GRIDFORMAT_BEGIN
 90
        0
 91
        1
 62
     0
 92
       -2
340
14
 93
        0
 40
0.045
309
GRIDFORMAT_END
 95
       32
302
GRIDFORMAT
  1
GRIDFORMAT_BEGIN
 90
        0
 91
        1
 62
     0
 92
       -2
340
14
 93
        0
 40
0.045
309
GRIDFORMAT_END
309
TABLEFORMAT_END
  1
CELLSTYLE_BEGIN
 90
        2
 91
        1
300
_HEADER
309
CELLSTYLE_END
300
CELLSTYLE
  1
TABLEFORMAT_BEGIN
 90
        5
170
     1
 91
        0
 92
        0
 62
   257
 93
        1
300
CONTENTFORMAT
  1
CONTENTFORMAT_BEGIN
 90
        0
 91
        0
 92
        4
 93
        0
300

 40
0.0
140
1.0
 94
        2
 62
     0
340
11
144
4.5
309
CONTENTFORMAT_END
171
     1
301
MARGIN
  1
CELLMARGIN_BEGIN
 40
1.5
 40
1.5
 40
1.5
 40
1.5
 40
1.5
 40
1.5
309
CELLMARGIN_END
 94
        6
 95
        1
302
GRIDFORMAT
  1
GRIDFORMAT_BEGIN
 90
        0
 91
        1
 62
     0
 92
       -2
340
14
 93
        0
 40
0.045
309
GRIDFORMAT_END
 95
        2
302
GRIDFORMAT
  1
GRIDFORMAT_BEGIN
 90
        0
 91
        1
 62
     0
 92
       -2
340
14
 93
        0
 40
0.045
309
GRIDFORMAT_END
 95
        4
302
GRIDFORMAT
  1
GRIDFORMAT_BEGIN
 90
        0
 91
        1
 62
     0
 92
       -2
340
14
 93
        0
 40
0.045
309
GRIDFORMAT_END
 95
        8
302
GRIDFORMAT
  1
GRIDFORMAT_BEGIN
 90
        0
 91
        1
 62
     0
 92
       -2
340
14
 93
        0
 40
0.045
309
GRIDFORMAT_END
 95
       16
302
GRIDFORMAT
  1
GRIDFORMAT_BEGIN
 90
        0
 91
        1
 62
     0
 92
       -2
340
14
 93
        0
 40
0.045
309
GRIDFORMAT_END
 95
       32
302
GRIDFORMAT
  1
GRIDFORMAT_BEGIN
 90
        0
 91
        1
 62
     0
 92
       -2
340
14
 93
        0
 40
0.045
309
GRIDFORMAT_END
309
TABLEFORMAT_END
  1
CELLSTYLE_BEGIN
 90
        3
 91
        2
300
_DATA
309
CELLSTYLE_END
  0
XRECORD
  5
3B3
102
{ACAD_REACTORS
330
3B2
102
}
330
3B2
100
AcDbXrecord
280
     1
102
ACAD_ROUNDTRIP_PRE2007_TABLESTYLE
 90
        4
 91
        0
  1

 92
        4
 93
        0
  2

 94
        4
 95
        0
  3

  0
XRECORD
  5
385
102
{ACAD_REACTORS
330
384
102
}
330
384
100
AcDbXrecord
280
     1
102
RTVSPropertyOp0
 70
     1
102
RTVSPropertyOp1
 70
     1
102
RTVSPropertyOp2
 70
     1
102
RTVSPropertyOp3
 70
     1
102
RTVSPropertyOp4
 70
     1
102
RTVSPropertyOp5
 70
     1
102
RTVSPropertyOp6
 70
     1
102
RTVSPropertyOp7
 70
     1
102
RTVSPropertyOp8
 70
     1
102
RTVSPropertyOp9
 70
     1
102
RTVSPropertyOp10
 70
     1
102
RTVSPropertyOp11
 70
     1
102
RTVSPropertyOp12
 70
     1
102
RTVSPropertyOp13
 70
     1
102
RTVSPropertyOp14
 70
     1
102
RTVSPropertyOp15
 70
     1
102
RTVSPropertyOp16
 70
     1
102
RTVSPropertyOp17
 70
     1
102
RTVSPropertyOp18
 70
     1
102
RTVSPropertyOp19
 70
     1
102
RTVSPropertyOp20
 70
     1
102
RTVSPropertyOp21
 70
     1
102
RTVSPropertyOp22
 70
     1
102
RTVSPropertyOp23
 70
     1
102
RTVSPropertyOp24
 70
     1
102
RTVSPropertyOp25
 70
     1
102
RTVSPropertyOp26
 70
     1
102
RTVSPropertyOp27
 70
     1
102
RTVSPropertyOp28
 70
     1
102
RTVSPropertyOp29
 70
     1
102
RTVSPropertyOp30
 70
     1
102
RTVSPropertyOp31
 70
     1
102
RTVSPropertyOp32
 70
     1
102
RTVSPropertyOp33
 70
     1
102
RTVSPropertyOp34
 70
     1
102
RTVSPropertyOp35
 70
     1
102
RTVSPropertyOp36
 70
     1
102
RTVSPropertyOp37
 70
     1
102
RTVSPropertyOp38
 70
     1
102
RTVSPropertyOp39
 70
     1
102
RTVSPropertyOp40
 70
     1
102
RTVSPropertyOp41
 70
     1
102
RTVSPropertyOp42
 70
     1
102
RTVSPropertyOp43
 70
     1
102
RTVSPropertyOp44
 70
     1
102
RTVSPropertyOp45
 70
     1
102
RTVSPropertyOp46
 70
     1
102
RTVSPropertyOp47
 70
     1
102
RTVSPropertyOp48
 70
     1
102
RTVSPropertyOp49
 70
     1
102
RTVSPropertyOp50
 70
     1
102
RTVSPropertyOp51
 70
     0
102
RTVSPropertyOp52
 70
     0
102
RTVSPropertyOp53
 70
     1
102
RTVSPropertyOp54
 70
     1
102
RTVSPropertyOp55
 70
     1
102
RTVSPropertyOp56
 70
     1
102
RTVSPropertyOp57
 70
     1
102
RTVSPost2010Prop28
280
     1
102
RTVSPost2010PropOp28
 70
     1
102
RTVSPost2010Prop29
280
     1
102
RTVSPost2010PropOp29
 70
     1
102
RTVSPost2010Prop30
280
     0
102
RTVSPost2010PropOp30
 70
     1
102
RTVSPost2010Prop31
280
     0
102
RTVSPost2010PropOp31
 70
     1
102
RTVSPost2010Prop32
280
     0
102
RTVSPost2010PropOp32
 70
     1
102
RTVSPost2010Prop33
280
     0
102
RTVSPost2010PropOp33
 70
     1
102
RTVSPost2010Prop34
280
     0
102
RTVSPost2010PropOp34
 70
     1
102
RTVSPost2010Prop35
280
     0
102
RTVSPost2010PropOp35
 70
     1
102
RTVSPost2010Prop36
280
     0
102
RTVSPost2010PropOp36
 70
     1
102
RTVSPost2010Prop37
 90
       50
102
RTVSPost2010PropOp37
 70
     1
102
RTVSPost2010Prop38
140
0.0
102
RTVSPost2010PropOp38
 70
     1
102
RTVSPost2010Prop39
140
1.0
102
RTVSPost2010PropOp39
 70
     1
102
RTVSPost2010Prop40
 90
        0
102
RTVSPost2010PropOp40
 70
     1
102
RTVSPost2010Prop41ColorIndex
 90
       18
102
RTVSPost2010Prop41ColorRGB
 90
        0
102
RTVSPost2010PropOp41
 70
     1
102
RTVSPost2010Prop42
 90
       50
102
RTVSPost2010PropOp42
 70
     1
102
RTVSPost2010Prop43
 90
        3
102
RTVSPost2010PropOp43
 70
     1
102
RTVSPost2010Prop44ColorIndex
 90
        5
102
RTVSPost2010Prop44ColorRGB
 90
      255
102
RTVSPost2010PropOp44
 70
     1
102
RTVSPost2010Prop45
280
     0
102
RTVSPost2010PropOp45
 70
     1
102
RTVSPost2010Prop46
 90
       50
102
RTVSPost2010PropOp46
 70
     1
102
RTVSPost2010Prop47
 90
       50
102
RTVSPost2010PropOp47
 70
     1
102
RTVSPost2010Prop48
 90
       50
102
RTVSPost2010PropOp48
 70
     1
102
RTVSPost2010Prop49
280
     0
102
RTVSPost2010PropOp49
 70
     1
102
RTVSPost2010Prop50
 90
       50
102
RTVSPost2010PropOp50
 70
     1
102
RTVSPost2010Prop51ColorIndex
 90
      256
102
RTVSPost2010Prop51ColorRGB
 90
-16777216
102
RTVSPost2010PropOp51
 70
     0
102
RTVSPost2010Prop52
140
1.0
102
RTVSPost2010PropOp52
 70
     0
102
RTVSPost2010Prop53
 90
        2
102
RTVSPost2010PropOp53
 70
     1
102
RTVSPost2010Prop54
  1
strokes_ogs.tif
102
RTVSPost2010PropOp54
 70
     1
102
RTVSPost2010Prop55
280
     0
102
RTVSPost2010PropOp55
 70
     1
102
RTVSPost2010Prop56
140
1.0
102
RTVSPost2010PropOp56
 70
     1
102
RTVSPost2010Prop57
140
1.0
102
RTVSPost2010PropOp57
 70
     1
  0
XRECORD
  5
38B
102
{ACAD_REACTORS
330
38A
102
}
330
38A
100
AcDbXrecord
280
     1
102
RTVSPropertyOp0
 70
     1
102
RTVSPropertyOp1
 70
     1
102
RTVSPropertyOp2
 70
     1
102
RTVSPropertyOp3
 70
     1
102
RTVSPropertyOp4
 70
     1
102
RTVSPropertyOp5
 70
     1
102
RTVSPropertyOp6
 70
     1
102
RTVSPropertyOp7
 70
     1
102
RTVSPropertyOp8
 70
     1
102
RTVSPropertyOp9
 70
     1
102
RTVSPropertyOp10
 70
     1
102
RTVSPropertyOp11
 70
     1
102
RTVSPropertyOp12
 70
     1
102
RTVSPropertyOp13
 70
     1
102
RTVSPropertyOp14
 70
     1
102
RTVSPropertyOp15
 70
     1
102
RTVSPropertyOp16
 70
     1
102
RTVSPropertyOp17
 70
     1
102
RTVSPropertyOp18
 70
     1
102
RTVSPropertyOp19
 70
     1
102
RTVSPropertyOp20
 70
     1
102
RTVSPropertyOp21
 70
     1
102
RTVSPropertyOp22
 70
     1
102
RTVSPropertyOp23
 70
     1
102
RTVSPropertyOp24
 70
     1
102
RTVSPropertyOp25
 70
     1
102
RTVSPropertyOp26
 70
     1
102
RTVSPropertyOp27
 70
     1
102
RTVSPropertyOp28
 70
     1
102
RTVSPropertyOp29
 70
     1
102
RTVSPropertyOp30
 70
     1
102
RTVSPropertyOp31
 70
     1
102
RTVSPropertyOp32
 70
     1
102
RTVSPropertyOp33
 70
     1
102
RTVSPropertyOp34
 70
     1
102
RTVSPropertyOp35
 70
     1
102
RTVSPropertyOp36
 70
     1
102
RTVSPropertyOp37
 70
     1
102
RTVSPropertyOp38
 70
     1
102
RTVSPropertyOp39
 70
     1
102
RTVSPropertyOp40
 70
     1
102
RTVSPropertyOp41
 70
     1
102
RTVSPropertyOp42
 70
     1
102
RTVSPropertyOp43
 70
     1
102
RTVSPropertyOp44
 70
     1
102
RTVSPropertyOp45
 70
     1
102
RTVSPropertyOp46
 70
     1
102
RTVSPropertyOp47
 70
     1
102
RTVSPropertyOp48
 70
     1
102
RTVSPropertyOp49
 70
     1
102
RTVSPropertyOp50
 70
     1
102
RTVSPropertyOp51
 70
     0
102
RTVSPropertyOp52
 70
     0
102
RTVSPropertyOp53
 70
     1
102
RTVSPropertyOp54
 70
     1
102
RTVSPropertyOp55
 70
     1
102
RTVSPropertyOp56
 70
     1
102
RTVSPropertyOp57
 70
     1
102
RTVSPost2010Prop28
280
     0
102
RTVSPost2010PropOp28
 70
     1
102
RTVSPost2010Prop29
280
     1
102
RTVSPost2010PropOp29
 70
     1
102
RTVSPost2010Prop30
280
     1
102
RTVSPost2010PropOp30
 70
     1
102
RTVSPost2010Prop31
280
     0
102
RTVSPost2010PropOp31
 70
     1
102
RTVSPost2010Prop32
280
     0
102
RTVSPost2010PropOp32
 70
     1
102
RTVSPost2010Prop33
280
     0
102
RTVSPost2010PropOp33
 70
     1
102
RTVSPost2010Prop34
280
     0
102
RTVSPost2010PropOp34
 70
     1
102
RTVSPost2010Prop35
280
     0
102
RTVSPost2010PropOp35
 70
     1
102
RTVSPost2010Prop36
280
     0
102
RTVSPost2010PropOp36
 70
     1
102
RTVSPost2010Prop37
 90
       50
102
RTVSPost2010PropOp37
 70
     1
102
RTVSPost2010Prop38
140
0.0
102
RTVSPost2010PropOp38
 70
     1
102
RTVSPost2010Prop39
140
1.0
102
RTVSPost2010PropOp39
 70
     1
102
RTVSPost2010Prop40
 90
        0
102
RTVSPost2010PropOp40
 70
     1
102
RTVSPost2010Prop41ColorIndex
 90
       18
102
RTVSPost2010Prop41ColorRGB
 90
        0
102
RTVSPost2010PropOp41
 70
     1
102
RTVSPost2010Prop42
 90
       50
102
RTVSPost2010PropOp42
 70
     1
102
RTVSPost2010Prop43
 90
        3
102
RTVSPost2010PropOp43
 70
     1
102
RTVSPost2010Prop44ColorIndex
 90
        5
102
RTVSPost2010Prop44ColorRGB
 90
      255
102
RTVSPost2010PropOp44
 70
     1
102
RTVSPost2010Prop45
280
     0
102
RTVSPost2010PropOp45
 70
     1
102
RTVSPost2010Prop46
 90
       50
102
RTVSPost2010PropOp46
 70
     1
102
RTVSPost2010Prop47
 90
       50
102
RTVSPost2010PropOp47
 70
     1
102
RTVSPost2010Prop48
 90
       50
102
RTVSPost2010PropOp48
 70
     1
102
RTVSPost2010Prop49
280
     0
102
RTVSPost2010PropOp49
 70
     1
102
RTVSPost2010Prop50
 90
       50
102
RTVSPost2010PropOp50
 70
     1
102
RTVSPost2010Prop51ColorIndex
 90
      256
102
RTVSPost2010Prop51ColorRGB
 90
-16777216
102
RTVSPost2010PropOp51
 70
     0
102
RTVSPost2010Prop52
140
1.0
102
RTVSPost2010PropOp52
 70
     0
102
RTVSPost2010Prop53
 90
        2
102
RTVSPost2010PropOp53
 70
     1
102
RTVSPost2010Prop54
  1
strokes_ogs.tif
102
RTVSPost2010PropOp54
 70
     1
102
RTVSPost2010Prop55
280
     0
102
RTVSPost2010PropOp55
 70
     1
102
RTVSPost2010Prop56
140
1.0
102
RTVSPost2010PropOp56
 70
     1
102
RTVSPost2010Prop57
140
1.0
102
RTVSPost2010PropOp57
 70
     1
  0
XRECORD
  5
393
102
{ACAD_REACTORS
330
392
102
}
330
392
100
AcDbXrecord
280
     1
102
RTVSPropertyOp0
 70
     1
102
RTVSPropertyOp1
 70
     1
102
RTVSPropertyOp2
 70
     1
102
RTVSPropertyOp3
 70
     1
102
RTVSPropertyOp4
 70
     1
102
RTVSPropertyOp5
 70
     1
102
RTVSPropertyOp6
 70
     1
102
RTVSPropertyOp7
 70
     1
102
RTVSPropertyOp8
 70
     1
102
RTVSPropertyOp9
 70
     1
102
RTVSPropertyOp10
 70
     1
102
RTVSPropertyOp11
 70
     1
102
RTVSPropertyOp12
 70
     1
102
RTVSPropertyOp13
 70
     1
102
RTVSPropertyOp14
 70
     1
102
RTVSPropertyOp15
 70
     1
102
RTVSPropertyOp16
 70
     1
102
RTVSPropertyOp17
 70
     1
102
RTVSPropertyOp18
 70
     1
102
RTVSPropertyOp19
 70
     1
102
RTVSPropertyOp20
 70
     1
102
RTVSPropertyOp21
 70
     1
102
RTVSPropertyOp22
 70
     1
102
RTVSPropertyOp23
 70
     1
102
RTVSPropertyOp24
 70
     1
102
RTVSPropertyOp25
 70
     1
102
RTVSPropertyOp26
 70
     1
102
RTVSPropertyOp27
 70
     1
102
RTVSPropertyOp28
 70
     1
102
RTVSPropertyOp29
 70
     1
102
RTVSPropertyOp30
 70
     1
102
RTVSPropertyOp31
 70
     1
102
RTVSPropertyOp32
 70
     1
102
RTVSPropertyOp33
 70
     1
102
RTVSPropertyOp34
 70
     1
102
RTVSPropertyOp35
 70
     1
102
RTVSPropertyOp36
 70
     1
102
RTVSPropertyOp37
 70
     1
102
RTVSPropertyOp38
 70
     1
102
RTVSPropertyOp39
 70
     1
102
RTVSPropertyOp40
 70
     1
102
RTVSPropertyOp41
 70
     1
102
RTVSPropertyOp42
 70
     1
102
RTVSPropertyOp43
 70
     1
102
RTVSPropertyOp44
 70
     1
102
RTVSPropertyOp45
 70
     1
102
RTVSPropertyOp46
 70
     1
102
RTVSPropertyOp47
 70
     1
102
RTVSPropertyOp48
 70
     1
102
RTVSPropertyOp49
 70
     1
102
RTVSPropertyOp50
 70
     1
102
RTVSPropertyOp51
 70
     0
102
RTVSPropertyOp52
 70
     0
102
RTVSPropertyOp53
 70
     1
102
RTVSPropertyOp54
 70
     1
102
RTVSPropertyOp55
 70
     1
102
RTVSPropertyOp56
 70
     1
102
RTVSPropertyOp57
 70
     1
102
RTVSPost2010Prop28
280
     0
102
RTVSPost2010PropOp28
 70
     1
102
RTVSPost2010Prop29
280
     1
102
RTVSPost2010PropOp29
 70
     1
102
RTVSPost2010Prop30
280
     1
102
RTVSPost2010PropOp30
 70
     1
102
RTVSPost2010Prop31
280
     0
102
RTVSPost2010PropOp31
 70
     1
102
RTVSPost2010Prop32
280
     0
102
RTVSPost2010PropOp32
 70
     1
102
RTVSPost2010Prop33
280
     0
102
RTVSPost2010PropOp33
 70
     1
102
RTVSPost2010Prop34
280
     0
102
RTVSPost2010PropOp34
 70
     1
102
RTVSPost2010Prop35
280
     0
102
RTVSPost2010PropOp35
 70
     1
102
RTVSPost2010Prop36
280
     0
102
RTVSPost2010PropOp36
 70
     1
102
RTVSPost2010Prop37
 90
       50
102
RTVSPost2010PropOp37
 70
     1
102
RTVSPost2010Prop38
140
0.0
102
RTVSPost2010PropOp38
 70
     1
102
RTVSPost2010Prop39
140
1.0
102
RTVSPost2010PropOp39
 70
     1
102
RTVSPost2010Prop40
 90
        0
102
RTVSPost2010PropOp40
 70
     1
102
RTVSPost2010Prop41ColorIndex
 90
       18
102
RTVSPost2010Prop41ColorRGB
 90
        0
102
RTVSPost2010PropOp41
 70
     1
102
RTVSPost2010Prop42
 90
       50
102
RTVSPost2010PropOp42
 70
     1
102
RTVSPost2010Prop43
 90
        3
102
RTVSPost2010PropOp43
 70
     1
102
RTVSPost2010Prop44ColorIndex
 90
        5
102
RTVSPost2010Prop44ColorRGB
 90
      255
102
RTVSPost2010PropOp44
 70
     1
102
RTVSPost2010Prop45
280
     0
102
RTVSPost2010PropOp45
 70
     1
102
RTVSPost2010Prop46
 90
       50
102
RTVSPost2010PropOp46
 70
     1
102
RTVSPost2010Prop47
 90
       50
102
RTVSPost2010PropOp47
 70
     1
102
RTVSPost2010Prop48
 90
       50
102
RTVSPost2010PropOp48
 70
     1
102
RTVSPost2010Prop49
280
     0
102
RTVSPost2010PropOp49
 70
     1
102
RTVSPost2010Prop50
 90
       50
102
RTVSPost2010PropOp50
 70
     1
102
RTVSPost2010Prop51ColorIndex
 90
      256
102
RTVSPost2010Prop51ColorRGB
 90
-16777216
102
RTVSPost2010PropOp51
 70
     0
102
RTVSPost2010Prop52
140
1.0
102
RTVSPost2010PropOp52
 70
     0
102
RTVSPost2010Prop53
 90
        2
102
RTVSPost2010PropOp53
 70
     1
102
RTVSPost2010Prop54
  1
strokes_ogs.tif
102
RTVSPost2010PropOp54
 70
     1
102
RTVSPost2010Prop55
280
     0
102
RTVSPost2010PropOp55
 70
     1
102
RTVSPost2010Prop56
140
1.0
102
RTVSPost2010PropOp56
 70
     1
102
RTVSPost2010Prop57
140
1.0
102
RTVSPost2010PropOp57
 70
     1
  0
XRECORD
  5
39B
102
{ACAD_REACTORS
330
39A
102
}
330
39A
100
AcDbXrecord
280
     1
102
RTVSPropertyOp0
 70
     1
102
RTVSPropertyOp1
 70
     1
102
RTVSPropertyOp2
 70
     1
102
RTVSPropertyOp3
 70
     1
102
RTVSPropertyOp4
 70
     1
102
RTVSPropertyOp5
 70
     1
102
RTVSPropertyOp6
 70
     1
102
RTVSPropertyOp7
 70
     1
102
RTVSPropertyOp8
 70
     1
102
RTVSPropertyOp9
 70
     1
102
RTVSPropertyOp10
 70
     1
102
RTVSPropertyOp11
 70
     1
102
RTVSPropertyOp12
 70
     1
102
RTVSPropertyOp13
 70
     1
102
RTVSPropertyOp14
 70
     1
102
RTVSPropertyOp15
 70
     1
102
RTVSPropertyOp16
 70
     1
102
RTVSPropertyOp17
 70
     1
102
RTVSPropertyOp18
 70
     1
102
RTVSPropertyOp19
 70
     1
102
RTVSPropertyOp20
 70
     1
102
RTVSPropertyOp21
 70
     1
102
RTVSPropertyOp22
 70
     1
102
RTVSPropertyOp23
 70
     1
102
RTVSPropertyOp24
 70
     1
102
RTVSPropertyOp25
 70
     1
102
RTVSPropertyOp26
 70
     1
102
RTVSPropertyOp27
 70
     1
102
RTVSPropertyOp28
 70
     1
102
RTVSPropertyOp29
 70
     1
102
RTVSPropertyOp30
 70
     1
102
RTVSPropertyOp31
 70
     1
102
RTVSPropertyOp32
 70
     1
102
RTVSPropertyOp33
 70
     1
102
RTVSPropertyOp34
 70
     1
102
RTVSPropertyOp35
 70
     1
102
RTVSPropertyOp36
 70
     1
102
RTVSPropertyOp37
 70
     1
102
RTVSPropertyOp38
 70
     1
102
RTVSPropertyOp39
 70
     1
102
RTVSPropertyOp40
 70
     1
102
RTVSPropertyOp41
 70
     1
102
RTVSPropertyOp42
 70
     1
102
RTVSPropertyOp43
 70
     1
102
RTVSPropertyOp44
 70
     1
102
RTVSPropertyOp45
 70
     1
102
RTVSPropertyOp46
 70
     1
102
RTVSPropertyOp47
 70
     1
102
RTVSPropertyOp48
 70
     1
102
RTVSPropertyOp49
 70
     1
102
RTVSPropertyOp50
 70
     1
102
RTVSPropertyOp51
 70
     0
102
RTVSPropertyOp52
 70
     0
102
RTVSPropertyOp53
 70
     1
102
RTVSPropertyOp54
 70
     1
102
RTVSPropertyOp55
 70
     1
102
RTVSPropertyOp56
 70
     1
102
RTVSPropertyOp57
 70
     1
102
RTVSPost2010Prop28
280
     0
102
RTVSPost2010PropOp28
 70
     1
102
RTVSPost2010Prop29
280
     1
102
RTVSPost2010PropOp29
 70
     1
102
RTVSPost2010Prop30
280
     1
102
RTVSPost2010PropOp30
 70
     1
102
RTVSPost2010Prop31
280
     0
102
RTVSPost2010PropOp31
 70
     1
102
RTVSPost2010Prop32
280
     0
102
RTVSPost2010PropOp32
 70
     1
102
RTVSPost2010Prop33
280
     0
102
RTVSPost2010PropOp33
 70
     1
102
RTVSPost2010Prop34
280
     0
102
RTVSPost2010PropOp34
 70
     1
102
RTVSPost2010Prop35
280
     0
102
RTVSPost2010PropOp35
 70
     1
102
RTVSPost2010Prop36
280
     0
102
RTVSPost2010PropOp36
 70
     1
102
RTVSPost2010Prop37
 90
       50
102
RTVSPost2010PropOp37
 70
     1
102
RTVSPost2010Prop38
140
0.0
102
RTVSPost2010PropOp38
 70
     1
102
RTVSPost2010Prop39
140
1.0
102
RTVSPost2010PropOp39
 70
     1
102
RTVSPost2010Prop40
 90
        0
102
RTVSPost2010PropOp40
 70
     1
102
RTVSPost2010Prop41ColorIndex
 90
       18
102
RTVSPost2010Prop41ColorRGB
 90
        0
102
RTVSPost2010PropOp41
 70
     1
102
RTVSPost2010Prop42
 90
       50
102
RTVSPost2010PropOp42
 70
     1
102
RTVSPost2010Prop43
 90
        3
102
RTVSPost2010PropOp43
 70
     1
102
RTVSPost2010Prop44ColorIndex
 90
        5
102
RTVSPost2010Prop44ColorRGB
 90
      255
102
RTVSPost2010PropOp44
 70
     1
102
RTVSPost2010Prop45
280
     0
102
RTVSPost2010PropOp45
 70
     1
102
RTVSPost2010Prop46
 90
       50
102
RTVSPost2010PropOp46
 70
     1
102
RTVSPost2010Prop47
 90
       50
102
RTVSPost2010PropOp47
 70
     1
102
RTVSPost2010Prop48
 90
       50
102
RTVSPost2010PropOp48
 70
     1
102
RTVSPost2010Prop49
280
     0
102
RTVSPost2010PropOp49
 70
     1
102
RTVSPost2010Prop50
 90
       50
102
RTVSPost2010PropOp50
 70
     1
102
RTVSPost2010Prop51ColorIndex
 90
      256
102
RTVSPost2010Prop51ColorRGB
 90
-16777216
102
RTVSPost2010PropOp51
 70
     0
102
RTVSPost2010Prop52
140
1.0
102
RTVSPost2010PropOp52
 70
     0
102
RTVSPost2010Prop53
 90
        2
102
RTVSPost2010PropOp53
 70
     1
102
RTVSPost2010Prop54
  1
strokes_ogs.tif
102
RTVSPost2010PropOp54
 70
     1
102
RTVSPost2010Prop55
280
     0
102
RTVSPost2010PropOp55
 70
     1
102
RTVSPost2010Prop56
140
1.0
102
RTVSPost2010PropOp56
 70
     1
102
RTVSPost2010Prop57
140
1.0
102
RTVSPost2010PropOp57
 70
     1
  0
XRECORD
  5
38F
102
{ACAD_REACTORS
330
38E
102
}
330
38E
100
AcDbXrecord
280
     1
102
RTVSPropertyOp0
 70
     1
102
RTVSPropertyOp1
 70
     1
102
RTVSPropertyOp2
 70
     1
102
RTVSPropertyOp3
 70
     1
102
RTVSPropertyOp4
 70
     1
102
RTVSPropertyOp5
 70
     1
102
RTVSPropertyOp6
 70
     1
102
RTVSPropertyOp7
 70
     1
102
RTVSPropertyOp8
 70
     1
102
RTVSPropertyOp9
 70
     1
102
RTVSPropertyOp10
 70
     1
102
RTVSPropertyOp11
 70
     1
102
RTVSPropertyOp12
 70
     1
102
RTVSPropertyOp13
 70
     1
102
RTVSPropertyOp14
 70
     1
102
RTVSPropertyOp15
 70
     1
102
RTVSPropertyOp16
 70
     1
102
RTVSPropertyOp17
 70
     1
102
RTVSPropertyOp18
 70
     1
102
RTVSPropertyOp19
 70
     1
102
RTVSPropertyOp20
 70
     1
102
RTVSPropertyOp21
 70
     1
102
RTVSPropertyOp22
 70
     1
102
RTVSPropertyOp23
 70
     1
102
RTVSPropertyOp24
 70
     1
102
RTVSPropertyOp25
 70
     1
102
RTVSPropertyOp26
 70
     1
102
RTVSPropertyOp27
 70
     1
102
RTVSPropertyOp28
 70
     1
102
RTVSPropertyOp29
 70
     1
102
RTVSPropertyOp30
 70
     1
102
RTVSPropertyOp31
 70
     1
102
RTVSPropertyOp32
 70
     1
102
RTVSPropertyOp33
 70
     1
102
RTVSPropertyOp34
 70
     1
102
RTVSPropertyOp35
 70
     1
102
RTVSPropertyOp36
 70
     1
102
RTVSPropertyOp37
 70
     1
102
RTVSPropertyOp38
 70
     1
102
RTVSPropertyOp39
 70
     1
102
RTVSPropertyOp40
 70
     1
102
RTVSPropertyOp41
 70
     1
102
RTVSPropertyOp42
 70
     1
102
RTVSPropertyOp43
 70
     1
102
RTVSPropertyOp44
 70
     1
102
RTVSPropertyOp45
 70
     1
102
RTVSPropertyOp46
 70
     1
102
RTVSPropertyOp47
 70
     1
102
RTVSPropertyOp48
 70
     1
102
RTVSPropertyOp49
 70
     1
102
RTVSPropertyOp50
 70
     1
102
RTVSPropertyOp51
 70
     0
102
RTVSPropertyOp52
 70
     0
102
RTVSPropertyOp53
 70
     1
102
RTVSPropertyOp54
 70
     1
102
RTVSPropertyOp55
 70
     1
102
RTVSPropertyOp56
 70
     1
102
RTVSPropertyOp57
 70
     1
102
RTVSPost2010Prop28
280
     0
102
RTVSPost2010PropOp28
 70
     1
102
RTVSPost2010Prop29
280
     1
102
RTVSPost2010PropOp29
 70
     1
102
RTVSPost2010Prop30
280
     1
102
RTVSPost2010PropOp30
 70
     1
102
RTVSPost2010Prop31
280
     0
102
RTVSPost2010PropOp31
 70
     1
102
RTVSPost2010Prop32
280
     0
102
RTVSPost2010PropOp32
 70
     1
102
RTVSPost2010Prop33
280
     0
102
RTVSPost2010PropOp33
 70
     1
102
RTVSPost2010Prop34
280
     0
102
RTVSPost2010PropOp34
 70
     1
102
RTVSPost2010Prop35
280
     0
102
RTVSPost2010PropOp35
 70
     1
102
RTVSPost2010Prop36
280
     0
102
RTVSPost2010PropOp36
 70
     1
102
RTVSPost2010Prop37
 90
       50
102
RTVSPost2010PropOp37
 70
     1
102
RTVSPost2010Prop38
140
0.0
102
RTVSPost2010PropOp38
 70
     1
102
RTVSPost2010Prop39
140
1.0
102
RTVSPost2010PropOp39
 70
     1
102
RTVSPost2010Prop40
 90
        0
102
RTVSPost2010PropOp40
 70
     1
102
RTVSPost2010Prop41ColorIndex
 90
       18
102
RTVSPost2010Prop41ColorRGB
 90
        0
102
RTVSPost2010PropOp41
 70
     1
102
RTVSPost2010Prop42
 90
       50
102
RTVSPost2010PropOp42
 70
     1
102
RTVSPost2010Prop43
 90
        3
102
RTVSPost2010PropOp43
 70
     1
102
RTVSPost2010Prop44ColorIndex
 90
        5
102
RTVSPost2010Prop44ColorRGB
 90
      255
102
RTVSPost2010PropOp44
 70
     1
102
RTVSPost2010Prop45
280
     0
102
RTVSPost2010PropOp45
 70
     1
102
RTVSPost2010Prop46
 90
       50
102
RTVSPost2010PropOp46
 70
     1
102
RTVSPost2010Prop47
 90
       50
102
RTVSPost2010PropOp47
 70
     1
102
RTVSPost2010Prop48
 90
       50
102
RTVSPost2010PropOp48
 70
     1
102
RTVSPost2010Prop49
280
     0
102
RTVSPost2010PropOp49
 70
     1
102
RTVSPost2010Prop50
 90
       50
102
RTVSPost2010PropOp50
 70
     1
102
RTVSPost2010Prop51ColorIndex
 90
      256
102
RTVSPost2010Prop51ColorRGB
 90
-16777216
102
RTVSPost2010PropOp51
 70
     0
102
RTVSPost2010Prop52
140
1.0
102
RTVSPost2010PropOp52
 70
     0
102
RTVSPost2010Prop53
 90
        2
102
RTVSPost2010PropOp53
 70
     1
102
RTVSPost2010Prop54
  1
strokes_ogs.tif
102
RTVSPost2010PropOp54
 70
     1
102
RTVSPost2010Prop55
280
     0
102
RTVSPost2010PropOp55
 70
     1
102
RTVSPost2010Prop56
140
1.0
102
RTVSPost2010PropOp56
 70
     1
102
RTVSPost2010Prop57
140
1.0
102
RTVSPost2010PropOp57
 70
     1
  0
XRECORD
  5
391
102
{ACAD_REACTORS
330
390
102
}
330
390
100
AcDbXrecord
280
     1
102
RTVSPropertyOp0
 70
     1
102
RTVSPropertyOp1
 70
     1
102
RTVSPropertyOp2
 70
     1
102
RTVSPropertyOp3
 70
     1
102
RTVSPropertyOp4
 70
     1
102
RTVSPropertyOp5
 70
     1
102
RTVSPropertyOp6
 70
     1
102
RTVSPropertyOp7
 70
     1
102
RTVSPropertyOp8
 70
     1
102
RTVSPropertyOp9
 70
     1
102
RTVSPropertyOp10
 70
     1
102
RTVSPropertyOp11
 70
     1
102
RTVSPropertyOp12
 70
     1
102
RTVSPropertyOp13
 70
     1
102
RTVSPropertyOp14
 70
     1
102
RTVSPropertyOp15
 70
     1
102
RTVSPropertyOp16
 70
     1
102
RTVSPropertyOp17
 70
     1
102
RTVSPropertyOp18
 70
     1
102
RTVSPropertyOp19
 70
     1
102
RTVSPropertyOp20
 70
     1
102
RTVSPropertyOp21
 70
     1
102
RTVSPropertyOp22
 70
     1
102
RTVSPropertyOp23
 70
     1
102
RTVSPropertyOp24
 70
     1
102
RTVSPropertyOp25
 70
     1
102
RTVSPropertyOp26
 70
     1
102
RTVSPropertyOp27
 70
     1
102
RTVSPropertyOp28
 70
     1
102
RTVSPropertyOp29
 70
     1
102
RTVSPropertyOp30
 70
     1
102
RTVSPropertyOp31
 70
     1
102
RTVSPropertyOp32
 70
     1
102
RTVSPropertyOp33
 70
     1
102
RTVSPropertyOp34
 70
     1
102
RTVSPropertyOp35
 70
     1
102
RTVSPropertyOp36
 70
     1
102
RTVSPropertyOp37
 70
     1
102
RTVSPropertyOp38
 70
     1
102
RTVSPropertyOp39
 70
     1
102
RTVSPropertyOp40
 70
     1
102
RTVSPropertyOp41
 70
     1
102
RTVSPropertyOp42
 70
     1
102
RTVSPropertyOp43
 70
     1
102
RTVSPropertyOp44
 70
     1
102
RTVSPropertyOp45
 70
     1
102
RTVSPropertyOp46
 70
     1
102
RTVSPropertyOp47
 70
     1
102
RTVSPropertyOp48
 70
     1
102
RTVSPropertyOp49
 70
     1
102
RTVSPropertyOp50
 70
     1
102
RTVSPropertyOp51
 70
     0
102
RTVSPropertyOp52
 70
     0
102
RTVSPropertyOp53
 70
     1
102
RTVSPropertyOp54
 70
     1
102
RTVSPropertyOp55
 70
     1
102
RTVSPropertyOp56
 70
     1
102
RTVSPropertyOp57
 70
     1
102
RTVSPost2010Prop28
280
     0
102
RTVSPost2010PropOp28
 70
     1
102
RTVSPost2010Prop29
280
     1
102
RTVSPost2010PropOp29
 70
     1
102
RTVSPost2010Prop30
280
     1
102
RTVSPost2010PropOp30
 70
     1
102
RTVSPost2010Prop31
280
     0
102
RTVSPost2010PropOp31
 70
     1
102
RTVSPost2010Prop32
280
     0
102
RTVSPost2010PropOp32
 70
     1
102
RTVSPost2010Prop33
280
     0
102
RTVSPost2010PropOp33
 70
     1
102
RTVSPost2010Prop34
280
     0
102
RTVSPost2010PropOp34
 70
     1
102
RTVSPost2010Prop35
280
     0
102
RTVSPost2010PropOp35
 70
     1
102
RTVSPost2010Prop36
280
     0
102
RTVSPost2010PropOp36
 70
     1
102
RTVSPost2010Prop37
 90
       50
102
RTVSPost2010PropOp37
 70
     1
102
RTVSPost2010Prop38
140
0.0
102
RTVSPost2010PropOp38
 70
     1
102
RTVSPost2010Prop39
140
1.0
102
RTVSPost2010PropOp39
 70
     1
102
RTVSPost2010Prop40
 90
        0
102
RTVSPost2010PropOp40
 70
     1
102
RTVSPost2010Prop41ColorIndex
 90
       18
102
RTVSPost2010Prop41ColorRGB
 90
        0
102
RTVSPost2010PropOp41
 70
     1
102
RTVSPost2010Prop42
 90
       50
102
RTVSPost2010PropOp42
 70
     1
102
RTVSPost2010Prop43
 90
        3
102
RTVSPost2010PropOp43
 70
     1
102
RTVSPost2010Prop44ColorIndex
 90
        5
102
RTVSPost2010Prop44ColorRGB
 90
      255
102
RTVSPost2010PropOp44
 70
     1
102
RTVSPost2010Prop45
280
     0
102
RTVSPost2010PropOp45
 70
     1
102
RTVSPost2010Prop46
 90
       50
102
RTVSPost2010PropOp46
 70
     1
102
RTVSPost2010Prop47
 90
       50
102
RTVSPost2010PropOp47
 70
     1
102
RTVSPost2010Prop48
 90
       50
102
RTVSPost2010PropOp48
 70
     1
102
RTVSPost2010Prop49
280
     0
102
RTVSPost2010PropOp49
 70
     1
102
RTVSPost2010Prop50
 90
       50
102
RTVSPost2010PropOp50
 70
     1
102
RTVSPost2010Prop51ColorIndex
 90
      256
102
RTVSPost2010Prop51ColorRGB
 90
-16777216
102
RTVSPost2010PropOp51
 70
     0
102
RTVSPost2010Prop52
140
1.0
102
RTVSPost2010PropOp52
 70
     0
102
RTVSPost2010Prop53
 90
        2
102
RTVSPost2010PropOp53
 70
     1
102
RTVSPost2010Prop54
  1
strokes_ogs.tif
102
RTVSPost2010PropOp54
 70
     1
102
RTVSPost2010Prop55
280
     0
102
RTVSPost2010PropOp55
 70
     1
102
RTVSPost2010Prop56
140
1.0
102
RTVSPost2010PropOp56
 70
     1
102
RTVSPost2010Prop57
140
1.0
102
RTVSPost2010PropOp57
 70
     1
  0
XRECORD
  5
3A1
102
{ACAD_REACTORS
330
3A0
102
}
330
3A0
100
AcDbXrecord
280
     1
102
RTVSPropertyOp0
 70
     0
102
RTVSPropertyOp1
 70
     0
102
RTVSPropertyOp2
 70
     0
102
RTVSPropertyOp3
 70
     0
102
RTVSPropertyOp4
 70
     0
102
RTVSPropertyOp5
 70
     0
102
RTVSPropertyOp6
 70
     0
102
RTVSPropertyOp7
 70
     0
102
RTVSPropertyOp8
 70
     0
102
RTVSPropertyOp9
 70
     0
102
RTVSPropertyOp10
 70
     0
102
RTVSPropertyOp11
 70
     0
102
RTVSPropertyOp12
 70
     0
102
RTVSPropertyOp13
 70
     0
102
RTVSPropertyOp14
 70
     2
102
RTVSPropertyOp15
 70
     0
102
RTVSPropertyOp16
 70
     0
102
RTVSPropertyOp17
 70
     0
102
RTVSPropertyOp18
 70
     0
102
RTVSPropertyOp19
 70
     0
102
RTVSPropertyOp20
 70
     0
102
RTVSPropertyOp21
 70
     0
102
RTVSPropertyOp22
 70
     0
102
RTVSPropertyOp23
 70
     0
102
RTVSPropertyOp24
 70
     0
102
RTVSPropertyOp25
 70
     0
102
RTVSPropertyOp26
 70
     0
102
RTVSPropertyOp27
 70
     0
102
RTVSPropertyOp28
 70
     0
102
RTVSPropertyOp29
 70
     0
102
RTVSPropertyOp30
 70
     0
102
RTVSPropertyOp31
 70
     0
102
RTVSPropertyOp32
 70
     0
102
RTVSPropertyOp33
 70
     0
102
RTVSPropertyOp34
 70
     0
102
RTVSPropertyOp35
 70
     0
102
RTVSPropertyOp36
 70
     0
102
RTVSPropertyOp37
 70
     0
102
RTVSPropertyOp38
 70
     0
102
RTVSPropertyOp39
 70
     0
102
RTVSPropertyOp40
 70
     0
102
RTVSPropertyOp41
 70
     0
102
RTVSPropertyOp42
 70
     0
102
RTVSPropertyOp43
 70
     0
102
RTVSPropertyOp44
 70
     0
102
RTVSPropertyOp45
 70
     0
102
RTVSPropertyOp46
 70
     0
102
RTVSPropertyOp47
 70
     0
102
RTVSPropertyOp48
 70
     0
102
RTVSPropertyOp49
 70
     0
102
RTVSPropertyOp50
 70
     0
102
RTVSPropertyOp51
 70
     0
102
RTVSPropertyOp52
 70
     0
102
RTVSPropertyOp53
 70
     0
102
RTVSPropertyOp54
 70
     0
102
RTVSPropertyOp55
 70
     0
102
RTVSPropertyOp56
 70
     0
102
RTVSPropertyOp57
 70
     0
102
RTVSPost2010Prop28
280
     0
102
RTVSPost2010PropOp28
 70
     0
102
RTVSPost2010Prop29
280
     1
102
RTVSPost2010PropOp29
 70
     0
102
RTVSPost2010Prop30
280
     1
102
RTVSPost2010PropOp30
 70
     0
102
RTVSPost2010Prop31
280
     0
102
RTVSPost2010PropOp31
 70
     0
102
RTVSPost2010Prop32
280
     0
102
RTVSPost2010PropOp32
 70
     0
102
RTVSPost2010Prop33
280
     0
102
RTVSPost2010PropOp33
 70
     0
102
RTVSPost2010Prop34
280
     0
102
RTVSPost2010PropOp34
 70
     0
102
RTVSPost2010Prop35
280
     0
102
RTVSPost2010PropOp35
 70
     0
102
RTVSPost2010Prop36
280
     0
102
RTVSPost2010PropOp36
 70
     0
102
RTVSPost2010Prop37
 90
       50
102
RTVSPost2010PropOp37
 70
     0
102
RTVSPost2010Prop38
140
0.0
102
RTVSPost2010PropOp38
 70
     0
102
RTVSPost2010Prop39
140
1.0
102
RTVSPost2010PropOp39
 70
     0
102
RTVSPost2010Prop40
 90
        0
102
RTVSPost2010PropOp40
 70
     0
102
RTVSPost2010Prop41ColorIndex
 90
       18
102
RTVSPost2010Prop41ColorRGB
 90
        0
102
RTVSPost2010PropOp41
 70
     0
102
RTVSPost2010Prop42
 90
       50
102
RTVSPost2010PropOp42
 70
     0
102
RTVSPost2010Prop43
 90
        3
102
RTVSPost2010PropOp43
 70
     0
102
RTVSPost2010Prop44ColorIndex
 90
        5
102
RTVSPost2010Prop44ColorRGB
 90
      255
102
RTVSPost2010PropOp44
 70
     0
102
RTVSPost2010Prop45
280
     0
102
RTVSPost2010PropOp45
 70
     0
102
RTVSPost2010Prop46
 90
       50
102
RTVSPost2010PropOp46
 70
     0
102
RTVSPost2010Prop47
 90
       50
102
RTVSPost2010PropOp47
 70
     0
102
RTVSPost2010Prop48
 90
       50
102
RTVSPost2010PropOp48
 70
     0
102
RTVSPost2010Prop49
280
     0
102
RTVSPost2010PropOp49
 70
     0
102
RTVSPost2010Prop50
 90
       50
102
RTVSPost2010PropOp50
 70
     0
102
RTVSPost2010Prop51ColorIndex
 90
      256
102
RTVSPost2010Prop51ColorRGB
 90
-16777216
102
RTVSPost2010PropOp51
 70
     0
102
RTVSPost2010Prop52
140
1.0
102
RTVSPost2010PropOp52
 70
     0
102
RTVSPost2010Prop53
 90
        2
102
RTVSPost2010PropOp53
 70
     0
102
RTVSPost2010Prop54
  1
strokes_ogs.tif
102
RTVSPost2010PropOp54
 70
     0
102
RTVSPost2010Prop55
280
     0
102
RTVSPost2010PropOp55
 70
     0
102
RTVSPost2010Prop56
140
1.0
102
RTVSPost2010PropOp56
 70
     0
102
RTVSPost2010Prop57
140
1.0
102
RTVSPost2010PropOp57
 70
     0
  0
XRECORD
  5
399
102
{ACAD_REACTORS
330
398
102
}
330
398
100
AcDbXrecord
280
     1
102
RTVSPropertyOp0
 70
     1
102
RTVSPropertyOp1
 70
     1
102
RTVSPropertyOp2
 70
     1
102
RTVSPropertyOp3
 70
     1
102
RTVSPropertyOp4
 70
     1
102
RTVSPropertyOp5
 70
     1
102
RTVSPropertyOp6
 70
     1
102
RTVSPropertyOp7
 70
     1
102
RTVSPropertyOp8
 70
     1
102
RTVSPropertyOp9
 70
     1
102
RTVSPropertyOp10
 70
     1
102
RTVSPropertyOp11
 70
     1
102
RTVSPropertyOp12
 70
     1
102
RTVSPropertyOp13
 70
     1
102
RTVSPropertyOp14
 70
     1
102
RTVSPropertyOp15
 70
     1
102
RTVSPropertyOp16
 70
     1
102
RTVSPropertyOp17
 70
     1
102
RTVSPropertyOp18
 70
     1
102
RTVSPropertyOp19
 70
     1
102
RTVSPropertyOp20
 70
     1
102
RTVSPropertyOp21
 70
     1
102
RTVSPropertyOp22
 70
     1
102
RTVSPropertyOp23
 70
     1
102
RTVSPropertyOp24
 70
     1
102
RTVSPropertyOp25
 70
     1
102
RTVSPropertyOp26
 70
     1
102
RTVSPropertyOp27
 70
     1
102
RTVSPropertyOp28
 70
     1
102
RTVSPropertyOp29
 70
     1
102
RTVSPropertyOp30
 70
     1
102
RTVSPropertyOp31
 70
     1
102
RTVSPropertyOp32
 70
     1
102
RTVSPropertyOp33
 70
     1
102
RTVSPropertyOp34
 70
     1
102
RTVSPropertyOp35
 70
     1
102
RTVSPropertyOp36
 70
     1
102
RTVSPropertyOp37
 70
     1
102
RTVSPropertyOp38
 70
     1
102
RTVSPropertyOp39
 70
     1
102
RTVSPropertyOp40
 70
     1
102
RTVSPropertyOp41
 70
     1
102
RTVSPropertyOp42
 70
     1
102
RTVSPropertyOp43
 70
     1
102
RTVSPropertyOp44
 70
     1
102
RTVSPropertyOp45
 70
     1
102
RTVSPropertyOp46
 70
     1
102
RTVSPropertyOp47
 70
     1
102
RTVSPropertyOp48
 70
     1
102
RTVSPropertyOp49
 70
     1
102
RTVSPropertyOp50
 70
     1
102
RTVSPropertyOp51
 70
     0
102
RTVSPropertyOp52
 70
     0
102
RTVSPropertyOp53
 70
     1
102
RTVSPropertyOp54
 70
     1
102
RTVSPropertyOp55
 70
     1
102
RTVSPropertyOp56
 70
     1
102
RTVSPropertyOp57
 70
     1
102
RTVSPost2010Prop28
280
     0
102
RTVSPost2010PropOp28
 70
     1
102
RTVSPost2010Prop29
280
     1
102
RTVSPost2010PropOp29
 70
     1
102
RTVSPost2010Prop30
280
     1
102
RTVSPost2010PropOp30
 70
     1
102
RTVSPost2010Prop31
280
     0
102
RTVSPost2010PropOp31
 70
     1
102
RTVSPost2010Prop32
280
     0
102
RTVSPost2010PropOp32
 70
     1
102
RTVSPost2010Prop33
280
     0
102
RTVSPost2010PropOp33
 70
     1
102
RTVSPost2010Prop34
280
     0
102
RTVSPost2010PropOp34
 70
     1
102
RTVSPost2010Prop35
280
     0
102
RTVSPost2010PropOp35
 70
     1
102
RTVSPost2010Prop36
280
     0
102
RTVSPost2010PropOp36
 70
     1
102
RTVSPost2010Prop37
 90
       50
102
RTVSPost2010PropOp37
 70
     1
102
RTVSPost2010Prop38
140
0.0
102
RTVSPost2010PropOp38
 70
     1
102
RTVSPost2010Prop39
140
1.0
102
RTVSPost2010PropOp39
 70
     1
102
RTVSPost2010Prop40
 90
        0
102
RTVSPost2010PropOp40
 70
     1
102
RTVSPost2010Prop41ColorIndex
 90
       18
102
RTVSPost2010Prop41ColorRGB
 90
        0
102
RTVSPost2010PropOp41
 70
     1
102
RTVSPost2010Prop42
 90
       50
102
RTVSPost2010PropOp42
 70
     1
102
RTVSPost2010Prop43
 90
        3
102
RTVSPost2010PropOp43
 70
     1
102
RTVSPost2010Prop44ColorIndex
 90
        5
102
RTVSPost2010Prop44ColorRGB
 90
      255
102
RTVSPost2010PropOp44
 70
     1
102
RTVSPost2010Prop45
280
     0
102
RTVSPost2010PropOp45
 70
     1
102
RTVSPost2010Prop46
 90
       50
102
RTVSPost2010PropOp46
 70
     1
102
RTVSPost2010Prop47
 90
       50
102
RTVSPost2010PropOp47
 70
     1
102
RTVSPost2010Prop48
 90
       50
102
RTVSPost2010PropOp48
 70
     1
102
RTVSPost2010Prop49
280
     0
102
RTVSPost2010PropOp49
 70
     1
102
RTVSPost2010Prop50
 90
       50
102
RTVSPost2010PropOp50
 70
     1
102
RTVSPost2010Prop51ColorIndex
 90
      256
102
RTVSPost2010Prop51ColorRGB
 90
-16777216
102
RTVSPost2010PropOp51
 70
     0
102
RTVSPost2010Prop52
140
1.0
102
RTVSPost2010PropOp52
 70
     0
102
RTVSPost2010Prop53
 90
        2
102
RTVSPost2010PropOp53
 70
     1
102
RTVSPost2010Prop54
  1
strokes_ogs.tif
102
RTVSPost2010PropOp54
 70
     1
102
RTVSPost2010Prop55
280
     0
102
RTVSPost2010PropOp55
 70
     1
102
RTVSPost2010Prop56
140
1.0
102
RTVSPost2010PropOp56
 70
     1
102
RTVSPost2010Prop57
140
1.0
102
RTVSPost2010PropOp57
 70
     1
  0
XRECORD
  5
37D
102
{ACAD_REACTORS
330
37C
102
}
330
37C
100
AcDbXrecord
280
     1
102
RTVSPropertyOp0
 70
     1
102
RTVSPropertyOp1
 70
     1
102
RTVSPropertyOp2
 70
     1
102
RTVSPropertyOp3
 70
     1
102
RTVSPropertyOp4
 70
     1
102
RTVSPropertyOp5
 70
     1
102
RTVSPropertyOp6
 70
     1
102
RTVSPropertyOp7
 70
     1
102
RTVSPropertyOp8
 70
     1
102
RTVSPropertyOp9
 70
     1
102
RTVSPropertyOp10
 70
     1
102
RTVSPropertyOp11
 70
     1
102
RTVSPropertyOp12
 70
     1
102
RTVSPropertyOp13
 70
     1
102
RTVSPropertyOp14
 70
     1
102
RTVSPropertyOp15
 70
     1
102
RTVSPropertyOp16
 70
     1
102
RTVSPropertyOp17
 70
     1
102
RTVSPropertyOp18
 70
     1
102
RTVSPropertyOp19
 70
     1
102
RTVSPropertyOp20
 70
     1
102
RTVSPropertyOp21
 70
     1
102
RTVSPropertyOp22
 70
     1
102
RTVSPropertyOp23
 70
     1
102
RTVSPropertyOp24
 70
     1
102
RTVSPropertyOp25
 70
     1
102
RTVSPropertyOp26
 70
     1
102
RTVSPropertyOp27
 70
     1
102
RTVSPropertyOp28
 70
     1
102
RTVSPropertyOp29
 70
     1
102
RTVSPropertyOp30
 70
     1
102
RTVSPropertyOp31
 70
     1
102
RTVSPropertyOp32
 70
     1
102
RTVSPropertyOp33
 70
     1
102
RTVSPropertyOp34
 70
     1
102
RTVSPropertyOp35
 70
     1
102
RTVSPropertyOp36
 70
     1
102
RTVSPropertyOp37
 70
     1
102
RTVSPropertyOp38
 70
     1
102
RTVSPropertyOp39
 70
     1
102
RTVSPropertyOp40
 70
     1
102
RTVSPropertyOp41
 70
     1
102
RTVSPropertyOp42
 70
     1
102
RTVSPropertyOp43
 70
     1
102
RTVSPropertyOp44
 70
     1
102
RTVSPropertyOp45
 70
     1
102
RTVSPropertyOp46
 70
     1
102
RTVSPropertyOp47
 70
     1
102
RTVSPropertyOp48
 70
     1
102
RTVSPropertyOp49
 70
     1
102
RTVSPropertyOp50
 70
     1
102
RTVSPropertyOp51
 70
     0
102
RTVSPropertyOp52
 70
     0
102
RTVSPropertyOp53
 70
     1
102
RTVSPropertyOp54
 70
     1
102
RTVSPropertyOp55
 70
     1
102
RTVSPropertyOp56
 70
     1
102
RTVSPropertyOp57
 70
     1
102
RTVSPost2010Prop28
280
     0
102
RTVSPost2010PropOp28
 70
     1
102
RTVSPost2010Prop29
280
     1
102
RTVSPost2010PropOp29
 70
     1
102
RTVSPost2010Prop30
280
     1
102
RTVSPost2010PropOp30
 70
     1
102
RTVSPost2010Prop31
280
     0
102
RTVSPost2010PropOp31
 70
     1
102
RTVSPost2010Prop32
280
     0
102
RTVSPost2010PropOp32
 70
     1
102
RTVSPost2010Prop33
280
     0
102
RTVSPost2010PropOp33
 70
     1
102
RTVSPost2010Prop34
280
     0
102
RTVSPost2010PropOp34
 70
     1
102
RTVSPost2010Prop35
280
     0
102
RTVSPost2010PropOp35
 70
     1
102
RTVSPost2010Prop36
280
     0
102
RTVSPost2010PropOp36
 70
     1
102
RTVSPost2010Prop37
 90
       50
102
RTVSPost2010PropOp37
 70
     1
102
RTVSPost2010Prop38
140
0.0
102
RTVSPost2010PropOp38
 70
     1
102
RTVSPost2010Prop39
140
1.0
102
RTVSPost2010PropOp39
 70
     1
102
RTVSPost2010Prop40
 90
        0
102
RTVSPost2010PropOp40
 70
     1
102
RTVSPost2010Prop41ColorIndex
 90
       18
102
RTVSPost2010Prop41ColorRGB
 90
        0
102
RTVSPost2010PropOp41
 70
     1
102
RTVSPost2010Prop42
 90
       50
102
RTVSPost2010PropOp42
 70
     1
102
RTVSPost2010Prop43
 90
        3
102
RTVSPost2010PropOp43
 70
     1
102
RTVSPost2010Prop44ColorIndex
 90
        5
102
RTVSPost2010Prop44ColorRGB
 90
      255
102
RTVSPost2010PropOp44
 70
     1
102
RTVSPost2010Prop45
280
     0
102
RTVSPost2010PropOp45
 70
     1
102
RTVSPost2010Prop46
 90
       50
102
RTVSPost2010PropOp46
 70
     1
102
RTVSPost2010Prop47
 90
       50
102
RTVSPost2010PropOp47
 70
     1
102
RTVSPost2010Prop48
 90
       50
102
RTVSPost2010PropOp48
 70
     1
102
RTVSPost2010Prop49
280
     0
102
RTVSPost2010PropOp49
 70
     1
102
RTVSPost2010Prop50
 90
       50
102
RTVSPost2010PropOp50
 70
     1
102
RTVSPost2010Prop51ColorIndex
 90
      256
102
RTVSPost2010Prop51ColorRGB
 90
-16777216
102
RTVSPost2010PropOp51
 70
     0
102
RTVSPost2010Prop52
140
1.0
102
RTVSPost2010PropOp52
 70
     0
102
RTVSPost2010Prop53
 90
        2
102
RTVSPost2010PropOp53
 70
     1
102
RTVSPost2010Prop54
  1
strokes_ogs.tif
102
RTVSPost2010PropOp54
 70
     1
102
RTVSPost2010Prop55
280
     0
102
RTVSPost2010PropOp55
 70
     1
102
RTVSPost2010Prop56
140
1.0
102
RTVSPost2010PropOp56
 70
     1
102
RTVSPost2010Prop57
140
1.0
102
RTVSPost2010PropOp57
 70
     1
  0
XRECORD
  5
37F
102
{ACAD_REACTORS
330
37E
102
}
330
37E
100
AcDbXrecord
280
     1
102
RTVSPropertyOp0
 70
     1
102
RTVSPropertyOp1
 70
     1
102
RTVSPropertyOp2
 70
     1
102
RTVSPropertyOp3
 70
     1
102
RTVSPropertyOp4
 70
     1
102
RTVSPropertyOp5
 70
     1
102
RTVSPropertyOp6
 70
     1
102
RTVSPropertyOp7
 70
     1
102
RTVSPropertyOp8
 70
     1
102
RTVSPropertyOp9
 70
     1
102
RTVSPropertyOp10
 70
     1
102
RTVSPropertyOp11
 70
     1
102
RTVSPropertyOp12
 70
     1
102
RTVSPropertyOp13
 70
     1
102
RTVSPropertyOp14
 70
     1
102
RTVSPropertyOp15
 70
     1
102
RTVSPropertyOp16
 70
     1
102
RTVSPropertyOp17
 70
     1
102
RTVSPropertyOp18
 70
     1
102
RTVSPropertyOp19
 70
     1
102
RTVSPropertyOp20
 70
     1
102
RTVSPropertyOp21
 70
     1
102
RTVSPropertyOp22
 70
     1
102
RTVSPropertyOp23
 70
     1
102
RTVSPropertyOp24
 70
     1
102
RTVSPropertyOp25
 70
     1
102
RTVSPropertyOp26
 70
     1
102
RTVSPropertyOp27
 70
     1
102
RTVSPropertyOp28
 70
     1
102
RTVSPropertyOp29
 70
     1
102
RTVSPropertyOp30
 70
     1
102
RTVSPropertyOp31
 70
     1
102
RTVSPropertyOp32
 70
     1
102
RTVSPropertyOp33
 70
     1
102
RTVSPropertyOp34
 70
     1
102
RTVSPropertyOp35
 70
     1
102
RTVSPropertyOp36
 70
     1
102
RTVSPropertyOp37
 70
     1
102
RTVSPropertyOp38
 70
     1
102
RTVSPropertyOp39
 70
     1
102
RTVSPropertyOp40
 70
     1
102
RTVSPropertyOp41
 70
     1
102
RTVSPropertyOp42
 70
     1
102
RTVSPropertyOp43
 70
     1
102
RTVSPropertyOp44
 70
     1
102
RTVSPropertyOp45
 70
     1
102
RTVSPropertyOp46
 70
     1
102
RTVSPropertyOp47
 70
     1
102
RTVSPropertyOp48
 70
     1
102
RTVSPropertyOp49
 70
     1
102
RTVSPropertyOp50
 70
     1
102
RTVSPropertyOp51
 70
     0
102
RTVSPropertyOp52
 70
     0
102
RTVSPropertyOp53
 70
     1
102
RTVSPropertyOp54
 70
     1
102
RTVSPropertyOp55
 70
     1
102
RTVSPropertyOp56
 70
     1
102
RTVSPropertyOp57
 70
     1
102
RTVSPost2010Prop28
280
     0
102
RTVSPost2010PropOp28
 70
     1
102
RTVSPost2010Prop29
280
     1
102
RTVSPost2010PropOp29
 70
     1
102
RTVSPost2010Prop30
280
     1
102
RTVSPost2010PropOp30
 70
     1
102
RTVSPost2010Prop31
280
     0
102
RTVSPost2010PropOp31
 70
     1
102
RTVSPost2010Prop32
280
     0
102
RTVSPost2010PropOp32
 70
     1
102
RTVSPost2010Prop33
280
     0
102
RTVSPost2010PropOp33
 70
     1
102
RTVSPost2010Prop34
280
     0
102
RTVSPost2010PropOp34
 70
     1
102
RTVSPost2010Prop35
280
     0
102
RTVSPost2010PropOp35
 70
     1
102
RTVSPost2010Prop36
280
     0
102
RTVSPost2010PropOp36
 70
     1
102
RTVSPost2010Prop37
 90
       50
102
RTVSPost2010PropOp37
 70
     1
102
RTVSPost2010Prop38
140
0.0
102
RTVSPost2010PropOp38
 70
     1
102
RTVSPost2010Prop39
140
1.0
102
RTVSPost2010PropOp39
 70
     1
102
RTVSPost2010Prop40
 90
        0
102
RTVSPost2010PropOp40
 70
     1
102
RTVSPost2010Prop41ColorIndex
 90
       18
102
RTVSPost2010Prop41ColorRGB
 90
        0
102
RTVSPost2010PropOp41
 70
     1
102
RTVSPost2010Prop42
 90
       50
102
RTVSPost2010PropOp42
 70
     1
102
RTVSPost2010Prop43
 90
        3
102
RTVSPost2010PropOp43
 70
     1
102
RTVSPost2010Prop44ColorIndex
 90
        5
102
RTVSPost2010Prop44ColorRGB
 90
      255
102
RTVSPost2010PropOp44
 70
     1
102
RTVSPost2010Prop45
280
     0
102
RTVSPost2010PropOp45
 70
     1
102
RTVSPost2010Prop46
 90
       50
102
RTVSPost2010PropOp46
 70
     1
102
RTVSPost2010Prop47
 90
       50
102
RTVSPost2010PropOp47
 70
     1
102
RTVSPost2010Prop48
 90
       50
102
RTVSPost2010PropOp48
 70
     1
102
RTVSPost2010Prop49
280
     0
102
RTVSPost2010PropOp49
 70
     1
102
RTVSPost2010Prop50
 90
       50
102
RTVSPost2010PropOp50
 70
     1
102
RTVSPost2010Prop51ColorIndex
 90
      256
102
RTVSPost2010Prop51ColorRGB
 90
-16777216
102
RTVSPost2010PropOp51
 70
     0
102
RTVSPost2010Prop52
140
1.0
102
RTVSPost2010PropOp52
 70
     0
102
RTVSPost2010Prop53
 90
        2
102
RTVSPost2010PropOp53
 70
     1
102
RTVSPost2010Prop54
  1
strokes_ogs.tif
102
RTVSPost2010PropOp54
 70
     1
102
RTVSPost2010Prop55
280
     0
102
RTVSPost2010PropOp55
 70
     1
102
RTVSPost2010Prop56
140
1.0
102
RTVSPost2010PropOp56
 70
     1
102
RTVSPost2010Prop57
140
1.0
102
RTVSPost2010PropOp57
 70
     1
  0
XRECORD
  5
381
102
{ACAD_REACTORS
330
380
102
}
330
380
100
AcDbXrecord
280
     1
102
RTVSPropertyOp0
 70
     1
102
RTVSPropertyOp1
 70
     1
102
RTVSPropertyOp2
 70
     1
102
RTVSPropertyOp3
 70
     1
102
RTVSPropertyOp4
 70
     1
102
RTVSPropertyOp5
 70
     1
102
RTVSPropertyOp6
 70
     1
102
RTVSPropertyOp7
 70
     1
102
RTVSPropertyOp8
 70
     1
102
RTVSPropertyOp9
 70
     1
102
RTVSPropertyOp10
 70
     1
102
RTVSPropertyOp11
 70
     1
102
RTVSPropertyOp12
 70
     1
102
RTVSPropertyOp13
 70
     1
102
RTVSPropertyOp14
 70
     1
102
RTVSPropertyOp15
 70
     1
102
RTVSPropertyOp16
 70
     1
102
RTVSPropertyOp17
 70
     1
102
RTVSPropertyOp18
 70
     1
102
RTVSPropertyOp19
 70
     1
102
RTVSPropertyOp20
 70
     1
102
RTVSPropertyOp21
 70
     1
102
RTVSPropertyOp22
 70
     1
102
RTVSPropertyOp23
 70
     1
102
RTVSPropertyOp24
 70
     1
102
RTVSPropertyOp25
 70
     1
102
RTVSPropertyOp26
 70
     1
102
RTVSPropertyOp27
 70
     1
102
RTVSPropertyOp28
 70
     1
102
RTVSPropertyOp29
 70
     1
102
RTVSPropertyOp30
 70
     1
102
RTVSPropertyOp31
 70
     1
102
RTVSPropertyOp32
 70
     1
102
RTVSPropertyOp33
 70
     1
102
RTVSPropertyOp34
 70
     1
102
RTVSPropertyOp35
 70
     1
102
RTVSPropertyOp36
 70
     1
102
RTVSPropertyOp37
 70
     1
102
RTVSPropertyOp38
 70
     1
102
RTVSPropertyOp39
 70
     1
102
RTVSPropertyOp40
 70
     1
102
RTVSPropertyOp41
 70
     1
102
RTVSPropertyOp42
 70
     1
102
RTVSPropertyOp43
 70
     1
102
RTVSPropertyOp44
 70
     1
102
RTVSPropertyOp45
 70
     1
102
RTVSPropertyOp46
 70
     1
102
RTVSPropertyOp47
 70
     1
102
RTVSPropertyOp48
 70
     1
102
RTVSPropertyOp49
 70
     1
102
RTVSPropertyOp50
 70
     1
102
RTVSPropertyOp51
 70
     0
102
RTVSPropertyOp52
 70
     0
102
RTVSPropertyOp53
 70
     1
102
RTVSPropertyOp54
 70
     1
102
RTVSPropertyOp55
 70
     1
102
RTVSPropertyOp56
 70
     1
102
RTVSPropertyOp57
 70
     1
102
RTVSPost2010Prop28
280
     0
102
RTVSPost2010PropOp28
 70
     1
102
RTVSPost2010Prop29
280
     1
102
RTVSPost2010PropOp29
 70
     1
102
RTVSPost2010Prop30
280
     1
102
RTVSPost2010PropOp30
 70
     1
102
RTVSPost2010Prop31
280
     0
102
RTVSPost2010PropOp31
 70
     1
102
RTVSPost2010Prop32
280
     0
102
RTVSPost2010PropOp32
 70
     1
102
RTVSPost2010Prop33
280
     0
102
RTVSPost2010PropOp33
 70
     1
102
RTVSPost2010Prop34
280
     0
102
RTVSPost2010PropOp34
 70
     1
102
RTVSPost2010Prop35
280
     0
102
RTVSPost2010PropOp35
 70
     1
102
RTVSPost2010Prop36
280
     0
102
RTVSPost2010PropOp36
 70
     1
102
RTVSPost2010Prop37
 90
       50
102
RTVSPost2010PropOp37
 70
     1
102
RTVSPost2010Prop38
140
0.0
102
RTVSPost2010PropOp38
 70
     1
102
RTVSPost2010Prop39
140
1.0
102
RTVSPost2010PropOp39
 70
     1
102
RTVSPost2010Prop40
 90
        0
102
RTVSPost2010PropOp40
 70
     1
102
RTVSPost2010Prop41ColorIndex
 90
       18
102
RTVSPost2010Prop41ColorRGB
 90
        0
102
RTVSPost2010PropOp41
 70
     1
102
RTVSPost2010Prop42
 90
       50
102
RTVSPost2010PropOp42
 70
     1
102
RTVSPost2010Prop43
 90
        3
102
RTVSPost2010PropOp43
 70
     1
102
RTVSPost2010Prop44ColorIndex
 90
        5
102
RTVSPost2010Prop44ColorRGB
 90
      255
102
RTVSPost2010PropOp44
 70
     1
102
RTVSPost2010Prop45
280
     0
102
RTVSPost2010PropOp45
 70
     1
102
RTVSPost2010Prop46
 90
       50
102
RTVSPost2010PropOp46
 70
     1
102
RTVSPost2010Prop47
 90
       50
102
RTVSPost2010PropOp47
 70
     1
102
RTVSPost2010Prop48
 90
       50
102
RTVSPost2010PropOp48
 70
     1
102
RTVSPost2010Prop49
280
     0
102
RTVSPost2010PropOp49
 70
     1
102
RTVSPost2010Prop50
 90
       50
102
RTVSPost2010PropOp50
 70
     1
102
RTVSPost2010Prop51ColorIndex
 90
      256
102
RTVSPost2010Prop51ColorRGB
 90
-16777216
102
RTVSPost2010PropOp51
 70
     0
102
RTVSPost2010Prop52
140
1.0
102
RTVSPost2010PropOp52
 70
     0
102
RTVSPost2010Prop53
 90
        2
102
RTVSPost2010PropOp53
 70
     1
102
RTVSPost2010Prop54
  1
strokes_ogs.tif
102
RTVSPost2010PropOp54
 70
     1
102
RTVSPost2010Prop55
280
     0
102
RTVSPost2010PropOp55
 70
     1
102
RTVSPost2010Prop56
140
1.0
102
RTVSPost2010PropOp56
 70
     1
102
RTVSPost2010Prop57
140
1.0
102
RTVSPost2010PropOp57
 70
     1
  0
XRECORD
  5
383
102
{ACAD_REACTORS
330
382
102
}
330
382
100
AcDbXrecord
280
     1
102
RTVSPropertyOp0
 70
     1
102
RTVSPropertyOp1
 70
     1
102
RTVSPropertyOp2
 70
     1
102
RTVSPropertyOp3
 70
     1
102
RTVSPropertyOp4
 70
     1
102
RTVSPropertyOp5
 70
     1
102
RTVSPropertyOp6
 70
     1
102
RTVSPropertyOp7
 70
     1
102
RTVSPropertyOp8
 70
     1
102
RTVSPropertyOp9
 70
     1
102
RTVSPropertyOp10
 70
     1
102
RTVSPropertyOp11
 70
     1
102
RTVSPropertyOp12
 70
     1
102
RTVSPropertyOp13
 70
     1
102
RTVSPropertyOp14
 70
     1
102
RTVSPropertyOp15
 70
     1
102
RTVSPropertyOp16
 70
     1
102
RTVSPropertyOp17
 70
     1
102
RTVSPropertyOp18
 70
     1
102
RTVSPropertyOp19
 70
     1
102
RTVSPropertyOp20
 70
     1
102
RTVSPropertyOp21
 70
     1
102
RTVSPropertyOp22
 70
     1
102
RTVSPropertyOp23
 70
     1
102
RTVSPropertyOp24
 70
     1
102
RTVSPropertyOp25
 70
     1
102
RTVSPropertyOp26
 70
     1
102
RTVSPropertyOp27
 70
     1
102
RTVSPropertyOp28
 70
     1
102
RTVSPropertyOp29
 70
     1
102
RTVSPropertyOp30
 70
     1
102
RTVSPropertyOp31
 70
     1
102
RTVSPropertyOp32
 70
     1
102
RTVSPropertyOp33
 70
     1
102
RTVSPropertyOp34
 70
     1
102
RTVSPropertyOp35
 70
     1
102
RTVSPropertyOp36
 70
     1
102
RTVSPropertyOp37
 70
     1
102
RTVSPropertyOp38
 70
     1
102
RTVSPropertyOp39
 70
     1
102
RTVSPropertyOp40
 70
     1
102
RTVSPropertyOp41
 70
     1
102
RTVSPropertyOp42
 70
     1
102
RTVSPropertyOp43
 70
     1
102
RTVSPropertyOp44
 70
     1
102
RTVSPropertyOp45
 70
     1
102
RTVSPropertyOp46
 70
     1
102
RTVSPropertyOp47
 70
     1
102
RTVSPropertyOp48
 70
     1
102
RTVSPropertyOp49
 70
     1
102
RTVSPropertyOp50
 70
     1
102
RTVSPropertyOp51
 70
     0
102
RTVSPropertyOp52
 70
     0
102
RTVSPropertyOp53
 70
     1
102
RTVSPropertyOp54
 70
     1
102
RTVSPropertyOp55
 70
     1
102
RTVSPropertyOp56
 70
     1
102
RTVSPropertyOp57
 70
     1
102
RTVSPost2010Prop28
280
     0
102
RTVSPost2010PropOp28
 70
     1
102
RTVSPost2010Prop29
280
     1
102
RTVSPost2010PropOp29
 70
     1
102
RTVSPost2010Prop30
280
     1
102
RTVSPost2010PropOp30
 70
     1
102
RTVSPost2010Prop31
280
     0
102
RTVSPost2010PropOp31
 70
     1
102
RTVSPost2010Prop32
280
     0
102
RTVSPost2010PropOp32
 70
     1
102
RTVSPost2010Prop33
280
     0
102
RTVSPost2010PropOp33
 70
     1
102
RTVSPost2010Prop34
280
     0
102
RTVSPost2010PropOp34
 70
     1
102
RTVSPost2010Prop35
280
     0
102
RTVSPost2010PropOp35
 70
     1
102
RTVSPost2010Prop36
280
     0
102
RTVSPost2010PropOp36
 70
     1
102
RTVSPost2010Prop37
 90
       50
102
RTVSPost2010PropOp37
 70
     1
102
RTVSPost2010Prop38
140
0.0
102
RTVSPost2010PropOp38
 70
     1
102
RTVSPost2010Prop39
140
1.0
102
RTVSPost2010PropOp39
 70
     1
102
RTVSPost2010Prop40
 90
        0
102
RTVSPost2010PropOp40
 70
     1
102
RTVSPost2010Prop41ColorIndex
 90
       18
102
RTVSPost2010Prop41ColorRGB
 90
        0
102
RTVSPost2010PropOp41
 70
     1
102
RTVSPost2010Prop42
 90
       50
102
RTVSPost2010PropOp42
 70
     1
102
RTVSPost2010Prop43
 90
        3
102
RTVSPost2010PropOp43
 70
     1
102
RTVSPost2010Prop44ColorIndex
 90
        5
102
RTVSPost2010Prop44ColorRGB
 90
      255
102
RTVSPost2010PropOp44
 70
     1
102
RTVSPost2010Prop45
280
     0
102
RTVSPost2010PropOp45
 70
     1
102
RTVSPost2010Prop46
 90
       50
102
RTVSPost2010PropOp46
 70
     1
102
RTVSPost2010Prop47
 90
       50
102
RTVSPost2010PropOp47
 70
     1
102
RTVSPost2010Prop48
 90
       50
102
RTVSPost2010PropOp48
 70
     1
102
RTVSPost2010Prop49
280
     0
102
RTVSPost2010PropOp49
 70
     1
102
RTVSPost2010Prop50
 90
       50
102
RTVSPost2010PropOp50
 70
     1
102
RTVSPost2010Prop51ColorIndex
 90
      256
102
RTVSPost2010Prop51ColorRGB
 90
-16777216
102
RTVSPost2010PropOp51
 70
     0
102
RTVSPost2010Prop52
140
1.0
102
RTVSPost2010PropOp52
 70
     0
102
RTVSPost2010Prop53
 90
        2
102
RTVSPost2010PropOp53
 70
     1
102
RTVSPost2010Prop54
  1
strokes_ogs.tif
102
RTVSPost2010PropOp54
 70
     1
102
RTVSPost2010Prop55
280
     0
102
RTVSPost2010PropOp55
 70
     1
102
RTVSPost2010Prop56
140
1.0
102
RTVSPost2010PropOp56
 70
     1
102
RTVSPost2010Prop57
140
1.0
102
RTVSPost2010PropOp57
 70
     1
  0
XRECORD
  5
389
102
{ACAD_REACTORS
330
388
102
}
330
388
100
AcDbXrecord
280
     1
102
RTVSPropertyOp0
 70
     1
102
RTVSPropertyOp1
 70
     1
102
RTVSPropertyOp2
 70
     1
102
RTVSPropertyOp3
 70
     1
102
RTVSPropertyOp4
 70
     1
102
RTVSPropertyOp5
 70
     1
102
RTVSPropertyOp6
 70
     1
102
RTVSPropertyOp7
 70
     1
102
RTVSPropertyOp8
 70
     1
102
RTVSPropertyOp9
 70
     1
102
RTVSPropertyOp10
 70
     1
102
RTVSPropertyOp11
 70
     1
102
RTVSPropertyOp12
 70
     1
102
RTVSPropertyOp13
 70
     1
102
RTVSPropertyOp14
 70
     1
102
RTVSPropertyOp15
 70
     1
102
RTVSPropertyOp16
 70
     1
102
RTVSPropertyOp17
 70
     1
102
RTVSPropertyOp18
 70
     1
102
RTVSPropertyOp19
 70
     1
102
RTVSPropertyOp20
 70
     1
102
RTVSPropertyOp21
 70
     1
102
RTVSPropertyOp22
 70
     1
102
RTVSPropertyOp23
 70
     1
102
RTVSPropertyOp24
 70
     1
102
RTVSPropertyOp25
 70
     1
102
RTVSPropertyOp26
 70
     1
102
RTVSPropertyOp27
 70
     1
102
RTVSPropertyOp28
 70
     1
102
RTVSPropertyOp29
 70
     1
102
RTVSPropertyOp30
 70
     1
102
RTVSPropertyOp31
 70
     1
102
RTVSPropertyOp32
 70
     1
102
RTVSPropertyOp33
 70
     1
102
RTVSPropertyOp34
 70
     1
102
RTVSPropertyOp35
 70
     1
102
RTVSPropertyOp36
 70
     1
102
RTVSPropertyOp37
 70
     1
102
RTVSPropertyOp38
 70
     1
102
RTVSPropertyOp39
 70
     1
102
RTVSPropertyOp40
 70
     1
102
RTVSPropertyOp41
 70
     1
102
RTVSPropertyOp42
 70
     1
102
RTVSPropertyOp43
 70
     1
102
RTVSPropertyOp44
 70
     1
102
RTVSPropertyOp45
 70
     1
102
RTVSPropertyOp46
 70
     1
102
RTVSPropertyOp47
 70
     1
102
RTVSPropertyOp48
 70
     1
102
RTVSPropertyOp49
 70
     1
102
RTVSPropertyOp50
 70
     1
102
RTVSPropertyOp51
 70
     0
102
RTVSPropertyOp52
 70
     0
102
RTVSPropertyOp53
 70
     1
102
RTVSPropertyOp54
 70
     1
102
RTVSPropertyOp55
 70
     1
102
RTVSPropertyOp56
 70
     1
102
RTVSPropertyOp57
 70
     1
102
RTVSPost2010Prop28
280
     0
102
RTVSPost2010PropOp28
 70
     1
102
RTVSPost2010Prop29
280
     1
102
RTVSPost2010PropOp29
 70
     1
102
RTVSPost2010Prop30
280
     1
102
RTVSPost2010PropOp30
 70
     1
102
RTVSPost2010Prop31
280
     0
102
RTVSPost2010PropOp31
 70
     1
102
RTVSPost2010Prop32
280
     0
102
RTVSPost2010PropOp32
 70
     1
102
RTVSPost2010Prop33
280
     0
102
RTVSPost2010PropOp33
 70
     1
102
RTVSPost2010Prop34
280
     0
102
RTVSPost2010PropOp34
 70
     1
102
RTVSPost2010Prop35
280
     0
102
RTVSPost2010PropOp35
 70
     1
102
RTVSPost2010Prop36
280
     0
102
RTVSPost2010PropOp36
 70
     1
102
RTVSPost2010Prop37
 90
       50
102
RTVSPost2010PropOp37
 70
     1
102
RTVSPost2010Prop38
140
0.0
102
RTVSPost2010PropOp38
 70
     1
102
RTVSPost2010Prop39
140
1.0
102
RTVSPost2010PropOp39
 70
     1
102
RTVSPost2010Prop40
 90
        0
102
RTVSPost2010PropOp40
 70
     1
102
RTVSPost2010Prop41ColorIndex
 90
       18
102
RTVSPost2010Prop41ColorRGB
 90
        0
102
RTVSPost2010PropOp41
 70
     1
102
RTVSPost2010Prop42
 90
       50
102
RTVSPost2010PropOp42
 70
     1
102
RTVSPost2010Prop43
 90
        3
102
RTVSPost2010PropOp43
 70
     1
102
RTVSPost2010Prop44ColorIndex
 90
        5
102
RTVSPost2010Prop44ColorRGB
 90
      255
102
RTVSPost2010PropOp44
 70
     1
102
RTVSPost2010Prop45
280
     0
102
RTVSPost2010PropOp45
 70
     1
102
RTVSPost2010Prop46
 90
       50
102
RTVSPost2010PropOp46
 70
     1
102
RTVSPost2010Prop47
 90
       50
102
RTVSPost2010PropOp47
 70
     1
102
RTVSPost2010Prop48
 90
       50
102
RTVSPost2010PropOp48
 70
     1
102
RTVSPost2010Prop49
280
     0
102
RTVSPost2010PropOp49
 70
     1
102
RTVSPost2010Prop50
 90
       50
102
RTVSPost2010PropOp50
 70
     1
102
RTVSPost2010Prop51ColorIndex
 90
      256
102
RTVSPost2010Prop51ColorRGB
 90
-16777216
102
RTVSPost2010PropOp51
 70
     0
102
RTVSPost2010Prop52
140
1.0
102
RTVSPost2010PropOp52
 70
     0
102
RTVSPost2010Prop53
 90
        2
102
RTVSPost2010PropOp53
 70
     1
102
RTVSPost2010Prop54
  1
strokes_ogs.tif
102
RTVSPost2010PropOp54
 70
     1
102
RTVSPost2010Prop55
280
     0
102
RTVSPost2010PropOp55
 70
     1
102
RTVSPost2010Prop56
140
1.0
102
RTVSPost2010PropOp56
 70
     1
102
RTVSPost2010Prop57
140
1.0
102
RTVSPost2010PropOp57
 70
     1
  0
XRECORD
  5
39D
102
{ACAD_REACTORS
330
39C
102
}
330
39C
100
AcDbXrecord
280
     1
102
RTVSPropertyOp0
 70
     0
102
RTVSPropertyOp1
 70
     0
102
RTVSPropertyOp2
 70
     0
102
RTVSPropertyOp3
 70
     0
102
RTVSPropertyOp4
 70
     0
102
RTVSPropertyOp5
 70
     0
102
RTVSPropertyOp6
 70
     0
102
RTVSPropertyOp7
 70
     0
102
RTVSPropertyOp8
 70
     0
102
RTVSPropertyOp9
 70
     0
102
RTVSPropertyOp10
 70
     0
102
RTVSPropertyOp11
 70
     0
102
RTVSPropertyOp12
 70
     0
102
RTVSPropertyOp13
 70
     0
102
RTVSPropertyOp14
 70
     2
102
RTVSPropertyOp15
 70
     0
102
RTVSPropertyOp16
 70
     0
102
RTVSPropertyOp17
 70
     0
102
RTVSPropertyOp18
 70
     0
102
RTVSPropertyOp19
 70
     0
102
RTVSPropertyOp20
 70
     0
102
RTVSPropertyOp21
 70
     0
102
RTVSPropertyOp22
 70
     0
102
RTVSPropertyOp23
 70
     0
102
RTVSPropertyOp24
 70
     0
102
RTVSPropertyOp25
 70
     0
102
RTVSPropertyOp26
 70
     0
102
RTVSPropertyOp27
 70
     0
102
RTVSPropertyOp28
 70
     0
102
RTVSPropertyOp29
 70
     0
102
RTVSPropertyOp30
 70
     0
102
RTVSPropertyOp31
 70
     0
102
RTVSPropertyOp32
 70
     0
102
RTVSPropertyOp33
 70
     0
102
RTVSPropertyOp34
 70
     0
102
RTVSPropertyOp35
 70
     0
102
RTVSPropertyOp36
 70
     0
102
RTVSPropertyOp37
 70
     0
102
RTVSPropertyOp38
 70
     0
102
RTVSPropertyOp39
 70
     0
102
RTVSPropertyOp40
 70
     0
102
RTVSPropertyOp41
 70
     0
102
RTVSPropertyOp42
 70
     0
102
RTVSPropertyOp43
 70
     0
102
RTVSPropertyOp44
 70
     0
102
RTVSPropertyOp45
 70
     0
102
RTVSPropertyOp46
 70
     0
102
RTVSPropertyOp47
 70
     0
102
RTVSPropertyOp48
 70
     0
102
RTVSPropertyOp49
 70
     0
102
RTVSPropertyOp50
 70
     0
102
RTVSPropertyOp51
 70
     0
102
RTVSPropertyOp52
 70
     0
102
RTVSPropertyOp53
 70
     0
102
RTVSPropertyOp54
 70
     0
102
RTVSPropertyOp55
 70
     0
102
RTVSPropertyOp56
 70
     0
102
RTVSPropertyOp57
 70
     0
102
RTVSPost2010Prop28
280
     0
102
RTVSPost2010PropOp28
 70
     0
102
RTVSPost2010Prop29
280
     1
102
RTVSPost2010PropOp29
 70
     0
102
RTVSPost2010Prop30
280
     1
102
RTVSPost2010PropOp30
 70
     0
102
RTVSPost2010Prop31
280
     0
102
RTVSPost2010PropOp31
 70
     0
102
RTVSPost2010Prop32
280
     0
102
RTVSPost2010PropOp32
 70
     0
102
RTVSPost2010Prop33
280
     0
102
RTVSPost2010PropOp33
 70
     0
102
RTVSPost2010Prop34
280
     0
102
RTVSPost2010PropOp34
 70
     0
102
RTVSPost2010Prop35
280
     0
102
RTVSPost2010PropOp35
 70
     0
102
RTVSPost2010Prop36
280
     0
102
RTVSPost2010PropOp36
 70
     0
102
RTVSPost2010Prop37
 90
       50
102
RTVSPost2010PropOp37
 70
     0
102
RTVSPost2010Prop38
140
0.0
102
RTVSPost2010PropOp38
 70
     0
102
RTVSPost2010Prop39
140
1.0
102
RTVSPost2010PropOp39
 70
     0
102
RTVSPost2010Prop40
 90
        0
102
RTVSPost2010PropOp40
 70
     0
102
RTVSPost2010Prop41ColorIndex
 90
       18
102
RTVSPost2010Prop41ColorRGB
 90
        0
102
RTVSPost2010PropOp41
 70
     0
102
RTVSPost2010Prop42
 90
       50
102
RTVSPost2010PropOp42
 70
     0
102
RTVSPost2010Prop43
 90
        3
102
RTVSPost2010PropOp43
 70
     0
102
RTVSPost2010Prop44ColorIndex
 90
        5
102
RTVSPost2010Prop44ColorRGB
 90
      255
102
RTVSPost2010PropOp44
 70
     0
102
RTVSPost2010Prop45
280
     0
102
RTVSPost2010PropOp45
 70
     0
102
RTVSPost2010Prop46
 90
       50
102
RTVSPost2010PropOp46
 70
     0
102
RTVSPost2010Prop47
 90
       50
102
RTVSPost2010PropOp47
 70
     0
102
RTVSPost2010Prop48
 90
       50
102
RTVSPost2010PropOp48
 70
     0
102
RTVSPost2010Prop49
280
     0
102
RTVSPost2010PropOp49
 70
     0
102
RTVSPost2010Prop50
 90
       50
102
RTVSPost2010PropOp50
 70
     0
102
RTVSPost2010Prop51ColorIndex
 90
      256
102
RTVSPost2010Prop51ColorRGB
 90
-16777216
102
RTVSPost2010PropOp51
 70
     0
102
RTVSPost2010Prop52
140
1.0
102
RTVSPost2010PropOp52
 70
     0
102
RTVSPost2010Prop53
 90
        2
102
RTVSPost2010PropOp53
 70
     0
102
RTVSPost2010Prop54
  1
strokes_ogs.tif
102
RTVSPost2010PropOp54
 70
     0
102
RTVSPost2010Prop55
280
     0
102
RTVSPost2010PropOp55
 70
     0
102
RTVSPost2010Prop56
140
1.0
102
RTVSPost2010PropOp56
 70
     0
102
RTVSPost2010Prop57
140
1.0
102
RTVSPost2010PropOp57
 70
     0
  0
XRECORD
  5
397
102
{ACAD_REACTORS
330
396
102
}
330
396
100
AcDbXrecord
280
     1
102
RTVSPropertyOp0
 70
     1
102
RTVSPropertyOp1
 70
     1
102
RTVSPropertyOp2
 70
     1
102
RTVSPropertyOp3
 70
     1
102
RTVSPropertyOp4
 70
     1
102
RTVSPropertyOp5
 70
     1
102
RTVSPropertyOp6
 70
     1
102
RTVSPropertyOp7
 70
     1
102
RTVSPropertyOp8
 70
     1
102
RTVSPropertyOp9
 70
     1
102
RTVSPropertyOp10
 70
     1
102
RTVSPropertyOp11
 70
     1
102
RTVSPropertyOp12
 70
     1
102
RTVSPropertyOp13
 70
     1
102
RTVSPropertyOp14
 70
     1
102
RTVSPropertyOp15
 70
     1
102
RTVSPropertyOp16
 70
     1
102
RTVSPropertyOp17
 70
     1
102
RTVSPropertyOp18
 70
     1
102
RTVSPropertyOp19
 70
     1
102
RTVSPropertyOp20
 70
     1
102
RTVSPropertyOp21
 70
     1
102
RTVSPropertyOp22
 70
     1
102
RTVSPropertyOp23
 70
     1
102
RTVSPropertyOp24
 70
     1
102
RTVSPropertyOp25
 70
     1
102
RTVSPropertyOp26
 70
     1
102
RTVSPropertyOp27
 70
     1
102
RTVSPropertyOp28
 70
     1
102
RTVSPropertyOp29
 70
     1
102
RTVSPropertyOp30
 70
     1
102
RTVSPropertyOp31
 70
     1
102
RTVSPropertyOp32
 70
     1
102
RTVSPropertyOp33
 70
     1
102
RTVSPropertyOp34
 70
     1
102
RTVSPropertyOp35
 70
     1
102
RTVSPropertyOp36
 70
     1
102
RTVSPropertyOp37
 70
     1
102
RTVSPropertyOp38
 70
     1
102
RTVSPropertyOp39
 70
     1
102
RTVSPropertyOp40
 70
     1
102
RTVSPropertyOp41
 70
     1
102
RTVSPropertyOp42
 70
     1
102
RTVSPropertyOp43
 70
     1
102
RTVSPropertyOp44
 70
     1
102
RTVSPropertyOp45
 70
     1
102
RTVSPropertyOp46
 70
     1
102
RTVSPropertyOp47
 70
     1
102
RTVSPropertyOp48
 70
     1
102
RTVSPropertyOp49
 70
     1
102
RTVSPropertyOp50
 70
     1
102
RTVSPropertyOp51
 70
     0
102
RTVSPropertyOp52
 70
     0
102
RTVSPropertyOp53
 70
     1
102
RTVSPropertyOp54
 70
     1
102
RTVSPropertyOp55
 70
     1
102
RTVSPropertyOp56
 70
     1
102
RTVSPropertyOp57
 70
     1
102
RTVSPost2010Prop28
280
     0
102
RTVSPost2010PropOp28
 70
     1
102
RTVSPost2010Prop29
280
     1
102
RTVSPost2010PropOp29
 70
     1
102
RTVSPost2010Prop30
280
     1
102
RTVSPost2010PropOp30
 70
     1
102
RTVSPost2010Prop31
280
     0
102
RTVSPost2010PropOp31
 70
     1
102
RTVSPost2010Prop32
280
     0
102
RTVSPost2010PropOp32
 70
     1
102
RTVSPost2010Prop33
280
     0
102
RTVSPost2010PropOp33
 70
     1
102
RTVSPost2010Prop34
280
     0
102
RTVSPost2010PropOp34
 70
     1
102
RTVSPost2010Prop35
280
     0
102
RTVSPost2010PropOp35
 70
     1
102
RTVSPost2010Prop36
280
     0
102
RTVSPost2010PropOp36
 70
     1
102
RTVSPost2010Prop37
 90
       50
102
RTVSPost2010PropOp37
 70
     1
102
RTVSPost2010Prop38
140
0.0
102
RTVSPost2010PropOp38
 70
     1
102
RTVSPost2010Prop39
140
1.0
102
RTVSPost2010PropOp39
 70
     1
102
RTVSPost2010Prop40
 90
        0
102
RTVSPost2010PropOp40
 70
     1
102
RTVSPost2010Prop41ColorIndex
 90
       18
102
RTVSPost2010Prop41ColorRGB
 90
        0
102
RTVSPost2010PropOp41
 70
     1
102
RTVSPost2010Prop42
 90
       50
102
RTVSPost2010PropOp42
 70
     1
102
RTVSPost2010Prop43
 90
        3
102
RTVSPost2010PropOp43
 70
     1
102
RTVSPost2010Prop44ColorIndex
 90
        5
102
RTVSPost2010Prop44ColorRGB
 90
      255
102
RTVSPost2010PropOp44
 70
     1
102
RTVSPost2010Prop45
280
     0
102
RTVSPost2010PropOp45
 70
     1
102
RTVSPost2010Prop46
 90
       50
102
RTVSPost2010PropOp46
 70
     1
102
RTVSPost2010Prop47
 90
       50
102
RTVSPost2010PropOp47
 70
     1
102
RTVSPost2010Prop48
 90
       50
102
RTVSPost2010PropOp48
 70
     1
102
RTVSPost2010Prop49
280
     0
102
RTVSPost2010PropOp49
 70
     1
102
RTVSPost2010Prop50
 90
       50
102
RTVSPost2010PropOp50
 70
     1
102
RTVSPost2010Prop51ColorIndex
 90
      256
102
RTVSPost2010Prop51ColorRGB
 90
-16777216
102
RTVSPost2010PropOp51
 70
     0
102
RTVSPost2010Prop52
140
1.0
102
RTVSPost2010PropOp52
 70
     0
102
RTVSPost2010Prop53
 90
        2
102
RTVSPost2010PropOp53
 70
     1
102
RTVSPost2010Prop54
  1
strokes_ogs.tif
102
RTVSPost2010PropOp54
 70
     1
102
RTVSPost2010Prop55
280
     0
102
RTVSPost2010PropOp55
 70
     1
102
RTVSPost2010Prop56
140
1.0
102
RTVSPost2010PropOp56
 70
     1
102
RTVSPost2010Prop57
140
1.0
102
RTVSPost2010PropOp57
 70
     1
  0
XRECORD
  5
39F
102
{ACAD_REACTORS
330
39E
102
}
330
39E
100
AcDbXrecord
280
     1
102
RTVSPropertyOp0
 70
     0
102
RTVSPropertyOp1
 70
     0
102
RTVSPropertyOp2
 70
     0
102
RTVSPropertyOp3
 70
     0
102
RTVSPropertyOp4
 70
     0
102
RTVSPropertyOp5
 70
     0
102
RTVSPropertyOp6
 70
     0
102
RTVSPropertyOp7
 70
     0
102
RTVSPropertyOp8
 70
     0
102
RTVSPropertyOp9
 70
     0
102
RTVSPropertyOp10
 70
     0
102
RTVSPropertyOp11
 70
     0
102
RTVSPropertyOp12
 70
     0
102
RTVSPropertyOp13
 70
     0
102
RTVSPropertyOp14
 70
     2
102
RTVSPropertyOp15
 70
     0
102
RTVSPropertyOp16
 70
     0
102
RTVSPropertyOp17
 70
     0
102
RTVSPropertyOp18
 70
     0
102
RTVSPropertyOp19
 70
     0
102
RTVSPropertyOp20
 70
     0
102
RTVSPropertyOp21
 70
     0
102
RTVSPropertyOp22
 70
     0
102
RTVSPropertyOp23
 70
     0
102
RTVSPropertyOp24
 70
     0
102
RTVSPropertyOp25
 70
     0
102
RTVSPropertyOp26
 70
     0
102
RTVSPropertyOp27
 70
     0
102
RTVSPropertyOp28
 70
     0
102
RTVSPropertyOp29
 70
     0
102
RTVSPropertyOp30
 70
     0
102
RTVSPropertyOp31
 70
     0
102
RTVSPropertyOp32
 70
     0
102
RTVSPropertyOp33
 70
     0
102
RTVSPropertyOp34
 70
     0
102
RTVSPropertyOp35
 70
     0
102
RTVSPropertyOp36
 70
     0
102
RTVSPropertyOp37
 70
     0
102
RTVSPropertyOp38
 70
     0
102
RTVSPropertyOp39
 70
     0
102
RTVSPropertyOp40
 70
     0
102
RTVSPropertyOp41
 70
     0
102
RTVSPropertyOp42
 70
     0
102
RTVSPropertyOp43
 70
     0
102
RTVSPropertyOp44
 70
     0
102
RTVSPropertyOp45
 70
     0
102
RTVSPropertyOp46
 70
     0
102
RTVSPropertyOp47
 70
     0
102
RTVSPropertyOp48
 70
     0
102
RTVSPropertyOp49
 70
     0
102
RTVSPropertyOp50
 70
     0
102
RTVSPropertyOp51
 70
     0
102
RTVSPropertyOp52
 70
     0
102
RTVSPropertyOp53
 70
     0
102
RTVSPropertyOp54
 70
     0
102
RTVSPropertyOp55
 70
     0
102
RTVSPropertyOp56
 70
     0
102
RTVSPropertyOp57
 70
     0
102
RTVSPost2010Prop28
280
     0
102
RTVSPost2010PropOp28
 70
     0
102
RTVSPost2010Prop29
280
     1
102
RTVSPost2010PropOp29
 70
     0
102
RTVSPost2010Prop30
280
     1
102
RTVSPost2010PropOp30
 70
     0
102
RTVSPost2010Prop31
280
     0
102
RTVSPost2010PropOp31
 70
     0
102
RTVSPost2010Prop32
280
     0
102
RTVSPost2010PropOp32
 70
     0
102
RTVSPost2010Prop33
280
     0
102
RTVSPost2010PropOp33
 70
     0
102
RTVSPost2010Prop34
280
     0
102
RTVSPost2010PropOp34
 70
     0
102
RTVSPost2010Prop35
280
     0
102
RTVSPost2010PropOp35
 70
     0
102
RTVSPost2010Prop36
280
     0
102
RTVSPost2010PropOp36
 70
     0
102
RTVSPost2010Prop37
 90
       50
102
RTVSPost2010PropOp37
 70
     0
102
RTVSPost2010Prop38
140
0.0
102
RTVSPost2010PropOp38
 70
     0
102
RTVSPost2010Prop39
140
1.0
102
RTVSPost2010PropOp39
 70
     0
102
RTVSPost2010Prop40
 90
        0
102
RTVSPost2010PropOp40
 70
     0
102
RTVSPost2010Prop41ColorIndex
 90
       18
102
RTVSPost2010Prop41ColorRGB
 90
        0
102
RTVSPost2010PropOp41
 70
     0
102
RTVSPost2010Prop42
 90
       50
102
RTVSPost2010PropOp42
 70
     0
102
RTVSPost2010Prop43
 90
        3
102
RTVSPost2010PropOp43
 70
     0
102
RTVSPost2010Prop44ColorIndex
 90
        5
102
RTVSPost2010Prop44ColorRGB
 90
      255
102
RTVSPost2010PropOp44
 70
     0
102
RTVSPost2010Prop45
280
     0
102
RTVSPost2010PropOp45
 70
     0
102
RTVSPost2010Prop46
 90
       50
102
RTVSPost2010PropOp46
 70
     0
102
RTVSPost2010Prop47
 90
       50
102
RTVSPost2010PropOp47
 70
     0
102
RTVSPost2010Prop48
 90
       50
102
RTVSPost2010PropOp48
 70
     0
102
RTVSPost2010Prop49
280
     0
102
RTVSPost2010PropOp49
 70
     0
102
RTVSPost2010Prop50
 90
       50
102
RTVSPost2010PropOp50
 70
     0
102
RTVSPost2010Prop51ColorIndex
 90
      256
102
RTVSPost2010Prop51ColorRGB
 90
-16777216
102
RTVSPost2010PropOp51
 70
     0
102
RTVSPost2010Prop52
140
1.0
102
RTVSPost2010PropOp52
 70
     0
102
RTVSPost2010Prop53
 90
        2
102
RTVSPost2010PropOp53
 70
     0
102
RTVSPost2010Prop54
  1
strokes_ogs.tif
102
RTVSPost2010PropOp54
 70
     0
102
RTVSPost2010Prop55
280
     0
102
RTVSPost2010PropOp55
 70
     0
102
RTVSPost2010Prop56
140
1.0
102
RTVSPost2010PropOp56
 70
     0
102
RTVSPost2010Prop57
140
1.0
102
RTVSPost2010PropOp57
 70
     0
  0
XRECORD
  5
38D
102
{ACAD_REACTORS
330
38C
102
}
330
38C
100
AcDbXrecord
280
     1
102
RTVSPropertyOp0
 70
     1
102
RTVSPropertyOp1
 70
     1
102
RTVSPropertyOp2
 70
     1
102
RTVSPropertyOp3
 70
     1
102
RTVSPropertyOp4
 70
     1
102
RTVSPropertyOp5
 70
     1
102
RTVSPropertyOp6
 70
     1
102
RTVSPropertyOp7
 70
     1
102
RTVSPropertyOp8
 70
     1
102
RTVSPropertyOp9
 70
     1
102
RTVSPropertyOp10
 70
     1
102
RTVSPropertyOp11
 70
     1
102
RTVSPropertyOp12
 70
     1
102
RTVSPropertyOp13
 70
     1
102
RTVSPropertyOp14
 70
     1
102
RTVSPropertyOp15
 70
     1
102
RTVSPropertyOp16
 70
     1
102
RTVSPropertyOp17
 70
     1
102
RTVSPropertyOp18
 70
     1
102
RTVSPropertyOp19
 70
     1
102
RTVSPropertyOp20
 70
     1
102
RTVSPropertyOp21
 70
     1
102
RTVSPropertyOp22
 70
     1
102
RTVSPropertyOp23
 70
     1
102
RTVSPropertyOp24
 70
     1
102
RTVSPropertyOp25
 70
     1
102
RTVSPropertyOp26
 70
     1
102
RTVSPropertyOp27
 70
     1
102
RTVSPropertyOp28
 70
     1
102
RTVSPropertyOp29
 70
     1
102
RTVSPropertyOp30
 70
     1
102
RTVSPropertyOp31
 70
     1
102
RTVSPropertyOp32
 70
     1
102
RTVSPropertyOp33
 70
     1
102
RTVSPropertyOp34
 70
     1
102
RTVSPropertyOp35
 70
     1
102
RTVSPropertyOp36
 70
     1
102
RTVSPropertyOp37
 70
     1
102
RTVSPropertyOp38
 70
     1
102
RTVSPropertyOp39
 70
     1
102
RTVSPropertyOp40
 70
     1
102
RTVSPropertyOp41
 70
     1
102
RTVSPropertyOp42
 70
     1
102
RTVSPropertyOp43
 70
     1
102
RTVSPropertyOp44
 70
     1
102
RTVSPropertyOp45
 70
     1
102
RTVSPropertyOp46
 70
     1
102
RTVSPropertyOp47
 70
     1
102
RTVSPropertyOp48
 70
     1
102
RTVSPropertyOp49
 70
     1
102
RTVSPropertyOp50
 70
     1
102
RTVSPropertyOp51
 70
     0
102
RTVSPropertyOp52
 70
     0
102
RTVSPropertyOp53
 70
     1
102
RTVSPropertyOp54
 70
     1
102
RTVSPropertyOp55
 70
     1
102
RTVSPropertyOp56
 70
     1
102
RTVSPropertyOp57
 70
     1
102
RTVSPost2010Prop28
280
     0
102
RTVSPost2010PropOp28
 70
     1
102
RTVSPost2010Prop29
280
     1
102
RTVSPost2010PropOp29
 70
     1
102
RTVSPost2010Prop30
280
     1
102
RTVSPost2010PropOp30
 70
     1
102
RTVSPost2010Prop31
280
     0
102
RTVSPost2010PropOp31
 70
     1
102
RTVSPost2010Prop32
280
     0
102
RTVSPost2010PropOp32
 70
     1
102
RTVSPost2010Prop33
280
     0
102
RTVSPost2010PropOp33
 70
     1
102
RTVSPost2010Prop34
280
     0
102
RTVSPost2010PropOp34
 70
     1
102
RTVSPost2010Prop35
280
     0
102
RTVSPost2010PropOp35
 70
     1
102
RTVSPost2010Prop36
280
     0
102
RTVSPost2010PropOp36
 70
     1
102
RTVSPost2010Prop37
 90
       50
102
RTVSPost2010PropOp37
 70
     1
102
RTVSPost2010Prop38
140
0.0
102
RTVSPost2010PropOp38
 70
     1
102
RTVSPost2010Prop39
140
1.0
102
RTVSPost2010PropOp39
 70
     1
102
RTVSPost2010Prop40
 90
        0
102
RTVSPost2010PropOp40
 70
     1
102
RTVSPost2010Prop41ColorIndex
 90
       18
102
RTVSPost2010Prop41ColorRGB
 90
        0
102
RTVSPost2010PropOp41
 70
     1
102
RTVSPost2010Prop42
 90
       50
102
RTVSPost2010PropOp42
 70
     1
102
RTVSPost2010Prop43
 90
        3
102
RTVSPost2010PropOp43
 70
     1
102
RTVSPost2010Prop44ColorIndex
 90
        5
102
RTVSPost2010Prop44ColorRGB
 90
      255
102
RTVSPost2010PropOp44
 70
     1
102
RTVSPost2010Prop45
280
     0
102
RTVSPost2010PropOp45
 70
     1
102
RTVSPost2010Prop46
 90
       50
102
RTVSPost2010PropOp46
 70
     1
102
RTVSPost2010Prop47
 90
       50
102
RTVSPost2010PropOp47
 70
     1
102
RTVSPost2010Prop48
 90
       50
102
RTVSPost2010PropOp48
 70
     1
102
RTVSPost2010Prop49
280
     0
102
RTVSPost2010PropOp49
 70
     1
102
RTVSPost2010Prop50
 90
       50
102
RTVSPost2010PropOp50
 70
     1
102
RTVSPost2010Prop51ColorIndex
 90
      256
102
RTVSPost2010Prop51ColorRGB
 90
-16777216
102
RTVSPost2010PropOp51
 70
     0
102
RTVSPost2010Prop52
140
1.0
102
RTVSPost2010PropOp52
 70
     0
102
RTVSPost2010Prop53
 90
        2
102
RTVSPost2010PropOp53
 70
     1
102
RTVSPost2010Prop54
  1
strokes_ogs.tif
102
RTVSPost2010PropOp54
 70
     1
102
RTVSPost2010Prop55
280
     0
102
RTVSPost2010PropOp55
 70
     1
102
RTVSPost2010Prop56
140
1.0
102
RTVSPost2010PropOp56
 70
     1
102
RTVSPost2010Prop57
140
1.0
102
RTVSPost2010PropOp57
 70
     1
  0
XRECORD
  5
3AB
102
{ACAD_REACTORS
330
3AA
102
}
330
3AA
100
AcDbXrecord
280
     1
102
RTVSPropertyOp0
 70
     1
102
RTVSPropertyOp1
 70
     1
102
RTVSPropertyOp2
 70
     1
102
RTVSPropertyOp3
 70
     1
102
RTVSPropertyOp4
 70
     1
102
RTVSPropertyOp5
 70
     1
102
RTVSPropertyOp6
 70
     1
102
RTVSPropertyOp7
 70
     1
102
RTVSPropertyOp8
 70
     1
102
RTVSPropertyOp9
 70
     1
102
RTVSPropertyOp10
 70
     1
102
RTVSPropertyOp11
 70
     1
102
RTVSPropertyOp12
 70
     1
102
RTVSPropertyOp13
 70
     1
102
RTVSPropertyOp14
 70
     1
102
RTVSPropertyOp15
 70
     1
102
RTVSPropertyOp16
 70
     1
102
RTVSPropertyOp17
 70
     1
102
RTVSPropertyOp18
 70
     1
102
RTVSPropertyOp19
 70
     1
102
RTVSPropertyOp20
 70
     1
102
RTVSPropertyOp21
 70
     1
102
RTVSPropertyOp22
 70
     1
102
RTVSPropertyOp23
 70
     1
102
RTVSPropertyOp24
 70
     1
102
RTVSPropertyOp25
 70
     1
102
RTVSPropertyOp26
 70
     1
102
RTVSPropertyOp27
 70
     1
102
RTVSPropertyOp28
 70
     1
102
RTVSPropertyOp29
 70
     1
102
RTVSPropertyOp30
 70
     1
102
RTVSPropertyOp31
 70
     1
102
RTVSPropertyOp32
 70
     1
102
RTVSPropertyOp33
 70
     1
102
RTVSPropertyOp34
 70
     1
102
RTVSPropertyOp35
 70
     1
102
RTVSPropertyOp36
 70
     1
102
RTVSPropertyOp37
 70
     1
102
RTVSPropertyOp38
 70
     1
102
RTVSPropertyOp39
 70
     1
102
RTVSPropertyOp40
 70
     1
102
RTVSPropertyOp41
 70
     1
102
RTVSPropertyOp42
 70
     1
102
RTVSPropertyOp43
 70
     1
102
RTVSPropertyOp44
 70
     1
102
RTVSPropertyOp45
 70
     1
102
RTVSPropertyOp46
 70
     1
102
RTVSPropertyOp47
 70
     1
102
RTVSPropertyOp48
 70
     1
102
RTVSPropertyOp49
 70
     1
102
RTVSPropertyOp50
 70
     1
102
RTVSPropertyOp51
 70
     0
102
RTVSPropertyOp52
 70
     0
102
RTVSPropertyOp53
 70
     1
102
RTVSPropertyOp54
 70
     1
102
RTVSPropertyOp55
 70
     1
102
RTVSPropertyOp56
 70
     1
102
RTVSPropertyOp57
 70
     1
102
RTVSPost2010Prop28
280
     0
102
RTVSPost2010PropOp28
 70
     1
102
RTVSPost2010Prop29
280
     1
102
RTVSPost2010PropOp29
 70
     1
102
RTVSPost2010Prop30
280
     1
102
RTVSPost2010PropOp30
 70
     1
102
RTVSPost2010Prop31
280
     0
102
RTVSPost2010PropOp31
 70
     1
102
RTVSPost2010Prop32
280
     0
102
RTVSPost2010PropOp32
 70
     1
102
RTVSPost2010Prop33
280
     0
102
RTVSPost2010PropOp33
 70
     1
102
RTVSPost2010Prop34
280
     0
102
RTVSPost2010PropOp34
 70
     1
102
RTVSPost2010Prop35
280
     0
102
RTVSPost2010PropOp35
 70
     1
102
RTVSPost2010Prop36
280
     0
102
RTVSPost2010PropOp36
 70
     1
102
RTVSPost2010Prop37
 90
       50
102
RTVSPost2010PropOp37
 70
     1
102
RTVSPost2010Prop38
140
0.0
102
RTVSPost2010PropOp38
 70
     1
102
RTVSPost2010Prop39
140
1.0
102
RTVSPost2010PropOp39
 70
     1
102
RTVSPost2010Prop40
 90
        0
102
RTVSPost2010PropOp40
 70
     1
102
RTVSPost2010Prop41ColorIndex
 90
       18
102
RTVSPost2010Prop41ColorRGB
 90
        0
102
RTVSPost2010PropOp41
 70
     1
102
RTVSPost2010Prop42
 90
       50
102
RTVSPost2010PropOp42
 70
     1
102
RTVSPost2010Prop43
 90
        3
102
RTVSPost2010PropOp43
 70
     1
102
RTVSPost2010Prop44ColorIndex
 90
        5
102
RTVSPost2010Prop44ColorRGB
 90
      255
102
RTVSPost2010PropOp44
 70
     1
102
RTVSPost2010Prop45
280
     0
102
RTVSPost2010PropOp45
 70
     1
102
RTVSPost2010Prop46
 90
       50
102
RTVSPost2010PropOp46
 70
     1
102
RTVSPost2010Prop47
 90
       50
102
RTVSPost2010PropOp47
 70
     1
102
RTVSPost2010Prop48
 90
       50
102
RTVSPost2010PropOp48
 70
     1
102
RTVSPost2010Prop49
280
     0
102
RTVSPost2010PropOp49
 70
     1
102
RTVSPost2010Prop50
 90
       50
102
RTVSPost2010PropOp50
 70
     1
102
RTVSPost2010Prop51ColorIndex
 90
      256
102
RTVSPost2010Prop51ColorRGB
 90
-16777216
102
RTVSPost2010PropOp51
 70
     0
102
RTVSPost2010Prop52
140
1.0
102
RTVSPost2010PropOp52
 70
     0
102
RTVSPost2010Prop53
 90
        2
102
RTVSPost2010PropOp53
 70
     1
102
RTVSPost2010Prop54
  1
strokes_ogs.tif
102
RTVSPost2010PropOp54
 70
     1
102
RTVSPost2010Prop55
280
     0
102
RTVSPost2010PropOp55
 70
     1
102
RTVSPost2010Prop56
140
1.0
102
RTVSPost2010PropOp56
 70
     1
102
RTVSPost2010Prop57
140
1.0
102
RTVSPost2010PropOp57
 70
     1
  0
XRECORD
  5
3A9
102
{ACAD_REACTORS
330
3A8
102
}
330
3A8
100
AcDbXrecord
280
     1
102
RTVSPropertyOp0
 70
     1
102
RTVSPropertyOp1
 70
     1
102
RTVSPropertyOp2
 70
     1
102
RTVSPropertyOp3
 70
     1
102
RTVSPropertyOp4
 70
     1
102
RTVSPropertyOp5
 70
     1
102
RTVSPropertyOp6
 70
     1
102
RTVSPropertyOp7
 70
     1
102
RTVSPropertyOp8
 70
     1
102
RTVSPropertyOp9
 70
     1
102
RTVSPropertyOp10
 70
     1
102
RTVSPropertyOp11
 70
     1
102
RTVSPropertyOp12
 70
     1
102
RTVSPropertyOp13
 70
     1
102
RTVSPropertyOp14
 70
     1
102
RTVSPropertyOp15
 70
     1
102
RTVSPropertyOp16
 70
     1
102
RTVSPropertyOp17
 70
     1
102
RTVSPropertyOp18
 70
     1
102
RTVSPropertyOp19
 70
     1
102
RTVSPropertyOp20
 70
     1
102
RTVSPropertyOp21
 70
     1
102
RTVSPropertyOp22
 70
     1
102
RTVSPropertyOp23
 70
     1
102
RTVSPropertyOp24
 70
     1
102
RTVSPropertyOp25
 70
     1
102
RTVSPropertyOp26
 70
     1
102
RTVSPropertyOp27
 70
     1
102
RTVSPropertyOp28
 70
     1
102
RTVSPropertyOp29
 70
     1
102
RTVSPropertyOp30
 70
     1
102
RTVSPropertyOp31
 70
     1
102
RTVSPropertyOp32
 70
     1
102
RTVSPropertyOp33
 70
     1
102
RTVSPropertyOp34
 70
     1
102
RTVSPropertyOp35
 70
     1
102
RTVSPropertyOp36
 70
     1
102
RTVSPropertyOp37
 70
     1
102
RTVSPropertyOp38
 70
     1
102
RTVSPropertyOp39
 70
     1
102
RTVSPropertyOp40
 70
     1
102
RTVSPropertyOp41
 70
     1
102
RTVSPropertyOp42
 70
     1
102
RTVSPropertyOp43
 70
     1
102
RTVSPropertyOp44
 70
     1
102
RTVSPropertyOp45
 70
     1
102
RTVSPropertyOp46
 70
     1
102
RTVSPropertyOp47
 70
     1
102
RTVSPropertyOp48
 70
     1
102
RTVSPropertyOp49
 70
     1
102
RTVSPropertyOp50
 70
     1
102
RTVSPropertyOp51
 70
     0
102
RTVSPropertyOp52
 70
     0
102
RTVSPropertyOp53
 70
     1
102
RTVSPropertyOp54
 70
     1
102
RTVSPropertyOp55
 70
     1
102
RTVSPropertyOp56
 70
     1
102
RTVSPropertyOp57
 70
     1
102
RTVSPost2010Prop28
280
     0
102
RTVSPost2010PropOp28
 70
     1
102
RTVSPost2010Prop29
280
     1
102
RTVSPost2010PropOp29
 70
     1
102
RTVSPost2010Prop30
280
     1
102
RTVSPost2010PropOp30
 70
     1
102
RTVSPost2010Prop31
280
     0
102
RTVSPost2010PropOp31
 70
     1
102
RTVSPost2010Prop32
280
     0
102
RTVSPost2010PropOp32
 70
     1
102
RTVSPost2010Prop33
280
     0
102
RTVSPost2010PropOp33
 70
     1
102
RTVSPost2010Prop34
280
     0
102
RTVSPost2010PropOp34
 70
     1
102
RTVSPost2010Prop35
280
     0
102
RTVSPost2010PropOp35
 70
     1
102
RTVSPost2010Prop36
280
     0
102
RTVSPost2010PropOp36
 70
     1
102
RTVSPost2010Prop37
 90
       50
102
RTVSPost2010PropOp37
 70
     1
102
RTVSPost2010Prop38
140
0.0
102
RTVSPost2010PropOp38
 70
     1
102
RTVSPost2010Prop39
140
1.0
102
RTVSPost2010PropOp39
 70
     1
102
RTVSPost2010Prop40
 90
        0
102
RTVSPost2010PropOp40
 70
     1
102
RTVSPost2010Prop41ColorIndex
 90
       18
102
RTVSPost2010Prop41ColorRGB
 90
        0
102
RTVSPost2010PropOp41
 70
     1
102
RTVSPost2010Prop42
 90
       50
102
RTVSPost2010PropOp42
 70
     1
102
RTVSPost2010Prop43
 90
        3
102
RTVSPost2010PropOp43
 70
     1
102
RTVSPost2010Prop44ColorIndex
 90
        5
102
RTVSPost2010Prop44ColorRGB
 90
      255
102
RTVSPost2010PropOp44
 70
     1
102
RTVSPost2010Prop45
280
     0
102
RTVSPost2010PropOp45
 70
     1
102
RTVSPost2010Prop46
 90
       50
102
RTVSPost2010PropOp46
 70
     1
102
RTVSPost2010Prop47
 90
       50
102
RTVSPost2010PropOp47
 70
     1
102
RTVSPost2010Prop48
 90
       50
102
RTVSPost2010PropOp48
 70
     1
102
RTVSPost2010Prop49
280
     0
102
RTVSPost2010PropOp49
 70
     1
102
RTVSPost2010Prop50
 90
       50
102
RTVSPost2010PropOp50
 70
     1
102
RTVSPost2010Prop51ColorIndex
 90
      256
102
RTVSPost2010Prop51ColorRGB
 90
-16777216
102
RTVSPost2010PropOp51
 70
     0
102
RTVSPost2010Prop52
140
1.0
102
RTVSPost2010PropOp52
 70
     0
102
RTVSPost2010Prop53
 90
        2
102
RTVSPost2010PropOp53
 70
     1
102
RTVSPost2010Prop54
  1
strokes_ogs.tif
102
RTVSPost2010PropOp54
 70
     1
102
RTVSPost2010Prop55
280
     0
102
RTVSPost2010PropOp55
 70
     1
102
RTVSPost2010Prop56
140
1.0
102
RTVSPost2010PropOp56
 70
     1
102
RTVSPost2010Prop57
140
1.0
102
RTVSPost2010PropOp57
 70
     1
  0
XRECORD
  5
3A3
102
{ACAD_REACTORS
330
3A2
102
}
330
3A2
100
AcDbXrecord
280
     1
102
RTVSPropertyOp0
 70
     1
102
RTVSPropertyOp1
 70
     1
102
RTVSPropertyOp2
 70
     1
102
RTVSPropertyOp3
 70
     1
102
RTVSPropertyOp4
 70
     1
102
RTVSPropertyOp5
 70
     1
102
RTVSPropertyOp6
 70
     1
102
RTVSPropertyOp7
 70
     1
102
RTVSPropertyOp8
 70
     1
102
RTVSPropertyOp9
 70
     1
102
RTVSPropertyOp10
 70
     1
102
RTVSPropertyOp11
 70
     1
102
RTVSPropertyOp12
 70
     1
102
RTVSPropertyOp13
 70
     1
102
RTVSPropertyOp14
 70
     1
102
RTVSPropertyOp15
 70
     1
102
RTVSPropertyOp16
 70
     1
102
RTVSPropertyOp17
 70
     1
102
RTVSPropertyOp18
 70
     1
102
RTVSPropertyOp19
 70
     1
102
RTVSPropertyOp20
 70
     1
102
RTVSPropertyOp21
 70
     1
102
RTVSPropertyOp22
 70
     1
102
RTVSPropertyOp23
 70
     1
102
RTVSPropertyOp24
 70
     1
102
RTVSPropertyOp25
 70
     1
102
RTVSPropertyOp26
 70
     1
102
RTVSPropertyOp27
 70
     1
102
RTVSPropertyOp28
 70
     1
102
RTVSPropertyOp29
 70
     1
102
RTVSPropertyOp30
 70
     1
102
RTVSPropertyOp31
 70
     1
102
RTVSPropertyOp32
 70
     1
102
RTVSPropertyOp33
 70
     1
102
RTVSPropertyOp34
 70
     1
102
RTVSPropertyOp35
 70
     1
102
RTVSPropertyOp36
 70
     1
102
RTVSPropertyOp37
 70
     1
102
RTVSPropertyOp38
 70
     1
102
RTVSPropertyOp39
 70
     1
102
RTVSPropertyOp40
 70
     1
102
RTVSPropertyOp41
 70
     1
102
RTVSPropertyOp42
 70
     1
102
RTVSPropertyOp43
 70
     1
102
RTVSPropertyOp44
 70
     1
102
RTVSPropertyOp45
 70
     1
102
RTVSPropertyOp46
 70
     1
102
RTVSPropertyOp47
 70
     1
102
RTVSPropertyOp48
 70
     1
102
RTVSPropertyOp49
 70
     1
102
RTVSPropertyOp50
 70
     1
102
RTVSPropertyOp51
 70
     0
102
RTVSPropertyOp52
 70
     0
102
RTVSPropertyOp53
 70
     1
102
RTVSPropertyOp54
 70
     1
102
RTVSPropertyOp55
 70
     1
102
RTVSPropertyOp56
 70
     1
102
RTVSPropertyOp57
 70
     1
102
RTVSPost2010Prop28
280
     0
102
RTVSPost2010PropOp28
 70
     1
102
RTVSPost2010Prop29
280
     1
102
RTVSPost2010PropOp29
 70
     1
102
RTVSPost2010Prop30
280
     1
102
RTVSPost2010PropOp30
 70
     1
102
RTVSPost2010Prop31
280
     0
102
RTVSPost2010PropOp31
 70
     1
102
RTVSPost2010Prop32
280
     0
102
RTVSPost2010PropOp32
 70
     1
102
RTVSPost2010Prop33
280
     0
102
RTVSPost2010PropOp33
 70
     1
102
RTVSPost2010Prop34
280
     0
102
RTVSPost2010PropOp34
 70
     1
102
RTVSPost2010Prop35
280
     0
102
RTVSPost2010PropOp35
 70
     1
102
RTVSPost2010Prop36
280
     0
102
RTVSPost2010PropOp36
 70
     1
102
RTVSPost2010Prop37
 90
       50
102
RTVSPost2010PropOp37
 70
     1
102
RTVSPost2010Prop38
140
0.0
102
RTVSPost2010PropOp38
 70
     1
102
RTVSPost2010Prop39
140
1.0
102
RTVSPost2010PropOp39
 70
     1
102
RTVSPost2010Prop40
 90
        0
102
RTVSPost2010PropOp40
 70
     1
102
RTVSPost2010Prop41ColorIndex
 90
       18
102
RTVSPost2010Prop41ColorRGB
 90
        0
102
RTVSPost2010PropOp41
 70
     1
102
RTVSPost2010Prop42
 90
       50
102
RTVSPost2010PropOp42
 70
     1
102
RTVSPost2010Prop43
 90
        3
102
RTVSPost2010PropOp43
 70
     1
102
RTVSPost2010Prop44ColorIndex
 90
        5
102
RTVSPost2010Prop44ColorRGB
 90
      255
102
RTVSPost2010PropOp44
 70
     1
102
RTVSPost2010Prop45
280
     0
102
RTVSPost2010PropOp45
 70
     1
102
RTVSPost2010Prop46
 90
       50
102
RTVSPost2010PropOp46
 70
     1
102
RTVSPost2010Prop47
 90
       50
102
RTVSPost2010PropOp47
 70
     1
102
RTVSPost2010Prop48
 90
       50
102
RTVSPost2010PropOp48
 70
     1
102
RTVSPost2010Prop49
280
     0
102
RTVSPost2010PropOp49
 70
     1
102
RTVSPost2010Prop50
 90
       50
102
RTVSPost2010PropOp50
 70
     1
102
RTVSPost2010Prop51ColorIndex
 90
      256
102
RTVSPost2010Prop51ColorRGB
 90
-16777216
102
RTVSPost2010PropOp51
 70
     0
102
RTVSPost2010Prop52
140
1.0
102
RTVSPost2010PropOp52
 70
     0
102
RTVSPost2010Prop53
 90
        2
102
RTVSPost2010PropOp53
 70
     1
102
RTVSPost2010Prop54
  1
strokes_ogs.tif
102
RTVSPost2010PropOp54
 70
     1
102
RTVSPost2010Prop55
280
     0
102
RTVSPost2010PropOp55
 70
     1
102
RTVSPost2010Prop56
140
1.0
102
RTVSPost2010PropOp56
 70
     1
102
RTVSPost2010Prop57
140
1.0
102
RTVSPost2010PropOp57
 70
     1
  0
XRECORD
  5
3A5
102
{ACAD_REACTORS
330
3A4
102
}
330
3A4
100
AcDbXrecord
280
     1
102
RTVSPropertyOp0
 70
     1
102
RTVSPropertyOp1
 70
     1
102
RTVSPropertyOp2
 70
     1
102
RTVSPropertyOp3
 70
     1
102
RTVSPropertyOp4
 70
     1
102
RTVSPropertyOp5
 70
     1
102
RTVSPropertyOp6
 70
     1
102
RTVSPropertyOp7
 70
     1
102
RTVSPropertyOp8
 70
     1
102
RTVSPropertyOp9
 70
     1
102
RTVSPropertyOp10
 70
     1
102
RTVSPropertyOp11
 70
     1
102
RTVSPropertyOp12
 70
     1
102
RTVSPropertyOp13
 70
     1
102
RTVSPropertyOp14
 70
     1
102
RTVSPropertyOp15
 70
     1
102
RTVSPropertyOp16
 70
     1
102
RTVSPropertyOp17
 70
     1
102
RTVSPropertyOp18
 70
     1
102
RTVSPropertyOp19
 70
     1
102
RTVSPropertyOp20
 70
     1
102
RTVSPropertyOp21
 70
     1
102
RTVSPropertyOp22
 70
     1
102
RTVSPropertyOp23
 70
     1
102
RTVSPropertyOp24
 70
     1
102
RTVSPropertyOp25
 70
     1
102
RTVSPropertyOp26
 70
     1
102
RTVSPropertyOp27
 70
     1
102
RTVSPropertyOp28
 70
     1
102
RTVSPropertyOp29
 70
     1
102
RTVSPropertyOp30
 70
     1
102
RTVSPropertyOp31
 70
     1
102
RTVSPropertyOp32
 70
     1
102
RTVSPropertyOp33
 70
     1
102
RTVSPropertyOp34
 70
     1
102
RTVSPropertyOp35
 70
     1
102
RTVSPropertyOp36
 70
     1
102
RTVSPropertyOp37
 70
     1
102
RTVSPropertyOp38
 70
     1
102
RTVSPropertyOp39
 70
     1
102
RTVSPropertyOp40
 70
     1
102
RTVSPropertyOp41
 70
     1
102
RTVSPropertyOp42
 70
     1
102
RTVSPropertyOp43
 70
     1
102
RTVSPropertyOp44
 70
     1
102
RTVSPropertyOp45
 70
     1
102
RTVSPropertyOp46
 70
     1
102
RTVSPropertyOp47
 70
     1
102
RTVSPropertyOp48
 70
     1
102
RTVSPropertyOp49
 70
     1
102
RTVSPropertyOp50
 70
     1
102
RTVSPropertyOp51
 70
     0
102
RTVSPropertyOp52
 70
     0
102
RTVSPropertyOp53
 70
     1
102
RTVSPropertyOp54
 70
     1
102
RTVSPropertyOp55
 70
     1
102
RTVSPropertyOp56
 70
     1
102
RTVSPropertyOp57
 70
     1
102
RTVSPost2010Prop28
280
     0
102
RTVSPost2010PropOp28
 70
     1
102
RTVSPost2010Prop29
280
     1
102
RTVSPost2010PropOp29
 70
     1
102
RTVSPost2010Prop30
280
     1
102
RTVSPost2010PropOp30
 70
     1
102
RTVSPost2010Prop31
280
     0
102
RTVSPost2010PropOp31
 70
     1
102
RTVSPost2010Prop32
280
     0
102
RTVSPost2010PropOp32
 70
     1
102
RTVSPost2010Prop33
280
     0
102
RTVSPost2010PropOp33
 70
     1
102
RTVSPost2010Prop34
280
     0
102
RTVSPost2010PropOp34
 70
     1
102
RTVSPost2010Prop35
280
     0
102
RTVSPost2010PropOp35
 70
     1
102
RTVSPost2010Prop36
280
     0
102
RTVSPost2010PropOp36
 70
     1
102
RTVSPost2010Prop37
 90
       50
102
RTVSPost2010PropOp37
 70
     1
102
RTVSPost2010Prop38
140
0.0
102
RTVSPost2010PropOp38
 70
     1
102
RTVSPost2010Prop39
140
1.0
102
RTVSPost2010PropOp39
 70
     1
102
RTVSPost2010Prop40
 90
        0
102
RTVSPost2010PropOp40
 70
     1
102
RTVSPost2010Prop41ColorIndex
 90
       18
102
RTVSPost2010Prop41ColorRGB
 90
        0
102
RTVSPost2010PropOp41
 70
     1
102
RTVSPost2010Prop42
 90
       50
102
RTVSPost2010PropOp42
 70
     1
102
RTVSPost2010Prop43
 90
        3
102
RTVSPost2010PropOp43
 70
     1
102
RTVSPost2010Prop44ColorIndex
 90
        5
102
RTVSPost2010Prop44ColorRGB
 90
      255
102
RTVSPost2010PropOp44
 70
     1
102
RTVSPost2010Prop45
280
     0
102
RTVSPost2010PropOp45
 70
     1
102
RTVSPost2010Prop46
 90
       50
102
RTVSPost2010PropOp46
 70
     1
102
RTVSPost2010Prop47
 90
       50
102
RTVSPost2010PropOp47
 70
     1
102
RTVSPost2010Prop48
 90
       50
102
RTVSPost2010PropOp48
 70
     1
102
RTVSPost2010Prop49
280
     0
102
RTVSPost2010PropOp49
 70
     1
102
RTVSPost2010Prop50
 90
       50
102
RTVSPost2010PropOp50
 70
     1
102
RTVSPost2010Prop51ColorIndex
 90
      256
102
RTVSPost2010Prop51ColorRGB
 90
-16777216
102
RTVSPost2010PropOp51
 70
     0
102
RTVSPost2010Prop52
140
1.0
102
RTVSPost2010PropOp52
 70
     0
102
RTVSPost2010Prop53
 90
        2
102
RTVSPost2010PropOp53
 70
     1
102
RTVSPost2010Prop54
  1
strokes_ogs.tif
102
RTVSPost2010PropOp54
 70
     1
102
RTVSPost2010Prop55
280
     0
102
RTVSPost2010PropOp55
 70
     1
102
RTVSPost2010Prop56
140
1.0
102
RTVSPost2010PropOp56
 70
     1
102
RTVSPost2010Prop57
140
1.0
102
RTVSPost2010PropOp57
 70
     1
  0
XRECORD
  5
395
102
{ACAD_REACTORS
330
394
102
}
330
394
100
AcDbXrecord
280
     1
102
RTVSPropertyOp0
 70
     1
102
RTVSPropertyOp1
 70
     1
102
RTVSPropertyOp2
 70
     1
102
RTVSPropertyOp3
 70
     1
102
RTVSPropertyOp4
 70
     1
102
RTVSPropertyOp5
 70
     1
102
RTVSPropertyOp6
 70
     1
102
RTVSPropertyOp7
 70
     1
102
RTVSPropertyOp8
 70
     1
102
RTVSPropertyOp9
 70
     1
102
RTVSPropertyOp10
 70
     1
102
RTVSPropertyOp11
 70
     1
102
RTVSPropertyOp12
 70
     1
102
RTVSPropertyOp13
 70
     1
102
RTVSPropertyOp14
 70
     1
102
RTVSPropertyOp15
 70
     1
102
RTVSPropertyOp16
 70
     1
102
RTVSPropertyOp17
 70
     1
102
RTVSPropertyOp18
 70
     1
102
RTVSPropertyOp19
 70
     1
102
RTVSPropertyOp20
 70
     1
102
RTVSPropertyOp21
 70
     1
102
RTVSPropertyOp22
 70
     1
102
RTVSPropertyOp23
 70
     1
102
RTVSPropertyOp24
 70
     1
102
RTVSPropertyOp25
 70
     1
102
RTVSPropertyOp26
 70
     1
102
RTVSPropertyOp27
 70
     1
102
RTVSPropertyOp28
 70
     1
102
RTVSPropertyOp29
 70
     1
102
RTVSPropertyOp30
 70
     1
102
RTVSPropertyOp31
 70
     1
102
RTVSPropertyOp32
 70
     1
102
RTVSPropertyOp33
 70
     1
102
RTVSPropertyOp34
 70
     1
102
RTVSPropertyOp35
 70
     1
102
RTVSPropertyOp36
 70
     1
102
RTVSPropertyOp37
 70
     1
102
RTVSPropertyOp38
 70
     1
102
RTVSPropertyOp39
 70
     1
102
RTVSPropertyOp40
 70
     1
102
RTVSPropertyOp41
 70
     1
102
RTVSPropertyOp42
 70
     1
102
RTVSPropertyOp43
 70
     1
102
RTVSPropertyOp44
 70
     1
102
RTVSPropertyOp45
 70
     1
102
RTVSPropertyOp46
 70
     1
102
RTVSPropertyOp47
 70
     1
102
RTVSPropertyOp48
 70
     1
102
RTVSPropertyOp49
 70
     1
102
RTVSPropertyOp50
 70
     1
102
RTVSPropertyOp51
 70
     0
102
RTVSPropertyOp52
 70
     0
102
RTVSPropertyOp53
 70
     1
102
RTVSPropertyOp54
 70
     1
102
RTVSPropertyOp55
 70
     1
102
RTVSPropertyOp56
 70
     1
102
RTVSPropertyOp57
 70
     1
102
RTVSPost2010Prop28
280
     0
102
RTVSPost2010PropOp28
 70
     1
102
RTVSPost2010Prop29
280
     1
102
RTVSPost2010PropOp29
 70
     1
102
RTVSPost2010Prop30
280
     1
102
RTVSPost2010PropOp30
 70
     1
102
RTVSPost2010Prop31
280
     0
102
RTVSPost2010PropOp31
 70
     1
102
RTVSPost2010Prop32
280
     0
102
RTVSPost2010PropOp32
 70
     1
102
RTVSPost2010Prop33
280
     0
102
RTVSPost2010PropOp33
 70
     1
102
RTVSPost2010Prop34
280
     0
102
RTVSPost2010PropOp34
 70
     1
102
RTVSPost2010Prop35
280
     0
102
RTVSPost2010PropOp35
 70
     1
102
RTVSPost2010Prop36
280
     0
102
RTVSPost2010PropOp36
 70
     1
102
RTVSPost2010Prop37
 90
       50
102
RTVSPost2010PropOp37
 70
     1
102
RTVSPost2010Prop38
140
0.0
102
RTVSPost2010PropOp38
 70
     1
102
RTVSPost2010Prop39
140
1.0
102
RTVSPost2010PropOp39
 70
     1
102
RTVSPost2010Prop40
 90
        0
102
RTVSPost2010PropOp40
 70
     1
102
RTVSPost2010Prop41ColorIndex
 90
       18
102
RTVSPost2010Prop41ColorRGB
 90
        0
102
RTVSPost2010PropOp41
 70
     1
102
RTVSPost2010Prop42
 90
       50
102
RTVSPost2010PropOp42
 70
     1
102
RTVSPost2010Prop43
 90
        3
102
RTVSPost2010PropOp43
 70
     1
102
RTVSPost2010Prop44ColorIndex
 90
        5
102
RTVSPost2010Prop44ColorRGB
 90
      255
102
RTVSPost2010PropOp44
 70
     1
102
RTVSPost2010Prop45
280
     0
102
RTVSPost2010PropOp45
 70
     1
102
RTVSPost2010Prop46
 90
       50
102
RTVSPost2010PropOp46
 70
     1
102
RTVSPost2010Prop47
 90
       50
102
RTVSPost2010PropOp47
 70
     1
102
RTVSPost2010Prop48
 90
       50
102
RTVSPost2010PropOp48
 70
     1
102
RTVSPost2010Prop49
280
     0
102
RTVSPost2010PropOp49
 70
     1
102
RTVSPost2010Prop50
 90
       50
102
RTVSPost2010PropOp50
 70
     1
102
RTVSPost2010Prop51ColorIndex
 90
      256
102
RTVSPost2010Prop51ColorRGB
 90
-16777216
102
RTVSPost2010PropOp51
 70
     0
102
RTVSPost2010Prop52
140
1.0
102
RTVSPost2010PropOp52
 70
     0
102
RTVSPost2010Prop53
 90
        2
102
RTVSPost2010PropOp53
 70
     1
102
RTVSPost2010Prop54
  1
strokes_ogs.tif
102
RTVSPost2010PropOp54
 70
     1
102
RTVSPost2010Prop55
280
     0
102
RTVSPost2010PropOp55
 70
     1
102
RTVSPost2010Prop56
140
1.0
102
RTVSPost2010PropOp56
 70
     1
102
RTVSPost2010Prop57
140
1.0
102
RTVSPost2010PropOp57
 70
     1
  0
XRECORD
  5
387
102
{ACAD_REACTORS
330
386
102
}
330
386
100
AcDbXrecord
280
     1
102
RTVSPropertyOp0
 70
     1
102
RTVSPropertyOp1
 70
     1
102
RTVSPropertyOp2
 70
     1
102
RTVSPropertyOp3
 70
     1
102
RTVSPropertyOp4
 70
     1
102
RTVSPropertyOp5
 70
     1
102
RTVSPropertyOp6
 70
     1
102
RTVSPropertyOp7
 70
     1
102
RTVSPropertyOp8
 70
     1
102
RTVSPropertyOp9
 70
     1
102
RTVSPropertyOp10
 70
     1
102
RTVSPropertyOp11
 70
     1
102
RTVSPropertyOp12
 70
     1
102
RTVSPropertyOp13
 70
     1
102
RTVSPropertyOp14
 70
     1
102
RTVSPropertyOp15
 70
     1
102
RTVSPropertyOp16
 70
     1
102
RTVSPropertyOp17
 70
     1
102
RTVSPropertyOp18
 70
     1
102
RTVSPropertyOp19
 70
     1
102
RTVSPropertyOp20
 70
     1
102
RTVSPropertyOp21
 70
     1
102
RTVSPropertyOp22
 70
     1
102
RTVSPropertyOp23
 70
     1
102
RTVSPropertyOp24
 70
     1
102
RTVSPropertyOp25
 70
     1
102
RTVSPropertyOp26
 70
     1
102
RTVSPropertyOp27
 70
     1
102
RTVSPropertyOp28
 70
     1
102
RTVSPropertyOp29
 70
     1
102
RTVSPropertyOp30
 70
     1
102
RTVSPropertyOp31
 70
     1
102
RTVSPropertyOp32
 70
     1
102
RTVSPropertyOp33
 70
     1
102
RTVSPropertyOp34
 70
     1
102
RTVSPropertyOp35
 70
     1
102
RTVSPropertyOp36
 70
     1
102
RTVSPropertyOp37
 70
     1
102
RTVSPropertyOp38
 70
     1
102
RTVSPropertyOp39
 70
     1
102
RTVSPropertyOp40
 70
     1
102
RTVSPropertyOp41
 70
     1
102
RTVSPropertyOp42
 70
     1
102
RTVSPropertyOp43
 70
     1
102
RTVSPropertyOp44
 70
     1
102
RTVSPropertyOp45
 70
     1
102
RTVSPropertyOp46
 70
     1
102
RTVSPropertyOp47
 70
     1
102
RTVSPropertyOp48
 70
     1
102
RTVSPropertyOp49
 70
     1
102
RTVSPropertyOp50
 70
     1
102
RTVSPropertyOp51
 70
     0
102
RTVSPropertyOp52
 70
     0
102
RTVSPropertyOp53
 70
     1
102
RTVSPropertyOp54
 70
     1
102
RTVSPropertyOp55
 70
     1
102
RTVSPropertyOp56
 70
     1
102
RTVSPropertyOp57
 70
     1
102
RTVSPost2010Prop28
280
     0
102
RTVSPost2010PropOp28
 70
     1
102
RTVSPost2010Prop29
280
     1
102
RTVSPost2010PropOp29
 70
     1
102
RTVSPost2010Prop30
280
     1
102
RTVSPost2010PropOp30
 70
     1
102
RTVSPost2010Prop31
280
     0
102
RTVSPost2010PropOp31
 70
     1
102
RTVSPost2010Prop32
280
     0
102
RTVSPost2010PropOp32
 70
     1
102
RTVSPost2010Prop33
280
     0
102
RTVSPost2010PropOp33
 70
     1
102
RTVSPost2010Prop34
280
     0
102
RTVSPost2010PropOp34
 70
     1
102
RTVSPost2010Prop35
280
     0
102
RTVSPost2010PropOp35
 70
     1
102
RTVSPost2010Prop36
280
     0
102
RTVSPost2010PropOp36
 70
     1
102
RTVSPost2010Prop37
 90
       50
102
RTVSPost2010PropOp37
 70
     1
102
RTVSPost2010Prop38
140
0.0
102
RTVSPost2010PropOp38
 70
     1
102
RTVSPost2010Prop39
140
1.0
102
RTVSPost2010PropOp39
 70
     1
102
RTVSPost2010Prop40
 90
        0
102
RTVSPost2010PropOp40
 70
     1
102
RTVSPost2010Prop41ColorIndex
 90
       18
102
RTVSPost2010Prop41ColorRGB
 90
        0
102
RTVSPost2010PropOp41
 70
     1
102
RTVSPost2010Prop42
 90
       50
102
RTVSPost2010PropOp42
 70
     1
102
RTVSPost2010Prop43
 90
        3
102
RTVSPost2010PropOp43
 70
     1
102
RTVSPost2010Prop44ColorIndex
 90
        5
102
RTVSPost2010Prop44ColorRGB
 90
      255
102
RTVSPost2010PropOp44
 70
     1
102
RTVSPost2010Prop45
280
     0
102
RTVSPost2010PropOp45
 70
     1
102
RTVSPost2010Prop46
 90
       50
102
RTVSPost2010PropOp46
 70
     1
102
RTVSPost2010Prop47
 90
       50
102
RTVSPost2010PropOp47
 70
     1
102
RTVSPost2010Prop48
 90
       50
102
RTVSPost2010PropOp48
 70
     1
102
RTVSPost2010Prop49
280
     0
102
RTVSPost2010PropOp49
 70
     1
102
RTVSPost2010Prop50
 90
       50
102
RTVSPost2010PropOp50
 70
     1
102
RTVSPost2010Prop51ColorIndex
 90
      256
102
RTVSPost2010Prop51ColorRGB
 90
-16777216
102
RTVSPost2010PropOp51
 70
     0
102
RTVSPost2010Prop52
140
1.0
102
RTVSPost2010PropOp52
 70
     0
102
RTVSPost2010Prop53
 90
        2
102
RTVSPost2010PropOp53
 70
     1
102
RTVSPost2010Prop54
  1
strokes_ogs.tif
102
RTVSPost2010PropOp54
 70
     1
102
RTVSPost2010Prop55
280
     0
102
RTVSPost2010PropOp55
 70
     1
102
RTVSPost2010Prop56
140
1.0
102
RTVSPost2010PropOp56
 70
     1
102
RTVSPost2010Prop57
140
1.0
102
RTVSPost2010PropOp57
 70
     1
  0
XRECORD
  5
3A7
102
{ACAD_REACTORS
330
3A6
102
}
330
3A6
100
AcDbXrecord
280
     1
102
RTVSPropertyOp0
 70
     1
102
RTVSPropertyOp1
 70
     1
102
RTVSPropertyOp2
 70
     1
102
RTVSPropertyOp3
 70
     1
102
RTVSPropertyOp4
 70
     1
102
RTVSPropertyOp5
 70
     1
102
RTVSPropertyOp6
 70
     1
102
RTVSPropertyOp7
 70
     1
102
RTVSPropertyOp8
 70
     1
102
RTVSPropertyOp9
 70
     1
102
RTVSPropertyOp10
 70
     1
102
RTVSPropertyOp11
 70
     1
102
RTVSPropertyOp12
 70
     1
102
RTVSPropertyOp13
 70
     1
102
RTVSPropertyOp14
 70
     1
102
RTVSPropertyOp15
 70
     1
102
RTVSPropertyOp16
 70
     1
102
RTVSPropertyOp17
 70
     1
102
RTVSPropertyOp18
 70
     1
102
RTVSPropertyOp19
 70
     1
102
RTVSPropertyOp20
 70
     1
102
RTVSPropertyOp21
 70
     1
102
RTVSPropertyOp22
 70
     1
102
RTVSPropertyOp23
 70
     1
102
RTVSPropertyOp24
 70
     1
102
RTVSPropertyOp25
 70
     1
102
RTVSPropertyOp26
 70
     1
102
RTVSPropertyOp27
 70
     1
102
RTVSPropertyOp28
 70
     1
102
RTVSPropertyOp29
 70
     1
102
RTVSPropertyOp30
 70
     1
102
RTVSPropertyOp31
 70
     1
102
RTVSPropertyOp32
 70
     1
102
RTVSPropertyOp33
 70
     1
102
RTVSPropertyOp34
 70
     1
102
RTVSPropertyOp35
 70
     1
102
RTVSPropertyOp36
 70
     1
102
RTVSPropertyOp37
 70
     1
102
RTVSPropertyOp38
 70
     1
102
RTVSPropertyOp39
 70
     1
102
RTVSPropertyOp40
 70
     1
102
RTVSPropertyOp41
 70
     1
102
RTVSPropertyOp42
 70
     1
102
RTVSPropertyOp43
 70
     1
102
RTVSPropertyOp44
 70
     1
102
RTVSPropertyOp45
 70
     1
102
RTVSPropertyOp46
 70
     1
102
RTVSPropertyOp47
 70
     1
102
RTVSPropertyOp48
 70
     1
102
RTVSPropertyOp49
 70
     1
102
RTVSPropertyOp50
 70
     1
102
RTVSPropertyOp51
 70
     0
102
RTVSPropertyOp52
 70
     0
102
RTVSPropertyOp53
 70
     1
102
RTVSPropertyOp54
 70
     1
102
RTVSPropertyOp55
 70
     1
102
RTVSPropertyOp56
 70
     1
102
RTVSPropertyOp57
 70
     1
102
RTVSPost2010Prop28
280
     0
102
RTVSPost2010PropOp28
 70
     1
102
RTVSPost2010Prop29
280
     1
102
RTVSPost2010PropOp29
 70
     1
102
RTVSPost2010Prop30
280
     1
102
RTVSPost2010PropOp30
 70
     1
102
RTVSPost2010Prop31
280
     0
102
RTVSPost2010PropOp31
 70
     1
102
RTVSPost2010Prop32
280
     0
102
RTVSPost2010PropOp32
 70
     1
102
RTVSPost2010Prop33
280
     0
102
RTVSPost2010PropOp33
 70
     1
102
RTVSPost2010Prop34
280
     0
102
RTVSPost2010PropOp34
 70
     1
102
RTVSPost2010Prop35
280
     0
102
RTVSPost2010PropOp35
 70
     1
102
RTVSPost2010Prop36
280
     0
102
RTVSPost2010PropOp36
 70
     1
102
RTVSPost2010Prop37
 90
       50
102
RTVSPost2010PropOp37
 70
     1
102
RTVSPost2010Prop38
140
0.0
102
RTVSPost2010PropOp38
 70
     1
102
RTVSPost2010Prop39
140
1.0
102
RTVSPost2010PropOp39
 70
     1
102
RTVSPost2010Prop40
 90
        0
102
RTVSPost2010PropOp40
 70
     1
102
RTVSPost2010Prop41ColorIndex
 90
       18
102
RTVSPost2010Prop41ColorRGB
 90
        0
102
RTVSPost2010PropOp41
 70
     1
102
RTVSPost2010Prop42
 90
       50
102
RTVSPost2010PropOp42
 70
     1
102
RTVSPost2010Prop43
 90
        3
102
RTVSPost2010PropOp43
 70
     1
102
RTVSPost2010Prop44ColorIndex
 90
        5
102
RTVSPost2010Prop44ColorRGB
 90
      255
102
RTVSPost2010PropOp44
 70
     1
102
RTVSPost2010Prop45
280
     0
102
RTVSPost2010PropOp45
 70
     1
102
RTVSPost2010Prop46
 90
       50
102
RTVSPost2010PropOp46
 70
     1
102
RTVSPost2010Prop47
 90
       50
102
RTVSPost2010PropOp47
 70
     1
102
RTVSPost2010Prop48
 90
       50
102
RTVSPost2010PropOp48
 70
     1
102
RTVSPost2010Prop49
280
     0
102
RTVSPost2010PropOp49
 70
     1
102
RTVSPost2010Prop50
 90
       50
102
RTVSPost2010PropOp50
 70
     1
102
RTVSPost2010Prop51ColorIndex
 90
      256
102
RTVSPost2010Prop51ColorRGB
 90
-16777216
102
RTVSPost2010PropOp51
 70
     0
102
RTVSPost2010Prop52
140
1.0
102
RTVSPost2010PropOp52
 70
     0
102
RTVSPost2010Prop53
 90
        2
102
RTVSPost2010PropOp53
 70
     1
102
RTVSPost2010Prop54
  1
strokes_ogs.tif
102
RTVSPost2010PropOp54
 70
     1
102
RTVSPost2010Prop55
280
     0
102
RTVSPost2010PropOp55
 70
     1
102
RTVSPost2010Prop56
140
1.0
102
RTVSPost2010PropOp56
 70
     1
102
RTVSPost2010Prop57
140
1.0
102
RTVSPost2010PropOp57
 70
     1
  0
ENDSEC
  0
EOF
