  0
SECTION
  2
HEADER
  9
$ACADVER
  1
AC1018
  9
$ACADMAINTVER
 70
     0
  9
$DWGCODEPAGE
  3
ANSI_932
  9
$INSBASE
 10
0.0
 20
0.0
 30
0.0
  9
$EXTMIN
 10
-630.0
 20
-445.5
 30
0.0
  9
$EXTMAX
 10
630.0
 20
445.5
 30
0.0
  9
$LIMMIN
 10
-630.0
 20
-445.5
  9
$LIMMAX
 10
630.0
 20
445.5
  9
$ORTHOMODE
 70
     0
  9
$REGENMODE
 70
     1
  9
$FILLMODE
 70
     1
  9
$QTEXTMODE
 70
     0
  9
$MIRRTEXT
 70
     1
  9
$LTSCALE
 40
3.0
  9
$ATTMODE
 70
     1
  9
$TEXTSIZE
 40
2.5
  9
$TRACEWID
 40
1.0
  9
$TEXTSTYLE
  7
Standard
  9
$CLAYER
  8
0
  9
$CELTYPE
  6
ByLayer
  9
$CECOLOR
 62
   256
  9
$CELTSCALE
 40
1.0
  9
$DISPSILH
 70
     0
  9
$DIMSCALE
 40
1.0
  9
$DIMASZ
 40
2.5
  9
$DIMEXO
 40
0.625
  9
$DIMDLI
 40
3.75
  9
$DIMRND
 40
0.0
  9
$DIMDLE
 40
0.0
  9
$DIMEXE
 40
1.25
  9
$DIMTP
 40
0.0
  9
$DIMTM
 40
0.0
  9
$DIMTXT
 40
2.5
  9
$DIMCEN
 40
2.5
  9
$DIMTSZ
 40
0.0
  9
$DIMTOL
 70
     0
  9
$DIMLIM
 70
     0
  9
$DIMTIH
 70
     0
  9
$DIMTOH
 70
     0
  9
$DIMSE1
 70
     0
  9
$DIMSE2
 70
     0
  9
$DIMTAD
 70
     1
  9
$DIMZIN
 70
     8
  9
$DIMBLK
  1

  9
$DIMASO
 70
     1
  9
$DIMSHO
 70
     1
  9
$DIMPOST
  1

  9
$DIMAPOST
  1

  9
$DIMALT
 70
     0
  9
$DIMALTD
 70
     3
  9
$DIMALTF
 40
0.03937007874016
  9
$DIMLFAC
 40
1.0
  9
$DIMTOFL
 70
     1
  9
$DIMTVP
 40
0.0
  9
$DIMTIX
 70
     0
  9
$DIMSOXD
 70
     0
  9
$DIMSAH
 70
     0
  9
$DIMBLK1
  1

  9
$DIMBLK2
  1

  9
$DIMSTYLE
  2
ISO-25
  9
$DIMCLRD
 70
     0
  9
$DIMCLRE
 70
     0
  9
$DIMCLRT
 70
     0
  9
$DIMTFAC
 40
1.0
  9
$DIMGAP
 40
0.625
  9
$DIMJUST
 70
     0
  9
$DIMSD1
 70
     0
  9
$DIMSD2
 70
     0
  9
$DIMTOLJ
 70
     0
  9
$DIMTZIN
 70
     8
  9
$DIMALTZ
 70
     0
  9
$DIMALTTZ
 70
     0
  9
$DIMUPT
 70
     0
  9
$DIMDEC
 70
     2
  9
$DIMTDEC
 70
     2
  9
$DIMALTU
 70
     2
  9
$DIMALTTD
 70
     3
  9
$DIMTXSTY
  7
Standard
  9
$DIMAUNIT
 70
     0
  9
$DIMADEC
 70
     0
  9
$DIMALTRND
 40
0.0
  9
$DIMAZIN
 70
     0
  9
$DIMDSEP
 70
    44
  9
$DIMATFIT
 70
     3
  9
$DIMFRAC
 70
     0
  9
$DIMLDRBLK
  1

  9
$DIMLUNIT
 70
     2
  9
$DIMLWD
 70
    -2
  9
$DIMLWE
 70
    -2
  9
$DIMTMOVE
 70
     0
  9
$LUNITS
 70
     2
  9
$LUPREC
 70
     4
  9
$SKETCHINC
 40
1.0
  9
$FILLETRAD
 40
10.0
  9
$AUNITS
 70
     0
  9
$AUPREC
 70
     0
  9
$MENU
  1
.
  9
$ELEVATION
 40
0.0
  9
$PELEVATION
 40
0.0
  9
$THICKNESS
 40
0.0
  9
$LIMCHECK
 70
     0
  9
$CHAMFERA
 40
0.0
  9
$CHAMFERB
 40
0.0
  9
$CHAMFERC
 40
0.0
  9
$CHAMFERD
 40
0.0
  9
$SKPOLY
 70
     0
  9
$TDCREATE
 40
2460040.382044618
  9
$TDUCREATE
 40
2460040.007044618
  9
$TDUPDATE
 40
2460040.382044919
  9
$TDUUPDATE
 40
2460040.007044919
  9
$TDINDWG
 40
0.0000000116
  9
$TDUSRTIMER
 40
0.0000000116
  9
$USRTIMER
 70
     1
  9
$ANGBASE
 50
0.0
  9
$ANGDIR
 70
     0
  9
$PDMODE
 70
     0
  9
$PDSIZE
 40
0.0
  9
$PLINEWID
 40
0.0
  9
$SPLFRAME
 70
     0
  9
$SPLINETYPE
 70
     6
  9
$SPLINESEGS
 70
     8
  9
$HANDSEED
  5
428
  9
$SURFTAB1
 70
     6
  9
$SURFTAB2
 70
     6
  9
$SURFTYPE
 70
     6
  9
$SURFU
 70
     6
  9
$SURFV
 70
     6
  9
$UCSBASE
  2

  9
$UCSNAME
  2

  9
$UCSORG
 10
0.0
 20
0.0
 30
0.0
  9
$UCSXDIR
 10
1.0
 20
0.0
 30
0.0
  9
$UCSYDIR
 10
0.0
 20
1.0
 30
0.0
  9
$UCSORTHOREF
  2

  9
$UCSORTHOVIEW
 70
     0
  9
$UCSORGTOP
 10
0.0
 20
0.0
 30
0.0
  9
$UCSORGBOTTOM
 10
0.0
 20
0.0
 30
0.0
  9
$UCSORGLEFT
 10
0.0
 20
0.0
 30
0.0
  9
$UCSORGRIGHT
 10
0.0
 20
0.0
 30
0.0
  9
$UCSORGFRONT
 10
0.0
 20
0.0
 30
0.0
  9
$UCSORGBACK
 10
0.0
 20
0.0
 30
0.0
  9
$PUCSBASE
  2

  9
$PUCSNAME
  2

  9
$PUCSORG
 10
0.0
 20
0.0
 30
0.0
  9
$PUCSXDIR
 10
1.0
 20
0.0
 30
0.0
  9
$PUCSYDIR
 10
0.0
 20
1.0
 30
0.0
  9
$PUCSORTHOREF
  2

  9
$PUCSORTHOVIEW
 70
     0
  9
$PUCSORGTOP
 10
0.0
 20
0.0
 30
0.0
  9
$PUCSORGBOTTOM
 10
0.0
 20
0.0
 30
0.0
  9
$PUCSORGLEFT
 10
0.0
 20
0.0
 30
0.0
  9
$PUCSORGRIGHT
 10
0.0
 20
0.0
 30
0.0
  9
$PUCSORGFRONT
 10
0.0
 20
0.0
 30
0.0
  9
$PUCSORGBACK
 10
0.0
 20
0.0
 30
0.0
  9
$USERI1
 70
     0
  9
$USERI2
 70
     0
  9
$USERI3
 70
     0
  9
$USERI4
 70
     0
  9
$USERI5
 70
     0
  9
$USERR1
 40
0.0
  9
$USERR2
 40
0.0
  9
$USERR3
 40
0.0
  9
$USERR4
 40
0.0
  9
$USERR5
 40
0.0
  9
$WORLDVIEW
 70
     1
  9
$SHADEDGE
 70
     3
  9
$SHADEDIF
 70
    70
  9
$TILEMODE
 70
     1
  9
$MAXACTVP
 70
    64
  9
$PINSBASE
 10
0.0
 20
0.0
 30
0.0
  9
$PLIMCHECK
 70
     0
  9
$PEXTMIN
 10
1.000000000000000E+20
 20
1.000000000000000E+20
 30
1.000000000000000E+20
  9
$PEXTMAX
 10
-1.000000000000000E+20
 20
-1.000000000000000E+20
 30
-1.000000000000000E+20
  9
$PLIMMIN
 10
0.0
 20
0.0
  9
$PLIMMAX
 10
420.0
 20
297.0
  9
$UNITMODE
 70
     0
  9
$VISRETAIN
 70
     1
  9
$PLINEGEN
 70
     0
  9
$PSLTSCALE
 70
     1
  9
$TREEDEPTH
 70
  3020
  9
$CMLSTYLE
  2
Standard
  9
$CMLJUST
 70
     0
  9
$CMLSCALE
 40
20.0
  9
$PROXYGRAPHICS
 70
     1
  9
$MEASUREMENT
 70
     1
  9
$CELWEIGHT
370
    -1
  9
$ENDCAPS
280
     0
  9
$JOINSTYLE
280
     0
  9
$LWDISPLAY
290
     0
  9
$INSUNITS
 70
     4
  9
$HYPERLINKBASE
  1

  9
$STYLESHEET
  1

  9
$XEDIT
290
     1
  9
$CEPSNTYPE
380
     0
  9
$PSTYLEMODE
290
     1
  9
$FINGERPRINTGUID
  2
{430F0D7D-BCA8-491D-A0BE-EC3BF5CD455A}
  9
$VERSIONGUID
  2
{FAEB1C32-E019-11D5-929B-00C0DF256EC4}
  9
$EXTNAMES
290
     1
  9
$PSVPSCALE
 40
0.0
  9
$OLESTARTUP
290
     0
  9
$SORTENTS
280
   127
  9
$INDEXCTL
280
     0
  9
$HIDETEXT
280
     1
  9
$XCLIPFRAME
290
     0
  9
$HALOGAP
280
     0
  9
$OBSCOLOR
 70
   257
  9
$OBSLTYPE
280
     0
  9
$INTERSECTIONDISPLAY
280
     0
  9
$INTERSECTIONCOLOR
 70
   257
  9
$DIMASSOC
280
     2
  9
$PROJECTNAME
  1

  0
ENDSEC
  0
SECTION
  2
CLASSES
  0
CLASS
  1
ACDBDICTIONARYWDFLT
  2
AcDbDictionaryWithDefault
  3
ObjectDBX Classes
 90
        0
 91
        4
280
     0
281
     0
  0
CLASS
  1
VISUALSTYLE
  2
AcDbVisualStyle
  3
ObjectDBX Classes
 90
     4095
 91
        4
280
     0
281
     0
  0
CLASS
  1
MATERIAL
  2
AcDbMaterial
  3
ObjectDBX Classes
 90
     1153
 91
        4
280
     0
281
     0
  0
CLASS
  1
SCALE
  2
AcDbScale
  3
ObjectDBX Classes
 90
     1153
 91
        4
280
     0
281
     0
  0
CLASS
  1
TABLESTYLE
  2
AcDbTableStyle
  3
ObjectDBX Classes
 90
     4095
 91
        4
280
     0
281
     0
  0
CLASS
  1
MLEADERSTYLE
  2
AcDbMLeaderStyle
  3
ACDB_MLEADERSTYLE_CLASS
 90
     4095
 91
        4
280
     0
281
     0
  0
CLASS
  1
SUN
  2
AcDbSun
  3
SCENEOE
 90
     1153
 91
        4
280
     0
281
     0
  0
CLASS
  1
DICTIONARYVAR
  2
AcDbDictionaryVar
  3
ObjectDBX Classes
 90
        0
 91
        4
280
     0
281
     0
  0
CLASS
  1
CELLSTYLEMAP
  2
AcDbCellStyleMap
  3
ObjectDBX Classes
 90
     1152
 91
        4
280
     0
281
     0
  0
ENDSEC
  0
SECTION
  2
TABLES
  0
TABLE
  2
VPORT
  5
8
102
{ACAD_XDICTIONARY
360
3DF
102
}
330
0
100
AcDbSymbolTable
 70
     1
  0
VPORT
  5
29
330
8
100
AcDbSymbolTableRecord
100
AcDbViewportTableRecord
  2
*Active
 70
     0
 10
0.0
 20
0.0
 11
1.0
 21
1.0
 12
0.0
 22
0.0
 13
0.0
 23
0.0
 14
10.0
 24
10.0
 15
10.0
 25
10.0
 16
0.0
 26
0.0
 36
1.0
 17
0.0
 27
0.0
 37
0.0
 40
980.1
 41
1.414141414141414
 42
50.0
 43
0.0
 44
0.0
 50
0.0
 51
0.0
 71
     0
 72
 10000
 73
     1
 74
     3
 75
     0
 76
     0
 77
     0
 78
     0
281
     0
 65
     1
110
0.0
120
0.0
130
0.0
111
1.0
121
0.0
131
0.0
112
0.0
122
1.0
132
0.0
 79
     0
146
0.0
  0
ENDTAB
  0
TABLE
  2
LTYPE
  5
5
330
0
100
AcDbSymbolTable
 70
     4
  0
LTYPE
  5
14
330
5
100
AcDbSymbolTableRecord
100
AcDbLinetypeTableRecord
  2
ByBlock
 70
     0
  3

 72
    65
 73
     0
 40
0.0
  0
LTYPE
  5
15
330
5
100
AcDbSymbolTableRecord
100
AcDbLinetypeTableRecord
  2
ByLayer
 70
     0
  3

 72
    65
 73
     0
 40
0.0
  0
LTYPE
  5
16
330
5
100
AcDbSymbolTableRecord
100
AcDbLinetypeTableRecord
  2
Continuous
 70
     0
  3
Solid line
 72
    65
 73
     0
 40
0.0
  0
LTYPE
  5
6F
330
5
100
AcDbSymbolTableRecord
100
AcDbLinetypeTableRecord
  2
JWW_CENTER1
 70
     0
  3
-----  --  ----------  --  -----
 72
    65
 73
     4
 40
6.773333333333333
 49
4.233333333333333
 74
     0
 49
-0.8466666666666667
 74
     0
 49
0.8466666666666667
 74
     0
 49
-0.8466666666666667
 74
     0
  0
LTYPE
  5
70
330
5
100
AcDbSymbolTableRecord
100
AcDbLinetypeTableRecord
  2
JWW_HOJO
 70
     0
  3
  -   -   -   -   -   -   -   - 
 72
    65
 73
     2
 40
1.693333333333333
 49
-1.27
 74
     0
 49
0.4233333333333333
 74
     0
  0
LTYPE
  5
71
330
5
100
AcDbSymbolTableRecord
100
AcDbLinetypeTableRecord
  2
JWW_DASHED2
 70
     0
  3
--    ----    ----    ----    --
 72
    65
 73
     2
 40
3.386666666666667
 49
1.693333333333333
 74
     0
 49
-1.693333333333333
 74
     0
  0
ENDTAB
  0
TABLE
  2
LAYER
  5
2
330
0
100
AcDbSymbolTable
 70
     9
  0
LAYER
  5
10
330
2
100
AcDbSymbolTableRecord
100
AcDbLayerTableRecord
  2
0
 70
     0
 62
     7
  6
Continuous
370
    -3
390
F
  0
LAYER
  5
72
330
2
100
AcDbSymbolTableRecord
100
AcDbLayerTableRecord
  2
E-4
 70
     0
 62
     7
  6
Continuous
370
    -3
390
F
  0
LAYER
  5
73
330
2
100
AcDbSymbolTableRecord
100
AcDbLayerTableRecord
  2
E-A
 70
     0
 62
     7
  6
Continuous
370
    -3
390
F
  0
LAYER
  5
74
330
2
100
AcDbSymbolTableRecord
100
AcDbLayerTableRecord
  2
E-0
 70
     0
 62
     7
  6
Continuous
370
    -3
390
F
  0
LAYER
  5
75
330
2
100
AcDbSymbolTableRecord
100
AcDbLayerTableRecord
  2
E-1
 70
     0
 62
     7
  6
Continuous
370
    -3
390
F
  0
LAYER
  5
76
330
2
100
AcDbSymbolTableRecord
100
AcDbLayerTableRecord
  2
E-F
 70
     0
 62
     7
  6
Continuous
370
    -3
390
F
  0
LAYER
  5
77
330
2
100
AcDbSymbolTableRecord
100
AcDbLayerTableRecord
  2
E-2
 70
     0
 62
     7
  6
Continuous
370
    -3
390
F
  0
LAYER
  5
78
330
2
100
AcDbSymbolTableRecord
100
AcDbLayerTableRecord
  2
E-5
 70
     0
 62
     7
  6
Continuous
370
    -3
390
F
  0
LAYER
  5
79
330
2
100
AcDbSymbolTableRecord
100
AcDbLayerTableRecord
  2
F-5ﾚｲﾔ
 70
     0
 62
     7
  6
Continuous
370
    -3
390
F
  0
ENDTAB
  0
TABLE
  2
STYLE
  5
3
330
0
100
AcDbSymbolTable
 70
     2
  0
STYLE
  5
11
330
3
100
AcDbSymbolTableRecord
100
AcDbTextStyleTableRecord
  2
Standard
 70
     0
 40
0.0
 41
1.0
 50
0.0
 71
     0
 42
2.5
  3
txt
  4

  0
STYLE
  5
6E
330
3
100
AcDbSymbolTableRecord
100
AcDbTextStyleTableRecord
  2
ＭＳ ゴシック
 70
     0
 40
1.0
 41
1.0
 50
0.0
 71
     0
 42
2.5
  3

  4

1001
ACAD
1000
MS Gothic
1071
    32817
  0
ENDTAB
  0
TABLE
  2
VIEW
  5
6
330
0
100
AcDbSymbolTable
 70
     0
  0
ENDTAB
  0
TABLE
  2
UCS
  5
7
330
0
100
AcDbSymbolTable
 70
     0
  0
ENDTAB
  0
TABLE
  2
APPID
  5
9
330
0
100
AcDbSymbolTable
 70
     2
  0
APPID
  5
12
330
9
100
AcDbSymbolTableRecord
100
AcDbRegAppTableRecord
  2
ACAD
 70
     0
  0
APPID
  5
41E
330
9
100
AcDbSymbolTableRecord
100
AcDbRegAppTableRecord
  2
ACAD_MLEADERVER
 70
     0
  0
ENDTAB
  0
TABLE
  2
DIMSTYLE
  5
A
330
0
100
AcDbSymbolTable
 70
     1
100
AcDbDimStyleTable
  0
DIMSTYLE
105
27
330
A
100
AcDbSymbolTableRecord
100
AcDbDimStyleTableRecord
  2
ISO-25
 70
     0
 41
2.5
 42
0.625
 43
3.75
 44
1.25
 73
     0
 74
     0
 77
     1
 78
     8
140
2.5
141
2.5
143
0.03937007874016
147
0.625
171
     3
172
     1
178
     0
271
     2
272
     2
274
     3
278
    44
283
     0
284
     8
340
11
  0
ENDTAB
  0
TABLE
  2
BLOCK_RECORD
  5
1
330
0
100
AcDbSymbolTable
 70
     1
  0
BLOCK_RECORD
  5
1F
330
1
100
AcDbSymbolTableRecord
100
AcDbBlockTableRecord
  2
*Model_Space
340
22
  0
BLOCK_RECORD
  5
1B
330
1
100
AcDbSymbolTableRecord
100
AcDbBlockTableRecord
  2
*Paper_Space
340
1E
  0
BLOCK_RECORD
  5
23
330
1
100
AcDbSymbolTableRecord
100
AcDbBlockTableRecord
  2
*Paper_Space0
340
26
  0
ENDTAB
  0
ENDSEC
  0
SECTION
  2
BLOCKS
  0
BLOCK
  5
20
330
1F
100
AcDbEntity
  8
0
100
AcDbBlockBegin
  2
*Model_Space
 70
     0
 10
0.0
 20
0.0
 30
0.0
  3
*Model_Space
  1

  0
ENDBLK
  5
21
330
1F
100
AcDbEntity
  8
0
100
AcDbBlockEnd
  0
BLOCK
  5
1C
330
1B
100
AcDbEntity
 67
     1
  8
0
100
AcDbBlockBegin
  2
*Paper_Space
 70
     0
 10
0.0
 20
0.0
 30
0.0
  3
*Paper_Space
  1

  0
ENDBLK
  5
1D
330
1B
100
AcDbEntity
 67
     1
  8
0
100
AcDbBlockEnd
  0
BLOCK
  5
24
330
23
100
AcDbEntity
  8
0
100
AcDbBlockBegin
  2
*Paper_Space0
 70
     0
 10
0.0
 20
0.0
 30
0.0
  3
*Paper_Space0
  1

  0
ENDBLK
  5
25
330
23
100
AcDbEntity
  8
0
100
AcDbBlockEnd
  0
ENDSEC
  0
SECTION
  2
ENTITIES
  0
LINE
  5
7A
330
1F
100
AcDbEntity
  8
E-4
  6
Continuous
 62
     7
370
     9
100
AcDbLine
 10
164.3894199834588
 20
342.157445600134
 30
0.0
 11
94.48942298808514
 21
342.157445600134
 31
0.0
  0
LINE
  5
7B
330
1F
100
AcDbEntity
  8
E-A
  6
Continuous
 62
     2
370
     9
100
AcDbLine
 10
-67.6628669732105
 20
-118.7930766311853
 30
0.0
 11
-67.51053509443062
 21
-118.6407447524053
 31
0.0
  0
LINE
  5
7C
330
1F
100
AcDbEntity
  8
E-0
  6
Continuous
 62
     4
370
     9
100
AcDbLine
 10
98.48939521001938
 20
-262.8430459839958
 30
0.0
 11
98.48939521001938
 21
-271.8430135517048
 31
0.0
  0
LINE
  5
7D
330
1F
100
AcDbEntity
  8
E-0
  6
Continuous
 62
     4
370
     9
100
AcDbLine
 10
88.19979670823221
 20
-265.3430328461195
 30
0.0
 11
43.71913583888414
 21
-265.3430328461195
 31
0.0
  0
LINE
  5
7E
330
1F
100
AcDbEntity
  8
E-0
  6
Continuous
 62
     4
370
     9
100
AcDbLine
 10
93.14165194368167
 20
-269.5827344890728
 30
0.0
 11
93.48942148577197
 21
-271.8430135517048
 31
0.0
  0
LINE
  5
7F
330
1F
100
AcDbEntity
  8
E-0
  6
Continuous
 62
     4
370
     9
100
AcDbLine
 10
-67.0197732602087
 20
-158.247726891492
 30
0.0
 11
-70.11719638654716
 21
-158.3107505212881
 31
0.0
  0
LINE
  5
80
330
1F
100
AcDbEntity
  8
E-0
  6
Continuous
 62
     4
370
     9
100
AcDbLine
 10
-62.83806623885619
 20
-161.9726612374591
 30
0.0
 11
-63.11483510366838
 21
-161.0719980751687
 31
0.0
  0
LINE
  5
81
330
1F
100
AcDbEntity
  8
E-0
  6
Continuous
 62
     4
370
     9
100
AcDbLine
 10
-64.50100813103086
 20
-274.220470982629
 30
0.0
 11
-67.75534622243566
 21
-274.2867399329846
 31
0.0
  0
LINE
  5
82
330
1F
100
AcDbEntity
  8
E-0
  6
Continuous
 62
     4
370
     9
100
AcDbLine
 10
-60.77111909718678
 20
-271.4351684191054
 30
0.0
 11
-60.66375101089108
 21
-271.0979771356326
 31
0.0
  0
LINE
  5
83
330
1F
100
AcDbEntity
  8
E-0
  6
Continuous
 62
     4
370
     9
100
AcDbLine
 10
-58.51054275328227
 20
-105.8431327941336
 30
0.0
 11
-67.51053509443062
 21
-105.8431327941336
 31
0.0
  0
LINE
  5
84
330
1F
100
AcDbEntity
  8
E-0
  6
JWW_CENTER1
 62
     4
370
     9
100
AcDbLine
 10
44.48924297561433
 20
-259.61615686343
 30
0.0
 11
44.48924297561433
 21
-262.6000433170659
 31
0.0
  0
LINE
  5
85
330
1F
100
AcDbEntity
  8
E-0
  6
JWW_HOJO
 62
     4
370
     9
100
AcDbLine
 10
40.65282815241352
 20
-261.5451407211629
 30
0.0
 11
41.48957584109002
 21
-260.843011902106
 31
0.0
  0
LINE
  5
86
330
1F
100
AcDbEntity
  8
E-0
  6
JWW_HOJO
 62
     4
370
     9
100
AcDbLine
 10
-56.51053344483171
 20
-280.0589760831886
 30
0.0
 11
-57.94546060090448
 21
-280.0882087416632
 31
0.0
  0
LINE
  5
87
330
1F
100
AcDbEntity
  8
E-0
  6
JWW_HOJO
 62
     4
370
     9
100
AcDbLine
 10
-56.51053344483171
 20
-280.0589760831886
 30
0.0
 11
-55.14175137191762
 21
-279.6273732222186
 31
0.0
  0
LINE
  5
88
330
1F
100
AcDbEntity
  8
E-0
  6
JWW_HOJO
 62
     4
370
     9
100
AcDbLine
 10
-46.64599761601676
 20
-267.8426233332131
 30
0.0
 11
-43.64603320021973
 21
-267.8426233332131
 31
0.0
  0
LINE
  5
89
330
1F
100
AcDbEntity
  8
E-0
  6
JWW_HOJO
 62
     4
370
     9
100
AcDbLine
 10
-46.64599761601676
 20
-261.7840557705943
 30
0.0
 11
-46.64599761601676
 21
-260.8418723238943
 31
0.0
  0
LINE
  5
8A
330
1F
100
AcDbEntity
  8
E-0
  6
JWW_HOJO
 62
     4
370
     9
100
AcDbLine
 10
-46.64599761601676
 20
-267.8426233332131
 30
0.0
 11
-46.64599761601676
 21
-264.842584597098
 31
0.0
  0
LINE
  5
8B
330
1F
100
AcDbEntity
  8
E-0
  6
Continuous
 62
     4
370
     9
100
AcDbLine
 10
-46.64599761601676
 20
-264.843030519007
 30
0.0
 11
-46.64599761601676
 21
-261.7840557705943
 31
0.0
  0
LINE
  5
8C
330
1F
100
AcDbEntity
  8
E-0
  6
JWW_CENTER1
 62
     4
370
     9
100
AcDbLine
 10
-55.5301493545997
 20
-159.8431859347812
 30
0.0
 11
-58.63847279426767
 21
-159.8431859347812
 31
0.0
  0
LINE
  5
8D
330
1F
100
AcDbEntity
  8
E-0
  6
JWW_HOJO
 62
     4
370
     9
100
AcDbLine
 10
-57.51024081778445
 20
-159.093194830832
 30
0.0
 11
-57.51024081778445
 21
-159.2752300634349
 31
0.0
  0
LINE
  5
8E
330
1F
100
AcDbEntity
  8
E-0
  6
JWW_HOJO
 62
     4
370
     9
100
AcDbLine
 10
-57.39326063700719
 20
-158.9537699139718
 30
0.0
 11
-57.51024081778445
 21
-159.093194830832
 31
0.0
  0
LINE
  5
8F
330
1F
100
AcDbEntity
  8
E-0
  6
Continuous
 62
     4
370
     9
100
AcDbLine
 10
-57.51019127090564
 20
-159.2752796103136
 30
0.0
 11
-57.51014172402682
 21
-160.3861206323485
 31
0.0
  0
LINE
  5
90
330
1F
100
AcDbEntity
  8
E-0
  6
JWW_HOJO
 62
     4
370
     9
100
AcDbLine
 10
-57.5100426302692
 20
-160.5932265856093
 30
0.0
 11
-57.36392888477508
 21
-160.739439424861
 31
0.0
  0
LINE
  5
91
330
1F
100
AcDbEntity
  8
E-0
  6
JWW_HOJO
 62
     4
370
     9
100
AcDbLine
 10
-57.5100426302692
 20
-160.3860710854697
 30
0.0
 11
-57.5100426302692
 21
-160.5932265856093
 31
0.0
  0
LINE
  5
92
330
1F
100
AcDbEntity
  8
E-0
  6
Continuous
 62
     4
370
     9
100
AcDbLine
 10
-56.65699401847735
 20
-161.4464733849162
 30
0.0
 11
-57.36382979101745
 21
-160.7395385186186
 31
0.0
  0
LINE
  5
93
330
1F
100
AcDbEntity
  8
E-0
  6
JWW_HOJO
 62
     4
370
     9
100
AcDbLine
 10
-56.51053344483171
 20
-161.5929339585618
 30
0.0
 11
-56.65699401847735
 21
-161.4464733849162
 31
0.0
  0
LINE
  5
94
330
1F
100
AcDbEntity
  8
E-0
  6
JWW_HOJO
 62
     4
370
     9
100
AcDbLine
 10
-56.51053344483171
 20
-161.5929339585618
 30
0.0
 11
-56.51053344483171
 21
-161.7999903649438
 31
0.0
  0
LINE
  5
95
330
1F
100
AcDbEntity
  8
E-0
  6
Continuous
 62
     4
370
     9
100
AcDbLine
 10
-56.62751362560897
 20
-158.041116407019
 30
0.0
 11
-57.39326063700719
 21
-158.953720367093
 31
0.0
  0
LINE
  5
96
330
1F
100
AcDbEntity
  8
E-0
  6
Continuous
 62
     4
370
     9
100
AcDbLine
 10
-56.51053344483171
 20
-157.7197553513134
 30
0.0
 11
-56.51053344483171
 21
-107.8431421025841
 31
0.0
  0
LINE
  5
97
330
1F
100
AcDbEntity
  8
E-0
  6
JWW_HOJO
 62
     4
370
     9
100
AcDbLine
 10
-56.51053344483171
 20
-157.9016914901587
 30
0.0
 11
-56.51053344483171
 21
-157.7197553513134
 31
0.0
  0
LINE
  5
98
330
1F
100
AcDbEntity
  8
E-0
  6
JWW_HOJO
 62
     4
370
     9
100
AcDbLine
 10
-56.51053344483171
 20
-157.9016914901587
 30
0.0
 11
-56.62746407873016
 21
-158.041116407019
 31
0.0
  0
LINE
  5
99
330
1F
100
AcDbEntity
  8
E-0
  6
Continuous
 62
     4
370
     9
100
AcDbLine
 10
-71.60499006226814
 20
-271.6294912776433
 30
0.0
 11
-71.74555455733997
 21
-271.2348256147968
 31
0.0
  0
LINE
  5
9A
330
1F
100
AcDbEntity
  8
E-0
  6
Continuous
 62
     4
370
     9
100
AcDbLine
 10
33.95765751791174
 20
-267.1631622111937
 30
0.0
 11
40.65287769929233
 21
-261.5451159477235
 31
0.0
  0
LINE
  5
9B
330
1F
100
AcDbEntity
  8
E-0
  6
Continuous
 62
     4
370
     9
100
AcDbLine
 10
-46.51053644945824
 20
-267.8430197082432
 30
0.0
 11
32.3922238831575
 21
-267.8430197082432
 31
0.0
  0
LINE
  5
9C
330
1F
100
AcDbEntity
  8
E-0
  6
Continuous
 62
     4
370
     9
100
AcDbLine
 10
-55.14175137191762
 20
-279.6273732222186
 30
0.0
 11
-38.57282918914967
 21
-274.4026796293076
 31
0.0
  0
LINE
  5
9D
330
1F
100
AcDbEntity
  8
E-0
  6
Continuous
 62
     4
370
     9
100
AcDbLine
 10
33.2548845894309
 20
-272.3417524334088
 30
0.0
 11
-34.36560552523042
 21
-273.7113768032621
 31
0.0
  0
LINE
  5
9E
330
1F
100
AcDbEntity
  8
E-0
  6
JWW_HOJO
 62
     4
370
     9
100
AcDbLine
 10
-38.57268054851323
 20
-274.4026053089895
 30
0.0
 11
-36.51886332971804
 21
-273.7549780565801
 31
0.0
  0
LINE
  5
9F
330
1F
100
AcDbEntity
  8
E-0
  6
JWW_HOJO
 62
     4
370
     9
100
AcDbLine
 10
-34.3655064314728
 20
-273.7113768032621
 30
0.0
 11
-36.51886332971804
 21
-273.7549780565801
 31
0.0
  0
LINE
  5
A0
330
1F
100
AcDbEntity
  8
E-0
  6
JWW_HOJO
 62
     4
370
     9
100
AcDbLine
 10
43.73920232478622
 20
-261.8432642907251
 30
0.0
 11
43.59269220426177
 21
-261.6967541702007
 31
0.0
  0
LINE
  5
A1
330
1F
100
AcDbEntity
  8
E-0
  6
JWW_HOJO
 62
     4
370
     9
100
AcDbLine
 10
43.94620918428944
 20
-261.8432642907251
 30
0.0
 11
43.73920232478622
 21
-261.8432642907251
 31
0.0
  0
LINE
  5
A2
330
1F
100
AcDbEntity
  8
E-0
  6
Continuous
 62
     4
370
     9
100
AcDbLine
 10
45.05719884696055
 20
-261.8432642907251
 30
0.0
 11
43.94620918428944
 21
-261.8432642907251
 31
0.0
  0
LINE
  5
A3
330
1F
100
AcDbEntity
  8
E-0
  6
JWW_HOJO
 62
     4
370
     9
100
AcDbLine
 10
45.23923407956346
 20
-261.8432642907251
 30
0.0
 11
45.05719884696055
 21
-261.8432642907251
 31
0.0
  0
LINE
  5
A4
330
1F
100
AcDbEntity
  8
E-0
  6
JWW_HOJO
 62
     4
370
     9
100
AcDbLine
 10
45.37865899642378
 20
-261.7262841099479
 30
0.0
 11
45.23923407956346
 21
-261.8432642907251
 31
0.0
  0
LINE
  5
A5
330
1F
100
AcDbEntity
  8
E-0
  6
Continuous
 62
     4
370
     9
100
AcDbLine
 10
46.6132681216273
 20
-260.843011902106
 30
0.0
 11
96.48943544844764
 21
-260.843011902106
 31
0.0
  0
LINE
  5
A6
330
1F
100
AcDbEntity
  8
E-0
  6
Continuous
 62
     4
370
     9
100
AcDbLine
 10
46.29185751904305
 20
-260.9599920828831
 30
0.0
 11
45.37865899642378
 21
-261.7262841099479
 31
0.0
  0
LINE
  5
A7
330
1F
100
AcDbEntity
  8
E-0
  6
JWW_HOJO
 62
     4
370
     9
100
AcDbLine
 10
46.4310347015093
 20
-260.8432100896211
 30
0.0
 11
46.29190706592169
 21
-260.9599673094438
 31
0.0
  0
LINE
  5
A8
330
1F
100
AcDbEntity
  8
E-0
  6
JWW_HOJO
 62
     4
370
     9
100
AcDbLine
 10
46.4310347015093
 20
-260.843011902106
 30
0.0
 11
46.6132681216273
 21
-260.843011902106
 31
0.0
  0
LINE
  5
A9
330
1F
100
AcDbEntity
  8
E-0
  6
Continuous
 62
     4
370
     9
100
AcDbLine
 10
43.59269220426177
 20
-261.6967541702007
 30
0.0
 11
42.88536096293404
 21
-260.9894477023122
 31
0.0
  0
LINE
  5
AA
330
1F
100
AcDbEntity
  8
E-0
  6
JWW_HOJO
 62
     4
370
     9
100
AcDbLine
 10
42.88531141605523
 20
-260.9893981554335
 30
0.0
 11
42.7389003892884
 21
-260.843011902106
 31
0.0
  0
LINE
  5
AB
330
1F
100
AcDbEntity
  8
E-0
  6
Continuous
 62
     4
370
     9
100
AcDbLine
 10
-46.51053644945824
 20
-260.843011902106
 30
0.0
 11
42.53179443602772
 21
-260.843011902106
 31
0.0
  0
LINE
  5
AC
330
1F
100
AcDbEntity
  8
E-0
  6
JWW_HOJO
 62
     4
370
     9
100
AcDbLine
 10
42.53179443602772
 20
-260.843011902106
 30
0.0
 11
42.73909857680349
 21
-260.843011902106
 31
0.0
  0
LINE
  5
AD
330
1F
100
AcDbEntity
  8
E-0
  6
Continuous
 62
     4
370
     9
100
AcDbLine
 10
-56.51053344483171
 20
-161.7999903649438
 30
0.0
 11
-56.51053344483171
 21
-257.8430227128697
 31
0.0
  0
LINE
  5
AE
330
1F
100
AcDbEntity
  8
E-0
  6
Continuous
 62
     4
370
     9
100
AcDbLine
 10
41.79057312962067
 20
-266.0451121182977
 30
0.0
 11
35.13692277952879
 21
-271.6282278322346
 31
0.0
  0
LINE
  5
AF
330
1F
100
AcDbEntity
  8
E-0
  6
Continuous
 62
     4
370
     9
100
AcDbLine
 10
-93.94508313734656
 20
-278.8209234499104
 30
0.0
 11
-85.94678004430159
 21
-278.6580380859523
 31
0.0
  0
LINE
  5
B0
330
1F
100
AcDbEntity
  8
E-0
  6
Continuous
 62
     4
370
     9
100
AcDbLine
 10
-85.90600296307355
 20
-280.6576138592136
 30
0.0
 11
-85.94678004430159
 21
-278.6580380859523
 31
0.0
  0
LINE
  5
B1
330
1F
100
AcDbEntity
  8
E-0
  6
Continuous
 62
     4
370
     9
100
AcDbLine
 10
-57.94546060090448
 20
-280.0882087416632
 30
0.0
 11
-85.90600296307355
 21
-280.6576138592136
 31
0.0
  0
LINE
  5
B2
330
1F
100
AcDbEntity
  8
E-0
  6
Continuous
 62
     4
370
     9
100
AcDbLine
 10
-88.47109442390155
 20
-154.6837208077715
 30
0.0
 11
-88.51182195825095
 21
-152.68415742123
 31
0.0
  0
LINE
  5
B3
330
1F
100
AcDbEntity
  8
E-0
  6
Continuous
 62
     4
370
     9
100
AcDbLine
 10
-64.92909316360812
 20
-152.2038995253075
 30
0.0
 11
-88.51182195825095
 21
-152.68415742123
 31
0.0
  0
LINE
  5
B4
330
1F
100
AcDbEntity
  8
E-0
  6
Continuous
 62
     4
370
     9
100
AcDbLine
 10
-96.46979389197668
 20
-154.846630945169
 30
0.0
 11
-88.47109442390155
 21
-154.6837208077715
 31
0.0
  0
LINE
  5
B5
330
1F
100
AcDbEntity
  8
E-0
  6
Continuous
 62
     4
370
     9
100
AcDbLine
 10
-94.05676180209525
 20
-273.3357990754619
 30
0.0
 11
-71.3692955599567
 21
-272.164064939418
 31
0.0
  0
LINE
  5
B6
330
1F
100
AcDbEntity
  8
E-0
  6
Continuous
 62
     4
370
     9
100
AcDbLine
 10
-73.97982150861759
 20
-161.5226269375865
 30
0.0
 11
-73.85540929602467
 21
-161.1225854383934
 31
0.0
  0
LINE
  5
B7
330
1F
100
AcDbEntity
  8
E-0
  6
Continuous
 62
     4
370
     9
100
AcDbLine
 10
-96.35806568034917
 20
-160.331817253216
 30
0.0
 11
-73.64181270164511
 21
-160.5789570845233
 31
0.0
  0
LINE
  5
B8
330
1F
100
AcDbEntity
  8
E-0
  6
Continuous
 62
     4
370
     9
100
AcDbLine
 10
-74.23394744983148
 20
-162.0507718918408
 30
0.0
 11
-72.0209361095466
 21
-270.7174694933948
 31
0.0
  0
LINE
  5
B9
330
1F
100
AcDbEntity
  8
E-0
  6
Continuous
 62
     4
370
     9
100
AcDbLine
 10
-94.80065863995566
 20
-161.8270925076313
 30
0.0
 11
-74.23394744983148
 21
-162.0507718918408
 31
0.0
  0
LINE
  5
BA
330
1F
100
AcDbEntity
  8
E-0
  6
Continuous
 62
     4
370
     9
100
AcDbLine
 10
-94.80065863995566
 20
-161.8270925076313
 30
0.0
 11
-96.35806568034917
 21
-160.331817253216
 31
0.0
  0
LINE
  5
BB
330
1F
100
AcDbEntity
  8
E-0
  6
Continuous
 62
     4
370
     9
100
AcDbLine
 10
-92.56148654767998
 20
-271.7783301014699
 30
0.0
 11
-72.0209361095466
 21
-270.7174694933948
 31
0.0
  0
LINE
  5
BC
330
1F
100
AcDbEntity
  8
E-0
  6
Continuous
 62
     4
370
     9
100
AcDbLine
 10
34.85150798437121
 20
-271.8430135517048
 30
0.0
 11
98.48939521001938
 21
-271.8430135517048
 31
0.0
  0
LINE
  5
BD
330
1F
100
AcDbEntity
  8
E-0
  6
Continuous
 62
     4
370
     9
100
AcDbLine
 10
-56.51053344483171
 20
-116.3430825697411
 30
0.0
 11
-57.51053809905699
 21
-116.3430825697411
 31
0.0
  0
LINE
  5
BE
330
1F
100
AcDbEntity
  8
E-0
  6
Continuous
 62
     4
370
     9
100
AcDbLine
 10
-56.51063253858933
 20
-125.3430749108894
 30
0.0
 11
-57.51053809905699
 21
-125.3430749108894
 31
0.0
  0
LINE
  5
BF
330
1F
100
AcDbEntity
  8
E-0
  6
Continuous
 62
     4
370
     9
100
AcDbLine
 10
-58.66522810880372
 20
-123.3431151493177
 30
0.0
 11
-57.51053809905699
 21
-125.3430749108894
 31
0.0
  0
LINE
  5
C0
330
1F
100
AcDbEntity
  8
E-0
  6
Continuous
 62
     4
370
     9
100
AcDbLine
 10
-58.66522810880372
 20
-118.3430918781915
 30
0.0
 11
-57.51053809905699
 21
-116.3430825697411
 31
0.0
  0
LINE
  5
C1
330
1F
100
AcDbEntity
  8
E-0
  6
Continuous
 62
     4
370
     9
100
AcDbLine
 10
-57.51053809905699
 20
-116.3430825697411
 30
0.0
 11
-57.51053809905699
 21
-117.335803832787
 31
0.0
  0
LINE
  5
C2
330
1F
100
AcDbEntity
  8
E-0
  6
Continuous
 62
     4
370
     9
100
AcDbLine
 10
-57.51053809905699
 20
-124.3504031947222
 30
0.0
 11
-57.51053809905699
 21
-125.3430749108894
 31
0.0
  0
LINE
  5
C3
330
1F
100
AcDbEntity
  8
E-0
  6
JWW_CENTER1
 62
     4
370
     9
100
AcDbLine
 10
-55.01292948711426
 20
-120.843128287194
 30
0.0
 11
-99.31819440561475
 21
-120.843128287194
 31
0.0
  0
LINE
  5
C4
330
1F
100
AcDbEntity
  8
E-0
  6
Continuous
 62
     4
370
     9
100
AcDbLine
 10
-58.66522810880372
 20
-123.3431151493177
 30
0.0
 11
-67.51053509443062
 21
-123.3431151493177
 31
0.0
  0
LINE
  5
C5
330
1F
100
AcDbEntity
  8
E-0
  6
Continuous
 62
     4
370
     9
100
AcDbLine
 10
-58.66522810880372
 20
-118.3430918781915
 30
0.0
 11
-67.51053509443062
 21
-118.3430918781915
 31
0.0
  0
LINE
  5
C6
330
1F
100
AcDbEntity
  8
E-0
  6
Continuous
 62
     4
370
     9
100
AcDbLine
 10
-64.24851723681644
 20
-134.3411349237657
 30
0.0
 11
-67.5107332819457
 21
-130.8429023216131
 31
0.0
  0
LINE
  5
C7
330
1F
100
AcDbEntity
  8
E-0
  6
Continuous
 62
     4
370
     9
100
AcDbLine
 10
-61.01052961540597
 20
-135.2603286187162
 30
0.0
 11
-61.01052961540597
 21
-148.2046736584668
 31
0.0
  0
LINE
  5
C8
330
1F
100
AcDbEntity
  8
E-0
  6
Continuous
 62
     4
370
     9
100
AcDbLine
 10
-67.51053509443062
 20
-105.8431327941336
 30
0.0
 11
-67.51053509443062
 21
-118.7930766311853
 31
0.0
  0
LINE
  5
C9
330
1F
100
AcDbEntity
  8
E-0
  6
Continuous
 62
     4
370
     9
100
AcDbLine
 10
-67.51053509443062
 20
-122.8930808494451
 30
0.0
 11
-67.51053509443062
 21
-152.256468763683
 31
0.0
  0
LINE
  5
CA
330
1F
100
AcDbEntity
  8
E-0
  6
Continuous
 62
     4
370
     9
100
AcDbLine
 10
-96.35809045378858
 20
-160.331817253216
 30
0.0
 11
-96.46979389197668
 21
-154.846630945169
 31
0.0
  0
LINE
  5
CB
330
1F
100
AcDbEntity
  8
E-0
  6
Continuous
 62
     4
370
     9
100
AcDbLine
 10
-93.94508313734656
 20
-278.8209234499104
 30
0.0
 11
-94.05673702865585
 21
-273.3383507397185
 31
0.0
  0
LINE
  5
CC
330
1F
100
AcDbEntity
  8
E-0
  6
Continuous
 62
     4
370
     9
100
AcDbLine
 10
-92.56146177424057
 20
-271.7782929413108
 30
0.0
 11
-94.05669986849682
 21
-273.3357371418634
 31
0.0
  0
LINE
  5
CD
330
1F
100
AcDbEntity
  8
E-0
  6
Continuous
 62
     4
370
     9
100
AcDbLine
 10
-74.20125889656259
 20
-163.655942123369
 30
0.0
 11
-56.51053344483171
 21
-163.295711541268
 31
0.0
  0
LINE
  5
CE
330
1F
100
AcDbEntity
  8
E-0
  6
Continuous
 62
     4
370
     9
100
AcDbLine
 10
32.09003746953618
 20
-267.8644487333115
 30
0.0
 11
-72.03608506773065
 21
-269.9734487883374
 31
0.0
  0
LINE
  5
CF
330
1F
100
AcDbEntity
  8
E-0
  6
Continuous
 62
     4
370
     9
100
AcDbLine
 10
-70.72734142516657
 20
-269.9469412081952
 30
0.0
 11
-72.89254002743809
 21
-163.6292859025905
 31
0.0
  0
LINE
  5
D0
330
1F
100
AcDbEntity
  8
E-0
  6
Continuous
 62
     4
370
     9
100
AcDbLine
 10
-61.72920709197217
 20
-269.7646954013575
 30
0.0
 11
-63.89438092080411
 21
-163.4460615448971
 31
0.0
  0
LINE
  5
D1
330
1F
100
AcDbEntity
  8
E-0
  6
Continuous
 62
     4
370
     9
100
AcDbLine
 10
-60.22950977862666
 20
-269.7343107779515
 30
0.0
 11
-62.3946836074586
 21
-163.4155406675745
 31
0.0
  0
LINE
  5
D2
330
1F
100
AcDbEntity
  8
E-0
  6
JWW_CENTER1
 62
     4
370
     9
100
AcDbLine
 10
-126.4631208229029
 20
-217.4703183358242
 30
0.0
 11
-50.95608060026365
 21
-215.9325814063026
 31
0.0
  0
ARC
  5
D3
330
1F
100
AcDbEntity
  8
E-0
  6
Continuous
 62
     4
370
     9
100
AcDbCircle
 10
43.94620918428944
 20
-261.3432124167336
 30
0.0
 40
0.5000000046026752
100
AcDbArc
 50
225.0
 51
269.9989318847657
  0
ARC
  5
D4
330
1F
100
AcDbEntity
  8
E-0
  6
Continuous
 62
     4
370
     9
100
AcDbCircle
 10
45.05719884696055
 20
-261.3432124167336
 30
0.0
 40
0.5000000046026752
100
AcDbArc
 50
270.003189086914
 51
310.0010833740234
  0
ARC
  5
D5
330
1F
100
AcDbEntity
  8
E-0
  6
Continuous
 62
     4
370
     9
100
AcDbCircle
 10
-46.51053644945824
 20
-257.8430227128697
 30
0.0
 40
10.0000000920535
100
AcDbArc
 50
180.0
 51
270.0
  0
ARC
  5
D6
330
1F
100
AcDbEntity
  8
E-0
  6
Continuous
 62
     4
370
     9
100
AcDbCircle
 10
-65.0104986854281
 20
-148.2046736584668
 30
0.0
 40
4.000000036821402
100
AcDbArc
 50
271.1666564941406
 51
0.0000000000000127
  0
ARC
  5
D7
330
1F
100
AcDbEntity
  8
E-0
  6
Continuous
 62
     4
370
     9
100
AcDbCircle
 10
-58.1490487257725
 20
-270.0902679417586
 30
0.0
 40
10.0000000920535
100
AcDbArc
 50
271.1666259765626
 51
287.5016632080078
  0
ARC
  5
D8
330
1F
100
AcDbEntity
  8
E-0
  6
Continuous
 62
     4
370
     9
100
AcDbCircle
 10
-58.51054275328227
 20
-107.8431421025841
 30
0.0
 40
2.000000018410701
100
AcDbArc
 50
0.0
 51
90.0
  0
ARC
  5
D9
330
1F
100
AcDbEntity
  8
E-0
  6
Continuous
 62
     4
370
     9
100
AcDbCircle
 10
96.48943544844764
 20
-262.8430459839958
 30
0.0
 40
2.000000018410701
100
AcDbArc
 50
0.0
 51
90.0
  0
ARC
  5
DA
330
1F
100
AcDbEntity
  8
E-0
  6
Continuous
 62
     4
370
     9
100
AcDbCircle
 10
42.58124222104055
 20
-263.8432240522968
 30
0.0
 40
3.000000027616052
100
AcDbArc
 50
90.0
 51
130.0001678466797
  0
ARC
  5
DB
330
1F
100
AcDbEntity
  8
E-0
  6
Continuous
 62
     4
370
     9
100
AcDbCircle
 10
43.71913583888414
 20
-268.343220222871
 30
0.0
 40
3.000000027616052
100
AcDbArc
 50
90.0
 51
130.0001678466797
  0
ARC
  5
DC
330
1F
100
AcDbEntity
  8
E-0
  6
Continuous
 62
     4
370
     9
100
AcDbCircle
 10
-57.01036235786859
 20
-160.3860710854697
 30
0.0
 40
0.5000000046026752
100
AcDbArc
 50
180.0010681152344
 51
225.0
  0
ARC
  5
DD
330
1F
100
AcDbEntity
  8
E-0
  6
Continuous
 62
     4
370
     9
100
AcDbCircle
 10
-57.01006507659605
 20
-159.2752300634349
 30
0.0
 40
0.5000000046026752
100
AcDbArc
 50
139.9989166259766
 51
179.9968109130859
  0
ARC
  5
DE
330
1F
100
AcDbEntity
  8
E-0
  6
Continuous
 62
     4
370
     9
100
AcDbCircle
 10
88.19979670823221
 20
-270.3430313438063
 30
0.0
 40
5.000000046026752
100
AcDbArc
 50
8.7462158203125
 51
90.0
  0
ARC
  5
DF
330
1F
100
AcDbEntity
  8
E-0
  6
Continuous
 62
     4
370
     9
100
AcDbCircle
 10
-70.03579086472718
 20
-162.3099763881287
 30
0.0
 40
4.000000036821402
100
AcDbArc
 50
91.16665649414064
 51
162.7319946289062
  0
ARC
  5
E0
330
1F
100
AcDbEntity
  8
E-0
  6
Continuous
 62
     4
370
     9
100
AcDbCircle
 10
-66.9383677383887
 20
-162.2468536645751
 30
0.0
 40
4.000000036821402
100
AcDbArc
 50
17.08061218261719
 51
91.16648864746094
  0
ARC
  5
E1
330
1F
100
AcDbEntity
  8
E-0
  6
Continuous
 62
     4
370
     9
100
AcDbCircle
 10
-60.92629992149602
 20
-161.3852334427559
 30
0.0
 40
2.000000018410701
100
AcDbArc
 50
197.0808410644531
 51
271.1668395996094
  0
ARC
  5
E2
330
1F
100
AcDbEntity
  8
E-0
  6
Continuous
 62
     4
370
     9
100
AcDbCircle
 10
-58.758029412741
 20
-271.7049264005714
 30
0.0
 40
2.000000018410701
100
AcDbArc
 50
91.16683959960938
 51
162.3341369628907
  0
ARC
  5
E3
330
1F
100
AcDbEntity
  8
E-0
  6
Continuous
 62
     4
370
     9
100
AcDbCircle
 10
-67.83680129113446
 20
-270.2875636130228
 30
0.0
 40
4.000000036821402
100
AcDbArc
 50
199.6018371582032
 51
271.1666564941406
  0
ARC
  5
E4
330
1F
100
AcDbEntity
  8
E-0
  6
Continuous
 62
     4
370
     9
100
AcDbCircle
 10
-64.58251274660847
 20
-270.2212946626672
 30
0.0
 40
4.000000036821402
100
AcDbArc
 50
271.1666564941406
 51
342.3340454101562
  0
ARC
  5
E5
330
1F
100
AcDbEntity
  8
E-0
  6
JWW_HOJO
 62
     4
370
     9
100
AcDbCircle
 10
-46.51078418385197
 20
-250.8427919457779
 30
0.0
 40
9.999999317883525
100
AcDbArc
 50
264.0760650634765
 51
269.2248382568359
  0
ARC
  5
E6
330
1F
100
AcDbEntity
  8
E-0
  6
Continuous
 62
     4
370
     9
100
AcDbCircle
 10
-46.51053644945824
 20
-250.8430149067324
 30
0.0
 40
10.0000000920535
100
AcDbArc
 50
180.0
 51
270.0
  0
ARC
  5
E7
330
1F
100
AcDbEntity
  8
E-0
  6
Continuous
 62
     4
370
     9
100
AcDbCircle
 10
-47.64605181712085
 20
-261.7840557705943
 30
0.0
 40
1.00000000920535
100
AcDbArc
 50
0.0
 51
84.07614135742188
  0
ARC
  5
E8
330
1F
100
AcDbEntity
  8
E-0
  6
Continuous
 62
     4
370
     9
100
AcDbCircle
 10
-43.64608274709855
 20
-264.843030519007
 30
0.0
 40
3.000000027616052
100
AcDbArc
 50
180.0
 51
270.0
  0
ARC
  5
E9
330
1F
100
AcDbEntity
  8
E-0
  6
Continuous
 62
     4
370
     9
100
AcDbCircle
 10
-57.01056054538384
 20
-157.7197553513134
 30
0.0
 40
0.5000000046026752
100
AcDbArc
 50
320.0007019042969
 51
0.0
  0
ARC
  5
EA
330
1F
100
AcDbEntity
  8
E-0
  6
Continuous
 62
     4
370
     9
100
AcDbCircle
 10
-57.01056054538384
 20
-161.7999903649438
 30
0.0
 40
0.5000000046026752
100
AcDbArc
 50
0.0
 51
44.99798583984375
  0
ARC
  5
EB
330
1F
100
AcDbEntity
  8
E-0
  6
Continuous
 62
     4
370
     9
100
AcDbCircle
 10
33.19414011605824
 20
-269.3423825801571
 30
0.0
 40
3.000000027616052
100
AcDbArc
 50
271.1602172851562
 51
310.0001831054688
  0
ARC
  5
EC
330
1F
100
AcDbEntity
  8
E-0
  6
Continuous
 62
     4
370
     9
100
AcDbCircle
 10
32.02929299616352
 20
-264.8650541066204
 30
0.0
 40
3.000000027616052
100
AcDbArc
 50
271.1602172851562
 51
310.0001831054688
  0
ARC
  5
ED
330
1F
100
AcDbEntity
  8
E-0
  6
Continuous
 62
     4
370
     9
100
AcDbCircle
 10
-34.06183361148845
 20
-288.7082756163992
 30
0.0
 40
15.00000013808026
100
AcDbArc
 50
91.16030883789062
 51
107.5016479492188
  0
ARC
  5
EE
330
1F
100
AcDbEntity
  8
E-0
  6
Continuous
 62
     4
370
     9
100
AcDbCircle
 10
46.6132681216273
 20
-261.3430142292186
 30
0.0
 40
0.5000000046026752
100
AcDbArc
 50
90.0
 51
130.0014801025391
  0
ARC
  5
EF
330
1F
100
AcDbEntity
  8
E-0
  6
Continuous
 62
     4
370
     9
100
AcDbCircle
 10
42.53179443602772
 20
-261.3430142292186
 30
0.0
 40
0.5000000046026752
100
AcDbArc
 50
45.00201416015625
 51
90.0
  0
ARC
  5
F0
330
1F
100
AcDbEntity
  8
E-0
  6
Continuous
 62
     4
370
     9
100
AcDbCircle
 10
-73.62957462258868
 20
-271.9058389939858
 30
0.0
 40
2.000000018410701
100
AcDbArc
 50
19.60183715820312
 51
36.45443725585938
  0
ARC
  5
F1
330
1F
100
AcDbEntity
  8
E-0
  6
Continuous
 62
     4
370
     9
100
AcDbCircle
 10
-75.88965549770558
 20
-160.9288571424007
 30
0.0
 40
2.000000018410701
100
AcDbArc
 50
325.8780670166015
 51
342.7319488525391
  0
LINE
  5
F2
330
1F
100
AcDbEntity
  8
E-A
  6
Continuous
 62
     2
370
     9
100
AcDbLine
 10
-56.83110175047699
 20
-116.7431240689342
 30
0.0
 11
-59.18111021056239
 21
-118.7930766311853
 31
0.0
  0
LINE
  5
F3
330
1F
100
AcDbEntity
  8
E-A
  6
Continuous
 62
     2
370
     9
100
AcDbLine
 10
-59.18111021056239
 20
-122.8930808494451
 30
0.0
 11
-56.83110175047699
 21
-124.9431325054538
 31
0.0
  0
LINE
  5
F4
330
1F
100
AcDbEntity
  8
E-A
  6
Continuous
 62
     2
370
     9
100
AcDbLine
 10
-56.83110175047699
 20
-116.7431240689342
 30
0.0
 11
-56.83110175047699
 21
-124.9431325054538
 31
0.0
  0
LINE
  5
F5
330
1F
100
AcDbEntity
  8
E-A
  6
Continuous
 62
     2
370
     9
100
AcDbLine
 10
-59.18111021056239
 20
-118.7930766311853
 30
0.0
 11
-59.18111021056239
 21
-122.8930808494451
 31
0.0
  0
LINE
  5
F6
330
1F
100
AcDbEntity
  8
E-A
  6
Continuous
 62
     2
370
     9
100
AcDbLine
 10
-69.49513532358344
 20
-123.7646104470184
 30
0.0
 11
-73.82578026252003
 21
-118.1256801741465
 31
0.0
  0
LINE
  5
F7
330
1F
100
AcDbEntity
  8
E-A
  6
Continuous
 62
     2
370
     9
100
AcDbLine
 10
-70.16446410889426
 20
-118.7930766311853
 30
0.0
 11
-96.83108973197119
 21
-120.7229771061755
 31
0.0
  0
LINE
  5
F8
330
1F
100
AcDbEntity
  8
E-A
  6
Continuous
 62
     2
370
     9
100
AcDbLine
 10
-59.18111021056239
 20
-122.8930808494451
 30
0.0
 11
-70.16446410889426
 21
-122.8930808494451
 31
0.0
  0
LINE
  5
F9
330
1F
100
AcDbEntity
  8
E-A
  6
Continuous
 62
     2
370
     9
100
AcDbLine
 10
-59.18111021056239
 20
-118.7930766311853
 30
0.0
 11
-70.16446410889426
 21
-118.7930766311853
 31
0.0
  0
LINE
  5
FA
330
1F
100
AcDbEntity
  8
E-A
  6
Continuous
 62
     2
370
     9
100
AcDbLine
 10
-90.74504842507434
 20
-122.1370945731647
 30
0.0
 11
-92.71894652841257
 21
-119.5668997838231
 31
0.0
  0
LINE
  5
FB
330
1F
100
AcDbEntity
  8
E-A
  6
Continuous
 62
     2
370
     9
100
AcDbLine
 10
-85.55714338965038
 20
-122.3817570605335
 30
0.0
 11
-87.82138620258382
 21
-119.4335195861729
 31
0.0
  0
LINE
  5
FC
330
1F
100
AcDbEntity
  8
E-A
  6
Continuous
 62
     2
370
     9
100
AcDbLine
 10
-80.33614103920758
 20
-122.6695253324326
 30
0.0
 11
-83.06647134073552
 21
-119.1143881400121
 31
0.0
  0
LINE
  5
FD
330
1F
100
AcDbEntity
  8
E-A
  6
Continuous
 62
     2
370
     9
100
AcDbLine
 10
-74.82474443229108
 20
-123.3354353831082
 30
0.0
 11
-78.49240258639946
 21
-118.5598099259337
 31
0.0
  0
LINE
  5
FE
330
1F
100
AcDbEntity
  8
E-A
  6
Continuous
 62
     2
370
     9
100
AcDbLine
 10
-70.16446410889426
 20
-122.8930808494451
 30
0.0
 11
-96.73883344370068
 21
-120.843128287194
 31
0.0
  0
LINE
  5
FF
330
1F
100
AcDbEntity
  8
E-1
  6
JWW_CENTER1
 62
     6
370
     9
100
AcDbLine
 10
-9.738504726539588
 20
-214.0709095581986
 30
0.0
 11
-61.26305319959084
 21
-265.5955482521393
 31
0.0
  0
LINE
  5
100
330
1F
100
AcDbEntity
  8
E-A
  6
JWW_HOJO
 62
     2
370
     9
100
AcDbLine
 10
-56.38628901817839
 20
-267.8373098816662
 30
0.0
 11
-49.06125767733062
 21
-260.5122353023357
 31
0.0
  0
LINE
  5
101
330
1F
100
AcDbEntity
  8
E-A
  6
JWW_HOJO
 62
     2
370
     9
100
AcDbLine
 10
-57.80050151389844
 20
-267.83731298894
 30
0.0
 11
-56.38628901817839
 21
-267.8373098816662
 31
0.0
  0
LINE
  5
102
330
1F
100
AcDbEntity
  8
E-A
  6
JWW_HOJO
 62
     2
370
     9
100
AcDbLine
 10
-57.80050151389844
 20
-267.83731298894
 30
0.0
 11
-63.45736724433635
 21
-262.1804635835261
 31
0.0
  0
LINE
  5
103
330
1F
100
AcDbEntity
  8
E-A
  6
JWW_HOJO
 62
     2
370
     9
100
AcDbLine
 10
-63.457371389976
 20
-260.766247916154
 30
0.0
 11
-63.45736724433635
 21
-262.1804635835261
 31
0.0
  0
LINE
  5
104
330
1F
100
AcDbEntity
  8
E-A
  6
JWW_HOJO
 62
     2
370
     9
100
AcDbLine
 10
-63.457371389976
 20
-260.766247916154
 30
0.0
 11
-56.1597166824119
 21
-253.468528698935
 31
0.0
  0
LINE
  5
105
330
1F
100
AcDbEntity
  8
E-0
  6
Continuous
 62
     4
370
     9
100
AcDbLine
 10
51.4893746489484
 20
-265.3432201952548
 30
0.0
 11
46.48935137782235
 21
-268.3434307971057
 31
0.0
  0
LINE
  5
106
330
1F
100
AcDbEntity
  8
E-0
  6
Continuous
 62
     4
370
     9
100
AcDbLine
 10
46.48935137782235
 20
-268.3434307971057
 30
0.0
 11
40.48316076779821
 21
-267.1421692400003
 31
0.0
  0
LINE
  5
107
330
1F
100
AcDbEntity
  8
E-F
  6
Continuous
 62
     7
370
     9
100
AcDbLine
 10
-62.04739714743647
 20
-134.7644386825415
 30
0.0
 11
-57.11156185775752
 21
-137.1250501746838
 31
0.0
  0
LINE
  5
108
330
1F
100
AcDbEntity
  8
E-F
  6
Continuous
 62
     7
370
     9
100
AcDbLine
 10
-57.11156185775752
 20
-137.1250501746838
 30
0.0
 11
-53.51086564349998
 21
-141.418189813256
 31
0.0
  0
LINE
  5
109
330
1F
100
AcDbEntity
  8
E-F
  6
Continuous
 62
     7
370
     9
100
AcDbLine
 10
-73.20287230033364
 20
-132.6191423364011
 30
0.0
 11
-62.04739714743647
 21
-134.7644386825415
 31
0.0
  0
LINE
  5
10A
330
1F
100
AcDbEntity
  8
E-1
  6
Continuous
 62
     6
370
     9
100
AcDbLine
 10
95.13338847171747
 20
-260.141491580654
 30
0.0
 11
95.48933324880477
 21
-259.8429220891829
 31
0.0
  0
LINE
  5
10B
330
1F
100
AcDbEntity
  8
E-1
  6
Continuous
 62
     6
370
     9
100
AcDbLine
 10
68.19257042152441
 20
-256.8430072202647
 30
0.0
 11
94.4893781414583
 21
-256.8430072202647
 31
0.0
  0
LINE
  5
10C
330
1F
100
AcDbEntity
  8
E-1
  6
Continuous
 62
     6
370
     9
100
AcDbLine
 10
65.89448709039061
 20
-251.9146287358407
 30
0.0
 11
70.98929354060476
 21
-245.8429560237871
 31
0.0
  0
LINE
  5
10D
330
1F
100
AcDbEntity
  8
E-1
  6
Continuous
 62
     6
370
     9
100
AcDbLine
 10
-55.808725132147
 20
-109.1981640782597
 30
0.0
 11
-55.51070065634241
 21
-108.8430615981115
 31
0.0
  0
LINE
  5
10E
330
1F
100
AcDbEntity
  8
E-1
  6
Continuous
 62
     6
370
     9
100
AcDbLine
 10
-49.51017726220329
 20
-108.8430615981115
 30
0.0
 11
-55.51035382819089
 21
-108.8430615981115
 31
0.0
  0
LINE
  5
10F
330
1F
100
AcDbEntity
  8
E-1
  6
Continuous
 62
     6
370
     9
100
AcDbLine
 10
-48.51061852988698
 20
-123.9816644845323
 30
0.0
 11
-48.51061852988698
 21
-109.8717538951448
 31
0.0
  0
LINE
  5
110
330
1F
100
AcDbEntity
  8
E-1
  6
Continuous
 62
     6
370
     9
100
AcDbLine
 10
36.61069623689747
 20
-259.9640642077768
 30
0.0
 11
36.48935593078841
 21
-259.8427239016678
 31
0.0
  0
LINE
  5
111
330
1F
100
AcDbEntity
  8
E-1
  6
Continuous
 62
     6
370
     9
100
AcDbLine
 10
52.51593797853451
 20
-256.8430072202647
 30
0.0
 11
68.19257042152441
 21
-256.8430072202647
 31
0.0
  0
LINE
  5
112
330
1F
100
AcDbEntity
  8
E-1
  6
JWW_HOJO
 62
     6
370
     9
100
AcDbLine
 10
-27.92299855692158
 20
-254.0751203846289
 30
0.0
 11
-28.8016629050378
 21
-253.1964560365126
 31
0.0
  0
LINE
  5
113
330
1F
100
AcDbEntity
  8
E-1
  6
JWW_HOJO
 62
     6
370
     9
100
AcDbLine
 10
-27.92299855692158
 20
-254.0751203846289
 30
0.0
 11
-27.92299855692158
 21
-255.317805651072
 31
0.0
  0
LINE
  5
114
330
1F
100
AcDbEntity
  8
E-1
  6
Continuous
 62
     6
370
     9
100
AcDbLine
 10
95.48933324880477
 20
-253.842993257589
 30
0.0
 11
95.48933324880477
 21
-259.8429220891829
 31
0.0
  0
LINE
  5
115
330
1F
100
AcDbEntity
  8
E-1
  6
Continuous
 62
     6
370
     9
100
AcDbLine
 10
91.21046479818335
 20
-253.0769489649181
 30
0.0
 11
88.11636131272246
 21
-255.673205412493
 31
0.0
  0
LINE
  5
116
330
1F
100
AcDbEntity
  8
E-1
  6
Continuous
 62
     6
370
     9
100
AcDbLine
 10
94.4893781414583
 20
-252.8429886033638
 30
0.0
 11
65.36413730003096
 21
-252.8429886033638
 31
0.0
  0
LINE
  5
117
330
1F
100
AcDbEntity
  8
E-1
  6
Continuous
 62
     6
370
     9
100
AcDbLine
 10
-55.51060156258478
 20
-165.8430296076773
 30
0.0
 11
-55.63191709525444
 21
-165.721738848447
 31
0.0
  0
LINE
  5
118
330
1F
100
AcDbEntity
  8
E-1
  6
Continuous
 62
     6
370
     9
100
AcDbLine
 10
-27.92299855692158
 20
-255.317805651072
 30
0.0
 11
-27.92299855692158
 21
-259.8427239016678
 31
0.0
  0
LINE
  5
119
330
1F
100
AcDbEntity
  8
E-1
  6
Continuous
 62
     6
370
     9
100
AcDbLine
 10
53.15875918370318
 20
-256.6090468587104
 30
0.0
 11
65.98931981635735
 21
-245.8429560237871
 31
0.0
  0
LINE
  5
11A
330
1F
100
AcDbEntity
  8
E-1
  6
JWW_HOJO
 62
     6
370
     9
100
AcDbLine
 10
52.87995889686135
 20
-256.8430072202647
 30
0.0
 11
53.15875918370318
 21
-256.6090468587104
 31
0.0
  0
LINE
  5
11B
330
1F
100
AcDbEntity
  8
E-1
  6
Continuous
 62
     6
370
     9
100
AcDbLine
 10
39.50681039479144
 20
-257.3108288496159
 30
0.0
 11
36.48935593078841
 21
-259.8427239016678
 31
0.0
  0
LINE
  5
11C
330
1F
100
AcDbEntity
  8
E-1
  6
JWW_HOJO
 62
     6
370
     9
100
AcDbLine
 10
40.06436142159612
 20
-256.8430072202647
 30
0.0
 11
39.50681039479144
 21
-257.3108288496159
 31
0.0
  0
LINE
  5
11D
330
1F
100
AcDbEntity
  8
E-1
  6
Continuous
 62
     6
370
     9
100
AcDbLine
 10
-52.51063714678793
 20
-227.2553949061509
 30
0.0
 11
-52.51063714678793
 21
-162.2678754762335
 31
0.0
  0
LINE
  5
11E
330
1F
100
AcDbEntity
  8
E-1
  6
Continuous
 62
     6
370
     9
100
AcDbLine
 10
52.51593797853451
 20
-256.8430072202647
 30
0.0
 11
-22.92292573891655
 21
-256.8430072202647
 31
0.0
  0
LINE
  5
11F
330
1F
100
AcDbEntity
  8
E-1
  6
Continuous
 62
     6
370
     9
100
AcDbLine
 10
-48.30873977233648
 20
-137.9446190314866
 30
0.0
 11
-41.51063549718901
 21
-129.8429611493263
 31
0.0
  0
LINE
  5
120
330
1F
100
AcDbEntity
  8
E-1
  6
Continuous
 62
     6
370
     9
100
AcDbLine
 10
-49.24455644511448
 20
-158.3755222269008
 30
0.0
 11
-55.51060156258478
 21
-165.8430296076773
 31
0.0
  0
LINE
  5
121
330
1F
100
AcDbEntity
  8
E-1
  6
JWW_HOJO
 62
     6
370
     9
100
AcDbLine
 10
41.93178328245659
 20
-253.8107382395094
 30
0.0
 11
42.48933430926127
 21
-253.3429166101582
 31
0.0
  0
LINE
  5
122
330
1F
100
AcDbEntity
  8
E-1
  6
Continuous
 62
     6
370
     9
100
AcDbLine
 10
38.87588044052768
 20
-256.3749874033984
 30
0.0
 11
41.93178328245659
 21
-253.8107877863882
 31
0.0
  0
LINE
  5
123
330
1F
100
AcDbEntity
  8
E-1
  6
JWW_HOJO
 62
     6
370
     9
100
AcDbLine
 10
38.31818077308691
 20
-256.8430072202647
 30
0.0
 11
38.87592998740649
 21
-256.3749874033984
 31
0.0
  0
LINE
  5
124
330
1F
100
AcDbEntity
  8
E-1
  6
Continuous
 62
     6
370
     9
100
AcDbLine
 10
-50.98533648383767
 20
-232.2554181772771
 30
0.0
 11
-55.51060156258478
 21
-232.2554181772771
 31
0.0
  0
LINE
  5
125
330
1F
100
AcDbEntity
  8
E-1
  6
Continuous
 62
     6
370
     9
100
AcDbLine
 10
-28.8016629050378
 20
-253.1964560365126
 30
0.0
 11
-48.86408596303568
 21
-233.1340825253934
 31
0.0
  0
LINE
  5
126
330
1F
100
AcDbEntity
  8
E-1
  6
JWW_HOJO
 62
     6
370
     9
100
AcDbLine
 10
-48.86408596303568
 20
-233.1340825253934
 30
0.0
 11
-49.74275031115207
 21
-232.2554181772771
 31
0.0
  0
LINE
  5
127
330
1F
100
AcDbEntity
  8
E-1
  6
JWW_HOJO
 62
     6
370
     9
100
AcDbLine
 10
-49.74275031115207
 20
-232.2554181772771
 30
0.0
 11
-50.98533648383767
 21
-232.2554181772771
 31
0.0
  0
LINE
  5
128
330
1F
100
AcDbEntity
  8
E-1
  6
Continuous
 62
     6
370
     9
100
AcDbLine
 10
-43.78974237375377
 20
-126.4389914840346
 30
0.0
 11
-41.51063549718901
 21
-124.8428883313214
 31
0.0
  0
LINE
  5
129
330
1F
100
AcDbEntity
  8
E-1
  6
Continuous
 62
     6
370
     9
100
AcDbLine
 10
-48.51061852988698
 20
-260.8429762902869
 30
0.0
 11
93.20551941875686
 21
-260.8429762902869
 31
0.0
  0
LINE
  5
12A
330
1F
100
AcDbEntity
  8
E-1
  6
Continuous
 62
     6
370
     9
100
AcDbLine
 10
-56.51060621681006
 20
-252.842939056485
 30
0.0
 11
-56.51060621681006
 21
-111.1266276937656
 31
0.0
  0
LINE
  5
12B
330
1F
100
AcDbEntity
  8
E-1
  6
JWW_HOJO
 62
     6
370
     9
100
AcDbLine
 10
-6.119721139882131
 20
-254.8429979118142
 30
0.0
 11
-6.119721139882131
 21
-256.8430072202647
 31
0.0
  0
LINE
  5
12C
330
1F
100
AcDbEntity
  8
E-1
  6
Continuous
 62
     6
370
     9
100
AcDbLine
 10
56.32336787765439
 20
-253.3429166101582
 30
0.0
 11
43.21737614591495
 21
-253.3429166101582
 31
0.0
  0
LINE
  5
12D
330
1F
100
AcDbEntity
  8
E-1
  6
JWW_HOJO
 62
     6
370
     9
100
AcDbLine
 10
57.05121152679334
 20
-253.3429166101582
 30
0.0
 11
56.32336787765439
 21
-253.3429166101582
 31
0.0
  0
LINE
  5
12E
330
1F
100
AcDbEntity
  8
E-1
  6
Continuous
 62
     6
370
     9
100
AcDbLine
 10
-22.92292573891655
 20
-252.4184213991792
 30
0.0
 11
-22.92292573891655
 21
-259.8427239016678
 31
0.0
  0
LINE
  5
12F
330
1F
100
AcDbEntity
  8
E-1
  6
Continuous
 62
     6
370
     9
100
AcDbLine
 10
-48.08595223194493
 20
-227.2553949061509
 30
0.0
 11
-55.51060156258478
 21
-227.2553949061509
 31
0.0
  0
LINE
  5
130
330
1F
100
AcDbEntity
  8
E-1
  6
Continuous
 62
     6
370
     9
100
AcDbLine
 10
6.647097433233739
 20
-252.8429886033638
 30
0.0
 11
-6.119721139882131
 21
-252.8429886033638
 31
0.0
  0
LINE
  5
131
330
1F
100
AcDbEntity
  8
E-1
  6
Continuous
 62
     6
370
     9
100
AcDbLine
 10
-47.37884395157153
 20
-227.5482665065634
 30
0.0
 11
-23.21582211276842
 21
-251.7112883453665
 31
0.0
  0
LINE
  5
132
330
1F
100
AcDbEntity
  8
E-1
  6
Continuous
 62
     6
370
     9
100
AcDbLine
 10
-49.01064563043894
 20
-139.872934006356
 30
0.0
 11
-49.01074472419657
 21
-149.212619748355
 31
0.0
  0
LINE
  5
133
330
1F
100
AcDbEntity
  8
E-1
  6
Continuous
 62
     6
370
     9
100
AcDbLine
 10
-49.01064563043894
 20
-157.732750568611
 30
0.0
 11
-49.01064563043894
 21
-153.4725117444073
 31
0.0
  0
LINE
  5
134
330
1F
100
AcDbEntity
  8
E-1
  6
Continuous
 62
     6
370
     9
100
AcDbLine
 10
-6.119721139882131
 20
-248.3428437921533
 30
0.0
 11
-6.119721139882131
 21
-254.8429979118142
 31
0.0
  0
LINE
  5
135
330
1F
100
AcDbEntity
  8
E-1
  6
Continuous
 62
     6
370
     9
100
AcDbLine
 10
12.01020023199021
 20
-248.3428437921533
 30
0.0
 11
2.29831833666708
 21
-256.4920666779332
 31
0.0
  0
LINE
  5
136
330
1F
100
AcDbEntity
  8
E-1
  6
Continuous
 62
     6
370
     9
100
AcDbLine
 10
62.70158712866117
 20
-245.8430055706659
 30
0.0
 11
70.98929354060476
 21
-245.8430055706659
 31
0.0
  0
LINE
  5
137
330
1F
100
AcDbEntity
  8
E-1
  6
Continuous
 62
     6
370
     9
100
AcDbLine
 10
-55.51060156258478
 20
-252.8192556484327
 30
0.0
 11
-55.51060156258478
 21
-165.8430296076773
 31
0.0
  0
LINE
  5
138
330
1F
100
AcDbEntity
  8
E-1
  6
Continuous
 62
     6
370
     9
100
AcDbLine
 10
36.49589611878628
 20
-259.8427239016678
 30
0.0
 11
-48.39187943491339
 21
-259.8427239016678
 31
0.0
  0
LINE
  5
139
330
1F
100
AcDbEntity
  8
E-1
  6
Continuous
 62
     6
370
     9
100
AcDbLine
 10
-54.51064645523832
 20
-148.3425270102661
 30
0.0
 11
-56.51060621681006
 21
-148.3425270102661
 31
0.0
  0
LINE
  5
13A
330
1F
100
AcDbEntity
  8
E-1
  6
Continuous
 62
     6
370
     9
100
AcDbLine
 10
-54.51064645523832
 20
-149.212619748355
 30
0.0
 11
-56.51060621681006
 21
-149.212619748355
 31
0.0
  0
LINE
  5
13B
330
1F
100
AcDbEntity
  8
E-1
  6
Continuous
 62
     6
370
     9
100
AcDbLine
 10
-54.51064645523832
 20
-153.4725117444073
 30
0.0
 11
-56.51060621681006
 21
-153.4725117444073
 31
0.0
  0
LINE
  5
13C
330
1F
100
AcDbEntity
  8
E-1
  6
Continuous
 62
     6
370
     9
100
AcDbLine
 10
-54.51064645523832
 20
-154.3426044824963
 30
0.0
 11
-56.51060621681006
 21
-154.3426044824963
 31
0.0
  0
ARC
  5
13D
330
1F
100
AcDbEntity
  8
E-1
  6
Continuous
 62
     6
370
     9
100
AcDbCircle
 10
93.20551941875686
 20
-257.8430118744899
 30
0.0
 40
3.000000027616052
100
AcDbArc
 50
270.0
 51
309.9990844726562
  0
ARC
  5
13E
330
1F
100
AcDbEntity
  8
E-1
  6
Continuous
 62
     6
370
     9
100
AcDbCircle
 10
94.4893781414583
 20
-257.8431109682475
 30
0.0
 40
1.00000000920535
100
AcDbArc
 50
0.0
 51
90.0
  0
ARC
  5
13F
330
1F
100
AcDbEntity
  8
E-1
  6
Continuous
 62
     6
370
     9
100
AcDbCircle
 10
68.19257042152441
 20
-253.842993257589
 30
0.0
 40
3.000000027616052
100
AcDbArc
 50
139.9992980957031
 51
270.0
  0
ARC
  5
140
330
1F
100
AcDbEntity
  8
E-1
  6
Continuous
 62
     6
370
     9
100
AcDbCircle
 10
43.21737614591495
 20
-255.3428763717299
 30
0.0
 40
2.000000018410701
100
AcDbArc
 50
90.0
 51
129.9998474121094
  0
ARC
  5
141
330
1F
100
AcDbEntity
  8
E-1
  6
Continuous
 62
     6
370
     9
100
AcDbCircle
 10
56.32336787765439
 20
-251.342857754829
 30
0.0
 40
2.000000018410701
100
AcDbArc
 50
270.0
 51
310.0001678466796
  0
ARC
  5
142
330
1F
100
AcDbEntity
  8
E-1
  6
Continuous
 62
     6
370
     9
100
AcDbCircle
 10
-45.51060456721132
 20
-123.9816644845323
 30
0.0
 40
3.000000027616052
100
AcDbArc
 50
180.0
 51
305.0041656494141
  0
ARC
  5
143
330
1F
100
AcDbEntity
  8
E-1
  6
Continuous
 62
     6
370
     9
100
AcDbCircle
 10
-49.51017726220329
 20
-109.8430662523367
 30
0.0
 40
1.00000000920535
100
AcDbArc
 50
0.0
 51
90.0
  0
ARC
  5
144
330
1F
100
AcDbEntity
  8
E-1
  6
Continuous
 62
     6
370
     9
100
AcDbCircle
 10
-53.51054270725558
 20
-111.1266276937656
 30
0.0
 40
3.000000027616052
100
AcDbArc
 50
139.9997100830078
 51
180.0
  0
ARC
  5
145
330
1F
100
AcDbEntity
  8
E-1
  6
Continuous
 62
     6
370
     9
100
AcDbCircle
 10
-50.98533648383767
 20
-235.2553330461953
 30
0.0
 40
3.000000027616052
100
AcDbArc
 50
45.0
 51
90.0
  0
ARC
  5
146
330
1F
100
AcDbEntity
  8
E-1
  6
Continuous
 62
     6
370
     9
100
AcDbCircle
 10
-30.92301251959725
 20
-255.317805651072
 30
0.0
 40
3.000000027616052
100
AcDbArc
 50
0.0
 51
45.0
  0
ARC
  5
147
330
1F
100
AcDbEntity
  8
E-1
  6
Continuous
 62
     6
370
     9
100
AcDbCircle
 10
38.73214494521454
 20
-257.8429127807324
 30
0.0
 40
3.000000027616052
100
AcDbArc
 50
224.9976959228516
 51
270.0
  0
ARC
  5
148
330
1F
100
AcDbEntity
  8
E-1
  6
Continuous
 62
     6
370
     9
100
AcDbCircle
 10
40.79235371137116
 20
-258.8429669818364
 30
0.0
 40
2.000000018410701
100
AcDbArc
 50
90.0
 51
129.9999389648438
  0
ARC
  5
149
330
1F
100
AcDbEntity
  8
E-1
  6
Continuous
 62
     6
370
     9
100
AcDbCircle
 10
-50.01060073778541
 20
-157.732750568611
 30
0.0
 40
1.00000000920535
100
AcDbArc
 50
319.9996032714844
 51
0.0000000000000191
  0
ARC
  5
14A
330
1F
100
AcDbEntity
  8
E-1
  6
Continuous
 62
     6
370
     9
100
AcDbCircle
 10
52.51593797853451
 20
-255.8430025660395
 30
0.0
 40
1.00000000920535
100
AcDbArc
 50
270.0
 51
309.9999389648438
  0
ARC
  5
14B
330
1F
100
AcDbEntity
  8
E-1
  6
Continuous
 62
     6
370
     9
100
AcDbCircle
 10
-46.01063166776328
 20
-139.8729835532348
 30
0.0
 40
3.000000027616052
100
AcDbArc
 50
139.9996643066406
 51
180.0
  0
ARC
  5
14C
330
1F
100
AcDbEntity
  8
E-1
  6
Continuous
 62
     6
370
     9
100
AcDbCircle
 10
1.334111302353563
 20
-255.3429754654875
 30
0.0
 40
1.500000013808026
100
AcDbArc
 50
270.0
 51
310.0000305175782
  0
ARC
  5
14D
330
1F
100
AcDbEntity
  8
E-1
  6
Continuous
 62
     6
370
     9
100
AcDbCircle
 10
-4.119711831431744
 20
-254.8429979118142
 30
0.0
 40
2.000000018410701
100
AcDbArc
 50
180.0
 51
270.0
  0
ARC
  5
14E
330
1F
100
AcDbEntity
  8
E-1
  6
Continuous
 62
     6
370
     9
100
AcDbCircle
 10
94.4893781414583
 20
-253.842993257589
 30
0.0
 40
1.00000000920535
100
AcDbArc
 50
0.0
 51
90.0
  0
ARC
  5
14F
330
1F
100
AcDbEntity
  8
E-1
  6
Continuous
 62
     6
370
     9
100
AcDbCircle
 10
84.90245347439452
 20
-251.8429839491386
 30
0.0
 40
5.000000046026752
100
AcDbArc
 50
270.0
 51
309.9999542236328
  0
ARC
  5
150
330
1F
100
AcDbEntity
  8
E-1
  6
Continuous
 62
     6
370
     9
100
AcDbCircle
 10
91.85328600335203
 20
-253.842993257589
 30
0.0
 40
1.00000000920535
100
AcDbArc
 50
90.0
 51
130.0003967285156
  0
ARC
  5
151
330
1F
100
AcDbEntity
  8
E-1
  6
Continuous
 62
     6
370
     9
100
AcDbCircle
 10
-53.51061702757363
 20
-163.6003892338876
 30
0.0
 40
3.000000027616052
100
AcDbArc
 50
180.0
 51
224.9998321533203
  0
ARC
  5
152
330
1F
100
AcDbEntity
  8
E-1
  6
Continuous
 62
     6
370
     9
100
AcDbCircle
 10
37.59028757706932
 20
-254.8428988180567
 30
0.0
 40
2.000000018410701
100
AcDbArc
 50
270.0
 51
309.9998474121093
  0
ARC
  5
153
330
1F
100
AcDbEntity
  8
E-1
  6
Continuous
 62
     6
370
     9
100
AcDbCircle
 10
-23.92293039314183
 20
-252.4184213991792
 30
0.0
 40
1.00000000920535
100
AcDbArc
 50
0.0
 51
45.0
  0
ARC
  5
154
330
1F
100
AcDbEntity
  8
E-1
  6
Continuous
 62
     6
370
     9
100
AcDbCircle
 10
-48.08595223194493
 20
-228.2553995603762
 30
0.0
 40
1.00000000920535
100
AcDbArc
 50
45.0
 51
90.0
  0
ARC
  5
155
330
1F
100
AcDbEntity
  8
E-1
  6
Continuous
 62
     6
370
     9
100
AcDbCircle
 10
-48.51061852988698
 20
-252.842939056485
 30
0.0
 40
8.000000073642804
100
AcDbArc
 50
263.9907226562501
 51
270.0
  0
ARC
  5
156
330
1F
100
AcDbEntity
  8
E-1
  6
Continuous
 62
     6
370
     9
100
AcDbCircle
 10
-48.51061852988698
 20
-252.842939056485
 30
0.0
 40
8.000000073642804
100
AcDbArc
 50
180.0
 51
186.6249694824219
  0
LINE
  5
157
330
1F
100
AcDbEntity
  8
E-A
  6
Continuous
 62
     2
370
     9
100
AcDbLine
 10
-39.91066768793172
 20
-145.3424635007116
 30
0.0
 11
-42.51064015141429
 21
-145.3424635007116
 31
0.0
  0
LINE
  5
158
330
1F
100
AcDbEntity
  8
E-A
  6
Continuous
 62
     2
370
     9
100
AcDbLine
 10
-39.91066768793172
 20
-157.3426184451719
 30
0.0
 11
-42.51064015141429
 21
-157.3426184451719
 31
0.0
  0
LINE
  5
159
330
1F
100
AcDbEntity
  8
E-A
  6
Continuous
 62
     2
370
     9
100
AcDbLine
 10
-39.91066768793172
 20
-151.8216592906527
 30
0.0
 11
-39.91066768793172
 21
-150.863620842746
 31
0.0
  0
LINE
  5
15A
330
1F
100
AcDbEntity
  8
E-A
  6
Continuous
 62
     2
370
     9
100
AcDbLine
 10
-54.51064645523832
 20
-148.3425270102661
 30
0.0
 11
-54.51064645523832
 21
-154.3426044824963
 31
0.0
  0
LINE
  5
15B
330
1F
100
AcDbEntity
  8
E-A
  6
Continuous
 62
     2
370
     9
100
AcDbLine
 10
-44.51069900674349
 20
-148.3425270102661
 30
0.0
 11
-54.51064645523832
 21
-148.3425270102661
 31
0.0
  0
LINE
  5
15C
330
1F
100
AcDbEntity
  8
E-A
  6
Continuous
 62
     2
370
     9
100
AcDbLine
 10
-44.51069900674349
 20
-154.3426044824963
 30
0.0
 11
-54.51064645523832
 21
-154.3426044824963
 31
0.0
  0
LINE
  5
15D
330
1F
100
AcDbEntity
  8
E-A
  6
Continuous
 62
     2
370
     9
100
AcDbLine
 10
-44.51069900674349
 20
-149.212619748355
 30
0.0
 11
-54.51064645523832
 21
-149.212619748355
 31
0.0
  0
LINE
  5
15E
330
1F
100
AcDbEntity
  8
E-A
  6
Continuous
 62
     2
370
     9
100
AcDbLine
 10
-44.51069900674349
 20
-153.4725117444073
 30
0.0
 11
-54.51064645523832
 21
-153.4725117444073
 31
0.0
  0
LINE
  5
15F
330
1F
100
AcDbEntity
  8
E-A
  6
Continuous
 62
     2
370
     9
100
AcDbLine
 10
-44.51069900674349
 20
-153.4725117444073
 30
0.0
 11
-42.63817381736953
 21
-154.5247883557354
 31
0.0
  0
LINE
  5
160
330
1F
100
AcDbEntity
  8
E-A
  6
Continuous
 62
     2
370
     9
100
AcDbLine
 10
-44.51069900674349
 20
-154.3426044824963
 30
0.0
 11
-43.74683477673864
 21
-153.9016868083175
 31
0.0
  0
LINE
  5
161
330
1F
100
AcDbEntity
  8
E-A
  6
Continuous
 62
     2
370
     9
100
AcDbLine
 10
-44.51069900674349
 20
-149.212619748355
 30
0.0
 11
-42.63817381736953
 21
-148.1605908714208
 31
0.0
  0
LINE
  5
162
330
1F
100
AcDbEntity
  8
E-A
  6
Continuous
 62
     2
370
     9
100
AcDbLine
 10
-44.51069900674349
 20
-148.3425270102661
 30
0.0
 11
-43.74683477673864
 21
-148.7834446844448
 31
0.0
  0
LINE
  5
163
330
1F
100
AcDbEntity
  8
E-A
  6
Continuous
 62
     2
370
     9
100
AcDbLine
 10
-37.92210370847727
 20
-150.863620842746
 30
0.0
 11
-39.91066768793172
 21
-150.863620842746
 31
0.0
  0
LINE
  5
164
330
1F
100
AcDbEntity
  8
E-A
  6
Continuous
 62
     2
370
     9
100
AcDbLine
 10
-44.51069900674349
 20
-148.3425270102661
 30
0.0
 11
-44.51069900674349
 21
-154.3426044824963
 31
0.0
  0
LINE
  5
165
330
1F
100
AcDbEntity
  8
E-A
  6
Continuous
 62
     2
370
     9
100
AcDbLine
 10
-37.92210370847727
 20
-151.8216592906527
 30
0.0
 11
-39.91066768793172
 21
-151.8216592906527
 31
0.0
  0
LINE
  5
166
330
1F
100
AcDbEntity
  8
E-A
  6
Continuous
 62
     2
370
     9
100
AcDbLine
 10
-42.51064015141429
 20
-157.3426184451719
 30
0.0
 11
-42.51064015141429
 21
-145.3424635007116
 31
0.0
  0
ARC
  5
167
330
1F
100
AcDbEntity
  8
E-A
  6
Continuous
 62
     2
370
     9
100
AcDbCircle
 10
-42.76070324856909
 20
-154.7427450754469
 30
0.0
 40
0.2500000023013376
100
AcDbArc
 50
0.0
 51
60.67082214355469
  0
ARC
  5
168
330
1F
100
AcDbEntity
  8
E-A
  6
Continuous
 62
     2
370
     9
100
AcDbCircle
 10
-42.76070324856909
 20
-147.9426341517093
 30
0.0
 40
0.2500000023013376
100
AcDbArc
 50
299.3291778564453
 51
0.0
  0
ARC
  5
169
330
1F
100
AcDbEntity
  8
E-A
  6
Continuous
 62
     2
370
     9
100
AcDbCircle
 10
-47.9106553748548
 20
-151.3427391604569
 30
0.0
 40
10.0000000920535
100
AcDbArc
 50
2.745620727539062
 51
36.869873046875
  0
ARC
  5
16A
330
1F
100
AcDbEntity
  8
E-A
  6
Continuous
 62
     2
370
     9
100
AcDbCircle
 10
-47.9106553748548
 20
-151.3427391604569
 30
0.0
 40
10.0000000920535
100
AcDbArc
 50
323.130126953125
 51
357.2543792724609
  0
LINE
  5
16B
330
1F
100
AcDbEntity
  8
E-A
  6
Continuous
 62
     2
370
     9
100
AcDbLine
 10
-27.63671669138546
 20
-245.027315305467
 30
0.0
 11
-25.86898315061114
 21
-243.2595817646927
 31
0.0
  0
LINE
  5
16C
330
1F
100
AcDbEntity
  8
E-A
  6
Continuous
 62
     2
370
     9
100
AcDbLine
 10
-25.44476277457807
 20
-243.6837030469682
 30
0.0
 11
-39.30396615738675
 21
-229.8243510235232
 31
0.0
  0
LINE
  5
16D
330
1F
100
AcDbEntity
  8
E-A
  6
Continuous
 62
     2
370
     9
100
AcDbLine
 10
-35.60920586059098
 20
-237.0548756831403
 30
0.0
 11
-33.84147231981666
 21
-235.2868944079721
 31
0.0
  0
LINE
  5
16E
330
1F
100
AcDbEntity
  8
E-A
  6
Continuous
 62
     2
370
     9
100
AcDbLine
 10
-36.31633891440379
 20
-236.3476930824488
 30
0.0
 11
-34.54860537362947
 21
-234.5797613541594
 31
0.0
  0
LINE
  5
16F
330
1F
100
AcDbEntity
  8
E-A
  6
Continuous
 62
     2
370
     9
100
AcDbLine
 10
-27.49540899313195
 20
-247.4314785040485
 30
0.0
 11
-26.3639564695286
 21
-246.3001250742026
 31
0.0
  0
LINE
  5
170
330
1F
100
AcDbEntity
  8
E-A
  6
Continuous
 62
     2
370
     9
100
AcDbLine
 10
-26.3639564695286
 20
-246.3001250742026
 30
0.0
 11
-41.92038818462112
 21
-230.74369335911
 31
0.0
  0
LINE
  5
171
330
1F
100
AcDbEntity
  8
E-A
  6
Continuous
 62
     2
370
     9
100
AcDbLine
 10
-40.64762796276426
 20
-232.0164535809669
 30
0.0
 11
-38.87979532823249
 21
-230.2488191339502
 31
0.0
  0
LINE
  5
172
330
1F
100
AcDbEntity
  8
E-A
  6
Continuous
 62
     2
370
     9
100
AcDbLine
 10
-43.05174161446701
 20
-231.8749476951983
 30
0.0
 11
-41.92038818462112
 21
-230.74369335911
 31
0.0
  0
LINE
  5
173
330
1F
100
AcDbEntity
  8
E-2
  6
Continuous
 62
     3
370
     9
100
AcDbLine
 10
64.48936238189816
 20
-243.3430543203613
 30
0.0
 11
64.48936238189816
 21
-244.3431085214654
 31
0.0
  0
LINE
  5
174
330
1F
100
AcDbEntity
  8
E-2
  6
Continuous
 62
     3
370
     9
100
AcDbLine
 10
-43.51069435251821
 20
-136.3430022401701
 30
0.0
 11
-42.51064015141429
 21
-136.3430022401701
 31
0.0
  0
LINE
  5
175
330
1F
100
AcDbEntity
  8
E-2
  6
Continuous
 62
     3
370
     9
100
AcDbLine
 10
64.48936238189816
 20
-244.3431085214654
 30
0.0
 11
53.76355315941521
 21
-253.3430017688562
 31
0.0
  0
LINE
  5
176
330
1F
100
AcDbEntity
  8
E-2
  6
Continuous
 62
     3
370
     9
100
AcDbLine
 10
43.97160350799936
 20
-250.7546728218847
 30
0.0
 11
44.48936839115106
 21
-253.3430017688562
 31
0.0
  0
LINE
  5
177
330
1F
100
AcDbEntity
  8
E-2
  6
Continuous
 62
     3
370
     9
100
AcDbLine
 10
-47.51066342254069
 20
-155.3430411235708
 30
0.0
 11
-42.51064015141429
 21
-155.3430411235708
 31
0.0
  0
LINE
  5
178
330
1F
100
AcDbEntity
  8
E-2
  6
Continuous
 62
     3
370
     9
100
AcDbLine
 10
-47.51066342254069
 20
-147.3430534366477
 30
0.0
 11
-42.51064015141429
 21
-147.3430534366477
 31
0.0
  0
LINE
  5
179
330
1F
100
AcDbEntity
  8
E-2
  6
JWW_CENTER1
 62
     3
370
     9
100
AcDbLine
 10
-56.51065576368887
 20
-151.3430225066699
 30
0.0
 11
-36.44887681511489
 21
-151.3430225066699
 31
0.0
  0
LINE
  5
17A
330
1F
100
AcDbEntity
  8
E-2
  6
Continuous
 62
     3
370
     9
100
AcDbLine
 10
-47.51066342254069
 20
-141.1101056341961
 30
0.0
 11
-47.51066342254069
 21
-148.3429589971154
 31
0.0
  0
ARC
  5
17B
330
1F
100
AcDbEntity
  8
E-2
  6
Continuous
 62
     3
370
     9
100
AcDbCircle
 10
41.02990622163657
 20
-251.3430915541633
 30
0.0
 40
3.000000027616052
100
AcDbArc
 50
11.31007385253906
 51
90.0
  0
LINE
  5
17C
330
1F
100
AcDbEntity
  8
E-2
  6
Continuous
 62
     3
370
     9
100
AcDbLine
 10
-26.51066342254069
 20
-248.3430280446088
 30
0.0
 11
59.72225898787224
 21
-248.3430280446088
 31
0.0
  0
LINE
  5
17D
330
1F
100
AcDbEntity
  8
E-2
  6
Continuous
 62
     3
370
     9
100
AcDbLine
 10
-42.51064015141429
 20
-215.0587335260207
 30
0.0
 11
-42.51064015141429
 21
-136.3430022401701
 31
0.0
  0
LINE
  5
17E
330
1F
100
AcDbEntity
  8
E-2
  6
Continuous
 62
     3
370
     9
100
AcDbLine
 10
64.48936238189816
 20
-243.3430543203613
 30
0.0
 11
-14.22641845083103
 21
-243.3430543203613
 31
0.0
  0
LINE
  5
17F
330
1F
100
AcDbEntity
  8
E-2
  6
Continuous
 62
     3
370
     9
100
AcDbLine
 10
-42.51064015141429
 20
-215.0587335260207
 30
0.0
 11
-14.22641845083103
 21
-243.3430543203613
 31
0.0
  0
LINE
  5
180
330
1F
100
AcDbEntity
  8
E-2
  6
Continuous
 62
     3
370
     9
100
AcDbLine
 10
-47.51066342254069
 20
-217.1297729359329
 30
0.0
 11
-16.29751766910647
 21
-248.3430280446088
 31
0.0
  0
LINE
  5
181
330
1F
100
AcDbEntity
  8
E-2
  6
JWW_DASHED2
 62
     3
370
     9
100
AcDbLine
 10
-37.56090135381214
 20
-220.0084896650303
 30
0.0
 11
-42.15709357352227
 21
-222.4833615411807
 31
0.0
  0
LINE
  5
182
330
1F
100
AcDbEntity
  8
E-2
  6
JWW_DASHED2
 62
     3
370
     9
100
AcDbLine
 10
-21.65103284059961
 20
-242.9894941170776
 30
0.0
 11
-19.17615724843319
 21
-238.3932981813517
 31
0.0
  0
LINE
  5
183
330
1F
100
AcDbEntity
  8
E-2
  6
Continuous
 62
     3
370
     9
100
AcDbLine
 10
-47.51066342254069
 20
-227.3430280446087
 30
0.0
 11
-47.51066342254069
 21
-154.3430364693456
 31
0.0
  0
LINE
  5
184
330
1F
100
AcDbEntity
  8
E-2
  6
JWW_DASHED2
 62
     3
370
     9
100
AcDbLine
 10
-49.92230380511234
 20
-156.8606483854756
 30
0.0
 11
-52.51063714678776
 21
-156.3429714574779
 31
0.0
  0
ARC
  5
185
330
1F
100
AcDbEntity
  8
E-2
  6
JWW_DASHED2
 62
     3
370
     9
100
AcDbCircle
 10
-51.51063249256265
 20
-155.523168801341
 30
0.0
 40
1.00000000920535
100
AcDbArc
 50
180.0
 51
258.6892395019531
  0
LINE
  5
186
330
1F
100
AcDbEntity
  8
E-2
  6
JWW_DASHED2
 62
     3
370
     9
100
AcDbLine
 10
-52.51063714678776
 20
-147.4327965937953
 30
0.0
 11
-52.51063714678776
 21
-156.3429714574779
 31
0.0
  0
ARC
  5
187
330
1F
100
AcDbEntity
  8
E-2
  6
JWW_DASHED2
 62
     3
370
     9
100
AcDbCircle
 10
-51.51063714678781
 20
-147.4327965937953
 30
0.0
 40
1.0
100
AcDbArc
 50
140.0002969568062
 51
180.0
  0
LINE
  5
188
330
1F
100
AcDbEntity
  8
E-2
  6
Continuous
 62
     3
370
     9
100
AcDbLine
 10
-49.01067772306578
 20
-142.8976961733845
 30
0.0
 11
-43.51069435251821
 21
-136.3430022401701
 31
0.0
  0
LINE
  5
189
330
1F
100
AcDbEntity
  8
E-2
  6
JWW_DASHED2
 62
     3
370
     9
100
AcDbLine
 10
-52.27668492138372
 20
-146.7900129544292
 30
0.0
 11
-49.01067772306578
 21
-142.8976961733845
 31
0.0
  0
ARC
  5
18A
330
1F
100
AcDbEntity
  8
E-2
  6
Continuous
 62
     3
370
     9
100
AcDbCircle
 10
-50.51066342254069
 20
-159.8023881701234
 30
0.0
 40
3.0
100
AcDbArc
 50
0.0
 51
59.99960762723288
  0
ARC
  5
18B
330
1F
100
AcDbEntity
  8
E-2
  6
JWW_DASHED2
 62
     3
370
     9
100
AcDbCircle
 10
-50.51066342254069
 20
-159.8023881701234
 30
0.0
 40
3.0
100
AcDbArc
 50
59.99960762723288
 51
78.68984915152389
  0
LINE
  5
18C
330
1F
100
AcDbEntity
  8
E-1
  6
Continuous
 62
     6
370
     9
100
AcDbLine
 10
-41.51063549718901
 20
-145.3424635007116
 30
0.0
 11
-41.51063549718901
 21
-124.8428883313214
 31
0.0
  0
LINE
  5
18D
330
1F
100
AcDbEntity
  8
E-1
  6
Continuous
 62
     6
370
     9
100
AcDbLine
 10
-41.51063549718901
 20
-216.0587416837618
 30
0.0
 11
-41.51063549718901
 21
-157.3426184451719
 31
0.0
  0
LINE
  5
18E
330
1F
100
AcDbEntity
  8
E-A
  6
JWW_DASHED2
 62
     2
370
     9
100
AcDbLine
 10
-31.91211686049286
 20
-225.9025669282009
 30
0.0
 11
-21.52302822613444
 21
-236.2918537500744
 31
0.0
  0
ARC
  5
18F
330
1F
100
AcDbEntity
  8
E-A
  6
JWW_DASHED2
 62
     2
370
     9
100
AcDbCircle
 10
-34.60716978433607
 20
-228.5977684926804
 30
0.0
 40
3.811438938365479
100
AcDbArc
 50
4.925643920898438
 51
85.07435607910156
  0
ARC
  5
190
330
1F
100
AcDbEntity
  8
E-A
  6
JWW_DASHED2
 62
     2
370
     9
100
AcDbCircle
 10
-36.49084302143342
 20
-240.8704312703786
 30
0.0
 40
13.82162052692133
100
AcDbArc
 50
24.26925659179688
 51
65.73074340820312
  0
ARC
  5
191
330
1F
100
AcDbEntity
  8
E-A
  6
JWW_DASHED2
 62
     2
370
     9
100
AcDbCircle
 10
-24.21808114997782
 20
-238.9870553145539
 30
0.0
 40
3.811438938365479
100
AcDbArc
 50
4.925643920898438
 51
85.07435607910156
  0
LINE
  5
192
330
1F
100
AcDbEntity
  8
E-A
  6
JWW_DASHED2
 62
     2
370
     9
100
AcDbLine
 10
-34.27996219693563
 20
-224.8004461568297
 30
0.0
 11
-37.06002192323155
 21
-227.5804510490596
 31
0.0
  0
LINE
  5
193
330
1F
100
AcDbEntity
  8
E-A
  6
JWW_DASHED2
 62
     2
370
     9
100
AcDbLine
 10
-30.80984744848536
 20
-228.2705609052799
 30
0.0
 11
-33.58987212823871
 21
-231.0506130017206
 31
0.0
  0
LINE
  5
194
330
1F
100
AcDbEntity
  8
E-A
  6
JWW_DASHED2
 62
     2
370
     9
100
AcDbLine
 10
-23.89087356257721
 20
-235.1894852443093
 30
0.0
 11
-26.67089401114083
 21
-237.9696153594552
 31
0.0
  0
LINE
  5
195
330
1F
100
AcDbEntity
  8
E-A
  6
JWW_DASHED2
 62
     2
370
     9
100
AcDbLine
 10
-20.42070926724813
 20
-238.6597486333959
 30
0.0
 11
-23.20076849777337
 21
-241.4397530304057
 31
0.0
  0
LINE
  5
196
330
1F
100
AcDbEntity
  8
E-A
  6
Continuous
 62
     2
370
     9
100
AcDbLine
 10
-23.20076849777337
 20
-241.4397530304057
 30
0.0
 11
-25.44476277457807
 21
-243.6837030469682
 31
0.0
  0
LINE
  5
197
330
1F
100
AcDbEntity
  8
E-A
  6
Continuous
 62
     2
370
     9
100
AcDbLine
 10
-26.67089401114083
 20
-237.9696153594552
 30
0.0
 11
-28.91487752302834
 21
-240.2136873922755
 31
0.0
  0
LINE
  5
198
330
1F
100
AcDbEntity
  8
E-A
  6
Continuous
 62
     2
370
     9
100
AcDbLine
 10
-33.58987212823871
 20
-231.0506130017206
 30
0.0
 11
-35.83385140893648
 21
-233.2946144126098
 31
0.0
  0
LINE
  5
199
330
1F
100
AcDbEntity
  8
E-A
  6
Continuous
 62
     2
370
     9
100
AcDbLine
 10
-37.06002192323155
 20
-227.5804510490596
 30
0.0
 11
-39.30396615738675
 21
-229.8243510235232
 31
0.0
  0
LINE
  5
19A
330
1F
100
AcDbEntity
  8
E-A
  6
JWW_DASHED2
 62
     2
370
     9
100
AcDbLine
 10
-30.25308917174118
 20
-227.5616937107102
 30
0.0
 11
-30.13040625630481
 21
-227.4390107952739
 31
0.0
  0
LINE
  5
19B
330
1F
100
AcDbEntity
  8
E-A
  6
JWW_DASHED2
 62
     2
370
     9
100
AcDbLine
 10
-29.54585702417091
 20
-228.268826764523
 30
0.0
 11
-29.42322312865116
 21
-228.1461964005431
 31
0.0
  0
LINE
  5
19C
330
1F
100
AcDbEntity
  8
E-A
  6
JWW_DASHED2
 62
     2
370
     9
100
AcDbLine
 10
-23.88908987494148
 20
-233.9257425543886
 30
0.0
 11
-23.76639451199179
 21
-233.803044835899
 31
0.0
  0
LINE
  5
19D
330
1F
100
AcDbEntity
  8
E-A
  6
JWW_DASHED2
 62
     2
370
     9
100
AcDbLine
 10
-23.18205591488629
 20
-234.6326278738075
 30
0.0
 11
-23.05943220502485
 21
-234.5100096197081
 31
0.0
  0
LINE
  5
19E
330
1F
100
AcDbEntity
  8
E-1
  6
JWW_DASHED2
 62
     6
370
     9
100
AcDbLine
 10
-41.78284604915416
 20
-234.3054698332858
 30
0.0
 11
-44.1361246032385
 21
-237.8619447914331
 31
0.0
  0
LINE
  5
19F
330
1F
100
AcDbEntity
  8
E-1
  6
JWW_DASHED2
 62
     6
370
     9
100
AcDbLine
 10
-29.9732484004453
 20
-246.1151665757523
 30
0.0
 11
-33.52952517107752
 21
-248.4684946767153
 31
0.0
  0
ARC
  5
1A0
330
1F
100
AcDbEntity
  8
E-1
  6
JWW_DASHED2
 62
     6
370
     9
100
AcDbCircle
 10
-42.60502695547206
 20
-233.7361761962126
 30
0.0
 40
1.00000000920535
100
AcDbArc
 50
325.3048400878906
 51
45.00074768066404
  0
ARC
  5
1A1
330
1F
100
AcDbEntity
  8
E-1
  6
JWW_DASHED2
 62
     6
370
     9
100
AcDbCircle
 10
-29.40395476337216
 20
-246.9372483883126
 30
0.0
 40
1.00000000920535
100
AcDbArc
 50
44.99925231933594
 51
124.6951599121094
  0
LINE
  5
1A2
330
1F
100
AcDbEntity
  8
E-A
  6
JWW_DASHED2
 62
     2
370
     9
100
AcDbLine
 10
-41.63767369435664
 20
-240.3604947940725
 30
0.0
 11
-38.10195887841411
 21
-236.8247304312512
 31
0.0
  0
LINE
  5
1A3
330
1F
100
AcDbEntity
  8
E-A
  6
JWW_DASHED2
 62
     2
370
     9
100
AcDbLine
 10
-42.34480674816945
 20
-239.6533617402598
 30
0.0
 11
-38.80904238534811
 21
-236.1175478305597
 31
0.0
  0
LINE
  5
1A4
330
1F
100
AcDbEntity
  8
E-A
  6
JWW_DASHED2
 62
     2
370
     9
100
AcDbLine
 10
-35.2736743975571
 20
-246.7244445439933
 30
0.0
 11
-31.73805867537203
 21
-243.1887792749296
 31
0.0
  0
LINE
  5
1A5
330
1F
100
AcDbEntity
  8
E-A
  6
JWW_DASHED2
 62
     2
370
     9
100
AcDbLine
 10
-35.98068358417288
 20
-246.0174601308169
 30
0.0
 11
-32.44504308854857
 21
-242.481844408632
 31
0.0
  0
LINE
  5
1A6
330
1F
100
AcDbEntity
  8
E-A
  6
Continuous
 62
     2
370
     9
100
AcDbLine
 10
-49.06125767733062
 20
-260.5122353023357
 30
0.0
 11
-35.27361934306685
 21
-246.724515581859
 31
0.0
  0
LINE
  5
1A7
330
1F
100
AcDbEntity
  8
E-A
  6
Continuous
 62
     2
370
     9
100
AcDbLine
 10
-56.1597166824119
 20
-253.468528698935
 30
0.0
 11
-42.34473124644609
 21
-239.6534211415511
 31
0.0
  0
LINE
  5
1A8
330
1F
100
AcDbEntity
  8
E-A
  6
Continuous
 62
     2
370
     9
100
AcDbLine
 10
-55.80629888342708
 20
-254.5292779138191
 30
0.0
 11
-41.6376062502498
 21
-240.3605443914061
 31
0.0
  0
LINE
  5
1A9
330
1F
100
AcDbEntity
  8
E-A
  6
Continuous
 62
     2
370
     9
100
AcDbLine
 10
-50.12862295135659
 20
-260.1653344677223
 30
0.0
 11
-35.98064103956312
 21
-246.0174956314488
 31
0.0
  0
LINE
  5
1AA
330
1F
100
AcDbEntity
  8
E-A
  6
Continuous
 62
     2
370
     9
100
AcDbLine
 10
-11.83345710582711
 20
-215.1526734112013
 30
0.0
 11
-14.83877258453134
 21
-212.1473579324972
 31
0.0
  0
LINE
  5
1AB
330
1F
100
AcDbEntity
  8
E-A
  6
Continuous
 62
     2
370
     9
100
AcDbLine
 10
-7.767739327676452
 20
-219.2184902831095
 30
0.0
 11
-10.77280707198679
 21
-216.2132738981629
 31
0.0
  0
LINE
  5
1AC
330
1F
100
AcDbEntity
  8
E-A
  6
Continuous
 62
     2
370
     9
100
AcDbLine
 10
-12.54059015963992
 20
-215.8597569181352
 30
0.0
 11
-11.12637359889311
 21
-214.4454908105098
 31
0.0
  0
LINE
  5
1AD
330
1F
100
AcDbEntity
  8
E-A
  6
Continuous
 62
     2
370
     9
100
AcDbLine
 10
-11.47989057892079
 20
-216.9201592175817
 30
0.0
 11
-12.54059015963992
 21
-215.8597569181352
 31
0.0
  0
LINE
  5
1AE
330
1F
100
AcDbEntity
  8
E-A
  6
Continuous
 62
     2
370
     9
100
AcDbLine
 10
-11.47989057892079
 20
-216.9201592175817
 30
0.0
 11
-10.06562447129534
 21
-215.5061903912289
 31
0.0
  0
LINE
  5
1AF
330
1F
100
AcDbEntity
  8
E-A
  6
JWW_HOJO
 62
     2
370
     9
100
AcDbLine
 10
-7.498929989449266
 20
-218.949692904721
 30
0.0
 11
-7.060516220694922
 21
-218.5112986418293
 31
0.0
  0
LINE
  5
1B0
330
1F
100
AcDbEntity
  8
E-A
  6
JWW_HOJO
 62
     2
370
     9
100
AcDbLine
 10
-7.060516220694922
 20
-218.5112986418293
 30
0.0
 11
-7.623033292440368
 21
-217.9487815700839
 31
0.0
  0
LINE
  5
1B1
330
1F
100
AcDbEntity
  8
E-A
  6
JWW_HOJO
 62
     2
370
     9
100
AcDbLine
 10
-13.610954392515
 20
-211.9609635858234
 30
0.0
 11
-14.13167192866513
 21
-211.4402572766311
 31
0.0
  0
LINE
  5
1B2
330
1F
100
AcDbEntity
  8
E-A
  6
JWW_HOJO
 62
     2
370
     9
100
AcDbLine
 10
-14.70085960730819
 20
-212.0094449552741
 30
0.0
 11
-14.13167192866513
 21
-211.4402572766311
 31
0.0
  0
LINE
  5
1B3
330
1F
100
AcDbEntity
  8
E-A
  6
Continuous
 62
     2
370
     9
100
AcDbLine
 10
-14.83877258453134
 20
-212.1473579324972
 30
0.0
 11
-13.42440738314826
 21
-212.1475065731335
 31
0.0
  0
LINE
  5
1B4
330
1F
100
AcDbEntity
  8
E-A
  6
Continuous
 62
     2
370
     9
100
AcDbLine
 10
-11.12637359889311
 20
-214.4454908105098
 30
0.0
 11
-13.42440738314826
 21
-212.1475065731335
 31
0.0
  0
LINE
  5
1B5
330
1F
100
AcDbEntity
  8
E-A
  6
Continuous
 62
     2
370
     9
100
AcDbLine
 10
-7.767640233918996
 20
-217.8041746286052
 30
0.0
 11
-10.06562447129534
 21
-215.5061903912289
 31
0.0
  0
LINE
  5
1B6
330
1F
100
AcDbEntity
  8
E-A
  6
Continuous
 62
     2
370
     9
100
AcDbLine
 10
-7.767640233918996
 20
-217.8041746286052
 30
0.0
 11
-7.767739327676452
 21
-219.2184902831095
 31
0.0
  0
LINE
  5
1B7
330
1F
100
AcDbEntity
  8
E-A
  6
Continuous
 62
     2
370
     9
100
AcDbLine
 10
-30.13040625630481
 20
-227.4390107952739
 30
0.0
 11
-14.83877258453134
 21
-212.1473579324972
 31
0.0
  0
LINE
  5
1B8
330
1F
100
AcDbEntity
  8
E-A
  6
Continuous
 62
     2
370
     9
100
AcDbLine
 10
-29.42322312865116
 20
-228.1461964005431
 30
0.0
 11
-13.42440738314826
 21
-212.1475065731335
 31
0.0
  0
LINE
  5
1B9
330
1F
100
AcDbEntity
  8
E-A
  6
Continuous
 62
     2
370
     9
100
AcDbLine
 10
-23.05943220502485
 20
-234.5100096197081
 30
0.0
 11
-7.767739327676452
 21
-219.2184902831095
 31
0.0
  0
LINE
  5
1BA
330
1F
100
AcDbEntity
  8
E-A
  6
Continuous
 62
     2
370
     9
100
AcDbLine
 10
-23.76639451199179
 20
-233.803044835899
 30
0.0
 11
-7.767640233918996
 21
-217.8041746286052
 31
0.0
  0
LINE
  5
1BB
330
1F
100
AcDbEntity
  8
E-0
  6
Continuous
 62
     4
370
     9
100
AcDbLine
 10
-96.35806568034917
 20
-160.331817253216
 30
0.0
 11
-94.05673702865585
 21
-273.3383507397185
 31
0.0
  0
LINE
  5
1BC
330
1F
100
AcDbEntity
  8
E-0
  6
Continuous
 62
     4
370
     9
100
AcDbLine
 10
-92.56146177424057
 20
-271.7782929413108
 30
0.0
 11
-94.80065863995566
 21
-161.8270925076313
 31
0.0
  0
LINE
  5
1BD
330
1F
100
AcDbEntity
  8
E-0
  6
Continuous
 62
     4
370
     9
100
AcDbLine
 10
-55.51060156258478
 20
-216.0253364005308
 30
0.0
 11
-123.7544052745418
 21
-216.0253364005308
 31
0.0
  0
LINE
  5
1BE
330
1F
100
AcDbEntity
  8
E-4
  6
Continuous
 62
     7
370
     9
100
AcDbLine
 10
133.4894199834588
 20
-260.843011902106
 30
0.0
 11
133.4894199834588
 21
-252.8429886033638
 31
0.0
  0
LINE
  5
1BF
330
1F
100
AcDbEntity
  8
E-4
  6
Continuous
 62
     7
370
     9
100
AcDbLine
 10
134.3894199834588
 20
-252.8429886033638
 30
0.0
 11
100.4893781414583
 21
-252.8429886033638
 31
0.0
  0
TEXT
  5
1C0
330
1F
100
AcDbEntity
  8
E-4
  6
Continuous
 62
     2
370
   211
100
AcDbText
 10
129.9974199834588
 20
-259.8430002527349
 30
0.0
 40
9.144
  1
8
 50
90.0
  7
ＭＳ ゴシック
100
AcDbText
  0
LINE
  5
1C1
330
1F
100
AcDbEntity
  8
E-4
  6
Continuous
 62
     7
370
     9
100
AcDbLine
 10
133.4894199834588
 20
-252.8429886033638
 30
0.0
 11
133.4894199834588
 21
-108.8430662431313
 31
0.0
  0
LINE
  5
1C2
330
1F
100
AcDbEntity
  8
E-4
  6
Continuous
 62
     7
370
     9
100
AcDbLine
 10
134.3894199834588
 20
-108.8430662431313
 30
0.0
 11
-43.51017726220329
 21
-108.8430662431313
 31
0.0
  0
TEXT
  5
1C3
330
1F
100
AcDbEntity
  8
E-4
  6
Continuous
 62
     2
370
   211
100
AcDbText
 10
129.9974199834588
 20
-190.5930274232475
 30
0.0
 40
9.144
  1
144
 50
90.0
 41
1.083333333333333
  7
ＭＳ ゴシック
100
AcDbText
  0
LINE
  5
1C4
330
1F
100
AcDbEntity
  8
E-4
  6
Continuous
 62
     7
370
     9
100
AcDbLine
 10
163.4894199834588
 20
-260.843011902106
 30
0.0
 11
163.4894199834588
 21
-216.0253364005308
 31
0.0
  0
LINE
  5
1C5
330
1F
100
AcDbEntity
  8
E-4
  6
Continuous
 62
     7
370
     9
100
AcDbLine
 10
164.3894199834588
 20
-216.0253364005308
 30
0.0
 11
-49.5106015625848
 21
-216.0253364005308
 31
0.0
  0
LINE
  5
1C6
330
1F
100
AcDbEntity
  8
E-4
  6
Continuous
 62
     7
370
     9
100
AcDbLine
 10
193.4894199834588
 20
-280.6576138592136
 30
0.0
 11
193.4894199834588
 21
-260.843011902106
 31
0.0
  0
LINE
  5
1C7
330
1F
100
AcDbEntity
  8
E-4
  6
Continuous
 62
     7
370
     9
100
AcDbLine
 10
194.3894199834588
 20
-280.6576138592136
 30
0.0
 11
-79.90600296307358
 21
-280.6576138592136
 31
0.0
  0
LINE
  5
1C8
330
1F
100
AcDbEntity
  8
E-4
  6
Continuous
 62
     7
370
     9
100
AcDbLine
 10
194.3894199834588
 20
-260.843011902106
 30
0.0
 11
102.4894354484476
 21
-260.843011902106
 31
0.0
  0
LINE
  5
1C9
330
1F
100
AcDbEntity
  8
E-4
  6
Continuous
 62
     7
370
     9
100
AcDbLine
 10
193.4894199834588
 20
-260.843011902106
 30
0.0
 11
193.4894199834588
 21
-105.8431327941336
 31
0.0
  0
LINE
  5
1CA
330
1F
100
AcDbEntity
  8
E-4
  6
Continuous
 62
     7
370
     9
100
AcDbLine
 10
194.3894199834588
 20
-105.8431327941336
 30
0.0
 11
-52.51054275328227
 21
-105.8431327941336
 31
0.0
  0
TEXT
  5
1CB
330
1F
100
AcDbEntity
  8
E-4
  6
Continuous
 62
     2
370
   211
100
AcDbText
 10
189.9974199834588
 20
-193.0930723481198
 30
0.0
 40
9.144
  1
155
 50
90.0
 41
1.083333333333333
  7
ＭＳ ゴシック
100
AcDbText
  0
TEXT
  5
1CC
330
1F
100
AcDbEntity
  8
E-4
  6
Continuous
 62
     2
370
   211
100
AcDbText
 10
189.9974199834588
 20
-277.1253128806598
 30
0.0
 40
9.144
  1
20
 50
90.0
 41
1.0625
  7
ＭＳ ゴシック
100
AcDbText
  0
LINE
  5
1CD
330
1F
100
AcDbEntity
  8
E-4
  6
Continuous
 62
     7
370
     9
100
AcDbLine
 10
193.4894199834588
 20
-260.843011902106
 30
0.0
 11
194.4683664251092
 21
-268.2788483624096
 31
0.0
  0
LINE
  5
1CE
330
1F
100
AcDbEntity
  8
E-4
  6
Continuous
 62
     7
370
     9
100
AcDbLine
 10
193.4894199834588
 20
-260.843011902106
 30
0.0
 11
192.5104735418084
 21
-268.2788483624096
 31
0.0
  0
LINE
  5
1CF
330
1F
100
AcDbEntity
  8
E-4
  6
Continuous
 62
     7
370
     9
100
AcDbLine
 10
193.4894199834588
 20
-280.6576138592136
 30
0.0
 11
192.5104735418084
 21
-273.22177739891
 31
0.0
  0
LINE
  5
1D0
330
1F
100
AcDbEntity
  8
E-4
  6
Continuous
 62
     7
370
     9
100
AcDbLine
 10
193.4894199834588
 20
-280.6576138592136
 30
0.0
 11
194.4683664251092
 21
-273.22177739891
 31
0.0
  0
LINE
  5
1D1
330
1F
100
AcDbEntity
  8
E-4
  6
Continuous
 62
     7
370
     9
100
AcDbLine
 10
193.4894199834588
 20
-260.843011902106
 30
0.0
 11
192.5104735418084
 21
-253.4071754418024
 31
0.0
  0
LINE
  5
1D2
330
1F
100
AcDbEntity
  8
E-4
  6
Continuous
 62
     7
370
     9
100
AcDbLine
 10
193.4894199834588
 20
-260.843011902106
 30
0.0
 11
194.4683664251092
 21
-253.4071754418024
 31
0.0
  0
LINE
  5
1D3
330
1F
100
AcDbEntity
  8
E-4
  6
Continuous
 62
     7
370
     9
100
AcDbLine
 10
193.4894199834588
 20
-105.8431327941336
 30
0.0
 11
194.4683664251092
 21
-113.2789692544372
 31
0.0
  0
LINE
  5
1D4
330
1F
100
AcDbEntity
  8
E-4
  6
Continuous
 62
     7
370
     9
100
AcDbLine
 10
193.4894199834588
 20
-105.8431327941336
 30
0.0
 11
192.5104735418084
 21
-113.2789692544372
 31
0.0
  0
LINE
  5
1D5
330
1F
100
AcDbEntity
  8
E-4
  6
Continuous
 62
     7
370
     9
100
AcDbLine
 10
133.4894199834588
 20
-108.8430662431313
 30
0.0
 11
134.4683664251092
 21
-116.2789027034349
 31
0.0
  0
LINE
  5
1D6
330
1F
100
AcDbEntity
  8
E-4
  6
Continuous
 62
     7
370
     9
100
AcDbLine
 10
133.4894199834588
 20
-108.8430662431313
 30
0.0
 11
132.5104735418084
 21
-116.2789027034349
 31
0.0
  0
LINE
  5
1D7
330
1F
100
AcDbEntity
  8
E-4
  6
Continuous
 62
     7
370
     9
100
AcDbLine
 10
133.4894199834588
 20
-252.8429886033638
 30
0.0
 11
132.5104735418084
 21
-245.4071521430602
 31
0.0
  0
LINE
  5
1D8
330
1F
100
AcDbEntity
  8
E-4
  6
Continuous
 62
     7
370
     9
100
AcDbLine
 10
133.4894199834588
 20
-252.8429886033638
 30
0.0
 11
134.4683664251092
 21
-245.4071521430602
 31
0.0
  0
LINE
  5
1D9
330
1F
100
AcDbEntity
  8
E-4
  6
Continuous
 62
     7
370
     9
100
AcDbLine
 10
163.4894199834588
 20
-216.0253364005308
 30
0.0
 11
164.4683664251092
 21
-223.4611728608344
 31
0.0
  0
LINE
  5
1DA
330
1F
100
AcDbEntity
  8
E-4
  6
Continuous
 62
     7
370
     9
100
AcDbLine
 10
163.4894199834588
 20
-216.0253364005308
 30
0.0
 11
162.5104735418084
 21
-223.4611728608344
 31
0.0
  0
LINE
  5
1DB
330
1F
100
AcDbEntity
  8
E-4
  6
Continuous
 62
     7
370
     9
100
AcDbLine
 10
163.4894199834588
 20
-260.843011902106
 30
0.0
 11
162.5104735418084
 21
-253.4071754418024
 31
0.0
  0
LINE
  5
1DC
330
1F
100
AcDbEntity
  8
E-4
  6
Continuous
 62
     7
370
     9
100
AcDbLine
 10
163.4894199834588
 20
-260.843011902106
 30
0.0
 11
164.4683664251092
 21
-253.4071754418024
 31
0.0
  0
TEXT
  5
1DD
330
1F
100
AcDbEntity
  8
E-4
  6
Continuous
 62
     2
370
   211
100
AcDbText
 10
159.9974199834588
 20
-244.8091741513184
 30
0.0
 40
9.144
  1
44
 50
90.0
 41
1.0625
  7
ＭＳ ゴシック
100
AcDbText
  0
LINE
  5
1DE
330
1F
100
AcDbEntity
  8
E-4
  6
Continuous
 62
     7
370
     9
100
AcDbLine
 10
133.4894199834588
 20
-260.843011902106
 30
0.0
 11
133.4894199834588
 21
-270.843011902106
 31
0.0
  0
LINE
  5
1DF
330
1F
100
AcDbEntity
  8
E-4
  6
Continuous
 62
     7
370
     9
100
AcDbLine
 10
133.4894199834588
 20
-260.843011902106
 30
0.0
 11
134.4683664251092
 21
-268.2788483624096
 31
0.0
  0
LINE
  5
1E0
330
1F
100
AcDbEntity
  8
E-4
  6
Continuous
 62
     7
370
     9
100
AcDbLine
 10
133.4894199834588
 20
-260.843011902106
 30
0.0
 11
132.5104735418084
 21
-268.2788483624096
 31
0.0
  0
LINE
  5
1E1
330
1F
100
AcDbEntity
  8
E-4
  6
Continuous
 62
     7
370
     9
100
AcDbLine
 10
-96.46979389197668
 20
-76.84314210258408
 30
0.0
 11
-56.51053344483171
 21
-76.84314210258408
 31
0.0
  0
LINE
  5
1E2
330
1F
100
AcDbEntity
  8
E-4
  6
Continuous
 62
     7
370
     9
100
AcDbLine
 10
-96.46979389197668
 20
-75.94314210258408
 30
0.0
 11
-96.46979389197668
 21
-148.846630945169
 31
0.0
  0
TEXT
  5
1E3
330
1F
100
AcDbEntity
  8
E-4
  6
Continuous
 62
     2
370
   211
100
AcDbText
 10
-82.8651636684042
 20
-73.35114210258408
 30
0.0
 40
9.144
  1
40
 41
1.0625
  7
ＭＳ ゴシック
100
AcDbText
  0
LINE
  5
1E4
330
1F
100
AcDbEntity
  8
E-4
  6
Continuous
 62
     7
370
     9
100
AcDbLine
 10
-56.51053344483171
 20
-76.84314210258408
 30
0.0
 11
-48.51061852988698
 21
-76.84314210258408
 31
0.0
  0
LINE
  5
1E5
330
1F
100
AcDbEntity
  8
E-4
  6
Continuous
 62
     7
370
     9
100
AcDbLine
 10
-48.51061852988698
 20
-75.94314210258408
 30
0.0
 11
-48.51061852988698
 21
-103.8717538951448
 31
0.0
  0
TEXT
  5
1E6
330
1F
100
AcDbEntity
  8
E-4
  6
Continuous
 62
     2
370
   211
100
AcDbText
 10
-55.51057598735935
 20
-73.35114210258408
 30
0.0
 40
9.144
  1
8
  7
ＭＳ ゴシック
100
AcDbText
  0
LINE
  5
1E7
330
1F
100
AcDbEntity
  8
E-4
  6
Continuous
 62
     7
370
     9
100
AcDbLine
 10
-48.51061852988698
 20
-76.84314210258408
 30
0.0
 11
95.48933324880477
 21
-76.84314210258408
 31
0.0
  0
LINE
  5
1E8
330
1F
100
AcDbEntity
  8
E-4
  6
Continuous
 62
     7
370
     9
100
AcDbLine
 10
95.48933324880477
 20
-75.94314210258408
 30
0.0
 11
95.48933324880477
 21
-247.842993257589
 31
0.0
  0
TEXT
  5
1E9
330
1F
100
AcDbEntity
  8
E-4
  6
Continuous
 62
     2
370
   211
100
AcDbText
 10
13.73935735945889
 20
-73.35114210258408
 30
0.0
 40
9.144
  1
144
 41
1.083333333333333
  7
ＭＳ ゴシック
100
AcDbText
  0
LINE
  5
1EA
330
1F
100
AcDbEntity
  8
E-4
  6
Continuous
 62
     7
370
     9
100
AcDbLine
 10
95.48933324880477
 20
-76.84314210258408
 30
0.0
 11
88.05349678850119
 21
-77.82208854423448
 31
0.0
  0
LINE
  5
1EB
330
1F
100
AcDbEntity
  8
E-4
  6
Continuous
 62
     7
370
     9
100
AcDbLine
 10
95.48933324880477
 20
-76.84314210258408
 30
0.0
 11
88.05349678850119
 21
-75.86419566093369
 31
0.0
  0
LINE
  5
1EC
330
1F
100
AcDbEntity
  8
E-4
  6
Continuous
 62
     7
370
     9
100
AcDbLine
 10
-48.51061852988698
 20
-76.84314210258408
 30
0.0
 11
-41.07478206958341
 21
-75.86419566093369
 31
0.0
  0
LINE
  5
1ED
330
1F
100
AcDbEntity
  8
E-4
  6
Continuous
 62
     7
370
     9
100
AcDbLine
 10
-48.51061852988698
 20
-76.84314210258408
 30
0.0
 11
-41.07478206958341
 21
-77.82208854423448
 31
0.0
  0
LINE
  5
1EE
330
1F
100
AcDbEntity
  8
E-4
  6
Continuous
 62
     7
370
     9
100
AcDbLine
 10
-56.51053344483171
 20
-76.84314210258408
 30
0.0
 11
-63.94636990513528
 21
-77.82208854423448
 31
0.0
  0
LINE
  5
1EF
330
1F
100
AcDbEntity
  8
E-4
  6
Continuous
 62
     7
370
     9
100
AcDbLine
 10
-56.51053344483171
 20
-76.84314210258408
 30
0.0
 11
-63.94636990513528
 21
-75.86419566093369
 31
0.0
  0
LINE
  5
1F0
330
1F
100
AcDbEntity
  8
E-4
  6
Continuous
 62
     7
370
     9
100
AcDbLine
 10
-96.46979389197668
 20
-76.84314210258408
 30
0.0
 11
-89.0339574316731
 21
-75.86419566093369
 31
0.0
  0
LINE
  5
1F1
330
1F
100
AcDbEntity
  8
E-4
  6
Continuous
 62
     7
370
     9
100
AcDbLine
 10
-96.46979389197668
 20
-76.84314210258408
 30
0.0
 11
-89.0339574316731
 21
-77.82208854423448
 31
0.0
  0
LINE
  5
1F2
330
1F
100
AcDbEntity
  8
E-4
  6
Continuous
 62
     7
370
     9
100
AcDbLine
 10
-56.51053344483171
 20
-51.84314210258407
 30
0.0
 11
98.48943546685834
 21
-51.84314210258407
 31
0.0
  0
LINE
  5
1F3
330
1F
100
AcDbEntity
  8
E-4
  6
Continuous
 62
     7
370
     9
100
AcDbLine
 10
98.48943546685834
 20
-50.94314210258408
 30
0.0
 11
98.48943546685834
 21
-256.8430459839958
 31
0.0
  0
TEXT
  5
1F4
330
1F
100
AcDbEntity
  8
E-4
  6
Continuous
 62
     2
370
   211
100
AcDbText
 10
11.23945101101331
 20
-48.35114210258407
 30
0.0
 40
9.144
  1
155
 41
1.083333333333333
  7
ＭＳ ゴシック
100
AcDbText
  0
LINE
  5
1F5
330
1F
100
AcDbEntity
  8
E-4
  6
Continuous
 62
     7
370
     9
100
AcDbLine
 10
-56.51053344483171
 20
-50.94314210258408
 30
0.0
 11
-56.51053344483171
 21
-101.8431421025841
 31
0.0
  0
LINE
  5
1F6
330
1F
100
AcDbEntity
  8
E-4
  6
Continuous
 62
     7
370
     9
100
AcDbLine
 10
-56.51053344483171
 20
-51.84314210258407
 30
0.0
 11
-49.07469698452813
 21
-50.86419566093369
 31
0.0
  0
LINE
  5
1F7
330
1F
100
AcDbEntity
  8
E-4
  6
Continuous
 62
     7
370
     9
100
AcDbLine
 10
-56.51053344483171
 20
-51.84314210258407
 30
0.0
 11
-49.07469698452813
 21
-52.82208854423446
 31
0.0
  0
LINE
  5
1F8
330
1F
100
AcDbEntity
  8
E-4
  6
Continuous
 62
     7
370
     9
100
AcDbLine
 10
98.48943546685834
 20
-51.84314210258407
 30
0.0
 11
91.05359900655475
 21
-52.82208854423446
 31
0.0
  0
LINE
  5
1F9
330
1F
100
AcDbEntity
  8
E-4
  6
Continuous
 62
     7
370
     9
100
AcDbLine
 10
98.48943546685834
 20
-51.84314210258407
 30
0.0
 11
91.05359900655475
 21
-50.86419566093369
 31
0.0
  0
LINE
  5
1FA
330
1F
100
AcDbEntity
  8
E-4
  6
Continuous
 62
     7
370
     9
100
AcDbLine
 10
-150.7889615195661
 20
-162.9672698195203
 30
0.0
 11
-148.549853353017
 21
-272.9184720595195
 31
0.0
  0
LINE
  5
1FB
330
1F
100
AcDbEntity
  8
E-4
  6
Continuous
 62
     7
370
     9
100
AcDbLine
 10
-151.6887749556536
 20
-162.9855941267772
 30
0.0
 11
-100.7994148805388
 21
-161.9492545560108
 31
0.0
  0
LINE
  5
1FC
330
1F
100
AcDbEntity
  8
E-4
  6
Continuous
 62
     7
370
     9
100
AcDbLine
 10
-149.4496667891044
 20
-272.9367963667764
 30
0.0
 11
-98.56021801482375
 21
-271.9004549896903
 31
0.0
  0
LINE
  5
1FD
330
1F
100
AcDbEntity
  8
E-4
  6
Continuous
 62
     7
370
     9
100
AcDbLine
 10
-150.7889615195661
 20
-162.9672698195203
 30
0.0
 11
-149.6588218379907
 21
-170.3816331974596
 31
0.0
  0
LINE
  5
1FE
330
1F
100
AcDbEntity
  8
E-4
  6
Continuous
 62
     7
370
     9
100
AcDbLine
 10
-150.7889615195661
 20
-162.9672698195203
 30
0.0
 11
-151.6163088633397
 21
-170.4214965649816
 31
0.0
  0
LINE
  5
1FF
330
1F
100
AcDbEntity
  8
E-4
  6
Continuous
 62
     7
370
     9
100
AcDbLine
 10
-148.549853353017
 20
-272.9184720595195
 30
0.0
 11
-149.6799930345924
 21
-265.5041086815801
 31
0.0
  0
LINE
  5
200
330
1F
100
AcDbEntity
  8
E-4
  6
Continuous
 62
     7
370
     9
100
AcDbLine
 10
-148.549853353017
 20
-272.9184720595195
 30
0.0
 11
-147.7225060092434
 21
-265.4642453140582
 31
0.0
  0
LINE
  5
201
330
1F
100
AcDbEntity
  8
E-4
  6
Continuous
 62
     7
370
     9
100
AcDbLine
 10
-104.8708338611342
 20
-217.030535952612
 30
0.0
 11
-105.8930424674343
 21
-209.6005231958796
 31
0.0
  0
LINE
  5
202
330
1F
100
AcDbEntity
  8
E-4
  6
Continuous
 62
     7
370
     9
100
AcDbLine
 10
-104.8708338611342
 20
-217.030535952612
 30
0.0
 11
-103.9351827470174
 21
-209.5891276858488
 31
0.0
  0
LINE
  5
203
330
1F
100
AcDbEntity
  8
E-4
  6
Continuous
 62
     7
370
     9
100
AcDbLine
 10
-104.860597575035
 20
-218.0361125775221
 30
0.0
 11
-105.427292159438
 21
-225.5146724153524
 31
0.0
  0
LINE
  5
204
330
1F
100
AcDbEntity
  8
E-4
  6
Continuous
 62
     7
370
     9
100
AcDbLine
 10
-104.860597575035
 20
-218.0361125775221
 30
0.0
 11
-103.4723887937587
 21
-225.4065180195306
 31
0.0
  0
ARC
  5
205
330
1F
100
AcDbEntity
  8
E-4
  6
Continuous
 62
     7
370
     9
100
AcDbCircle
 10
-55.51060156258477
 20
-216.0253364005308
 30
0.0
 40
49.38070618150917
100
AcDbArc
 50
163.7771989821211
 51
200.4598943947962
  0
TEXT
  5
206
330
1F
100
AcDbEntity
  8
E-4
  6
Continuous
 62
     2
370
     9
100
AcDbText
 10
-107.5765725452012
 20
-251.7667491105879
 30
0.0
 40
9.144
  1
1ﾟ10'
 50
91.75006117493267
 41
1.099999999999999
  7
ＭＳ ゴシック
100
AcDbText
  0
LINE
  5
207
330
1F
100
AcDbEntity
  8
E-5
  6
Continuous
 62
     7
370
     9
100
AcDbLine
 10
-143.8582193768707
 20
-29.49544851169342
 30
0.0
 11
-67.51053509443045
 21
-105.8431327941336
 31
0.0
  0
LINE
  5
208
330
1F
100
AcDbEntity
  8
E-5
  6
Continuous
 62
     7
370
     9
100
AcDbLine
 10
-124.6507746225242
 20
-79.49544851169344
 30
0.0
 11
-84.32802158127038
 21
-119.8182015529472
 31
0.0
  0
LINE
  5
209
330
1F
100
AcDbEntity
  8
E-4
  6
Continuous
 62
     7
370
     9
100
AcDbLine
 10
-84.32802158127055
 20
-119.8182015529472
 30
0.0
 11
-88.89373229883597
 21
-113.8680515007629
 31
0.0
  0
LINE
  5
20A
330
1F
100
AcDbEntity
  8
E-4
  6
Continuous
 62
     7
370
     9
100
AcDbLine
 10
-84.32802158127055
 20
-119.8182015529472
 30
0.0
 11
-90.27817163345486
 21
-115.2524908353818
 31
0.0
  0
LINE
  5
20B
330
1F
100
AcDbEntity
  8
E-4
  6
Continuous
 62
     7
370
     9
100
AcDbLine
 10
-67.51053509443062
 20
-105.8431327941336
 30
0.0
 11
-72.07624581199605
 21
-99.89298274194937
 31
0.0
  0
LINE
  5
20C
330
1F
100
AcDbEntity
  8
E-4
  6
Continuous
 62
     7
370
     9
100
AcDbLine
 10
-67.51053509443062
 20
-105.8431327941336
 30
0.0
 11
-73.46068514661494
 21
-101.2774220765682
 31
0.0
  0
LINE
  5
20D
330
1F
100
AcDbEntity
  8
E-4
  6
Continuous
 62
     7
370
     9
100
AcDbLine
 10
170.7946685241998
 20
-32.52444868741712
 30
0.0
 11
-11.12637359889294
 21
-214.4454908105098
 31
0.0
  0
LINE
  5
20E
330
1F
100
AcDbEntity
  8
E-4
  6
Continuous
 62
     7
370
     9
100
AcDbLine
 10
-11.12637359889294
 20
-214.4454908105098
 30
0.0
 11
-6.560662881327687
 21
-208.4953407583255
 31
0.0
  0
LINE
  5
20F
330
1F
100
AcDbEntity
  8
E-4
  6
Continuous
 62
     7
370
     9
100
AcDbLine
 10
-11.12637359889294
 20
-214.4454908105098
 30
0.0
 11
-5.176223546708798
 21
-209.8797800929443
 31
0.0
  0
LINE
  5
210
330
1F
100
AcDbEntity
  8
E-4
  6
Continuous
 62
     7
370
     9
100
AcDbLine
 10
-37.92140102977066
 20
-150.8637213192579
 30
0.0
 11
-33.35569031220541
 21
-144.9135712670736
 31
0.0
  0
LINE
  5
211
330
1F
100
AcDbEntity
  8
E-4
  6
Continuous
 62
     7
370
     9
100
AcDbLine
 10
-37.92140102977066
 20
-150.8637213192579
 30
0.0
 11
-31.97125097758652
 21
-146.2980106016925
 31
0.0
  0
LINE
  5
212
330
1F
100
AcDbEntity
  8
E-0
  6
JWW_CENTER1
 62
     4
370
     9
100
AcDbLine
 10
-104.4111738229249
 20
209.6571478733224
 30
0.0
 11
104.4112480548716
 21
209.6571478733224
 31
0.0
  0
LINE
  5
213
330
1F
100
AcDbEntity
  8
E-0
  6
Continuous
 62
     4
370
     9
100
AcDbLine
 10
-58.31151294126113
 20
77.97670544620638
 30
0.0
 11
-67.51053509443062
 21
77.15685324319071
 31
0.0
  0
LINE
  5
214
330
1F
100
AcDbEntity
  8
E-0
  6
Continuous
 62
     4
370
     9
100
AcDbLine
 10
-96.2481211563574
 20
147.6571565926304
 30
0.0
 11
-88.57202141595718
 21
147.6571565926304
 31
0.0
  0
LINE
  5
215
330
1F
100
AcDbEntity
  8
E-0
  6
Continuous
 62
     4
370
     9
100
AcDbLine
 10
-72.51053359211727
 20
149.5385506733043
 30
0.0
 11
-72.51053359211727
 21
166.8767376958632
 31
0.0
  0
LINE
  5
216
330
1F
100
AcDbEntity
  8
E-0
  6
Continuous
 62
     4
370
     9
100
AcDbLine
 10
-71.70291946815797
 20
148.5572747392543
 30
0.0
 11
-67.51053509443062
 21
147.7353911142091
 31
0.0
  0
LINE
  5
217
330
1F
100
AcDbEntity
  8
E-0
  6
Continuous
 62
     4
370
     9
100
AcDbLine
 10
-71.65899616012803
 20
167.8656933961227
 30
0.0
 11
-67.51053509443062
 21
168.4885472091468
 31
0.0
  0
LINE
  5
218
330
1F
100
AcDbEntity
  8
E-0
  6
Continuous
 62
     4
370
     9
100
AcDbLine
 10
-88.24976851643379
 20
145.6571472841799
 30
0.0
 11
-67.51053509443062
 21
145.6571472841799
 31
0.0
  0
LINE
  5
219
330
1F
100
AcDbEntity
  8
E-0
  6
JWW_CENTER1
 62
     4
370
     9
100
AcDbLine
 10
-55.01292948711426
 20
92.15687350969046
 30
0.0
 11
-99.31819440561475
 21
92.15687350969046
 31
0.0
  0
ARC
  5
21A
330
1F
100
AcDbEntity
  8
E-0
  6
Continuous
 62
     4
370
     9
100
AcDbCircle
 10
-58.51059230016091
 20
79.96680537890273
 30
0.0
 40
2.000000018410701
100
AcDbArc
 50
275.7102966308594
 51
0.0000000000000382
  0
ARC
  5
21B
330
1F
100
AcDbEntity
  8
E-0
  6
Continuous
 62
     4
370
     9
100
AcDbCircle
 10
88.48942298808515
 20
88.156755799032
 30
0.0
 40
10.0000000920535
100
AcDbArc
 50
270.0
 51
0.0
  0
ARC
  5
21C
330
1F
100
AcDbEntity
  8
E-0
  6
Continuous
 62
     4
370
     9
100
AcDbCircle
 10
88.48942298808515
 20
87.15685023856429
 30
0.0
 40
10.0000000920535
100
AcDbArc
 50
270.0
 51
0.0
  0
ARC
  5
21D
330
1F
100
AcDbEntity
  8
E-0
  6
Continuous
 62
     4
370
     9
100
AcDbCircle
 10
-71.51052893789216
 20
166.8767376958632
 30
0.0
 40
1.00000000920535
100
AcDbArc
 50
98.53848266601564
 51
180.0
  0
ARC
  5
21E
330
1F
100
AcDbEntity
  8
E-0
  6
Continuous
 62
     4
370
     9
100
AcDbCircle
 10
-71.51052893789216
 20
149.5385506733043
 30
0.0
 40
1.00000000920535
100
AcDbArc
 50
180.0
 51
258.9072113037109
  0
ELLIPSE
  5
21F
330
1F
100
AcDbEntity
  8
E-0
  6
Continuous
 62
     4
370
     9
100
AcDbEllipse
 10
-96.2481211563574
 20
209.6571478733224
 30
0.0
 11
3.796404543453161E-15
 21
-61.99999128069197
 31
0.0
210
0.0
220
0.0
230
1.0
 40
0.0203
 41
4.71238898038469
 42
6.283185307179586
  0
ELLIPSE
  5
220
330
1F
100
AcDbEntity
  8
E-0
  6
Continuous
 62
     4
370
     9
100
AcDbEllipse
 10
-88.24976851643379
 20
209.6571478733224
 30
0.0
 11
3.918869793346099E-15
 21
-64.00000058914243
 31
0.0
210
0.0
220
0.0
230
1.0
 40
0.0203
 41
4.71238898038469
 42
6.283185307179586
  0
LINE
  5
221
330
1F
100
AcDbEntity
  8
E-A
  6
Continuous
 62
     2
370
     9
100
AcDbLine
 10
-69.49513532358344
 20
89.235391349866
 30
0.0
 11
-73.82578026252003
 21
94.87432162273791
 31
0.0
  0
LINE
  5
222
330
1F
100
AcDbEntity
  8
E-A
  6
Continuous
 62
     2
370
     9
100
AcDbLine
 10
-70.16446410889426
 20
94.20692516569915
 30
0.0
 11
-96.83108973197119
 21
92.27702469070897
 31
0.0
  0
LINE
  5
223
330
1F
100
AcDbEntity
  8
E-A
  6
Continuous
 62
     2
370
     9
100
AcDbLine
 10
-90.74504842507434
 20
90.86290722371979
 30
0.0
 11
-92.71894652841257
 21
93.43310201306127
 31
0.0
  0
LINE
  5
224
330
1F
100
AcDbEntity
  8
E-A
  6
Continuous
 62
     2
370
     9
100
AcDbLine
 10
-85.55714338965038
 20
90.61824473635102
 30
0.0
 11
-87.82138620258382
 21
93.56648221071151
 31
0.0
  0
LINE
  5
225
330
1F
100
AcDbEntity
  8
E-A
  6
Continuous
 62
     2
370
     9
100
AcDbLine
 10
-80.33614103920758
 20
90.33047646445186
 30
0.0
 11
-83.06647134073552
 21
93.88561365687235
 31
0.0
  0
LINE
  5
226
330
1F
100
AcDbEntity
  8
E-A
  6
Continuous
 62
     2
370
     9
100
AcDbLine
 10
-74.82474443229108
 20
89.66456641377619
 30
0.0
 11
-78.49240258639946
 21
94.44019187095068
 31
0.0
  0
LINE
  5
227
330
1F
100
AcDbEntity
  8
E-A
  6
Continuous
 62
     2
370
     9
100
AcDbLine
 10
-70.16446410889426
 20
90.10692094743933
 30
0.0
 11
-96.73883344370068
 21
92.15687350969046
 31
0.0
  0
LINE
  5
228
330
1F
100
AcDbEntity
  8
E-A
  6
Continuous
 62
     2
370
     9
100
AcDbLine
 10
-67.51053509443062
 20
94.20692516569915
 30
0.0
 11
-70.16446410889426
 21
94.20692516569915
 31
0.0
  0
LINE
  5
229
330
1F
100
AcDbEntity
  8
E-A
  6
Continuous
 62
     2
370
     9
100
AcDbLine
 10
-67.51053509443062
 20
90.10692094743933
 30
0.0
 11
-70.16446410889426
 21
90.10692094743933
 31
0.0
  0
LINE
  5
22A
330
1F
100
AcDbEntity
  8
E-0
  6
JWW_DASHED2
 62
     4
370
     9
100
AcDbLine
 10
-56.51053344483171
 20
96.65691922714342
 30
0.0
 11
-57.51053809905699
 21
96.65691922714342
 31
0.0
  0
LINE
  5
22B
330
1F
100
AcDbEntity
  8
E-0
  6
JWW_DASHED2
 62
     4
370
     9
100
AcDbLine
 10
-56.51063253858933
 20
87.65692688599506
 30
0.0
 11
-57.51053809905699
 21
87.65692688599506
 31
0.0
  0
LINE
  5
22C
330
1F
100
AcDbEntity
  8
E-0
  6
JWW_DASHED2
 62
     4
370
     9
100
AcDbLine
 10
-58.66522810880372
 20
89.65688664756675
 30
0.0
 11
-57.51053809905699
 21
87.65692688599506
 31
0.0
  0
LINE
  5
22D
330
1F
100
AcDbEntity
  8
E-0
  6
JWW_DASHED2
 62
     4
370
     9
100
AcDbLine
 10
-58.66522810880372
 20
94.65690991869292
 30
0.0
 11
-57.51053809905699
 21
96.65691922714342
 31
0.0
  0
LINE
  5
22E
330
1F
100
AcDbEntity
  8
E-0
  6
JWW_DASHED2
 62
     4
370
     9
100
AcDbLine
 10
-57.51053809905699
 20
96.65691922714342
 30
0.0
 11
-57.51053809905699
 21
95.66419796409741
 31
0.0
  0
LINE
  5
22F
330
1F
100
AcDbEntity
  8
E-0
  6
JWW_DASHED2
 62
     4
370
     9
100
AcDbLine
 10
-57.51053809905699
 20
88.64959860216226
 30
0.0
 11
-57.51053809905699
 21
87.65692688599506
 31
0.0
  0
LINE
  5
230
330
1F
100
AcDbEntity
  8
E-0
  6
JWW_DASHED2
 62
     4
370
     9
100
AcDbLine
 10
-58.66522810880372
 20
89.65688664756675
 30
0.0
 11
-67.51053509443062
 21
89.65688664756675
 31
0.0
  0
LINE
  5
231
330
1F
100
AcDbEntity
  8
E-0
  6
JWW_DASHED2
 62
     4
370
     9
100
AcDbLine
 10
-58.66522810880372
 20
94.65690991869292
 30
0.0
 11
-67.51053509443062
 21
94.65690991869292
 31
0.0
  0
LINE
  5
232
330
1F
100
AcDbEntity
  8
E-A
  6
JWW_DASHED2
 62
     2
370
     9
100
AcDbLine
 10
-56.83110175047699
 20
96.25687772795027
 30
0.0
 11
-59.18111021056239
 21
94.20692516569915
 31
0.0
  0
LINE
  5
233
330
1F
100
AcDbEntity
  8
E-A
  6
JWW_DASHED2
 62
     2
370
     9
100
AcDbLine
 10
-59.18111021056239
 20
90.10692094743933
 30
0.0
 11
-56.83110175047699
 21
88.05686929143064
 31
0.0
  0
LINE
  5
234
330
1F
100
AcDbEntity
  8
E-A
  6
JWW_DASHED2
 62
     2
370
     9
100
AcDbLine
 10
-56.83110175047699
 20
96.25687772795027
 30
0.0
 11
-56.83110175047699
 21
88.05686929143064
 31
0.0
  0
LINE
  5
235
330
1F
100
AcDbEntity
  8
E-A
  6
JWW_DASHED2
 62
     2
370
     9
100
AcDbLine
 10
-59.18111021056239
 20
94.20692516569915
 30
0.0
 11
-59.18111021056239
 21
90.10692094743933
 31
0.0
  0
LINE
  5
236
330
1F
100
AcDbEntity
  8
E-A
  6
JWW_DASHED2
 62
     2
370
     9
100
AcDbLine
 10
-59.18111021056239
 20
90.10692094743933
 30
0.0
 11
-67.51053509443062
 21
90.10692094743933
 31
0.0
  0
LINE
  5
237
330
1F
100
AcDbEntity
  8
E-A
  6
JWW_DASHED2
 62
     2
370
     9
100
AcDbLine
 10
-59.18111021056239
 20
94.20692516569915
 30
0.0
 11
-67.51053509443062
 21
94.20692516569915
 31
0.0
  0
LINE
  5
238
330
1F
100
AcDbEntity
  8
E-0
  6
Continuous
 62
     4
370
     9
100
AcDbLine
 10
88.48942298808515
 20
78.15675880365842
 30
0.0
 11
-57.65977329791377
 21
78.15675880365842
 31
0.0
  0
LINE
  5
239
330
1F
100
AcDbEntity
  8
E-0
  6
Continuous
 62
     4
370
     9
100
AcDbLine
 10
88.48942298808515
 20
77.15685324319071
 30
0.0
 11
-67.51053509443062
 21
77.15685324319071
 31
0.0
  0
LINE
  5
23A
330
1F
100
AcDbEntity
  8
E-A
  6
Continuous
 62
     2
370
     9
100
AcDbLine
 10
-39.91060730267299
 20
203.6572190417285
 30
0.0
 11
-41.51089716664239
 21
203.6572190417285
 31
0.0
  0
LINE
  5
23B
330
1F
100
AcDbEntity
  8
E-1
  6
Continuous
 62
     6
370
     9
100
AcDbLine
 10
65.98947929537354
 20
121.1569093884647
 30
0.0
 11
65.98947929537354
 21
157.1570769405732
 31
0.0
  0
LINE
  5
23C
330
1F
100
AcDbEntity
  8
E-1
  6
Continuous
 62
     6
370
     9
100
AcDbLine
 10
70.98945301962095
 20
170.1571869923801
 30
0.0
 11
65.19291412538001
 21
167.1571234828256
 31
0.0
  0
LINE
  5
23D
330
1F
100
AcDbEntity
  8
E-1
  6
Continuous
 62
     6
370
     9
100
AcDbLine
 10
65.98947929537354
 20
157.1570769405732
 30
0.0
 11
70.98945301962095
 21
157.1570769405732
 31
0.0
  0
LINE
  5
23E
330
1F
100
AcDbEntity
  8
E-1
  6
Continuous
 62
     6
370
     9
100
AcDbLine
 10
65.98947929537354
 20
170.1571869923801
 30
0.0
 11
70.98945301962095
 21
170.1571869923801
 31
0.0
  0
LINE
  5
23F
330
1F
100
AcDbEntity
  8
E-1
  6
Continuous
 62
     6
370
     9
100
AcDbLine
 10
65.98947929537354
 20
203.1571919411765
 30
0.0
 11
70.98945301962095
 21
203.1571919411765
 31
0.0
  0
LINE
  5
240
330
1F
100
AcDbEntity
  8
E-1
  6
Continuous
 62
     6
370
     9
100
AcDbLine
 10
70.98945301962095
 20
170.1571869923801
 30
0.0
 11
70.98945301962095
 21
203.1571919411765
 31
0.0
  0
LINE
  5
241
330
1F
100
AcDbEntity
  8
E-1
  6
Continuous
 62
     6
370
     9
100
AcDbLine
 10
65.98947929537354
 20
170.1571869923801
 30
0.0
 11
65.98947929537354
 21
203.1571919411765
 31
0.0
  0
LINE
  5
242
330
1F
100
AcDbEntity
  8
E-1
  6
Continuous
 62
     6
370
     9
100
AcDbLine
 10
34.33873494925558
 20
78.15685789741593
 30
0.0
 11
34.33873494925558
 21
84.65661564204675
 31
0.0
  0
LINE
  5
243
330
1F
100
AcDbEntity
  8
E-1
  6
Continuous
 62
     6
370
     9
100
AcDbLine
 10
26.3387472623325
 20
78.15685789741593
 30
0.0
 11
26.3387472623325
 21
84.65661564204675
 31
0.0
  0
LINE
  5
244
330
1F
100
AcDbEntity
  8
E-1
  6
Continuous
 62
     6
370
     9
100
AcDbLine
 10
81.72234744576804
 20
84.65661564204675
 30
0.0
 11
34.33873494925558
 21
84.65661564204675
 31
0.0
  0
LINE
  5
245
330
1F
100
AcDbEntity
  8
E-1
  6
Continuous
 62
     6
370
     9
100
AcDbLine
 10
1.380101644232468
 20
112.1571152348315
 30
0.0
 11
1.380101644232468
 21
119.6569271805663
 31
0.0
  0
LINE
  5
246
330
1F
100
AcDbEntity
  8
E-1
  6
Continuous
 62
     6
370
     9
100
AcDbLine
 10
-6.619638308296715
 20
118.1568458789103
 30
0.0
 11
-41.51089716664239
 21
118.1568458789103
 31
0.0
  0
LINE
  5
247
330
1F
100
AcDbEntity
  8
E-1
  6
Continuous
 62
     6
370
     9
100
AcDbLine
 10
-41.51089716664239
 20
119.6569271805663
 30
0.0
 11
-6.619638308296715
 21
119.6569271805663
 31
0.0
  0
LINE
  5
248
330
1F
100
AcDbEntity
  8
E-1
  6
Continuous
 62
     6
370
     9
100
AcDbLine
 10
-6.619638308296715
 20
112.1571152348315
 30
0.0
 11
-6.619638308296715
 21
119.6569271805663
 31
0.0
  0
LINE
  5
249
330
1F
100
AcDbEntity
  8
E-1
  6
Continuous
 62
     6
370
     9
100
AcDbLine
 10
65.61287346983892
 20
112.1571152348315
 30
0.0
 11
68.97269686614607
 21
113.322656011029
 31
0.0
  0
LINE
  5
24A
330
1F
100
AcDbEntity
  8
E-1
  6
Continuous
 62
     6
370
     9
100
AcDbLine
 10
70.98945301962095
 20
116.1571338517324
 30
0.0
 11
70.98945301962095
 21
157.1570769405732
 31
0.0
  0
LINE
  5
24B
330
1F
100
AcDbEntity
  8
E-1
  6
Continuous
 62
     6
370
     9
100
AcDbLine
 10
13.60316799628151
 20
118.2583178866323
 30
0.0
 11
1.380101644232468
 21
119.6569271805663
 31
0.0
  0
LINE
  5
24C
330
1F
100
AcDbEntity
  8
E-1
  6
Continuous
 62
     6
370
     9
100
AcDbLine
 10
14.48951211060711
 20
114.0836960689441
 30
0.0
 11
14.48951211060711
 21
117.264803873526
 31
0.0
  0
LINE
  5
24D
330
1F
100
AcDbEntity
  8
E-1
  6
Continuous
 62
     6
370
     9
100
AcDbLine
 10
13.56556191529461
 20
113.0866146805663
 30
0.0
 11
1.380101644232468
 21
112.1571152348315
 31
0.0
  0
LINE
  5
24E
330
1F
100
AcDbEntity
  8
E-1
  6
Continuous
 62
     6
370
     9
100
AcDbLine
 10
62.98951487957652
 20
118.1568458789103
 30
0.0
 11
13.94132544389026
 21
118.1568458789103
 31
0.0
  0
LINE
  5
24F
330
1F
100
AcDbEntity
  8
E-1
  6
Continuous
 62
     6
370
     9
100
AcDbLine
 10
67.98943905694529
 20
113.1570703421779
 30
0.0
 11
13.86541962561375
 21
113.1570703421779
 31
0.0
  0
LINE
  5
250
330
1F
100
AcDbEntity
  8
E-1
  6
Continuous
 62
     6
370
     9
100
AcDbLine
 10
56.10492652753533
 20
119.2627322130681
 30
0.0
 11
64.09659033882497
 21
118.3685101450179
 31
0.0
  0
LINE
  5
251
330
1F
100
AcDbEntity
  8
E-1
  6
Continuous
 62
     6
370
     9
100
AcDbLine
 10
40.6947571985732
 20
83.32321004057474
 30
0.0
 11
34.33873494925558
 21
84.65661564204675
 31
0.0
  0
LINE
  5
252
330
1F
100
AcDbEntity
  8
E-1
  6
Continuous
 62
     6
370
     9
100
AcDbLine
 10
41.48948913405218
 20
80.02675710221502
 30
0.0
 11
41.48948913405218
 21
82.3445600910996
 31
0.0
  0
LINE
  5
253
330
1F
100
AcDbEntity
  8
E-1
  6
Continuous
 62
     6
370
     9
100
AcDbLine
 10
40.62796800599062
 20
79.03631499559253
 30
0.0
 11
34.33873494925558
 21
78.15685789741593
 31
0.0
  0
LINE
  5
254
330
1F
100
AcDbEntity
  8
E-1
  6
Continuous
 62
     6
370
     9
100
AcDbLine
 10
86.48930219915769
 20
83.15653434039069
 30
0.0
 11
41.07319625862237
 21
83.15653434039069
 31
0.0
  0
LINE
  5
255
330
1F
100
AcDbEntity
  8
E-1
  6
Continuous
 62
     6
370
     9
100
AcDbLine
 10
-50.2897617878379
 20
78.73695275406106
 30
0.0
 11
-55.51038014997016
 21
78.15685789741593
 31
0.0
  0
LINE
  5
256
330
1F
100
AcDbEntity
  8
E-1
  6
Continuous
 62
     6
370
     9
100
AcDbLine
 10
26.3387472623325
 20
79.1568130047624
 30
0.0
 11
-49.26891028437001
 21
79.1568130047624
 31
0.0
  0
LINE
  5
257
330
1F
100
AcDbEntity
  8
E-1
  6
Continuous
 62
     6
370
     9
100
AcDbLine
 10
26.3387472623325
 20
83.15653434039069
 30
0.0
 11
-48.51062007822668
 21
83.15653434039069
 31
0.0
  0
LINE
  5
258
330
1F
100
AcDbEntity
  8
E-1
  6
Continuous
 62
     6
370
     9
100
AcDbLine
 10
26.3387472623325
 20
84.65661564204675
 30
0.0
 11
-48.51062007822668
 21
84.65661564204675
 31
0.0
  0
LINE
  5
259
330
1F
100
AcDbEntity
  8
E-1
  6
Continuous
 62
     6
370
     9
100
AcDbLine
 10
-43.32986218006545
 20
112.991682860842
 30
0.0
 11
-48.51062007822668
 21
112.520789325007
 31
0.0
  0
LINE
  5
25A
330
1F
100
AcDbEntity
  8
E-1
  6
Continuous
 62
     6
370
     9
100
AcDbLine
 10
-42.69600895995427
 20
113.1570703421779
 30
0.0
 11
-6.619638308296715
 21
113.1570703421779
 31
0.0
  0
LINE
  5
25B
330
1F
100
AcDbEntity
  8
E-1
  6
Continuous
 62
     6
370
     9
100
AcDbLine
 10
65.19291412538001
 20
206.1571563569735
 30
0.0
 11
70.98945301962095
 21
203.1571919411765
 31
0.0
  0
LINE
  5
25C
330
1F
100
AcDbEntity
  8
E-1
  6
Continuous
 62
     6
370
     9
100
AcDbLine
 10
-6.619638308296715
 20
112.1571152348315
 30
0.0
 11
-48.51062007822668
 21
112.1571152348315
 31
0.0
  0
LINE
  5
25D
330
1F
100
AcDbEntity
  8
E-1
  6
Continuous
 62
     6
370
     9
100
AcDbLine
 10
65.61287346983892
 20
112.1571152348315
 30
0.0
 11
1.380101644232468
 21
112.1571152348315
 31
0.0
  0
LINE
  5
25E
330
1F
100
AcDbEntity
  8
E-1
  6
Continuous
 62
     6
370
     9
100
AcDbLine
 10
65.19291412538001
 20
160.1571404501277
 30
0.0
 11
70.98945301962095
 21
157.1570769405732
 31
0.0
  0
LINE
  5
25F
330
1F
100
AcDbEntity
  8
E-1
  6
Continuous
 62
     6
370
     9
100
AcDbLine
 10
88.72238002534448
 20
99.65693318981911
 30
0.0
 11
95.48944318094232
 21
99.65693318981911
 31
0.0
  0
LINE
  5
260
330
1F
100
AcDbEntity
  8
E-1
  6
Continuous
 62
     6
370
     9
100
AcDbLine
 10
87.67114389847063
 20
99.35836369834801
 30
0.0
 11
92.43829683937537
 21
97.858282396692
 31
0.0
  0
LINE
  5
261
330
1F
100
AcDbEntity
  8
E-1
  6
Continuous
 62
     6
370
     9
100
AcDbLine
 10
93.48948341937057
 20
98.15695098192066
 30
0.0
 11
95.48944318094232
 21
98.15695098192066
 31
0.0
  0
LINE
  5
262
330
1F
100
AcDbEntity
  8
E-1
  6
Continuous
 62
     6
370
     9
100
AcDbLine
 10
91.48947411092001
 20
96.15684257971265
 30
0.0
 11
91.48947411092001
 21
88.15660715839567
 31
0.0
  0
LINE
  5
263
330
1F
100
AcDbEntity
  8
E-1
  6
Continuous
 62
     6
370
     9
100
AcDbLine
 10
85.48939663868987
 20
78.15685789741593
 30
0.0
 11
-55.51038014997016
 21
78.15685789741593
 31
0.0
  0
LINE
  5
264
330
1F
100
AcDbEntity
  8
E-1
  6
Continuous
 62
     6
370
     9
100
AcDbLine
 10
38.31829070522429
 20
119.6569271805663
 30
0.0
 11
1.380101644232468
 21
119.6569271805663
 31
0.0
  0
LINE
  5
265
330
1F
100
AcDbEntity
  8
E-1
  6
Continuous
 62
     6
370
     9
100
AcDbLine
 10
42.48944424139864
 20
119.1568009862567
 30
0.0
 11
55.55133925103229
 21
119.1568009862567
 31
0.0
  0
LINE
  5
266
330
1F
100
AcDbEntity
  8
E-1
  6
Continuous
 62
     6
370
     9
100
AcDbLine
 10
38.31829070522429
 20
119.6569271805663
 30
0.0
 11
42.48944424139864
 21
119.1568009862567
 31
0.0
  0
LINE
  5
267
330
1F
100
AcDbEntity
  8
E-1
  6
Continuous
 62
     6
370
     9
100
AcDbLine
 10
86.72237071689409
 20
97.65692388136864
 30
0.0
 11
86.72237071689409
 21
89.65658936629416
 31
0.0
  0
LINE
  5
268
330
1F
100
AcDbEntity
  8
E-1
  6
Continuous
 62
     6
370
     9
100
AcDbLine
 10
85.48939663868987
 20
79.1568130047624
 30
0.0
 11
40.98272365798744
 21
79.1568130047624
 31
0.0
  0
LINE
  5
269
330
1F
100
AcDbEntity
  8
E-1
  6
Continuous
 62
     6
370
     9
100
AcDbLine
 10
38.31829070522429
 20
121.1572066697374
 30
0.0
 11
38.31829070522429
 21
120.5442126855886
 31
0.0
  0
LINE
  5
26A
330
1F
100
AcDbEntity
  8
E-1
  6
Continuous
 62
     6
370
     9
100
AcDbLine
 10
42.48944424139864
 20
121.1572066697374
 30
0.0
 11
42.48944424139864
 21
120.1567560936032
 31
0.0
  0
LINE
  5
26B
330
1F
100
AcDbEntity
  8
E-1
  6
Continuous
 62
     6
370
     9
100
AcDbLine
 10
57.05132145893072
 20
121.1572066697374
 30
0.0
 11
57.05132145893072
 21
120.6567831941552
 31
0.0
  0
LINE
  5
26C
330
1F
100
AcDbEntity
  8
E-1
  6
Continuous
 62
     6
370
     9
100
AcDbLine
 10
64.4894227671569
 20
157.5004368104529
 30
0.0
 11
65.98947929537354
 21
157.1570769405732
 31
0.0
  0
LINE
  5
26D
330
1F
100
AcDbEntity
  8
E-1
  6
Continuous
 62
     6
370
     9
100
AcDbLine
 10
64.4894227671569
 20
160.1571404501277
 30
0.0
 11
65.19291412538001
 21
160.1571404501277
 31
0.0
  0
LINE
  5
26E
330
1F
100
AcDbEntity
  8
E-1
  6
Continuous
 62
     6
370
     9
100
AcDbLine
 10
64.4894227671569
 20
169.8137775756217
 30
0.0
 11
65.98947929537354
 21
170.1571869923801
 31
0.0
  0
LINE
  5
26F
330
1F
100
AcDbEntity
  8
E-1
  6
Continuous
 62
     6
370
     9
100
AcDbLine
 10
64.4894227671569
 20
167.1571234828256
 30
0.0
 11
65.19291412538001
 21
167.1571234828256
 31
0.0
  0
LINE
  5
270
330
1F
100
AcDbEntity
  8
E-1
  6
Continuous
 62
     6
370
     9
100
AcDbLine
 10
64.4894227671569
 20
203.5004527172986
 30
0.0
 11
65.98947929537354
 21
203.1571919411765
 31
0.0
  0
LINE
  5
271
330
1F
100
AcDbEntity
  8
E-1
  6
Continuous
 62
     6
370
     9
100
AcDbLine
 10
64.4894227671569
 20
206.1571563569735
 30
0.0
 11
65.19291412538001
 21
206.1571563569735
 31
0.0
  0
ARC
  5
272
330
1F
100
AcDbEntity
  8
E-1
  6
Continuous
 62
     6
370
     9
100
AcDbCircle
 10
85.48939663868987
 20
88.15690443966827
 30
0.0
 40
9.999999317883525
100
AcDbArc
 50
270.0
 51
0.0
  0
ARC
  5
273
330
1F
100
AcDbEntity
  8
E-1
  6
Continuous
 62
     6
370
     9
100
AcDbCircle
 10
86.48930219915769
 20
88.15660715839567
 30
0.0
 40
4.999999658941762
100
AcDbArc
 50
270.0
 51
0.0
  0
ARC
  5
274
330
1F
100
AcDbEntity
  8
E-1
  6
Continuous
 62
     6
370
     9
100
AcDbCircle
 10
62.98951487957652
 20
121.1569093884647
 30
0.0
 40
3.000000027616052
100
AcDbArc
 50
270.0
 51
0.0
  0
ARC
  5
275
330
1F
100
AcDbEntity
  8
E-1
  6
Continuous
 62
     6
370
     9
100
AcDbCircle
 10
67.98943905694529
 20
116.1571338517324
 30
0.0
 40
3.000000027616052
100
AcDbArc
 50
270.0
 51
0.0
  0
ARC
  5
276
330
1F
100
AcDbEntity
  8
E-1
  6
Continuous
 62
     6
370
     9
100
AcDbCircle
 10
13.48950745638183
 20
117.264803873526
 30
0.0
 40
1.00000000920535
100
AcDbArc
 50
0.0
 51
83.47337341308594
  0
ARC
  5
277
330
1F
100
AcDbEntity
  8
E-1
  6
Continuous
 62
     6
370
     9
100
AcDbCircle
 10
13.48950745638183
 20
114.0836960689441
 30
0.0
 40
1.00000000920535
100
AcDbArc
 50
274.3611755371094
 51
0.0
  0
ARC
  5
278
330
1F
100
AcDbEntity
  8
E-1
  6
Continuous
 62
     6
370
     9
100
AcDbCircle
 10
55.55133925103229
 20
120.6567831941552
 30
0.0
 40
1.500000013808026
100
AcDbArc
 50
270.0
 51
0.0
  0
ARC
  5
279
330
1F
100
AcDbEntity
  8
E-1
  6
Continuous
 62
     6
370
     9
100
AcDbCircle
 10
40.48948447982707
 20
82.3445600910996
 30
0.0
 40
1.00000000920535
100
AcDbArc
 50
0.0
 51
78.15409851074217
  0
ARC
  5
27A
330
1F
100
AcDbEntity
  8
E-1
  6
Continuous
 62
     6
370
     9
100
AcDbCircle
 10
40.48948447982707
 20
80.02675710221502
 30
0.0
 40
1.00000000920535
100
AcDbArc
 50
277.9594116210938
 51
0.0
  0
ARC
  5
27B
330
1F
100
AcDbEntity
  8
E-1
  6
Continuous
 62
     6
370
     9
100
AcDbCircle
 10
93.48948341937057
 20
96.15684257971265
 30
0.0
 40
2.000000018410701
100
AcDbArc
 50
90.0
 51
180.0
  0
ARC
  5
27C
330
1F
100
AcDbEntity
  8
E-1
  6
Continuous
 62
     6
370
     9
100
AcDbCircle
 10
-50.51060461323766
 20
80.72467443657649
 30
0.0
 40
2.000000018410701
100
AcDbArc
 50
276.3399505615234
 51
0.0
  0
ARC
  5
27D
330
1F
100
AcDbEntity
  8
E-1
  6
Continuous
 62
     6
370
     9
100
AcDbCircle
 10
-43.51090647509278
 20
114.9834673874165
 30
0.0
 40
2.000000018410701
100
AcDbArc
 50
275.1943664550781
 51
0.0000000000000127
  0
ARC
  5
27E
330
1F
100
AcDbEntity
  8
E-1
  6
Continuous
 62
     6
370
     9
100
AcDbCircle
 10
88.72238002534448
 20
97.65692388136864
 30
0.0
 40
2.000000018410701
100
AcDbArc
 50
90.0
 51
180.0
  0
ARC
  5
27F
330
1F
100
AcDbEntity
  8
E-1
  6
Continuous
 62
     6
370
     9
100
AcDbCircle
 10
-53.51045754855744
 20
80.39300763008669
 30
0.0
 40
3.000000027616052
100
AcDbArc
 50
180.0
 51
228.1920013427735
  0
ARC
  5
280
330
1F
100
AcDbEntity
  8
E-1
  6
Continuous
 62
     6
370
     9
100
AcDbCircle
 10
43.48944889562392
 20
120.1567560936032
 30
0.0
 40
1.00000000920535
100
AcDbArc
 50
180.0
 51
270.0
  0
ARC
  5
281
330
1F
100
AcDbEntity
  8
E-1
  6
Continuous
 62
     6
370
     9
100
AcDbCircle
 10
42.54934641783217
 20
120.1567560936032
 30
0.0
 40
1.00000000920535
100
AcDbArc
 50
263.1635437011719
 51
270.0
  0
ARC
  5
282
330
1F
100
AcDbEntity
  8
E-1
  6
Continuous
 62
     6
370
     9
100
AcDbCircle
 10
41.48943958717336
 20
120.2838933845283
 30
0.0
 40
1.00000000920535
100
AcDbArc
 50
263.1635437011719
 51
0.0
  0
ARC
  5
283
330
1F
100
AcDbEntity
  8
E-1
  6
Continuous
 62
     6
370
     9
100
AcDbCircle
 10
39.31829535944956
 20
120.5442126855886
 30
0.0
 40
1.00000000920535
100
AcDbArc
 50
180.0
 51
263.1637115478516
  0
ARC
  5
284
330
1F
100
AcDbEntity
  8
E-1
  6
Continuous
 62
     6
370
     9
100
AcDbCircle
 10
37.31828605099918
 20
120.6568822879127
 30
0.0
 40
1.00000000920535
100
AcDbArc
 50
270.0
 51
0.0
  0
ARC
  5
285
330
1F
100
AcDbEntity
  8
E-1
  6
Continuous
 62
     6
370
     9
100
AcDbCircle
 10
38.2585371694272
 20
118.6568729794623
 30
0.0
 40
1.00000000920535
100
AcDbArc
 50
83.16354370117188
 51
90.0
  0
ARC
  5
286
330
1F
100
AcDbEntity
  8
E-1
  6
Continuous
 62
     6
370
     9
100
AcDbCircle
 10
81.72234744576804
 20
89.65658936629416
 30
0.0
 40
4.999999658941762
100
AcDbArc
 50
270.0
 51
0.0
  0
ARC
  5
287
330
1F
100
AcDbEntity
  8
E-1
  6
Continuous
 62
     6
370
     9
100
AcDbCircle
 10
85.48939663868987
 20
89.15676045325722
 30
0.0
 40
9.999999317883525
100
AcDbArc
 50
270.0
 51
0.0
  0
LINE
  5
288
330
1F
100
AcDbEntity
  8
E-2
  6
Continuous
 62
     3
370
     9
100
AcDbLine
 10
-14.22642196529694
 20
196.157194973419
 30
0.0
 11
-14.22642196529694
 21
204.9071737642914
 31
0.0
  0
LINE
  5
289
330
1F
100
AcDbEntity
  8
E-2
  6
Continuous
 62
     3
370
     9
100
AcDbLine
 10
-14.22642196529694
 20
121.1571927346777
 30
0.0
 11
-14.22642196529694
 21
130.9071266328965
 31
0.0
  0
LINE
  5
28A
330
1F
100
AcDbEntity
  8
E-2
  6
Continuous
 62
     3
370
     9
100
AcDbLine
 10
-14.22642196529694
 20
177.4071696402943
 30
0.0
 11
-14.22642196529694
 21
186.4071619814426
 31
0.0
  0
LINE
  5
28B
330
1F
100
AcDbEntity
  8
E-2
  6
Continuous
 62
     3
370
     9
100
AcDbLine
 10
52.48941646333287
 20
138.4071367661465
 30
0.0
 11
52.48941646333287
 21
132.907135941347
 31
0.0
  0
LINE
  5
28C
330
1F
100
AcDbEntity
  8
E-2
  6
Continuous
 62
     3
370
     9
100
AcDbLine
 10
52.48941646333287
 20
156.9071485489951
 30
0.0
 11
52.48941646333287
 21
151.4071477241958
 31
0.0
  0
LINE
  5
28D
330
1F
100
AcDbEntity
  8
E-2
  6
Continuous
 62
     3
370
     9
100
AcDbLine
 10
52.48941646333287
 20
175.4071603318438
 30
0.0
 11
52.48941646333287
 21
169.9071595070444
 31
0.0
  0
LINE
  5
28E
330
1F
100
AcDbEntity
  8
E-2
  6
Continuous
 62
     3
370
     9
100
AcDbLine
 10
52.48941646333287
 20
193.9071721146925
 30
0.0
 11
52.48941646333287
 21
188.4071712898931
 31
0.0
  0
LINE
  5
28F
330
1F
100
AcDbEntity
  8
E-2
  6
Continuous
 62
     3
370
     9
100
AcDbLine
 10
-22.83293776868931
 20
186.4071619814426
 30
0.0
 11
50.48940715488231
 21
186.4071619814426
 31
0.0
  0
LINE
  5
290
330
1F
100
AcDbEntity
  8
E-2
  6
Continuous
 62
     3
370
     9
100
AcDbLine
 10
-24.83294707713969
 20
193.9071721146925
 30
0.0
 11
-24.83294707713969
 21
188.4071712898931
 31
0.0
  0
LINE
  5
291
330
1F
100
AcDbEntity
  8
E-2
  6
Continuous
 62
     3
370
     9
100
AcDbLine
 10
-22.83293776868931
 20
195.907181423143
 30
0.0
 11
50.48940715488231
 21
195.907181423143
 31
0.0
  0
LINE
  5
292
330
1F
100
AcDbEntity
  8
E-2
  6
Continuous
 62
     3
370
     9
100
AcDbLine
 10
-31.90400510743399
 20
193.9071721146925
 30
0.0
 11
-31.90400510743399
 21
188.4071712898931
 31
0.0
  0
LINE
  5
293
330
1F
100
AcDbEntity
  8
E-2
  6
Continuous
 62
     3
370
     9
100
AcDbLine
 10
-33.90401441588438
 20
193.9071721146925
 30
0.0
 11
-33.90401441588438
 21
188.4071712898931
 31
0.0
  0
ARC
  5
294
330
1F
100
AcDbEntity
  8
E-2
  6
Continuous
 62
     3
370
     9
100
AcDbCircle
 10
61.48943357792064
 20
124.1572066973535
 30
0.0
 40
3.000000027616052
100
AcDbArc
 50
270.0
 51
0.0
  0
ARC
  5
295
330
1F
100
AcDbEntity
  8
E-2
  6
Continuous
 62
     3
370
     9
100
AcDbCircle
 10
-22.83293776868931
 20
206.9071830727418
 30
0.0
 40
2.000000018410701
100
AcDbArc
 50
180.0
 51
270.0
  0
ARC
  5
296
330
1F
100
AcDbEntity
  8
E-2
  6
Continuous
 62
     3
370
     9
100
AcDbCircle
 10
50.48940715488231
 20
132.907135941347
 30
0.0
 40
2.000000018410701
100
AcDbArc
 50
270.0
 51
0.0
  0
ARC
  5
297
330
1F
100
AcDbEntity
  8
E-2
  6
Continuous
 62
     3
370
     9
100
AcDbCircle
 10
50.48940715488231
 20
138.4071367661465
 30
0.0
 40
2.000000018410701
100
AcDbArc
 50
0.0
 51
90.0
  0
ARC
  5
298
330
1F
100
AcDbEntity
  8
E-2
  6
Continuous
 62
     3
370
     9
100
AcDbCircle
 10
50.48940715488231
 20
151.4071477241958
 30
0.0
 40
2.000000018410701
100
AcDbArc
 50
270.0
 51
0.0
  0
ARC
  5
299
330
1F
100
AcDbEntity
  8
E-2
  6
Continuous
 62
     3
370
     9
100
AcDbCircle
 10
50.48940715488231
 20
156.9071485489951
 30
0.0
 40
2.000000018410701
100
AcDbArc
 50
0.0
 51
90.0
  0
ARC
  5
29A
330
1F
100
AcDbEntity
  8
E-2
  6
Continuous
 62
     3
370
     9
100
AcDbCircle
 10
50.48940715488231
 20
169.9071595070444
 30
0.0
 40
2.000000018410701
100
AcDbArc
 50
270.0
 51
0.0
  0
ARC
  5
29B
330
1F
100
AcDbEntity
  8
E-2
  6
Continuous
 62
     3
370
     9
100
AcDbCircle
 10
50.48940715488231
 20
175.4071603318438
 30
0.0
 40
2.000000018410701
100
AcDbArc
 50
0.0
 51
90.0
  0
ARC
  5
29C
330
1F
100
AcDbEntity
  8
E-2
  6
Continuous
 62
     3
370
     9
100
AcDbCircle
 10
50.48940715488231
 20
188.4071712898931
 30
0.0
 40
2.000000018410701
100
AcDbArc
 50
270.0
 51
0.0
  0
ARC
  5
29D
330
1F
100
AcDbEntity
  8
E-2
  6
Continuous
 62
     3
370
     9
100
AcDbCircle
 10
50.48940715488231
 20
193.9071721146925
 30
0.0
 40
2.000000018410701
100
AcDbArc
 50
0.0
 51
90.0
  0
ARC
  5
29E
330
1F
100
AcDbEntity
  8
E-2
  6
Continuous
 62
     3
370
     9
100
AcDbCircle
 10
-22.83293776868931
 20
188.4071712898931
 30
0.0
 40
2.000000018410701
100
AcDbArc
 50
180.0
 51
270.0
  0
ARC
  5
29F
330
1F
100
AcDbEntity
  8
E-2
  6
Continuous
 62
     3
370
     9
100
AcDbCircle
 10
-22.83293776868931
 20
193.9071721146925
 30
0.0
 40
2.000000018410701
100
AcDbArc
 50
90.0
 51
180.0
  0
ARC
  5
2A0
330
1F
100
AcDbEntity
  8
E-2
  6
Continuous
 62
     3
370
     9
100
AcDbCircle
 10
-33.90401441588438
 20
188.4071712898931
 30
0.0
 40
2.000000018410701
100
AcDbArc
 50
270.0
 51
0.0
  0
ARC
  5
2A1
330
1F
100
AcDbEntity
  8
E-2
  6
Continuous
 62
     3
370
     9
100
AcDbCircle
 10
-33.90401441588438
 20
193.9071721146925
 30
0.0
 40
2.000000018410701
100
AcDbArc
 50
0.0
 51
90.0
  0
ARC
  5
2A2
330
1F
100
AcDbEntity
  8
E-2
  6
Continuous
 62
     3
370
     9
100
AcDbCircle
 10
-33.90401441588438
 20
206.9071830727418
 30
0.0
 40
2.000000018410701
100
AcDbArc
 50
270.0
 51
0.0
  0
ARC
  5
2A3
330
1F
100
AcDbEntity
  8
E-2
  6
Continuous
 62
     3
370
     9
100
AcDbCircle
 10
-35.90402372433493
 20
188.4071712898931
 30
0.0
 40
2.000000018410701
100
AcDbArc
 50
270.0
 51
0.0
  0
ARC
  5
2A4
330
1F
100
AcDbEntity
  8
E-2
  6
Continuous
 62
     3
370
     9
100
AcDbCircle
 10
-35.90402372433493
 20
193.9071721146925
 30
0.0
 40
2.000000018410701
100
AcDbArc
 50
0.0
 51
90.0
  0
ARC
  5
2A5
330
1F
100
AcDbEntity
  8
E-2
  6
Continuous
 62
     3
370
     9
100
AcDbCircle
 10
-35.90402372433493
 20
206.9071830727418
 30
0.0
 40
2.000000018410701
100
AcDbArc
 50
270.0
 51
0.0
  0
LINE
  5
2A6
330
1F
100
AcDbEntity
  8
E-2
  6
Continuous
 62
     3
370
     9
100
AcDbLine
 10
-14.16707758300231
 20
167.907150198594
 30
0.0
 11
50.48940715488231
 21
167.907150198594
 31
0.0
  0
LINE
  5
2A7
330
1F
100
AcDbEntity
  8
E-2
  6
JWW_CENTER1
 62
     3
370
     9
100
AcDbLine
 10
-28.36846370556714
 20
169.66371388785
 30
0.0
 11
-28.36846370556714
 21
137.7806800601679
 31
0.0
  0
LINE
  5
2A8
330
1F
100
AcDbEntity
  8
E-2
  6
Continuous
 62
     3
370
     9
100
AcDbLine
 10
-8.16741742651061
 20
149.4071384157452
 30
0.0
 11
50.48940715488231
 21
149.4071384157452
 31
0.0
  0
ARC
  5
2A9
330
1F
100
AcDbEntity
  8
E-2
  6
Continuous
 62
     3
370
     9
100
AcDbCircle
 10
-8.16741742651061
 20
151.4071384157452
 30
0.0
 40
2.0
100
AcDbArc
 50
172.2478614123127
 51
270.0
  0
LINE
  5
2AA
330
1F
100
AcDbEntity
  8
E-2
  6
Continuous
 62
     3
370
     9
100
AcDbLine
 10
-8.16741742651061
 20
158.9071578574456
 30
0.0
 11
50.48940715488231
 21
158.9071578574456
 31
0.0
  0
ARC
  5
2AB
330
1F
100
AcDbEntity
  8
E-2
  6
Continuous
 62
     3
370
     9
100
AcDbCircle
 10
-28.36846370556714
 20
154.1571481365955
 30
0.0
 40
18.38736923277137
100
AcDbArc
 50
352.2478614123131
 51
7.752138587686652
  0
ARC
  5
2AC
330
1F
100
AcDbEntity
  8
E-2
  6
Continuous
 62
     3
370
     9
100
AcDbCircle
 10
-8.16741742651061
 20
156.9071578574456
 30
0.0
 40
2.0
100
AcDbArc
 50
90.0
 51
187.7521385876865
  0
LINE
  5
2AD
330
1F
100
AcDbEntity
  8
E-2
  6
Continuous
 62
     3
370
     9
100
AcDbLine
 10
-18.05613424394369
 20
130.9071266328965
 30
0.0
 11
50.48940715488231
 21
130.9071266328965
 31
0.0
  0
ARC
  5
2AE
330
1F
100
AcDbEntity
  8
E-2
  6
Continuous
 62
     3
370
     9
100
AcDbCircle
 10
-18.05613424394369
 20
133.9071266328965
 30
0.0
 40
3.0
100
AcDbArc
 50
116.9874828212934
 51
270.0
  0
LINE
  5
2AF
330
1F
100
AcDbEntity
  8
E-2
  6
Continuous
 62
     3
370
     9
100
AcDbLine
 10
-13.40531757827267
 20
140.4071460745969
 30
0.0
 11
50.48940715488231
 21
140.4071460745969
 31
0.0
  0
ARC
  5
2B0
330
1F
100
AcDbEntity
  8
E-2
  6
Continuous
 62
     3
370
     9
100
AcDbCircle
 10
-28.36846370556714
 20
154.1571481365955
 30
0.0
 40
19.72460142280469
100
AcDbArc
 50
296.9874828212933
 51
313.5324309939941
  0
ARC
  5
2B1
330
1F
100
AcDbEntity
  8
E-2
  6
Continuous
 62
     3
370
     9
100
AcDbCircle
 10
-13.40531757827267
 20
138.4071460745969
 30
0.0
 40
2.0
100
AcDbArc
 50
90.0
 51
133.5324309939944
  0
ARC
  5
2B2
330
1F
100
AcDbEntity
  8
E-2
  6
Continuous
 62
     3
370
     9
100
AcDbCircle
 10
-18.05613424394369
 20
174.4071696402943
 30
0.0
 40
3.0
100
AcDbArc
 50
90.0
 51
243.0125171787066
  0
ARC
  5
2B3
330
1F
100
AcDbEntity
  8
E-2
  6
Continuous
 62
     3
370
     9
100
AcDbCircle
 10
-28.36846370556714
 20
154.1571481365955
 30
0.0
 40
19.72460142280469
100
AcDbArc
 50
46.46756900600587
 51
63.01251717870669
  0
ARC
  5
2B4
330
1F
100
AcDbEntity
  8
E-2
  6
Continuous
 62
     3
370
     9
100
AcDbCircle
 10
-13.40531757827267
 20
169.907150198594
 30
0.0
 40
2.0
100
AcDbArc
 50
226.4675690060056
 51
270.0
  0
LINE
  5
2B5
330
1F
100
AcDbEntity
  8
E-2
  6
Continuous
 62
     3
370
     9
100
AcDbLine
 10
-18.05613424394369
 20
177.4071696402943
 30
0.0
 11
50.48940715488231
 21
177.4071696402943
 31
0.0
  0
ARC
  5
2B6
330
1F
100
AcDbEntity
  8
E-2
  6
Continuous
 62
     3
370
     9
100
AcDbCircle
 10
-38.76365876820557
 20
133.9071266328965
 30
0.0
 40
3.0
100
AcDbArc
 50
270.0
 51
62.82664676399656
  0
ARC
  5
2B7
330
1F
100
AcDbEntity
  8
E-2
  6
Continuous
 62
     3
370
     9
100
AcDbCircle
 10
-41.12168837675961
 20
134.1071266328965
 30
0.0
 40
4.0
100
AcDbArc
 50
306.8770401078726
 51
57.54076887449891
  0
ARC
  5
2B8
330
1F
100
AcDbEntity
  8
E-2
  6
Continuous
 62
     3
370
     9
100
AcDbCircle
 10
-38.76365876820557
 20
174.4071696402943
 30
0.0
 40
3.0
100
AcDbArc
 50
297.1733532360034
 51
90.0
  0
ARC
  5
2B9
330
1F
100
AcDbEntity
  8
E-2
  6
Continuous
 62
     3
370
     9
100
AcDbCircle
 10
-41.12168837675961
 20
174.2071696402944
 30
0.0
 40
4.0
100
AcDbArc
 50
302.459231125501
 51
53.12295989212736
  0
ELLIPSE
  5
2BA
330
1F
100
AcDbEntity
  8
E-A
  6
Continuous
 62
     2
370
     9
100
AcDbEllipse
 10
-26.7179344806878
 20
154.1571481365955
 30
0.0
 11
3.061616997868383E-16
 21
-5.0
 31
0.0
210
0.0
220
0.0
230
1.0
 40
0.7071048989705532
 41
3.141592653589793
 42
6.283185307179586
  0
LINE
  5
2BB
330
1F
100
AcDbEntity
  8
E-A
  6
Continuous
 62
     2
370
     9
100
AcDbLine
 10
-22.46247299164497
 20
159.1571481365954
 30
0.0
 11
-23.89133858578009
 21
162.6571481365954
 31
0.0
  0
LINE
  5
2BC
330
1F
100
AcDbEntity
  8
E-A
  6
Continuous
 62
     2
370
     9
100
AcDbLine
 10
-22.46247299164497
 20
149.1571481365954
 30
0.0
 11
-23.89133858578009
 21
145.6571481365954
 31
0.0
  0
LINE
  5
2BD
330
1F
100
AcDbEntity
  8
E-A
  6
Continuous
 62
     2
370
     9
100
AcDbLine
 10
-30.81031634604238
 20
162.6571481365954
 30
0.0
 11
-34.28057973512892
 21
154.1571481365955
 31
0.0
  0
LINE
  5
2BE
330
1F
100
AcDbEntity
  8
E-A
  6
Continuous
 62
     2
370
     9
100
AcDbLine
 10
-30.81031634604238
 20
145.6571481365954
 30
0.0
 11
-34.28057973512892
 21
154.1571481365955
 31
0.0
  0
LINE
  5
2BF
330
1F
100
AcDbEntity
  8
E-A
  6
Continuous
 62
     2
370
     9
100
AcDbLine
 10
-23.89133858578009
 20
162.6571481365954
 30
0.0
 11
-35.32365238411523
 21
162.6571481365954
 31
0.0
  0
LINE
  5
2C0
330
1F
100
AcDbEntity
  8
E-A
  6
Continuous
 62
     2
370
     9
100
AcDbLine
 10
-23.89133858578009
 20
145.6571481365954
 30
0.0
 11
-35.32365238411523
 21
145.6571481365954
 31
0.0
  0
LINE
  5
2C1
330
1F
100
AcDbEntity
  8
E-A
  6
Continuous
 62
     2
370
     9
100
AcDbLine
 10
-34.28057973512892
 20
154.1571481365955
 30
0.0
 11
-37.56081619410531
 21
154.1571481365955
 31
0.0
  0
ELLIPSE
  5
2C2
330
1F
100
AcDbEntity
  8
E-2
  6
Continuous
 62
     3
370
     9
100
AcDbEllipse
 10
-31.90400687868828
 20
154.1571481365955
 30
0.0
 11
-1.199071815626999E-14
 21
14.5
 31
0.0
210
0.0
220
0.0
230
1.0
 40
0.7071027279390983
 41
5.064444079693692
 42
5.808682983178715
  0
ELLIPSE
  5
2C3
330
1F
100
AcDbEntity
  8
E-2
  6
Continuous
 62
     3
370
     9
100
AcDbEllipse
 10
-31.90400687868828
 20
154.1571481365955
 30
0.0
 11
-1.199071815626999E-14
 21
14.5
 31
0.0
210
0.0
220
0.0
230
1.0
 40
0.7071027279390983
 41
3.616094977590664
 42
4.360333881075685
  0
LINE
  5
2C4
330
1F
100
AcDbEntity
  8
E-2
  6
Continuous
 62
     3
370
     9
100
AcDbLine
 10
-22.83293776868931
 20
204.9071737642914
 30
0.0
 11
50.52156307920438
 21
204.9071737642914
 31
0.0
  0
ARC
  5
2C5
330
1F
100
AcDbEntity
  8
E-2
  6
Continuous
 62
     3
370
     9
100
AcDbCircle
 10
50.52156307920438
 20
206.9071830727418
 30
0.0
 40
2.000000018410701
100
AcDbArc
 50
270.0
 51
10.28631591796875
  0
LINE
  5
2C6
330
1F
100
AcDbEntity
  8
E-A
  6
Continuous
 62
     2
370
     9
100
AcDbLine
 10
-37.92212322911632
 20
209.178128649369
 30
0.0
 11
-39.91060730267299
 21
209.178128649369
 31
0.0
  0
ARC
  5
2C7
330
1F
100
AcDbEntity
  8
E-A
  6
Continuous
 62
     2
370
     9
100
AcDbCircle
 10
-47.91064453647488
 20
209.6571478733224
 30
0.0
 40
10.00000086622349
100
AcDbArc
 50
323.130126953125
 51
357.2543715534778
  0
LINE
  5
2C8
330
1F
100
AcDbEntity
  8
E-2
  6
Continuous
 62
     3
370
     9
100
AcDbLine
 10
-33.90401441588438
 20
204.9071737642914
 30
0.0
 11
-39.11077162330139
 21
204.9071737642914
 31
0.0
  0
LINE
  5
2C9
330
1F
100
AcDbEntity
  8
E-2
  6
Continuous
 62
     3
370
     9
100
AcDbLine
 10
-33.90401441588438
 20
195.907181423143
 30
0.0
 11
-41.51089716664239
 21
195.907181423143
 31
0.0
  0
LINE
  5
2CA
330
1F
100
AcDbEntity
  8
E-2
  6
Continuous
 62
     3
370
     9
100
AcDbLine
 10
-33.90401441588438
 20
186.4071619814426
 30
0.0
 11
-41.51089716664239
 21
186.4071619814426
 31
0.0
  0
LINE
  5
2CB
330
1F
100
AcDbEntity
  8
E-2
  6
Continuous
 62
     3
370
     9
100
AcDbLine
 10
-38.76365876820557
 20
177.4071696402943
 30
0.0
 11
-41.51089716664239
 21
177.4071696402943
 31
0.0
  0
ARC
  5
2CC
330
1F
100
AcDbEntity
  8
E-2
  6
Continuous
 62
     3
370
     9
100
AcDbCircle
 10
-28.36846370556714
 20
154.1571481365955
 30
0.0
 40
19.76232526106613
100
AcDbArc
 50
117.1733532360034
 51
131.6842165838045
  0
ARC
  5
2CD
330
1F
100
AcDbEntity
  8
E-2
  6
Continuous
 62
     3
370
     9
100
AcDbCircle
 10
-28.36846370556714
 20
154.1571481365955
 30
0.0
 40
19.76232526106613
100
AcDbArc
 50
228.3157834161955
 51
242.8266467639966
  0
LINE
  5
2CE
330
1F
100
AcDbEntity
  8
E-2
  6
Continuous
 62
     3
370
     9
100
AcDbLine
 10
-38.76365876820557
 20
130.9071266328965
 30
0.0
 11
-41.51089716664239
 21
130.9071266328965
 31
0.0
  0
LINE
  5
2CF
330
1F
100
AcDbEntity
  8
E-2
  6
Continuous
 62
     3
370
     9
100
AcDbLine
 10
-41.51089716664239
 20
121.1571927346777
 30
0.0
 11
61.48943357792064
 21
121.1571927346777
 31
0.0
  0
ELLIPSE
  5
2D0
330
1F
100
AcDbEntity
  8
E-A
  6
Continuous
 62
     2
370
     9
100
AcDbEllipse
 10
-14.13148992690947
 20
154.1571481365955
 30
0.0
 11
3.061616997868383E-16
 21
-5.0
 31
0.0
210
0.0
220
0.0
230
1.0
 40
0.7071048989705532
 41
0.0
 42
6.283185307179586
  0
LINE
  5
2D1
330
1F
100
AcDbEntity
  8
E-A
  6
Continuous
 62
     2
370
     9
100
AcDbLine
 10
-14.66190617116166
 20
159.1005593292937
 30
0.0
 11
-14.66190617116166
 21
149.2137369438972
 31
0.0
  0
LINE
  5
2D2
330
1F
100
AcDbEntity
  8
E-A
  6
Continuous
 62
     2
370
     9
100
AcDbLine
 10
-13.6012065904427
 20
159.1005878471674
 30
0.0
 11
-13.6012065904427
 21
149.2137084260234
 31
0.0
  0
LINE
  5
2D3
330
1F
100
AcDbEntity
  8
E-A
  6
Continuous
 62
     2
370
     9
100
AcDbLine
 10
-13.6012065904427
 20
159.1005878471674
 30
0.0
 11
-14.66190617116166
 21
159.1005878471674
 31
0.0
  0
LINE
  5
2D4
330
1F
100
AcDbEntity
  8
E-A
  6
Continuous
 62
     2
370
     9
100
AcDbLine
 10
-13.6012065904427
 20
149.2137084260234
 30
0.0
 11
-14.66190617116166
 21
149.2137084260234
 31
0.0
  0
LINE
  5
2D5
330
1F
100
AcDbEntity
  8
E-A
  6
Continuous
 62
     2
370
     9
100
AcDbLine
 10
-14.13148992690947
 20
159.1571481365954
 30
0.0
 11
-26.7179344806878
 21
159.1571481365954
 31
0.0
  0
LINE
  5
2D6
330
1F
100
AcDbEntity
  8
E-A
  6
Continuous
 62
     2
370
     9
100
AcDbLine
 10
-14.13148992690947
 20
149.1571481365954
 30
0.0
 11
-26.7179344806878
 21
149.1571481365954
 31
0.0
  0
LINE
  5
2D7
330
1F
100
AcDbEntity
  8
E-2
  6
Continuous
 62
     3
370
     9
100
AcDbLine
 10
-14.22642196529694
 20
159.1571481365954
 30
0.0
 11
-14.22642196529694
 21
167.907150198594
 31
0.0
  0
LINE
  5
2D8
330
1F
100
AcDbEntity
  8
E-2
  6
Continuous
 62
     3
370
     9
100
AcDbLine
 10
-14.22642196529694
 20
140.2308202740112
 30
0.0
 11
-14.22642196529694
 21
149.1571481365954
 31
0.0
  0
LINE
  5
2D9
330
1F
100
AcDbEntity
  8
E-2
  6
JWW_CENTER1
 62
     3
370
     9
100
AcDbLine
 10
-10.20624881424652
 20
154.1571481365955
 30
0.0
 11
-34.28057973512892
 21
154.1571481365955
 31
0.0
  0
ELLIPSE
  5
2DA
330
1F
100
AcDbEntity
  8
E-2
  6
Continuous
 62
     3
370
     9
100
AcDbEllipse
 10
-28.36847107482515
 20
154.1571481365955
 30
0.0
 11
7.960204194457796E-16
 21
13.0
 31
0.0
210
0.0
220
0.0
230
1.0
 40
0.7071034707138655
 41
5.107180100084451
 42
10.60078316786452
  0
LINE
  5
2DB
330
1F
100
AcDbEntity
  8
E-A
  6
Continuous
 62
     2
370
     9
100
AcDbLine
 10
-16.25280462382113
 20
158.1571481365954
 30
0.0
 11
-28.83924917759947
 21
158.1571481365954
 31
0.0
  0
LINE
  5
2DC
330
1F
100
AcDbEntity
  8
E-A
  6
Continuous
 62
     2
370
     9
100
AcDbLine
 10
-16.25280462382113
 20
150.1571481365954
 30
0.0
 11
-28.83924917759947
 21
150.1571481365954
 31
0.0
  0
LINE
  5
2DD
330
1F
100
AcDbEntity
  8
E-0
  6
Continuous
 62
     4
370
     9
100
AcDbLine
 10
-58.31151294126113
 20
341.3375903004384
 30
0.0
 11
-67.51053509443062
 21
342.1574425034541
 31
0.0
  0
LINE
  5
2DE
330
1F
100
AcDbEntity
  8
E-0
  6
Continuous
 62
     4
370
     9
100
AcDbLine
 10
-96.2481211563574
 20
271.6571391540144
 30
0.0
 11
-88.57202141595718
 21
271.6571391540144
 31
0.0
  0
LINE
  5
2DF
330
1F
100
AcDbEntity
  8
E-0
  6
Continuous
 62
     4
370
     9
100
AcDbLine
 10
-72.51053359211727
 20
269.7757450733405
 30
0.0
 11
-72.51053359211727
 21
252.4375580507816
 31
0.0
  0
LINE
  5
2E0
330
1F
100
AcDbEntity
  8
E-0
  6
Continuous
 62
     4
370
     9
100
AcDbLine
 10
-71.70291946815797
 20
270.7570210073904
 30
0.0
 11
-67.51053509443062
 21
271.5789046324358
 31
0.0
  0
LINE
  5
2E1
330
1F
100
AcDbEntity
  8
E-0
  6
Continuous
 62
     4
370
     9
100
AcDbLine
 10
-71.65899616012803
 20
251.4486023505222
 30
0.0
 11
-67.51053509443062
 21
250.825748537498
 31
0.0
  0
LINE
  5
2E2
330
1F
100
AcDbEntity
  8
E-0
  6
Continuous
 62
     4
370
     9
100
AcDbLine
 10
-88.24976851643379
 20
273.6571484624649
 30
0.0
 11
-67.51053509443062
 21
273.6571484624649
 31
0.0
  0
LINE
  5
2E3
330
1F
100
AcDbEntity
  8
E-0
  6
JWW_CENTER1
 62
     4
370
     9
100
AcDbLine
 10
-55.01292948711426
 20
327.1574222369543
 30
0.0
 11
-99.31819440561475
 21
327.1574222369543
 31
0.0
  0
ARC
  5
2E4
330
1F
100
AcDbEntity
  8
E-0
  6
Continuous
 62
     4
370
     9
100
AcDbCircle
 10
-58.51059230016091
 20
339.3474903677421
 30
0.0
 40
2.000000018410701
100
AcDbArc
 50
359.9999999999999
 51
84.28970336914058
  0
ARC
  5
2E5
330
1F
100
AcDbEntity
  8
E-0
  6
Continuous
 62
     4
370
     9
100
AcDbCircle
 10
88.48942298808515
 20
331.1575399476128
 30
0.0
 40
10.0000000920535
100
AcDbArc
 50
0.0
 51
90.0
  0
ARC
  5
2E6
330
1F
100
AcDbEntity
  8
E-0
  6
Continuous
 62
     4
370
     9
100
AcDbCircle
 10
88.48942298808515
 20
332.1574455080805
 30
0.0
 40
10.0000000920535
100
AcDbArc
 50
0.0
 51
90.0
  0
ARC
  5
2E7
330
1F
100
AcDbEntity
  8
E-0
  6
Continuous
 62
     4
370
     9
100
AcDbCircle
 10
-71.51052893789216
 20
252.4375580507816
 30
0.0
 40
1.00000000920535
100
AcDbArc
 50
180.0
 51
261.4615173339844
  0
ARC
  5
2E8
330
1F
100
AcDbEntity
  8
E-0
  6
Continuous
 62
     4
370
     9
100
AcDbCircle
 10
-71.51052893789216
 20
269.7757450733405
 30
0.0
 40
1.00000000920535
100
AcDbArc
 50
101.0927886962891
 51
180.0
  0
ELLIPSE
  5
2E9
330
1F
100
AcDbEntity
  8
E-0
  6
Continuous
 62
     4
370
     9
100
AcDbEllipse
 10
-96.2481211563574
 20
209.6571478733224
 30
0.0
 11
3.796404543453161E-15
 21
61.99999128069197
 31
0.0
210
0.0
220
0.0
230
1.0
 40
0.0203
 41
0.0
 42
1.570796326794897
  0
ELLIPSE
  5
2EA
330
1F
100
AcDbEntity
  8
E-0
  6
Continuous
 62
     4
370
     9
100
AcDbEllipse
 10
-88.24976851643379
 20
209.6571478733224
 30
0.0
 11
3.918869793346099E-15
 21
64.00000058914243
 31
0.0
210
0.0
220
0.0
230
1.0
 40
0.0203
 41
0.0
 42
1.570796326794897
  0
LINE
  5
2EB
330
1F
100
AcDbEntity
  8
E-A
  6
Continuous
 62
     2
370
     9
100
AcDbLine
 10
-69.49513532358344
 20
330.0789043967787
 30
0.0
 11
-73.82578026252003
 21
324.4399741239068
 31
0.0
  0
LINE
  5
2EC
330
1F
100
AcDbEntity
  8
E-A
  6
Continuous
 62
     2
370
     9
100
AcDbLine
 10
-70.16446410889426
 20
325.1073705809456
 30
0.0
 11
-96.83108973197119
 21
327.0372710559358
 31
0.0
  0
LINE
  5
2ED
330
1F
100
AcDbEntity
  8
E-A
  6
Continuous
 62
     2
370
     9
100
AcDbLine
 10
-90.74504842507434
 20
328.451388522925
 30
0.0
 11
-92.71894652841257
 21
325.8811937335835
 31
0.0
  0
LINE
  5
2EE
330
1F
100
AcDbEntity
  8
E-A
  6
Continuous
 62
     2
370
     9
100
AcDbLine
 10
-85.55714338965038
 20
328.6960510102938
 30
0.0
 11
-87.82138620258382
 21
325.7478135359333
 31
0.0
  0
LINE
  5
2EF
330
1F
100
AcDbEntity
  8
E-A
  6
Continuous
 62
     2
370
     9
100
AcDbLine
 10
-80.33614103920758
 20
328.9838192821929
 30
0.0
 11
-83.06647134073552
 21
325.4286820897724
 31
0.0
  0
LINE
  5
2F0
330
1F
100
AcDbEntity
  8
E-A
  6
Continuous
 62
     2
370
     9
100
AcDbLine
 10
-74.82474443229108
 20
329.6497293328686
 30
0.0
 11
-78.49240258639946
 21
324.8741038756941
 31
0.0
  0
LINE
  5
2F1
330
1F
100
AcDbEntity
  8
E-A
  6
Continuous
 62
     2
370
     9
100
AcDbLine
 10
-70.16446410889426
 20
329.2073747992054
 30
0.0
 11
-96.73883344370068
 21
327.1574222369543
 31
0.0
  0
LINE
  5
2F2
330
1F
100
AcDbEntity
  8
E-A
  6
Continuous
 62
     2
370
     9
100
AcDbLine
 10
-67.51053509443062
 20
325.1073705809456
 30
0.0
 11
-70.16446410889426
 21
325.1073705809456
 31
0.0
  0
LINE
  5
2F3
330
1F
100
AcDbEntity
  8
E-A
  6
Continuous
 62
     2
370
     9
100
AcDbLine
 10
-67.51053509443062
 20
329.2073747992054
 30
0.0
 11
-70.16446410889426
 21
329.2073747992054
 31
0.0
  0
LINE
  5
2F4
330
1F
100
AcDbEntity
  8
E-0
  6
JWW_DASHED2
 62
     4
370
     9
100
AcDbLine
 10
-56.51053344483171
 20
322.6573765195013
 30
0.0
 11
-57.51053809905699
 21
322.6573765195013
 31
0.0
  0
LINE
  5
2F5
330
1F
100
AcDbEntity
  8
E-0
  6
JWW_DASHED2
 62
     4
370
     9
100
AcDbLine
 10
-56.51063253858933
 20
331.6573688606497
 30
0.0
 11
-57.51053809905699
 21
331.6573688606497
 31
0.0
  0
LINE
  5
2F6
330
1F
100
AcDbEntity
  8
E-0
  6
JWW_DASHED2
 62
     4
370
     9
100
AcDbLine
 10
-58.66522810880372
 20
329.657409099078
 30
0.0
 11
-57.51053809905699
 21
331.6573688606497
 31
0.0
  0
LINE
  5
2F7
330
1F
100
AcDbEntity
  8
E-0
  6
JWW_DASHED2
 62
     4
370
     9
100
AcDbLine
 10
-58.66522810880372
 20
324.6573858279519
 30
0.0
 11
-57.51053809905699
 21
322.6573765195013
 31
0.0
  0
LINE
  5
2F8
330
1F
100
AcDbEntity
  8
E-0
  6
JWW_DASHED2
 62
     4
370
     9
100
AcDbLine
 10
-57.51053809905699
 20
322.6573765195013
 30
0.0
 11
-57.51053809905699
 21
323.6500977825474
 31
0.0
  0
LINE
  5
2F9
330
1F
100
AcDbEntity
  8
E-0
  6
JWW_DASHED2
 62
     4
370
     9
100
AcDbLine
 10
-57.51053809905699
 20
330.6646971444825
 30
0.0
 11
-57.51053809905699
 21
331.6573688606497
 31
0.0
  0
LINE
  5
2FA
330
1F
100
AcDbEntity
  8
E-0
  6
JWW_DASHED2
 62
     4
370
     9
100
AcDbLine
 10
-58.66522810880372
 20
329.657409099078
 30
0.0
 11
-67.51053509443062
 21
329.657409099078
 31
0.0
  0
LINE
  5
2FB
330
1F
100
AcDbEntity
  8
E-0
  6
JWW_DASHED2
 62
     4
370
     9
100
AcDbLine
 10
-58.66522810880372
 20
324.6573858279519
 30
0.0
 11
-67.51053509443062
 21
324.6573858279519
 31
0.0
  0
LINE
  5
2FC
330
1F
100
AcDbEntity
  8
E-A
  6
JWW_DASHED2
 62
     2
370
     9
100
AcDbLine
 10
-56.83110175047699
 20
323.0574180186945
 30
0.0
 11
-59.18111021056239
 21
325.1073705809456
 31
0.0
  0
LINE
  5
2FD
330
1F
100
AcDbEntity
  8
E-A
  6
JWW_DASHED2
 62
     2
370
     9
100
AcDbLine
 10
-59.18111021056239
 20
329.2073747992054
 30
0.0
 11
-56.83110175047699
 21
331.2574264552142
 31
0.0
  0
LINE
  5
2FE
330
1F
100
AcDbEntity
  8
E-A
  6
JWW_DASHED2
 62
     2
370
     9
100
AcDbLine
 10
-56.83110175047699
 20
323.0574180186945
 30
0.0
 11
-56.83110175047699
 21
331.2574264552142
 31
0.0
  0
LINE
  5
2FF
330
1F
100
AcDbEntity
  8
E-A
  6
JWW_DASHED2
 62
     2
370
     9
100
AcDbLine
 10
-59.18111021056239
 20
325.1073705809456
 30
0.0
 11
-59.18111021056239
 21
329.2073747992054
 31
0.0
  0
LINE
  5
300
330
1F
100
AcDbEntity
  8
E-A
  6
JWW_DASHED2
 62
     2
370
     9
100
AcDbLine
 10
-59.18111021056239
 20
329.2073747992054
 30
0.0
 11
-67.51053509443062
 21
329.2073747992054
 31
0.0
  0
LINE
  5
301
330
1F
100
AcDbEntity
  8
E-A
  6
JWW_DASHED2
 62
     2
370
     9
100
AcDbLine
 10
-59.18111021056239
 20
325.1073705809456
 30
0.0
 11
-67.51053509443062
 21
325.1073705809456
 31
0.0
  0
LINE
  5
302
330
1F
100
AcDbEntity
  8
E-0
  6
Continuous
 62
     4
370
     9
100
AcDbLine
 10
88.48942298808515
 20
341.1575369429863
 30
0.0
 11
-57.65977329791377
 21
341.1575369429863
 31
0.0
  0
LINE
  5
303
330
1F
100
AcDbEntity
  8
E-0
  6
Continuous
 62
     4
370
     9
100
AcDbLine
 10
88.48942298808515
 20
342.1574425034541
 30
0.0
 11
-67.51053509443062
 21
342.1574425034541
 31
0.0
  0
LINE
  5
304
330
1F
100
AcDbEntity
  8
E-A
  6
Continuous
 62
     2
370
     9
100
AcDbLine
 10
-39.91060730267299
 20
215.6570767049163
 30
0.0
 11
-41.51089716664239
 21
215.6570767049163
 31
0.0
  0
LINE
  5
305
330
1F
100
AcDbEntity
  8
E-1
  6
Continuous
 62
     6
370
     9
100
AcDbLine
 10
65.98947929537354
 20
298.15738635818
 30
0.0
 11
65.98947929537354
 21
262.1572188060716
 31
0.0
  0
LINE
  5
306
330
1F
100
AcDbEntity
  8
E-1
  6
Continuous
 62
     6
370
     9
100
AcDbLine
 10
70.98945301962095
 20
249.1571087542647
 30
0.0
 11
65.19291412538001
 21
252.1571722638192
 31
0.0
  0
LINE
  5
307
330
1F
100
AcDbEntity
  8
E-1
  6
Continuous
 62
     6
370
     9
100
AcDbLine
 10
65.98947929537354
 20
262.1572188060716
 30
0.0
 11
70.98945301962095
 21
262.1572188060716
 31
0.0
  0
LINE
  5
308
330
1F
100
AcDbEntity
  8
E-1
  6
Continuous
 62
     6
370
     9
100
AcDbLine
 10
65.98947929537354
 20
249.1571087542647
 30
0.0
 11
70.98945301962095
 21
249.1571087542647
 31
0.0
  0
LINE
  5
309
330
1F
100
AcDbEntity
  8
E-1
  6
Continuous
 62
     6
370
     9
100
AcDbLine
 10
65.98947929537354
 20
216.1571038054683
 30
0.0
 11
70.98945301962095
 21
216.1571038054683
 31
0.0
  0
LINE
  5
30A
330
1F
100
AcDbEntity
  8
E-1
  6
Continuous
 62
     6
370
     9
100
AcDbLine
 10
70.98945301962095
 20
249.1571087542647
 30
0.0
 11
70.98945301962095
 21
216.1571038054683
 31
0.0
  0
LINE
  5
30B
330
1F
100
AcDbEntity
  8
E-1
  6
Continuous
 62
     6
370
     9
100
AcDbLine
 10
65.98947929537354
 20
249.1571087542647
 30
0.0
 11
65.98947929537354
 21
216.1571038054683
 31
0.0
  0
LINE
  5
30C
330
1F
100
AcDbEntity
  8
E-1
  6
Continuous
 62
     6
370
     9
100
AcDbLine
 10
34.33873494925557
 20
341.1574378492288
 30
0.0
 11
34.33873494925557
 21
334.6576801045981
 31
0.0
  0
LINE
  5
30D
330
1F
100
AcDbEntity
  8
E-1
  6
Continuous
 62
     6
370
     9
100
AcDbLine
 10
26.3387472623325
 20
341.1574378492288
 30
0.0
 11
26.3387472623325
 21
334.6576801045981
 31
0.0
  0
LINE
  5
30E
330
1F
100
AcDbEntity
  8
E-1
  6
Continuous
 62
     6
370
     9
100
AcDbLine
 10
81.72234744576804
 20
334.6576801045981
 30
0.0
 11
34.33873494925557
 21
334.6576801045981
 31
0.0
  0
LINE
  5
30F
330
1F
100
AcDbEntity
  8
E-1
  6
Continuous
 62
     6
370
     9
100
AcDbLine
 10
1.380101644232463
 20
307.1571805118133
 30
0.0
 11
1.380101644232463
 21
299.6573685660785
 31
0.0
  0
LINE
  5
310
330
1F
100
AcDbEntity
  8
E-1
  6
Continuous
 62
     6
370
     9
100
AcDbLine
 10
-6.619638308296715
 20
301.1574498677345
 30
0.0
 11
-41.51089716664239
 21
301.1574498677345
 31
0.0
  0
LINE
  5
311
330
1F
100
AcDbEntity
  8
E-1
  6
Continuous
 62
     6
370
     9
100
AcDbLine
 10
-41.51089716664239
 20
299.6573685660785
 30
0.0
 11
-6.619638308296715
 21
299.6573685660785
 31
0.0
  0
LINE
  5
312
330
1F
100
AcDbEntity
  8
E-1
  6
Continuous
 62
     6
370
     9
100
AcDbLine
 10
-6.619638308296715
 20
307.1571805118133
 30
0.0
 11
-6.619638308296715
 21
299.6573685660785
 31
0.0
  0
LINE
  5
313
330
1F
100
AcDbEntity
  8
E-1
  6
Continuous
 62
     6
370
     9
100
AcDbLine
 10
65.61287346983892
 20
307.1571805118133
 30
0.0
 11
68.97269686614607
 21
305.9916397356158
 31
0.0
  0
LINE
  5
314
330
1F
100
AcDbEntity
  8
E-1
  6
Continuous
 62
     6
370
     9
100
AcDbLine
 10
70.98945301962095
 20
303.1571618949124
 30
0.0
 11
70.98945301962095
 21
262.1572188060716
 31
0.0
  0
LINE
  5
315
330
1F
100
AcDbEntity
  8
E-1
  6
Continuous
 62
     6
370
     9
100
AcDbLine
 10
13.60316799628151
 20
301.0559778600125
 30
0.0
 11
1.380101644232463
 21
299.6573685660785
 31
0.0
  0
LINE
  5
316
330
1F
100
AcDbEntity
  8
E-1
  6
Continuous
 62
     6
370
     9
100
AcDbLine
 10
14.4895121106071
 20
305.2305996777008
 30
0.0
 11
14.4895121106071
 21
302.0494918731188
 31
0.0
  0
LINE
  5
317
330
1F
100
AcDbEntity
  8
E-1
  6
Continuous
 62
     6
370
     9
100
AcDbLine
 10
13.5655619152946
 20
306.2276810660784
 30
0.0
 11
1.380101644232463
 21
307.1571805118133
 31
0.0
  0
LINE
  5
318
330
1F
100
AcDbEntity
  8
E-1
  6
Continuous
 62
     6
370
     9
100
AcDbLine
 10
62.98951487957652
 20
301.1574498677345
 30
0.0
 11
13.94132544389026
 21
301.1574498677345
 31
0.0
  0
LINE
  5
319
330
1F
100
AcDbEntity
  8
E-1
  6
Continuous
 62
     6
370
     9
100
AcDbLine
 10
67.98943905694529
 20
306.1572254044669
 30
0.0
 11
13.86541962561375
 21
306.1572254044669
 31
0.0
  0
LINE
  5
31A
330
1F
100
AcDbEntity
  8
E-1
  6
Continuous
 62
     6
370
     9
100
AcDbLine
 10
56.10492652753533
 20
300.0515635335767
 30
0.0
 11
64.09659033882497
 21
300.9457856016269
 31
0.0
  0
LINE
  5
31B
330
1F
100
AcDbEntity
  8
E-1
  6
Continuous
 62
     6
370
     9
100
AcDbLine
 10
40.69475719857319
 20
335.9910857060701
 30
0.0
 11
34.33873494925557
 21
334.6576801045981
 31
0.0
  0
LINE
  5
31C
330
1F
100
AcDbEntity
  8
E-1
  6
Continuous
 62
     6
370
     9
100
AcDbLine
 10
41.48948913405217
 20
339.2875386444297
 30
0.0
 11
41.48948913405217
 21
336.9697356555452
 31
0.0
  0
LINE
  5
31D
330
1F
100
AcDbEntity
  8
E-1
  6
Continuous
 62
     6
370
     9
100
AcDbLine
 10
40.62796800599062
 20
340.2779807510523
 30
0.0
 11
34.33873494925557
 21
341.1574378492288
 31
0.0
  0
LINE
  5
31E
330
1F
100
AcDbEntity
  8
E-1
  6
Continuous
 62
     6
370
     9
100
AcDbLine
 10
86.48930219915769
 20
336.1577614062541
 30
0.0
 11
41.07319625862237
 21
336.1577614062541
 31
0.0
  0
LINE
  5
31F
330
1F
100
AcDbEntity
  8
E-1
  6
Continuous
 62
     6
370
     9
100
AcDbLine
 10
-50.2897617878379
 20
340.5773429925837
 30
0.0
 11
-55.51038014997016
 21
341.1574378492288
 31
0.0
  0
LINE
  5
320
330
1F
100
AcDbEntity
  8
E-1
  6
Continuous
 62
     6
370
     9
100
AcDbLine
 10
26.3387472623325
 20
340.1574827418823
 30
0.0
 11
-49.26891028437001
 21
340.1574827418823
 31
0.0
  0
LINE
  5
321
330
1F
100
AcDbEntity
  8
E-1
  6
Continuous
 62
     6
370
     9
100
AcDbLine
 10
26.3387472623325
 20
336.1577614062541
 30
0.0
 11
-48.51062007822668
 21
336.1577614062541
 31
0.0
  0
LINE
  5
322
330
1F
100
AcDbEntity
  8
E-1
  6
Continuous
 62
     6
370
     9
100
AcDbLine
 10
26.3387472623325
 20
334.6576801045981
 30
0.0
 11
-48.51062007822668
 21
334.6576801045981
 31
0.0
  0
LINE
  5
323
330
1F
100
AcDbEntity
  8
E-1
  6
Continuous
 62
     6
370
     9
100
AcDbLine
 10
-43.32986218006545
 20
306.3226128858028
 30
0.0
 11
-48.51062007822668
 21
306.7935064216377
 31
0.0
  0
LINE
  5
324
330
1F
100
AcDbEntity
  8
E-1
  6
Continuous
 62
     6
370
     9
100
AcDbLine
 10
-42.69600895995427
 20
306.1572254044669
 30
0.0
 11
-6.619638308296715
 21
306.1572254044669
 31
0.0
  0
LINE
  5
325
330
1F
100
AcDbEntity
  8
E-1
  6
Continuous
 62
     6
370
     9
100
AcDbLine
 10
65.19291412538001
 20
213.1571393896713
 30
0.0
 11
70.98945301962095
 21
216.1571038054683
 31
0.0
  0
LINE
  5
326
330
1F
100
AcDbEntity
  8
E-1
  6
Continuous
 62
     6
370
     9
100
AcDbLine
 10
-6.619638308296715
 20
307.1571805118133
 30
0.0
 11
-48.51062007822668
 21
307.1571805118133
 31
0.0
  0
LINE
  5
327
330
1F
100
AcDbEntity
  8
E-1
  6
Continuous
 62
     6
370
     9
100
AcDbLine
 10
65.61287346983892
 20
307.1571805118133
 30
0.0
 11
1.380101644232463
 21
307.1571805118133
 31
0.0
  0
LINE
  5
328
330
1F
100
AcDbEntity
  8
E-1
  6
Continuous
 62
     6
370
     9
100
AcDbLine
 10
65.19291412538001
 20
259.1571552965171
 30
0.0
 11
70.98945301962095
 21
262.1572188060716
 31
0.0
  0
LINE
  5
329
330
1F
100
AcDbEntity
  8
E-1
  6
Continuous
 62
     6
370
     9
100
AcDbLine
 10
88.72238002534448
 20
319.6573625568257
 30
0.0
 11
95.48944318094232
 21
319.6573625568257
 31
0.0
  0
LINE
  5
32A
330
1F
100
AcDbEntity
  8
E-1
  6
Continuous
 62
     6
370
     9
100
AcDbLine
 10
87.67114389847063
 20
319.9559320482967
 30
0.0
 11
92.43829683937537
 21
321.4560133499527
 31
0.0
  0
LINE
  5
32B
330
1F
100
AcDbEntity
  8
E-1
  6
Continuous
 62
     6
370
     9
100
AcDbLine
 10
93.48948341937057
 20
321.1573447647241
 30
0.0
 11
95.48944318094232
 21
321.1573447647241
 31
0.0
  0
LINE
  5
32C
330
1F
100
AcDbEntity
  8
E-1
  6
Continuous
 62
     6
370
     9
100
AcDbLine
 10
91.48947411092001
 20
323.1574531669321
 30
0.0
 11
91.48947411092001
 21
331.1576885882491
 31
0.0
  0
LINE
  5
32D
330
1F
100
AcDbEntity
  8
E-1
  6
Continuous
 62
     6
370
     9
100
AcDbLine
 10
85.48939663868987
 20
341.1574378492288
 30
0.0
 11
-55.51038014997016
 21
341.1574378492288
 31
0.0
  0
LINE
  5
32E
330
1F
100
AcDbEntity
  8
E-1
  6
Continuous
 62
     6
370
     9
100
AcDbLine
 10
38.31829070522428
 20
299.6573685660785
 30
0.0
 11
1.380101644232463
 21
299.6573685660785
 31
0.0
  0
LINE
  5
32F
330
1F
100
AcDbEntity
  8
E-1
  6
Continuous
 62
     6
370
     9
100
AcDbLine
 10
42.48944424139864
 20
300.1574947603881
 30
0.0
 11
55.55133925103229
 21
300.1574947603881
 31
0.0
  0
LINE
  5
330
330
1F
100
AcDbEntity
  8
E-1
  6
Continuous
 62
     6
370
     9
100
AcDbLine
 10
38.31829070522428
 20
299.6573685660785
 30
0.0
 11
42.48944424139864
 21
300.1574947603881
 31
0.0
  0
LINE
  5
331
330
1F
100
AcDbEntity
  8
E-1
  6
Continuous
 62
     6
370
     9
100
AcDbLine
 10
86.72237071689409
 20
321.6573718652761
 30
0.0
 11
86.72237071689409
 21
329.6577063803506
 31
0.0
  0
LINE
  5
332
330
1F
100
AcDbEntity
  8
E-1
  6
Continuous
 62
     6
370
     9
100
AcDbLine
 10
85.48939663868987
 20
340.1574827418823
 30
0.0
 11
40.98272365798743
 21
340.1574827418823
 31
0.0
  0
LINE
  5
333
330
1F
100
AcDbEntity
  8
E-1
  6
Continuous
 62
     6
370
     9
100
AcDbLine
 10
38.31829070522428
 20
298.1570890769074
 30
0.0
 11
38.31829070522428
 21
298.7700830610562
 31
0.0
  0
LINE
  5
334
330
1F
100
AcDbEntity
  8
E-1
  6
Continuous
 62
     6
370
     9
100
AcDbLine
 10
42.48944424139864
 20
298.1570890769074
 30
0.0
 11
42.48944424139864
 21
299.1575396530416
 31
0.0
  0
LINE
  5
335
330
1F
100
AcDbEntity
  8
E-1
  6
Continuous
 62
     6
370
     9
100
AcDbLine
 10
57.05132145893072
 20
298.1570890769074
 30
0.0
 11
57.05132145893072
 21
298.6575125524895
 31
0.0
  0
LINE
  5
336
330
1F
100
AcDbEntity
  8
E-1
  6
Continuous
 62
     6
370
     9
100
AcDbLine
 10
64.4894227671569
 20
261.8138589361919
 30
0.0
 11
65.98947929537354
 21
262.1572188060716
 31
0.0
  0
LINE
  5
337
330
1F
100
AcDbEntity
  8
E-1
  6
Continuous
 62
     6
370
     9
100
AcDbLine
 10
64.4894227671569
 20
259.1571552965171
 30
0.0
 11
65.19291412538001
 21
259.1571552965171
 31
0.0
  0
LINE
  5
338
330
1F
100
AcDbEntity
  8
E-1
  6
Continuous
 62
     6
370
     9
100
AcDbLine
 10
64.4894227671569
 20
249.5005181710231
 30
0.0
 11
65.98947929537354
 21
249.1571087542647
 31
0.0
  0
LINE
  5
339
330
1F
100
AcDbEntity
  8
E-1
  6
Continuous
 62
     6
370
     9
100
AcDbLine
 10
64.4894227671569
 20
252.1571722638192
 30
0.0
 11
65.19291412538001
 21
252.1571722638192
 31
0.0
  0
LINE
  5
33A
330
1F
100
AcDbEntity
  8
E-1
  6
Continuous
 62
     6
370
     9
100
AcDbLine
 10
64.4894227671569
 20
215.8138430293462
 30
0.0
 11
65.98947929537354
 21
216.1571038054683
 31
0.0
  0
LINE
  5
33B
330
1F
100
AcDbEntity
  8
E-1
  6
Continuous
 62
     6
370
     9
100
AcDbLine
 10
64.4894227671569
 20
213.1571393896713
 30
0.0
 11
65.19291412538001
 21
213.1571393896713
 31
0.0
  0
ARC
  5
33C
330
1F
100
AcDbEntity
  8
E-1
  6
Continuous
 62
     6
370
     9
100
AcDbCircle
 10
85.48939663868987
 20
331.1573913069765
 30
0.0
 40
9.999999317883525
100
AcDbArc
 50
0.0
 51
90.0
  0
ARC
  5
33D
330
1F
100
AcDbEntity
  8
E-1
  6
Continuous
 62
     6
370
     9
100
AcDbCircle
 10
86.48930219915769
 20
331.1576885882491
 30
0.0
 40
4.999999658941762
100
AcDbArc
 50
0.0
 51
90.0
  0
ARC
  5
33E
330
1F
100
AcDbEntity
  8
E-1
  6
Continuous
 62
     6
370
     9
100
AcDbCircle
 10
62.98951487957652
 20
298.15738635818
 30
0.0
 40
3.000000027616052
100
AcDbArc
 50
0.0
 51
90.0
  0
ARC
  5
33F
330
1F
100
AcDbEntity
  8
E-1
  6
Continuous
 62
     6
370
     9
100
AcDbCircle
 10
67.98943905694529
 20
303.1571618949124
 30
0.0
 40
3.000000027616052
100
AcDbArc
 50
0.0
 51
90.0
  0
ARC
  5
340
330
1F
100
AcDbEntity
  8
E-1
  6
Continuous
 62
     6
370
     9
100
AcDbCircle
 10
13.48950745638182
 20
302.0494918731188
 30
0.0
 40
1.00000000920535
100
AcDbArc
 50
276.5266265869141
 51
0.0
  0
ARC
  5
341
330
1F
100
AcDbEntity
  8
E-1
  6
Continuous
 62
     6
370
     9
100
AcDbCircle
 10
13.48950745638182
 20
305.2305996777008
 30
0.0
 40
1.00000000920535
100
AcDbArc
 50
0.0000000000000254
 51
85.63882446289065
  0
ARC
  5
342
330
1F
100
AcDbEntity
  8
E-1
  6
Continuous
 62
     6
370
     9
100
AcDbCircle
 10
55.55133925103229
 20
298.6575125524895
 30
0.0
 40
1.500000013808026
100
AcDbArc
 50
0.0
 51
90.0
  0
ARC
  5
343
330
1F
100
AcDbEntity
  8
E-1
  6
Continuous
 62
     6
370
     9
100
AcDbCircle
 10
40.48948447982706
 20
336.9697356555452
 30
0.0
 40
1.00000000920535
100
AcDbArc
 50
281.8459014892578
 51
0.0
  0
ARC
  5
344
330
1F
100
AcDbEntity
  8
E-1
  6
Continuous
 62
     6
370
     9
100
AcDbCircle
 10
40.48948447982706
 20
339.2875386444297
 30
0.0
 40
1.00000000920535
100
AcDbArc
 50
0.0000000000000254
 51
82.04058837890626
  0
ARC
  5
345
330
1F
100
AcDbEntity
  8
E-1
  6
Continuous
 62
     6
370
     9
100
AcDbCircle
 10
93.48948341937057
 20
323.1574531669321
 30
0.0
 40
2.000000018410701
100
AcDbArc
 50
180.0
 51
270.0
  0
ARC
  5
346
330
1F
100
AcDbEntity
  8
E-1
  6
Continuous
 62
     6
370
     9
100
AcDbCircle
 10
-50.51060461323766
 20
338.5896213100683
 30
0.0
 40
2.000000018410701
100
AcDbArc
 50
0.0
 51
83.66004943847656
  0
ARC
  5
347
330
1F
100
AcDbEntity
  8
E-1
  6
Continuous
 62
     6
370
     9
100
AcDbCircle
 10
-43.51090647509278
 20
304.3308283592282
 30
0.0
 40
2.000000018410701
100
AcDbArc
 50
0.0
 51
84.80563354492186
  0
ARC
  5
348
330
1F
100
AcDbEntity
  8
E-1
  6
Continuous
 62
     6
370
     9
100
AcDbCircle
 10
88.72238002534448
 20
321.6573718652761
 30
0.0
 40
2.000000018410701
100
AcDbArc
 50
180.0
 51
270.0
  0
ARC
  5
349
330
1F
100
AcDbEntity
  8
E-1
  6
Continuous
 62
     6
370
     9
100
AcDbCircle
 10
-53.51045754855744
 20
338.9212881165581
 30
0.0
 40
3.000000027616052
100
AcDbArc
 50
131.8079986572266
 51
180.0
  0
ARC
  5
34A
330
1F
100
AcDbEntity
  8
E-1
  6
Continuous
 62
     6
370
     9
100
AcDbCircle
 10
43.48944889562392
 20
299.1575396530416
 30
0.0
 40
1.00000000920535
100
AcDbArc
 50
90.0
 51
180.0
  0
ARC
  5
34B
330
1F
100
AcDbEntity
  8
E-1
  6
Continuous
 62
     6
370
     9
100
AcDbCircle
 10
42.54934641783216
 20
299.1575396530416
 30
0.0
 40
1.00000000920535
100
AcDbArc
 50
90.00000000000001
 51
96.83645629882814
  0
ARC
  5
34C
330
1F
100
AcDbEntity
  8
E-1
  6
Continuous
 62
     6
370
     9
100
AcDbCircle
 10
41.48943958717336
 20
299.0304023621164
 30
0.0
 40
1.00000000920535
100
AcDbArc
 50
0.0000000000000127
 51
96.83645629882814
  0
ARC
  5
34D
330
1F
100
AcDbEntity
  8
E-1
  6
Continuous
 62
     6
370
     9
100
AcDbCircle
 10
39.31829535944956
 20
298.7700830610562
 30
0.0
 40
1.00000000920535
100
AcDbArc
 50
96.83628845214842
 51
180.0
  0
ARC
  5
34E
330
1F
100
AcDbEntity
  8
E-1
  6
Continuous
 62
     6
370
     9
100
AcDbCircle
 10
37.31828605099917
 20
298.6574134587321
 30
0.0
 40
1.00000000920535
100
AcDbArc
 50
0.0
 51
90.0
  0
ARC
  5
34F
330
1F
100
AcDbEntity
  8
E-1
  6
Continuous
 62
     6
370
     9
100
AcDbCircle
 10
38.25853716942719
 20
300.6574227671825
 30
0.0
 40
1.00000000920535
100
AcDbArc
 50
270.0
 51
276.8364562988281
  0
ARC
  5
350
330
1F
100
AcDbEntity
  8
E-1
  6
Continuous
 62
     6
370
     9
100
AcDbCircle
 10
81.72234744576804
 20
329.6577063803506
 30
0.0
 40
4.999999658941762
100
AcDbArc
 50
0.0
 51
90.0
  0
ARC
  5
351
330
1F
100
AcDbEntity
  8
E-1
  6
Continuous
 62
     6
370
     9
100
AcDbCircle
 10
85.48939663868987
 20
330.1575352933875
 30
0.0
 40
9.999999317883525
100
AcDbArc
 50
0.0
 51
90.0
  0
LINE
  5
352
330
1F
100
AcDbEntity
  8
E-2
  6
Continuous
 62
     3
370
     9
100
AcDbLine
 10
-14.22642196529694
 20
223.1571007732257
 30
0.0
 11
-14.22642196529694
 21
214.4071219823534
 31
0.0
  0
LINE
  5
353
330
1F
100
AcDbEntity
  8
E-2
  6
Continuous
 62
     3
370
     9
100
AcDbLine
 10
-14.22642196529694
 20
298.1571030119671
 30
0.0
 11
-14.22642196529694
 21
288.4071691137482
 31
0.0
  0
LINE
  5
354
330
1F
100
AcDbEntity
  8
E-2
  6
Continuous
 62
     3
370
     9
100
AcDbLine
 10
-14.22642196529694
 20
241.9071261063506
 30
0.0
 11
-14.22642196529694
 21
232.9071337652021
 31
0.0
  0
LINE
  5
355
330
1F
100
AcDbEntity
  8
E-2
  6
Continuous
 62
     3
370
     9
100
AcDbLine
 10
52.48941646333287
 20
280.9071589804983
 30
0.0
 11
52.48941646333287
 21
286.4071598052979
 31
0.0
  0
LINE
  5
356
330
1F
100
AcDbEntity
  8
E-2
  6
Continuous
 62
     3
370
     9
100
AcDbLine
 10
52.48941646333287
 20
262.4071471976496
 30
0.0
 11
52.48941646333287
 21
267.907148022449
 31
0.0
  0
LINE
  5
357
330
1F
100
AcDbEntity
  8
E-2
  6
Continuous
 62
     3
370
     9
100
AcDbLine
 10
52.48941646333287
 20
243.907135414801
 30
0.0
 11
52.48941646333287
 21
249.4071362396003
 31
0.0
  0
LINE
  5
358
330
1F
100
AcDbEntity
  8
E-2
  6
Continuous
 62
     3
370
     9
100
AcDbLine
 10
52.48941646333287
 20
225.4071236319523
 30
0.0
 11
52.48941646333287
 21
230.9071244567517
 31
0.0
  0
LINE
  5
359
330
1F
100
AcDbEntity
  8
E-2
  6
Continuous
 62
     3
370
     9
100
AcDbLine
 10
-22.83293776868931
 20
232.9071337652021
 30
0.0
 11
50.48940715488231
 21
232.9071337652021
 31
0.0
  0
LINE
  5
35A
330
1F
100
AcDbEntity
  8
E-2
  6
Continuous
 62
     3
370
     9
100
AcDbLine
 10
-24.83294707713969
 20
225.4071236319523
 30
0.0
 11
-24.83294707713969
 21
230.9071244567517
 31
0.0
  0
LINE
  5
35B
330
1F
100
AcDbEntity
  8
E-2
  6
Continuous
 62
     3
370
     9
100
AcDbLine
 10
-22.83293776868931
 20
223.4071143235017
 30
0.0
 11
50.48940715488231
 21
223.4071143235017
 31
0.0
  0
LINE
  5
35C
330
1F
100
AcDbEntity
  8
E-2
  6
Continuous
 62
     3
370
     9
100
AcDbLine
 10
-31.90400510743399
 20
225.4071236319523
 30
0.0
 11
-31.90400510743399
 21
230.9071244567517
 31
0.0
  0
LINE
  5
35D
330
1F
100
AcDbEntity
  8
E-2
  6
Continuous
 62
     3
370
     9
100
AcDbLine
 10
-33.90401441588438
 20
225.4071236319523
 30
0.0
 11
-33.90401441588438
 21
230.9071244567517
 31
0.0
  0
ARC
  5
35E
330
1F
100
AcDbEntity
  8
E-2
  6
Continuous
 62
     3
370
     9
100
AcDbCircle
 10
61.48943357792064
 20
295.1570890492914
 30
0.0
 40
3.000000027616051
100
AcDbArc
 50
0.0000000000000254
 51
90.00000000000001
  0
ARC
  5
35F
330
1F
100
AcDbEntity
  8
E-2
  6
Continuous
 62
     3
370
     9
100
AcDbCircle
 10
-22.83293776868931
 20
212.407112673903
 30
0.0
 40
2.0000000184107
100
AcDbArc
 50
90.0
 51
180.0
  0
ARC
  5
360
330
1F
100
AcDbEntity
  8
E-2
  6
Continuous
 62
     3
370
     9
100
AcDbCircle
 10
50.48940715488231
 20
286.4071598052979
 30
0.0
 40
2.0000000184107
100
AcDbArc
 50
0.0000000000000254
 51
90.00000000000001
  0
ARC
  5
361
330
1F
100
AcDbEntity
  8
E-2
  6
Continuous
 62
     3
370
     9
100
AcDbCircle
 10
50.48940715488231
 20
280.9071589804983
 30
0.0
 40
2.0000000184107
100
AcDbArc
 50
270.0
 51
0.0
  0
ARC
  5
362
330
1F
100
AcDbEntity
  8
E-2
  6
Continuous
 62
     3
370
     9
100
AcDbCircle
 10
50.48940715488231
 20
267.907148022449
 30
0.0
 40
2.0000000184107
100
AcDbArc
 50
0.0000000000000254
 51
90.00000000000001
  0
ARC
  5
363
330
1F
100
AcDbEntity
  8
E-2
  6
Continuous
 62
     3
370
     9
100
AcDbCircle
 10
50.48940715488231
 20
262.4071471976496
 30
0.0
 40
2.0000000184107
100
AcDbArc
 50
270.0
 51
0.0
  0
ARC
  5
364
330
1F
100
AcDbEntity
  8
E-2
  6
Continuous
 62
     3
370
     9
100
AcDbCircle
 10
50.48940715488231
 20
249.4071362396003
 30
0.0
 40
2.0000000184107
100
AcDbArc
 50
0.0000000000000254
 51
90.00000000000001
  0
ARC
  5
365
330
1F
100
AcDbEntity
  8
E-2
  6
Continuous
 62
     3
370
     9
100
AcDbCircle
 10
50.48940715488231
 20
243.907135414801
 30
0.0
 40
2.0000000184107
100
AcDbArc
 50
270.0
 51
0.0
  0
ARC
  5
366
330
1F
100
AcDbEntity
  8
E-2
  6
Continuous
 62
     3
370
     9
100
AcDbCircle
 10
50.48940715488231
 20
230.9071244567517
 30
0.0
 40
2.0000000184107
100
AcDbArc
 50
0.0000000000000254
 51
90.00000000000001
  0
ARC
  5
367
330
1F
100
AcDbEntity
  8
E-2
  6
Continuous
 62
     3
370
     9
100
AcDbCircle
 10
50.48940715488231
 20
225.4071236319523
 30
0.0
 40
2.0000000184107
100
AcDbArc
 50
270.0
 51
0.0
  0
ARC
  5
368
330
1F
100
AcDbEntity
  8
E-2
  6
Continuous
 62
     3
370
     9
100
AcDbCircle
 10
-22.83293776868931
 20
230.9071244567517
 30
0.0
 40
2.0000000184107
100
AcDbArc
 50
90.0
 51
180.0
  0
ARC
  5
369
330
1F
100
AcDbEntity
  8
E-2
  6
Continuous
 62
     3
370
     9
100
AcDbCircle
 10
-22.83293776868931
 20
225.4071236319523
 30
0.0
 40
2.0000000184107
100
AcDbArc
 50
180.0
 51
270.0
  0
ARC
  5
36A
330
1F
100
AcDbEntity
  8
E-2
  6
Continuous
 62
     3
370
     9
100
AcDbCircle
 10
-33.90401441588438
 20
230.9071244567517
 30
0.0
 40
2.0000000184107
100
AcDbArc
 50
0.0000000000000254
 51
90.00000000000001
  0
ARC
  5
36B
330
1F
100
AcDbEntity
  8
E-2
  6
Continuous
 62
     3
370
     9
100
AcDbCircle
 10
-33.90401441588438
 20
225.4071236319523
 30
0.0
 40
2.0000000184107
100
AcDbArc
 50
270.0
 51
0.0
  0
ARC
  5
36C
330
1F
100
AcDbEntity
  8
E-2
  6
Continuous
 62
     3
370
     9
100
AcDbCircle
 10
-33.90401441588438
 20
212.407112673903
 30
0.0
 40
2.0000000184107
100
AcDbArc
 50
0.0000000000000254
 51
90.00000000000001
  0
ARC
  5
36D
330
1F
100
AcDbEntity
  8
E-2
  6
Continuous
 62
     3
370
     9
100
AcDbCircle
 10
-35.90402372433493
 20
230.9071244567517
 30
0.0
 40
2.0000000184107
100
AcDbArc
 50
0.0000000000000254
 51
90.00000000000001
  0
ARC
  5
36E
330
1F
100
AcDbEntity
  8
E-2
  6
Continuous
 62
     3
370
     9
100
AcDbCircle
 10
-35.90402372433493
 20
225.4071236319523
 30
0.0
 40
2.0000000184107
100
AcDbArc
 50
270.0
 51
0.0
  0
ARC
  5
36F
330
1F
100
AcDbEntity
  8
E-2
  6
Continuous
 62
     3
370
     9
100
AcDbCircle
 10
-35.90402372433493
 20
212.407112673903
 30
0.0
 40
2.0000000184107
100
AcDbArc
 50
0.0000000000000254
 51
90.00000000000001
  0
LINE
  5
370
330
1F
100
AcDbEntity
  8
E-2
  6
Continuous
 62
     3
370
     9
100
AcDbLine
 10
-14.16707758300231
 20
251.4071455480508
 30
0.0
 11
50.48940715488231
 21
251.4071455480508
 31
0.0
  0
LINE
  5
371
330
1F
100
AcDbEntity
  8
E-2
  6
JWW_CENTER1
 62
     3
370
     9
100
AcDbLine
 10
-28.36846370556714
 20
249.6505818587948
 30
0.0
 11
-28.36846370556714
 21
281.5336156864769
 31
0.0
  0
LINE
  5
372
330
1F
100
AcDbEntity
  8
E-2
  6
Continuous
 62
     3
370
     9
100
AcDbLine
 10
-8.16741742651061
 20
269.9071573308996
 30
0.0
 11
50.48940715488231
 21
269.9071573308996
 31
0.0
  0
ARC
  5
373
330
1F
100
AcDbEntity
  8
E-2
  6
Continuous
 62
     3
370
     9
100
AcDbCircle
 10
-8.16741742651061
 20
267.9071573308996
 30
0.0
 40
1.999999999999999
100
AcDbArc
 50
90.0
 51
187.7521385876873
  0
LINE
  5
374
330
1F
100
AcDbEntity
  8
E-2
  6
Continuous
 62
     3
370
     9
100
AcDbLine
 10
-8.16741742651061
 20
260.4071378891992
 30
0.0
 11
50.48940715488231
 21
260.4071378891992
 31
0.0
  0
ARC
  5
375
330
1F
100
AcDbEntity
  8
E-2
  6
Continuous
 62
     3
370
     9
100
AcDbCircle
 10
-28.36846370556714
 20
265.1571476100493
 30
0.0
 40
18.38736923277136
100
AcDbArc
 50
352.2478614123133
 51
7.752138587686957
  0
ARC
  5
376
330
1F
100
AcDbEntity
  8
E-2
  6
Continuous
 62
     3
370
     9
100
AcDbCircle
 10
-8.16741742651061
 20
262.4071378891992
 30
0.0
 40
1.999999999999999
100
AcDbArc
 50
172.2478614123135
 51
270.0
  0
LINE
  5
377
330
1F
100
AcDbEntity
  8
E-2
  6
Continuous
 62
     3
370
     9
100
AcDbLine
 10
-18.05613424394369
 20
288.4071691137482
 30
0.0
 11
50.48940715488231
 21
288.4071691137482
 31
0.0
  0
ARC
  5
378
330
1F
100
AcDbEntity
  8
E-2
  6
Continuous
 62
     3
370
     9
100
AcDbCircle
 10
-18.05613424394369
 20
285.4071691137482
 30
0.0
 40
2.999999999999999
100
AcDbArc
 50
90.0
 51
243.0125171787066
  0
LINE
  5
379
330
1F
100
AcDbEntity
  8
E-2
  6
Continuous
 62
     3
370
     9
100
AcDbLine
 10
-13.40531757827267
 20
278.9071496720479
 30
0.0
 11
50.48940715488231
 21
278.9071496720479
 31
0.0
  0
ARC
  5
37A
330
1F
100
AcDbEntity
  8
E-2
  6
Continuous
 62
     3
370
     9
100
AcDbCircle
 10
-28.36846370556714
 20
265.1571476100493
 30
0.0
 40
19.72460142280468
100
AcDbArc
 50
46.46756900600587
 51
63.01251717870669
  0
ARC
  5
37B
330
1F
100
AcDbEntity
  8
E-2
  6
Continuous
 62
     3
370
     9
100
AcDbCircle
 10
-13.40531757827267
 20
280.9071496720479
 30
0.0
 40
1.999999999999999
100
AcDbArc
 50
226.4675690060056
 51
270.0
  0
ARC
  5
37C
330
1F
100
AcDbEntity
  8
E-2
  6
Continuous
 62
     3
370
     9
100
AcDbCircle
 10
-18.05613424394369
 20
244.9071261063504
 30
0.0
 40
3.0
100
AcDbArc
 50
116.9874828212934
 51
270.0
  0
ARC
  5
37D
330
1F
100
AcDbEntity
  8
E-2
  6
Continuous
 62
     3
370
     9
100
AcDbCircle
 10
-28.36846370556714
 20
265.1571476100493
 30
0.0
 40
19.72460142280469
100
AcDbArc
 50
296.9874828212933
 51
313.5324309939941
  0
ARC
  5
37E
330
1F
100
AcDbEntity
  8
E-2
  6
Continuous
 62
     3
370
     9
100
AcDbCircle
 10
-13.40531757827267
 20
249.4071455480508
 30
0.0
 40
2.0
100
AcDbArc
 50
90.0
 51
133.5324309939944
  0
LINE
  5
37F
330
1F
100
AcDbEntity
  8
E-2
  6
Continuous
 62
     3
370
     9
100
AcDbLine
 10
-18.05613424394369
 20
241.9071261063506
 30
0.0
 11
50.48940715488231
 21
241.9071261063506
 31
0.0
  0
ARC
  5
380
330
1F
100
AcDbEntity
  8
E-2
  6
Continuous
 62
     3
370
     9
100
AcDbCircle
 10
-38.76365876820557
 20
285.4071691137482
 30
0.0
 40
2.999999999999999
100
AcDbArc
 50
297.1733532360034
 51
90.00000000000001
  0
ARC
  5
381
330
1F
100
AcDbEntity
  8
E-2
  6
Continuous
 62
     3
370
     9
100
AcDbCircle
 10
-41.12168837675961
 20
285.2071691137483
 30
0.0
 40
3.999999999999998
100
AcDbArc
 50
302.459231125501
 51
53.12295989212736
  0
ARC
  5
382
330
1F
100
AcDbEntity
  8
E-2
  6
Continuous
 62
     3
370
     9
100
AcDbCircle
 10
-38.76365876820557
 20
244.9071261063504
 30
0.0
 40
3.0
100
AcDbArc
 50
270.0
 51
62.82664676399656
  0
ARC
  5
383
330
1F
100
AcDbEntity
  8
E-2
  6
Continuous
 62
     3
370
     9
100
AcDbCircle
 10
-41.12168837675961
 20
245.1071261063504
 30
0.0
 40
4.0
100
AcDbArc
 50
306.8770401078726
 51
57.54076887449891
  0
ELLIPSE
  5
384
330
1F
100
AcDbEntity
  8
E-A
  6
Continuous
 62
     2
370
     9
100
AcDbEllipse
 10
-26.7179344806878
 20
265.1571476100493
 30
0.0
 11
3.061616997868383E-16
 21
5.0
 31
0.0
210
0.0
220
0.0
230
1.0
 40
0.7071048989705531
 41
0.0
 42
3.141592653589793
  0
LINE
  5
385
330
1F
100
AcDbEntity
  8
E-A
  6
Continuous
 62
     2
370
     9
100
AcDbLine
 10
-22.46247299164497
 20
260.1571476100494
 30
0.0
 11
-23.89133858578009
 21
256.6571476100494
 31
0.0
  0
LINE
  5
386
330
1F
100
AcDbEntity
  8
E-A
  6
Continuous
 62
     2
370
     9
100
AcDbLine
 10
-22.46247299164497
 20
270.1571476100494
 30
0.0
 11
-23.89133858578009
 21
273.6571476100494
 31
0.0
  0
LINE
  5
387
330
1F
100
AcDbEntity
  8
E-A
  6
Continuous
 62
     2
370
     9
100
AcDbLine
 10
-30.81031634604238
 20
256.6571476100494
 30
0.0
 11
-34.28057973512892
 21
265.1571476100493
 31
0.0
  0
LINE
  5
388
330
1F
100
AcDbEntity
  8
E-A
  6
Continuous
 62
     2
370
     9
100
AcDbLine
 10
-30.81031634604238
 20
273.6571476100494
 30
0.0
 11
-34.28057973512892
 21
265.1571476100493
 31
0.0
  0
LINE
  5
389
330
1F
100
AcDbEntity
  8
E-A
  6
Continuous
 62
     2
370
     9
100
AcDbLine
 10
-23.89133858578009
 20
256.6571476100494
 30
0.0
 11
-35.32365238411523
 21
256.6571476100494
 31
0.0
  0
LINE
  5
38A
330
1F
100
AcDbEntity
  8
E-A
  6
Continuous
 62
     2
370
     9
100
AcDbLine
 10
-23.89133858578009
 20
273.6571476100494
 30
0.0
 11
-35.32365238411523
 21
273.6571476100494
 31
0.0
  0
LINE
  5
38B
330
1F
100
AcDbEntity
  8
E-A
  6
Continuous
 62
     2
370
     9
100
AcDbLine
 10
-34.28057973512892
 20
265.1571476100493
 30
0.0
 11
-37.56081619410531
 21
265.1571476100493
 31
0.0
  0
ELLIPSE
  5
38C
330
1F
100
AcDbEntity
  8
E-2
  6
Continuous
 62
     3
370
     9
100
AcDbEllipse
 10
-31.90400687868828
 20
265.1571476100493
 30
0.0
 11
-1.199071815626999E-14
 21
-14.5
 31
0.0
210
0.0
220
0.0
230
1.0
 40
0.7071027279390982
 41
0.4745023240008708
 42
1.218741227485893
  0
ELLIPSE
  5
38D
330
1F
100
AcDbEntity
  8
E-2
  6
Continuous
 62
     3
370
     9
100
AcDbEllipse
 10
-31.90400687868828
 20
265.1571476100493
 30
0.0
 11
-1.199071815626999E-14
 21
-14.5
 31
0.0
210
0.0
220
0.0
230
1.0
 40
0.7071027279390982
 41
1.922851426103901
 42
2.667090329588922
  0
LINE
  5
38E
330
1F
100
AcDbEntity
  8
E-2
  6
Continuous
 62
     3
370
     9
100
AcDbLine
 10
-22.83293776868931
 20
214.4071219823534
 30
0.0
 11
50.52156307920438
 21
214.4071219823534
 31
0.0
  0
ARC
  5
38F
330
1F
100
AcDbEntity
  8
E-2
  6
Continuous
 62
     3
370
     9
100
AcDbCircle
 10
50.52156307920438
 20
212.407112673903
 30
0.0
 40
2.0000000184107
100
AcDbArc
 50
349.7136840820313
 51
90.00000000000001
  0
LINE
  5
390
330
1F
100
AcDbEntity
  8
E-A
  6
Continuous
 62
     2
370
     9
100
AcDbLine
 10
-37.92212322911632
 20
210.1361670972757
 30
0.0
 11
-39.91060730267299
 21
210.1361670972757
 31
0.0
  0
ARC
  5
391
330
1F
100
AcDbEntity
  8
E-A
  6
Continuous
 62
     2
370
     9
100
AcDbCircle
 10
-47.91064453647488
 20
209.6571478733224
 30
0.0
 40
10.00000086622349
100
AcDbArc
 50
2.745628446522197
 51
36.86987304687499
  0
LINE
  5
392
330
1F
100
AcDbEntity
  8
E-2
  6
Continuous
 62
     3
370
     9
100
AcDbLine
 10
-33.90401441588438
 20
214.4071219823534
 30
0.0
 11
-39.11077162330139
 21
214.4071219823534
 31
0.0
  0
LINE
  5
393
330
1F
100
AcDbEntity
  8
E-2
  6
Continuous
 62
     3
370
     9
100
AcDbLine
 10
-33.90401441588438
 20
223.4071143235017
 30
0.0
 11
-41.51089716664239
 21
223.4071143235017
 31
0.0
  0
LINE
  5
394
330
1F
100
AcDbEntity
  8
E-2
  6
Continuous
 62
     3
370
     9
100
AcDbLine
 10
-33.90401441588438
 20
232.9071337652021
 30
0.0
 11
-41.51089716664239
 21
232.9071337652021
 31
0.0
  0
LINE
  5
395
330
1F
100
AcDbEntity
  8
E-2
  6
Continuous
 62
     3
370
     9
100
AcDbLine
 10
-38.76365876820557
 20
241.9071261063504
 30
0.0
 11
-41.51089716664239
 21
241.9071261063504
 31
0.0
  0
ARC
  5
396
330
1F
100
AcDbEntity
  8
E-2
  6
Continuous
 62
     3
370
     9
100
AcDbCircle
 10
-28.36846370556714
 20
265.1571476100493
 30
0.0
 40
19.76232526106613
100
AcDbArc
 50
228.3157834161955
 51
242.8266467639966
  0
ARC
  5
397
330
1F
100
AcDbEntity
  8
E-2
  6
Continuous
 62
     3
370
     9
100
AcDbCircle
 10
-28.36846370556714
 20
265.1571476100493
 30
0.0
 40
19.76232526106612
100
AcDbArc
 50
117.1733532360034
 51
131.6842165838045
  0
LINE
  5
398
330
1F
100
AcDbEntity
  8
E-2
  6
Continuous
 62
     3
370
     9
100
AcDbLine
 10
-38.76365876820557
 20
288.4071691137482
 30
0.0
 11
-41.51089716664239
 21
288.4071691137482
 31
0.0
  0
LINE
  5
399
330
1F
100
AcDbEntity
  8
E-2
  6
Continuous
 62
     3
370
     9
100
AcDbLine
 10
-41.51089716664239
 20
298.1571030119671
 30
0.0
 11
61.48943357792064
 21
298.1571030119671
 31
0.0
  0
ELLIPSE
  5
39A
330
1F
100
AcDbEntity
  8
E-A
  6
Continuous
 62
     2
370
     9
100
AcDbEllipse
 10
-14.13148992690947
 20
265.1571476100493
 30
0.0
 11
3.061616997868383E-16
 21
5.0
 31
0.0
210
0.0
220
0.0
230
1.0
 40
0.7071048989705531
 41
0.0
 42
6.283185307179586
  0
LINE
  5
39B
330
1F
100
AcDbEntity
  8
E-A
  6
Continuous
 62
     2
370
     9
100
AcDbLine
 10
-14.66190617116166
 20
260.2137364173511
 30
0.0
 11
-14.66190617116166
 21
270.1005588027476
 31
0.0
  0
LINE
  5
39C
330
1F
100
AcDbEntity
  8
E-A
  6
Continuous
 62
     2
370
     9
100
AcDbLine
 10
-13.6012065904427
 20
260.2137078994774
 30
0.0
 11
-13.6012065904427
 21
270.1005873206214
 31
0.0
  0
LINE
  5
39D
330
1F
100
AcDbEntity
  8
E-A
  6
Continuous
 62
     2
370
     9
100
AcDbLine
 10
-13.6012065904427
 20
260.2137078994774
 30
0.0
 11
-14.66190617116166
 21
260.2137078994774
 31
0.0
  0
LINE
  5
39E
330
1F
100
AcDbEntity
  8
E-A
  6
Continuous
 62
     2
370
     9
100
AcDbLine
 10
-13.6012065904427
 20
270.1005873206214
 30
0.0
 11
-14.66190617116166
 21
270.1005873206214
 31
0.0
  0
LINE
  5
39F
330
1F
100
AcDbEntity
  8
E-A
  6
Continuous
 62
     2
370
     9
100
AcDbLine
 10
-14.13148992690947
 20
260.1571476100494
 30
0.0
 11
-26.7179344806878
 21
260.1571476100494
 31
0.0
  0
LINE
  5
3A0
330
1F
100
AcDbEntity
  8
E-A
  6
Continuous
 62
     2
370
     9
100
AcDbLine
 10
-14.13148992690947
 20
270.1571476100494
 30
0.0
 11
-26.7179344806878
 21
270.1571476100494
 31
0.0
  0
LINE
  5
3A1
330
1F
100
AcDbEntity
  8
E-2
  6
Continuous
 62
     3
370
     9
100
AcDbLine
 10
-14.22642196529694
 20
260.1571476100494
 30
0.0
 11
-14.22642196529694
 21
251.4071455480508
 31
0.0
  0
LINE
  5
3A2
330
1F
100
AcDbEntity
  8
E-2
  6
Continuous
 62
     3
370
     9
100
AcDbLine
 10
-14.22642196529694
 20
279.0834754726336
 30
0.0
 11
-14.22642196529694
 21
270.1571476100494
 31
0.0
  0
LINE
  5
3A3
330
1F
100
AcDbEntity
  8
E-2
  6
JWW_CENTER1
 62
     3
370
     9
100
AcDbLine
 10
-10.20624881424652
 20
265.1571476100493
 30
0.0
 11
-34.28057973512892
 21
265.1571476100493
 31
0.0
  0
ELLIPSE
  5
3A4
330
1F
100
AcDbEntity
  8
E-2
  6
Continuous
 62
     3
370
     9
100
AcDbEllipse
 10
-28.36847107482515
 20
265.1571476100493
 30
0.0
 11
7.960204194457796E-16
 21
-13.0
 31
0.0
210
0.0
220
0.0
230
1.0
 40
0.7071034707138655
 41
1.965587446494657
 42
7.459190514274721
  0
LINE
  5
3A5
330
1F
100
AcDbEntity
  8
E-A
  6
Continuous
 62
     2
370
     9
100
AcDbLine
 10
-16.25280462382113
 20
261.1571476100494
 30
0.0
 11
-28.83924917759947
 21
261.1571476100494
 31
0.0
  0
LINE
  5
3A6
330
1F
100
AcDbEntity
  8
E-A
  6
Continuous
 62
     2
370
     9
100
AcDbLine
 10
-16.25280462382113
 20
269.1571476100494
 30
0.0
 11
-28.83924917759947
 21
269.1571476100494
 31
0.0
  0
LINE
  5
3A7
330
1F
100
AcDbEntity
  8
E-0
  6
Continuous
 62
     4
370
     9
100
AcDbLine
 10
98.48941998345879
 20
87.15685023856429
 30
0.0
 11
98.48941998345879
 21
332.1574455080805
 31
0.0
  0
LINE
  5
3A8
330
1F
100
AcDbEntity
  8
E-1
  6
Continuous
 62
     6
370
     9
100
AcDbLine
 10
95.48944318094232
 20
88.15690443966827
 30
0.0
 11
95.48944318094232
 21
331.1573913069765
 31
0.0
  0
LINE
  5
3A9
330
1F
100
AcDbEntity
  8
E-2
  6
Continuous
 62
     3
370
     9
100
AcDbLine
 10
64.4894227671569
 20
295.1570890492914
 30
0.0
 11
64.4894227671569
 21
124.1572066973535
 31
0.0
  0
LINE
  5
3AA
330
1F
100
AcDbEntity
  8
E-2
  6
Continuous
 62
     3
370
     9
100
AcDbLine
 10
52.48941646333287
 20
207.2643169749196
 30
0.0
 11
52.48941646333287
 21
212.0499787717252
 31
0.0
  0
LINE
  5
3AB
330
1F
100
AcDbEntity
  8
E-2
  6
Continuous
 62
     3
370
     9
100
AcDbLine
 10
-24.83294707713969
 20
212.407112673903
 30
0.0
 11
-24.83294707713969
 21
206.9071830727418
 31
0.0
  0
LINE
  5
3AC
330
1F
100
AcDbEntity
  8
E-2
  6
Continuous
 62
     3
370
     9
100
AcDbLine
 10
-31.90400510743399
 20
206.9071830727418
 30
0.0
 11
-31.90400510743399
 21
212.407112673903
 31
0.0
  0
LINE
  5
3AD
330
1F
100
AcDbEntity
  8
E-2
  6
Continuous
 62
     3
370
     9
100
AcDbLine
 10
-33.90401441588438
 20
206.9071830727418
 30
0.0
 11
-33.90401441588438
 21
212.407112673903
 31
0.0
  0
LINE
  5
3AE
330
1F
100
AcDbEntity
  8
E-A
  6
Continuous
 62
     2
370
     9
100
AcDbLine
 10
-39.91060730267299
 20
209.178128649369
 30
0.0
 11
-39.91060730267299
 21
210.1361670972757
 31
0.0
  0
LINE
  5
3AF
330
1F
100
AcDbEntity
  8
E-1
  6
Continuous
 62
     6
370
     9
100
AcDbLine
 10
-41.51089716664239
 20
114.9834673874165
 30
0.0
 11
-41.51089716664239
 21
304.3308283592282
 31
0.0
  0
LINE
  5
3B0
330
1F
100
AcDbEntity
  8
E-0
  6
Continuous
 62
     4
370
     9
100
AcDbLine
 10
-56.51053344483171
 20
339.3474903677421
 30
0.0
 11
-56.51053344483171
 21
79.96680537890273
 31
0.0
  0
LINE
  5
3B1
330
1F
100
AcDbEntity
  8
E-1
  6
Continuous
 62
     6
370
     9
100
AcDbLine
 10
-48.51062007822668
 20
80.72467443657649
 30
0.0
 11
-48.51062007822668
 21
338.5896213100683
 31
0.0
  0
LINE
  5
3B2
330
1F
100
AcDbEntity
  8
E-1
  6
Continuous
 62
     6
370
     9
100
AcDbLine
 10
-56.51053344483171
 20
80.39300763008669
 30
0.0
 11
-56.51053344483171
 21
338.9212881165581
 31
0.0
  0
LINE
  5
3B3
330
1F
100
AcDbEntity
  8
E-0
  6
Continuous
 62
     4
370
     9
100
AcDbLine
 10
-67.51053509443062
 20
342.1574425034541
 30
0.0
 11
-67.51053509443062
 21
77.15685324319071
 31
0.0
  0
LINE
  5
3B4
330
1F
100
AcDbEntity
  8
E-4
  6
Continuous
 62
     7
370
     9
100
AcDbLine
 10
133.4894199834588
 20
298.1570890769074
 30
0.0
 11
133.4894199834588
 21
121.1571927346777
 31
0.0
  0
LINE
  5
3B5
330
1F
100
AcDbEntity
  8
E-4
  6
Continuous
 62
     7
370
     9
100
AcDbLine
 10
134.3894199834588
 20
298.1570890769074
 30
0.0
 11
67.48943357792064
 21
298.1570890769074
 31
0.0
  0
LINE
  5
3B6
330
1F
100
AcDbEntity
  8
E-4
  6
Continuous
 62
     7
370
     9
100
AcDbLine
 10
134.3894199834588
 20
121.1571927346777
 30
0.0
 11
67.48943357792065
 21
121.1571927346777
 31
0.0
  0
TEXT
  5
3B7
330
1F
100
AcDbEntity
  8
E-4
  6
Continuous
 62
     2
370
   211
100
AcDbText
 10
129.9974199834588
 20
199.9071409057925
 30
0.0
 40
9.144
  1
177
 50
90.0
 41
1.083333333333333
  7
ＭＳ ゴシック
100
AcDbText
  0
LINE
  5
3B8
330
1F
100
AcDbEntity
  8
E-4
  6
Continuous
 62
     7
370
     9
100
AcDbLine
 10
130.4178716020701
 20
17.47555131258294
 30
0.0
 11
-37.92140102977066
 21
-150.8637213192579
 31
0.0
  0
LINE
  5
3B9
330
1F
100
AcDbEntity
  8
E-4
  6
Continuous
 62
     7
370
     9
100
AcDbLine
 10
133.4894199834588
 20
298.1570890769074
 30
0.0
 11
134.4683664251092
 21
290.7212526166039
 31
0.0
  0
LINE
  5
3BA
330
1F
100
AcDbEntity
  8
E-4
  6
Continuous
 62
     7
370
     9
100
AcDbLine
 10
133.4894199834588
 20
298.1570890769074
 30
0.0
 11
132.5104735418084
 21
290.7212526166039
 31
0.0
  0
LINE
  5
3BB
330
1F
100
AcDbEntity
  8
E-4
  6
Continuous
 62
     7
370
     9
100
AcDbLine
 10
133.4894199834588
 20
121.1571927346777
 30
0.0
 11
132.5104735418084
 21
128.5930291949813
 31
0.0
  0
LINE
  5
3BC
330
1F
100
AcDbEntity
  8
E-4
  6
Continuous
 62
     7
370
     9
100
AcDbLine
 10
133.4894199834588
 20
121.1571927346777
 30
0.0
 11
134.4683664251092
 21
128.5930291949813
 31
0.0
  0
LINE
  5
3BD
330
1F
100
AcDbEntity
  8
E-4
  6
Continuous
 62
     7
370
     9
100
AcDbLine
 10
163.4894199834588
 20
342.157445600134
 30
0.0
 11
164.4683664251092
 21
334.7216091398304
 31
0.0
  0
LINE
  5
3BE
330
1F
100
AcDbEntity
  8
E-4
  6
Continuous
 62
     7
370
     9
100
AcDbLine
 10
163.4894199834588
 20
342.157445600134
 30
0.0
 11
162.5104735418084
 21
334.7216091398304
 31
0.0
  0
LINE
  5
3BF
330
1F
100
AcDbEntity
  8
E-4
  6
Continuous
 62
     7
370
     9
100
AcDbLine
 10
185.9497110036158
 20
-82.5244486874171
 30
0.0
 11
25.13147196553356
 21
-243.3426877254993
 31
0.0
  0
LINE
  5
3C0
330
1F
100
AcDbEntity
  8
E-4
  6
Continuous
 62
     7
370
     9
100
AcDbLine
 10
25.13147196553373
 20
-243.3426877254993
 30
0.0
 11
29.69718268309899
 21
-237.3925376733151
 31
0.0
  0
LINE
  5
3C1
330
1F
100
AcDbEntity
  8
E-4
  6
Continuous
 62
     7
370
     9
100
AcDbLine
 10
25.13147196553373
 20
-243.3426877254993
 30
0.0
 11
31.08162201771788
 21
-238.7769770079339
 31
0.0
  0
LINE
  5
3C2
330
1F
100
AcDbEntity
  8
E-4
  6
Continuous
 62
     7
370
     9
100
AcDbLine
 10
80.36078316847764
 20
-252.8424142796139
 30
0.0
 11
86.31093322066161
 21
-248.2767035620485
 31
0.0
  0
LINE
  5
3C3
330
1F
100
AcDbEntity
  8
E-4
  6
Continuous
 62
     7
370
     9
100
AcDbLine
 10
80.36078316847764
 20
-252.8424142796139
 30
0.0
 11
84.92649388604272
 21
-246.8922642274296
 31
0.0
  0
LINE
  5
3C4
330
1F
100
AcDbEntity
  8
E-4
  6
Continuous
 62
     7
370
     9
100
AcDbLine
 10
200.6787487606742
 20
-132.5244486874171
 30
0.0
 11
80.36078316847747
 21
-252.8424142796139
 31
0.0
  0
LINE
  5
3C5
330
1F
100
AcDbEntity
  8
E-4
  6
Continuous
 62
     7
370
     9
100
AcDbLine
 10
164.3894199834588
 20
77.15685014651079
 30
0.0
 11
91.48939663868988
 21
77.15685014651079
 31
0.0
  0
LINE
  5
3C6
330
1F
100
AcDbEntity
  8
E-4
  6
Continuous
 62
     7
370
     9
100
AcDbLine
 10
163.4894199834588
 20
77.15685014651079
 30
0.0
 11
162.5104735418084
 21
84.59268660681437
 31
0.0
  0
LINE
  5
3C7
330
1F
100
AcDbEntity
  8
E-4
  6
Continuous
 62
     7
370
     9
100
AcDbLine
 10
163.4894199834588
 20
77.15685014651079
 30
0.0
 11
164.4683664251092
 21
84.59268660681437
 31
0.0
  0
LINE
  5
3C8
330
1F
100
AcDbEntity
  8
E-4
  6
Continuous
 62
     7
370
     9
100
AcDbLine
 10
163.4894199834588
 20
342.157445600134
 30
0.0
 11
163.4894199834588
 21
77.15685014651079
 31
0.0
  0
TEXT
  5
3C9
330
1F
100
AcDbEntity
  8
E-4
  6
Continuous
 62
     2
370
   211
100
AcDbText
 10
159.9974199834588
 20
199.9071478733224
 30
0.0
 40
9.144
  1
265
 50
90.0
 41
1.083333333333333
  7
ＭＳ ゴシック
100
AcDbText
  0
TEXT
  5
3CA
330
1F
100
AcDbEntity
  8
E-4
  6
Continuous
 62
     2
370
   211
100
AcDbText
 10
-152.9621702473658
 20
-227.7619481414535
 30
0.0
 40
9.144
  1
Rc4
 50
91.16664220000007
 41
1.083333333333335
  7
ＭＳ ゴシック
100
AcDbText
  0
TEXT
  5
3CB
330
1F
100
AcDbEntity
  8
F-5ﾚｲﾔ
  6
Continuous
 62
     2
370
     9
100
AcDbText
 10
-246.8282461817309
 20
-399.0051066249857
 30
0.0
 40
9.144
  1
鋳鉄製ルーフドレン　防水層張掛け幅50mm　よこ引き用　木付け用
 41
0.8991666666666668
  7
ＭＳ ゴシック
100
AcDbText
  0
TEXT
  5
3CC
330
1F
100
AcDbEntity
  8
F-5ﾚｲﾔ
  6
Continuous
 62
     2
370
     9
100
AcDbText
 10
-139.5906218050005
 20
-413.7078771941543
 30
0.0
 40
9.144
  1
ねじ込み式　シート防水用　　ＥＷＸＳ－Ｌ－１００
 41
0.8989583333333334
  7
ＭＳ ゴシック
100
AcDbText
  0
TEXT
  5
3CD
330
1F
100
AcDbEntity
  8
E-5
  6
Continuous
 62
     7
370
     9
100
AcDbText
 10
131.8719607931579
 20
21.7445513125829
 30
0.0
 40
6.858000000000001
  1
丸小ねじ：ＳＵＳ３０４
 41
1.151515151515151
  7
ＭＳ ゴシック
100
AcDbText
  0
TEXT
  5
3CE
330
1F
100
AcDbEntity
  8
E-5
  6
Continuous
 62
     7
370
     9
100
AcDbText
 10
171.6428946563386
 20
-28.25544868741707
 30
0.0
 40
6.858000000000001
  1
ボルト：ＳＵＳ３０４
 41
1.15
  7
ＭＳ ゴシック
100
AcDbText
  0
TEXT
  5
3CF
330
1F
100
AcDbEntity
  8
E-5
  6
Continuous
 62
     7
370
     9
100
AcDbText
 10
186.9320628953031
 20
-78.25544868741709
 30
0.0
 40
6.858000000000001
  1
ストレーナー：ＦＣ１５０
 41
1.152777777777777
  7
ＭＳ ゴシック
100
AcDbText
  0
TEXT
  5
3D0
330
1F
100
AcDbEntity
  8
E-5
  6
Continuous
 62
     7
370
     9
100
AcDbText
 10
202.0125515195766
 20
-128.2554486874171
 30
0.0
 40
6.858000000000001
  1
防水層押え：ＦＣ１５０
 41
1.151515151515151
  7
ＭＳ ゴシック
100
AcDbText
  0
TEXT
  5
3D1
330
1F
100
AcDbEntity
  8
E-5
  6
Continuous
 62
     7
370
     9
100
AcDbText
 10
-226.7228233901638
 20
-25.22644851169343
 30
0.0
 40
6.858000000000001
  1
本体：ＦＣ１５０
 41
1.145833333333333
  7
ＭＳ ゴシック
100
AcDbText
  0
TEXT
  5
3D2
330
1F
100
AcDbEntity
  8
E-5
  6
Continuous
 62
     7
370
     9
100
AcDbText
 10
-229.3043921139937
 20
-75.22644851169343
 30
0.0
 40
6.858000000000001
  1
木ねじ：ＳＵＳ３０４
 41
1.149999999999999
  7
ＭＳ ゴシック
100
AcDbText
  0
LINE
  5
3D3
330
1F
100
AcDbEntity
  8
E-5
  6
Continuous
 62
     7
370
     9
100
AcDbLine
 10
-227.0805804594939
 20
-29.49544851169343
 30
0.0
 11
-143.8582193768709
 21
-29.49544851169343
 31
0.0
  0
LINE
  5
3D4
330
1F
100
AcDbEntity
  8
E-5
  6
Continuous
 62
     7
370
     9
100
AcDbLine
 10
-229.5280955812192
 20
-79.49544851169344
 30
0.0
 11
-124.6507746225242
 21
-79.49544851169344
 31
0.0
  0
LINE
  5
3D5
330
1F
100
AcDbEntity
  8
E-5
  6
Continuous
 62
     7
370
     9
100
AcDbLine
 10
130.4178716020701
 20
17.47555131258294
 30
0.0
 11
246.0879311544442
 21
17.47555131258292
 31
0.0
  0
LINE
  5
3D6
330
1F
100
AcDbEntity
  8
E-5
  6
Continuous
 62
     7
370
     9
100
AcDbLine
 10
170.7946685241998
 20
-32.52444868741712
 30
0.0
 11
274.6721759528663
 21
-32.52444868741712
 31
0.0
  0
LINE
  5
3D7
330
1F
100
AcDbEntity
  8
E-5
  6
Continuous
 62
     7
370
     9
100
AcDbLine
 10
185.9497110036158
 20
-82.5244486874171
 30
0.0
 11
311.0521238781309
 21
-82.5244486874171
 31
0.0
  0
LINE
  5
3D8
330
1F
100
AcDbEntity
  8
E-5
  6
Continuous
 62
     7
370
     9
100
AcDbLine
 10
200.6787487606742
 20
-132.5244486874171
 30
0.0
 11
316.0543667178548
 21
-132.5244486874171
 31
0.0
  0
TEXT
  5
3D9
330
1F
100
AcDbEntity
  8
E-5
  6
Continuous
 62
     7
370
     9
100
AcDbText
 10
162.7529013782571
 20
6.375061332867446
 30
0.0
 40
6.858000000000001
  1
Ｍ６×１２
 41
1.133333333333334
  7
ＭＳ ゴシック
100
AcDbText
  0
TEXT
  5
3DA
330
1F
100
AcDbEntity
  8
E-5
  6
Continuous
 62
     7
370
     9
100
AcDbText
 10
191.983422238533
 20
-43.26580730342001
 30
0.0
 40
6.858000000000001
  1
Ｍ１０×７０
 41
1.138888888888889
  7
ＭＳ ゴシック
100
AcDbText
  0
TEXT
  5
3DB
330
1F
100
AcDbEntity
  8
E-5
  6
Continuous
 62
     7
370
     9
100
AcDbText
 10
223.0009174408733
 20
-93.70126440145089
 30
0.0
 40
6.858000000000001
  1
樹脂系塗装
 41
1.133333333333333
  7
ＭＳ ゴシック
100
AcDbText
  0
TEXT
  5
3DC
330
1F
100
AcDbEntity
  8
E-5
  6
Continuous
 62
     7
370
     9
100
AcDbText
 10
232.8665577392645
 20
-143.3839534830933
 30
0.0
 40
6.858000000000001
  1
樹脂系塗装
 41
1.133333333333333
  7
ＭＳ ゴシック
100
AcDbText
  0
TEXT
  5
3DD
330
1F
100
AcDbEntity
  8
E-5
  6
Continuous
 62
     7
370
     9
100
AcDbText
 10
-210.9693999181824
 20
-40.52059700227466
 30
0.0
 40
6.858000000000001
  1
樹脂系塗装
 41
1.133333333333333
  7
ＭＳ ゴシック
100
AcDbText
  0
TEXT
  5
3DE
330
1F
100
AcDbEntity
  8
E-5
  6
Continuous
 62
     7
370
     9
100
AcDbText
 10
-207.8394351018717
 20
-89.75004348784259
 30
0.0
 40
6.858000000000001
  1
４．１×３８
 41
1.138888888888889
  7
ＭＳ ゴシック
100
AcDbText
  0
ENDSEC
  0
SECTION
  2
OBJECTS
  0
DICTIONARY
  5
C
330
0
100
AcDbDictionary
281
     1
  3
ACAD_DETAILVIEWSTYLE
350
424
  3
ACAD_GROUP
350
D
  3
ACAD_LAYOUT
350
1A
  3
ACAD_MATERIAL
350
43
  3
ACAD_MLEADERSTYLE
350
6B
  3
ACAD_MLINESTYLE
350
17
  3
ACAD_PLOTSETTINGS
350
19
  3
ACAD_PLOTSTYLENAME
350
E
  3
ACAD_SCALELIST
350
47
  3
ACAD_SECTIONVIEWSTYLE
350
425
  3
ACAD_TABLESTYLE
350
69
  3
ACAD_VISUALSTYLE
350
2A
  3
ACDB_RECOMPOSE_DATA
350
421
  3
AcDbVariableDictionary
350
3E1
  0
DICTIONARY
  5
3DF
330
8
100
AcDbDictionary
280
     1
281
     1
  3
ACAD_XREC_ROUNDTRIP
360
3E0
  0
DICTIONARY
  5
424
102
{ACAD_REACTORS
330
C
102
}
330
C
100
AcDbDictionary
281
     1
  0
DICTIONARY
  5
D
102
{ACAD_REACTORS
330
C
102
}
330
C
100
AcDbDictionary
281
     1
  0
DICTIONARY
  5
1A
102
{ACAD_REACTORS
330
C
102
}
330
C
100
AcDbDictionary
281
     1
  3
Layout1
350
1E
  3
Layout2
350
26
  3
Model
350
22
  0
DICTIONARY
  5
43
102
{ACAD_REACTORS
330
C
102
}
330
C
100
AcDbDictionary
281
     1
  3
ByBlock
350
45
  3
ByLayer
350
44
  3
Global
350
46
  0
DICTIONARY
  5
6B
102
{ACAD_REACTORS
330
C
102
}
330
C
100
AcDbDictionary
281
     1
  3
Standard
350
6C
  0
DICTIONARY
  5
17
102
{ACAD_REACTORS
330
C
102
}
330
C
100
AcDbDictionary
281
     1
  3
Standard
350
18
  0
DICTIONARY
  5
19
102
{ACAD_REACTORS
330
C
102
}
330
C
100
AcDbDictionary
281
     1
  0
ACDBDICTIONARYWDFLT
  5
E
102
{ACAD_REACTORS
330
C
102
}
330
C
100
AcDbDictionary
281
     1
  3
Normal
350
F
100
AcDbDictionaryWithDefault
340
F
  0
DICTIONARY
  5
47
102
{ACAD_REACTORS
330
C
102
}
330
C
100
AcDbDictionary
281
     1
  3
A0
350
48
  3
A1
350
49
  3
A2
350
4A
  3
A3
350
4B
  3
A4
350
4C
  3
A5
350
4D
  3
A6
350
4E
  3
A7
350
4F
  3
A8
350
50
  3
A9
350
51
  3
B0
350
52
  3
B1
350
53
  3
B2
350
54
  3
B3
350
55
  3
B4
350
56
  3
B5
350
57
  3
B6
350
58
  3
B7
350
59
  3
B8
350
5A
  3
B9
350
5B
  3
C0
350
5C
  3
C1
350
5D
  3
C2
350
5E
  3
C3
350
5F
  3
C4
350
60
  3
C5
350
61
  3
C6
350
62
  3
C7
350
63
  3
C8
350
64
  3
C9
350
65
  3
D0
350
66
  3
D1
350
67
  3
D2
350
68
  0
DICTIONARY
  5
425
102
{ACAD_REACTORS
330
C
102
}
330
C
100
AcDbDictionary
281
     1
  0
DICTIONARY
  5
69
102
{ACAD_REACTORS
330
C
102
}
330
C
100
AcDbDictionary
281
     1
  3
Standard
350
6A
  0
DICTIONARY
  5
2A
102
{ACAD_REACTORS
330
C
102
}
330
C
100
AcDbDictionary
281
     1
  3
2dWireframe
350
2F
  3
Basic
350
32
  3
Brighten
350
36
  3
ColorChange
350
3A
  3
Conceptual
350
34
  3
Dim
350
35
  3
EdgeColorOff
350
3D
  3
Facepattern
350
39
  3
Flat
350
2B
  3
FlatWithEdges
350
2C
  3
Gouraud
350
2D
  3
GouraudWithEdges
350
2E
  3
Hidden
350
31
  3
JitterOff
350
3B
  3
Linepattern
350
38
  3
OverhangOff
350
3C
  3
Realistic
350
33
  3
Shaded
350
42
  3
Shaded with edges
350
41
  3
Shades of Gray
350
3E
  3
Sketchy
350
3F
  3
Thicken
350
37
  3
Wireframe
350
30
  3
X-Ray
350
40
  0
XRECORD
  5
421
102
{ACAD_REACTORS
330
C
102
}
330
C
100
AcDbXrecord
280
     1
 90
        1
330
6A
  0
DICTIONARY
  5
3E1
102
{ACAD_REACTORS
330
C
102
}
330
C
100
AcDbDictionary
281
     1
  3
CANNOSCALE
350
3E2
  3
CENTEREXE
350
426
  3
CENTERLTYPEFILE
350
427
  3
CMLEADERSTYLE
350
423
  3
CTABLESTYLE
350
422
  3
MSLTSCALE
350
3E3
  3
XCLIPFRAME
350
3E4
  0
XRECORD
  5
3E0
102
{ACAD_REACTORS
330
3DF
102
}
330
3DF
100
AcDbXrecord
280
     1
102
VTR_0.000_0.000_1.000_1.000_VISUALSTYLE
340
2F
102
VTR_0.000_0.000_1.000_1.000_GRIDDISPLAY
 70
     3
102
VTR_0.000_0.000_1.000_1.000_GRIDMAJOR
 70
     5
102
VTR_0.000_0.000_1.000_1.000_DEFAULTLIGHTING
280
     1
102
VTR_0.000_0.000_1.000_1.000_DEFAULTLIGHTINGTYPE
 70
     1
102
VTR_0.000_0.000_1.000_1.000_BRIGHTNESS
141
0.0
102
VTR_0.000_0.000_1.000_1.000_CONTRAST
142
0.0
  0
LAYOUT
  5
1E
102
{ACAD_REACTORS
330
1A
102
}
330
1A
100
AcDbPlotSettings
  1

  2
none_device
  4

  6

 40
0.0
 41
0.0
 42
0.0
 43
0.0
 44
0.0
 45
0.0
 46
0.0
 47
0.0
 48
0.0
 49
0.0
140
0.0
141
0.0
142
1.0
143
1.0
 70
   688
 72
     1
 73
     0
 74
     5
  7

 75
    16
 76
     0
 77
     5
 78
   300
147
1.0
148
0.0
149
0.0
100
AcDbLayout
  1
Layout1
 70
     1
 71
     1
 10
0.0
 20
0.0
 11
420.0
 21
297.0
 12
0.0
 22
0.0
 32
0.0
 14
1.000000000000000E+20
 24
1.000000000000000E+20
 34
1.000000000000000E+20
 15
-1.000000000000000E+20
 25
-1.000000000000000E+20
 35
-1.000000000000000E+20
146
0.0
 13
0.0
 23
0.0
 33
0.0
 16
1.0
 26
0.0
 36
0.0
 17
0.0
 27
1.0
 37
0.0
 76
     0
330
1B
  0
LAYOUT
  5
26
102
{ACAD_REACTORS
330
1A
102
}
330
1A
100
AcDbPlotSettings
  1

  2
none_device
  4

  6

 40
0.0
 41
0.0
 42
0.0
 43
0.0
 44
0.0
 45
0.0
 46
0.0
 47
0.0
 48
0.0
 49
0.0
140
0.0
141
0.0
142
1.0
143
1.0
 70
   688
 72
     1
 73
     0
 74
     5
  7

 75
    16
 76
     0
 77
     5
 78
   300
147
1.0
148
0.0
149
0.0
100
AcDbLayout
  1
Layout2
 70
     1
 71
     2
 10
0.0
 20
0.0
 11
0.0
 21
0.0
 12
0.0
 22
0.0
 32
0.0
 14
0.0
 24
0.0
 34
0.0
 15
0.0
 25
0.0
 35
0.0
146
0.0
 13
0.0
 23
0.0
 33
0.0
 16
1.0
 26
0.0
 36
0.0
 17
0.0
 27
1.0
 37
0.0
 76
     0
330
23
  0
LAYOUT
  5
22
102
{ACAD_REACTORS
330
1A
102
}
330
1A
100
AcDbPlotSettings
  1

  2
none_device
  4
Letter_(8.50_x_11.00_Inches)
  6

 40
6.35
 41
6.35
 42
6.35000508
 43
6.35000508
 44
215.9
 45
279.4
 46
0.0
 47
0.0
 48
0.0
 49
0.0
140
0.0
141
0.0
142
1.0
143
1.0
 70
  1712
 72
     1
 73
     0
 74
     0
  7

 75
     0
 76
     0
 77
     5
 78
   300
147
1.0
148
0.0
149
0.0
100
AcDbLayout
  1
Model
 70
     1
 71
     0
 10
-630.0
 20
-445.5
 11
630.0
 21
445.5
 12
0.0
 22
0.0
 32
0.0
 14
-630.0
 24
-445.5
 34
0.0
 15
630.0
 25
445.5
 35
0.0
146
0.0
 13
0.0
 23
0.0
 33
0.0
 16
1.0
 26
0.0
 36
0.0
 17
0.0
 27
1.0
 37
0.0
 76
     0
330
1F
331
29
  0
MATERIAL
  5
45
102
{ACAD_REACTORS
330
43
102
}
102
{ACAD_XDICTIONARY
360
417
102
}
330
43
100
AcDbMaterial
  1
ByBlock
  0
MATERIAL
  5
44
102
{ACAD_REACTORS
330
43
102
}
102
{ACAD_XDICTIONARY
360
415
102
}
330
43
100
AcDbMaterial
  1
ByLayer
  0
MATERIAL
  5
46
102
{ACAD_REACTORS
330
43
102
}
102
{ACAD_XDICTIONARY
360
419
102
}
330
43
100
AcDbMaterial
  1
Global
  0
MLEADERSTYLE
  5
6C
102
{ACAD_REACTORS
330
6B
102
}
102
{ACAD_XDICTIONARY
360
41F
102
}
330
6B
100
AcDbMLeaderStyle
170
     2
171
     1
172
     0
 90
        2
 40
0.0
 41
0.0
173
     1
 91
-1056964608
340
14
 92
       -2
290
     1
 42
2.0
291
     1
 43
8.0
  3
Standard
341
0
 44
4.0
300

342
11
174
     1
178
     6
175
     1
176
     0
 93
-1056964608
 45
4.0
292
     0
297
     0
 46
4.0
343
0
 94
-1056964608
 47
1.0
 49
1.0
140
1.0
293
     1
141
0.0
294
     1
177
     0
142
1.0
295
     0
296
     0
143
3.75
1001
ACAD_MLEADERVER
1070
     2
  0
MLINESTYLE
  5
18
102
{ACAD_REACTORS
330
17
102
}
330
17
100
AcDbMlineStyle
  2
Standard
 70
     0
  3

 62
   256
 51
90.0
 52
90.0
 71
     2
 49
0.5
 62
   256
  6
BYLAYER
 49
-0.5
 62
   256
  6
BYLAYER
  0
ACDBPLACEHOLDER
  5
F
102
{ACAD_REACTORS
330
E
102
}
330
E
  0
SCALE
  5
48
102
{ACAD_REACTORS
330
47
102
}
330
47
100
AcDbScale
 70
     0
300
1:1
140
1.0
141
1.0
290
     1
  0
SCALE
  5
49
102
{ACAD_REACTORS
330
47
102
}
330
47
100
AcDbScale
 70
     0
300
1:2
140
1.0
141
2.0
290
     0
  0
SCALE
  5
4A
102
{ACAD_REACTORS
330
47
102
}
330
47
100
AcDbScale
 70
     0
300
1:4
140
1.0
141
4.0
290
     0
  0
SCALE
  5
4B
102
{ACAD_REACTORS
330
47
102
}
330
47
100
AcDbScale
 70
     0
300
1:5
140
1.0
141
5.0
290
     0
  0
SCALE
  5
4C
102
{ACAD_REACTORS
330
47
102
}
330
47
100
AcDbScale
 70
     0
300
1:8
140
1.0
141
8.0
290
     0
  0
SCALE
  5
4D
102
{ACAD_REACTORS
330
47
102
}
330
47
100
AcDbScale
 70
     0
300
1:10
140
1.0
141
10.0
290
     0
  0
SCALE
  5
4E
102
{ACAD_REACTORS
330
47
102
}
330
47
100
AcDbScale
 70
     0
300
1:16
140
1.0
141
16.0
290
     0
  0
SCALE
  5
4F
102
{ACAD_REACTORS
330
47
102
}
330
47
100
AcDbScale
 70
     0
300
1:20
140
1.0
141
20.0
290
     0
  0
SCALE
  5
50
102
{ACAD_REACTORS
330
47
102
}
330
47
100
AcDbScale
 70
     0
300
1:30
140
1.0
141
30.0
290
     0
  0
SCALE
  5
51
102
{ACAD_REACTORS
330
47
102
}
330
47
100
AcDbScale
 70
     0
300
1:40
140
1.0
141
40.0
290
     0
  0
SCALE
  5
52
102
{ACAD_REACTORS
330
47
102
}
330
47
100
AcDbScale
 70
     0
300
1:50
140
1.0
141
50.0
290
     0
  0
SCALE
  5
53
102
{ACAD_REACTORS
330
47
102
}
330
47
100
AcDbScale
 70
     0
300
1:100
140
1.0
141
100.0
290
     0
  0
SCALE
  5
54
102
{ACAD_REACTORS
330
47
102
}
330
47
100
AcDbScale
 70
     0
300
2:1
140
2.0
141
1.0
290
     0
  0
SCALE
  5
55
102
{ACAD_REACTORS
330
47
102
}
330
47
100
AcDbScale
 70
     0
300
4:1
140
4.0
141
1.0
290
     0
  0
SCALE
  5
56
102
{ACAD_REACTORS
330
47
102
}
330
47
100
AcDbScale
 70
     0
300
8:1
140
8.0
141
1.0
290
     0
  0
SCALE
  5
57
102
{ACAD_REACTORS
330
47
102
}
330
47
100
AcDbScale
 70
     0
300
10:1
140
10.0
141
1.0
290
     0
  0
SCALE
  5
58
102
{ACAD_REACTORS
330
47
102
}
330
47
100
AcDbScale
 70
     0
300
100:1
140
100.0
141
1.0
290
     0
  0
SCALE
  5
59
102
{ACAD_REACTORS
330
47
102
}
330
47
100
AcDbScale
 70
     0
300
1/128" = 1'-0"
140
0.0078125
141
12.0
290
     0
  0
SCALE
  5
5A
102
{ACAD_REACTORS
330
47
102
}
330
47
100
AcDbScale
 70
     0
300
1/64" = 1'-0"
140
0.015625
141
12.0
290
     0
  0
SCALE
  5
5B
102
{ACAD_REACTORS
330
47
102
}
330
47
100
AcDbScale
 70
     0
300
1/32" = 1'-0"
140
0.03125
141
12.0
290
     0
  0
SCALE
  5
5C
102
{ACAD_REACTORS
330
47
102
}
330
47
100
AcDbScale
 70
     0
300
1/16" = 1'-0"
140
0.0625
141
12.0
290
     0
  0
SCALE
  5
5D
102
{ACAD_REACTORS
330
47
102
}
330
47
100
AcDbScale
 70
     0
300
3/32" = 1'-0"
140
0.09375
141
12.0
290
     0
  0
SCALE
  5
5E
102
{ACAD_REACTORS
330
47
102
}
330
47
100
AcDbScale
 70
     0
300
1/8" = 1'-0"
140
0.125
141
12.0
290
     0
  0
SCALE
  5
5F
102
{ACAD_REACTORS
330
47
102
}
330
47
100
AcDbScale
 70
     0
300
3/16" = 1'-0"
140
0.1875
141
12.0
290
     0
  0
SCALE
  5
60
102
{ACAD_REACTORS
330
47
102
}
330
47
100
AcDbScale
 70
     0
300
1/4" = 1'-0"
140
0.25
141
12.0
290
     0
  0
SCALE
  5
61
102
{ACAD_REACTORS
330
47
102
}
330
47
100
AcDbScale
 70
     0
300
3/8" = 1'-0"
140
0.375
141
12.0
290
     0
  0
SCALE
  5
62
102
{ACAD_REACTORS
330
47
102
}
330
47
100
AcDbScale
 70
     0
300
1/2" = 1'-0"
140
0.5
141
12.0
290
     0
  0
SCALE
  5
63
102
{ACAD_REACTORS
330
47
102
}
330
47
100
AcDbScale
 70
     0
300
3/4" = 1'-0"
140
0.75
141
12.0
290
     0
  0
SCALE
  5
64
102
{ACAD_REACTORS
330
47
102
}
330
47
100
AcDbScale
 70
     0
300
1" = 1'-0"
140
1.0
141
12.0
290
     0
  0
SCALE
  5
65
102
{ACAD_REACTORS
330
47
102
}
330
47
100
AcDbScale
 70
     0
300
1-1/2" = 1'-0"
140
1.5
141
12.0
290
     0
  0
SCALE
  5
66
102
{ACAD_REACTORS
330
47
102
}
330
47
100
AcDbScale
 70
     0
300
3" = 1'-0"
140
3.0
141
12.0
290
     0
  0
SCALE
  5
67
102
{ACAD_REACTORS
330
47
102
}
330
47
100
AcDbScale
 70
     0
300
6" = 1'-0"
140
6.0
141
12.0
290
     0
  0
SCALE
  5
68
102
{ACAD_REACTORS
330
47
102
}
330
47
100
AcDbScale
 70
     0
300
1'-0" = 1'-0"
140
12.0
141
12.0
290
     0
  0
TABLESTYLE
  5
6A
102
{ACAD_REACTORS
330
69
102
}
102
{ACAD_XDICTIONARY
360
41B
102
}
330
69
100
AcDbTableStyle
  3
Standard
 70
     0
 71
     0
 40
0.06
 41
0.06
280
     0
281
     0
  7
Standard
140
4.5
170
     2
 62
     0
 63
   257
283
     0
274
    -2
284
     1
 64
     0
275
    -2
285
     1
 65
     0
276
    -2
286
     1
 66
     0
277
    -2
287
     1
 67
     0
278
    -2
288
     1
 68
     0
279
    -2
289
     1
 69
     0
  7
Standard
140
6.0
170
     5
 62
     0
 63
   257
283
     0
274
    -2
284
     1
 64
     0
275
    -2
285
     1
 65
     0
276
    -2
286
     1
 66
     0
277
    -2
287
     1
 67
     0
278
    -2
288
     1
 68
     0
279
    -2
289
     1
 69
     0
  7
Standard
140
4.5
170
     5
 62
     0
 63
   257
283
     0
274
    -2
284
     1
 64
     0
275
    -2
285
     1
 65
     0
276
    -2
286
     1
 66
     0
277
    -2
287
     1
 67
     0
278
    -2
288
     1
 68
     0
279
    -2
289
     1
 69
     0
  0
VISUALSTYLE
  5
2F
102
{ACAD_REACTORS
330
2A
102
}
102
{ACAD_XDICTIONARY
360
3ED
102
}
330
2A
100
AcDbVisualStyle
  2
2dWireframe
 70
     4
 71
     0
 72
     2
 73
     0
 90
        0
 40
0.6
 41
30.0
 62
     5
 63
     7
421
 16777215
 74
     1
 91
        4
 64
     7
 65
   257
 75
     1
175
     1
 42
1.0
 92
        0
 66
   257
 43
1.0
 76
     1
 77
     6
 78
     2
 67
     7
 79
     5
170
     0
171
     0
290
     0
174
     0
 93
        1
 44
0.0
173
     0
291
     0
 45
0.0
1001
ACAD
1000
AcDbSavedByObjectVersion
1070
     0
  0
VISUALSTYLE
  5
32
102
{ACAD_REACTORS
330
2A
102
}
102
{ACAD_XDICTIONARY
360
3F3
102
}
330
2A
100
AcDbVisualStyle
  2
Basic
 70
     7
 71
     1
 72
     0
 73
     1
 90
        0
 40
0.6
 41
30.0
 62
     5
 63
     7
421
 16777215
 74
     0
 91
        4
 64
     7
 65
   257
 75
     1
175
     1
 42
1.0
 92
        8
 66
     7
 43
1.0
 76
     1
 77
     6
 78
     2
 67
     7
 79
     5
170
     0
171
     0
290
     0
174
     0
 93
        1
 44
0.0
173
     0
291
     1
 45
0.0
1001
ACAD
1000
AcDbSavedByObjectVersion
1070
     0
  0
VISUALSTYLE
  5
36
102
{ACAD_REACTORS
330
2A
102
}
102
{ACAD_XDICTIONARY
360
3FB
102
}
330
2A
100
AcDbVisualStyle
  2
Brighten
 70
    12
 71
     2
 72
     2
 73
     0
 90
        0
 40
0.6
 41
30.0
 62
     5
 63
     7
421
 16777215
 74
     1
 91
        4
 64
     7
 65
   257
 75
     1
175
     1
 42
1.0
 92
        8
 66
     7
 43
1.0
 76
     1
 77
     6
 78
     2
 67
     7
 79
     5
170
     0
171
     0
290
     0
174
     0
 93
        1
 44
50.0
173
     0
291
     1
 45
0.0
1001
ACAD
1000
AcDbSavedByObjectVersion
1070
     0
  0
VISUALSTYLE
  5
3A
102
{ACAD_REACTORS
330
2A
102
}
102
{ACAD_XDICTIONARY
360
403
102
}
330
2A
100
AcDbVisualStyle
  2
ColorChange
 70
    16
 71
     2
 72
     2
 73
     3
 90
        0
 40
0.6
 41
30.0
 62
     5
 63
     8
421
  8421504
 74
     1
 91
        4
 64
     7
 65
   257
 75
     1
175
     1
 42
1.0
 92
        8
 66
     8
424
  8421504
 43
1.0
 76
     1
 77
     6
 78
     2
 67
     7
 79
     5
170
     0
171
     0
290
     0
174
     0
 93
        1
 44
0.0
173
     0
291
     1
 45
0.0
1001
ACAD
1000
AcDbSavedByObjectVersion
1070
     0
  0
VISUALSTYLE
  5
34
102
{ACAD_REACTORS
330
2A
102
}
102
{ACAD_XDICTIONARY
360
3F7
102
}
330
2A
100
AcDbVisualStyle
  2
Conceptual
 70
     9
 71
     3
 72
     2
 73
     0
 90
        0
 40
0.6
 41
30.0
 62
     5
 63
     7
421
 16777215
 74
     2
 91
        2
 64
     7
 65
   257
 75
     1
175
     1
 42
179.0
 92
        8
 66
     7
 43
1.0
 76
     1
 77
     6
 78
     2
 67
     7
 79
     3
170
     0
171
     0
290
     0
174
     0
 93
        1
 44
0.0
173
     0
291
     0
 45
0.0
1001
ACAD
1000
AcDbSavedByObjectVersion
1070
     0
  0
VISUALSTYLE
  5
35
102
{ACAD_REACTORS
330
2A
102
}
102
{ACAD_XDICTIONARY
360
3F9
102
}
330
2A
100
AcDbVisualStyle
  2
Dim
 70
    11
 71
     2
 72
     2
 73
     0
 90
        0
 40
0.6
 41
30.0
 62
     5
 63
     7
421
 16777215
 74
     1
 91
        4
 64
     7
 65
   257
 75
     1
175
     1
 42
1.0
 92
        8
 66
     7
 43
1.0
 76
     1
 77
     6
 78
     2
 67
     7
 79
     5
170
     0
171
     0
290
     0
174
     0
 93
        1
 44
-50.0
173
     0
291
     1
 45
0.0
1001
ACAD
1000
AcDbSavedByObjectVersion
1070
     0
  0
VISUALSTYLE
  5
3D
102
{ACAD_REACTORS
330
2A
102
}
102
{ACAD_XDICTIONARY
360
409
102
}
330
2A
100
AcDbVisualStyle
  2
EdgeColorOff
 70
    22
 71
     2
 72
     2
 73
     0
 90
        0
 40
0.6
 41
30.0
 62
     5
 63
     7
421
 16777215
 74
     1
 91
        4
 64
     7
 65
   257
 75
     1
175
     1
 42
1.0
 92
        8
 66
     7
 43
1.0
 76
     1
 77
     6
 78
     2
 67
     7
 79
     5
170
     0
171
     0
290
     0
174
     0
 93
        1
 44
0.0
173
     0
291
     1
 45
0.0
1001
ACAD
1000
AcDbSavedByObjectVersion
1070
     0
  0
VISUALSTYLE
  5
39
102
{ACAD_REACTORS
330
2A
102
}
102
{ACAD_XDICTIONARY
360
401
102
}
330
2A
100
AcDbVisualStyle
  2
Facepattern
 70
    15
 71
     2
 72
     2
 73
     0
 90
        0
 40
0.6
 41
30.0
 62
     5
 63
     7
421
 16777215
 74
     1
 91
        4
 64
     7
 65
   257
 75
     1
175
     1
 42
1.0
 92
        8
 66
     7
 43
1.0
 76
     1
 77
     6
 78
     2
 67
     7
 79
     5
170
     0
171
     0
290
     0
174
     0
 93
        1
 44
0.0
173
     0
291
     1
 45
0.0
1001
ACAD
1000
AcDbSavedByObjectVersion
1070
     0
  0
VISUALSTYLE
  5
2B
102
{ACAD_REACTORS
330
2A
102
}
102
{ACAD_XDICTIONARY
360
3E5
102
}
330
2A
100
AcDbVisualStyle
  2
Flat
 70
     0
 71
     2
 72
     1
 73
     1
 90
        2
 40
0.6
 41
30.0
 62
     5
 63
     7
421
 16777215
 74
     0
 91
        0
 64
     7
 65
   257
 75
     1
175
     1
 42
1.0
 92
        8
 66
     7
 43
1.0
 76
     1
 77
     6
 78
     2
 67
     7
 79
     5
170
     0
171
     0
290
     0
174
     0
 93
       13
 44
0.0
173
     0
291
     1
 45
0.0
1001
ACAD
1000
AcDbSavedByObjectVersion
1070
     0
  0
VISUALSTYLE
  5
2C
102
{ACAD_REACTORS
330
2A
102
}
102
{ACAD_XDICTIONARY
360
3E7
102
}
330
2A
100
AcDbVisualStyle
  2
FlatWithEdges
 70
     1
 71
     2
 72
     1
 73
     1
 90
        2
 40
0.6
 41
30.0
 62
     5
 63
     7
421
 16777215
 74
     1
 91
        0
 64
     7
 65
   257
 75
     1
175
     1
 42
1.0
 92
        0
 66
   257
 43
1.0
 76
     1
 77
     6
 78
     2
 67
     7
 79
     5
170
     0
171
     0
290
     0
174
     0
 93
       13
 44
0.0
173
     0
291
     1
 45
0.0
1001
ACAD
1000
AcDbSavedByObjectVersion
1070
     0
  0
VISUALSTYLE
  5
2D
102
{ACAD_REACTORS
330
2A
102
}
102
{ACAD_XDICTIONARY
360
3E9
102
}
330
2A
100
AcDbVisualStyle
  2
Gouraud
 70
     2
 71
     2
 72
     2
 73
     1
 90
        2
 40
0.6
 41
30.0
 62
     5
 63
     7
421
 16777215
 74
     0
 91
        0
 64
     7
 65
   257
 75
     1
175
     1
 42
1.0
 92
        0
 66
     7
 43
1.0
 76
     1
 77
     6
 78
     2
 67
     7
 79
     5
170
     0
171
     0
290
     0
174
     0
 93
       13
 44
0.0
173
     0
291
     1
 45
0.0
1001
ACAD
1000
AcDbSavedByObjectVersion
1070
     0
  0
VISUALSTYLE
  5
2E
102
{ACAD_REACTORS
330
2A
102
}
102
{ACAD_XDICTIONARY
360
3EB
102
}
330
2A
100
AcDbVisualStyle
  2
GouraudWithEdges
 70
     3
 71
     2
 72
     2
 73
     1
 90
        2
 40
0.6
 41
30.0
 62
     5
 63
     7
421
 16777215
 74
     1
 91
        0
 64
     7
 65
   257
 75
     1
175
     1
 42
1.0
 92
        0
 66
   257
 43
1.0
 76
     1
 77
     6
 78
     2
 67
     7
 79
     5
170
     0
171
     0
290
     0
174
     0
 93
       13
 44
0.0
173
     0
291
     1
 45
0.0
1001
ACAD
1000
AcDbSavedByObjectVersion
1070
     0
  0
VISUALSTYLE
  5
31
102
{ACAD_REACTORS
330
2A
102
}
102
{ACAD_XDICTIONARY
360
3F1
102
}
330
2A
100
AcDbVisualStyle
  2
Hidden
 70
     6
 71
     1
 72
     2
 73
     2
 90
        0
 40
0.6
 41
30.0
 62
     5
 63
     7
421
 16777215
 74
     2
 91
        2
 64
     7
 65
   257
 75
     2
175
     1
 42
40.0
 92
        0
 66
   257
 43
1.0
 76
     1
 77
     6
 78
     2
 67
     7
 79
     3
170
     0
171
     0
290
     0
174
     0
 93
        1
 44
0.0
173
     0
291
     0
 45
0.0
1001
ACAD
1000
AcDbSavedByObjectVersion
1070
     0
  0
VISUALSTYLE
  5
3B
102
{ACAD_REACTORS
330
2A
102
}
102
{ACAD_XDICTIONARY
360
405
102
}
330
2A
100
AcDbVisualStyle
  2
JitterOff
 70
    20
 71
     2
 72
     2
 73
     0
 90
        0
 40
0.6
 41
30.0
 62
     5
 63
     7
421
 16777215
 74
     1
 91
        4
 64
     7
 65
   257
 75
     1
175
     1
 42
1.0
 92
       10
 66
     7
 43
1.0
 76
     1
 77
     6
 78
     2
 67
     7
 79
     5
170
     0
171
     0
290
     0
174
     0
 93
        1
 44
0.0
173
     0
291
     1
 45
0.0
1001
ACAD
1000
AcDbSavedByObjectVersion
1070
     0
  0
VISUALSTYLE
  5
38
102
{ACAD_REACTORS
330
2A
102
}
102
{ACAD_XDICTIONARY
360
3FF
102
}
330
2A
100
AcDbVisualStyle
  2
Linepattern
 70
    14
 71
     2
 72
     2
 73
     0
 90
        0
 40
0.6
 41
30.0
 62
     5
 63
     7
421
 16777215
 74
     1
 91
        4
 64
     7
 65
   257
 75
     7
175
     7
 42
1.0
 92
        8
 66
     7
 43
1.0
 76
     1
 77
     6
 78
     2
 67
     7
 79
     5
170
     0
171
     0
290
     0
174
     0
 93
        1
 44
0.0
173
     0
291
     1
 45
0.0
1001
ACAD
1000
AcDbSavedByObjectVersion
1070
     0
  0
VISUALSTYLE
  5
3C
102
{ACAD_REACTORS
330
2A
102
}
102
{ACAD_XDICTIONARY
360
407
102
}
330
2A
100
AcDbVisualStyle
  2
OverhangOff
 70
    21
 71
     2
 72
     2
 73
     0
 90
        0
 40
0.6
 41
30.0
 62
     5
 63
     7
421
 16777215
 74
     1
 91
        4
 64
     7
 65
   257
 75
     1
175
     1
 42
1.0
 92
        9
 66
     7
 43
1.0
 76
     1
 77
     6
 78
     2
 67
     7
 79
     5
170
     0
171
     0
290
     0
174
     0
 93
        1
 44
0.0
173
     0
291
     1
 45
0.0
1001
ACAD
1000
AcDbSavedByObjectVersion
1070
     0
  0
VISUALSTYLE
  5
33
102
{ACAD_REACTORS
330
2A
102
}
102
{ACAD_XDICTIONARY
360
3F5
102
}
330
2A
100
AcDbVisualStyle
  2
Realistic
 70
     8
 71
     2
 72
     3
 73
     0
 90
        2
 40
0.6
 41
30.0
 62
     5
 63
     7
421
 16777215
 74
     0
 91
        0
 64
     7
 65
   257
 75
     1
175
     1
 42
1.0
 92
        8
 66
   257
 43
1.0
 76
     1
 77
     6
 78
     2
 67
     7
 79
     3
170
     0
171
     0
290
     0
174
     0
 93
       13
 44
0.0
173
     0
291
     0
 45
0.0
1001
ACAD
1000
AcDbSavedByObjectVersion
1070
     0
  0
VISUALSTYLE
  5
42
102
{ACAD_REACTORS
330
2A
102
}
102
{ACAD_XDICTIONARY
360
413
102
}
330
2A
100
AcDbVisualStyle
  2
Shaded
 70
    27
 71
     2
 72
     2
 73
     1
 90
        2
 40
0.6
 41
30.0
 62
     5
 63
     7
421
 16777215
 74
     0
 91
        4
 64
     7
 65
   257
 75
     1
175
     1
 42
1.0
 92
        8
 66
   257
 43
1.0
 76
     1
 77
     6
 78
     2
 67
     8
425
  7895160
 79
     3
170
     0
171
     0
290
     0
174
     0
 93
        5
 44
0.0
173
     0
291
     0
 45
0.0
1001
ACAD
1000
AcDbSavedByObjectVersion
1070
     0
  0
VISUALSTYLE
  5
41
102
{ACAD_REACTORS
330
2A
102
}
102
{ACAD_XDICTIONARY
360
411
102
}
330
2A
100
AcDbVisualStyle
  2
Shaded with edges
 70
    26
 71
     2
 72
     2
 73
     1
 90
        2
 40
0.6
 41
30.0
 62
     5
 63
     7
421
 16777215
 74
     1
 91
       10
 64
     7
 65
   257
 75
     2
175
     1
 42
1.0
 92
        8
 66
   257
 43
1.0
 76
     1
 77
     6
 78
     2
 67
     7
 79
     3
170
     0
171
     0
290
     0
174
     0
 93
        5
 44
0.0
173
     0
291
     0
 45
0.0
1001
ACAD
1000
AcDbSavedByObjectVersion
1070
     0
  0
VISUALSTYLE
  5
3E
102
{ACAD_REACTORS
330
2A
102
}
102
{ACAD_XDICTIONARY
360
40B
102
}
330
2A
100
AcDbVisualStyle
  2
Shades of Gray
 70
    23
 71
     2
 72
     2
 73
     3
 90
        0
 40
0.6
 41
30.0
 62
     5
 63
     7
421
 16777215
 74
     2
 91
        2
 64
     7
 65
     7
 75
     1
175
     1
 42
40.0
 92
        8
 66
     7
 43
1.0
 76
     1
 77
     6
 78
     2
 67
     7
 79
     3
170
     0
171
     0
290
     0
174
     0
 93
        1
 44
0.0
173
     0
291
     0
 45
0.0
1001
ACAD
1000
AcDbSavedByObjectVersion
1070
     0
  0
VISUALSTYLE
  5
3F
102
{ACAD_REACTORS
330
2A
102
}
102
{ACAD_XDICTIONARY
360
40D
102
}
330
2A
100
AcDbVisualStyle
  2
Sketchy
 70
    24
 71
     1
 72
     2
 73
     2
 90
        0
 40
0.6
 41
30.0
 62
     5
 63
     7
421
 16777215
 74
     2
 91
        2
 64
     7
 65
     7
 75
     1
175
     1
 42
40.0
 92
       11
 66
     7
 43
1.0
 76
     1
 77
     6
 78
     2
 67
     7
 79
     6
170
     0
171
     0
290
     0
174
     0
 93
        1
 44
0.0
173
     0
291
     0
 45
0.0
1001
ACAD
1000
AcDbSavedByObjectVersion
1070
     0
  0
VISUALSTYLE
  5
37
102
{ACAD_REACTORS
330
2A
102
}
102
{ACAD_XDICTIONARY
360
3FD
102
}
330
2A
100
AcDbVisualStyle
  2
Thicken
 70
    13
 71
     2
 72
     2
 73
     0
 90
        0
 40
0.6
 41
30.0
 62
     5
 63
     7
421
 16777215
 74
     1
 91
        4
 64
     7
 65
   257
 75
     1
175
     1
 42
1.0
 92
       12
 66
     7
 43
1.0
 76
     1
 77
     6
 78
     2
 67
     7
 79
     5
170
     0
171
     0
290
     0
174
     0
 93
        1
 44
0.0
173
     0
291
     1
 45
0.0
1001
ACAD
1000
AcDbSavedByObjectVersion
1070
     0
  0
VISUALSTYLE
  5
30
102
{ACAD_REACTORS
330
2A
102
}
102
{ACAD_XDICTIONARY
360
3EF
102
}
330
2A
100
AcDbVisualStyle
  2
Wireframe
 70
     5
 71
     0
 72
     2
 73
     0
 90
        0
 40
0.6
 41
30.0
 62
     5
 63
     7
421
 16777215
 74
     1
 91
        4
 64
     7
 65
   257
 75
     1
175
     1
 42
1.0
 92
        0
 66
   257
 43
1.0
 76
     1
 77
     6
 78
     2
 67
     7
 79
     3
170
     0
171
     0
290
     0
174
     0
 93
        1
 44
0.0
173
     0
291
     0
 45
0.0
1001
ACAD
1000
AcDbSavedByObjectVersion
1070
     0
  0
VISUALSTYLE
  5
40
102
{ACAD_REACTORS
330
2A
102
}
102
{ACAD_XDICTIONARY
360
40F
102
}
330
2A
100
AcDbVisualStyle
  2
X-Ray
 70
    25
 71
     2
 72
     2
 73
     1
 90
        1
 40
0.5
 41
30.0
 62
     5
 63
     7
421
 16777215
 74
     1
 91
        0
 64
     7
 65
   257
 75
     1
175
     1
 42
1.0
 92
        8
 66
     7
 43
1.0
 76
     1
 77
     6
 78
     2
 67
     7
 79
     3
170
     0
171
     0
290
     0
174
     0
 93
       13
 44
0.0
173
     0
291
     0
 45
0.0
1001
ACAD
1000
AcDbSavedByObjectVersion
1070
     0
  0
DICTIONARYVAR
  5
3E2
102
{ACAD_REACTORS
330
3E1
102
}
330
3E1
100
DictionaryVariables
280
     0
  1
1:1
  0
DICTIONARYVAR
  5
426
102
{ACAD_REACTORS
330
3E1
102
}
330
3E1
100
DictionaryVariables
280
     0
  1
3.500000
  0
DICTIONARYVAR
  5
427
102
{ACAD_REACTORS
330
3E1
102
}
330
3E1
100
DictionaryVariables
280
     0
  1
acadiso.lin
  0
DICTIONARYVAR
  5
423
102
{ACAD_REACTORS
330
3E1
102
}
330
3E1
100
DictionaryVariables
280
     0
  1
Standard
  0
DICTIONARYVAR
  5
422
102
{ACAD_REACTORS
330
3E1
102
}
330
3E1
100
DictionaryVariables
280
     0
  1
Standard
  0
DICTIONARYVAR
  5
3E3
102
{ACAD_REACTORS
330
3E1
102
}
330
3E1
100
DictionaryVariables
280
     0
  1
1
  0
DICTIONARYVAR
  5
3E4
102
{ACAD_REACTORS
330
3E1
102
}
330
3E1
100
DictionaryVariables
280
     0
  1
2
  0
DICTIONARY
  5
417
330
45
100
AcDbDictionary
280
     1
281
     1
  3
ACAD_XREC_ROUNDTRIP
360
418
  0
DICTIONARY
  5
415
330
44
100
AcDbDictionary
280
     1
281
     1
  3
ACAD_XREC_ROUNDTRIP
360
416
  0
DICTIONARY
  5
419
330
46
100
AcDbDictionary
280
     1
281
     1
  3
ACAD_XREC_ROUNDTRIP
360
41A
  0
DICTIONARY
  5
41F
330
6C
100
AcDbDictionary
280
     1
281
     1
  3
ACAD_XREC_ROUNDTRIP
360
420
  0
DICTIONARY
  5
41B
330
6A
100
AcDbDictionary
280
     1
281
     1
  3
ACAD_ROUNDTRIP_2008_TABLESTYLE_CELLSTYLEMAP
360
41D
  3
ACAD_XREC_ROUNDTRIP
360
41C
  0
DICTIONARY
  5
3ED
330
2F
100
AcDbDictionary
280
     1
281
     1
  3
ACAD_XREC_ROUNDTRIP
360
3EE
  0
DICTIONARY
  5
3F3
330
32
100
AcDbDictionary
280
     1
281
     1
  3
ACAD_XREC_ROUNDTRIP
360
3F4
  0
DICTIONARY
  5
3FB
330
36
100
AcDbDictionary
280
     1
281
     1
  3
ACAD_XREC_ROUNDTRIP
360
3FC
  0
DICTIONARY
  5
403
330
3A
100
AcDbDictionary
280
     1
281
     1
  3
ACAD_XREC_ROUNDTRIP
360
404
  0
DICTIONARY
  5
3F7
330
34
100
AcDbDictionary
280
     1
281
     1
  3
ACAD_XREC_ROUNDTRIP
360
3F8
  0
DICTIONARY
  5
3F9
330
35
100
AcDbDictionary
280
     1
281
     1
  3
ACAD_XREC_ROUNDTRIP
360
3FA
  0
DICTIONARY
  5
409
330
3D
100
AcDbDictionary
280
     1
281
     1
  3
ACAD_XREC_ROUNDTRIP
360
40A
  0
DICTIONARY
  5
401
330
39
100
AcDbDictionary
280
     1
281
     1
  3
ACAD_XREC_ROUNDTRIP
360
402
  0
DICTIONARY
  5
3E5
330
2B
100
AcDbDictionary
280
     1
281
     1
  3
ACAD_XREC_ROUNDTRIP
360
3E6
  0
DICTIONARY
  5
3E7
330
2C
100
AcDbDictionary
280
     1
281
     1
  3
ACAD_XREC_ROUNDTRIP
360
3E8
  0
DICTIONARY
  5
3E9
330
2D
100
AcDbDictionary
280
     1
281
     1
  3
ACAD_XREC_ROUNDTRIP
360
3EA
  0
DICTIONARY
  5
3EB
330
2E
100
AcDbDictionary
280
     1
281
     1
  3
ACAD_XREC_ROUNDTRIP
360
3EC
  0
DICTIONARY
  5
3F1
330
31
100
AcDbDictionary
280
     1
281
     1
  3
ACAD_XREC_ROUNDTRIP
360
3F2
  0
DICTIONARY
  5
405
330
3B
100
AcDbDictionary
280
     1
281
     1
  3
ACAD_XREC_ROUNDTRIP
360
406
  0
DICTIONARY
  5
3FF
330
38
100
AcDbDictionary
280
     1
281
     1
  3
ACAD_XREC_ROUNDTRIP
360
400
  0
DICTIONARY
  5
407
330
3C
100
AcDbDictionary
280
     1
281
     1
  3
ACAD_XREC_ROUNDTRIP
360
408
  0
DICTIONARY
  5
3F5
330
33
100
AcDbDictionary
280
     1
281
     1
  3
ACAD_XREC_ROUNDTRIP
360
3F6
  0
DICTIONARY
  5
413
330
42
100
AcDbDictionary
280
     1
281
     1
  3
ACAD_XREC_ROUNDTRIP
360
414
  0
DICTIONARY
  5
411
330
41
100
AcDbDictionary
280
     1
281
     1
  3
ACAD_XREC_ROUNDTRIP
360
412
  0
DICTIONARY
  5
40B
330
3E
100
AcDbDictionary
280
     1
281
     1
  3
ACAD_XREC_ROUNDTRIP
360
40C
  0
DICTIONARY
  5
40D
330
3F
100
AcDbDictionary
280
     1
281
     1
  3
ACAD_XREC_ROUNDTRIP
360
40E
  0
DICTIONARY
  5
3FD
330
37
100
AcDbDictionary
280
     1
281
     1
  3
ACAD_XREC_ROUNDTRIP
360
3FE
  0
DICTIONARY
  5
3EF
330
30
100
AcDbDictionary
280
     1
281
     1
  3
ACAD_XREC_ROUNDTRIP
360
3F0
  0
DICTIONARY
  5
40F
330
40
100
AcDbDictionary
280
     1
281
     1
  3
ACAD_XREC_ROUNDTRIP
360
410
  0
XRECORD
  5
418
102
{ACAD_REACTORS
330
417
102
}
330
417
100
AcDbXrecord
280
     1
102
MATERIAL
148
0.0
149
0.0
149
0.0
 93
        0
 94
      127
282
     0
 72
     1
 77
     1
171
     1
175
     1
179
     1
273
     0
  0
XRECORD
  5
416
102
{ACAD_REACTORS
330
415
102
}
330
415
100
AcDbXrecord
280
     1
102
MATERIAL
148
0.0
149
0.0
149
0.0
 93
        0
 94
      127
282
     0
 72
     1
 77
     1
171
     1
175
     1
179
     1
273
     0
  0
XRECORD
  5
41A
102
{ACAD_REACTORS
330
419
102
}
330
419
100
AcDbXrecord
280
     1
102
MATERIAL
148
0.0
149
0.0
149
0.0
 93
        0
 94
      127
282
     0
 72
     1
 77
     1
171
     1
175
     1
179
     1
273
     0
  0
XRECORD
  5
420
102
{ACAD_REACTORS
330
41F
102
}
330
41F
100
AcDbXrecord
280
     1
102
ACAD_ROUNDTRIP_2010_MLEADER_STYLE
  0
CELLSTYLEMAP
  5
41D
102
{ACAD_REACTORS
330
41B
102
}
330
41B
100
AcDbCellStyleMap
 90
        3
300
CELLSTYLE
  1
TABLEFORMAT_BEGIN
 90
        5
170
     1
 91
        0
 92
    32768
 62
   257
 93
        1
300
CONTENTFORMAT
  1
CONTENTFORMAT_BEGIN
 90
        0
 91
        0
 92
        4
 93
        0
300

 40
0.0
140
1.0
 94
        5
 62
     0
340
11
144
6.0
309
CONTENTFORMAT_END
171
     1
301
MARGIN
  1
CELLMARGIN_BEGIN
 40
1.5
 40
1.5
 40
1.5
 40
1.5
 40
1.5
 40
1.5
309
CELLMARGIN_END
 94
        6
 95
        1
302
GRIDFORMAT
  1
GRIDFORMAT_BEGIN
 90
        0
 91
        1
 62
     0
 92
       -2
340
14
 93
        0
 40
0.045
309
GRIDFORMAT_END
 95
        2
302
GRIDFORMAT
  1
GRIDFORMAT_BEGIN
 90
        0
 91
        1
 62
     0
 92
       -2
340
14
 93
        0
 40
0.045
309
GRIDFORMAT_END
 95
        4
302
GRIDFORMAT
  1
GRIDFORMAT_BEGIN
 90
        0
 91
        1
 62
     0
 92
       -2
340
14
 93
        0
 40
0.045
309
GRIDFORMAT_END
 95
        8
302
GRIDFORMAT
  1
GRIDFORMAT_BEGIN
 90
        0
 91
        1
 62
     0
 92
       -2
340
14
 93
        0
 40
0.045
309
GRIDFORMAT_END
 95
       16
302
GRIDFORMAT
  1
GRIDFORMAT_BEGIN
 90
        0
 91
        1
 62
     0
 92
       -2
340
14
 93
        0
 40
0.045
309
GRIDFORMAT_END
 95
       32
302
GRIDFORMAT
  1
GRIDFORMAT_BEGIN
 90
        0
 91
        1
 62
     0
 92
       -2
340
14
 93
        0
 40
0.045
309
GRIDFORMAT_END
309
TABLEFORMAT_END
  1
CELLSTYLE_BEGIN
 90
        1
 91
        1
300
_TITLE
309
CELLSTYLE_END
300
CELLSTYLE
  1
TABLEFORMAT_BEGIN
 90
        5
170
     1
 91
        0
 92
        0
 62
   257
 93
        1
300
CONTENTFORMAT
  1
CONTENTFORMAT_BEGIN
 90
        0
 91
        0
 92
        4
 93
        0
300

 40
0.0
140
1.0
 94
        5
 62
     0
340
11
144
4.5
309
CONTENTFORMAT_END
171
     1
301
MARGIN
  1
CELLMARGIN_BEGIN
 40
1.5
 40
1.5
 40
1.5
 40
1.5
 40
1.5
 40
1.5
309
CELLMARGIN_END
 94
        6
 95
        1
302
GRIDFORMAT
  1
GRIDFORMAT_BEGIN
 90
        0
 91
        1
 62
     0
 92
       -2
340
14
 93
        0
 40
0.045
309
GRIDFORMAT_END
 95
        2
302
GRIDFORMAT
  1
GRIDFORMAT_BEGIN
 90
        0
 91
        1
 62
     0
 92
       -2
340
14
 93
        0
 40
0.045
309
GRIDFORMAT_END
 95
        4
302
GRIDFORMAT
  1
GRIDFORMAT_BEGIN
 90
        0
 91
        1
 62
     0
 92
       -2
340
14
 93
        0
 40
0.045
309
GRIDFORMAT_END
 95
        8
302
GRIDFORMAT
  1
GRIDFORMAT_BEGIN
 90
        0
 91
        1
 62
     0
 92
       -2
340
14
 93
        0
 40
0.045
309
GRIDFORMAT_END
 95
       16
302
GRIDFORMAT
  1
GRIDFORMAT_BEGIN
 90
        0
 91
        1
 62
     0
 92
       -2
340
14
 93
        0
 40
0.045
309
GRIDFORMAT_END
 95
       32
302
GRIDFORMAT
  1
GRIDFORMAT_BEGIN
 90
        0
 91
        1
 62
     0
 92
       -2
340
14
 93
        0
 40
0.045
309
GRIDFORMAT_END
309
TABLEFORMAT_END
  1
CELLSTYLE_BEGIN
 90
        2
 91
        1
300
_HEADER
309
CELLSTYLE_END
300
CELLSTYLE
  1
TABLEFORMAT_BEGIN
 90
        5
170
     1
 91
        0
 92
        0
 62
   257
 93
        1
300
CONTENTFORMAT
  1
CONTENTFORMAT_BEGIN
 90
        0
 91
        0
 92
        4
 93
        0
300

 40
0.0
140
1.0
 94
        2
 62
     0
340
11
144
4.5
309
CONTENTFORMAT_END
171
     1
301
MARGIN
  1
CELLMARGIN_BEGIN
 40
1.5
 40
1.5
 40
1.5
 40
1.5
 40
1.5
 40
1.5
309
CELLMARGIN_END
 94
        6
 95
        1
302
GRIDFORMAT
  1
GRIDFORMAT_BEGIN
 90
        0
 91
        1
 62
     0
 92
       -2
340
14
 93
        0
 40
0.045
309
GRIDFORMAT_END
 95
        2
302
GRIDFORMAT
  1
GRIDFORMAT_BEGIN
 90
        0
 91
        1
 62
     0
 92
       -2
340
14
 93
        0
 40
0.045
309
GRIDFORMAT_END
 95
        4
302
GRIDFORMAT
  1
GRIDFORMAT_BEGIN
 90
        0
 91
        1
 62
     0
 92
       -2
340
14
 93
        0
 40
0.045
309
GRIDFORMAT_END
 95
        8
302
GRIDFORMAT
  1
GRIDFORMAT_BEGIN
 90
        0
 91
        1
 62
     0
 92
       -2
340
14
 93
        0
 40
0.045
309
GRIDFORMAT_END
 95
       16
302
GRIDFORMAT
  1
GRIDFORMAT_BEGIN
 90
        0
 91
        1
 62
     0
 92
       -2
340
14
 93
        0
 40
0.045
309
GRIDFORMAT_END
 95
       32
302
GRIDFORMAT
  1
GRIDFORMAT_BEGIN
 90
        0
 91
        1
 62
     0
 92
       -2
340
14
 93
        0
 40
0.045
309
GRIDFORMAT_END
309
TABLEFORMAT_END
  1
CELLSTYLE_BEGIN
 90
        3
 91
        2
300
_DATA
309
CELLSTYLE_END
  0
XRECORD
  5
41C
102
{ACAD_REACTORS
330
41B
102
}
330
41B
100
AcDbXrecord
280
     1
102
ACAD_ROUNDTRIP_PRE2007_TABLESTYLE
 90
        4
 91
        0
  1

 92
        4
 93
        0
  2

 94
        4
 95
        0
  3

  0
XRECORD
  5
3EE
102
{ACAD_REACTORS
330
3ED
102
}
330
3ED
100
AcDbXrecord
280
     1
102
RTVSPropertyOp0
 70
     1
102
RTVSPropertyOp1
 70
     1
102
RTVSPropertyOp2
 70
     1
102
RTVSPropertyOp3
 70
     1
102
RTVSPropertyOp4
 70
     1
102
RTVSPropertyOp5
 70
     1
102
RTVSPropertyOp6
 70
     1
102
RTVSPropertyOp7
 70
     1
102
RTVSPropertyOp8
 70
     1
102
RTVSPropertyOp9
 70
     1
102
RTVSPropertyOp10
 70
     1
102
RTVSPropertyOp11
 70
     1
102
RTVSPropertyOp12
 70
     1
102
RTVSPropertyOp13
 70
     1
102
RTVSPropertyOp14
 70
     1
102
RTVSPropertyOp15
 70
     1
102
RTVSPropertyOp16
 70
     1
102
RTVSPropertyOp17
 70
     1
102
RTVSPropertyOp18
 70
     1
102
RTVSPropertyOp19
 70
     1
102
RTVSPropertyOp20
 70
     1
102
RTVSPropertyOp21
 70
     1
102
RTVSPropertyOp22
 70
     1
102
RTVSPropertyOp23
 70
     1
102
RTVSPropertyOp24
 70
     1
102
RTVSPropertyOp25
 70
     1
102
RTVSPropertyOp26
 70
     1
102
RTVSPropertyOp27
 70
     1
102
RTVSPropertyOp28
 70
     1
102
RTVSPropertyOp29
 70
     1
102
RTVSPropertyOp30
 70
     1
102
RTVSPropertyOp31
 70
     1
102
RTVSPropertyOp32
 70
     1
102
RTVSPropertyOp33
 70
     1
102
RTVSPropertyOp34
 70
     1
102
RTVSPropertyOp35
 70
     1
102
RTVSPropertyOp36
 70
     1
102
RTVSPropertyOp37
 70
     1
102
RTVSPropertyOp38
 70
     1
102
RTVSPropertyOp39
 70
     1
102
RTVSPropertyOp40
 70
     1
102
RTVSPropertyOp41
 70
     1
102
RTVSPropertyOp42
 70
     1
102
RTVSPropertyOp43
 70
     1
102
RTVSPropertyOp44
 70
     1
102
RTVSPropertyOp45
 70
     1
102
RTVSPropertyOp46
 70
     1
102
RTVSPropertyOp47
 70
     1
102
RTVSPropertyOp48
 70
     1
102
RTVSPropertyOp49
 70
     1
102
RTVSPropertyOp50
 70
     1
102
RTVSPropertyOp51
 70
     0
102
RTVSPropertyOp52
 70
     0
102
RTVSPropertyOp53
 70
     1
102
RTVSPropertyOp54
 70
     1
102
RTVSPropertyOp55
 70
     1
102
RTVSPropertyOp56
 70
     1
102
RTVSPropertyOp57
 70
     1
102
RTVSPost2010Prop28
280
     1
102
RTVSPost2010PropOp28
 70
     1
102
RTVSPost2010Prop29
280
     1
102
RTVSPost2010PropOp29
 70
     1
102
RTVSPost2010Prop30
280
     0
102
RTVSPost2010PropOp30
 70
     1
102
RTVSPost2010Prop31
280
     0
102
RTVSPost2010PropOp31
 70
     1
102
RTVSPost2010Prop32
280
     0
102
RTVSPost2010PropOp32
 70
     1
102
RTVSPost2010Prop33
280
     0
102
RTVSPost2010PropOp33
 70
     1
102
RTVSPost2010Prop34
280
     0
102
RTVSPost2010PropOp34
 70
     1
102
RTVSPost2010Prop35
280
     0
102
RTVSPost2010PropOp35
 70
     1
102
RTVSPost2010Prop36
280
     0
102
RTVSPost2010PropOp36
 70
     1
102
RTVSPost2010Prop37
 90
       50
102
RTVSPost2010PropOp37
 70
     1
102
RTVSPost2010Prop38
140
0.0
102
RTVSPost2010PropOp38
 70
     1
102
RTVSPost2010Prop39
140
1.0
102
RTVSPost2010PropOp39
 70
     1
102
RTVSPost2010Prop40
 90
        0
102
RTVSPost2010PropOp40
 70
     1
102
RTVSPost2010Prop41ColorIndex
 90
       18
102
RTVSPost2010Prop41ColorRGB
 90
        0
102
RTVSPost2010PropOp41
 70
     1
102
RTVSPost2010Prop42
 90
       50
102
RTVSPost2010PropOp42
 70
     1
102
RTVSPost2010Prop43
 90
        3
102
RTVSPost2010PropOp43
 70
     1
102
RTVSPost2010Prop44ColorIndex
 90
        5
102
RTVSPost2010Prop44ColorRGB
 90
      255
102
RTVSPost2010PropOp44
 70
     1
102
RTVSPost2010Prop45
280
     0
102
RTVSPost2010PropOp45
 70
     1
102
RTVSPost2010Prop46
 90
       50
102
RTVSPost2010PropOp46
 70
     1
102
RTVSPost2010Prop47
 90
       50
102
RTVSPost2010PropOp47
 70
     1
102
RTVSPost2010Prop48
 90
       50
102
RTVSPost2010PropOp48
 70
     1
102
RTVSPost2010Prop49
280
     0
102
RTVSPost2010PropOp49
 70
     1
102
RTVSPost2010Prop50
 90
       50
102
RTVSPost2010PropOp50
 70
     1
102
RTVSPost2010Prop51ColorIndex
 90
      256
102
RTVSPost2010Prop51ColorRGB
 90
-16777216
102
RTVSPost2010PropOp51
 70
     0
102
RTVSPost2010Prop52
140
1.0
102
RTVSPost2010PropOp52
 70
     0
102
RTVSPost2010Prop53
 90
        2
102
RTVSPost2010PropOp53
 70
     1
102
RTVSPost2010Prop54
  1
strokes_ogs.tif
102
RTVSPost2010PropOp54
 70
     1
102
RTVSPost2010Prop55
280
     0
102
RTVSPost2010PropOp55
 70
     1
102
RTVSPost2010Prop56
140
1.0
102
RTVSPost2010PropOp56
 70
     1
102
RTVSPost2010Prop57
140
1.0
102
RTVSPost2010PropOp57
 70
     1
  0
XRECORD
  5
3F4
102
{ACAD_REACTORS
330
3F3
102
}
330
3F3
100
AcDbXrecord
280
     1
102
RTVSPropertyOp0
 70
     1
102
RTVSPropertyOp1
 70
     1
102
RTVSPropertyOp2
 70
     1
102
RTVSPropertyOp3
 70
     1
102
RTVSPropertyOp4
 70
     1
102
RTVSPropertyOp5
 70
     1
102
RTVSPropertyOp6
 70
     1
102
RTVSPropertyOp7
 70
     1
102
RTVSPropertyOp8
 70
     1
102
RTVSPropertyOp9
 70
     1
102
RTVSPropertyOp10
 70
     1
102
RTVSPropertyOp11
 70
     1
102
RTVSPropertyOp12
 70
     1
102
RTVSPropertyOp13
 70
     1
102
RTVSPropertyOp14
 70
     1
102
RTVSPropertyOp15
 70
     1
102
RTVSPropertyOp16
 70
     1
102
RTVSPropertyOp17
 70
     1
102
RTVSPropertyOp18
 70
     1
102
RTVSPropertyOp19
 70
     1
102
RTVSPropertyOp20
 70
     1
102
RTVSPropertyOp21
 70
     1
102
RTVSPropertyOp22
 70
     1
102
RTVSPropertyOp23
 70
     1
102
RTVSPropertyOp24
 70
     1
102
RTVSPropertyOp25
 70
     1
102
RTVSPropertyOp26
 70
     1
102
RTVSPropertyOp27
 70
     1
102
RTVSPropertyOp28
 70
     1
102
RTVSPropertyOp29
 70
     1
102
RTVSPropertyOp30
 70
     1
102
RTVSPropertyOp31
 70
     1
102
RTVSPropertyOp32
 70
     1
102
RTVSPropertyOp33
 70
     1
102
RTVSPropertyOp34
 70
     1
102
RTVSPropertyOp35
 70
     1
102
RTVSPropertyOp36
 70
     1
102
RTVSPropertyOp37
 70
     1
102
RTVSPropertyOp38
 70
     1
102
RTVSPropertyOp39
 70
     1
102
RTVSPropertyOp40
 70
     1
102
RTVSPropertyOp41
 70
     1
102
RTVSPropertyOp42
 70
     1
102
RTVSPropertyOp43
 70
     1
102
RTVSPropertyOp44
 70
     1
102
RTVSPropertyOp45
 70
     1
102
RTVSPropertyOp46
 70
     1
102
RTVSPropertyOp47
 70
     1
102
RTVSPropertyOp48
 70
     1
102
RTVSPropertyOp49
 70
     1
102
RTVSPropertyOp50
 70
     1
102
RTVSPropertyOp51
 70
     0
102
RTVSPropertyOp52
 70
     0
102
RTVSPropertyOp53
 70
     1
102
RTVSPropertyOp54
 70
     1
102
RTVSPropertyOp55
 70
     1
102
RTVSPropertyOp56
 70
     1
102
RTVSPropertyOp57
 70
     1
102
RTVSPost2010Prop28
280
     0
102
RTVSPost2010PropOp28
 70
     1
102
RTVSPost2010Prop29
280
     1
102
RTVSPost2010PropOp29
 70
     1
102
RTVSPost2010Prop30
280
     1
102
RTVSPost2010PropOp30
 70
     1
102
RTVSPost2010Prop31
280
     0
102
RTVSPost2010PropOp31
 70
     1
102
RTVSPost2010Prop32
280
     0
102
RTVSPost2010PropOp32
 70
     1
102
RTVSPost2010Prop33
280
     0
102
RTVSPost2010PropOp33
 70
     1
102
RTVSPost2010Prop34
280
     0
102
RTVSPost2010PropOp34
 70
     1
102
RTVSPost2010Prop35
280
     0
102
RTVSPost2010PropOp35
 70
     1
102
RTVSPost2010Prop36
280
     0
102
RTVSPost2010PropOp36
 70
     1
102
RTVSPost2010Prop37
 90
       50
102
RTVSPost2010PropOp37
 70
     1
102
RTVSPost2010Prop38
140
0.0
102
RTVSPost2010PropOp38
 70
     1
102
RTVSPost2010Prop39
140
1.0
102
RTVSPost2010PropOp39
 70
     1
102
RTVSPost2010Prop40
 90
        0
102
RTVSPost2010PropOp40
 70
     1
102
RTVSPost2010Prop41ColorIndex
 90
       18
102
RTVSPost2010Prop41ColorRGB
 90
        0
102
RTVSPost2010PropOp41
 70
     1
102
RTVSPost2010Prop42
 90
       50
102
RTVSPost2010PropOp42
 70
     1
102
RTVSPost2010Prop43
 90
        3
102
RTVSPost2010PropOp43
 70
     1
102
RTVSPost2010Prop44ColorIndex
 90
        5
102
RTVSPost2010Prop44ColorRGB
 90
      255
102
RTVSPost2010PropOp44
 70
     1
102
RTVSPost2010Prop45
280
     0
102
RTVSPost2010PropOp45
 70
     1
102
RTVSPost2010Prop46
 90
       50
102
RTVSPost2010PropOp46
 70
     1
102
RTVSPost2010Prop47
 90
       50
102
RTVSPost2010PropOp47
 70
     1
102
RTVSPost2010Prop48
 90
       50
102
RTVSPost2010PropOp48
 70
     1
102
RTVSPost2010Prop49
280
     0
102
RTVSPost2010PropOp49
 70
     1
102
RTVSPost2010Prop50
 90
       50
102
RTVSPost2010PropOp50
 70
     1
102
RTVSPost2010Prop51ColorIndex
 90
      256
102
RTVSPost2010Prop51ColorRGB
 90
-16777216
102
RTVSPost2010PropOp51
 70
     0
102
RTVSPost2010Prop52
140
1.0
102
RTVSPost2010PropOp52
 70
     0
102
RTVSPost2010Prop53
 90
        2
102
RTVSPost2010PropOp53
 70
     1
102
RTVSPost2010Prop54
  1
strokes_ogs.tif
102
RTVSPost2010PropOp54
 70
     1
102
RTVSPost2010Prop55
280
     0
102
RTVSPost2010PropOp55
 70
     1
102
RTVSPost2010Prop56
140
1.0
102
RTVSPost2010PropOp56
 70
     1
102
RTVSPost2010Prop57
140
1.0
102
RTVSPost2010PropOp57
 70
     1
  0
XRECORD
  5
3FC
102
{ACAD_REACTORS
330
3FB
102
}
330
3FB
100
AcDbXrecord
280
     1
102
RTVSPropertyOp0
 70
     1
102
RTVSPropertyOp1
 70
     1
102
RTVSPropertyOp2
 70
     1
102
RTVSPropertyOp3
 70
     1
102
RTVSPropertyOp4
 70
     1
102
RTVSPropertyOp5
 70
     1
102
RTVSPropertyOp6
 70
     1
102
RTVSPropertyOp7
 70
     1
102
RTVSPropertyOp8
 70
     1
102
RTVSPropertyOp9
 70
     1
102
RTVSPropertyOp10
 70
     1
102
RTVSPropertyOp11
 70
     1
102
RTVSPropertyOp12
 70
     1
102
RTVSPropertyOp13
 70
     1
102
RTVSPropertyOp14
 70
     1
102
RTVSPropertyOp15
 70
     1
102
RTVSPropertyOp16
 70
     1
102
RTVSPropertyOp17
 70
     1
102
RTVSPropertyOp18
 70
     1
102
RTVSPropertyOp19
 70
     1
102
RTVSPropertyOp20
 70
     1
102
RTVSPropertyOp21
 70
     1
102
RTVSPropertyOp22
 70
     1
102
RTVSPropertyOp23
 70
     1
102
RTVSPropertyOp24
 70
     1
102
RTVSPropertyOp25
 70
     1
102
RTVSPropertyOp26
 70
     1
102
RTVSPropertyOp27
 70
     1
102
RTVSPropertyOp28
 70
     1
102
RTVSPropertyOp29
 70
     1
102
RTVSPropertyOp30
 70
     1
102
RTVSPropertyOp31
 70
     1
102
RTVSPropertyOp32
 70
     1
102
RTVSPropertyOp33
 70
     1
102
RTVSPropertyOp34
 70
     1
102
RTVSPropertyOp35
 70
     1
102
RTVSPropertyOp36
 70
     1
102
RTVSPropertyOp37
 70
     1
102
RTVSPropertyOp38
 70
     1
102
RTVSPropertyOp39
 70
     1
102
RTVSPropertyOp40
 70
     1
102
RTVSPropertyOp41
 70
     1
102
RTVSPropertyOp42
 70
     1
102
RTVSPropertyOp43
 70
     1
102
RTVSPropertyOp44
 70
     1
102
RTVSPropertyOp45
 70
     1
102
RTVSPropertyOp46
 70
     1
102
RTVSPropertyOp47
 70
     1
102
RTVSPropertyOp48
 70
     1
102
RTVSPropertyOp49
 70
     1
102
RTVSPropertyOp50
 70
     1
102
RTVSPropertyOp51
 70
     0
102
RTVSPropertyOp52
 70
     0
102
RTVSPropertyOp53
 70
     1
102
RTVSPropertyOp54
 70
     1
102
RTVSPropertyOp55
 70
     1
102
RTVSPropertyOp56
 70
     1
102
RTVSPropertyOp57
 70
     1
102
RTVSPost2010Prop28
280
     0
102
RTVSPost2010PropOp28
 70
     1
102
RTVSPost2010Prop29
280
     1
102
RTVSPost2010PropOp29
 70
     1
102
RTVSPost2010Prop30
280
     1
102
RTVSPost2010PropOp30
 70
     1
102
RTVSPost2010Prop31
280
     0
102
RTVSPost2010PropOp31
 70
     1
102
RTVSPost2010Prop32
280
     0
102
RTVSPost2010PropOp32
 70
     1
102
RTVSPost2010Prop33
280
     0
102
RTVSPost2010PropOp33
 70
     1
102
RTVSPost2010Prop34
280
     0
102
RTVSPost2010PropOp34
 70
     1
102
RTVSPost2010Prop35
280
     0
102
RTVSPost2010PropOp35
 70
     1
102
RTVSPost2010Prop36
280
     0
102
RTVSPost2010PropOp36
 70
     1
102
RTVSPost2010Prop37
 90
       50
102
RTVSPost2010PropOp37
 70
     1
102
RTVSPost2010Prop38
140
0.0
102
RTVSPost2010PropOp38
 70
     1
102
RTVSPost2010Prop39
140
1.0
102
RTVSPost2010PropOp39
 70
     1
102
RTVSPost2010Prop40
 90
        0
102
RTVSPost2010PropOp40
 70
     1
102
RTVSPost2010Prop41ColorIndex
 90
       18
102
RTVSPost2010Prop41ColorRGB
 90
        0
102
RTVSPost2010PropOp41
 70
     1
102
RTVSPost2010Prop42
 90
       50
102
RTVSPost2010PropOp42
 70
     1
102
RTVSPost2010Prop43
 90
        3
102
RTVSPost2010PropOp43
 70
     1
102
RTVSPost2010Prop44ColorIndex
 90
        5
102
RTVSPost2010Prop44ColorRGB
 90
      255
102
RTVSPost2010PropOp44
 70
     1
102
RTVSPost2010Prop45
280
     0
102
RTVSPost2010PropOp45
 70
     1
102
RTVSPost2010Prop46
 90
       50
102
RTVSPost2010PropOp46
 70
     1
102
RTVSPost2010Prop47
 90
       50
102
RTVSPost2010PropOp47
 70
     1
102
RTVSPost2010Prop48
 90
       50
102
RTVSPost2010PropOp48
 70
     1
102
RTVSPost2010Prop49
280
     0
102
RTVSPost2010PropOp49
 70
     1
102
RTVSPost2010Prop50
 90
       50
102
RTVSPost2010PropOp50
 70
     1
102
RTVSPost2010Prop51ColorIndex
 90
      256
102
RTVSPost2010Prop51ColorRGB
 90
-16777216
102
RTVSPost2010PropOp51
 70
     0
102
RTVSPost2010Prop52
140
1.0
102
RTVSPost2010PropOp52
 70
     0
102
RTVSPost2010Prop53
 90
        2
102
RTVSPost2010PropOp53
 70
     1
102
RTVSPost2010Prop54
  1
strokes_ogs.tif
102
RTVSPost2010PropOp54
 70
     1
102
RTVSPost2010Prop55
280
     0
102
RTVSPost2010PropOp55
 70
     1
102
RTVSPost2010Prop56
140
1.0
102
RTVSPost2010PropOp56
 70
     1
102
RTVSPost2010Prop57
140
1.0
102
RTVSPost2010PropOp57
 70
     1
  0
XRECORD
  5
404
102
{ACAD_REACTORS
330
403
102
}
330
403
100
AcDbXrecord
280
     1
102
RTVSPropertyOp0
 70
     1
102
RTVSPropertyOp1
 70
     1
102
RTVSPropertyOp2
 70
     1
102
RTVSPropertyOp3
 70
     1
102
RTVSPropertyOp4
 70
     1
102
RTVSPropertyOp5
 70
     1
102
RTVSPropertyOp6
 70
     1
102
RTVSPropertyOp7
 70
     1
102
RTVSPropertyOp8
 70
     1
102
RTVSPropertyOp9
 70
     1
102
RTVSPropertyOp10
 70
     1
102
RTVSPropertyOp11
 70
     1
102
RTVSPropertyOp12
 70
     1
102
RTVSPropertyOp13
 70
     1
102
RTVSPropertyOp14
 70
     1
102
RTVSPropertyOp15
 70
     1
102
RTVSPropertyOp16
 70
     1
102
RTVSPropertyOp17
 70
     1
102
RTVSPropertyOp18
 70
     1
102
RTVSPropertyOp19
 70
     1
102
RTVSPropertyOp20
 70
     1
102
RTVSPropertyOp21
 70
     1
102
RTVSPropertyOp22
 70
     1
102
RTVSPropertyOp23
 70
     1
102
RTVSPropertyOp24
 70
     1
102
RTVSPropertyOp25
 70
     1
102
RTVSPropertyOp26
 70
     1
102
RTVSPropertyOp27
 70
     1
102
RTVSPropertyOp28
 70
     1
102
RTVSPropertyOp29
 70
     1
102
RTVSPropertyOp30
 70
     1
102
RTVSPropertyOp31
 70
     1
102
RTVSPropertyOp32
 70
     1
102
RTVSPropertyOp33
 70
     1
102
RTVSPropertyOp34
 70
     1
102
RTVSPropertyOp35
 70
     1
102
RTVSPropertyOp36
 70
     1
102
RTVSPropertyOp37
 70
     1
102
RTVSPropertyOp38
 70
     1
102
RTVSPropertyOp39
 70
     1
102
RTVSPropertyOp40
 70
     1
102
RTVSPropertyOp41
 70
     1
102
RTVSPropertyOp42
 70
     1
102
RTVSPropertyOp43
 70
     1
102
RTVSPropertyOp44
 70
     1
102
RTVSPropertyOp45
 70
     1
102
RTVSPropertyOp46
 70
     1
102
RTVSPropertyOp47
 70
     1
102
RTVSPropertyOp48
 70
     1
102
RTVSPropertyOp49
 70
     1
102
RTVSPropertyOp50
 70
     1
102
RTVSPropertyOp51
 70
     0
102
RTVSPropertyOp52
 70
     0
102
RTVSPropertyOp53
 70
     1
102
RTVSPropertyOp54
 70
     1
102
RTVSPropertyOp55
 70
     1
102
RTVSPropertyOp56
 70
     1
102
RTVSPropertyOp57
 70
     1
102
RTVSPost2010Prop28
280
     0
102
RTVSPost2010PropOp28
 70
     1
102
RTVSPost2010Prop29
280
     1
102
RTVSPost2010PropOp29
 70
     1
102
RTVSPost2010Prop30
280
     1
102
RTVSPost2010PropOp30
 70
     1
102
RTVSPost2010Prop31
280
     0
102
RTVSPost2010PropOp31
 70
     1
102
RTVSPost2010Prop32
280
     0
102
RTVSPost2010PropOp32
 70
     1
102
RTVSPost2010Prop33
280
     0
102
RTVSPost2010PropOp33
 70
     1
102
RTVSPost2010Prop34
280
     0
102
RTVSPost2010PropOp34
 70
     1
102
RTVSPost2010Prop35
280
     0
102
RTVSPost2010PropOp35
 70
     1
102
RTVSPost2010Prop36
280
     0
102
RTVSPost2010PropOp36
 70
     1
102
RTVSPost2010Prop37
 90
       50
102
RTVSPost2010PropOp37
 70
     1
102
RTVSPost2010Prop38
140
0.0
102
RTVSPost2010PropOp38
 70
     1
102
RTVSPost2010Prop39
140
1.0
102
RTVSPost2010PropOp39
 70
     1
102
RTVSPost2010Prop40
 90
        0
102
RTVSPost2010PropOp40
 70
     1
102
RTVSPost2010Prop41ColorIndex
 90
       18
102
RTVSPost2010Prop41ColorRGB
 90
        0
102
RTVSPost2010PropOp41
 70
     1
102
RTVSPost2010Prop42
 90
       50
102
RTVSPost2010PropOp42
 70
     1
102
RTVSPost2010Prop43
 90
        3
102
RTVSPost2010PropOp43
 70
     1
102
RTVSPost2010Prop44ColorIndex
 90
        5
102
RTVSPost2010Prop44ColorRGB
 90
      255
102
RTVSPost2010PropOp44
 70
     1
102
RTVSPost2010Prop45
280
     0
102
RTVSPost2010PropOp45
 70
     1
102
RTVSPost2010Prop46
 90
       50
102
RTVSPost2010PropOp46
 70
     1
102
RTVSPost2010Prop47
 90
       50
102
RTVSPost2010PropOp47
 70
     1
102
RTVSPost2010Prop48
 90
       50
102
RTVSPost2010PropOp48
 70
     1
102
RTVSPost2010Prop49
280
     0
102
RTVSPost2010PropOp49
 70
     1
102
RTVSPost2010Prop50
 90
       50
102
RTVSPost2010PropOp50
 70
     1
102
RTVSPost2010Prop51ColorIndex
 90
      256
102
RTVSPost2010Prop51ColorRGB
 90
-16777216
102
RTVSPost2010PropOp51
 70
     0
102
RTVSPost2010Prop52
140
1.0
102
RTVSPost2010PropOp52
 70
     0
102
RTVSPost2010Prop53
 90
        2
102
RTVSPost2010PropOp53
 70
     1
102
RTVSPost2010Prop54
  1
strokes_ogs.tif
102
RTVSPost2010PropOp54
 70
     1
102
RTVSPost2010Prop55
280
     0
102
RTVSPost2010PropOp55
 70
     1
102
RTVSPost2010Prop56
140
1.0
102
RTVSPost2010PropOp56
 70
     1
102
RTVSPost2010Prop57
140
1.0
102
RTVSPost2010PropOp57
 70
     1
  0
XRECORD
  5
3F8
102
{ACAD_REACTORS
330
3F7
102
}
330
3F7
100
AcDbXrecord
280
     1
102
RTVSPropertyOp0
 70
     1
102
RTVSPropertyOp1
 70
     1
102
RTVSPropertyOp2
 70
     1
102
RTVSPropertyOp3
 70
     1
102
RTVSPropertyOp4
 70
     1
102
RTVSPropertyOp5
 70
     1
102
RTVSPropertyOp6
 70
     1
102
RTVSPropertyOp7
 70
     1
102
RTVSPropertyOp8
 70
     1
102
RTVSPropertyOp9
 70
     1
102
RTVSPropertyOp10
 70
     1
102
RTVSPropertyOp11
 70
     1
102
RTVSPropertyOp12
 70
     1
102
RTVSPropertyOp13
 70
     1
102
RTVSPropertyOp14
 70
     1
102
RTVSPropertyOp15
 70
     1
102
RTVSPropertyOp16
 70
     1
102
RTVSPropertyOp17
 70
     1
102
RTVSPropertyOp18
 70
     1
102
RTVSPropertyOp19
 70
     1
102
RTVSPropertyOp20
 70
     1
102
RTVSPropertyOp21
 70
     1
102
RTVSPropertyOp22
 70
     1
102
RTVSPropertyOp23
 70
     1
102
RTVSPropertyOp24
 70
     1
102
RTVSPropertyOp25
 70
     1
102
RTVSPropertyOp26
 70
     1
102
RTVSPropertyOp27
 70
     1
102
RTVSPropertyOp28
 70
     1
102
RTVSPropertyOp29
 70
     1
102
RTVSPropertyOp30
 70
     1
102
RTVSPropertyOp31
 70
     1
102
RTVSPropertyOp32
 70
     1
102
RTVSPropertyOp33
 70
     1
102
RTVSPropertyOp34
 70
     1
102
RTVSPropertyOp35
 70
     1
102
RTVSPropertyOp36
 70
     1
102
RTVSPropertyOp37
 70
     1
102
RTVSPropertyOp38
 70
     1
102
RTVSPropertyOp39
 70
     1
102
RTVSPropertyOp40
 70
     1
102
RTVSPropertyOp41
 70
     1
102
RTVSPropertyOp42
 70
     1
102
RTVSPropertyOp43
 70
     1
102
RTVSPropertyOp44
 70
     1
102
RTVSPropertyOp45
 70
     1
102
RTVSPropertyOp46
 70
     1
102
RTVSPropertyOp47
 70
     1
102
RTVSPropertyOp48
 70
     1
102
RTVSPropertyOp49
 70
     1
102
RTVSPropertyOp50
 70
     1
102
RTVSPropertyOp51
 70
     0
102
RTVSPropertyOp52
 70
     0
102
RTVSPropertyOp53
 70
     1
102
RTVSPropertyOp54
 70
     1
102
RTVSPropertyOp55
 70
     1
102
RTVSPropertyOp56
 70
     1
102
RTVSPropertyOp57
 70
     1
102
RTVSPost2010Prop28
280
     0
102
RTVSPost2010PropOp28
 70
     1
102
RTVSPost2010Prop29
280
     1
102
RTVSPost2010PropOp29
 70
     1
102
RTVSPost2010Prop30
280
     1
102
RTVSPost2010PropOp30
 70
     1
102
RTVSPost2010Prop31
280
     0
102
RTVSPost2010PropOp31
 70
     1
102
RTVSPost2010Prop32
280
     0
102
RTVSPost2010PropOp32
 70
     1
102
RTVSPost2010Prop33
280
     0
102
RTVSPost2010PropOp33
 70
     1
102
RTVSPost2010Prop34
280
     0
102
RTVSPost2010PropOp34
 70
     1
102
RTVSPost2010Prop35
280
     0
102
RTVSPost2010PropOp35
 70
     1
102
RTVSPost2010Prop36
280
     0
102
RTVSPost2010PropOp36
 70
     1
102
RTVSPost2010Prop37
 90
       50
102
RTVSPost2010PropOp37
 70
     1
102
RTVSPost2010Prop38
140
0.0
102
RTVSPost2010PropOp38
 70
     1
102
RTVSPost2010Prop39
140
1.0
102
RTVSPost2010PropOp39
 70
     1
102
RTVSPost2010Prop40
 90
        0
102
RTVSPost2010PropOp40
 70
     1
102
RTVSPost2010Prop41ColorIndex
 90
       18
102
RTVSPost2010Prop41ColorRGB
 90
        0
102
RTVSPost2010PropOp41
 70
     1
102
RTVSPost2010Prop42
 90
       50
102
RTVSPost2010PropOp42
 70
     1
102
RTVSPost2010Prop43
 90
        3
102
RTVSPost2010PropOp43
 70
     1
102
RTVSPost2010Prop44ColorIndex
 90
        5
102
RTVSPost2010Prop44ColorRGB
 90
      255
102
RTVSPost2010PropOp44
 70
     1
102
RTVSPost2010Prop45
280
     0
102
RTVSPost2010PropOp45
 70
     1
102
RTVSPost2010Prop46
 90
       50
102
RTVSPost2010PropOp46
 70
     1
102
RTVSPost2010Prop47
 90
       50
102
RTVSPost2010PropOp47
 70
     1
102
RTVSPost2010Prop48
 90
       50
102
RTVSPost2010PropOp48
 70
     1
102
RTVSPost2010Prop49
280
     0
102
RTVSPost2010PropOp49
 70
     1
102
RTVSPost2010Prop50
 90
       50
102
RTVSPost2010PropOp50
 70
     1
102
RTVSPost2010Prop51ColorIndex
 90
      256
102
RTVSPost2010Prop51ColorRGB
 90
-16777216
102
RTVSPost2010PropOp51
 70
     0
102
RTVSPost2010Prop52
140
1.0
102
RTVSPost2010PropOp52
 70
     0
102
RTVSPost2010Prop53
 90
        2
102
RTVSPost2010PropOp53
 70
     1
102
RTVSPost2010Prop54
  1
strokes_ogs.tif
102
RTVSPost2010PropOp54
 70
     1
102
RTVSPost2010Prop55
280
     0
102
RTVSPost2010PropOp55
 70
     1
102
RTVSPost2010Prop56
140
1.0
102
RTVSPost2010PropOp56
 70
     1
102
RTVSPost2010Prop57
140
1.0
102
RTVSPost2010PropOp57
 70
     1
  0
XRECORD
  5
3FA
102
{ACAD_REACTORS
330
3F9
102
}
330
3F9
100
AcDbXrecord
280
     1
102
RTVSPropertyOp0
 70
     1
102
RTVSPropertyOp1
 70
     1
102
RTVSPropertyOp2
 70
     1
102
RTVSPropertyOp3
 70
     1
102
RTVSPropertyOp4
 70
     1
102
RTVSPropertyOp5
 70
     1
102
RTVSPropertyOp6
 70
     1
102
RTVSPropertyOp7
 70
     1
102
RTVSPropertyOp8
 70
     1
102
RTVSPropertyOp9
 70
     1
102
RTVSPropertyOp10
 70
     1
102
RTVSPropertyOp11
 70
     1
102
RTVSPropertyOp12
 70
     1
102
RTVSPropertyOp13
 70
     1
102
RTVSPropertyOp14
 70
     1
102
RTVSPropertyOp15
 70
     1
102
RTVSPropertyOp16
 70
     1
102
RTVSPropertyOp17
 70
     1
102
RTVSPropertyOp18
 70
     1
102
RTVSPropertyOp19
 70
     1
102
RTVSPropertyOp20
 70
     1
102
RTVSPropertyOp21
 70
     1
102
RTVSPropertyOp22
 70
     1
102
RTVSPropertyOp23
 70
     1
102
RTVSPropertyOp24
 70
     1
102
RTVSPropertyOp25
 70
     1
102
RTVSPropertyOp26
 70
     1
102
RTVSPropertyOp27
 70
     1
102
RTVSPropertyOp28
 70
     1
102
RTVSPropertyOp29
 70
     1
102
RTVSPropertyOp30
 70
     1
102
RTVSPropertyOp31
 70
     1
102
RTVSPropertyOp32
 70
     1
102
RTVSPropertyOp33
 70
     1
102
RTVSPropertyOp34
 70
     1
102
RTVSPropertyOp35
 70
     1
102
RTVSPropertyOp36
 70
     1
102
RTVSPropertyOp37
 70
     1
102
RTVSPropertyOp38
 70
     1
102
RTVSPropertyOp39
 70
     1
102
RTVSPropertyOp40
 70
     1
102
RTVSPropertyOp41
 70
     1
102
RTVSPropertyOp42
 70
     1
102
RTVSPropertyOp43
 70
     1
102
RTVSPropertyOp44
 70
     1
102
RTVSPropertyOp45
 70
     1
102
RTVSPropertyOp46
 70
     1
102
RTVSPropertyOp47
 70
     1
102
RTVSPropertyOp48
 70
     1
102
RTVSPropertyOp49
 70
     1
102
RTVSPropertyOp50
 70
     1
102
RTVSPropertyOp51
 70
     0
102
RTVSPropertyOp52
 70
     0
102
RTVSPropertyOp53
 70
     1
102
RTVSPropertyOp54
 70
     1
102
RTVSPropertyOp55
 70
     1
102
RTVSPropertyOp56
 70
     1
102
RTVSPropertyOp57
 70
     1
102
RTVSPost2010Prop28
280
     0
102
RTVSPost2010PropOp28
 70
     1
102
RTVSPost2010Prop29
280
     1
102
RTVSPost2010PropOp29
 70
     1
102
RTVSPost2010Prop30
280
     1
102
RTVSPost2010PropOp30
 70
     1
102
RTVSPost2010Prop31
280
     0
102
RTVSPost2010PropOp31
 70
     1
102
RTVSPost2010Prop32
280
     0
102
RTVSPost2010PropOp32
 70
     1
102
RTVSPost2010Prop33
280
     0
102
RTVSPost2010PropOp33
 70
     1
102
RTVSPost2010Prop34
280
     0
102
RTVSPost2010PropOp34
 70
     1
102
RTVSPost2010Prop35
280
     0
102
RTVSPost2010PropOp35
 70
     1
102
RTVSPost2010Prop36
280
     0
102
RTVSPost2010PropOp36
 70
     1
102
RTVSPost2010Prop37
 90
       50
102
RTVSPost2010PropOp37
 70
     1
102
RTVSPost2010Prop38
140
0.0
102
RTVSPost2010PropOp38
 70
     1
102
RTVSPost2010Prop39
140
1.0
102
RTVSPost2010PropOp39
 70
     1
102
RTVSPost2010Prop40
 90
        0
102
RTVSPost2010PropOp40
 70
     1
102
RTVSPost2010Prop41ColorIndex
 90
       18
102
RTVSPost2010Prop41ColorRGB
 90
        0
102
RTVSPost2010PropOp41
 70
     1
102
RTVSPost2010Prop42
 90
       50
102
RTVSPost2010PropOp42
 70
     1
102
RTVSPost2010Prop43
 90
        3
102
RTVSPost2010PropOp43
 70
     1
102
RTVSPost2010Prop44ColorIndex
 90
        5
102
RTVSPost2010Prop44ColorRGB
 90
      255
102
RTVSPost2010PropOp44
 70
     1
102
RTVSPost2010Prop45
280
     0
102
RTVSPost2010PropOp45
 70
     1
102
RTVSPost2010Prop46
 90
       50
102
RTVSPost2010PropOp46
 70
     1
102
RTVSPost2010Prop47
 90
       50
102
RTVSPost2010PropOp47
 70
     1
102
RTVSPost2010Prop48
 90
       50
102
RTVSPost2010PropOp48
 70
     1
102
RTVSPost2010Prop49
280
     0
102
RTVSPost2010PropOp49
 70
     1
102
RTVSPost2010Prop50
 90
       50
102
RTVSPost2010PropOp50
 70
     1
102
RTVSPost2010Prop51ColorIndex
 90
      256
102
RTVSPost2010Prop51ColorRGB
 90
-16777216
102
RTVSPost2010PropOp51
 70
     0
102
RTVSPost2010Prop52
140
1.0
102
RTVSPost2010PropOp52
 70
     0
102
RTVSPost2010Prop53
 90
        2
102
RTVSPost2010PropOp53
 70
     1
102
RTVSPost2010Prop54
  1
strokes_ogs.tif
102
RTVSPost2010PropOp54
 70
     1
102
RTVSPost2010Prop55
280
     0
102
RTVSPost2010PropOp55
 70
     1
102
RTVSPost2010Prop56
140
1.0
102
RTVSPost2010PropOp56
 70
     1
102
RTVSPost2010Prop57
140
1.0
102
RTVSPost2010PropOp57
 70
     1
  0
XRECORD
  5
40A
102
{ACAD_REACTORS
330
409
102
}
330
409
100
AcDbXrecord
280
     1
102
RTVSPropertyOp0
 70
     0
102
RTVSPropertyOp1
 70
     0
102
RTVSPropertyOp2
 70
     0
102
RTVSPropertyOp3
 70
     0
102
RTVSPropertyOp4
 70
     0
102
RTVSPropertyOp5
 70
     0
102
RTVSPropertyOp6
 70
     0
102
RTVSPropertyOp7
 70
     0
102
RTVSPropertyOp8
 70
     0
102
RTVSPropertyOp9
 70
     0
102
RTVSPropertyOp10
 70
     0
102
RTVSPropertyOp11
 70
     0
102
RTVSPropertyOp12
 70
     0
102
RTVSPropertyOp13
 70
     0
102
RTVSPropertyOp14
 70
     2
102
RTVSPropertyOp15
 70
     0
102
RTVSPropertyOp16
 70
     0
102
RTVSPropertyOp17
 70
     0
102
RTVSPropertyOp18
 70
     0
102
RTVSPropertyOp19
 70
     0
102
RTVSPropertyOp20
 70
     0
102
RTVSPropertyOp21
 70
     0
102
RTVSPropertyOp22
 70
     0
102
RTVSPropertyOp23
 70
     0
102
RTVSPropertyOp24
 70
     0
102
RTVSPropertyOp25
 70
     0
102
RTVSPropertyOp26
 70
     0
102
RTVSPropertyOp27
 70
     0
102
RTVSPropertyOp28
 70
     0
102
RTVSPropertyOp29
 70
     0
102
RTVSPropertyOp30
 70
     0
102
RTVSPropertyOp31
 70
     0
102
RTVSPropertyOp32
 70
     0
102
RTVSPropertyOp33
 70
     0
102
RTVSPropertyOp34
 70
     0
102
RTVSPropertyOp35
 70
     0
102
RTVSPropertyOp36
 70
     0
102
RTVSPropertyOp37
 70
     0
102
RTVSPropertyOp38
 70
     0
102
RTVSPropertyOp39
 70
     0
102
RTVSPropertyOp40
 70
     0
102
RTVSPropertyOp41
 70
     0
102
RTVSPropertyOp42
 70
     0
102
RTVSPropertyOp43
 70
     0
102
RTVSPropertyOp44
 70
     0
102
RTVSPropertyOp45
 70
     0
102
RTVSPropertyOp46
 70
     0
102
RTVSPropertyOp47
 70
     0
102
RTVSPropertyOp48
 70
     0
102
RTVSPropertyOp49
 70
     0
102
RTVSPropertyOp50
 70
     0
102
RTVSPropertyOp51
 70
     0
102
RTVSPropertyOp52
 70
     0
102
RTVSPropertyOp53
 70
     0
102
RTVSPropertyOp54
 70
     0
102
RTVSPropertyOp55
 70
     0
102
RTVSPropertyOp56
 70
     0
102
RTVSPropertyOp57
 70
     0
102
RTVSPost2010Prop28
280
     0
102
RTVSPost2010PropOp28
 70
     0
102
RTVSPost2010Prop29
280
     1
102
RTVSPost2010PropOp29
 70
     0
102
RTVSPost2010Prop30
280
     1
102
RTVSPost2010PropOp30
 70
     0
102
RTVSPost2010Prop31
280
     0
102
RTVSPost2010PropOp31
 70
     0
102
RTVSPost2010Prop32
280
     0
102
RTVSPost2010PropOp32
 70
     0
102
RTVSPost2010Prop33
280
     0
102
RTVSPost2010PropOp33
 70
     0
102
RTVSPost2010Prop34
280
     0
102
RTVSPost2010PropOp34
 70
     0
102
RTVSPost2010Prop35
280
     0
102
RTVSPost2010PropOp35
 70
     0
102
RTVSPost2010Prop36
280
     0
102
RTVSPost2010PropOp36
 70
     0
102
RTVSPost2010Prop37
 90
       50
102
RTVSPost2010PropOp37
 70
     0
102
RTVSPost2010Prop38
140
0.0
102
RTVSPost2010PropOp38
 70
     0
102
RTVSPost2010Prop39
140
1.0
102
RTVSPost2010PropOp39
 70
     0
102
RTVSPost2010Prop40
 90
        0
102
RTVSPost2010PropOp40
 70
     0
102
RTVSPost2010Prop41ColorIndex
 90
       18
102
RTVSPost2010Prop41ColorRGB
 90
        0
102
RTVSPost2010PropOp41
 70
     0
102
RTVSPost2010Prop42
 90
       50
102
RTVSPost2010PropOp42
 70
     0
102
RTVSPost2010Prop43
 90
        3
102
RTVSPost2010PropOp43
 70
     0
102
RTVSPost2010Prop44ColorIndex
 90
        5
102
RTVSPost2010Prop44ColorRGB
 90
      255
102
RTVSPost2010PropOp44
 70
     0
102
RTVSPost2010Prop45
280
     0
102
RTVSPost2010PropOp45
 70
     0
102
RTVSPost2010Prop46
 90
       50
102
RTVSPost2010PropOp46
 70
     0
102
RTVSPost2010Prop47
 90
       50
102
RTVSPost2010PropOp47
 70
     0
102
RTVSPost2010Prop48
 90
       50
102
RTVSPost2010PropOp48
 70
     0
102
RTVSPost2010Prop49
280
     0
102
RTVSPost2010PropOp49
 70
     0
102
RTVSPost2010Prop50
 90
       50
102
RTVSPost2010PropOp50
 70
     0
102
RTVSPost2010Prop51ColorIndex
 90
      256
102
RTVSPost2010Prop51ColorRGB
 90
-16777216
102
RTVSPost2010PropOp51
 70
     0
102
RTVSPost2010Prop52
140
1.0
102
RTVSPost2010PropOp52
 70
     0
102
RTVSPost2010Prop53
 90
        2
102
RTVSPost2010PropOp53
 70
     0
102
RTVSPost2010Prop54
  1
strokes_ogs.tif
102
RTVSPost2010PropOp54
 70
     0
102
RTVSPost2010Prop55
280
     0
102
RTVSPost2010PropOp55
 70
     0
102
RTVSPost2010Prop56
140
1.0
102
RTVSPost2010PropOp56
 70
     0
102
RTVSPost2010Prop57
140
1.0
102
RTVSPost2010PropOp57
 70
     0
  0
XRECORD
  5
402
102
{ACAD_REACTORS
330
401
102
}
330
401
100
AcDbXrecord
280
     1
102
RTVSPropertyOp0
 70
     1
102
RTVSPropertyOp1
 70
     1
102
RTVSPropertyOp2
 70
     1
102
RTVSPropertyOp3
 70
     1
102
RTVSPropertyOp4
 70
     1
102
RTVSPropertyOp5
 70
     1
102
RTVSPropertyOp6
 70
     1
102
RTVSPropertyOp7
 70
     1
102
RTVSPropertyOp8
 70
     1
102
RTVSPropertyOp9
 70
     1
102
RTVSPropertyOp10
 70
     1
102
RTVSPropertyOp11
 70
     1
102
RTVSPropertyOp12
 70
     1
102
RTVSPropertyOp13
 70
     1
102
RTVSPropertyOp14
 70
     1
102
RTVSPropertyOp15
 70
     1
102
RTVSPropertyOp16
 70
     1
102
RTVSPropertyOp17
 70
     1
102
RTVSPropertyOp18
 70
     1
102
RTVSPropertyOp19
 70
     1
102
RTVSPropertyOp20
 70
     1
102
RTVSPropertyOp21
 70
     1
102
RTVSPropertyOp22
 70
     1
102
RTVSPropertyOp23
 70
     1
102
RTVSPropertyOp24
 70
     1
102
RTVSPropertyOp25
 70
     1
102
RTVSPropertyOp26
 70
     1
102
RTVSPropertyOp27
 70
     1
102
RTVSPropertyOp28
 70
     1
102
RTVSPropertyOp29
 70
     1
102
RTVSPropertyOp30
 70
     1
102
RTVSPropertyOp31
 70
     1
102
RTVSPropertyOp32
 70
     1
102
RTVSPropertyOp33
 70
     1
102
RTVSPropertyOp34
 70
     1
102
RTVSPropertyOp35
 70
     1
102
RTVSPropertyOp36
 70
     1
102
RTVSPropertyOp37
 70
     1
102
RTVSPropertyOp38
 70
     1
102
RTVSPropertyOp39
 70
     1
102
RTVSPropertyOp40
 70
     1
102
RTVSPropertyOp41
 70
     1
102
RTVSPropertyOp42
 70
     1
102
RTVSPropertyOp43
 70
     1
102
RTVSPropertyOp44
 70
     1
102
RTVSPropertyOp45
 70
     1
102
RTVSPropertyOp46
 70
     1
102
RTVSPropertyOp47
 70
     1
102
RTVSPropertyOp48
 70
     1
102
RTVSPropertyOp49
 70
     1
102
RTVSPropertyOp50
 70
     1
102
RTVSPropertyOp51
 70
     0
102
RTVSPropertyOp52
 70
     0
102
RTVSPropertyOp53
 70
     1
102
RTVSPropertyOp54
 70
     1
102
RTVSPropertyOp55
 70
     1
102
RTVSPropertyOp56
 70
     1
102
RTVSPropertyOp57
 70
     1
102
RTVSPost2010Prop28
280
     0
102
RTVSPost2010PropOp28
 70
     1
102
RTVSPost2010Prop29
280
     1
102
RTVSPost2010PropOp29
 70
     1
102
RTVSPost2010Prop30
280
     1
102
RTVSPost2010PropOp30
 70
     1
102
RTVSPost2010Prop31
280
     0
102
RTVSPost2010PropOp31
 70
     1
102
RTVSPost2010Prop32
280
     0
102
RTVSPost2010PropOp32
 70
     1
102
RTVSPost2010Prop33
280
     0
102
RTVSPost2010PropOp33
 70
     1
102
RTVSPost2010Prop34
280
     0
102
RTVSPost2010PropOp34
 70
     1
102
RTVSPost2010Prop35
280
     0
102
RTVSPost2010PropOp35
 70
     1
102
RTVSPost2010Prop36
280
     0
102
RTVSPost2010PropOp36
 70
     1
102
RTVSPost2010Prop37
 90
       50
102
RTVSPost2010PropOp37
 70
     1
102
RTVSPost2010Prop38
140
0.0
102
RTVSPost2010PropOp38
 70
     1
102
RTVSPost2010Prop39
140
1.0
102
RTVSPost2010PropOp39
 70
     1
102
RTVSPost2010Prop40
 90
        0
102
RTVSPost2010PropOp40
 70
     1
102
RTVSPost2010Prop41ColorIndex
 90
       18
102
RTVSPost2010Prop41ColorRGB
 90
        0
102
RTVSPost2010PropOp41
 70
     1
102
RTVSPost2010Prop42
 90
       50
102
RTVSPost2010PropOp42
 70
     1
102
RTVSPost2010Prop43
 90
        3
102
RTVSPost2010PropOp43
 70
     1
102
RTVSPost2010Prop44ColorIndex
 90
        5
102
RTVSPost2010Prop44ColorRGB
 90
      255
102
RTVSPost2010PropOp44
 70
     1
102
RTVSPost2010Prop45
280
     0
102
RTVSPost2010PropOp45
 70
     1
102
RTVSPost2010Prop46
 90
       50
102
RTVSPost2010PropOp46
 70
     1
102
RTVSPost2010Prop47
 90
       50
102
RTVSPost2010PropOp47
 70
     1
102
RTVSPost2010Prop48
 90
       50
102
RTVSPost2010PropOp48
 70
     1
102
RTVSPost2010Prop49
280
     0
102
RTVSPost2010PropOp49
 70
     1
102
RTVSPost2010Prop50
 90
       50
102
RTVSPost2010PropOp50
 70
     1
102
RTVSPost2010Prop51ColorIndex
 90
      256
102
RTVSPost2010Prop51ColorRGB
 90
-16777216
102
RTVSPost2010PropOp51
 70
     0
102
RTVSPost2010Prop52
140
1.0
102
RTVSPost2010PropOp52
 70
     0
102
RTVSPost2010Prop53
 90
        2
102
RTVSPost2010PropOp53
 70
     1
102
RTVSPost2010Prop54
  1
strokes_ogs.tif
102
RTVSPost2010PropOp54
 70
     1
102
RTVSPost2010Prop55
280
     0
102
RTVSPost2010PropOp55
 70
     1
102
RTVSPost2010Prop56
140
1.0
102
RTVSPost2010PropOp56
 70
     1
102
RTVSPost2010Prop57
140
1.0
102
RTVSPost2010PropOp57
 70
     1
  0
XRECORD
  5
3E6
102
{ACAD_REACTORS
330
3E5
102
}
330
3E5
100
AcDbXrecord
280
     1
102
RTVSPropertyOp0
 70
     1
102
RTVSPropertyOp1
 70
     1
102
RTVSPropertyOp2
 70
     1
102
RTVSPropertyOp3
 70
     1
102
RTVSPropertyOp4
 70
     1
102
RTVSPropertyOp5
 70
     1
102
RTVSPropertyOp6
 70
     1
102
RTVSPropertyOp7
 70
     1
102
RTVSPropertyOp8
 70
     1
102
RTVSPropertyOp9
 70
     1
102
RTVSPropertyOp10
 70
     1
102
RTVSPropertyOp11
 70
     1
102
RTVSPropertyOp12
 70
     1
102
RTVSPropertyOp13
 70
     1
102
RTVSPropertyOp14
 70
     1
102
RTVSPropertyOp15
 70
     1
102
RTVSPropertyOp16
 70
     1
102
RTVSPropertyOp17
 70
     1
102
RTVSPropertyOp18
 70
     1
102
RTVSPropertyOp19
 70
     1
102
RTVSPropertyOp20
 70
     1
102
RTVSPropertyOp21
 70
     1
102
RTVSPropertyOp22
 70
     1
102
RTVSPropertyOp23
 70
     1
102
RTVSPropertyOp24
 70
     1
102
RTVSPropertyOp25
 70
     1
102
RTVSPropertyOp26
 70
     1
102
RTVSPropertyOp27
 70
     1
102
RTVSPropertyOp28
 70
     1
102
RTVSPropertyOp29
 70
     1
102
RTVSPropertyOp30
 70
     1
102
RTVSPropertyOp31
 70
     1
102
RTVSPropertyOp32
 70
     1
102
RTVSPropertyOp33
 70
     1
102
RTVSPropertyOp34
 70
     1
102
RTVSPropertyOp35
 70
     1
102
RTVSPropertyOp36
 70
     1
102
RTVSPropertyOp37
 70
     1
102
RTVSPropertyOp38
 70
     1
102
RTVSPropertyOp39
 70
     1
102
RTVSPropertyOp40
 70
     1
102
RTVSPropertyOp41
 70
     1
102
RTVSPropertyOp42
 70
     1
102
RTVSPropertyOp43
 70
     1
102
RTVSPropertyOp44
 70
     1
102
RTVSPropertyOp45
 70
     1
102
RTVSPropertyOp46
 70
     1
102
RTVSPropertyOp47
 70
     1
102
RTVSPropertyOp48
 70
     1
102
RTVSPropertyOp49
 70
     1
102
RTVSPropertyOp50
 70
     1
102
RTVSPropertyOp51
 70
     0
102
RTVSPropertyOp52
 70
     0
102
RTVSPropertyOp53
 70
     1
102
RTVSPropertyOp54
 70
     1
102
RTVSPropertyOp55
 70
     1
102
RTVSPropertyOp56
 70
     1
102
RTVSPropertyOp57
 70
     1
102
RTVSPost2010Prop28
280
     0
102
RTVSPost2010PropOp28
 70
     1
102
RTVSPost2010Prop29
280
     1
102
RTVSPost2010PropOp29
 70
     1
102
RTVSPost2010Prop30
280
     1
102
RTVSPost2010PropOp30
 70
     1
102
RTVSPost2010Prop31
280
     0
102
RTVSPost2010PropOp31
 70
     1
102
RTVSPost2010Prop32
280
     0
102
RTVSPost2010PropOp32
 70
     1
102
RTVSPost2010Prop33
280
     0
102
RTVSPost2010PropOp33
 70
     1
102
RTVSPost2010Prop34
280
     0
102
RTVSPost2010PropOp34
 70
     1
102
RTVSPost2010Prop35
280
     0
102
RTVSPost2010PropOp35
 70
     1
102
RTVSPost2010Prop36
280
     0
102
RTVSPost2010PropOp36
 70
     1
102
RTVSPost2010Prop37
 90
       50
102
RTVSPost2010PropOp37
 70
     1
102
RTVSPost2010Prop38
140
0.0
102
RTVSPost2010PropOp38
 70
     1
102
RTVSPost2010Prop39
140
1.0
102
RTVSPost2010PropOp39
 70
     1
102
RTVSPost2010Prop40
 90
        0
102
RTVSPost2010PropOp40
 70
     1
102
RTVSPost2010Prop41ColorIndex
 90
       18
102
RTVSPost2010Prop41ColorRGB
 90
        0
102
RTVSPost2010PropOp41
 70
     1
102
RTVSPost2010Prop42
 90
       50
102
RTVSPost2010PropOp42
 70
     1
102
RTVSPost2010Prop43
 90
        3
102
RTVSPost2010PropOp43
 70
     1
102
RTVSPost2010Prop44ColorIndex
 90
        5
102
RTVSPost2010Prop44ColorRGB
 90
      255
102
RTVSPost2010PropOp44
 70
     1
102
RTVSPost2010Prop45
280
     0
102
RTVSPost2010PropOp45
 70
     1
102
RTVSPost2010Prop46
 90
       50
102
RTVSPost2010PropOp46
 70
     1
102
RTVSPost2010Prop47
 90
       50
102
RTVSPost2010PropOp47
 70
     1
102
RTVSPost2010Prop48
 90
       50
102
RTVSPost2010PropOp48
 70
     1
102
RTVSPost2010Prop49
280
     0
102
RTVSPost2010PropOp49
 70
     1
102
RTVSPost2010Prop50
 90
       50
102
RTVSPost2010PropOp50
 70
     1
102
RTVSPost2010Prop51ColorIndex
 90
      256
102
RTVSPost2010Prop51ColorRGB
 90
-16777216
102
RTVSPost2010PropOp51
 70
     0
102
RTVSPost2010Prop52
140
1.0
102
RTVSPost2010PropOp52
 70
     0
102
RTVSPost2010Prop53
 90
        2
102
RTVSPost2010PropOp53
 70
     1
102
RTVSPost2010Prop54
  1
strokes_ogs.tif
102
RTVSPost2010PropOp54
 70
     1
102
RTVSPost2010Prop55
280
     0
102
RTVSPost2010PropOp55
 70
     1
102
RTVSPost2010Prop56
140
1.0
102
RTVSPost2010PropOp56
 70
     1
102
RTVSPost2010Prop57
140
1.0
102
RTVSPost2010PropOp57
 70
     1
  0
XRECORD
  5
3E8
102
{ACAD_REACTORS
330
3E7
102
}
330
3E7
100
AcDbXrecord
280
     1
102
RTVSPropertyOp0
 70
     1
102
RTVSPropertyOp1
 70
     1
102
RTVSPropertyOp2
 70
     1
102
RTVSPropertyOp3
 70
     1
102
RTVSPropertyOp4
 70
     1
102
RTVSPropertyOp5
 70
     1
102
RTVSPropertyOp6
 70
     1
102
RTVSPropertyOp7
 70
     1
102
RTVSPropertyOp8
 70
     1
102
RTVSPropertyOp9
 70
     1
102
RTVSPropertyOp10
 70
     1
102
RTVSPropertyOp11
 70
     1
102
RTVSPropertyOp12
 70
     1
102
RTVSPropertyOp13
 70
     1
102
RTVSPropertyOp14
 70
     1
102
RTVSPropertyOp15
 70
     1
102
RTVSPropertyOp16
 70
     1
102
RTVSPropertyOp17
 70
     1
102
RTVSPropertyOp18
 70
     1
102
RTVSPropertyOp19
 70
     1
102
RTVSPropertyOp20
 70
     1
102
RTVSPropertyOp21
 70
     1
102
RTVSPropertyOp22
 70
     1
102
RTVSPropertyOp23
 70
     1
102
RTVSPropertyOp24
 70
     1
102
RTVSPropertyOp25
 70
     1
102
RTVSPropertyOp26
 70
     1
102
RTVSPropertyOp27
 70
     1
102
RTVSPropertyOp28
 70
     1
102
RTVSPropertyOp29
 70
     1
102
RTVSPropertyOp30
 70
     1
102
RTVSPropertyOp31
 70
     1
102
RTVSPropertyOp32
 70
     1
102
RTVSPropertyOp33
 70
     1
102
RTVSPropertyOp34
 70
     1
102
RTVSPropertyOp35
 70
     1
102
RTVSPropertyOp36
 70
     1
102
RTVSPropertyOp37
 70
     1
102
RTVSPropertyOp38
 70
     1
102
RTVSPropertyOp39
 70
     1
102
RTVSPropertyOp40
 70
     1
102
RTVSPropertyOp41
 70
     1
102
RTVSPropertyOp42
 70
     1
102
RTVSPropertyOp43
 70
     1
102
RTVSPropertyOp44
 70
     1
102
RTVSPropertyOp45
 70
     1
102
RTVSPropertyOp46
 70
     1
102
RTVSPropertyOp47
 70
     1
102
RTVSPropertyOp48
 70
     1
102
RTVSPropertyOp49
 70
     1
102
RTVSPropertyOp50
 70
     1
102
RTVSPropertyOp51
 70
     0
102
RTVSPropertyOp52
 70
     0
102
RTVSPropertyOp53
 70
     1
102
RTVSPropertyOp54
 70
     1
102
RTVSPropertyOp55
 70
     1
102
RTVSPropertyOp56
 70
     1
102
RTVSPropertyOp57
 70
     1
102
RTVSPost2010Prop28
280
     0
102
RTVSPost2010PropOp28
 70
     1
102
RTVSPost2010Prop29
280
     1
102
RTVSPost2010PropOp29
 70
     1
102
RTVSPost2010Prop30
280
     1
102
RTVSPost2010PropOp30
 70
     1
102
RTVSPost2010Prop31
280
     0
102
RTVSPost2010PropOp31
 70
     1
102
RTVSPost2010Prop32
280
     0
102
RTVSPost2010PropOp32
 70
     1
102
RTVSPost2010Prop33
280
     0
102
RTVSPost2010PropOp33
 70
     1
102
RTVSPost2010Prop34
280
     0
102
RTVSPost2010PropOp34
 70
     1
102
RTVSPost2010Prop35
280
     0
102
RTVSPost2010PropOp35
 70
     1
102
RTVSPost2010Prop36
280
     0
102
RTVSPost2010PropOp36
 70
     1
102
RTVSPost2010Prop37
 90
       50
102
RTVSPost2010PropOp37
 70
     1
102
RTVSPost2010Prop38
140
0.0
102
RTVSPost2010PropOp38
 70
     1
102
RTVSPost2010Prop39
140
1.0
102
RTVSPost2010PropOp39
 70
     1
102
RTVSPost2010Prop40
 90
        0
102
RTVSPost2010PropOp40
 70
     1
102
RTVSPost2010Prop41ColorIndex
 90
       18
102
RTVSPost2010Prop41ColorRGB
 90
        0
102
RTVSPost2010PropOp41
 70
     1
102
RTVSPost2010Prop42
 90
       50
102
RTVSPost2010PropOp42
 70
     1
102
RTVSPost2010Prop43
 90
        3
102
RTVSPost2010PropOp43
 70
     1
102
RTVSPost2010Prop44ColorIndex
 90
        5
102
RTVSPost2010Prop44ColorRGB
 90
      255
102
RTVSPost2010PropOp44
 70
     1
102
RTVSPost2010Prop45
280
     0
102
RTVSPost2010PropOp45
 70
     1
102
RTVSPost2010Prop46
 90
       50
102
RTVSPost2010PropOp46
 70
     1
102
RTVSPost2010Prop47
 90
       50
102
RTVSPost2010PropOp47
 70
     1
102
RTVSPost2010Prop48
 90
       50
102
RTVSPost2010PropOp48
 70
     1
102
RTVSPost2010Prop49
280
     0
102
RTVSPost2010PropOp49
 70
     1
102
RTVSPost2010Prop50
 90
       50
102
RTVSPost2010PropOp50
 70
     1
102
RTVSPost2010Prop51ColorIndex
 90
      256
102
RTVSPost2010Prop51ColorRGB
 90
-16777216
102
RTVSPost2010PropOp51
 70
     0
102
RTVSPost2010Prop52
140
1.0
102
RTVSPost2010PropOp52
 70
     0
102
RTVSPost2010Prop53
 90
        2
102
RTVSPost2010PropOp53
 70
     1
102
RTVSPost2010Prop54
  1
strokes_ogs.tif
102
RTVSPost2010PropOp54
 70
     1
102
RTVSPost2010Prop55
280
     0
102
RTVSPost2010PropOp55
 70
     1
102
RTVSPost2010Prop56
140
1.0
102
RTVSPost2010PropOp56
 70
     1
102
RTVSPost2010Prop57
140
1.0
102
RTVSPost2010PropOp57
 70
     1
  0
XRECORD
  5
3EA
102
{ACAD_REACTORS
330
3E9
102
}
330
3E9
100
AcDbXrecord
280
     1
102
RTVSPropertyOp0
 70
     1
102
RTVSPropertyOp1
 70
     1
102
RTVSPropertyOp2
 70
     1
102
RTVSPropertyOp3
 70
     1
102
RTVSPropertyOp4
 70
     1
102
RTVSPropertyOp5
 70
     1
102
RTVSPropertyOp6
 70
     1
102
RTVSPropertyOp7
 70
     1
102
RTVSPropertyOp8
 70
     1
102
RTVSPropertyOp9
 70
     1
102
RTVSPropertyOp10
 70
     1
102
RTVSPropertyOp11
 70
     1
102
RTVSPropertyOp12
 70
     1
102
RTVSPropertyOp13
 70
     1
102
RTVSPropertyOp14
 70
     1
102
RTVSPropertyOp15
 70
     1
102
RTVSPropertyOp16
 70
     1
102
RTVSPropertyOp17
 70
     1
102
RTVSPropertyOp18
 70
     1
102
RTVSPropertyOp19
 70
     1
102
RTVSPropertyOp20
 70
     1
102
RTVSPropertyOp21
 70
     1
102
RTVSPropertyOp22
 70
     1
102
RTVSPropertyOp23
 70
     1
102
RTVSPropertyOp24
 70
     1
102
RTVSPropertyOp25
 70
     1
102
RTVSPropertyOp26
 70
     1
102
RTVSPropertyOp27
 70
     1
102
RTVSPropertyOp28
 70
     1
102
RTVSPropertyOp29
 70
     1
102
RTVSPropertyOp30
 70
     1
102
RTVSPropertyOp31
 70
     1
102
RTVSPropertyOp32
 70
     1
102
RTVSPropertyOp33
 70
     1
102
RTVSPropertyOp34
 70
     1
102
RTVSPropertyOp35
 70
     1
102
RTVSPropertyOp36
 70
     1
102
RTVSPropertyOp37
 70
     1
102
RTVSPropertyOp38
 70
     1
102
RTVSPropertyOp39
 70
     1
102
RTVSPropertyOp40
 70
     1
102
RTVSPropertyOp41
 70
     1
102
RTVSPropertyOp42
 70
     1
102
RTVSPropertyOp43
 70
     1
102
RTVSPropertyOp44
 70
     1
102
RTVSPropertyOp45
 70
     1
102
RTVSPropertyOp46
 70
     1
102
RTVSPropertyOp47
 70
     1
102
RTVSPropertyOp48
 70
     1
102
RTVSPropertyOp49
 70
     1
102
RTVSPropertyOp50
 70
     1
102
RTVSPropertyOp51
 70
     0
102
RTVSPropertyOp52
 70
     0
102
RTVSPropertyOp53
 70
     1
102
RTVSPropertyOp54
 70
     1
102
RTVSPropertyOp55
 70
     1
102
RTVSPropertyOp56
 70
     1
102
RTVSPropertyOp57
 70
     1
102
RTVSPost2010Prop28
280
     0
102
RTVSPost2010PropOp28
 70
     1
102
RTVSPost2010Prop29
280
     1
102
RTVSPost2010PropOp29
 70
     1
102
RTVSPost2010Prop30
280
     1
102
RTVSPost2010PropOp30
 70
     1
102
RTVSPost2010Prop31
280
     0
102
RTVSPost2010PropOp31
 70
     1
102
RTVSPost2010Prop32
280
     0
102
RTVSPost2010PropOp32
 70
     1
102
RTVSPost2010Prop33
280
     0
102
RTVSPost2010PropOp33
 70
     1
102
RTVSPost2010Prop34
280
     0
102
RTVSPost2010PropOp34
 70
     1
102
RTVSPost2010Prop35
280
     0
102
RTVSPost2010PropOp35
 70
     1
102
RTVSPost2010Prop36
280
     0
102
RTVSPost2010PropOp36
 70
     1
102
RTVSPost2010Prop37
 90
       50
102
RTVSPost2010PropOp37
 70
     1
102
RTVSPost2010Prop38
140
0.0
102
RTVSPost2010PropOp38
 70
     1
102
RTVSPost2010Prop39
140
1.0
102
RTVSPost2010PropOp39
 70
     1
102
RTVSPost2010Prop40
 90
        0
102
RTVSPost2010PropOp40
 70
     1
102
RTVSPost2010Prop41ColorIndex
 90
       18
102
RTVSPost2010Prop41ColorRGB
 90
        0
102
RTVSPost2010PropOp41
 70
     1
102
RTVSPost2010Prop42
 90
       50
102
RTVSPost2010PropOp42
 70
     1
102
RTVSPost2010Prop43
 90
        3
102
RTVSPost2010PropOp43
 70
     1
102
RTVSPost2010Prop44ColorIndex
 90
        5
102
RTVSPost2010Prop44ColorRGB
 90
      255
102
RTVSPost2010PropOp44
 70
     1
102
RTVSPost2010Prop45
280
     0
102
RTVSPost2010PropOp45
 70
     1
102
RTVSPost2010Prop46
 90
       50
102
RTVSPost2010PropOp46
 70
     1
102
RTVSPost2010Prop47
 90
       50
102
RTVSPost2010PropOp47
 70
     1
102
RTVSPost2010Prop48
 90
       50
102
RTVSPost2010PropOp48
 70
     1
102
RTVSPost2010Prop49
280
     0
102
RTVSPost2010PropOp49
 70
     1
102
RTVSPost2010Prop50
 90
       50
102
RTVSPost2010PropOp50
 70
     1
102
RTVSPost2010Prop51ColorIndex
 90
      256
102
RTVSPost2010Prop51ColorRGB
 90
-16777216
102
RTVSPost2010PropOp51
 70
     0
102
RTVSPost2010Prop52
140
1.0
102
RTVSPost2010PropOp52
 70
     0
102
RTVSPost2010Prop53
 90
        2
102
RTVSPost2010PropOp53
 70
     1
102
RTVSPost2010Prop54
  1
strokes_ogs.tif
102
RTVSPost2010PropOp54
 70
     1
102
RTVSPost2010Prop55
280
     0
102
RTVSPost2010PropOp55
 70
     1
102
RTVSPost2010Prop56
140
1.0
102
RTVSPost2010PropOp56
 70
     1
102
RTVSPost2010Prop57
140
1.0
102
RTVSPost2010PropOp57
 70
     1
  0
XRECORD
  5
3EC
102
{ACAD_REACTORS
330
3EB
102
}
330
3EB
100
AcDbXrecord
280
     1
102
RTVSPropertyOp0
 70
     1
102
RTVSPropertyOp1
 70
     1
102
RTVSPropertyOp2
 70
     1
102
RTVSPropertyOp3
 70
     1
102
RTVSPropertyOp4
 70
     1
102
RTVSPropertyOp5
 70
     1
102
RTVSPropertyOp6
 70
     1
102
RTVSPropertyOp7
 70
     1
102
RTVSPropertyOp8
 70
     1
102
RTVSPropertyOp9
 70
     1
102
RTVSPropertyOp10
 70
     1
102
RTVSPropertyOp11
 70
     1
102
RTVSPropertyOp12
 70
     1
102
RTVSPropertyOp13
 70
     1
102
RTVSPropertyOp14
 70
     1
102
RTVSPropertyOp15
 70
     1
102
RTVSPropertyOp16
 70
     1
102
RTVSPropertyOp17
 70
     1
102
RTVSPropertyOp18
 70
     1
102
RTVSPropertyOp19
 70
     1
102
RTVSPropertyOp20
 70
     1
102
RTVSPropertyOp21
 70
     1
102
RTVSPropertyOp22
 70
     1
102
RTVSPropertyOp23
 70
     1
102
RTVSPropertyOp24
 70
     1
102
RTVSPropertyOp25
 70
     1
102
RTVSPropertyOp26
 70
     1
102
RTVSPropertyOp27
 70
     1
102
RTVSPropertyOp28
 70
     1
102
RTVSPropertyOp29
 70
     1
102
RTVSPropertyOp30
 70
     1
102
RTVSPropertyOp31
 70
     1
102
RTVSPropertyOp32
 70
     1
102
RTVSPropertyOp33
 70
     1
102
RTVSPropertyOp34
 70
     1
102
RTVSPropertyOp35
 70
     1
102
RTVSPropertyOp36
 70
     1
102
RTVSPropertyOp37
 70
     1
102
RTVSPropertyOp38
 70
     1
102
RTVSPropertyOp39
 70
     1
102
RTVSPropertyOp40
 70
     1
102
RTVSPropertyOp41
 70
     1
102
RTVSPropertyOp42
 70
     1
102
RTVSPropertyOp43
 70
     1
102
RTVSPropertyOp44
 70
     1
102
RTVSPropertyOp45
 70
     1
102
RTVSPropertyOp46
 70
     1
102
RTVSPropertyOp47
 70
     1
102
RTVSPropertyOp48
 70
     1
102
RTVSPropertyOp49
 70
     1
102
RTVSPropertyOp50
 70
     1
102
RTVSPropertyOp51
 70
     0
102
RTVSPropertyOp52
 70
     0
102
RTVSPropertyOp53
 70
     1
102
RTVSPropertyOp54
 70
     1
102
RTVSPropertyOp55
 70
     1
102
RTVSPropertyOp56
 70
     1
102
RTVSPropertyOp57
 70
     1
102
RTVSPost2010Prop28
280
     0
102
RTVSPost2010PropOp28
 70
     1
102
RTVSPost2010Prop29
280
     1
102
RTVSPost2010PropOp29
 70
     1
102
RTVSPost2010Prop30
280
     1
102
RTVSPost2010PropOp30
 70
     1
102
RTVSPost2010Prop31
280
     0
102
RTVSPost2010PropOp31
 70
     1
102
RTVSPost2010Prop32
280
     0
102
RTVSPost2010PropOp32
 70
     1
102
RTVSPost2010Prop33
280
     0
102
RTVSPost2010PropOp33
 70
     1
102
RTVSPost2010Prop34
280
     0
102
RTVSPost2010PropOp34
 70
     1
102
RTVSPost2010Prop35
280
     0
102
RTVSPost2010PropOp35
 70
     1
102
RTVSPost2010Prop36
280
     0
102
RTVSPost2010PropOp36
 70
     1
102
RTVSPost2010Prop37
 90
       50
102
RTVSPost2010PropOp37
 70
     1
102
RTVSPost2010Prop38
140
0.0
102
RTVSPost2010PropOp38
 70
     1
102
RTVSPost2010Prop39
140
1.0
102
RTVSPost2010PropOp39
 70
     1
102
RTVSPost2010Prop40
 90
        0
102
RTVSPost2010PropOp40
 70
     1
102
RTVSPost2010Prop41ColorIndex
 90
       18
102
RTVSPost2010Prop41ColorRGB
 90
        0
102
RTVSPost2010PropOp41
 70
     1
102
RTVSPost2010Prop42
 90
       50
102
RTVSPost2010PropOp42
 70
     1
102
RTVSPost2010Prop43
 90
        3
102
RTVSPost2010PropOp43
 70
     1
102
RTVSPost2010Prop44ColorIndex
 90
        5
102
RTVSPost2010Prop44ColorRGB
 90
      255
102
RTVSPost2010PropOp44
 70
     1
102
RTVSPost2010Prop45
280
     0
102
RTVSPost2010PropOp45
 70
     1
102
RTVSPost2010Prop46
 90
       50
102
RTVSPost2010PropOp46
 70
     1
102
RTVSPost2010Prop47
 90
       50
102
RTVSPost2010PropOp47
 70
     1
102
RTVSPost2010Prop48
 90
       50
102
RTVSPost2010PropOp48
 70
     1
102
RTVSPost2010Prop49
280
     0
102
RTVSPost2010PropOp49
 70
     1
102
RTVSPost2010Prop50
 90
       50
102
RTVSPost2010PropOp50
 70
     1
102
RTVSPost2010Prop51ColorIndex
 90
      256
102
RTVSPost2010Prop51ColorRGB
 90
-16777216
102
RTVSPost2010PropOp51
 70
     0
102
RTVSPost2010Prop52
140
1.0
102
RTVSPost2010PropOp52
 70
     0
102
RTVSPost2010Prop53
 90
        2
102
RTVSPost2010PropOp53
 70
     1
102
RTVSPost2010Prop54
  1
strokes_ogs.tif
102
RTVSPost2010PropOp54
 70
     1
102
RTVSPost2010Prop55
280
     0
102
RTVSPost2010PropOp55
 70
     1
102
RTVSPost2010Prop56
140
1.0
102
RTVSPost2010PropOp56
 70
     1
102
RTVSPost2010Prop57
140
1.0
102
RTVSPost2010PropOp57
 70
     1
  0
XRECORD
  5
3F2
102
{ACAD_REACTORS
330
3F1
102
}
330
3F1
100
AcDbXrecord
280
     1
102
RTVSPropertyOp0
 70
     1
102
RTVSPropertyOp1
 70
     1
102
RTVSPropertyOp2
 70
     1
102
RTVSPropertyOp3
 70
     1
102
RTVSPropertyOp4
 70
     1
102
RTVSPropertyOp5
 70
     1
102
RTVSPropertyOp6
 70
     1
102
RTVSPropertyOp7
 70
     1
102
RTVSPropertyOp8
 70
     1
102
RTVSPropertyOp9
 70
     1
102
RTVSPropertyOp10
 70
     1
102
RTVSPropertyOp11
 70
     1
102
RTVSPropertyOp12
 70
     1
102
RTVSPropertyOp13
 70
     1
102
RTVSPropertyOp14
 70
     1
102
RTVSPropertyOp15
 70
     1
102
RTVSPropertyOp16
 70
     1
102
RTVSPropertyOp17
 70
     1
102
RTVSPropertyOp18
 70
     1
102
RTVSPropertyOp19
 70
     1
102
RTVSPropertyOp20
 70
     1
102
RTVSPropertyOp21
 70
     1
102
RTVSPropertyOp22
 70
     1
102
RTVSPropertyOp23
 70
     1
102
RTVSPropertyOp24
 70
     1
102
RTVSPropertyOp25
 70
     1
102
RTVSPropertyOp26
 70
     1
102
RTVSPropertyOp27
 70
     1
102
RTVSPropertyOp28
 70
     1
102
RTVSPropertyOp29
 70
     1
102
RTVSPropertyOp30
 70
     1
102
RTVSPropertyOp31
 70
     1
102
RTVSPropertyOp32
 70
     1
102
RTVSPropertyOp33
 70
     1
102
RTVSPropertyOp34
 70
     1
102
RTVSPropertyOp35
 70
     1
102
RTVSPropertyOp36
 70
     1
102
RTVSPropertyOp37
 70
     1
102
RTVSPropertyOp38
 70
     1
102
RTVSPropertyOp39
 70
     1
102
RTVSPropertyOp40
 70
     1
102
RTVSPropertyOp41
 70
     1
102
RTVSPropertyOp42
 70
     1
102
RTVSPropertyOp43
 70
     1
102
RTVSPropertyOp44
 70
     1
102
RTVSPropertyOp45
 70
     1
102
RTVSPropertyOp46
 70
     1
102
RTVSPropertyOp47
 70
     1
102
RTVSPropertyOp48
 70
     1
102
RTVSPropertyOp49
 70
     1
102
RTVSPropertyOp50
 70
     1
102
RTVSPropertyOp51
 70
     0
102
RTVSPropertyOp52
 70
     0
102
RTVSPropertyOp53
 70
     1
102
RTVSPropertyOp54
 70
     1
102
RTVSPropertyOp55
 70
     1
102
RTVSPropertyOp56
 70
     1
102
RTVSPropertyOp57
 70
     1
102
RTVSPost2010Prop28
280
     0
102
RTVSPost2010PropOp28
 70
     1
102
RTVSPost2010Prop29
280
     1
102
RTVSPost2010PropOp29
 70
     1
102
RTVSPost2010Prop30
280
     1
102
RTVSPost2010PropOp30
 70
     1
102
RTVSPost2010Prop31
280
     0
102
RTVSPost2010PropOp31
 70
     1
102
RTVSPost2010Prop32
280
     0
102
RTVSPost2010PropOp32
 70
     1
102
RTVSPost2010Prop33
280
     0
102
RTVSPost2010PropOp33
 70
     1
102
RTVSPost2010Prop34
280
     0
102
RTVSPost2010PropOp34
 70
     1
102
RTVSPost2010Prop35
280
     0
102
RTVSPost2010PropOp35
 70
     1
102
RTVSPost2010Prop36
280
     0
102
RTVSPost2010PropOp36
 70
     1
102
RTVSPost2010Prop37
 90
       50
102
RTVSPost2010PropOp37
 70
     1
102
RTVSPost2010Prop38
140
0.0
102
RTVSPost2010PropOp38
 70
     1
102
RTVSPost2010Prop39
140
1.0
102
RTVSPost2010PropOp39
 70
     1
102
RTVSPost2010Prop40
 90
        0
102
RTVSPost2010PropOp40
 70
     1
102
RTVSPost2010Prop41ColorIndex
 90
       18
102
RTVSPost2010Prop41ColorRGB
 90
        0
102
RTVSPost2010PropOp41
 70
     1
102
RTVSPost2010Prop42
 90
       50
102
RTVSPost2010PropOp42
 70
     1
102
RTVSPost2010Prop43
 90
        3
102
RTVSPost2010PropOp43
 70
     1
102
RTVSPost2010Prop44ColorIndex
 90
        5
102
RTVSPost2010Prop44ColorRGB
 90
      255
102
RTVSPost2010PropOp44
 70
     1
102
RTVSPost2010Prop45
280
     0
102
RTVSPost2010PropOp45
 70
     1
102
RTVSPost2010Prop46
 90
       50
102
RTVSPost2010PropOp46
 70
     1
102
RTVSPost2010Prop47
 90
       50
102
RTVSPost2010PropOp47
 70
     1
102
RTVSPost2010Prop48
 90
       50
102
RTVSPost2010PropOp48
 70
     1
102
RTVSPost2010Prop49
280
     0
102
RTVSPost2010PropOp49
 70
     1
102
RTVSPost2010Prop50
 90
       50
102
RTVSPost2010PropOp50
 70
     1
102
RTVSPost2010Prop51ColorIndex
 90
      256
102
RTVSPost2010Prop51ColorRGB
 90
-16777216
102
RTVSPost2010PropOp51
 70
     0
102
RTVSPost2010Prop52
140
1.0
102
RTVSPost2010PropOp52
 70
     0
102
RTVSPost2010Prop53
 90
        2
102
RTVSPost2010PropOp53
 70
     1
102
RTVSPost2010Prop54
  1
strokes_ogs.tif
102
RTVSPost2010PropOp54
 70
     1
102
RTVSPost2010Prop55
280
     0
102
RTVSPost2010PropOp55
 70
     1
102
RTVSPost2010Prop56
140
1.0
102
RTVSPost2010PropOp56
 70
     1
102
RTVSPost2010Prop57
140
1.0
102
RTVSPost2010PropOp57
 70
     1
  0
XRECORD
  5
406
102
{ACAD_REACTORS
330
405
102
}
330
405
100
AcDbXrecord
280
     1
102
RTVSPropertyOp0
 70
     0
102
RTVSPropertyOp1
 70
     0
102
RTVSPropertyOp2
 70
     0
102
RTVSPropertyOp3
 70
     0
102
RTVSPropertyOp4
 70
     0
102
RTVSPropertyOp5
 70
     0
102
RTVSPropertyOp6
 70
     0
102
RTVSPropertyOp7
 70
     0
102
RTVSPropertyOp8
 70
     0
102
RTVSPropertyOp9
 70
     0
102
RTVSPropertyOp10
 70
     0
102
RTVSPropertyOp11
 70
     0
102
RTVSPropertyOp12
 70
     0
102
RTVSPropertyOp13
 70
     0
102
RTVSPropertyOp14
 70
     2
102
RTVSPropertyOp15
 70
     0
102
RTVSPropertyOp16
 70
     0
102
RTVSPropertyOp17
 70
     0
102
RTVSPropertyOp18
 70
     0
102
RTVSPropertyOp19
 70
     0
102
RTVSPropertyOp20
 70
     0
102
RTVSPropertyOp21
 70
     0
102
RTVSPropertyOp22
 70
     0
102
RTVSPropertyOp23
 70
     0
102
RTVSPropertyOp24
 70
     0
102
RTVSPropertyOp25
 70
     0
102
RTVSPropertyOp26
 70
     0
102
RTVSPropertyOp27
 70
     0
102
RTVSPropertyOp28
 70
     0
102
RTVSPropertyOp29
 70
     0
102
RTVSPropertyOp30
 70
     0
102
RTVSPropertyOp31
 70
     0
102
RTVSPropertyOp32
 70
     0
102
RTVSPropertyOp33
 70
     0
102
RTVSPropertyOp34
 70
     0
102
RTVSPropertyOp35
 70
     0
102
RTVSPropertyOp36
 70
     0
102
RTVSPropertyOp37
 70
     0
102
RTVSPropertyOp38
 70
     0
102
RTVSPropertyOp39
 70
     0
102
RTVSPropertyOp40
 70
     0
102
RTVSPropertyOp41
 70
     0
102
RTVSPropertyOp42
 70
     0
102
RTVSPropertyOp43
 70
     0
102
RTVSPropertyOp44
 70
     0
102
RTVSPropertyOp45
 70
     0
102
RTVSPropertyOp46
 70
     0
102
RTVSPropertyOp47
 70
     0
102
RTVSPropertyOp48
 70
     0
102
RTVSPropertyOp49
 70
     0
102
RTVSPropertyOp50
 70
     0
102
RTVSPropertyOp51
 70
     0
102
RTVSPropertyOp52
 70
     0
102
RTVSPropertyOp53
 70
     0
102
RTVSPropertyOp54
 70
     0
102
RTVSPropertyOp55
 70
     0
102
RTVSPropertyOp56
 70
     0
102
RTVSPropertyOp57
 70
     0
102
RTVSPost2010Prop28
280
     0
102
RTVSPost2010PropOp28
 70
     0
102
RTVSPost2010Prop29
280
     1
102
RTVSPost2010PropOp29
 70
     0
102
RTVSPost2010Prop30
280
     1
102
RTVSPost2010PropOp30
 70
     0
102
RTVSPost2010Prop31
280
     0
102
RTVSPost2010PropOp31
 70
     0
102
RTVSPost2010Prop32
280
     0
102
RTVSPost2010PropOp32
 70
     0
102
RTVSPost2010Prop33
280
     0
102
RTVSPost2010PropOp33
 70
     0
102
RTVSPost2010Prop34
280
     0
102
RTVSPost2010PropOp34
 70
     0
102
RTVSPost2010Prop35
280
     0
102
RTVSPost2010PropOp35
 70
     0
102
RTVSPost2010Prop36
280
     0
102
RTVSPost2010PropOp36
 70
     0
102
RTVSPost2010Prop37
 90
       50
102
RTVSPost2010PropOp37
 70
     0
102
RTVSPost2010Prop38
140
0.0
102
RTVSPost2010PropOp38
 70
     0
102
RTVSPost2010Prop39
140
1.0
102
RTVSPost2010PropOp39
 70
     0
102
RTVSPost2010Prop40
 90
        0
102
RTVSPost2010PropOp40
 70
     0
102
RTVSPost2010Prop41ColorIndex
 90
       18
102
RTVSPost2010Prop41ColorRGB
 90
        0
102
RTVSPost2010PropOp41
 70
     0
102
RTVSPost2010Prop42
 90
       50
102
RTVSPost2010PropOp42
 70
     0
102
RTVSPost2010Prop43
 90
        3
102
RTVSPost2010PropOp43
 70
     0
102
RTVSPost2010Prop44ColorIndex
 90
        5
102
RTVSPost2010Prop44ColorRGB
 90
      255
102
RTVSPost2010PropOp44
 70
     0
102
RTVSPost2010Prop45
280
     0
102
RTVSPost2010PropOp45
 70
     0
102
RTVSPost2010Prop46
 90
       50
102
RTVSPost2010PropOp46
 70
     0
102
RTVSPost2010Prop47
 90
       50
102
RTVSPost2010PropOp47
 70
     0
102
RTVSPost2010Prop48
 90
       50
102
RTVSPost2010PropOp48
 70
     0
102
RTVSPost2010Prop49
280
     0
102
RTVSPost2010PropOp49
 70
     0
102
RTVSPost2010Prop50
 90
       50
102
RTVSPost2010PropOp50
 70
     0
102
RTVSPost2010Prop51ColorIndex
 90
      256
102
RTVSPost2010Prop51ColorRGB
 90
-16777216
102
RTVSPost2010PropOp51
 70
     0
102
RTVSPost2010Prop52
140
1.0
102
RTVSPost2010PropOp52
 70
     0
102
RTVSPost2010Prop53
 90
        2
102
RTVSPost2010PropOp53
 70
     0
102
RTVSPost2010Prop54
  1
strokes_ogs.tif
102
RTVSPost2010PropOp54
 70
     0
102
RTVSPost2010Prop55
280
     0
102
RTVSPost2010PropOp55
 70
     0
102
RTVSPost2010Prop56
140
1.0
102
RTVSPost2010PropOp56
 70
     0
102
RTVSPost2010Prop57
140
1.0
102
RTVSPost2010PropOp57
 70
     0
  0
XRECORD
  5
400
102
{ACAD_REACTORS
330
3FF
102
}
330
3FF
100
AcDbXrecord
280
     1
102
RTVSPropertyOp0
 70
     1
102
RTVSPropertyOp1
 70
     1
102
RTVSPropertyOp2
 70
     1
102
RTVSPropertyOp3
 70
     1
102
RTVSPropertyOp4
 70
     1
102
RTVSPropertyOp5
 70
     1
102
RTVSPropertyOp6
 70
     1
102
RTVSPropertyOp7
 70
     1
102
RTVSPropertyOp8
 70
     1
102
RTVSPropertyOp9
 70
     1
102
RTVSPropertyOp10
 70
     1
102
RTVSPropertyOp11
 70
     1
102
RTVSPropertyOp12
 70
     1
102
RTVSPropertyOp13
 70
     1
102
RTVSPropertyOp14
 70
     1
102
RTVSPropertyOp15
 70
     1
102
RTVSPropertyOp16
 70
     1
102
RTVSPropertyOp17
 70
     1
102
RTVSPropertyOp18
 70
     1
102
RTVSPropertyOp19
 70
     1
102
RTVSPropertyOp20
 70
     1
102
RTVSPropertyOp21
 70
     1
102
RTVSPropertyOp22
 70
     1
102
RTVSPropertyOp23
 70
     1
102
RTVSPropertyOp24
 70
     1
102
RTVSPropertyOp25
 70
     1
102
RTVSPropertyOp26
 70
     1
102
RTVSPropertyOp27
 70
     1
102
RTVSPropertyOp28
 70
     1
102
RTVSPropertyOp29
 70
     1
102
RTVSPropertyOp30
 70
     1
102
RTVSPropertyOp31
 70
     1
102
RTVSPropertyOp32
 70
     1
102
RTVSPropertyOp33
 70
     1
102
RTVSPropertyOp34
 70
     1
102
RTVSPropertyOp35
 70
     1
102
RTVSPropertyOp36
 70
     1
102
RTVSPropertyOp37
 70
     1
102
RTVSPropertyOp38
 70
     1
102
RTVSPropertyOp39
 70
     1
102
RTVSPropertyOp40
 70
     1
102
RTVSPropertyOp41
 70
     1
102
RTVSPropertyOp42
 70
     1
102
RTVSPropertyOp43
 70
     1
102
RTVSPropertyOp44
 70
     1
102
RTVSPropertyOp45
 70
     1
102
RTVSPropertyOp46
 70
     1
102
RTVSPropertyOp47
 70
     1
102
RTVSPropertyOp48
 70
     1
102
RTVSPropertyOp49
 70
     1
102
RTVSPropertyOp50
 70
     1
102
RTVSPropertyOp51
 70
     0
102
RTVSPropertyOp52
 70
     0
102
RTVSPropertyOp53
 70
     1
102
RTVSPropertyOp54
 70
     1
102
RTVSPropertyOp55
 70
     1
102
RTVSPropertyOp56
 70
     1
102
RTVSPropertyOp57
 70
     1
102
RTVSPost2010Prop28
280
     0
102
RTVSPost2010PropOp28
 70
     1
102
RTVSPost2010Prop29
280
     1
102
RTVSPost2010PropOp29
 70
     1
102
RTVSPost2010Prop30
280
     1
102
RTVSPost2010PropOp30
 70
     1
102
RTVSPost2010Prop31
280
     0
102
RTVSPost2010PropOp31
 70
     1
102
RTVSPost2010Prop32
280
     0
102
RTVSPost2010PropOp32
 70
     1
102
RTVSPost2010Prop33
280
     0
102
RTVSPost2010PropOp33
 70
     1
102
RTVSPost2010Prop34
280
     0
102
RTVSPost2010PropOp34
 70
     1
102
RTVSPost2010Prop35
280
     0
102
RTVSPost2010PropOp35
 70
     1
102
RTVSPost2010Prop36
280
     0
102
RTVSPost2010PropOp36
 70
     1
102
RTVSPost2010Prop37
 90
       50
102
RTVSPost2010PropOp37
 70
     1
102
RTVSPost2010Prop38
140
0.0
102
RTVSPost2010PropOp38
 70
     1
102
RTVSPost2010Prop39
140
1.0
102
RTVSPost2010PropOp39
 70
     1
102
RTVSPost2010Prop40
 90
        0
102
RTVSPost2010PropOp40
 70
     1
102
RTVSPost2010Prop41ColorIndex
 90
       18
102
RTVSPost2010Prop41ColorRGB
 90
        0
102
RTVSPost2010PropOp41
 70
     1
102
RTVSPost2010Prop42
 90
       50
102
RTVSPost2010PropOp42
 70
     1
102
RTVSPost2010Prop43
 90
        3
102
RTVSPost2010PropOp43
 70
     1
102
RTVSPost2010Prop44ColorIndex
 90
        5
102
RTVSPost2010Prop44ColorRGB
 90
      255
102
RTVSPost2010PropOp44
 70
     1
102
RTVSPost2010Prop45
280
     0
102
RTVSPost2010PropOp45
 70
     1
102
RTVSPost2010Prop46
 90
       50
102
RTVSPost2010PropOp46
 70
     1
102
RTVSPost2010Prop47
 90
       50
102
RTVSPost2010PropOp47
 70
     1
102
RTVSPost2010Prop48
 90
       50
102
RTVSPost2010PropOp48
 70
     1
102
RTVSPost2010Prop49
280
     0
102
RTVSPost2010PropOp49
 70
     1
102
RTVSPost2010Prop50
 90
       50
102
RTVSPost2010PropOp50
 70
     1
102
RTVSPost2010Prop51ColorIndex
 90
      256
102
RTVSPost2010Prop51ColorRGB
 90
-16777216
102
RTVSPost2010PropOp51
 70
     0
102
RTVSPost2010Prop52
140
1.0
102
RTVSPost2010PropOp52
 70
     0
102
RTVSPost2010Prop53
 90
        2
102
RTVSPost2010PropOp53
 70
     1
102
RTVSPost2010Prop54
  1
strokes_ogs.tif
102
RTVSPost2010PropOp54
 70
     1
102
RTVSPost2010Prop55
280
     0
102
RTVSPost2010PropOp55
 70
     1
102
RTVSPost2010Prop56
140
1.0
102
RTVSPost2010PropOp56
 70
     1
102
RTVSPost2010Prop57
140
1.0
102
RTVSPost2010PropOp57
 70
     1
  0
XRECORD
  5
408
102
{ACAD_REACTORS
330
407
102
}
330
407
100
AcDbXrecord
280
     1
102
RTVSPropertyOp0
 70
     0
102
RTVSPropertyOp1
 70
     0
102
RTVSPropertyOp2
 70
     0
102
RTVSPropertyOp3
 70
     0
102
RTVSPropertyOp4
 70
     0
102
RTVSPropertyOp5
 70
     0
102
RTVSPropertyOp6
 70
     0
102
RTVSPropertyOp7
 70
     0
102
RTVSPropertyOp8
 70
     0
102
RTVSPropertyOp9
 70
     0
102
RTVSPropertyOp10
 70
     0
102
RTVSPropertyOp11
 70
     0
102
RTVSPropertyOp12
 70
     0
102
RTVSPropertyOp13
 70
     0
102
RTVSPropertyOp14
 70
     2
102
RTVSPropertyOp15
 70
     0
102
RTVSPropertyOp16
 70
     0
102
RTVSPropertyOp17
 70
     0
102
RTVSPropertyOp18
 70
     0
102
RTVSPropertyOp19
 70
     0
102
RTVSPropertyOp20
 70
     0
102
RTVSPropertyOp21
 70
     0
102
RTVSPropertyOp22
 70
     0
102
RTVSPropertyOp23
 70
     0
102
RTVSPropertyOp24
 70
     0
102
RTVSPropertyOp25
 70
     0
102
RTVSPropertyOp26
 70
     0
102
RTVSPropertyOp27
 70
     0
102
RTVSPropertyOp28
 70
     0
102
RTVSPropertyOp29
 70
     0
102
RTVSPropertyOp30
 70
     0
102
RTVSPropertyOp31
 70
     0
102
RTVSPropertyOp32
 70
     0
102
RTVSPropertyOp33
 70
     0
102
RTVSPropertyOp34
 70
     0
102
RTVSPropertyOp35
 70
     0
102
RTVSPropertyOp36
 70
     0
102
RTVSPropertyOp37
 70
     0
102
RTVSPropertyOp38
 70
     0
102
RTVSPropertyOp39
 70
     0
102
RTVSPropertyOp40
 70
     0
102
RTVSPropertyOp41
 70
     0
102
RTVSPropertyOp42
 70
     0
102
RTVSPropertyOp43
 70
     0
102
RTVSPropertyOp44
 70
     0
102
RTVSPropertyOp45
 70
     0
102
RTVSPropertyOp46
 70
     0
102
RTVSPropertyOp47
 70
     0
102
RTVSPropertyOp48
 70
     0
102
RTVSPropertyOp49
 70
     0
102
RTVSPropertyOp50
 70
     0
102
RTVSPropertyOp51
 70
     0
102
RTVSPropertyOp52
 70
     0
102
RTVSPropertyOp53
 70
     0
102
RTVSPropertyOp54
 70
     0
102
RTVSPropertyOp55
 70
     0
102
RTVSPropertyOp56
 70
     0
102
RTVSPropertyOp57
 70
     0
102
RTVSPost2010Prop28
280
     0
102
RTVSPost2010PropOp28
 70
     0
102
RTVSPost2010Prop29
280
     1
102
RTVSPost2010PropOp29
 70
     0
102
RTVSPost2010Prop30
280
     1
102
RTVSPost2010PropOp30
 70
     0
102
RTVSPost2010Prop31
280
     0
102
RTVSPost2010PropOp31
 70
     0
102
RTVSPost2010Prop32
280
     0
102
RTVSPost2010PropOp32
 70
     0
102
RTVSPost2010Prop33
280
     0
102
RTVSPost2010PropOp33
 70
     0
102
RTVSPost2010Prop34
280
     0
102
RTVSPost2010PropOp34
 70
     0
102
RTVSPost2010Prop35
280
     0
102
RTVSPost2010PropOp35
 70
     0
102
RTVSPost2010Prop36
280
     0
102
RTVSPost2010PropOp36
 70
     0
102
RTVSPost2010Prop37
 90
       50
102
RTVSPost2010PropOp37
 70
     0
102
RTVSPost2010Prop38
140
0.0
102
RTVSPost2010PropOp38
 70
     0
102
RTVSPost2010Prop39
140
1.0
102
RTVSPost2010PropOp39
 70
     0
102
RTVSPost2010Prop40
 90
        0
102
RTVSPost2010PropOp40
 70
     0
102
RTVSPost2010Prop41ColorIndex
 90
       18
102
RTVSPost2010Prop41ColorRGB
 90
        0
102
RTVSPost2010PropOp41
 70
     0
102
RTVSPost2010Prop42
 90
       50
102
RTVSPost2010PropOp42
 70
     0
102
RTVSPost2010Prop43
 90
        3
102
RTVSPost2010PropOp43
 70
     0
102
RTVSPost2010Prop44ColorIndex
 90
        5
102
RTVSPost2010Prop44ColorRGB
 90
      255
102
RTVSPost2010PropOp44
 70
     0
102
RTVSPost2010Prop45
280
     0
102
RTVSPost2010PropOp45
 70
     0
102
RTVSPost2010Prop46
 90
       50
102
RTVSPost2010PropOp46
 70
     0
102
RTVSPost2010Prop47
 90
       50
102
RTVSPost2010PropOp47
 70
     0
102
RTVSPost2010Prop48
 90
       50
102
RTVSPost2010PropOp48
 70
     0
102
RTVSPost2010Prop49
280
     0
102
RTVSPost2010PropOp49
 70
     0
102
RTVSPost2010Prop50
 90
       50
102
RTVSPost2010PropOp50
 70
     0
102
RTVSPost2010Prop51ColorIndex
 90
      256
102
RTVSPost2010Prop51ColorRGB
 90
-16777216
102
RTVSPost2010PropOp51
 70
     0
102
RTVSPost2010Prop52
140
1.0
102
RTVSPost2010PropOp52
 70
     0
102
RTVSPost2010Prop53
 90
        2
102
RTVSPost2010PropOp53
 70
     0
102
RTVSPost2010Prop54
  1
strokes_ogs.tif
102
RTVSPost2010PropOp54
 70
     0
102
RTVSPost2010Prop55
280
     0
102
RTVSPost2010PropOp55
 70
     0
102
RTVSPost2010Prop56
140
1.0
102
RTVSPost2010PropOp56
 70
     0
102
RTVSPost2010Prop57
140
1.0
102
RTVSPost2010PropOp57
 70
     0
  0
XRECORD
  5
3F6
102
{ACAD_REACTORS
330
3F5
102
}
330
3F5
100
AcDbXrecord
280
     1
102
RTVSPropertyOp0
 70
     1
102
RTVSPropertyOp1
 70
     1
102
RTVSPropertyOp2
 70
     1
102
RTVSPropertyOp3
 70
     1
102
RTVSPropertyOp4
 70
     1
102
RTVSPropertyOp5
 70
     1
102
RTVSPropertyOp6
 70
     1
102
RTVSPropertyOp7
 70
     1
102
RTVSPropertyOp8
 70
     1
102
RTVSPropertyOp9
 70
     1
102
RTVSPropertyOp10
 70
     1
102
RTVSPropertyOp11
 70
     1
102
RTVSPropertyOp12
 70
     1
102
RTVSPropertyOp13
 70
     1
102
RTVSPropertyOp14
 70
     1
102
RTVSPropertyOp15
 70
     1
102
RTVSPropertyOp16
 70
     1
102
RTVSPropertyOp17
 70
     1
102
RTVSPropertyOp18
 70
     1
102
RTVSPropertyOp19
 70
     1
102
RTVSPropertyOp20
 70
     1
102
RTVSPropertyOp21
 70
     1
102
RTVSPropertyOp22
 70
     1
102
RTVSPropertyOp23
 70
     1
102
RTVSPropertyOp24
 70
     1
102
RTVSPropertyOp25
 70
     1
102
RTVSPropertyOp26
 70
     1
102
RTVSPropertyOp27
 70
     1
102
RTVSPropertyOp28
 70
     1
102
RTVSPropertyOp29
 70
     1
102
RTVSPropertyOp30
 70
     1
102
RTVSPropertyOp31
 70
     1
102
RTVSPropertyOp32
 70
     1
102
RTVSPropertyOp33
 70
     1
102
RTVSPropertyOp34
 70
     1
102
RTVSPropertyOp35
 70
     1
102
RTVSPropertyOp36
 70
     1
102
RTVSPropertyOp37
 70
     1
102
RTVSPropertyOp38
 70
     1
102
RTVSPropertyOp39
 70
     1
102
RTVSPropertyOp40
 70
     1
102
RTVSPropertyOp41
 70
     1
102
RTVSPropertyOp42
 70
     1
102
RTVSPropertyOp43
 70
     1
102
RTVSPropertyOp44
 70
     1
102
RTVSPropertyOp45
 70
     1
102
RTVSPropertyOp46
 70
     1
102
RTVSPropertyOp47
 70
     1
102
RTVSPropertyOp48
 70
     1
102
RTVSPropertyOp49
 70
     1
102
RTVSPropertyOp50
 70
     1
102
RTVSPropertyOp51
 70
     0
102
RTVSPropertyOp52
 70
     0
102
RTVSPropertyOp53
 70
     1
102
RTVSPropertyOp54
 70
     1
102
RTVSPropertyOp55
 70
     1
102
RTVSPropertyOp56
 70
     1
102
RTVSPropertyOp57
 70
     1
102
RTVSPost2010Prop28
280
     0
102
RTVSPost2010PropOp28
 70
     1
102
RTVSPost2010Prop29
280
     1
102
RTVSPost2010PropOp29
 70
     1
102
RTVSPost2010Prop30
280
     1
102
RTVSPost2010PropOp30
 70
     1
102
RTVSPost2010Prop31
280
     0
102
RTVSPost2010PropOp31
 70
     1
102
RTVSPost2010Prop32
280
     0
102
RTVSPost2010PropOp32
 70
     1
102
RTVSPost2010Prop33
280
     0
102
RTVSPost2010PropOp33
 70
     1
102
RTVSPost2010Prop34
280
     0
102
RTVSPost2010PropOp34
 70
     1
102
RTVSPost2010Prop35
280
     0
102
RTVSPost2010PropOp35
 70
     1
102
RTVSPost2010Prop36
280
     0
102
RTVSPost2010PropOp36
 70
     1
102
RTVSPost2010Prop37
 90
       50
102
RTVSPost2010PropOp37
 70
     1
102
RTVSPost2010Prop38
140
0.0
102
RTVSPost2010PropOp38
 70
     1
102
RTVSPost2010Prop39
140
1.0
102
RTVSPost2010PropOp39
 70
     1
102
RTVSPost2010Prop40
 90
        0
102
RTVSPost2010PropOp40
 70
     1
102
RTVSPost2010Prop41ColorIndex
 90
       18
102
RTVSPost2010Prop41ColorRGB
 90
        0
102
RTVSPost2010PropOp41
 70
     1
102
RTVSPost2010Prop42
 90
       50
102
RTVSPost2010PropOp42
 70
     1
102
RTVSPost2010Prop43
 90
        3
102
RTVSPost2010PropOp43
 70
     1
102
RTVSPost2010Prop44ColorIndex
 90
        5
102
RTVSPost2010Prop44ColorRGB
 90
      255
102
RTVSPost2010PropOp44
 70
     1
102
RTVSPost2010Prop45
280
     0
102
RTVSPost2010PropOp45
 70
     1
102
RTVSPost2010Prop46
 90
       50
102
RTVSPost2010PropOp46
 70
     1
102
RTVSPost2010Prop47
 90
       50
102
RTVSPost2010PropOp47
 70
     1
102
RTVSPost2010Prop48
 90
       50
102
RTVSPost2010PropOp48
 70
     1
102
RTVSPost2010Prop49
280
     0
102
RTVSPost2010PropOp49
 70
     1
102
RTVSPost2010Prop50
 90
       50
102
RTVSPost2010PropOp50
 70
     1
102
RTVSPost2010Prop51ColorIndex
 90
      256
102
RTVSPost2010Prop51ColorRGB
 90
-16777216
102
RTVSPost2010PropOp51
 70
     0
102
RTVSPost2010Prop52
140
1.0
102
RTVSPost2010PropOp52
 70
     0
102
RTVSPost2010Prop53
 90
        2
102
RTVSPost2010PropOp53
 70
     1
102
RTVSPost2010Prop54
  1
strokes_ogs.tif
102
RTVSPost2010PropOp54
 70
     1
102
RTVSPost2010Prop55
280
     0
102
RTVSPost2010PropOp55
 70
     1
102
RTVSPost2010Prop56
140
1.0
102
RTVSPost2010PropOp56
 70
     1
102
RTVSPost2010Prop57
140
1.0
102
RTVSPost2010PropOp57
 70
     1
  0
XRECORD
  5
414
102
{ACAD_REACTORS
330
413
102
}
330
413
100
AcDbXrecord
280
     1
102
RTVSPropertyOp0
 70
     1
102
RTVSPropertyOp1
 70
     1
102
RTVSPropertyOp2
 70
     1
102
RTVSPropertyOp3
 70
     1
102
RTVSPropertyOp4
 70
     1
102
RTVSPropertyOp5
 70
     1
102
RTVSPropertyOp6
 70
     1
102
RTVSPropertyOp7
 70
     1
102
RTVSPropertyOp8
 70
     1
102
RTVSPropertyOp9
 70
     1
102
RTVSPropertyOp10
 70
     1
102
RTVSPropertyOp11
 70
     1
102
RTVSPropertyOp12
 70
     1
102
RTVSPropertyOp13
 70
     1
102
RTVSPropertyOp14
 70
     1
102
RTVSPropertyOp15
 70
     1
102
RTVSPropertyOp16
 70
     1
102
RTVSPropertyOp17
 70
     1
102
RTVSPropertyOp18
 70
     1
102
RTVSPropertyOp19
 70
     1
102
RTVSPropertyOp20
 70
     1
102
RTVSPropertyOp21
 70
     1
102
RTVSPropertyOp22
 70
     1
102
RTVSPropertyOp23
 70
     1
102
RTVSPropertyOp24
 70
     1
102
RTVSPropertyOp25
 70
     1
102
RTVSPropertyOp26
 70
     1
102
RTVSPropertyOp27
 70
     1
102
RTVSPropertyOp28
 70
     1
102
RTVSPropertyOp29
 70
     1
102
RTVSPropertyOp30
 70
     1
102
RTVSPropertyOp31
 70
     1
102
RTVSPropertyOp32
 70
     1
102
RTVSPropertyOp33
 70
     1
102
RTVSPropertyOp34
 70
     1
102
RTVSPropertyOp35
 70
     1
102
RTVSPropertyOp36
 70
     1
102
RTVSPropertyOp37
 70
     1
102
RTVSPropertyOp38
 70
     1
102
RTVSPropertyOp39
 70
     1
102
RTVSPropertyOp40
 70
     1
102
RTVSPropertyOp41
 70
     1
102
RTVSPropertyOp42
 70
     1
102
RTVSPropertyOp43
 70
     1
102
RTVSPropertyOp44
 70
     1
102
RTVSPropertyOp45
 70
     1
102
RTVSPropertyOp46
 70
     1
102
RTVSPropertyOp47
 70
     1
102
RTVSPropertyOp48
 70
     1
102
RTVSPropertyOp49
 70
     1
102
RTVSPropertyOp50
 70
     1
102
RTVSPropertyOp51
 70
     0
102
RTVSPropertyOp52
 70
     0
102
RTVSPropertyOp53
 70
     1
102
RTVSPropertyOp54
 70
     1
102
RTVSPropertyOp55
 70
     1
102
RTVSPropertyOp56
 70
     1
102
RTVSPropertyOp57
 70
     1
102
RTVSPost2010Prop28
280
     0
102
RTVSPost2010PropOp28
 70
     1
102
RTVSPost2010Prop29
280
     1
102
RTVSPost2010PropOp29
 70
     1
102
RTVSPost2010Prop30
280
     1
102
RTVSPost2010PropOp30
 70
     1
102
RTVSPost2010Prop31
280
     0
102
RTVSPost2010PropOp31
 70
     1
102
RTVSPost2010Prop32
280
     0
102
RTVSPost2010PropOp32
 70
     1
102
RTVSPost2010Prop33
280
     0
102
RTVSPost2010PropOp33
 70
     1
102
RTVSPost2010Prop34
280
     0
102
RTVSPost2010PropOp34
 70
     1
102
RTVSPost2010Prop35
280
     0
102
RTVSPost2010PropOp35
 70
     1
102
RTVSPost2010Prop36
280
     0
102
RTVSPost2010PropOp36
 70
     1
102
RTVSPost2010Prop37
 90
       50
102
RTVSPost2010PropOp37
 70
     1
102
RTVSPost2010Prop38
140
0.0
102
RTVSPost2010PropOp38
 70
     1
102
RTVSPost2010Prop39
140
1.0
102
RTVSPost2010PropOp39
 70
     1
102
RTVSPost2010Prop40
 90
        0
102
RTVSPost2010PropOp40
 70
     1
102
RTVSPost2010Prop41ColorIndex
 90
       18
102
RTVSPost2010Prop41ColorRGB
 90
        0
102
RTVSPost2010PropOp41
 70
     1
102
RTVSPost2010Prop42
 90
       50
102
RTVSPost2010PropOp42
 70
     1
102
RTVSPost2010Prop43
 90
        3
102
RTVSPost2010PropOp43
 70
     1
102
RTVSPost2010Prop44ColorIndex
 90
        5
102
RTVSPost2010Prop44ColorRGB
 90
      255
102
RTVSPost2010PropOp44
 70
     1
102
RTVSPost2010Prop45
280
     0
102
RTVSPost2010PropOp45
 70
     1
102
RTVSPost2010Prop46
 90
       50
102
RTVSPost2010PropOp46
 70
     1
102
RTVSPost2010Prop47
 90
       50
102
RTVSPost2010PropOp47
 70
     1
102
RTVSPost2010Prop48
 90
       50
102
RTVSPost2010PropOp48
 70
     1
102
RTVSPost2010Prop49
280
     0
102
RTVSPost2010PropOp49
 70
     1
102
RTVSPost2010Prop50
 90
       50
102
RTVSPost2010PropOp50
 70
     1
102
RTVSPost2010Prop51ColorIndex
 90
      256
102
RTVSPost2010Prop51ColorRGB
 90
-16777216
102
RTVSPost2010PropOp51
 70
     0
102
RTVSPost2010Prop52
140
1.0
102
RTVSPost2010PropOp52
 70
     0
102
RTVSPost2010Prop53
 90
        2
102
RTVSPost2010PropOp53
 70
     1
102
RTVSPost2010Prop54
  1
strokes_ogs.tif
102
RTVSPost2010PropOp54
 70
     1
102
RTVSPost2010Prop55
280
     0
102
RTVSPost2010PropOp55
 70
     1
102
RTVSPost2010Prop56
140
1.0
102
RTVSPost2010PropOp56
 70
     1
102
RTVSPost2010Prop57
140
1.0
102
RTVSPost2010PropOp57
 70
     1
  0
XRECORD
  5
412
102
{ACAD_REACTORS
330
411
102
}
330
411
100
AcDbXrecord
280
     1
102
RTVSPropertyOp0
 70
     1
102
RTVSPropertyOp1
 70
     1
102
RTVSPropertyOp2
 70
     1
102
RTVSPropertyOp3
 70
     1
102
RTVSPropertyOp4
 70
     1
102
RTVSPropertyOp5
 70
     1
102
RTVSPropertyOp6
 70
     1
102
RTVSPropertyOp7
 70
     1
102
RTVSPropertyOp8
 70
     1
102
RTVSPropertyOp9
 70
     1
102
RTVSPropertyOp10
 70
     1
102
RTVSPropertyOp11
 70
     1
102
RTVSPropertyOp12
 70
     1
102
RTVSPropertyOp13
 70
     1
102
RTVSPropertyOp14
 70
     1
102
RTVSPropertyOp15
 70
     1
102
RTVSPropertyOp16
 70
     1
102
RTVSPropertyOp17
 70
     1
102
RTVSPropertyOp18
 70
     1
102
RTVSPropertyOp19
 70
     1
102
RTVSPropertyOp20
 70
     1
102
RTVSPropertyOp21
 70
     1
102
RTVSPropertyOp22
 70
     1
102
RTVSPropertyOp23
 70
     1
102
RTVSPropertyOp24
 70
     1
102
RTVSPropertyOp25
 70
     1
102
RTVSPropertyOp26
 70
     1
102
RTVSPropertyOp27
 70
     1
102
RTVSPropertyOp28
 70
     1
102
RTVSPropertyOp29
 70
     1
102
RTVSPropertyOp30
 70
     1
102
RTVSPropertyOp31
 70
     1
102
RTVSPropertyOp32
 70
     1
102
RTVSPropertyOp33
 70
     1
102
RTVSPropertyOp34
 70
     1
102
RTVSPropertyOp35
 70
     1
102
RTVSPropertyOp36
 70
     1
102
RTVSPropertyOp37
 70
     1
102
RTVSPropertyOp38
 70
     1
102
RTVSPropertyOp39
 70
     1
102
RTVSPropertyOp40
 70
     1
102
RTVSPropertyOp41
 70
     1
102
RTVSPropertyOp42
 70
     1
102
RTVSPropertyOp43
 70
     1
102
RTVSPropertyOp44
 70
     1
102
RTVSPropertyOp45
 70
     1
102
RTVSPropertyOp46
 70
     1
102
RTVSPropertyOp47
 70
     1
102
RTVSPropertyOp48
 70
     1
102
RTVSPropertyOp49
 70
     1
102
RTVSPropertyOp50
 70
     1
102
RTVSPropertyOp51
 70
     0
102
RTVSPropertyOp52
 70
     0
102
RTVSPropertyOp53
 70
     1
102
RTVSPropertyOp54
 70
     1
102
RTVSPropertyOp55
 70
     1
102
RTVSPropertyOp56
 70
     1
102
RTVSPropertyOp57
 70
     1
102
RTVSPost2010Prop28
280
     0
102
RTVSPost2010PropOp28
 70
     1
102
RTVSPost2010Prop29
280
     1
102
RTVSPost2010PropOp29
 70
     1
102
RTVSPost2010Prop30
280
     1
102
RTVSPost2010PropOp30
 70
     1
102
RTVSPost2010Prop31
280
     0
102
RTVSPost2010PropOp31
 70
     1
102
RTVSPost2010Prop32
280
     0
102
RTVSPost2010PropOp32
 70
     1
102
RTVSPost2010Prop33
280
     0
102
RTVSPost2010PropOp33
 70
     1
102
RTVSPost2010Prop34
280
     0
102
RTVSPost2010PropOp34
 70
     1
102
RTVSPost2010Prop35
280
     0
102
RTVSPost2010PropOp35
 70
     1
102
RTVSPost2010Prop36
280
     0
102
RTVSPost2010PropOp36
 70
     1
102
RTVSPost2010Prop37
 90
       50
102
RTVSPost2010PropOp37
 70
     1
102
RTVSPost2010Prop38
140
0.0
102
RTVSPost2010PropOp38
 70
     1
102
RTVSPost2010Prop39
140
1.0
102
RTVSPost2010PropOp39
 70
     1
102
RTVSPost2010Prop40
 90
        0
102
RTVSPost2010PropOp40
 70
     1
102
RTVSPost2010Prop41ColorIndex
 90
       18
102
RTVSPost2010Prop41ColorRGB
 90
        0
102
RTVSPost2010PropOp41
 70
     1
102
RTVSPost2010Prop42
 90
       50
102
RTVSPost2010PropOp42
 70
     1
102
RTVSPost2010Prop43
 90
        3
102
RTVSPost2010PropOp43
 70
     1
102
RTVSPost2010Prop44ColorIndex
 90
        5
102
RTVSPost2010Prop44ColorRGB
 90
      255
102
RTVSPost2010PropOp44
 70
     1
102
RTVSPost2010Prop45
280
     0
102
RTVSPost2010PropOp45
 70
     1
102
RTVSPost2010Prop46
 90
       50
102
RTVSPost2010PropOp46
 70
     1
102
RTVSPost2010Prop47
 90
       50
102
RTVSPost2010PropOp47
 70
     1
102
RTVSPost2010Prop48
 90
       50
102
RTVSPost2010PropOp48
 70
     1
102
RTVSPost2010Prop49
280
     0
102
RTVSPost2010PropOp49
 70
     1
102
RTVSPost2010Prop50
 90
       50
102
RTVSPost2010PropOp50
 70
     1
102
RTVSPost2010Prop51ColorIndex
 90
      256
102
RTVSPost2010Prop51ColorRGB
 90
-16777216
102
RTVSPost2010PropOp51
 70
     0
102
RTVSPost2010Prop52
140
1.0
102
RTVSPost2010PropOp52
 70
     0
102
RTVSPost2010Prop53
 90
        2
102
RTVSPost2010PropOp53
 70
     1
102
RTVSPost2010Prop54
  1
strokes_ogs.tif
102
RTVSPost2010PropOp54
 70
     1
102
RTVSPost2010Prop55
280
     0
102
RTVSPost2010PropOp55
 70
     1
102
RTVSPost2010Prop56
140
1.0
102
RTVSPost2010PropOp56
 70
     1
102
RTVSPost2010Prop57
140
1.0
102
RTVSPost2010PropOp57
 70
     1
  0
XRECORD
  5
40C
102
{ACAD_REACTORS
330
40B
102
}
330
40B
100
AcDbXrecord
280
     1
102
RTVSPropertyOp0
 70
     1
102
RTVSPropertyOp1
 70
     1
102
RTVSPropertyOp2
 70
     1
102
RTVSPropertyOp3
 70
     1
102
RTVSPropertyOp4
 70
     1
102
RTVSPropertyOp5
 70
     1
102
RTVSPropertyOp6
 70
     1
102
RTVSPropertyOp7
 70
     1
102
RTVSPropertyOp8
 70
     1
102
RTVSPropertyOp9
 70
     1
102
RTVSPropertyOp10
 70
     1
102
RTVSPropertyOp11
 70
     1
102
RTVSPropertyOp12
 70
     1
102
RTVSPropertyOp13
 70
     1
102
RTVSPropertyOp14
 70
     1
102
RTVSPropertyOp15
 70
     1
102
RTVSPropertyOp16
 70
     1
102
RTVSPropertyOp17
 70
     1
102
RTVSPropertyOp18
 70
     1
102
RTVSPropertyOp19
 70
     1
102
RTVSPropertyOp20
 70
     1
102
RTVSPropertyOp21
 70
     1
102
RTVSPropertyOp22
 70
     1
102
RTVSPropertyOp23
 70
     1
102
RTVSPropertyOp24
 70
     1
102
RTVSPropertyOp25
 70
     1
102
RTVSPropertyOp26
 70
     1
102
RTVSPropertyOp27
 70
     1
102
RTVSPropertyOp28
 70
     1
102
RTVSPropertyOp29
 70
     1
102
RTVSPropertyOp30
 70
     1
102
RTVSPropertyOp31
 70
     1
102
RTVSPropertyOp32
 70
     1
102
RTVSPropertyOp33
 70
     1
102
RTVSPropertyOp34
 70
     1
102
RTVSPropertyOp35
 70
     1
102
RTVSPropertyOp36
 70
     1
102
RTVSPropertyOp37
 70
     1
102
RTVSPropertyOp38
 70
     1
102
RTVSPropertyOp39
 70
     1
102
RTVSPropertyOp40
 70
     1
102
RTVSPropertyOp41
 70
     1
102
RTVSPropertyOp42
 70
     1
102
RTVSPropertyOp43
 70
     1
102
RTVSPropertyOp44
 70
     1
102
RTVSPropertyOp45
 70
     1
102
RTVSPropertyOp46
 70
     1
102
RTVSPropertyOp47
 70
     1
102
RTVSPropertyOp48
 70
     1
102
RTVSPropertyOp49
 70
     1
102
RTVSPropertyOp50
 70
     1
102
RTVSPropertyOp51
 70
     0
102
RTVSPropertyOp52
 70
     0
102
RTVSPropertyOp53
 70
     1
102
RTVSPropertyOp54
 70
     1
102
RTVSPropertyOp55
 70
     1
102
RTVSPropertyOp56
 70
     1
102
RTVSPropertyOp57
 70
     1
102
RTVSPost2010Prop28
280
     0
102
RTVSPost2010PropOp28
 70
     1
102
RTVSPost2010Prop29
280
     1
102
RTVSPost2010PropOp29
 70
     1
102
RTVSPost2010Prop30
280
     1
102
RTVSPost2010PropOp30
 70
     1
102
RTVSPost2010Prop31
280
     0
102
RTVSPost2010PropOp31
 70
     1
102
RTVSPost2010Prop32
280
     0
102
RTVSPost2010PropOp32
 70
     1
102
RTVSPost2010Prop33
280
     0
102
RTVSPost2010PropOp33
 70
     1
102
RTVSPost2010Prop34
280
     0
102
RTVSPost2010PropOp34
 70
     1
102
RTVSPost2010Prop35
280
     0
102
RTVSPost2010PropOp35
 70
     1
102
RTVSPost2010Prop36
280
     0
102
RTVSPost2010PropOp36
 70
     1
102
RTVSPost2010Prop37
 90
       50
102
RTVSPost2010PropOp37
 70
     1
102
RTVSPost2010Prop38
140
0.0
102
RTVSPost2010PropOp38
 70
     1
102
RTVSPost2010Prop39
140
1.0
102
RTVSPost2010PropOp39
 70
     1
102
RTVSPost2010Prop40
 90
        0
102
RTVSPost2010PropOp40
 70
     1
102
RTVSPost2010Prop41ColorIndex
 90
       18
102
RTVSPost2010Prop41ColorRGB
 90
        0
102
RTVSPost2010PropOp41
 70
     1
102
RTVSPost2010Prop42
 90
       50
102
RTVSPost2010PropOp42
 70
     1
102
RTVSPost2010Prop43
 90
        3
102
RTVSPost2010PropOp43
 70
     1
102
RTVSPost2010Prop44ColorIndex
 90
        5
102
RTVSPost2010Prop44ColorRGB
 90
      255
102
RTVSPost2010PropOp44
 70
     1
102
RTVSPost2010Prop45
280
     0
102
RTVSPost2010PropOp45
 70
     1
102
RTVSPost2010Prop46
 90
       50
102
RTVSPost2010PropOp46
 70
     1
102
RTVSPost2010Prop47
 90
       50
102
RTVSPost2010PropOp47
 70
     1
102
RTVSPost2010Prop48
 90
       50
102
RTVSPost2010PropOp48
 70
     1
102
RTVSPost2010Prop49
280
     0
102
RTVSPost2010PropOp49
 70
     1
102
RTVSPost2010Prop50
 90
       50
102
RTVSPost2010PropOp50
 70
     1
102
RTVSPost2010Prop51ColorIndex
 90
      256
102
RTVSPost2010Prop51ColorRGB
 90
-16777216
102
RTVSPost2010PropOp51
 70
     0
102
RTVSPost2010Prop52
140
1.0
102
RTVSPost2010PropOp52
 70
     0
102
RTVSPost2010Prop53
 90
        2
102
RTVSPost2010PropOp53
 70
     1
102
RTVSPost2010Prop54
  1
strokes_ogs.tif
102
RTVSPost2010PropOp54
 70
     1
102
RTVSPost2010Prop55
280
     0
102
RTVSPost2010PropOp55
 70
     1
102
RTVSPost2010Prop56
140
1.0
102
RTVSPost2010PropOp56
 70
     1
102
RTVSPost2010Prop57
140
1.0
102
RTVSPost2010PropOp57
 70
     1
  0
XRECORD
  5
40E
102
{ACAD_REACTORS
330
40D
102
}
330
40D
100
AcDbXrecord
280
     1
102
RTVSPropertyOp0
 70
     1
102
RTVSPropertyOp1
 70
     1
102
RTVSPropertyOp2
 70
     1
102
RTVSPropertyOp3
 70
     1
102
RTVSPropertyOp4
 70
     1
102
RTVSPropertyOp5
 70
     1
102
RTVSPropertyOp6
 70
     1
102
RTVSPropertyOp7
 70
     1
102
RTVSPropertyOp8
 70
     1
102
RTVSPropertyOp9
 70
     1
102
RTVSPropertyOp10
 70
     1
102
RTVSPropertyOp11
 70
     1
102
RTVSPropertyOp12
 70
     1
102
RTVSPropertyOp13
 70
     1
102
RTVSPropertyOp14
 70
     1
102
RTVSPropertyOp15
 70
     1
102
RTVSPropertyOp16
 70
     1
102
RTVSPropertyOp17
 70
     1
102
RTVSPropertyOp18
 70
     1
102
RTVSPropertyOp19
 70
     1
102
RTVSPropertyOp20
 70
     1
102
RTVSPropertyOp21
 70
     1
102
RTVSPropertyOp22
 70
     1
102
RTVSPropertyOp23
 70
     1
102
RTVSPropertyOp24
 70
     1
102
RTVSPropertyOp25
 70
     1
102
RTVSPropertyOp26
 70
     1
102
RTVSPropertyOp27
 70
     1
102
RTVSPropertyOp28
 70
     1
102
RTVSPropertyOp29
 70
     1
102
RTVSPropertyOp30
 70
     1
102
RTVSPropertyOp31
 70
     1
102
RTVSPropertyOp32
 70
     1
102
RTVSPropertyOp33
 70
     1
102
RTVSPropertyOp34
 70
     1
102
RTVSPropertyOp35
 70
     1
102
RTVSPropertyOp36
 70
     1
102
RTVSPropertyOp37
 70
     1
102
RTVSPropertyOp38
 70
     1
102
RTVSPropertyOp39
 70
     1
102
RTVSPropertyOp40
 70
     1
102
RTVSPropertyOp41
 70
     1
102
RTVSPropertyOp42
 70
     1
102
RTVSPropertyOp43
 70
     1
102
RTVSPropertyOp44
 70
     1
102
RTVSPropertyOp45
 70
     1
102
RTVSPropertyOp46
 70
     1
102
RTVSPropertyOp47
 70
     1
102
RTVSPropertyOp48
 70
     1
102
RTVSPropertyOp49
 70
     1
102
RTVSPropertyOp50
 70
     1
102
RTVSPropertyOp51
 70
     0
102
RTVSPropertyOp52
 70
     0
102
RTVSPropertyOp53
 70
     1
102
RTVSPropertyOp54
 70
     1
102
RTVSPropertyOp55
 70
     1
102
RTVSPropertyOp56
 70
     1
102
RTVSPropertyOp57
 70
     1
102
RTVSPost2010Prop28
280
     0
102
RTVSPost2010PropOp28
 70
     1
102
RTVSPost2010Prop29
280
     1
102
RTVSPost2010PropOp29
 70
     1
102
RTVSPost2010Prop30
280
     1
102
RTVSPost2010PropOp30
 70
     1
102
RTVSPost2010Prop31
280
     0
102
RTVSPost2010PropOp31
 70
     1
102
RTVSPost2010Prop32
280
     0
102
RTVSPost2010PropOp32
 70
     1
102
RTVSPost2010Prop33
280
     0
102
RTVSPost2010PropOp33
 70
     1
102
RTVSPost2010Prop34
280
     0
102
RTVSPost2010PropOp34
 70
     1
102
RTVSPost2010Prop35
280
     0
102
RTVSPost2010PropOp35
 70
     1
102
RTVSPost2010Prop36
280
     0
102
RTVSPost2010PropOp36
 70
     1
102
RTVSPost2010Prop37
 90
       50
102
RTVSPost2010PropOp37
 70
     1
102
RTVSPost2010Prop38
140
0.0
102
RTVSPost2010PropOp38
 70
     1
102
RTVSPost2010Prop39
140
1.0
102
RTVSPost2010PropOp39
 70
     1
102
RTVSPost2010Prop40
 90
        0
102
RTVSPost2010PropOp40
 70
     1
102
RTVSPost2010Prop41ColorIndex
 90
       18
102
RTVSPost2010Prop41ColorRGB
 90
        0
102
RTVSPost2010PropOp41
 70
     1
102
RTVSPost2010Prop42
 90
       50
102
RTVSPost2010PropOp42
 70
     1
102
RTVSPost2010Prop43
 90
        3
102
RTVSPost2010PropOp43
 70
     1
102
RTVSPost2010Prop44ColorIndex
 90
        5
102
RTVSPost2010Prop44ColorRGB
 90
      255
102
RTVSPost2010PropOp44
 70
     1
102
RTVSPost2010Prop45
280
     0
102
RTVSPost2010PropOp45
 70
     1
102
RTVSPost2010Prop46
 90
       50
102
RTVSPost2010PropOp46
 70
     1
102
RTVSPost2010Prop47
 90
       50
102
RTVSPost2010PropOp47
 70
     1
102
RTVSPost2010Prop48
 90
       50
102
RTVSPost2010PropOp48
 70
     1
102
RTVSPost2010Prop49
280
     0
102
RTVSPost2010PropOp49
 70
     1
102
RTVSPost2010Prop50
 90
       50
102
RTVSPost2010PropOp50
 70
     1
102
RTVSPost2010Prop51ColorIndex
 90
      256
102
RTVSPost2010Prop51ColorRGB
 90
-16777216
102
RTVSPost2010PropOp51
 70
     0
102
RTVSPost2010Prop52
140
1.0
102
RTVSPost2010PropOp52
 70
     0
102
RTVSPost2010Prop53
 90
        2
102
RTVSPost2010PropOp53
 70
     1
102
RTVSPost2010Prop54
  1
strokes_ogs.tif
102
RTVSPost2010PropOp54
 70
     1
102
RTVSPost2010Prop55
280
     0
102
RTVSPost2010PropOp55
 70
     1
102
RTVSPost2010Prop56
140
1.0
102
RTVSPost2010PropOp56
 70
     1
102
RTVSPost2010Prop57
140
1.0
102
RTVSPost2010PropOp57
 70
     1
  0
XRECORD
  5
3FE
102
{ACAD_REACTORS
330
3FD
102
}
330
3FD
100
AcDbXrecord
280
     1
102
RTVSPropertyOp0
 70
     1
102
RTVSPropertyOp1
 70
     1
102
RTVSPropertyOp2
 70
     1
102
RTVSPropertyOp3
 70
     1
102
RTVSPropertyOp4
 70
     1
102
RTVSPropertyOp5
 70
     1
102
RTVSPropertyOp6
 70
     1
102
RTVSPropertyOp7
 70
     1
102
RTVSPropertyOp8
 70
     1
102
RTVSPropertyOp9
 70
     1
102
RTVSPropertyOp10
 70
     1
102
RTVSPropertyOp11
 70
     1
102
RTVSPropertyOp12
 70
     1
102
RTVSPropertyOp13
 70
     1
102
RTVSPropertyOp14
 70
     1
102
RTVSPropertyOp15
 70
     1
102
RTVSPropertyOp16
 70
     1
102
RTVSPropertyOp17
 70
     1
102
RTVSPropertyOp18
 70
     1
102
RTVSPropertyOp19
 70
     1
102
RTVSPropertyOp20
 70
     1
102
RTVSPropertyOp21
 70
     1
102
RTVSPropertyOp22
 70
     1
102
RTVSPropertyOp23
 70
     1
102
RTVSPropertyOp24
 70
     1
102
RTVSPropertyOp25
 70
     1
102
RTVSPropertyOp26
 70
     1
102
RTVSPropertyOp27
 70
     1
102
RTVSPropertyOp28
 70
     1
102
RTVSPropertyOp29
 70
     1
102
RTVSPropertyOp30
 70
     1
102
RTVSPropertyOp31
 70
     1
102
RTVSPropertyOp32
 70
     1
102
RTVSPropertyOp33
 70
     1
102
RTVSPropertyOp34
 70
     1
102
RTVSPropertyOp35
 70
     1
102
RTVSPropertyOp36
 70
     1
102
RTVSPropertyOp37
 70
     1
102
RTVSPropertyOp38
 70
     1
102
RTVSPropertyOp39
 70
     1
102
RTVSPropertyOp40
 70
     1
102
RTVSPropertyOp41
 70
     1
102
RTVSPropertyOp42
 70
     1
102
RTVSPropertyOp43
 70
     1
102
RTVSPropertyOp44
 70
     1
102
RTVSPropertyOp45
 70
     1
102
RTVSPropertyOp46
 70
     1
102
RTVSPropertyOp47
 70
     1
102
RTVSPropertyOp48
 70
     1
102
RTVSPropertyOp49
 70
     1
102
RTVSPropertyOp50
 70
     1
102
RTVSPropertyOp51
 70
     0
102
RTVSPropertyOp52
 70
     0
102
RTVSPropertyOp53
 70
     1
102
RTVSPropertyOp54
 70
     1
102
RTVSPropertyOp55
 70
     1
102
RTVSPropertyOp56
 70
     1
102
RTVSPropertyOp57
 70
     1
102
RTVSPost2010Prop28
280
     0
102
RTVSPost2010PropOp28
 70
     1
102
RTVSPost2010Prop29
280
     1
102
RTVSPost2010PropOp29
 70
     1
102
RTVSPost2010Prop30
280
     1
102
RTVSPost2010PropOp30
 70
     1
102
RTVSPost2010Prop31
280
     0
102
RTVSPost2010PropOp31
 70
     1
102
RTVSPost2010Prop32
280
     0
102
RTVSPost2010PropOp32
 70
     1
102
RTVSPost2010Prop33
280
     0
102
RTVSPost2010PropOp33
 70
     1
102
RTVSPost2010Prop34
280
     0
102
RTVSPost2010PropOp34
 70
     1
102
RTVSPost2010Prop35
280
     0
102
RTVSPost2010PropOp35
 70
     1
102
RTVSPost2010Prop36
280
     0
102
RTVSPost2010PropOp36
 70
     1
102
RTVSPost2010Prop37
 90
       50
102
RTVSPost2010PropOp37
 70
     1
102
RTVSPost2010Prop38
140
0.0
102
RTVSPost2010PropOp38
 70
     1
102
RTVSPost2010Prop39
140
1.0
102
RTVSPost2010PropOp39
 70
     1
102
RTVSPost2010Prop40
 90
        0
102
RTVSPost2010PropOp40
 70
     1
102
RTVSPost2010Prop41ColorIndex
 90
       18
102
RTVSPost2010Prop41ColorRGB
 90
        0
102
RTVSPost2010PropOp41
 70
     1
102
RTVSPost2010Prop42
 90
       50
102
RTVSPost2010PropOp42
 70
     1
102
RTVSPost2010Prop43
 90
        3
102
RTVSPost2010PropOp43
 70
     1
102
RTVSPost2010Prop44ColorIndex
 90
        5
102
RTVSPost2010Prop44ColorRGB
 90
      255
102
RTVSPost2010PropOp44
 70
     1
102
RTVSPost2010Prop45
280
     0
102
RTVSPost2010PropOp45
 70
     1
102
RTVSPost2010Prop46
 90
       50
102
RTVSPost2010PropOp46
 70
     1
102
RTVSPost2010Prop47
 90
       50
102
RTVSPost2010PropOp47
 70
     1
102
RTVSPost2010Prop48
 90
       50
102
RTVSPost2010PropOp48
 70
     1
102
RTVSPost2010Prop49
280
     0
102
RTVSPost2010PropOp49
 70
     1
102
RTVSPost2010Prop50
 90
       50
102
RTVSPost2010PropOp50
 70
     1
102
RTVSPost2010Prop51ColorIndex
 90
      256
102
RTVSPost2010Prop51ColorRGB
 90
-16777216
102
RTVSPost2010PropOp51
 70
     0
102
RTVSPost2010Prop52
140
1.0
102
RTVSPost2010PropOp52
 70
     0
102
RTVSPost2010Prop53
 90
        2
102
RTVSPost2010PropOp53
 70
     1
102
RTVSPost2010Prop54
  1
strokes_ogs.tif
102
RTVSPost2010PropOp54
 70
     1
102
RTVSPost2010Prop55
280
     0
102
RTVSPost2010PropOp55
 70
     1
102
RTVSPost2010Prop56
140
1.0
102
RTVSPost2010PropOp56
 70
     1
102
RTVSPost2010Prop57
140
1.0
102
RTVSPost2010PropOp57
 70
     1
  0
XRECORD
  5
3F0
102
{ACAD_REACTORS
330
3EF
102
}
330
3EF
100
AcDbXrecord
280
     1
102
RTVSPropertyOp0
 70
     1
102
RTVSPropertyOp1
 70
     1
102
RTVSPropertyOp2
 70
     1
102
RTVSPropertyOp3
 70
     1
102
RTVSPropertyOp4
 70
     1
102
RTVSPropertyOp5
 70
     1
102
RTVSPropertyOp6
 70
     1
102
RTVSPropertyOp7
 70
     1
102
RTVSPropertyOp8
 70
     1
102
RTVSPropertyOp9
 70
     1
102
RTVSPropertyOp10
 70
     1
102
RTVSPropertyOp11
 70
     1
102
RTVSPropertyOp12
 70
     1
102
RTVSPropertyOp13
 70
     1
102
RTVSPropertyOp14
 70
     1
102
RTVSPropertyOp15
 70
     1
102
RTVSPropertyOp16
 70
     1
102
RTVSPropertyOp17
 70
     1
102
RTVSPropertyOp18
 70
     1
102
RTVSPropertyOp19
 70
     1
102
RTVSPropertyOp20
 70
     1
102
RTVSPropertyOp21
 70
     1
102
RTVSPropertyOp22
 70
     1
102
RTVSPropertyOp23
 70
     1
102
RTVSPropertyOp24
 70
     1
102
RTVSPropertyOp25
 70
     1
102
RTVSPropertyOp26
 70
     1
102
RTVSPropertyOp27
 70
     1
102
RTVSPropertyOp28
 70
     1
102
RTVSPropertyOp29
 70
     1
102
RTVSPropertyOp30
 70
     1
102
RTVSPropertyOp31
 70
     1
102
RTVSPropertyOp32
 70
     1
102
RTVSPropertyOp33
 70
     1
102
RTVSPropertyOp34
 70
     1
102
RTVSPropertyOp35
 70
     1
102
RTVSPropertyOp36
 70
     1
102
RTVSPropertyOp37
 70
     1
102
RTVSPropertyOp38
 70
     1
102
RTVSPropertyOp39
 70
     1
102
RTVSPropertyOp40
 70
     1
102
RTVSPropertyOp41
 70
     1
102
RTVSPropertyOp42
 70
     1
102
RTVSPropertyOp43
 70
     1
102
RTVSPropertyOp44
 70
     1
102
RTVSPropertyOp45
 70
     1
102
RTVSPropertyOp46
 70
     1
102
RTVSPropertyOp47
 70
     1
102
RTVSPropertyOp48
 70
     1
102
RTVSPropertyOp49
 70
     1
102
RTVSPropertyOp50
 70
     1
102
RTVSPropertyOp51
 70
     0
102
RTVSPropertyOp52
 70
     0
102
RTVSPropertyOp53
 70
     1
102
RTVSPropertyOp54
 70
     1
102
RTVSPropertyOp55
 70
     1
102
RTVSPropertyOp56
 70
     1
102
RTVSPropertyOp57
 70
     1
102
RTVSPost2010Prop28
280
     0
102
RTVSPost2010PropOp28
 70
     1
102
RTVSPost2010Prop29
280
     1
102
RTVSPost2010PropOp29
 70
     1
102
RTVSPost2010Prop30
280
     1
102
RTVSPost2010PropOp30
 70
     1
102
RTVSPost2010Prop31
280
     0
102
RTVSPost2010PropOp31
 70
     1
102
RTVSPost2010Prop32
280
     0
102
RTVSPost2010PropOp32
 70
     1
102
RTVSPost2010Prop33
280
     0
102
RTVSPost2010PropOp33
 70
     1
102
RTVSPost2010Prop34
280
     0
102
RTVSPost2010PropOp34
 70
     1
102
RTVSPost2010Prop35
280
     0
102
RTVSPost2010PropOp35
 70
     1
102
RTVSPost2010Prop36
280
     0
102
RTVSPost2010PropOp36
 70
     1
102
RTVSPost2010Prop37
 90
       50
102
RTVSPost2010PropOp37
 70
     1
102
RTVSPost2010Prop38
140
0.0
102
RTVSPost2010PropOp38
 70
     1
102
RTVSPost2010Prop39
140
1.0
102
RTVSPost2010PropOp39
 70
     1
102
RTVSPost2010Prop40
 90
        0
102
RTVSPost2010PropOp40
 70
     1
102
RTVSPost2010Prop41ColorIndex
 90
       18
102
RTVSPost2010Prop41ColorRGB
 90
        0
102
RTVSPost2010PropOp41
 70
     1
102
RTVSPost2010Prop42
 90
       50
102
RTVSPost2010PropOp42
 70
     1
102
RTVSPost2010Prop43
 90
        3
102
RTVSPost2010PropOp43
 70
     1
102
RTVSPost2010Prop44ColorIndex
 90
        5
102
RTVSPost2010Prop44ColorRGB
 90
      255
102
RTVSPost2010PropOp44
 70
     1
102
RTVSPost2010Prop45
280
     0
102
RTVSPost2010PropOp45
 70
     1
102
RTVSPost2010Prop46
 90
       50
102
RTVSPost2010PropOp46
 70
     1
102
RTVSPost2010Prop47
 90
       50
102
RTVSPost2010PropOp47
 70
     1
102
RTVSPost2010Prop48
 90
       50
102
RTVSPost2010PropOp48
 70
     1
102
RTVSPost2010Prop49
280
     0
102
RTVSPost2010PropOp49
 70
     1
102
RTVSPost2010Prop50
 90
       50
102
RTVSPost2010PropOp50
 70
     1
102
RTVSPost2010Prop51ColorIndex
 90
      256
102
RTVSPost2010Prop51ColorRGB
 90
-16777216
102
RTVSPost2010PropOp51
 70
     0
102
RTVSPost2010Prop52
140
1.0
102
RTVSPost2010PropOp52
 70
     0
102
RTVSPost2010Prop53
 90
        2
102
RTVSPost2010PropOp53
 70
     1
102
RTVSPost2010Prop54
  1
strokes_ogs.tif
102
RTVSPost2010PropOp54
 70
     1
102
RTVSPost2010Prop55
280
     0
102
RTVSPost2010PropOp55
 70
     1
102
RTVSPost2010Prop56
140
1.0
102
RTVSPost2010PropOp56
 70
     1
102
RTVSPost2010Prop57
140
1.0
102
RTVSPost2010PropOp57
 70
     1
  0
XRECORD
  5
410
102
{ACAD_REACTORS
330
40F
102
}
330
40F
100
AcDbXrecord
280
     1
102
RTVSPropertyOp0
 70
     1
102
RTVSPropertyOp1
 70
     1
102
RTVSPropertyOp2
 70
     1
102
RTVSPropertyOp3
 70
     1
102
RTVSPropertyOp4
 70
     1
102
RTVSPropertyOp5
 70
     1
102
RTVSPropertyOp6
 70
     1
102
RTVSPropertyOp7
 70
     1
102
RTVSPropertyOp8
 70
     1
102
RTVSPropertyOp9
 70
     1
102
RTVSPropertyOp10
 70
     1
102
RTVSPropertyOp11
 70
     1
102
RTVSPropertyOp12
 70
     1
102
RTVSPropertyOp13
 70
     1
102
RTVSPropertyOp14
 70
     1
102
RTVSPropertyOp15
 70
     1
102
RTVSPropertyOp16
 70
     1
102
RTVSPropertyOp17
 70
     1
102
RTVSPropertyOp18
 70
     1
102
RTVSPropertyOp19
 70
     1
102
RTVSPropertyOp20
 70
     1
102
RTVSPropertyOp21
 70
     1
102
RTVSPropertyOp22
 70
     1
102
RTVSPropertyOp23
 70
     1
102
RTVSPropertyOp24
 70
     1
102
RTVSPropertyOp25
 70
     1
102
RTVSPropertyOp26
 70
     1
102
RTVSPropertyOp27
 70
     1
102
RTVSPropertyOp28
 70
     1
102
RTVSPropertyOp29
 70
     1
102
RTVSPropertyOp30
 70
     1
102
RTVSPropertyOp31
 70
     1
102
RTVSPropertyOp32
 70
     1
102
RTVSPropertyOp33
 70
     1
102
RTVSPropertyOp34
 70
     1
102
RTVSPropertyOp35
 70
     1
102
RTVSPropertyOp36
 70
     1
102
RTVSPropertyOp37
 70
     1
102
RTVSPropertyOp38
 70
     1
102
RTVSPropertyOp39
 70
     1
102
RTVSPropertyOp40
 70
     1
102
RTVSPropertyOp41
 70
     1
102
RTVSPropertyOp42
 70
     1
102
RTVSPropertyOp43
 70
     1
102
RTVSPropertyOp44
 70
     1
102
RTVSPropertyOp45
 70
     1
102
RTVSPropertyOp46
 70
     1
102
RTVSPropertyOp47
 70
     1
102
RTVSPropertyOp48
 70
     1
102
RTVSPropertyOp49
 70
     1
102
RTVSPropertyOp50
 70
     1
102
RTVSPropertyOp51
 70
     0
102
RTVSPropertyOp52
 70
     0
102
RTVSPropertyOp53
 70
     1
102
RTVSPropertyOp54
 70
     1
102
RTVSPropertyOp55
 70
     1
102
RTVSPropertyOp56
 70
     1
102
RTVSPropertyOp57
 70
     1
102
RTVSPost2010Prop28
280
     0
102
RTVSPost2010PropOp28
 70
     1
102
RTVSPost2010Prop29
280
     1
102
RTVSPost2010PropOp29
 70
     1
102
RTVSPost2010Prop30
280
     1
102
RTVSPost2010PropOp30
 70
     1
102
RTVSPost2010Prop31
280
     0
102
RTVSPost2010PropOp31
 70
     1
102
RTVSPost2010Prop32
280
     0
102
RTVSPost2010PropOp32
 70
     1
102
RTVSPost2010Prop33
280
     0
102
RTVSPost2010PropOp33
 70
     1
102
RTVSPost2010Prop34
280
     0
102
RTVSPost2010PropOp34
 70
     1
102
RTVSPost2010Prop35
280
     0
102
RTVSPost2010PropOp35
 70
     1
102
RTVSPost2010Prop36
280
     0
102
RTVSPost2010PropOp36
 70
     1
102
RTVSPost2010Prop37
 90
       50
102
RTVSPost2010PropOp37
 70
     1
102
RTVSPost2010Prop38
140
0.0
102
RTVSPost2010PropOp38
 70
     1
102
RTVSPost2010Prop39
140
1.0
102
RTVSPost2010PropOp39
 70
     1
102
RTVSPost2010Prop40
 90
        0
102
RTVSPost2010PropOp40
 70
     1
102
RTVSPost2010Prop41ColorIndex
 90
       18
102
RTVSPost2010Prop41ColorRGB
 90
        0
102
RTVSPost2010PropOp41
 70
     1
102
RTVSPost2010Prop42
 90
       50
102
RTVSPost2010PropOp42
 70
     1
102
RTVSPost2010Prop43
 90
        3
102
RTVSPost2010PropOp43
 70
     1
102
RTVSPost2010Prop44ColorIndex
 90
        5
102
RTVSPost2010Prop44ColorRGB
 90
      255
102
RTVSPost2010PropOp44
 70
     1
102
RTVSPost2010Prop45
280
     0
102
RTVSPost2010PropOp45
 70
     1
102
RTVSPost2010Prop46
 90
       50
102
RTVSPost2010PropOp46
 70
     1
102
RTVSPost2010Prop47
 90
       50
102
RTVSPost2010PropOp47
 70
     1
102
RTVSPost2010Prop48
 90
       50
102
RTVSPost2010PropOp48
 70
     1
102
RTVSPost2010Prop49
280
     0
102
RTVSPost2010PropOp49
 70
     1
102
RTVSPost2010Prop50
 90
       50
102
RTVSPost2010PropOp50
 70
     1
102
RTVSPost2010Prop51ColorIndex
 90
      256
102
RTVSPost2010Prop51ColorRGB
 90
-16777216
102
RTVSPost2010PropOp51
 70
     0
102
RTVSPost2010Prop52
140
1.0
102
RTVSPost2010PropOp52
 70
     0
102
RTVSPost2010Prop53
 90
        2
102
RTVSPost2010PropOp53
 70
     1
102
RTVSPost2010Prop54
  1
strokes_ogs.tif
102
RTVSPost2010PropOp54
 70
     1
102
RTVSPost2010Prop55
280
     0
102
RTVSPost2010PropOp55
 70
     1
102
RTVSPost2010Prop56
140
1.0
102
RTVSPost2010PropOp56
 70
     1
102
RTVSPost2010Prop57
140
1.0
102
RTVSPost2010PropOp57
 70
     1
  0
ENDSEC
  0
EOF
