  0
SECTION
  2
HEADER
  9
$ACADVER
  1
AC1018
  9
$ACADMAINTVER
 70
     0
  9
$DWGCODEPAGE
  3
ANSI_932
  9
$INSBASE
 10
0.0
 20
0.0
 30
0.0
  9
$EXTMIN
 10
-630.0
 20
-445.5
 30
0.0
  9
$EXTMAX
 10
630.0
 20
445.5
 30
0.0
  9
$LIMMIN
 10
-630.0
 20
-445.5
  9
$LIMMAX
 10
630.0
 20
445.5
  9
$ORTHOMODE
 70
     0
  9
$REGENMODE
 70
     1
  9
$FILLMODE
 70
     1
  9
$QTEXTMODE
 70
     0
  9
$MIRRTEXT
 70
     1
  9
$LTSCALE
 40
3.0
  9
$ATTMODE
 70
     1
  9
$TEXTSIZE
 40
2.5
  9
$TRACEWID
 40
1.0
  9
$TEXTSTYLE
  7
Standard
  9
$CLAYER
  8
0
  9
$CELTYPE
  6
ByLayer
  9
$CECOLOR
 62
   256
  9
$CELTSCALE
 40
1.0
  9
$DISPSILH
 70
     0
  9
$DIMSCALE
 40
1.0
  9
$DIMASZ
 40
2.5
  9
$DIMEXO
 40
0.625
  9
$DIMDLI
 40
3.75
  9
$DIMRND
 40
0.0
  9
$DIMDLE
 40
0.0
  9
$DIMEXE
 40
1.25
  9
$DIMTP
 40
0.0
  9
$DIMTM
 40
0.0
  9
$DIMTXT
 40
2.5
  9
$DIMCEN
 40
2.5
  9
$DIMTSZ
 40
0.0
  9
$DIMTOL
 70
     0
  9
$DIMLIM
 70
     0
  9
$DIMTIH
 70
     0
  9
$DIMTOH
 70
     0
  9
$DIMSE1
 70
     0
  9
$DIMSE2
 70
     0
  9
$DIMTAD
 70
     1
  9
$DIMZIN
 70
     8
  9
$DIMBLK
  1

  9
$DIMASO
 70
     1
  9
$DIMSHO
 70
     1
  9
$DIMPOST
  1

  9
$DIMAPOST
  1

  9
$DIMALT
 70
     0
  9
$DIMALTD
 70
     3
  9
$DIMALTF
 40
0.03937007874016
  9
$DIMLFAC
 40
1.0
  9
$DIMTOFL
 70
     1
  9
$DIMTVP
 40
0.0
  9
$DIMTIX
 70
     0
  9
$DIMSOXD
 70
     0
  9
$DIMSAH
 70
     0
  9
$DIMBLK1
  1

  9
$DIMBLK2
  1

  9
$DIMSTYLE
  2
ISO-25
  9
$DIMCLRD
 70
     0
  9
$DIMCLRE
 70
     0
  9
$DIMCLRT
 70
     0
  9
$DIMTFAC
 40
1.0
  9
$DIMGAP
 40
0.625
  9
$DIMJUST
 70
     0
  9
$DIMSD1
 70
     0
  9
$DIMSD2
 70
     0
  9
$DIMTOLJ
 70
     0
  9
$DIMTZIN
 70
     8
  9
$DIMALTZ
 70
     0
  9
$DIMALTTZ
 70
     0
  9
$DIMUPT
 70
     0
  9
$DIMDEC
 70
     2
  9
$DIMTDEC
 70
     2
  9
$DIMALTU
 70
     2
  9
$DIMALTTD
 70
     3
  9
$DIMTXSTY
  7
Standard
  9
$DIMAUNIT
 70
     0
  9
$DIMADEC
 70
     0
  9
$DIMALTRND
 40
0.0
  9
$DIMAZIN
 70
     0
  9
$DIMDSEP
 70
    44
  9
$DIMATFIT
 70
     3
  9
$DIMFRAC
 70
     0
  9
$DIMLDRBLK
  1

  9
$DIMLUNIT
 70
     2
  9
$DIMLWD
 70
    -2
  9
$DIMLWE
 70
    -2
  9
$DIMTMOVE
 70
     0
  9
$LUNITS
 70
     2
  9
$LUPREC
 70
     4
  9
$SKETCHINC
 40
1.0
  9
$FILLETRAD
 40
10.0
  9
$AUNITS
 70
     0
  9
$AUPREC
 70
     0
  9
$MENU
  1
.
  9
$ELEVATION
 40
0.0
  9
$PELEVATION
 40
0.0
  9
$THICKNESS
 40
0.0
  9
$LIMCHECK
 70
     0
  9
$CHAMFERA
 40
0.0
  9
$CHAMFERB
 40
0.0
  9
$CHAMFERC
 40
0.0
  9
$CHAMFERD
 40
0.0
  9
$SKPOLY
 70
     0
  9
$TDCREATE
 40
2460040.382037697
  9
$TDUCREATE
 40
2460040.007037697
  9
$TDUPDATE
 40
2460040.382037871
  9
$TDUUPDATE
 40
2460040.007037871
  9
$TDINDWG
 40
0.0000000116
  9
$TDUSRTIMER
 40
0.0000000116
  9
$USRTIMER
 70
     1
  9
$ANGBASE
 50
0.0
  9
$ANGDIR
 70
     0
  9
$PDMODE
 70
     0
  9
$PDSIZE
 40
0.0
  9
$PLINEWID
 40
0.0
  9
$SPLFRAME
 70
     0
  9
$SPLINETYPE
 70
     6
  9
$SPLINESEGS
 70
     8
  9
$HANDSEED
  5
427
  9
$SURFTAB1
 70
     6
  9
$SURFTAB2
 70
     6
  9
$SURFTYPE
 70
     6
  9
$SURFU
 70
     6
  9
$SURFV
 70
     6
  9
$UCSBASE
  2

  9
$UCSNAME
  2

  9
$UCSORG
 10
0.0
 20
0.0
 30
0.0
  9
$UCSXDIR
 10
1.0
 20
0.0
 30
0.0
  9
$UCSYDIR
 10
0.0
 20
1.0
 30
0.0
  9
$UCSORTHOREF
  2

  9
$UCSORTHOVIEW
 70
     0
  9
$UCSORGTOP
 10
0.0
 20
0.0
 30
0.0
  9
$UCSORGBOTTOM
 10
0.0
 20
0.0
 30
0.0
  9
$UCSORGLEFT
 10
0.0
 20
0.0
 30
0.0
  9
$UCSORGRIGHT
 10
0.0
 20
0.0
 30
0.0
  9
$UCSORGFRONT
 10
0.0
 20
0.0
 30
0.0
  9
$UCSORGBACK
 10
0.0
 20
0.0
 30
0.0
  9
$PUCSBASE
  2

  9
$PUCSNAME
  2

  9
$PUCSORG
 10
0.0
 20
0.0
 30
0.0
  9
$PUCSXDIR
 10
1.0
 20
0.0
 30
0.0
  9
$PUCSYDIR
 10
0.0
 20
1.0
 30
0.0
  9
$PUCSORTHOREF
  2

  9
$PUCSORTHOVIEW
 70
     0
  9
$PUCSORGTOP
 10
0.0
 20
0.0
 30
0.0
  9
$PUCSORGBOTTOM
 10
0.0
 20
0.0
 30
0.0
  9
$PUCSORGLEFT
 10
0.0
 20
0.0
 30
0.0
  9
$PUCSORGRIGHT
 10
0.0
 20
0.0
 30
0.0
  9
$PUCSORGFRONT
 10
0.0
 20
0.0
 30
0.0
  9
$PUCSORGBACK
 10
0.0
 20
0.0
 30
0.0
  9
$USERI1
 70
     0
  9
$USERI2
 70
     0
  9
$USERI3
 70
     0
  9
$USERI4
 70
     0
  9
$USERI5
 70
     0
  9
$USERR1
 40
0.0
  9
$USERR2
 40
0.0
  9
$USERR3
 40
0.0
  9
$USERR4
 40
0.0
  9
$USERR5
 40
0.0
  9
$WORLDVIEW
 70
     1
  9
$SHADEDGE
 70
     3
  9
$SHADEDIF
 70
    70
  9
$TILEMODE
 70
     1
  9
$MAXACTVP
 70
    64
  9
$PINSBASE
 10
0.0
 20
0.0
 30
0.0
  9
$PLIMCHECK
 70
     0
  9
$PEXTMIN
 10
1.000000000000000E+20
 20
1.000000000000000E+20
 30
1.000000000000000E+20
  9
$PEXTMAX
 10
-1.000000000000000E+20
 20
-1.000000000000000E+20
 30
-1.000000000000000E+20
  9
$PLIMMIN
 10
0.0
 20
0.0
  9
$PLIMMAX
 10
420.0
 20
297.0
  9
$UNITMODE
 70
     0
  9
$VISRETAIN
 70
     1
  9
$PLINEGEN
 70
     0
  9
$PSLTSCALE
 70
     1
  9
$TREEDEPTH
 70
  3020
  9
$CMLSTYLE
  2
Standard
  9
$CMLJUST
 70
     0
  9
$CMLSCALE
 40
20.0
  9
$PROXYGRAPHICS
 70
     1
  9
$MEASUREMENT
 70
     1
  9
$CELWEIGHT
370
    -1
  9
$ENDCAPS
280
     0
  9
$JOINSTYLE
280
     0
  9
$LWDISPLAY
290
     0
  9
$INSUNITS
 70
     4
  9
$HYPERLINKBASE
  1

  9
$STYLESHEET
  1

  9
$XEDIT
290
     1
  9
$CEPSNTYPE
380
     0
  9
$PSTYLEMODE
290
     1
  9
$FINGERPRINTGUID
  2
{7034252E-9EFF-4CA4-93C5-60FF5F299C45}
  9
$VERSIONGUID
  2
{FAEB1C32-E019-11D5-929B-00C0DF256EC4}
  9
$EXTNAMES
290
     1
  9
$PSVPSCALE
 40
0.0
  9
$OLESTARTUP
290
     0
  9
$SORTENTS
280
   127
  9
$INDEXCTL
280
     0
  9
$HIDETEXT
280
     1
  9
$XCLIPFRAME
290
     0
  9
$HALOGAP
280
     0
  9
$OBSCOLOR
 70
   257
  9
$OBSLTYPE
280
     0
  9
$INTERSECTIONDISPLAY
280
     0
  9
$INTERSECTIONCOLOR
 70
   257
  9
$DIMASSOC
280
     2
  9
$PROJECTNAME
  1

  0
ENDSEC
  0
SECTION
  2
CLASSES
  0
CLASS
  1
ACDBDICTIONARYWDFLT
  2
AcDbDictionaryWithDefault
  3
ObjectDBX Classes
 90
        0
 91
        4
280
     0
281
     0
  0
CLASS
  1
VISUALSTYLE
  2
AcDbVisualStyle
  3
ObjectDBX Classes
 90
     4095
 91
        4
280
     0
281
     0
  0
CLASS
  1
MATERIAL
  2
AcDbMaterial
  3
ObjectDBX Classes
 90
     1153
 91
        4
280
     0
281
     0
  0
CLASS
  1
SCALE
  2
AcDbScale
  3
ObjectDBX Classes
 90
     1153
 91
        4
280
     0
281
     0
  0
CLASS
  1
TABLESTYLE
  2
AcDbTableStyle
  3
ObjectDBX Classes
 90
     4095
 91
        4
280
     0
281
     0
  0
CLASS
  1
MLEADERSTYLE
  2
AcDbMLeaderStyle
  3
ACDB_MLEADERSTYLE_CLASS
 90
     4095
 91
        4
280
     0
281
     0
  0
CLASS
  1
SUN
  2
AcDbSun
  3
SCENEOE
 90
     1153
 91
        4
280
     0
281
     0
  0
CLASS
  1
DICTIONARYVAR
  2
AcDbDictionaryVar
  3
ObjectDBX Classes
 90
        0
 91
        4
280
     0
281
     0
  0
CLASS
  1
CELLSTYLEMAP
  2
AcDbCellStyleMap
  3
ObjectDBX Classes
 90
     1152
 91
        4
280
     0
281
     0
  0
ENDSEC
  0
SECTION
  2
TABLES
  0
TABLE
  2
VPORT
  5
8
102
{ACAD_XDICTIONARY
360
3DE
102
}
330
0
100
AcDbSymbolTable
 70
     1
  0
VPORT
  5
29
330
8
100
AcDbSymbolTableRecord
100
AcDbViewportTableRecord
  2
*Active
 70
     0
 10
0.0
 20
0.0
 11
1.0
 21
1.0
 12
0.0
 22
0.0
 13
0.0
 23
0.0
 14
10.0
 24
10.0
 15
10.0
 25
10.0
 16
0.0
 26
0.0
 36
1.0
 17
0.0
 27
0.0
 37
0.0
 40
980.1
 41
1.414141414141414
 42
50.0
 43
0.0
 44
0.0
 50
0.0
 51
0.0
 71
     0
 72
 10000
 73
     1
 74
     3
 75
     0
 76
     0
 77
     0
 78
     0
281
     0
 65
     1
110
0.0
120
0.0
130
0.0
111
1.0
121
0.0
131
0.0
112
0.0
122
1.0
132
0.0
 79
     0
146
0.0
  0
ENDTAB
  0
TABLE
  2
LTYPE
  5
5
330
0
100
AcDbSymbolTable
 70
     4
  0
LTYPE
  5
14
330
5
100
AcDbSymbolTableRecord
100
AcDbLinetypeTableRecord
  2
ByBlock
 70
     0
  3

 72
    65
 73
     0
 40
0.0
  0
LTYPE
  5
15
330
5
100
AcDbSymbolTableRecord
100
AcDbLinetypeTableRecord
  2
ByLayer
 70
     0
  3

 72
    65
 73
     0
 40
0.0
  0
LTYPE
  5
16
330
5
100
AcDbSymbolTableRecord
100
AcDbLinetypeTableRecord
  2
Continuous
 70
     0
  3
Solid line
 72
    65
 73
     0
 40
0.0
  0
LTYPE
  5
6F
330
5
100
AcDbSymbolTableRecord
100
AcDbLinetypeTableRecord
  2
JWW_HOJO
 70
     0
  3
  -   -   -   -   -   -   -   - 
 72
    65
 73
     2
 40
1.693333333333333
 49
-1.27
 74
     0
 49
0.4233333333333333
 74
     0
  0
LTYPE
  5
70
330
5
100
AcDbSymbolTableRecord
100
AcDbLinetypeTableRecord
  2
JWW_CENTER1
 70
     0
  3
-----  --  ----------  --  -----
 72
    65
 73
     4
 40
6.773333333333333
 49
4.233333333333333
 74
     0
 49
-0.8466666666666667
 74
     0
 49
0.8466666666666667
 74
     0
 49
-0.8466666666666667
 74
     0
  0
LTYPE
  5
71
330
5
100
AcDbSymbolTableRecord
100
AcDbLinetypeTableRecord
  2
JWW_DASHED2
 70
     0
  3
--    ----    ----    ----    --
 72
    65
 73
     2
 40
3.386666666666667
 49
1.693333333333333
 74
     0
 49
-1.693333333333333
 74
     0
  0
ENDTAB
  0
TABLE
  2
LAYER
  5
2
330
0
100
AcDbSymbolTable
 70
     9
  0
LAYER
  5
10
330
2
100
AcDbSymbolTableRecord
100
AcDbLayerTableRecord
  2
0
 70
     0
 62
     7
  6
Continuous
370
    -3
390
F
  0
LAYER
  5
72
330
2
100
AcDbSymbolTableRecord
100
AcDbLayerTableRecord
  2
E-4
 70
     0
 62
     7
  6
Continuous
370
    -3
390
F
  0
LAYER
  5
73
330
2
100
AcDbSymbolTableRecord
100
AcDbLayerTableRecord
  2
E-1
 70
     0
 62
     7
  6
Continuous
370
    -3
390
F
  0
LAYER
  5
74
330
2
100
AcDbSymbolTableRecord
100
AcDbLayerTableRecord
  2
E-0
 70
     0
 62
     7
  6
Continuous
370
    -3
390
F
  0
LAYER
  5
75
330
2
100
AcDbSymbolTableRecord
100
AcDbLayerTableRecord
  2
E-A
 70
     0
 62
     7
  6
Continuous
370
    -3
390
F
  0
LAYER
  5
76
330
2
100
AcDbSymbolTableRecord
100
AcDbLayerTableRecord
  2
E-2
 70
     0
 62
     7
  6
Continuous
370
    -3
390
F
  0
LAYER
  5
77
330
2
100
AcDbSymbolTableRecord
100
AcDbLayerTableRecord
  2
E-5
 70
     0
 62
     7
  6
Continuous
370
    -3
390
F
  0
LAYER
  5
78
330
2
100
AcDbSymbolTableRecord
100
AcDbLayerTableRecord
  2
E-F
 70
     0
 62
     7
  6
Continuous
370
    -3
390
F
  0
LAYER
  5
79
330
2
100
AcDbSymbolTableRecord
100
AcDbLayerTableRecord
  2
F-5ﾚｲﾔ
 70
     0
 62
     7
  6
Continuous
370
    -3
390
F
  0
ENDTAB
  0
TABLE
  2
STYLE
  5
3
330
0
100
AcDbSymbolTable
 70
     2
  0
STYLE
  5
11
330
3
100
AcDbSymbolTableRecord
100
AcDbTextStyleTableRecord
  2
Standard
 70
     0
 40
0.0
 41
1.0
 50
0.0
 71
     0
 42
2.5
  3
txt
  4

  0
STYLE
  5
6E
330
3
100
AcDbSymbolTableRecord
100
AcDbTextStyleTableRecord
  2
ＭＳ ゴシック
 70
     0
 40
1.0
 41
1.0
 50
0.0
 71
     0
 42
2.5
  3

  4

1001
ACAD
1000
MS Gothic
1071
    32817
  0
ENDTAB
  0
TABLE
  2
VIEW
  5
6
330
0
100
AcDbSymbolTable
 70
     0
  0
ENDTAB
  0
TABLE
  2
UCS
  5
7
330
0
100
AcDbSymbolTable
 70
     0
  0
ENDTAB
  0
TABLE
  2
APPID
  5
9
330
0
100
AcDbSymbolTable
 70
     2
  0
APPID
  5
12
330
9
100
AcDbSymbolTableRecord
100
AcDbRegAppTableRecord
  2
ACAD
 70
     0
  0
APPID
  5
41D
330
9
100
AcDbSymbolTableRecord
100
AcDbRegAppTableRecord
  2
ACAD_MLEADERVER
 70
     0
  0
ENDTAB
  0
TABLE
  2
DIMSTYLE
  5
A
330
0
100
AcDbSymbolTable
 70
     1
100
AcDbDimStyleTable
  0
DIMSTYLE
105
27
330
A
100
AcDbSymbolTableRecord
100
AcDbDimStyleTableRecord
  2
ISO-25
 70
     0
 41
2.5
 42
0.625
 43
3.75
 44
1.25
 73
     0
 74
     0
 77
     1
 78
     8
140
2.5
141
2.5
143
0.03937007874016
147
0.625
171
     3
172
     1
178
     0
271
     2
272
     2
274
     3
278
    44
283
     0
284
     8
340
11
  0
ENDTAB
  0
TABLE
  2
BLOCK_RECORD
  5
1
330
0
100
AcDbSymbolTable
 70
     1
  0
BLOCK_RECORD
  5
1F
330
1
100
AcDbSymbolTableRecord
100
AcDbBlockTableRecord
  2
*Model_Space
340
22
  0
BLOCK_RECORD
  5
1B
330
1
100
AcDbSymbolTableRecord
100
AcDbBlockTableRecord
  2
*Paper_Space
340
1E
  0
BLOCK_RECORD
  5
23
330
1
100
AcDbSymbolTableRecord
100
AcDbBlockTableRecord
  2
*Paper_Space0
340
26
  0
ENDTAB
  0
ENDSEC
  0
SECTION
  2
BLOCKS
  0
BLOCK
  5
20
330
1F
100
AcDbEntity
  8
0
100
AcDbBlockBegin
  2
*Model_Space
 70
     0
 10
0.0
 20
0.0
 30
0.0
  3
*Model_Space
  1

  0
ENDBLK
  5
21
330
1F
100
AcDbEntity
  8
0
100
AcDbBlockEnd
  0
BLOCK
  5
1C
330
1B
100
AcDbEntity
 67
     1
  8
0
100
AcDbBlockBegin
  2
*Paper_Space
 70
     0
 10
0.0
 20
0.0
 30
0.0
  3
*Paper_Space
  1

  0
ENDBLK
  5
1D
330
1B
100
AcDbEntity
 67
     1
  8
0
100
AcDbBlockEnd
  0
BLOCK
  5
24
330
23
100
AcDbEntity
  8
0
100
AcDbBlockBegin
  2
*Paper_Space0
 70
     0
 10
0.0
 20
0.0
 30
0.0
  3
*Paper_Space0
  1

  0
ENDBLK
  5
25
330
23
100
AcDbEntity
  8
0
100
AcDbBlockEnd
  0
ENDSEC
  0
SECTION
  2
ENTITIES
  0
LINE
  5
7A
330
1F
100
AcDbEntity
  8
E-4
  6
Continuous
 62
     7
370
     9
100
AcDbLine
 10
-110.9323272160763
 20
-202.165545024583
 30
0.0
 11
-111.8030463291383
 21
-194.7162599430367
 31
0.0
  0
LINE
  5
7B
330
1F
100
AcDbEntity
  8
E-4
  6
Continuous
 62
     7
370
     9
100
AcDbLine
 10
-110.9323272160763
 20
-202.165545024583
 30
0.0
 11
-109.8453604433241
 21
-194.7447294875323
 31
0.0
  0
LINE
  5
7C
330
1F
100
AcDbEntity
  8
E-4
  6
Continuous
 62
     7
370
     9
100
AcDbLine
 10
-110.9425669352735
 20
-203.1711216145399
 30
0.0
 11
-111.6614100791752
 21
-210.6365931022938
 31
0.0
  0
LINE
  5
7D
330
1F
100
AcDbEntity
  8
E-4
  6
Continuous
 62
     7
370
     9
100
AcDbLine
 10
-110.9425669352735
 20
-203.1711216145399
 30
0.0
 11
-109.7047098913185
 21
-210.5682636260692
 31
0.0
  0
ARC
  5
7E
330
1F
100
AcDbEntity
  8
E-4
  6
Continuous
 62
     7
370
     9
100
AcDbCircle
 10
-61.56186075376439
 20
-202.165545024583
 30
0.0
 40
49.38070618150917
100
AcDbArc
 50
162.6105567371885
 51
199.2932521498636
  0
LINE
  5
7F
330
1F
100
AcDbEntity
  8
E-1
  6
Continuous
 62
     6
370
     9
100
AcDbLine
 10
-34.85391303379282
 20
-226.1961345516117
 30
0.0
 11
-54.91638563866951
 21
-206.1337610404924
 31
0.0
  0
LINE
  5
80
330
1F
100
AcDbEntity
  8
E-0
  6
JWW_HOJO
 62
     4
370
     9
100
AcDbLine
 10
-62.01561106954466
 20
-103.8422634270201
 30
0.0
 11
-63.33038704459904
 21
-103.8422634270201
 31
0.0
  0
LINE
  5
81
330
1F
100
AcDbEntity
  8
E-0
  6
Continuous
 62
     4
370
     9
100
AcDbLine
 10
-69.14575375277275
 20
-159.666186722089
 30
0.0
 11
-68.8708181224751
 21
-160.5590214775336
 31
0.0
  0
LINE
  5
82
330
1F
100
AcDbEntity
  8
E-0
  6
Continuous
 62
     4
370
     9
100
AcDbLine
 10
-67.17131063376792
 20
-243.9375991038834
 30
0.0
 11
-67.41106798013828
 21
-244.8462640870953
 31
0.0
  0
LINE
  5
83
330
1F
100
AcDbEntity
  8
E-0
  6
Continuous
 62
     4
370
     9
100
AcDbLine
 10
11.68755116425712
 20
-233.8423977809524
 30
0.0
 11
-52.56276025643399
 21
-233.8426702887856
 31
0.0
  0
LINE
  5
84
330
1F
100
AcDbEntity
  8
E-0
  6
JWW_HOJO
 62
     4
370
     9
100
AcDbLine
 10
-61.10756542231752
 20
-252.6598316426443
 30
0.0
 11
-62.56280679868627
 21
-253.1503952893512
 31
0.0
  0
LINE
  5
85
330
1F
100
AcDbEntity
  8
E-0
  6
JWW_HOJO
 62
     4
370
     9
100
AcDbLine
 10
-64.09836366554197
 20
-253.1816593698554
 30
0.0
 11
-62.56280679868627
 21
-253.1503952893512
 31
0.0
  0
LINE
  5
86
330
1F
100
AcDbEntity
  8
E-0
  6
JWW_HOJO
 62
     4
370
     9
100
AcDbLine
 10
1.044485229321083
 20
-240.8672285733536
 30
0.0
 11
2.095919543710181
 21
-240.8421578526958
 31
0.0
  0
LINE
  5
87
330
1F
100
AcDbEntity
  8
E-0
  6
JWW_HOJO
 62
     4
370
     9
100
AcDbLine
 10
2.095845223391962
 20
-240.8422321730139
 30
0.0
 11
2.901353605003578
 21
-240.166338426266
 31
0.0
  0
LINE
  5
88
330
1F
100
AcDbEntity
  8
E-0
  6
JWW_HOJO
 62
     4
370
     9
100
AcDbLine
 10
2.72870750592773
 20
-245.328330444093
 30
0.0
 11
3.780067499998609
 21
-245.3033092703138
 31
0.0
  0
LINE
  5
89
330
1F
100
AcDbEntity
  8
E-0
  6
JWW_HOJO
 62
     4
370
     9
100
AcDbLine
 10
4.585575881610225
 20
-244.6274155235659
 30
0.0
 11
3.780067499998609
 21
-245.3033092703138
 31
0.0
  0
LINE
  5
8A
330
1F
100
AcDbEntity
  8
E-0
  6
Continuous
 62
     4
370
     9
100
AcDbLine
 10
-62.56201404862594
 20
-155.9011689511966
 30
0.0
 11
-62.56141948608069
 21
-105.842173641713
 31
0.0
  0
LINE
  5
8B
330
1F
100
AcDbEntity
  8
E-0
  6
Continuous
 62
     4
370
     9
100
AcDbLine
 10
2.901378378442985
 20
-240.1662888793871
 30
0.0
 11
9.601330286745963
 21
-234.5443036390548
 31
0.0
  0
LINE
  5
8C
330
1F
100
AcDbEntity
  8
E-0
  6
JWW_HOJO
 62
     4
370
     9
100
AcDbLine
 10
9.60128073986732
 20
-234.544377959373
 30
0.0
 11
10.43780546758916
 21
-233.8423977809524
 31
0.0
  0
LINE
  5
8D
330
1F
100
AcDbEntity
  8
E-0
  6
JWW_HOJO
 62
     4
370
     9
100
AcDbLine
 10
-42.56276326106035
 20
-246.4080560262599
 30
0.0
 11
-40.28620804875226
 21
-246.3537526471274
 31
0.0
  0
LINE
  5
8E
330
1F
100
AcDbEntity
  8
E-0
  6
JWW_HOJO
 62
     4
370
     9
100
AcDbLine
 10
-42.56276326106035
 20
-246.4080560262599
 30
0.0
 11
-44.72067847215249
 21
-247.135528073808
 31
0.0
  0
LINE
  5
8F
330
1F
100
AcDbEntity
  8
E-0
  6
Continuous
 62
     4
370
     9
100
AcDbLine
 10
-71.19729181514458
 20
-247.824997665339
 30
0.0
 11
-73.16224670686489
 21
-247.8651306371431
 31
0.0
  0
LINE
  5
90
330
1F
100
AcDbEntity
  8
E-0
  6
JWW_HOJO
 62
     4
370
     9
100
AcDbLine
 10
-73.16224670686489
 20
-247.8651306371431
 30
0.0
 11
-76.17915615520133
 21
-247.9267421808943
 31
0.0
  0
LINE
  5
91
330
1F
100
AcDbEntity
  8
E-0
  6
JWW_HOJO
 62
     4
370
     9
100
AcDbLine
 10
-77.05482291715191
 20
-245.0812649331038
 30
0.0
 11
-76.17915615520133
 21
-247.9267421808943
 31
0.0
  0
LINE
  5
92
330
1F
100
AcDbEntity
  8
E-0
  6
Continuous
 62
     4
370
     9
100
AcDbLine
 10
-73.05009734676781
 20
-156.8439469604419
 30
0.0
 11
-75.0154981603971
 21
-156.8840303853672
 31
0.0
  0
LINE
  5
93
330
1F
100
AcDbEntity
  8
E-0
  6
Continuous
 62
     4
370
     9
100
AcDbLine
 10
11.23922623170228
 20
-239.0442750361896
 30
0.0
 11
4.585600655049632
 21
-244.6273907501265
 31
0.0
  0
LINE
  5
94
330
1F
100
AcDbEntity
  8
E-0
  6
JWW_HOJO
 62
     4
370
     9
100
AcDbLine
 10
12.0757014125453
 20
-238.3423691780872
 30
0.0
 11
11.23925100514151
 21
-239.0442502627502
 31
0.0
  0
LINE
  5
95
330
1F
100
AcDbEntity
  8
E-0
  6
JWW_HOJO
 62
     4
370
     9
100
AcDbLine
 10
12.0757014125453
 20
-238.3423691780872
 30
0.0
 11
13.1676155268899
 21
-238.3423691780872
 31
0.0
  0
LINE
  5
96
330
1F
100
AcDbEntity
  8
E-0
  6
Continuous
 62
     4
370
     9
100
AcDbLine
 10
-52.56285935019145
 20
-240.8424551339684
 30
0.0
 11
1.366688581965832
 21
-240.8422321730139
 31
0.0
  0
LINE
  5
97
330
1F
100
AcDbEntity
  8
E-0
  6
Continuous
 62
     4
370
     9
100
AcDbLine
 10
-52.56142249070706
 20
-233.8426702887856
 30
0.0
 11
-52.56142249070706
 21
-240.8424551339684
 31
0.0
  0
LINE
  5
98
330
1F
100
AcDbEntity
  8
E-0
  6
Continuous
 62
     4
370
     9
100
AcDbLine
 10
-64.56142879453108
 20
-103.8422634270201
 30
0.0
 11
-73.56137158880063
 21
-103.8422634270201
 31
0.0
  0
LINE
  5
99
330
1F
100
AcDbEntity
  8
E-0
  6
Continuous
 62
     4
370
     9
100
AcDbLine
 10
57.083243790739
 20
-238.3422453108902
 30
0.0
 11
13.1676155268899
 21
-238.3423691780872
 31
0.0
  0
LINE
  5
9A
330
1F
100
AcDbEntity
  8
E-0
  6
Continuous
 62
     4
370
     9
100
AcDbLine
 10
62.00267906354497
 20
-242.4480960608449
 30
0.0
 11
62.43782452634696
 21
-244.842201243036
 31
0.0
  0
LINE
  5
9B
330
1F
100
AcDbEntity
  8
E-0
  6
JWW_HOJO
 62
     4
370
     9
100
AcDbLine
 10
61.25640397550342
 20
-238.3422205374508
 30
0.0
 11
57.083243790739
 21
-238.3422453108902
 31
0.0
  0
LINE
  5
9C
330
1F
100
AcDbEntity
  8
E-0
  6
JWW_HOJO
 62
     4
370
     9
100
AcDbLine
 10
61.25640397550342
 20
-238.3422205374508
 30
0.0
 11
62.00267906354497
 21
-242.4480712874056
 31
0.0
  0
LINE
  5
9D
330
1F
100
AcDbEntity
  8
E-0
  6
Continuous
 62
     4
370
     9
100
AcDbLine
 10
-62.56290589244372
 20
-230.8423094979585
 30
0.0
 11
-62.56206359550475
 21
-159.5917673101757
 31
0.0
  0
LINE
  5
9E
330
1F
100
AcDbEntity
  8
E-0
  6
Continuous
 62
     4
370
     9
100
AcDbLine
 10
-89.5321390776117
 20
-153.132464592061
 30
0.0
 11
-97.53046694409608
 21
-153.2953747294584
 31
0.0
  0
LINE
  5
9F
330
1F
100
AcDbEntity
  8
E-0
  6
Continuous
 62
     4
370
     9
100
AcDbLine
 10
-89.5321390776117
 20
-153.132464592061
 30
0.0
 11
-89.56174333767711
 21
-151.6790316767674
 31
0.0
  0
LINE
  5
A0
330
1F
100
AcDbEntity
  8
E-0
  6
Continuous
 62
     4
370
     9
100
AcDbLine
 10
-87.4850602343293
 20
-253.6578791951581
 30
0.0
 11
-87.51466449439471
 21
-252.2044462798645
 31
0.0
  0
LINE
  5
A1
330
1F
100
AcDbEntity
  8
E-0
  6
Continuous
 62
     4
370
     9
100
AcDbLine
 10
-95.6264299398241
 20
-246.7947694150638
 30
0.0
 11
-76.73281775202241
 21
-245.8190675048755
 31
0.0
  0
LINE
  5
A2
330
1F
100
AcDbEntity
  8
E-0
  6
Continuous
 62
     4
370
     9
100
AcDbLine
 10
-97.4151713571971
 20
-158.960193246488
 30
0.0
 11
-78.5445489211449
 21
-159.1655650589917
 31
0.0
  0
LINE
  5
A3
330
1F
100
AcDbEntity
  8
E-0
  6
Continuous
 62
     4
370
     9
100
AcDbLine
 10
-77.27473673857486
 20
-244.3668237146724
 30
0.0
 11
-77.06681326181445
 21
-245.0424201801478
 31
0.0
  0
LINE
  5
A4
330
1F
100
AcDbEntity
  8
E-0
  6
Continuous
 62
     4
370
     9
100
AcDbLine
 10
-79.0062267375286
 20
-160.638717632036
 30
0.0
 11
-78.80172199540323
 21
-159.8632346589593
 31
0.0
  0
LINE
  5
A5
330
1F
100
AcDbEntity
  8
E-0
  6
Continuous
 62
     4
370
     9
100
AcDbLine
 10
-79.0062267375286
 20
-160.638717632036
 30
0.0
 11
-77.27473673857486
 21
-244.3668237146724
 31
0.0
  0
LINE
  5
A6
330
1F
100
AcDbEntity
  8
E-0
  6
Continuous
 62
     4
370
     9
100
AcDbLine
 10
-95.6264299398241
 20
-246.7947446416244
 30
0.0
 11
-94.13125377916629
 21
-245.2374366949884
 31
0.0
  0
LINE
  5
A7
330
1F
100
AcDbEntity
  8
E-0
  6
Continuous
 62
     4
370
     9
100
AcDbLine
 10
-94.13125377916629
 20
-245.2374366949884
 30
0.0
 11
-77.27292827749972
 21
-244.3667246209149
 31
0.0
  0
LINE
  5
A8
330
1F
100
AcDbEntity
  8
E-0
  6
Continuous
 62
     4
370
     9
100
AcDbLine
 10
-95.8575661292885
 20
-160.4555923681002
 30
0.0
 11
-79.00439350301406
 21
-160.6387424054753
 31
0.0
  0
LINE
  5
A9
330
1F
100
AcDbEntity
  8
E-0
  6
Continuous
 62
     4
370
     9
100
AcDbLine
 10
-97.4151713571971
 20
-158.9601684730486
 30
0.0
 11
-95.8575661292885
 21
-160.4555923681002
 31
0.0
  0
LINE
  5
AA
330
1F
100
AcDbEntity
  8
E-0
  6
Continuous
 62
     4
370
     9
100
AcDbLine
 10
4.295875281439066
 20
-244.842201243036
 30
0.0
 11
67.43784779747318
 21
-244.842201243036
 31
0.0
  0
LINE
  5
AB
330
1F
100
AcDbEntity
  8
E-0
  6
Continuous
 62
     4
370
     9
100
AcDbLine
 10
-62.56166722047459
 20
-114.3423370698244
 30
0.0
 11
-63.5616718746997
 21
-114.3423370698244
 31
0.0
  0
LINE
  5
AC
330
1F
100
AcDbEntity
  8
E-0
  6
Continuous
 62
     4
370
     9
100
AcDbLine
 10
-64.7163618844466
 20
-116.3423216048355
 30
0.0
 11
-73.56166887007333
 21
-116.3423216048355
 31
0.0
  0
LINE
  5
AD
330
1F
100
AcDbEntity
  8
E-0
  6
Continuous
 62
     4
370
     9
100
AcDbLine
 10
-64.7163618844466
 20
-121.3423448759617
 30
0.0
 11
-73.56169364351274
 21
-121.3423448759617
 31
0.0
  0
LINE
  5
AE
330
1F
100
AcDbEntity
  8
E-0
  6
Continuous
 62
     4
370
     9
100
AcDbLine
 10
-62.56176631423205
 20
-123.3423294109728
 30
0.0
 11
-63.5616718746997
 21
-123.3423294109728
 31
0.0
  0
LINE
  5
AF
330
1F
100
AcDbEntity
  8
E-0
  6
Continuous
 62
     4
370
     9
100
AcDbLine
 10
-64.7163618844466
 20
-121.3423448759617
 30
0.0
 11
-63.5616718746997
 21
-123.3423294109728
 31
0.0
  0
LINE
  5
B0
330
1F
100
AcDbEntity
  8
E-0
  6
Continuous
 62
     4
370
     9
100
AcDbLine
 10
-64.7163618844466
 20
-116.3423216048355
 30
0.0
 11
-63.5616718746997
 21
-114.3423370698244
 31
0.0
  0
LINE
  5
B1
330
1F
100
AcDbEntity
  8
E-0
  6
Continuous
 62
     4
370
     9
100
AcDbLine
 10
-95.51299236087891
 20
-252.3673316438226
 30
0.0
 11
-87.51466449439471
 21
-252.2044462798645
 31
0.0
  0
LINE
  5
B2
330
1F
100
AcDbEntity
  8
E-0
  6
Continuous
 62
     4
370
     9
100
AcDbLine
 10
-87.4850602343293
 20
-253.6578791951581
 30
0.0
 11
-64.09836366554197
 21
-253.1816593698554
 31
0.0
  0
LINE
  5
B3
330
1F
100
AcDbEntity
  8
E-0
  6
Continuous
 62
     4
370
     9
100
AcDbLine
 10
-44.72057937839486
 20
-247.1354785269292
 30
0.0
 11
-61.10741678168125
 21
-252.6597573223261
 31
0.0
  0
LINE
  5
B4
330
1F
100
AcDbEntity
  8
E-0
  6
Continuous
 62
     4
370
     9
100
AcDbLine
 10
-76.69412163970264
 20
-150.7264929324043
 30
0.0
 11
-69.66517845636332
 21
-149.1893010185492
 31
0.0
  0
LINE
  5
B5
330
1F
100
AcDbEntity
  8
E-0
  6
Continuous
 62
     4
370
     9
100
AcDbLine
 10
65.43788803590144
 20
-233.8422243668766
 30
0.0
 11
15.37948728896311
 21
-233.8423977809524
 31
0.0
  0
LINE
  5
B6
330
1F
100
AcDbEntity
  8
E-0
  6
Continuous
 62
     4
370
     9
100
AcDbLine
 10
67.43784779747318
 20
-235.8422089018878
 30
0.0
 11
67.43784779747318
 21
-244.842201243036
 31
0.0
  0
LINE
  5
B7
330
1F
100
AcDbEntity
  8
E-0
  6
Continuous
 62
     4
370
     9
100
AcDbLine
 10
-95.51299236087891
 20
-252.3673316438226
 30
0.0
 11
-95.62618220543021
 21
-246.8091627833466
 31
0.0
  0
LINE
  5
B8
330
1F
100
AcDbEntity
  8
E-0
  6
Continuous
 62
     4
370
     9
100
AcDbLine
 10
-97.41541909159082
 20
-158.9457503313264
 30
0.0
 11
-97.53046694409608
 21
-153.2953747294584
 31
0.0
  0
LINE
  5
B9
330
1F
100
AcDbEntity
  8
E-0
  6
Continuous
 62
     4
370
     9
100
AcDbLine
 10
12.54114479171557
 20
-234.6959418615319
 30
0.0
 11
11.68755116425712
 21
-233.8423977809524
 31
0.0
  0
LINE
  5
BA
330
1F
100
AcDbEntity
  8
E-0
  6
Continuous
 62
     4
370
     9
100
AcDbLine
 10
14.00565143441435
 20
-234.8424519820564
 30
0.0
 11
12.89466177174307
 21
-234.8424519820564
 31
0.0
  0
LINE
  5
BB
330
1F
100
AcDbEntity
  8
E-0
  6
Continuous
 62
     4
370
     9
100
AcDbLine
 10
15.37948728896311
 20
-233.8423977809524
 30
0.0
 11
14.327086810438
 21
-234.7254718012792
 31
0.0
  0
LINE
  5
BC
330
1F
100
AcDbEntity
  8
E-0
  6
Continuous
 62
     4
370
     9
100
AcDbLine
 10
-62.56151857983815
 20
-155.9005248417726
 30
0.0
 11
-63.44449350640753
 21
-156.9528757734188
 31
0.0
  0
LINE
  5
BD
330
1F
100
AcDbEntity
  8
E-0
  6
Continuous
 62
     4
370
     9
100
AcDbLine
 10
-63.4151122072966
 20
-158.7386443780656
 30
0.0
 11
-62.56151857983815
 21
-159.5923123258422
 31
0.0
  0
LINE
  5
BE
330
1F
100
AcDbEntity
  8
E-0
  6
Continuous
 62
     4
370
     9
100
AcDbLine
 10
-63.56152323406343
 20
-157.2744102432001
 30
0.0
 11
-63.56139936686657
 21
-158.385251265235
 31
0.0
  0
LINE
  5
BF
330
1F
100
AcDbEntity
  8
E-0
  6
Continuous
 62
     4
370
     9
100
AcDbLine
 10
-70.29935373118661
 20
-132.3402655566521
 30
0.0
 11
-73.56156977631588
 21
-128.8420329544996
 31
0.0
  0
LINE
  5
C0
330
1F
100
AcDbEntity
  8
E-0
  6
Continuous
 62
     4
370
     9
100
AcDbLine
 10
-67.0617129379275
 20
-133.2593106109664
 30
0.0
 11
-67.06186157856376
 21
-147.301515390514
 31
0.0
  0
LINE
  5
C1
330
1F
100
AcDbEntity
  8
E-0
  6
Continuous
 62
     4
370
     9
100
AcDbLine
 10
-63.5616718746997
 20
-114.3423370698244
 30
0.0
 11
-63.5616718746997
 21
-115.335033559431
 31
0.0
  0
LINE
  5
C2
330
1F
100
AcDbEntity
  8
E-0
  6
Continuous
 62
     4
370
     9
100
AcDbLine
 10
-63.5616718746997
 20
-122.3496329213662
 30
0.0
 11
-63.5616718746997
 21
-123.3423294109728
 31
0.0
  0
LINE
  5
C3
330
1F
100
AcDbEntity
  8
E-0
  6
Continuous
 62
     4
370
     9
100
AcDbLine
 10
-73.56152022943706
 20
-116.7923311312686
 30
0.0
 11
-73.56137158880063
 21
-103.8422634270201
 31
0.0
  0
LINE
  5
C4
330
1F
100
AcDbEntity
  8
E-0
  6
Continuous
 62
     4
370
     9
100
AcDbLine
 10
-73.56186705758842
 20
-150.0414825599626
 30
0.0
 11
-73.56156977631588
 21
-120.8923353495285
 31
0.0
  0
LINE
  5
C5
330
1F
100
AcDbEntity
  8
E-0
  6
JWW_HOJO
 62
     4
370
     9
100
AcDbLine
 10
-62.56141948608069
 20
-104.5259608071744
 30
0.0
 11
-62.56141948608069
 21
-103.6349840596836
 31
0.0
  0
LINE
  5
C6
330
1F
100
AcDbEntity
  8
E-0
  6
Continuous
 62
     4
370
     9
100
AcDbLine
 10
-40.28628236907048
 20
-246.3537526471274
 30
0.0
 11
2.728732279367136
 21
-245.328330444093
 31
0.0
  0
LINE
  5
C7
330
1F
100
AcDbEntity
  8
E-0
  6
JWW_CENTER1
 62
     4
370
     9
100
AcDbLine
 10
-57.74377827570873
 20
-202.0877784034921
 30
0.0
 11
-128.1489268444697
 21
-203.5217889423076
 31
0.0
  0
LINE
  5
C8
330
1F
100
AcDbEntity
  8
E-0
  6
JWW_CENTER1
 62
     4
370
     9
100
AcDbLine
 10
-61.06406326275697
 20
-118.8423332403986
 30
0.0
 11
-105.3693281812575
 21
-118.8423332403986
 31
0.0
  0
LINE
  5
C9
330
1F
100
AcDbEntity
  8
E-0
  6
Continuous
 62
     4
370
     9
100
AcDbLine
 10
-78.97361250457777
 20
-162.2157204629832
 30
0.0
 11
-62.56206359550475
 21
-161.8814276719185
 31
0.0
  0
LINE
  5
CA
330
1F
100
AcDbEntity
  8
E-0
  6
Continuous
 62
     4
370
     9
100
AcDbLine
 10
-77.30847816301758
 20
-242.7350096490853
 30
0.0
 11
1.044485229321083
 21
-240.8672285733536
 31
0.0
  0
LINE
  5
CB
330
1F
100
AcDbEntity
  8
E-0
  6
Continuous
 62
     4
370
     9
100
AcDbLine
 10
-70.98042512676591
 20
-151.3005926167183
 30
0.0
 11
-89.56174333767711
 21
-151.6790316767674
 31
0.0
  0
LINE
  5
CC
330
1F
100
AcDbEntity
  8
E-0
  6
Continuous
 62
     4
370
     9
100
AcDbLine
 10
-76.28528556952773
 20
-242.7106201980105
 30
0.0
 11
-77.92506429587723
 21
-162.1943657582331
 31
0.0
  0
LINE
  5
CD
330
1F
100
AcDbEntity
  8
E-0
  6
Continuous
 62
     4
370
     9
100
AcDbLine
 10
-68.28740362495233
 20
-242.5199638085016
 30
0.0
 11
-69.926612562196
 21
-162.0314556208357
 31
0.0
  0
LINE
  5
CE
330
1F
100
AcDbEntity
  8
E-0
  6
Continuous
 62
     4
370
     9
100
AcDbLine
 10
-66.7879168858417
 20
-242.4842157354686
 30
0.0
 11
-68.42675422149443
 21
-162.0008851966342
 31
0.0
  0
ARC
  5
CF
330
1F
100
AcDbEntity
  8
E-0
  6
Continuous
 62
     4
370
     9
100
AcDbCircle
 10
12.89466177174307
 20
-234.3424001080649
 30
0.0
 40
0.5000000046026752
100
AcDbArc
 50
225.0
 51
269.9989318847657
  0
ARC
  5
D0
330
1F
100
AcDbEntity
  8
E-0
  6
Continuous
 62
     4
370
     9
100
AcDbCircle
 10
14.00565143441435
 20
-234.3424001080649
 30
0.0
 40
0.5000000046026752
100
AcDbArc
 50
270.003189086914
 51
310.0010833740234
  0
ARC
  5
D1
330
1F
100
AcDbEntity
  8
E-0
  6
Continuous
 62
     4
370
     9
100
AcDbCircle
 10
-63.06164477414774
 20
-158.3852017183562
 30
0.0
 40
0.5000000046026752
100
AcDbArc
 50
180.0010681152344
 51
225.0
  0
ARC
  5
D2
330
1F
100
AcDbEntity
  8
E-0
  6
Continuous
 62
     4
370
     9
100
AcDbCircle
 10
-64.56142879453108
 20
-105.842173641713
 30
0.0
 40
2.000000018410701
100
AcDbArc
 50
0.0
 51
90.0
  0
ARC
  5
D3
330
1F
100
AcDbEntity
  8
E-0
  6
Continuous
 62
     4
370
     9
100
AcDbCircle
 10
65.43788803590144
 20
-235.8422089018878
 30
0.0
 40
2.000000018410701
100
AcDbArc
 50
0.0
 51
90.0
  0
ARC
  5
D4
330
1F
100
AcDbEntity
  8
E-0
  6
Continuous
 62
     4
370
     9
100
AcDbCircle
 10
0.972989083255186
 20
-237.8681560013745
 30
0.0
 40
3.000000027616052
100
AcDbArc
 50
271.3656005859375
 51
310.0001678466796
  0
ARC
  5
D5
330
1F
100
AcDbEntity
  8
E-0
  6
Continuous
 62
     4
370
     9
100
AcDbCircle
 10
2.65723613330124
 20
-242.3292578721139
 30
0.0
 40
3.000000027616052
100
AcDbArc
 50
271.3656005859375
 51
310.0001678466796
  0
ARC
  5
D6
330
1F
100
AcDbEntity
  8
E-0
  6
Continuous
 62
     4
370
     9
100
AcDbCircle
 10
-66.95939863326629
 20
-159.9705531983762
 30
0.0
 40
2.000000018410701
100
AcDbArc
 50
197.1123504638672
 51
271.1670227050781
  0
ARC
  5
D7
330
1F
100
AcDbEntity
  8
E-0
  6
Continuous
 62
     4
370
     9
100
AcDbCircle
 10
-74.93391922450144
 20
-160.8831571584503
 30
0.0
 40
4.000000036821402
100
AcDbArc
 50
91.16703796386719
 51
165.2211456298828
  0
ARC
  5
D8
330
1F
100
AcDbEntity
  8
E-0
  6
Continuous
 62
     4
370
     9
100
AcDbCircle
 10
-72.96864227806918
 20
-160.8431232804037
 30
0.0
 40
4.000000036821402
100
AcDbArc
 50
17.11235046386719
 51
91.16702270507812
  0
ARC
  5
D9
330
1F
100
AcDbEntity
  8
E-0
  6
Continuous
 62
     4
370
     9
100
AcDbCircle
 10
-73.24392473651801
 20
-243.8659047703025
 30
0.0
 40
4.000000036821402
100
AcDbArc
 50
197.1123504638672
 51
271.1662750244141
  0
ARC
  5
DA
330
1F
100
AcDbEntity
  8
E-0
  6
Continuous
 62
     4
370
     9
100
AcDbCircle
 10
-71.27869733696457
 20
-243.8258956656953
 30
0.0
 40
4.000000036821402
100
AcDbArc
 50
271.1662902832031
 51
345.2211456298828
  0
ARC
  5
DB
330
1F
100
AcDbEntity
  8
E-0
  6
Continuous
 62
     4
370
     9
100
AcDbCircle
 10
-65.2375455022335
 20
-244.4478080880228
 30
0.0
 40
2.000000018410701
100
AcDbArc
 50
91.36561584472656
 51
165.2229919433594
  0
ARC
  5
DC
330
1F
100
AcDbEntity
  8
E-0
  6
Continuous
 62
     4
370
     9
100
AcDbCircle
 10
13.1676155268899
 20
-241.3424079142022
 30
0.0
 40
3.000000027616052
100
AcDbArc
 50
90.0
 51
130.0001678466797
  0
ARC
  5
DD
330
1F
100
AcDbEntity
  8
E-0
  6
Continuous
 62
     4
370
     9
100
AcDbCircle
 10
-39.92880163874116
 20
-261.3494871086135
 30
0.0
 40
14.9999985897403
100
AcDbArc
 50
91.36558532714844
 51
108.6298828125
  0
ARC
  5
DE
330
1F
100
AcDbEntity
  8
E-0
  6
Continuous
 62
     4
370
     9
100
AcDbCircle
 10
-64.3020013372888
 20
-243.1836937965114
 30
0.0
 40
10.0000000920535
100
AcDbArc
 50
271.1666259765626
 51
288.6298828124999
  0
ARC
  5
DF
330
1F
100
AcDbEntity
  8
E-0
  6
Continuous
 62
     4
370
     9
100
AcDbCircle
 10
11.52969480849436
 20
-236.842411743628
 30
0.0
 40
3.000000027616052
100
AcDbArc
 50
90.00047302246094
 51
130.0001678466797
  0
ARC
  5
E0
330
1F
100
AcDbEntity
  8
E-0
  6
Continuous
 62
     4
370
     9
100
AcDbCircle
 10
-52.56290889707026
 20
-230.8424581385947
 30
0.0
 40
10.0000000920535
100
AcDbArc
 50
179.9992828369141
 51
270.0002899169922
  0
ARC
  5
E1
330
1F
100
AcDbEntity
  8
E-0
  6
Continuous
 62
     4
370
     9
100
AcDbCircle
 10
-52.56285935019145
 20
-223.8426237465332
 30
0.0
 40
9.999999317883525
100
AcDbArc
 50
179.9994049072266
 51
270.0003051757812
  0
ARC
  5
E2
330
1F
100
AcDbEntity
  8
E-0
  6
Continuous
 62
     4
370
     9
100
AcDbCircle
 10
57.08326856417841
 20
-243.342243808577
 30
0.0
 40
5.000000046026752
100
AcDbArc
 50
10.30143737792969
 51
90.00028991699217
  0
ARC
  5
E3
330
1F
100
AcDbEntity
  8
E-0
  6
Continuous
 62
     4
370
     9
100
AcDbCircle
 10
-70.06182599436079
 20
-146.2156459953794
 30
0.0
 40
3.000000027616052
100
AcDbArc
 50
277.5945587158203
 51
359.9995269775391
  0
ARC
  5
E4
330
1F
100
AcDbEntity
  8
E-0
  6
Continuous
 62
     4
370
     9
100
AcDbCircle
 10
-76.56198011402171
 20
-151.7177277890872
 30
0.0
 40
1.00000000920535
100
AcDbArc
 50
97.59474182128906
 51
163.50537109375
  0
ARC
  5
E5
330
1F
100
AcDbEntity
  8
E-0
  6
Continuous
 62
     4
370
     9
100
AcDbCircle
 10
-63.0613474928752
 20
-157.2743606963213
 30
0.0
 40
0.5000000046026752
100
AcDbArc
 50
139.9989166259766
 51
179.9968109130859
  0
ARC
  5
E6
330
1F
100
AcDbEntity
  8
E-0
  6
Continuous
 62
     4
370
     9
100
AcDbCircle
 10
-71.06188019546471
 20
-147.301515390514
 30
0.0
 40
4.000000036821402
100
AcDbArc
 50
271.1668701171876
 51
359.999252319336
  0
LINE
  5
E7
330
1F
100
AcDbEntity
  8
E-A
  6
Continuous
 62
     2
370
     9
100
AcDbLine
 10
-62.8822355261197
 20
-114.7423290221388
 30
0.0
 11
-65.2322439862051
 21
-116.7923311312686
 31
0.0
  0
LINE
  5
E8
330
1F
100
AcDbEntity
  8
E-A
  6
Continuous
 62
     2
370
     9
100
AcDbLine
 10
-65.2322439862051
 20
-120.8923353495285
 30
0.0
 11
-62.8822355261197
 21
-122.9423374586584
 31
0.0
  0
LINE
  5
E9
330
1F
100
AcDbEntity
  8
E-A
  6
Continuous
 62
     2
370
     9
100
AcDbLine
 10
-62.8822355261197
 20
-114.7423290221388
 30
0.0
 11
-62.8822355261197
 21
-122.9423374586584
 31
0.0
  0
LINE
  5
EA
330
1F
100
AcDbEntity
  8
E-A
  6
Continuous
 62
     2
370
     9
100
AcDbLine
 10
-65.2322439862051
 20
-116.7923311312686
 30
0.0
 11
-65.2322439862051
 21
-120.8923353495285
 31
0.0
  0
LINE
  5
EB
330
1F
100
AcDbEntity
  8
E-A
  6
Continuous
 62
     2
370
     9
100
AcDbLine
 10
-75.54626909922615
 20
-121.763815400223
 30
0.0
 11
-79.87691403816274
 21
-116.1249346742299
 31
0.0
  0
LINE
  5
EC
330
1F
100
AcDbEntity
  8
E-A
  6
Continuous
 62
     2
370
     9
100
AcDbLine
 10
-65.2322439862051
 20
-120.8923353495285
 30
0.0
 11
-76.21559788453698
 21
-120.8923353495285
 31
0.0
  0
LINE
  5
ED
330
1F
100
AcDbEntity
  8
E-A
  6
Continuous
 62
     2
370
     9
100
AcDbLine
 10
-65.2322439862051
 20
-116.7923311312686
 30
0.0
 11
-76.21559788453698
 21
-116.7923311312686
 31
0.0
  0
LINE
  5
EE
330
1F
100
AcDbEntity
  8
E-A
  6
Continuous
 62
     2
370
     9
100
AcDbLine
 10
-96.79618220071706
 20
-120.1362995263692
 30
0.0
 11
-98.77008030405545
 21
-117.5661295104671
 31
0.0
  0
LINE
  5
EF
330
1F
100
AcDbEntity
  8
E-A
  6
Continuous
 62
     2
370
     9
100
AcDbLine
 10
-91.60827716529309
 20
-120.3810115606168
 30
0.0
 11
-93.8725199782267
 21
-117.4327245393775
 31
0.0
  0
LINE
  5
F0
330
1F
100
AcDbEntity
  8
E-A
  6
Continuous
 62
     2
370
     9
100
AcDbLine
 10
-86.38727481485046
 20
-120.6687798325159
 30
0.0
 11
-89.11760511637823
 21
-117.113617866656
 31
0.0
  0
LINE
  5
F1
330
1F
100
AcDbEntity
  8
E-A
  6
Continuous
 62
     2
370
     9
100
AcDbLine
 10
-80.8758782079338
 20
-121.3346651097523
 30
0.0
 11
-84.54353636204218
 21
-116.5590396525777
 31
0.0
  0
LINE
  5
F2
330
1F
100
AcDbEntity
  8
E-A
  6
Continuous
 62
     2
370
     9
100
AcDbLine
 10
-76.21559788453698
 20
-120.8923353495285
 30
0.0
 11
-102.789942445904
 21
-118.8423332403986
 31
0.0
  0
LINE
  5
F3
330
1F
100
AcDbEntity
  8
E-A
  6
Continuous
 62
     2
370
     9
100
AcDbLine
 10
-76.21559788453698
 20
-116.7923311312686
 30
0.0
 11
-104.5421182667443
 21
-118.8423332403986
 31
0.0
  0
LINE
  5
F4
330
1F
100
AcDbEntity
  8
E-1
  6
JWW_CENTER1
 62
     6
370
     9
100
AcDbLine
 10
-16.08862553269671
 20
-187.36852049122
 30
0.0
 11
-67.6259021500615
 21
-238.9058135628804
 31
0.0
  0
LINE
  5
F5
330
1F
100
AcDbEntity
  8
E-A
  6
JWW_HOJO
 62
     2
370
     9
100
AcDbLine
 10
-63.85274543088201
 20
-240.8369914858906
 30
0.0
 11
-62.43853191485368
 21
-240.8369873583043
 31
0.0
  0
LINE
  5
F6
330
1F
100
AcDbEntity
  8
E-A
  6
JWW_HOJO
 62
     2
370
     9
100
AcDbLine
 10
-62.43853191485368
 20
-240.8369873583043
 30
0.0
 11
-55.11346232966378
 21
-233.5118745344059
 31
0.0
  0
LINE
  5
F7
330
1F
100
AcDbEntity
  8
E-A
  6
JWW_HOJO
 62
     2
370
     9
100
AcDbLine
 10
-63.85274543088201
 20
-240.8369914858906
 30
0.0
 11
-69.50964409742778
 21
-235.1801254694888
 31
0.0
  0
LINE
  5
F8
330
1F
100
AcDbEntity
  8
E-A
  6
JWW_HOJO
 62
     2
370
     9
100
AcDbLine
 10
-69.5096492633665
 20
-233.7659108224387
 30
0.0
 11
-69.50964409742778
 21
-235.1801254694888
 31
0.0
  0
LINE
  5
F9
330
1F
100
AcDbEntity
  8
E-A
  6
JWW_HOJO
 62
     2
370
     9
100
AcDbLine
 10
-69.5096492633665
 20
-233.7659108224387
 30
0.0
 11
-62.21201775627361
 21
-226.4682148060861
 31
0.0
  0
LINE
  5
FA
330
1F
100
AcDbEntity
  8
E-0
  6
Continuous
 62
     4
370
     9
100
AcDbLine
 10
20.4378272364022
 20
-238.3422452875608
 30
0.0
 11
15.43780396527598
 21
-241.3424558894116
 31
0.0
  0
LINE
  5
FB
330
1F
100
AcDbEntity
  8
E-0
  6
Continuous
 62
     4
370
     9
100
AcDbLine
 10
15.43780396527598
 20
-241.3424558894116
 30
0.0
 11
9.835674014169967
 21
-240.2220080406635
 31
0.0
  0
LINE
  5
FC
330
1F
100
AcDbEntity
  8
E-0
  6
Continuous
 62
     4
370
     9
100
AcDbLine
 10
-97.41541909159082
 20
-158.9457503313264
 30
0.0
 11
-95.6264299398241
 21
-246.7947446416244
 31
0.0
  0
LINE
  5
FD
330
1F
100
AcDbEntity
  8
E-0
  6
Continuous
 62
     4
370
     9
100
AcDbLine
 10
-94.13125377916629
 20
-245.2374366949884
 30
0.0
 11
-95.8575661292885
 21
-160.4555923681002
 31
0.0
  0
LINE
  5
FE
330
1F
100
AcDbEntity
  8
E-1
  6
Continuous
 62
     6
370
     9
100
AcDbLine
 10
64.08238452649766
 20
-233.1402782519352
 30
0.0
 11
64.43788338167616
 21
-232.8421051354943
 31
0.0
  0
LINE
  5
FF
330
1F
100
AcDbEntity
  8
E-1
  6
JWW_HOJO
 62
     6
370
     9
100
AcDbLine
 10
64.43788338167616
 20
-233.1878432555549
 30
0.0
 11
64.43788338167616
 21
-234.4853273699183
 31
0.0
  0
LINE
  5
100
330
1F
100
AcDbEntity
  8
E-1
  6
JWW_HOJO
 62
     6
370
     9
100
AcDbLine
 10
63.14411528322046
 20
-233.842208883477
 30
0.0
 11
65.51587482308622
 21
-233.842208883477
 31
0.0
  0
LINE
  5
101
330
1F
100
AcDbEntity
  8
E-1
  6
Continuous
 62
     6
370
     9
100
AcDbLine
 10
-61.85953840141764
 20
-107.197463480202
 30
0.0
 11
-61.56151392561304
 21
-106.8423114531749
 31
0.0
  0
LINE
  5
102
330
1F
100
AcDbEntity
  8
E-1
  6
JWW_HOJO
 62
     6
370
     9
100
AcDbLine
 10
-63.07779705662699
 20
-106.8423114531749
 30
0.0
 11
-61.83674683718323
 21
-106.8423114531749
 31
0.0
  0
LINE
  5
103
330
1F
100
AcDbEntity
  8
E-1
  6
JWW_HOJO
 62
     6
370
     9
100
AcDbLine
 10
-62.56141948608069
 20
-107.8557928584257
 30
0.0
 11
-62.56141948608069
 21
-106.1142200696423
 31
0.0
  0
LINE
  5
104
330
1F
100
AcDbEntity
  8
E-1
  6
Continuous
 62
     6
370
     9
100
AcDbLine
 10
-17.2176024416716
 20
-229.8424875478487
 30
0.0
 11
-22.67137602857809
 21
-229.8424875478487
 31
0.0
  0
LINE
  5
105
330
1F
100
AcDbEntity
  8
E-1
  6
Continuous
 62
     6
370
     9
100
AcDbLine
 10
27.05738933390001
 20
-225.8744762146335
 30
0.0
 11
35.43784750290189
 21
-218.8424858982499
 31
0.0
  0
LINE
  5
106
330
1F
100
AcDbEntity
  8
E-1
  6
Continuous
 62
     6
370
     9
100
AcDbLine
 10
37.64124674870521
 20
-229.8422893603336
 30
0.0
 11
21.60079157490355
 21
-229.8423884540911
 31
0.0
  0
LINE
  5
107
330
1F
100
AcDbEntity
  8
E-1
  6
Continuous
 62
     6
370
     9
100
AcDbLine
 10
10.33680415521548
 20
-229.8423884540911
 30
0.0
 11
21.60079157490355
 21
-229.8423884540911
 31
0.0
  0
LINE
  5
108
330
1F
100
AcDbEntity
  8
E-1
  6
Continuous
 62
     6
370
     9
100
AcDbLine
 10
10.33680415521548
 20
-229.8423884540911
 30
0.0
 11
-17.2176024416716
 21
-229.8424875478487
 31
0.0
  0
LINE
  5
109
330
1F
100
AcDbEntity
  8
E-1
  6
Continuous
 62
     6
370
     9
100
AcDbLine
 10
-55.56138690650408
 20
-106.8423114531749
 30
0.0
 11
-61.56151392561304
 21
-106.8423114531749
 31
0.0
  0
LINE
  5
10A
330
1F
100
AcDbEntity
  8
E-1
  6
JWW_HOJO
 62
     6
370
     9
100
AcDbLine
 10
-47.56179559461117
 20
-127.8422110043898
 30
0.0
 11
-47.79580550304433
 21
-128.1210112912315
 31
0.0
  0
LINE
  5
10B
330
1F
100
AcDbEntity
  8
E-1
  6
JWW_HOJO
 62
     6
370
     9
100
AcDbLine
 10
-33.97524868567643
 20
-227.0747988997279
 30
0.0
 11
-34.85401212755028
 21
-226.1961345516117
 31
0.0
  0
LINE
  5
10C
330
1F
100
AcDbEntity
  8
E-1
  6
JWW_HOJO
 62
     6
370
     9
100
AcDbLine
 10
-33.97524868567643
 20
-227.0747988997279
 30
0.0
 11
-33.97524868567643
 21
-228.3174841661711
 31
0.0
  0
LINE
  5
10D
330
1F
100
AcDbEntity
  8
E-1
  6
Continuous
 62
     6
370
     9
100
AcDbLine
 10
-22.67137602857809
 20
-229.8424875478487
 30
0.0
 11
-28.97517586767157
 21
-229.8424875478487
 31
0.0
  0
LINE
  5
10E
330
1F
100
AcDbEntity
  8
E-1
  6
Continuous
 62
     6
370
     9
100
AcDbLine
 10
-58.56239180675516
 20
-200.25507342125
 30
0.0
 11
-58.56199543172499
 21
-160.2672739719332
 31
0.0
  0
LINE
  5
10F
330
1F
100
AcDbEntity
  8
E-1
  6
Continuous
 62
     6
370
     9
100
AcDbLine
 10
-54.56153089291507
 20
-121.9807161520807
 30
0.0
 11
-54.5613822522788
 21
-107.8423161074002
 31
0.0
  0
LINE
  5
110
330
1F
100
AcDbEntity
  8
E-1
  6
JWW_HOJO
 62
     6
370
     9
100
AcDbLine
 10
-55.7950499867859
 20
-205.2550966923762
 30
0.0
 11
-57.0376361594715
 21
-205.2550966923762
 31
0.0
  0
LINE
  5
111
330
1F
100
AcDbEntity
  8
E-1
  6
JWW_HOJO
 62
     6
370
     9
100
AcDbLine
 10
-54.91638563866951
 20
-206.1337610404924
 30
0.0
 11
-55.7950499867859
 21
-205.2550966923762
 31
0.0
  0
LINE
  5
112
330
1F
100
AcDbEntity
  8
E-1
  6
Continuous
 62
     6
370
     9
100
AcDbLine
 10
-55.06180572786093
 20
-137.8723325020558
 30
0.0
 11
-55.06180572786093
 21
-147.2120677909336
 31
0.0
  0
LINE
  5
113
330
1F
100
AcDbEntity
  8
E-1
  6
Continuous
 62
     6
370
     9
100
AcDbLine
 10
-55.29596427693036
 20
-156.3750198163581
 30
0.0
 11
-61.56186075376439
 21
-163.8422794627407
 31
0.0
  0
LINE
  5
114
330
1F
100
AcDbEntity
  8
E-1
  6
Continuous
 62
     6
370
     9
100
AcDbLine
 10
-55.06180572786093
 20
-151.472356162016
 30
0.0
 11
-55.06180572786093
 21
-155.7322481580683
 31
0.0
  0
LINE
  5
115
330
1F
100
AcDbEntity
  8
E-1
  6
JWW_HOJO
 62
     6
370
     9
100
AcDbLine
 10
-55.06180572786093
 20
-155.7322481580683
 30
0.0
 11
-55.06180572786093
 21
-156.0959222482439
 31
0.0
  0
LINE
  5
116
330
1F
100
AcDbEntity
  8
E-1
  6
JWW_HOJO
 62
     6
370
     9
100
AcDbLine
 10
26.49973921333788
 20
-226.3423969377423
 30
0.0
 11
25.77184601732029
 21
-226.3423969377423
 31
0.0
  0
LINE
  5
117
330
1F
100
AcDbEntity
  8
E-1
  6
Continuous
 62
     6
370
     9
100
AcDbLine
 10
22.88633489148327
 20
-229.3743686372249
 30
0.0
 11
27.05738933390001
 21
-225.8744762146335
 31
0.0
  0
LINE
  5
118
330
1F
100
AcDbEntity
  8
E-1
  6
JWW_HOJO
 62
     6
370
     9
100
AcDbLine
 10
22.32863522404233
 20
-229.8423884540911
 30
0.0
 11
22.88633489148327
 21
-229.3743686372249
 31
0.0
  0
LINE
  5
119
330
1F
100
AcDbEntity
  8
E-1
  6
Continuous
 62
     6
370
     9
100
AcDbLine
 10
25.77184601732029
 20
-226.3423969377423
 30
0.0
 11
12.1658767319077
 21
-226.3423969377423
 31
0.0
  0
LINE
  5
11A
330
1F
100
AcDbEntity
  8
E-1
  6
JWW_HOJO
 62
     6
370
     9
100
AcDbLine
 10
12.1658767319077
 20
-226.3423969377423
 30
0.0
 11
11.43788444213249
 21
-226.3423969377423
 31
0.0
  0
LINE
  5
11B
330
1F
100
AcDbEntity
  8
E-1
  6
JWW_HOJO
 62
     6
370
     9
100
AcDbLine
 10
10.88033341532798
 20
-226.8102185670934
 30
0.0
 11
11.43788444213249
 21
-226.3423969377423
 31
0.0
  0
LINE
  5
11C
330
1F
100
AcDbEntity
  8
E-1
  6
Continuous
 62
     6
370
     9
100
AcDbLine
 10
7.824381026520257
 20
-229.3745172778612
 30
0.0
 11
10.88023432157036
 21
-226.810317660851
 31
0.0
  0
LINE
  5
11D
330
1F
100
AcDbEntity
  8
E-1
  6
JWW_HOJO
 62
     6
370
     9
100
AcDbLine
 10
7.266730905958298
 20
-229.8424380009699
 30
0.0
 11
7.824331479641614
 21
-229.37456682474
 31
0.0
  0
LINE
  5
11E
330
1F
100
AcDbEntity
  8
E-1
  6
Continuous
 62
     6
370
     9
100
AcDbLine
 10
8.45531098078402
 20
-230.3103091771999
 30
0.0
 11
5.437906063659796
 21
-232.842154682373
 31
0.0
  0
LINE
  5
11F
330
1F
100
AcDbEntity
  8
E-1
  6
JWW_HOJO
 62
     6
370
     9
100
AcDbLine
 10
9.012911554467337
 20
-229.8423884540911
 30
0.0
 11
8.45531098078402
 21
-230.3103587240786
 31
0.0
  0
LINE
  5
120
330
1F
100
AcDbEntity
  8
E-1
  6
JWW_HOJO
 62
     6
370
     9
100
AcDbLine
 10
-24.67143488390747
 20
-229.8424875478487
 30
0.0
 11
-24.67143488390747
 21
-227.842527786277
 31
0.0
  0
LINE
  5
121
330
1F
100
AcDbEntity
  8
E-1
  6
Continuous
 62
     6
370
     9
100
AcDbLine
 10
-47.79575595616552
 20
-128.1210112912315
 30
0.0
 11
-54.3600237369555
 21
-135.9440175271863
 31
0.0
  0
LINE
  5
122
330
1F
100
AcDbEntity
  8
E-1
  6
Continuous
 62
     6
370
     9
100
AcDbLine
 10
-57.0376361594715
 20
-205.2550966923762
 30
0.0
 11
-61.56186075376439
 21
-205.2550966923762
 31
0.0
  0
LINE
  5
123
330
1F
100
AcDbEntity
  8
E-1
  6
Continuous
 62
     6
370
     9
100
AcDbLine
 10
-33.97524868567643
 20
-228.3174841661711
 30
0.0
 11
-33.97524868567643
 21
-232.8421051354943
 31
0.0
  0
LINE
  5
124
330
1F
100
AcDbEntity
  8
E-1
  6
JWW_HOJO
 62
     6
370
     9
100
AcDbLine
 10
-16.25332108703986
 20
-229.4915965523959
 30
0.0
 11
-16.67154629074184
 21
-229.8424875478487
 31
0.0
  0
LINE
  5
125
330
1F
100
AcDbEntity
  8
E-1
  6
JWW_HOJO
 62
     6
370
     9
100
AcDbLine
 10
-55.06180572786093
 20
-156.0959222482439
 30
0.0
 11
-55.29596427693036
 21
-156.3750198163581
 31
0.0
  0
LINE
  5
126
330
1F
100
AcDbEntity
  8
E-1
  6
Continuous
 62
     6
370
     9
100
AcDbLine
 10
-62.56280679868627
 20
-225.8425680247053
 30
0.0
 11
-62.56141948608069
 21
-109.1258280019503
 31
0.0
  0
LINE
  5
127
330
1F
100
AcDbEntity
  8
E-1
  6
Continuous
 62
     6
370
     9
100
AcDbLine
 10
-54.56276956488438
 20
-233.842654805386
 30
0.0
 11
62.15406955162825
 21
-233.842208883477
 31
0.0
  0
LINE
  5
128
330
1F
100
AcDbEntity
  8
E-1
  6
Continuous
 62
     6
370
     9
100
AcDbLine
 10
-49.84065473678203
 20
-124.4380926984618
 30
0.0
 11
-47.56179559461117
 21
-122.8421877332636
 31
0.0
  0
LINE
  5
129
330
1F
100
AcDbEntity
  8
E-1
  6
Continuous
 62
     6
370
     9
100
AcDbLine
 10
35.3431138706926
 20
-224.9139604227884
 30
0.0
 11
40.4378212271493
 21
-218.8424858982499
 31
0.0
  0
LINE
  5
12A
330
1F
100
AcDbEntity
  8
E-1
  6
Continuous
 62
     6
370
     9
100
AcDbLine
 10
5.559395010405126
 20
-232.9636436291183
 30
0.0
 11
5.437906063659796
 21
-232.842154682373
 31
0.0
  0
LINE
  5
12B
330
1F
100
AcDbEntity
  8
E-1
  6
Continuous
 62
     6
370
     9
100
AcDbLine
 10
-61.68483610687292
 20
-163.7191059221172
 30
0.0
 11
-61.56186075376439
 21
-163.8422794627407
 31
0.0
  0
LINE
  5
12C
330
1F
100
AcDbEntity
  8
E-1
  6
Continuous
 62
     6
370
     9
100
AcDbLine
 10
64.43788338167616
 20
-226.8421763039004
 30
0.0
 11
64.43788338167616
 21
-232.8421051354943
 31
0.0
  0
LINE
  5
12D
330
1F
100
AcDbEntity
  8
E-1
  6
Continuous
 62
     6
370
     9
100
AcDbLine
 10
63.43787872745088
 20
-229.8422893603336
 30
0.0
 11
37.64124674870521
 21
-229.8422893603336
 31
0.0
  0
LINE
  5
12E
330
1F
100
AcDbEntity
  8
E-1
  6
Continuous
 62
     6
370
     9
100
AcDbLine
 10
57.06471325807877
 20
-228.6725370994407
 30
0.0
 11
60.15911402481237
 21
-226.0761320112296
 31
0.0
  0
LINE
  5
12F
330
1F
100
AcDbEntity
  8
E-1
  6
Continuous
 62
     6
370
     9
100
AcDbLine
 10
63.43787872745088
 20
-225.8421716496751
 30
0.0
 11
34.81281362721177
 21
-225.8423698371902
 31
0.0
  0
LINE
  5
130
330
1F
100
AcDbEntity
  8
E-1
  6
Continuous
 62
     6
370
     9
100
AcDbLine
 10
-61.56186075376439
 20
-163.8422794627407
 30
0.0
 11
-61.56186075376439
 21
-225.7298488755025
 31
0.0
  0
LINE
  5
131
330
1F
100
AcDbEntity
  8
E-1
  6
Continuous
 62
     6
370
     9
100
AcDbLine
 10
-28.97517586767157
 20
-225.4180503673996
 30
0.0
 11
-28.97517586767157
 21
-232.8421051354943
 31
0.0
  0
LINE
  5
132
330
1F
100
AcDbEntity
  8
E-1
  6
Continuous
 62
     6
370
     9
100
AcDbLine
 10
-53.43111885376595
 20
-200.5479945685412
 30
0.0
 11
-29.26809701496285
 21
-224.7109668604656
 31
0.0
  0
LINE
  5
133
330
1F
100
AcDbEntity
  8
E-1
  6
Continuous
 62
     6
370
     9
100
AcDbLine
 10
-54.13825190757859
 20
-200.25507342125
 30
0.0
 11
-61.56186075376439
 21
-200.25507342125
 31
0.0
  0
LINE
  5
134
330
1F
100
AcDbEntity
  8
E-1
  6
Continuous
 62
     6
370
     9
100
AcDbLine
 10
-11.90434380295829
 20
-225.8423698371902
 30
0.0
 11
-24.67143488390747
 21
-225.8423698371902
 31
0.0
  0
LINE
  5
135
330
1F
100
AcDbEntity
  8
E-1
  6
Continuous
 62
     6
370
     9
100
AcDbLine
 10
5.437906063659796
 20
-232.8421051354943
 30
0.0
 11
-54.44375796207765
 21
-232.8421051354943
 31
0.0
  0
LINE
  5
136
330
1F
100
AcDbEntity
  8
E-1
  6
Continuous
 62
     6
370
     9
100
AcDbLine
 10
-6.541786019868255
 20
-221.3426214010099
 30
0.0
 11
-16.39269645702137
 21
-229.6085271862943
 31
0.0
  0
LINE
  5
137
330
1F
100
AcDbEntity
  8
E-1
  6
Continuous
 62
     6
370
     9
100
AcDbLine
 10
31.65008771465375
 20
-218.8424858982499
 30
0.0
 11
40.4378212271493
 21
-218.8424858982499
 31
0.0
  0
LINE
  5
138
330
1F
100
AcDbEntity
  8
E-1
  6
Continuous
 62
     6
370
     9
100
AcDbLine
 10
-24.67143488390747
 20
-221.3425594674115
 30
0.0
 11
-24.67143488390747
 21
-227.842527786277
 31
0.0
  0
ARC
  5
139
330
1F
100
AcDbEntity
  8
E-1
  6
Continuous
 62
     6
370
     9
100
AcDbCircle
 10
62.15406955162825
 20
-230.8421453739225
 30
0.0
 40
3.000000027616052
100
AcDbArc
 50
270.0
 51
309.9990844726562
  0
ARC
  5
13A
330
1F
100
AcDbEntity
  8
E-1
  6
Continuous
 62
     6
370
     9
100
AcDbCircle
 10
-59.56135597652622
 20
-109.125877548829
 30
0.0
 40
3.000000027616052
100
AcDbArc
 50
139.9997100830078
 51
179.9989929199219
  0
ARC
  5
13B
330
1F
100
AcDbEntity
  8
E-1
  6
Continuous
 62
     6
370
     9
100
AcDbCircle
 10
37.64124674870521
 20
-226.8423744914155
 30
0.0
 40
3.000000027616052
100
AcDbArc
 50
139.9990692138672
 51
270.0
  0
ARC
  5
13C
330
1F
100
AcDbEntity
  8
E-1
  6
Continuous
 62
     6
370
     9
100
AcDbCircle
 10
-36.97526264835227
 20
-228.3174841661711
 30
0.0
 40
3.000000027616052
100
AcDbArc
 50
0.0
 51
45.0
  0
ARC
  5
13D
330
1F
100
AcDbEntity
  8
E-1
  6
Continuous
 62
     6
370
     9
100
AcDbCircle
 10
-22.67137602857809
 20
-227.842527786277
 30
0.0
 40
2.000000018410701
100
AcDbArc
 50
180.0
 51
270.0
  0
ARC
  5
13E
330
1F
100
AcDbEntity
  8
E-1
  6
Continuous
 62
     6
370
     9
100
AcDbCircle
 10
-52.0619404058217
 20
-137.8723325020558
 30
0.0
 40
3.000000027616052
100
AcDbArc
 50
140.0005950927735
 51
180.0
  0
ARC
  5
13F
330
1F
100
AcDbEntity
  8
E-1
  6
Continuous
 62
     6
370
     9
100
AcDbCircle
 10
-59.56190099219265
 20
-161.5995895420723
 30
0.0
 40
3.000000027616052
100
AcDbArc
 50
180.0
 51
225.0024871826172
  0
ARC
  5
140
330
1F
100
AcDbEntity
  8
E-1
  6
Continuous
 62
     6
370
     9
100
AcDbCircle
 10
12.1658767319077
 20
-228.3424062461927
 30
0.0
 40
2.000000018410701
100
AcDbArc
 50
90.0
 51
129.9998474121094
  0
ARC
  5
141
330
1F
100
AcDbEntity
  8
E-1
  6
Continuous
 62
     6
370
     9
100
AcDbCircle
 10
6.538738616183082
 20
-227.8423791456407
 30
0.0
 40
2.000000018410701
100
AcDbArc
 50
270.0
 51
309.9998474121093
  0
ARC
  5
142
330
1F
100
AcDbEntity
  8
E-1
  6
Continuous
 62
     6
370
     9
100
AcDbCircle
 10
25.77184601732029
 20
-224.3423876292917
 30
0.0
 40
2.000000018410701
100
AcDbArc
 50
270.0
 51
310.0001678466796
  0
ARC
  5
143
330
1F
100
AcDbEntity
  8
E-1
  6
Continuous
 62
     6
370
     9
100
AcDbCircle
 10
21.60079157490355
 20
-227.8423791456407
 30
0.0
 40
2.000000018410701
100
AcDbArc
 50
270.0
 51
310.0001678466796
  0
ARC
  5
144
330
1F
100
AcDbEntity
  8
E-1
  6
Continuous
 62
     6
370
     9
100
AcDbCircle
 10
63.43787872745088
 20
-230.8422940145589
 30
0.0
 40
1.00000000920535
100
AcDbArc
 50
0.0
 51
90.0
  0
ARC
  5
145
330
1F
100
AcDbEntity
  8
E-1
  6
Continuous
 62
     6
370
     9
100
AcDbCircle
 10
-48.56180024883645
 20
-127.4782396329416
 30
0.0
 40
1.00000000920535
100
AcDbArc
 50
320.0007019042969
 51
0.0
  0
ARC
  5
146
330
1F
100
AcDbEntity
  8
E-1
  6
Continuous
 62
     6
370
     9
100
AcDbCircle
 10
9.740903844242553
 20
-231.8423977625416
 30
0.0
 40
2.000000018410701
100
AcDbArc
 50
90.0
 51
129.9999389648438
  0
ARC
  5
147
330
1F
100
AcDbEntity
  8
E-1
  6
Continuous
 62
     6
370
     9
100
AcDbCircle
 10
-55.56138690650408
 20
-107.8423161074002
 30
0.0
 40
1.00000000920535
100
AcDbArc
 50
0.0
 51
90.0
  0
ARC
  5
148
330
1F
100
AcDbEntity
  8
E-1
  6
Continuous
 62
     6
370
     9
100
AcDbCircle
 10
-51.56151693023941
 20
-121.9807656989595
 30
0.0
 40
3.000000027616052
100
AcDbArc
 50
179.9995269775391
 51
305.0042724609375
  0
ARC
  5
149
330
1F
100
AcDbEntity
  8
E-1
  6
Continuous
 62
     6
370
     9
100
AcDbCircle
 10
-56.06200856960129
 20
-155.7322481580683
 30
0.0
 40
1.00000000920535
100
AcDbArc
 50
320.0002441406251
 51
0.0000000000000382
  0
ARC
  5
14A
330
1F
100
AcDbEntity
  8
E-1
  6
Continuous
 62
     6
370
     9
100
AcDbCircle
 10
-57.0376361594715
 20
-208.2550115612943
 30
0.0
 40
3.000000027616052
100
AcDbArc
 50
45.0
 51
90.0
  0
ARC
  5
14B
330
1F
100
AcDbEntity
  8
E-1
  6
Continuous
 62
     6
370
     9
100
AcDbCircle
 10
-17.03546811531123
 20
-228.8424828936235
 30
0.0
 40
1.00000000920535
100
AcDbArc
 50
270.0
 51
310.0003967285156
  0
ARC
  5
14C
330
1F
100
AcDbEntity
  8
E-1
  6
Continuous
 62
     6
370
     9
100
AcDbCircle
 10
7.680695078085932
 20
-230.8423435614376
 30
0.0
 40
3.000000027616052
100
AcDbArc
 50
224.9976959228516
 51
270.0
  0
ARC
  5
14D
330
1F
100
AcDbEntity
  8
E-1
  6
Continuous
 62
     6
370
     9
100
AcDbCircle
 10
63.43787872745088
 20
-226.8421763039004
 30
0.0
 40
1.00000000920535
100
AcDbArc
 50
0.0
 51
90.0
  0
ARC
  5
14E
330
1F
100
AcDbEntity
  8
E-1
  6
Continuous
 62
     6
370
     9
100
AcDbCircle
 10
53.85085496662947
 20
-224.8423156360862
 30
0.0
 40
5.000000046026752
100
AcDbArc
 50
270.0
 51
309.9989471435547
  0
ARC
  5
14F
330
1F
100
AcDbEntity
  8
E-1
  6
Continuous
 62
     6
370
     9
100
AcDbCircle
 10
60.80188568310206
 20
-226.8422258507791
 30
0.0
 40
1.00000000920535
100
AcDbArc
 50
90.0
 51
129.9988555908203
  0
ARC
  5
150
330
1F
100
AcDbEntity
  8
E-1
  6
Continuous
 62
     6
370
     9
100
AcDbCircle
 10
-29.97518052189685
 20
-225.4180503673996
 30
0.0
 40
1.00000000920535
100
AcDbArc
 50
0.0
 51
45.0
  0
ARC
  5
151
330
1F
100
AcDbEntity
  8
E-1
  6
Continuous
 62
     6
370
     9
100
AcDbCircle
 10
-54.13825190757859
 20
-201.2550780754752
 30
0.0
 40
1.00000000920535
100
AcDbArc
 50
45.0
 51
90.0
  0
ARC
  5
152
330
1F
100
AcDbEntity
  8
E-1
  6
Continuous
 62
     6
370
     9
100
AcDbCircle
 10
-54.56276956488438
 20
-225.8426671184628
 30
0.0
 40
8.000000073642804
100
AcDbArc
 50
179.9992828369141
 51
186.6239013671875
  0
ARC
  5
153
330
1F
100
AcDbEntity
  8
E-1
  6
Continuous
 62
     6
370
     9
100
AcDbCircle
 10
-54.56276956488438
 20
-225.8426671184628
 30
0.0
 40
7.000000064437453
100
AcDbArc
 50
179.0767364501953
 51
179.804931640625
  0
ARC
  5
154
330
1F
100
AcDbEntity
  8
E-1
  6
Continuous
 62
     6
370
     9
100
AcDbCircle
 10
-54.56276956488438
 20
-225.8426671184628
 30
0.0
 40
8.000000073642804
100
AcDbArc
 50
263.9901885986329
 51
270.0001831054688
  0
LINE
  5
155
330
1F
100
AcDbEntity
  8
E-A
  6
Continuous
 62
     2
370
     9
100
AcDbLine
 10
-48.56224617074525
 20
-155.4934322023944
 30
0.0
 11
-48.56224617074525
 21
-143.342159277684
 31
0.0
  0
LINE
  5
156
330
1F
100
AcDbEntity
  8
E-A
  6
Continuous
 62
     2
370
     9
100
AcDbLine
 10
-45.96232325414149
 20
-143.342159277684
 30
0.0
 11
-48.56224617074525
 21
-143.342159277684
 31
0.0
  0
LINE
  5
157
330
1F
100
AcDbEntity
  8
E-A
  6
Continuous
 62
     2
370
     9
100
AcDbLine
 10
-45.96232325414149
 20
-155.3423142221444
 30
0.0
 11
-48.56224617074525
 21
-155.3423142221444
 31
0.0
  0
LINE
  5
158
330
1F
100
AcDbEntity
  8
E-A
  6
Continuous
 62
     2
370
     9
100
AcDbLine
 10
-45.96232325414149
 20
-149.8214046145038
 30
0.0
 11
-45.96232325414149
 21
-148.8633661665972
 31
0.0
  0
LINE
  5
159
330
1F
100
AcDbEntity
  8
E-A
  6
Continuous
 62
     2
370
     9
100
AcDbLine
 10
-60.56230202144809
 20
-146.3422227872385
 30
0.0
 11
-60.56230202144809
 21
-152.3423498063474
 31
0.0
  0
LINE
  5
15A
330
1F
100
AcDbEntity
  8
E-A
  6
Continuous
 62
     2
370
     9
100
AcDbLine
 10
-50.56235457295327
 20
-146.3422227872385
 30
0.0
 11
-60.56230202144809
 21
-146.3422227872385
 31
0.0
  0
LINE
  5
15B
330
1F
100
AcDbEntity
  8
E-A
  6
Continuous
 62
     2
370
     9
100
AcDbLine
 10
-50.56235457295327
 20
-152.3423498063474
 30
0.0
 11
-60.56230202144809
 21
-152.3423498063474
 31
0.0
  0
LINE
  5
15C
330
1F
100
AcDbEntity
  8
E-A
  6
Continuous
 62
     2
370
     9
100
AcDbLine
 10
-50.56235457295327
 20
-147.2123650722062
 30
0.0
 11
-60.56230202144809
 21
-147.2123650722062
 31
0.0
  0
LINE
  5
15D
330
1F
100
AcDbEntity
  8
E-A
  6
Continuous
 62
     2
370
     9
100
AcDbLine
 10
-50.56235457295327
 20
-151.4722075213797
 30
0.0
 11
-60.56230202144809
 21
-151.4722075213797
 31
0.0
  0
LINE
  5
15E
330
1F
100
AcDbEntity
  8
E-A
  6
Continuous
 62
     2
370
     9
100
AcDbLine
 10
-50.56235457295327
 20
-151.4722075213797
 30
0.0
 11
-48.6897798367005
 21
-152.5244841327078
 31
0.0
  0
LINE
  5
15F
330
1F
100
AcDbEntity
  8
E-A
  6
Continuous
 62
     2
370
     9
100
AcDbLine
 10
-50.56235457295327
 20
-152.3423498063474
 30
0.0
 11
-49.79849034294841
 21
-151.9013825852899
 31
0.0
  0
LINE
  5
160
330
1F
100
AcDbEntity
  8
E-A
  6
Continuous
 62
     2
370
     9
100
AcDbLine
 10
-50.56235457295327
 20
-147.2123650722062
 30
0.0
 11
-48.6897798367005
 21
-146.1602866483932
 31
0.0
  0
LINE
  5
161
330
1F
100
AcDbEntity
  8
E-A
  6
Continuous
 62
     2
370
     9
100
AcDbLine
 10
-50.56235457295327
 20
-146.3422227872385
 30
0.0
 11
-49.79849034294841
 21
-146.783190008296
 31
0.0
  0
LINE
  5
162
330
1F
100
AcDbEntity
  8
E-A
  6
Continuous
 62
     2
370
     9
100
AcDbLine
 10
-43.97370972780823
 20
-148.8633661665972
 30
0.0
 11
-45.96232325414149
 21
-148.8633661665972
 31
0.0
  0
LINE
  5
163
330
1F
100
AcDbEntity
  8
E-A
  6
Continuous
 62
     2
370
     9
100
AcDbLine
 10
-50.56235457295327
 20
-146.3422227872385
 30
0.0
 11
-50.56235457295327
 21
-152.3423498063474
 31
0.0
  0
LINE
  5
164
330
1F
100
AcDbEntity
  8
E-A
  6
Continuous
 62
     2
370
     9
100
AcDbLine
 10
-43.97370972780823
 20
-149.8214046145038
 30
0.0
 11
-45.96232325414149
 21
-149.8214046145038
 31
0.0
  0
ARC
  5
165
330
1F
100
AcDbEntity
  8
E-A
  6
Continuous
 62
     2
370
     9
100
AcDbCircle
 10
-48.81235881477886
 20
-152.7424903992981
 30
0.0
 40
0.2500000023013376
100
AcDbArc
 50
0.0
 51
60.67082214355469
  0
ARC
  5
166
330
1F
100
AcDbEntity
  8
E-A
  6
Continuous
 62
     2
370
     9
100
AcDbCircle
 10
-48.81235881477886
 20
-145.9423794755604
 30
0.0
 40
0.2500000023013376
100
AcDbArc
 50
299.3291778564453
 51
0.0
  0
ARC
  5
167
330
1F
100
AcDbEntity
  8
E-A
  6
Continuous
 62
     2
370
     9
100
AcDbCircle
 10
-53.96226139418576
 20
-149.342484484308
 30
0.0
 40
10.0000000920535
100
AcDbArc
 50
2.745620727539062
 51
36.869873046875
  0
ARC
  5
168
330
1F
100
AcDbEntity
  8
E-A
  6
Continuous
 62
     2
370
     9
100
AcDbCircle
 10
-53.96226139418576
 20
-149.342484484308
 30
0.0
 40
10.0000000920535
100
AcDbArc
 50
323.130126953125
 51
357.2543792724609
  0
LINE
  5
169
330
1F
100
AcDbEntity
  8
E-A
  6
Continuous
 62
     2
370
     9
100
AcDbLine
 10
-32.41620659828362
 20
-219.2999026830593
 30
0.0
 11
-47.97263831337614
 21
-203.7434214210878
 31
0.0
  0
LINE
  5
16A
330
1F
100
AcDbEntity
  8
E-A
  6
Continuous
 62
     2
370
     9
100
AcDbLine
 10
-49.10399174322202
 20
-204.8747253040549
 30
0.0
 11
-47.97263831337614
 21
-203.7434214210878
 31
0.0
  0
LINE
  5
16B
330
1F
100
AcDbEntity
  8
E-A
  6
Continuous
 62
     2
370
     9
100
AcDbLine
 10
-33.54765912188697
 20
-220.4312561129051
 30
0.0
 11
-32.41620659828362
 21
-219.2999026830593
 31
0.0
  0
LINE
  5
16C
330
1F
100
AcDbEntity
  8
E-A
  6
Continuous
 62
     2
370
     9
100
AcDbLine
 10
-46.69987809151928
 20
-205.0162311898235
 30
0.0
 11
-44.93204545698751
 21
-203.248547195928
 31
0.0
  0
LINE
  5
16D
330
1F
100
AcDbEntity
  8
E-A
  6
Continuous
 62
     2
370
     9
100
AcDbLine
 10
-33.68896682014048
 20
-218.0270929143235
 30
0.0
 11
-31.92123327936616
 21
-216.2593593735493
 31
0.0
  0
LINE
  5
16E
330
1F
100
AcDbEntity
  8
E-A
  6
Continuous
 62
     2
370
     9
100
AcDbLine
 10
-31.49701290333309
 20
-216.6834806558248
 30
0.0
 11
-45.35616673926296
 21
-202.8241286323798
 31
0.0
  0
LINE
  5
16F
330
1F
100
AcDbEntity
  8
E-A
  6
Continuous
 62
     2
370
     9
100
AcDbLine
 10
-41.661455989346
 20
-210.0546532919968
 30
0.0
 11
-39.89372244857168
 21
-208.2866720168287
 31
0.0
  0
LINE
  5
170
330
1F
100
AcDbEntity
  8
E-A
  6
Continuous
 62
     2
370
     9
100
AcDbLine
 10
-42.36858904315864
 20
-209.3474706913053
 30
0.0
 11
-40.60085550238432
 21
-207.5795389630159
 31
0.0
  0
LINE
  5
171
330
1F
100
AcDbEntity
  8
E-1
  6
Continuous
 62
     6
370
     9
100
AcDbLine
 10
-60.56250020896317
 20
-152.3426966344988
 30
0.0
 11
-62.56221223614102
 21
-152.3426966344988
 31
0.0
  0
LINE
  5
172
330
1F
100
AcDbEntity
  8
E-1
  6
Continuous
 62
     6
370
     9
100
AcDbLine
 10
-60.56250020896317
 20
-151.4726038964099
 30
0.0
 11
-62.56221223614102
 21
-151.4726038964099
 31
0.0
  0
LINE
  5
173
330
1F
100
AcDbEntity
  8
E-1
  6
Continuous
 62
     6
370
     9
100
AcDbLine
 10
-60.56250020896317
 20
-147.2127119003576
 30
0.0
 11
-62.56221223614102
 21
-147.2127119003576
 31
0.0
  0
LINE
  5
174
330
1F
100
AcDbEntity
  8
E-1
  6
Continuous
 62
     6
370
     9
100
AcDbLine
 10
-60.56250020896317
 20
-146.3426191622686
 30
0.0
 11
-62.56221223614102
 21
-146.3426191622686
 31
0.0
  0
LINE
  5
175
330
1F
100
AcDbEntity
  8
E-2
  6
Continuous
 62
     3
370
     9
100
AcDbLine
 10
-49.5619783171374
 20
-134.3422056450347
 30
0.0
 11
-48.56194888947272
 21
-134.3422056450347
 31
0.0
  0
LINE
  5
176
330
1F
100
AcDbEntity
  8
E-2
  6
Continuous
 62
     3
370
     9
100
AcDbLine
 10
13.19655090409185
 20
-225.1366132576034
 30
0.0
 11
12.92007932055236
 21
-223.7540819258303
 31
0.0
  0
LINE
  5
177
330
1F
100
AcDbEntity
  8
E-2
  6
Continuous
 62
     3
370
     9
100
AcDbLine
 10
22.16597282103879
 20
-226.3424108728019
 30
0.0
 11
14.66739954727325
 21
-226.3424604196806
 31
0.0
  0
LINE
  5
178
330
1F
100
AcDbEntity
  8
E-2
  6
Continuous
 62
     3
370
     9
100
AcDbLine
 10
23.1301550819129
 20
-225.9914951039098
 30
0.0
 11
33.43768955381506
 21
-217.3424680785324
 31
0.0
  0
LINE
  5
179
330
1F
100
AcDbEntity
  8
E-2
  6
Continuous
 62
     3
370
     9
100
AcDbLine
 10
33.43778864757269
 20
-216.3425129711858
 30
0.0
 11
33.43778864757269
 21
-217.3424680785324
 31
0.0
  0
LINE
  5
17A
330
1F
100
AcDbEntity
  8
E-2
  6
Continuous
 62
     3
370
     9
100
AcDbLine
 10
-22.78835620935536
 20
-220.90295633386
 30
0.0
 11
-53.12283817405591
 21
-190.5682761816445
 31
0.0
  0
LINE
  5
17B
330
1F
100
AcDbEntity
  8
E-2
  6
Continuous
 62
     3
370
     9
100
AcDbLine
 10
-48.5621470769878
 20
-187.4366161620755
 30
0.0
 11
-48.56194888947272
 21
-134.3422056450347
 31
0.0
  0
LINE
  5
17C
330
1F
100
AcDbEntity
  8
E-2
  6
Continuous
 62
     3
370
     9
100
AcDbLine
 10
-20.71729667674805
 20
-215.903007383052
 30
0.0
 11
-48.12281490292969
 21
-188.4972909693552
 31
0.0
  0
LINE
  5
17D
330
1F
100
AcDbEntity
  8
E-2
  6
Continuous
 62
     3
370
     9
100
AcDbLine
 10
-19.65664664290773
 20
-216.3423147836708
 30
0.0
 11
33.43778864757269
 21
-216.3425129711858
 31
0.0
  0
LINE
  5
17E
330
1F
100
AcDbEntity
  8
E-2
  6
Continuous
 62
     3
370
     9
100
AcDbLine
 10
24.43779630642433
 20
-220.3424572677687
 30
0.0
 11
24.43779630642433
 21
-216.3424881977465
 31
0.0
  0
LINE
  5
17F
330
1F
100
AcDbEntity
  8
E-2
  6
Continuous
 62
     3
370
     9
100
AcDbLine
 10
-32.56232034377791
 20
-221.3422389610394
 30
0.0
 11
28.12472819637429
 21
-221.3424866954332
 31
0.0
  0
ARC
  5
180
330
1F
100
AcDbEntity
  8
E-2
  6
Continuous
 62
     3
370
     9
100
AcDbCircle
 10
-52.06198995270034
 20
-139.6552165493542
 30
0.0
 40
1.500000013808026
100
AcDbArc
 50
140.000244140625
 51
179.9996643066406
  0
ARC
  5
181
330
1F
100
AcDbEntity
  8
E-2
  6
Continuous
 62
     3
370
     9
100
AcDbCircle
 10
9.978282940431939
 20
-224.3424015643514
 30
0.0
 40
3.000000027616052
100
AcDbArc
 50
11.30984497070313
 51
90.0
  0
ARC
  5
182
330
1F
100
AcDbEntity
  8
E-2
  6
Continuous
 62
     3
370
     9
100
AcDbCircle
 10
14.66742432071266
 20
-224.8424286649035
 30
0.0
 40
1.500000013808026
100
AcDbArc
 50
191.3101501464844
 51
269.9996643066406
  0
ARC
  5
183
330
1F
100
AcDbEntity
  8
E-2
  6
Continuous
 62
     3
370
     9
100
AcDbCircle
 10
22.16597282103879
 20
-224.8424286649035
 30
0.0
 40
1.500000013808026
100
AcDbArc
 50
269.9996643066406
 51
309.9996948242188
  0
ARC
  5
184
330
1F
100
AcDbEntity
  8
E-2
  6
Continuous
 62
     3
370
     9
100
AcDbCircle
 10
28.1247529698137
 20
-219.8424797140954
 30
0.0
 40
1.500000013808026
100
AcDbArc
 50
269.9996643066406
 51
309.9996948242188
  0
ARC
  5
185
330
1F
100
AcDbEntity
  8
E-2
  6
Continuous
 62
     3
370
     9
100
AcDbCircle
 10
-52.06216336677619
 20
-189.5076509212436
 30
0.0
 40
1.500000013808026
100
AcDbArc
 50
180.0
 51
224.9993286132812
  0
ARC
  5
186
330
1F
100
AcDbEntity
  8
E-2
  6
Continuous
 62
     3
370
     9
100
AcDbCircle
 10
-21.72773094895445
 20
-219.8422815265803
 30
0.0
 40
1.500000013808026
100
AcDbArc
 50
225.0006713867188
 51
270.0
  0
ARC
  5
187
330
1F
100
AcDbEntity
  8
E-2
  6
Continuous
 62
     3
370
     9
100
AcDbCircle
 10
25.43780096064944
 20
-220.3424572677687
 30
0.0
 40
1.00000000920535
100
AcDbArc
 50
180.0
 51
270.0
  0
ARC
  5
188
330
1F
100
AcDbEntity
  8
E-2
  6
Continuous
 62
     3
370
     9
100
AcDbCircle
 10
-19.65664664290773
 20
-214.8423078023329
 30
0.0
 40
1.500000013808026
100
AcDbArc
 50
225.0006713867188
 51
270.0
  0
ARC
  5
189
330
1F
100
AcDbEntity
  8
E-2
  6
Continuous
 62
     3
370
     9
100
AcDbCircle
 10
-47.06211532221056
 20
-187.4366161620755
 30
0.0
 40
1.500000013808026
100
AcDbArc
 50
180.0
 51
224.9993286132812
  0
LINE
  5
18A
330
1F
100
AcDbEntity
  8
E-2
  6
Continuous
 62
     3
370
     9
100
AcDbLine
 10
-48.5620198123475
 20
-153.3424349374293
 30
0.0
 11
-53.56202803416255
 21
-153.3424349374293
 31
0.0
  0
LINE
  5
18B
330
1F
100
AcDbEntity
  8
E-2
  6
Continuous
 62
     3
370
     9
100
AcDbLine
 10
-48.56198995044485
 20
-145.3424349374293
 30
0.0
 11
-53.56199537679595
 21
-145.3424349374293
 31
0.0
  0
ARC
  5
18C
330
1F
100
AcDbEntity
  8
E-2
  6
Continuous
 62
     3
370
     9
100
AcDbCircle
 10
-32.56222125002029
 20
-200.342240316067
 30
0.0
 40
21.00000019331236
100
AcDbArc
 50
179.9997253417969
 51
180.2607315888743
  0
ARC
  5
18D
330
1F
100
AcDbEntity
  8
E-2
  6
Continuous
 62
     3
370
     9
100
AcDbCircle
 10
-32.56222125002029
 20
-200.342240316067
 30
0.0
 40
21.00000019331236
100
AcDbArc
 50
269.7960756162531
 51
269.9997253417969
  0
LINE
  5
18E
330
1F
100
AcDbEntity
  8
E-1
  6
JWW_DASHED2
 62
     6
370
     9
100
AcDbLine
 10
-49.12777424503184
 20
-211.9223228872513
 30
0.0
 11
-46.75413192377306
 21
-208.3618346319236
 31
0.0
  0
ARC
  5
18F
330
1F
100
AcDbEntity
  8
E-1
  6
JWW_DASHED2
 62
     6
370
     9
100
AcDbCircle
 10
-47.58617265896623
 20
-207.807107777209
 30
0.0
 40
1.00000000920535
100
AcDbArc
 50
326.3095397949218
 51
45.00050354003906
  0
LINE
  5
190
330
1F
100
AcDbEntity
  8
E-A
  6
JWW_DASHED2
 62
     2
370
     9
100
AcDbLine
 10
-47.68992382311166
 20
-213.3602228560503
 30
0.0
 11
-44.15425855404794
 21
-209.8245080401078
 31
0.0
  0
LINE
  5
191
330
1F
100
AcDbEntity
  8
E-A
  6
JWW_DASHED2
 62
     2
370
     9
100
AcDbLine
 10
-48.39705687692447
 20
-212.6530402553588
 30
0.0
 11
-44.86129251410313
 21
-209.1173254394163
 31
0.0
  0
LINE
  5
192
330
1F
100
AcDbEntity
  8
E-A
  6
JWW_DASHED2
 62
     2
370
     9
100
AcDbLine
 10
-42.03285939260968
 20
-219.0171881927947
 30
0.0
 11
-38.49729321730359
 21
-215.4816220174886
 31
0.0
  0
LINE
  5
193
330
1F
100
AcDbEntity
  8
E-A
  6
JWW_DASHED2
 62
     2
370
     9
100
AcDbLine
 10
-41.32592452631212
 20
-219.7241726059712
 30
0.0
 11
-37.79025925724841
 21
-216.1885568837862
 31
0.0
  0
ARC
  5
194
330
1F
100
AcDbEntity
  8
E-1
  6
JWW_DASHED2
 62
     6
370
     9
100
AcDbCircle
 10
-36.5272597705092
 20
-218.8659711187871
 30
0.0
 40
1.00000000920535
100
AcDbArc
 50
45.0
 51
123.6900634765625
  0
LINE
  5
195
330
1F
100
AcDbEntity
  8
E-1
  6
JWW_DASHED2
 62
     6
370
     9
100
AcDbLine
 10
-40.64247488055167
 20
-220.4075727048528
 30
0.0
 11
-37.08193707834511
 21
-218.0339303835939
 31
0.0
  0
ARC
  5
196
330
1F
100
AcDbEntity
  8
E-2
  6
JWW_DASHED2
 62
     3
370
     9
100
AcDbCircle
 10
-26.46942665340191
 20
-215.8077110314272
 30
0.0
 40
1.00000000920535
100
AcDbArc
 50
151.6985778808594
 51
225.0
  0
ARC
  5
197
330
1F
100
AcDbEntity
  8
E-2
  6
JWW_DASHED2
 62
     3
370
     9
100
AcDbCircle
 10
-48.0276121434726
 20
-194.2493267338522
 30
0.0
 40
1.00000000920535
100
AcDbArc
 50
225.0
 51
298.3014221191406
  0
LINE
  5
198
330
1F
100
AcDbEntity
  8
E-2
  6
JWW_DASHED2
 62
     3
370
     9
100
AcDbLine
 10
-47.55349806051754
 20
-195.1297995430436
 30
0.0
 11
-43.61241545591412
 21
-193.0076819518631
 31
0.0
  0
LINE
  5
199
330
1F
100
AcDbEntity
  8
E-A
  6
JWW_DASHED2
 62
     2
370
     9
100
AcDbLine
 10
-37.96436698924788
 20
-198.9023445370575
 30
0.0
 11
-27.57527835488946
 21
-209.291631358931
 31
0.0
  0
ARC
  5
19A
330
1F
100
AcDbEntity
  8
E-A
  6
JWW_DASHED2
 62
     2
370
     9
100
AcDbCircle
 10
-40.65941991309109
 20
-201.597546101537
 30
0.0
 40
3.811438938365479
100
AcDbArc
 50
4.925643920898438
 51
85.07435607910156
  0
ARC
  5
19B
330
1F
100
AcDbEntity
  8
E-A
  6
JWW_DASHED2
 62
     2
370
     9
100
AcDbCircle
 10
-42.54309315018844
 20
-213.8702088792352
 30
0.0
 40
13.82162052692133
100
AcDbArc
 50
24.26925659179688
 51
65.73074340820312
  0
ARC
  5
19C
330
1F
100
AcDbEntity
  8
E-A
  6
JWW_DASHED2
 62
     2
370
     9
100
AcDbCircle
 10
-30.27033127873267
 20
-211.9867833765317
 30
0.0
 40
3.811438938365479
100
AcDbArc
 50
4.925643920898438
 51
85.07435607910156
  0
LINE
  5
19D
330
1F
100
AcDbEntity
  8
E-A
  6
JWW_DASHED2
 62
     2
370
     9
100
AcDbLine
 10
-36.3053393004962
 20
-200.5614713195668
 30
0.0
 11
-36.18203010248237
 21
-200.438162121553
 31
0.0
  0
LINE
  5
19E
330
1F
100
AcDbEntity
  8
E-A
  6
JWW_DASHED2
 62
     2
370
     9
100
AcDbLine
 10
-35.59810715292576
 20
-201.2686043733796
 30
0.0
 11
-35.47484828407289
 21
-201.1453490540641
 31
0.0
  0
LINE
  5
19F
330
1F
100
AcDbEntity
  8
E-A
  6
JWW_DASHED2
 62
     2
370
     9
100
AcDbLine
 10
-29.23430604364131
 20
-207.6324054826641
 30
0.0
 11
-29.1110692183945
 21
-207.5091741404581
 31
0.0
  0
LINE
  5
1A0
330
1F
100
AcDbEntity
  8
E-A
  6
JWW_DASHED2
 62
     2
370
     9
100
AcDbLine
 10
-29.9413400036965
 20
-206.9255201632452
 30
0.0
 11
-29.81803022706737
 21
-206.8022080192804
 31
0.0
  0
LINE
  5
1A1
330
1F
100
AcDbEntity
  8
E-A
  6
Continuous
 62
     2
370
     9
100
AcDbLine
 10
-43.1115978669331
 20
-200.5795818962742
 30
0.0
 11
-45.35616673926296
 21
-202.8241286323798
 31
0.0
  0
LINE
  5
1A2
330
1F
100
AcDbEntity
  8
E-A
  6
Continuous
 62
     2
370
     9
100
AcDbLine
 10
-39.64149181727657
 20
-204.0497106175457
 30
0.0
 11
-41.8861015376915
 21
-206.2943424745877
 31
0.0
  0
LINE
  5
1A3
330
1F
100
AcDbEntity
  8
E-A
  6
Continuous
 62
     2
370
     9
100
AcDbLine
 10
-32.72249941767541
 20
-210.9687482217398
 30
0.0
 11
-34.96707810490454
 21
-213.2134154542533
 31
0.0
  0
LINE
  5
1A4
330
1F
100
AcDbEntity
  8
E-A
  6
Continuous
 62
     2
370
     9
100
AcDbLine
 10
-29.25237914288812
 20
-214.438891168235
 30
0.0
 11
-31.49701290333309
 21
-216.6834806558248
 31
0.0
  0
LINE
  5
1A5
330
1F
100
AcDbEntity
  8
E-A
  6
JWW_DASHED2
 62
     2
370
     9
100
AcDbLine
 10
-26.47295939600315
 20
-211.6595262422525
 30
0.0
 11
-29.25237914288812
 21
-214.438891168235
 31
0.0
  0
LINE
  5
1A6
330
1F
100
AcDbEntity
  8
E-A
  6
JWW_DASHED2
 62
     2
370
     9
100
AcDbLine
 10
-29.94312369133223
 20
-208.1892628531659
 30
0.0
 11
-32.72249941767541
 21
-210.9687482217398
 31
0.0
  0
LINE
  5
1A7
330
1F
100
AcDbEntity
  8
E-A
  6
JWW_DASHED2
 62
     2
370
     9
100
AcDbLine
 10
-36.86214712411919
 20
-201.2703385141365
 30
0.0
 11
-39.64149181727657
 21
-204.0497106175457
 31
0.0
  0
LINE
  5
1A8
330
1F
100
AcDbEntity
  8
E-A
  6
JWW_DASHED2
 62
     2
370
     9
100
AcDbLine
 10
-40.33221232569065
 20
-197.8002237656863
 30
0.0
 11
-43.1115978669331
 21
-200.5795818962742
 31
0.0
  0
LINE
  5
1A9
330
1F
100
AcDbEntity
  8
E-2
  6
JWW_DASHED2
 62
     3
370
     9
100
AcDbLine
 10
-55.97366648475361
 20
-154.8598406517368
 30
0.0
 11
-57.35619781652656
 21
-154.5833195213185
 31
0.0
  0
ARC
  5
1AA
330
1F
100
AcDbEntity
  8
E-2
  6
JWW_DASHED2
 62
     3
370
     9
100
AcDbCircle
 10
-57.06201322382674
 20
-153.1124708781371
 30
0.0
 40
1.500000013808026
100
AcDbArc
 50
179.9996643066406
 51
258.6893615722656
  0
LINE
  5
1AB
330
1F
100
AcDbEntity
  8
E-2
  6
JWW_DASHED2
 62
     3
370
     9
100
AcDbLine
 10
-58.56199543172499
 20
-153.1124708781371
 30
0.0
 11
-58.56199543172499
 21
-145.6139471512504
 31
0.0
  0
ARC
  5
1AC
330
1F
100
AcDbEntity
  8
E-2
  6
JWW_DASHED2
 62
     3
370
     9
100
AcDbCircle
 10
-57.06201322382674
 20
-145.6138976043716
 30
0.0
 40
1.500000013808026
100
AcDbArc
 50
139.9996337890625
 51
179.9996643066406
  0
LINE
  5
1AD
330
1F
100
AcDbEntity
  8
E-2
  6
Continuous
 62
     3
370
     9
100
AcDbLine
 10
-55.06183928840318
 20
-140.8966415523854
 30
0.0
 11
-49.5619783171374
 21
-134.3422056450347
 31
0.0
  0
LINE
  5
1AE
330
1F
100
AcDbEntity
  8
E-2
  6
JWW_DASHED2
 62
     3
370
     9
100
AcDbLine
 10
-58.21110443627236
 20
-144.6497648903763
 30
0.0
 11
-55.06183928840318
 21
-140.8966415523854
 31
0.0
  0
ARC
  5
1AF
330
1F
100
AcDbEntity
  8
E-2
  6
Continuous
 62
     3
370
     9
100
AcDbCircle
 10
-56.56203567015342
 20
-157.8016370318572
 30
0.0
 40
3.000000027616052
100
AcDbArc
 50
0.0
 51
59.99917063384604
  0
ARC
  5
1B0
330
1F
100
AcDbEntity
  8
E-2
  6
JWW_DASHED2
 62
     3
370
     9
100
AcDbCircle
 10
-56.56203567015342
 20
-157.8016370318572
 30
0.0
 40
3.000000027616052
100
AcDbArc
 50
59.99917063384604
 51
78.69015502929686
  0
LINE
  5
1B1
330
1F
100
AcDbEntity
  8
E-1
  6
Continuous
 62
     6
370
     9
100
AcDbLine
 10
-55.06200391537601
 20
-155.7322481580683
 30
0.0
 11
-55.06195664443237
 21
-151.4723561603413
 31
0.0
  0
LINE
  5
1B2
330
1F
100
AcDbEntity
  8
E-1
  6
Continuous
 62
     6
370
     9
100
AcDbLine
 10
-55.06190936909024
 20
-147.2120677897835
 30
0.0
 11
-55.06180572786093
 21
-137.8722829551771
 31
0.0
  0
LINE
  5
1B3
330
1F
100
AcDbEntity
  8
E-2
  6
Continuous
 62
     3
370
     9
100
AcDbLine
 10
-53.56221989499284
 20
-200.3421412223094
 30
0.0
 11
-53.56202395164416
 21
-152.3423498063475
 31
0.0
  0
LINE
  5
1B4
330
1F
100
AcDbEntity
  8
E-2
  6
Continuous
 62
     3
370
     9
100
AcDbLine
 10
-53.56199945810067
 20
-146.3422227872385
 30
0.0
 11
-53.56197216059877
 21
-139.6552165493542
 31
0.0
  0
LINE
  5
1B5
330
1F
100
AcDbEntity
  8
E-1
  6
JWW_CENTER1
 62
     6
370
     9
100
AcDbLine
 10
-43.10990022571036
 20
-149.3424349374293
 30
0.0
 11
-62.56189750667784
 21
-149.3424349374293
 31
0.0
  0
LINE
  5
1B6
330
1F
100
AcDbEntity
  8
E-1
  6
Continuous
 62
     6
370
     9
100
AcDbLine
 10
-47.56179559461117
 20
-143.342159277684
 30
0.0
 11
-47.56179559461117
 21
-122.8421877332636
 31
0.0
  0
LINE
  5
1B7
330
1F
100
AcDbEntity
  8
E-1
  6
Continuous
 62
     6
370
     9
100
AcDbLine
 10
-47.56179559461117
 20
-189.0583143347773
 30
0.0
 11
-47.56179559461117
 21
-155.3423142221444
 31
0.0
  0
LINE
  5
1B8
330
1F
100
AcDbEntity
  8
E-2
  6
JWW_DASHED2
 62
     3
370
     9
100
AcDbLine
 10
-27.70263025377977
 20
-215.9886501824835
 30
0.0
 11
-25.22773232453426
 21
-211.3925391173082
 31
0.0
  0
LINE
  5
1B9
330
1F
100
AcDbEntity
  8
E-A
  6
Continuous
 62
     2
370
     9
100
AcDbLine
 10
-62.21201775627361
 20
-226.4682148060861
 30
0.0
 11
-48.39701977483969
 21
-212.6530947034828
 31
0.0
  0
LINE
  5
1BA
330
1F
100
AcDbEntity
  8
E-A
  6
Continuous
 62
     2
370
     9
100
AcDbLine
 10
-55.11346232966378
 20
-233.5118745344059
 30
0.0
 11
-41.32587436663707
 21
-219.7242051854636
 31
0.0
  0
LINE
  5
1BB
330
1F
100
AcDbEntity
  8
E-A
  6
Continuous
 62
     2
370
     9
100
AcDbLine
 10
-56.18082198489293
 20
-233.1650176278413
 30
0.0
 11
-42.03286194361444
 21
-219.0172211004813
 31
0.0
  0
LINE
  5
1BC
330
1F
100
AcDbEntity
  8
E-A
  6
Continuous
 62
     2
370
     9
100
AcDbLine
 10
-61.85849791696342
 20
-227.528961073938
 30
0.0
 11
-47.68986480332696
 21
-213.3602461821736
 31
0.0
  0
LINE
  5
1BD
330
1F
100
AcDbEntity
  8
E-A
  6
Continuous
 62
     2
370
     9
100
AcDbLine
 10
-17.88574732475204
 20
-188.1524601997219
 30
0.0
 11
-20.89106280345611
 21
-185.1471447210178
 31
0.0
  0
LINE
  5
1BE
330
1F
100
AcDbEntity
  8
E-A
  6
Continuous
 62
     2
370
     9
100
AcDbLine
 10
-13.82002954660139
 20
-192.21827707163
 30
0.0
 11
-16.82514683779037
 21
-189.2130111398047
 31
0.0
  0
LINE
  5
1BF
330
1F
100
AcDbEntity
  8
E-A
  6
Continuous
 62
     2
370
     9
100
AcDbLine
 10
-18.59288037856468
 20
-188.8595437066558
 30
0.0
 11
-17.17871336469669
 21
-187.4452775990304
 31
0.0
  0
LINE
  5
1C0
330
1F
100
AcDbEntity
  8
E-A
  6
Continuous
 62
     2
370
     9
100
AcDbLine
 10
-17.53218079784555
 20
-189.9198964592236
 30
0.0
 11
-18.59288037856468
 21
-188.8595437066558
 31
0.0
  0
LINE
  5
1C1
330
1F
100
AcDbEntity
  8
E-A
  6
Continuous
 62
     2
370
     9
100
AcDbLine
 10
-17.53218079784555
 20
-189.9198964592236
 30
0.0
 11
-16.1179146902201
 21
-188.5059771797495
 31
0.0
  0
LINE
  5
1C2
330
1F
100
AcDbEntity
  8
E-A
  6
Continuous
 62
     2
370
     9
100
AcDbLine
 10
-35.47484828407289
 20
-201.1453490540641
 30
0.0
 11
-19.47669760207303
 21
-185.147293361654
 31
0.0
  0
LINE
  5
1C3
330
1F
100
AcDbEntity
  8
E-A
  6
Continuous
 62
     2
370
     9
100
AcDbLine
 10
-29.81803022706737
 20
-206.8022080192804
 30
0.0
 11
-13.81993045284376
 21
-190.8039614171258
 31
0.0
  0
LINE
  5
1C4
330
1F
100
AcDbEntity
  8
E-A
  6
JWW_HOJO
 62
     2
370
     9
100
AcDbLine
 10
-13.58974465038208
 20
-191.9880167022407
 30
0.0
 11
-13.11280643961969
 21
-191.5110854303499
 31
0.0
  0
LINE
  5
1C5
330
1F
100
AcDbEntity
  8
E-A
  6
JWW_HOJO
 62
     2
370
     9
100
AcDbLine
 10
-13.11280643961969
 20
-191.5110854303499
 30
0.0
 11
-13.62644265238286
 21
-190.9974492175867
 31
0.0
  0
LINE
  5
1C6
330
1F
100
AcDbEntity
  8
E-A
  6
JWW_HOJO
 62
     2
370
     9
100
AcDbLine
 10
-19.75338596871641
 20
-184.8706049950107
 30
0.0
 11
-20.18395581188029
 21
-184.4400351518468
 31
0.0
  0
LINE
  5
1C7
330
1F
100
AcDbEntity
  8
E-A
  6
JWW_HOJO
 62
     2
370
     9
100
AcDbLine
 10
-20.61721030136617
 20
-184.8732912206619
 30
0.0
 11
-20.18395581188029
 21
-184.4400351518468
 31
0.0
  0
LINE
  5
1C8
330
1F
100
AcDbEntity
  8
E-A
  6
Continuous
 62
     2
370
     9
100
AcDbLine
 10
-36.18203010248237
 20
-200.438162121553
 30
0.0
 11
-20.89106280345611
 21
-185.1471447210178
 31
0.0
  0
LINE
  5
1C9
330
1F
100
AcDbEntity
  8
E-A
  6
Continuous
 62
     2
370
     9
100
AcDbLine
 10
-20.89106280345611
 20
-185.1471447210178
 30
0.0
 11
-19.47669760207303
 21
-185.147293361654
 31
0.0
  0
LINE
  5
1CA
330
1F
100
AcDbEntity
  8
E-A
  6
Continuous
 62
     2
370
     9
100
AcDbLine
 10
-17.17871336469669
 20
-187.4452775990304
 30
0.0
 11
-19.47669760207303
 21
-185.147293361654
 31
0.0
  0
LINE
  5
1CB
330
1F
100
AcDbEntity
  8
E-A
  6
Continuous
 62
     2
370
     9
100
AcDbLine
 10
-13.81993045284376
 20
-190.8039614171258
 30
0.0
 11
-16.1179146902201
 21
-188.5059771797495
 31
0.0
  0
LINE
  5
1CC
330
1F
100
AcDbEntity
  8
E-A
  6
Continuous
 62
     2
370
     9
100
AcDbLine
 10
-13.81993045284376
 20
-190.8039614171258
 30
0.0
 11
-13.82002954808517
 21
-192.2182982495781
 31
0.0
  0
LINE
  5
1CD
330
1F
100
AcDbEntity
  8
E-A
  6
Continuous
 62
     2
370
     9
100
AcDbLine
 10
-29.1110692183945
 20
-207.5091741404581
 30
0.0
 11
-13.82002954808517
 21
-192.2182982495781
 31
0.0
  0
LINE
  5
1CE
330
1F
100
AcDbEntity
  8
E-4
  6
Continuous
 62
     7
370
     9
100
AcDbLine
 10
-97.53046694409608
 20
-74.842173641713
 30
0.0
 11
-62.56141948608069
 21
-74.842173641713
 31
0.0
  0
LINE
  5
1CF
330
1F
100
AcDbEntity
  8
E-4
  6
Continuous
 62
     7
370
     9
100
AcDbLine
 10
-97.53046694409608
 20
-73.94217364171298
 30
0.0
 11
-97.53046694409608
 21
-147.2953747294584
 31
0.0
  0
TEXT
  5
1D0
330
1F
100
AcDbEntity
  8
E-4
  6
Continuous
 62
     2
370
   211
100
AcDbText
 10
-86.42094321508839
 20
-71.35017364171298
 30
0.0
 40
9.144
  1
35
 41
1.0625
  7
ＭＳ ゴシック
100
AcDbText
  0
LINE
  5
1D1
330
1F
100
AcDbEntity
  8
E-4
  6
Continuous
 62
     7
370
     9
100
AcDbLine
 10
-62.56141948608069
 20
-74.842173641713
 30
0.0
 11
-54.5613822522788
 21
-74.842173641713
 31
0.0
  0
LINE
  5
1D2
330
1F
100
AcDbEntity
  8
E-4
  6
Continuous
 62
     7
370
     9
100
AcDbLine
 10
-54.5613822522788
 20
-73.94217364171298
 30
0.0
 11
-54.5613822522788
 21
-101.8423161074002
 31
0.0
  0
TEXT
  5
1D3
330
1F
100
AcDbEntity
  8
E-4
  6
Continuous
 62
     2
370
   211
100
AcDbText
 10
-61.56140086917975
 20
-71.35017364171298
 30
0.0
 40
9.144
  1
8
  7
ＭＳ ゴシック
100
AcDbText
  0
LINE
  5
1D4
330
1F
100
AcDbEntity
  8
E-4
  6
Continuous
 62
     7
370
     9
100
AcDbLine
 10
-54.5613822522788
 20
-74.842173641713
 30
0.0
 11
64.43788338167616
 21
-74.842173641713
 31
0.0
  0
LINE
  5
1D5
330
1F
100
AcDbEntity
  8
E-4
  6
Continuous
 62
     7
370
     9
100
AcDbLine
 10
64.43788338167616
 20
-73.94217364171298
 30
0.0
 11
64.43788338167616
 21
-220.8421763039004
 31
0.0
  0
TEXT
  5
1D6
330
1F
100
AcDbEntity
  8
E-4
  6
Continuous
 62
     2
370
   211
100
AcDbText
 10
-4.811749435301323
 20
-71.35017364171298
 30
0.0
 40
9.144
  1
119
 41
1.083333333333333
  7
ＭＳ ゴシック
100
AcDbText
  0
LINE
  5
1D7
330
1F
100
AcDbEntity
  8
E-4
  6
Continuous
 62
     7
370
     9
100
AcDbLine
 10
-62.56141948608069
 20
-49.84217364171299
 30
0.0
 11
67.43788805431215
 21
-49.84217364171299
 31
0.0
  0
LINE
  5
1D8
330
1F
100
AcDbEntity
  8
E-4
  6
Continuous
 62
     7
370
     9
100
AcDbLine
 10
-62.56141948608069
 20
-48.94217364171298
 30
0.0
 11
-62.56141948608069
 21
-99.842173641713
 31
0.0
  0
LINE
  5
1D9
330
1F
100
AcDbEntity
  8
E-4
  6
Continuous
 62
     7
370
     9
100
AcDbLine
 10
67.43788805431215
 20
-48.94217364171298
 30
0.0
 11
67.43788805431215
 21
-229.8422089018878
 31
0.0
  0
TEXT
  5
1DA
330
1F
100
AcDbEntity
  8
E-4
  6
Continuous
 62
     2
370
   211
100
AcDbText
 10
-7.31176571588427
 20
-46.35017364171299
 30
0.0
 40
9.144
  1
130
 41
1.083333333333333
  7
ＭＳ ゴシック
100
AcDbText
  0
LINE
  5
1DB
330
1F
100
AcDbEntity
  8
E-4
  6
Continuous
 62
     7
370
     9
100
AcDbLine
 10
162.4378477974732
 20
-103.8422634270201
 30
0.0
 11
162.4378477974732
 21
-233.842208883477
 31
0.0
  0
LINE
  5
1DC
330
1F
100
AcDbEntity
  8
E-4
  6
Continuous
 62
     7
370
     9
100
AcDbLine
 10
163.3378477974732
 20
-103.8422634270201
 30
0.0
 11
-58.56142879453106
 21
-103.8422634270201
 31
0.0
  0
LINE
  5
1DD
330
1F
100
AcDbEntity
  8
E-4
  6
Continuous
 62
     7
370
     9
100
AcDbLine
 10
163.3378477974732
 20
-233.842208883477
 30
0.0
 11
71.43788803590144
 21
-233.842208883477
 31
0.0
  0
TEXT
  5
1DE
330
1F
100
AcDbEntity
  8
E-4
  6
Continuous
 62
     2
370
   211
100
AcDbText
 10
158.9458477974732
 20
-178.5922361552485
 30
0.0
 40
9.144
  1
130
 50
90.0
 41
1.083333333333333
  7
ＭＳ ゴシック
100
AcDbText
  0
LINE
  5
1DF
330
1F
100
AcDbEntity
  8
E-4
  6
Continuous
 62
     7
370
     9
100
AcDbLine
 10
162.4378477974732
 20
-233.842208883477
 30
0.0
 11
162.4378477974732
 21
-253.6578791951581
 31
0.0
  0
LINE
  5
1E0
330
1F
100
AcDbEntity
  8
E-4
  6
Continuous
 62
     7
370
     9
100
AcDbLine
 10
163.3378477974732
 20
-253.6578791951581
 30
0.0
 11
-81.4850602343293
 21
-253.6578791951581
 31
0.0
  0
TEXT
  5
1E1
330
1F
100
AcDbEntity
  8
E-4
  6
Continuous
 62
     2
370
   211
100
AcDbText
 10
158.9458477974732
 20
-250.1250440393176
 30
0.0
 40
9.144
  1
20
 50
90.0
 41
1.0625
  7
ＭＳ ゴシック
100
AcDbText
  0
LINE
  5
1E2
330
1F
100
AcDbEntity
  8
E-4
  6
Continuous
 62
     7
370
     9
100
AcDbLine
 10
132.4378477974732
 20
-233.842208883477
 30
0.0
 11
132.4378477974732
 21
-202.165545024583
 31
0.0
  0
LINE
  5
1E3
330
1F
100
AcDbEntity
  8
E-4
  6
Continuous
 62
     7
370
     9
100
AcDbLine
 10
133.3378477974732
 20
-202.165545024583
 30
0.0
 11
-55.56186075376439
 21
-202.165545024583
 31
0.0
  0
TEXT
  5
1E4
330
1F
100
AcDbEntity
  8
E-4
  6
Continuous
 62
     2
370
   211
100
AcDbText
 10
128.9458477974732
 20
-224.37887695403
 30
0.0
 40
9.144
  1
31
 50
90.0
 41
1.0625
  7
ＭＳ ゴシック
100
AcDbText
  0
LINE
  5
1E5
330
1F
100
AcDbEntity
  8
E-4
  6
Continuous
 62
     7
370
     9
100
AcDbLine
 10
102.4378477974732
 20
-233.842208883477
 30
0.0
 11
102.4378477974732
 21
-225.842176294695
 31
0.0
  0
LINE
  5
1E6
330
1F
100
AcDbEntity
  8
E-4
  6
Continuous
 62
     7
370
     9
100
AcDbLine
 10
103.3378477974731
 20
-225.842176294695
 30
0.0
 11
69.43787872745088
 21
-225.842176294695
 31
0.0
  0
TEXT
  5
1E7
330
1F
100
AcDbEntity
  8
E-4
  6
Continuous
 62
     2
370
   211
100
AcDbText
 10
98.94584779747314
 20
-232.842192589086
 30
0.0
 40
9.144
  1
8
 50
90.0
  7
ＭＳ ゴシック
100
AcDbText
  0
LINE
  5
1E8
330
1F
100
AcDbEntity
  8
E-4
  6
Continuous
 62
     7
370
     9
100
AcDbLine
 10
102.4378477974732
 20
-225.842176294695
 30
0.0
 11
102.4378477974732
 21
-106.8423160981948
 31
0.0
  0
LINE
  5
1E9
330
1F
100
AcDbEntity
  8
E-4
  6
Continuous
 62
     7
370
     9
100
AcDbLine
 10
103.3378477974731
 20
-106.8423160981948
 30
0.0
 11
-49.56138690650408
 21
-106.8423160981948
 31
0.0
  0
TEXT
  5
1EA
330
1F
100
AcDbEntity
  8
E-4
  6
Continuous
 62
     2
370
   211
100
AcDbText
 10
98.94584779747314
 20
-176.0922461964449
 30
0.0
 40
9.144
  1
119
 50
90.0
 41
1.083333333333332
  7
ＭＳ ゴシック
100
AcDbText
  0
LINE
  5
1EB
330
1F
100
AcDbEntity
  8
E-4
  6
Continuous
 62
     7
370
     9
100
AcDbLine
 10
-147.7356323932325
 20
-246.3290559284315
 30
0.0
 11
-100.1300100436752
 21
-245.3595975684913
 31
0.0
  0
LINE
  5
1EC
330
1F
100
AcDbEntity
  8
E-4
  6
Continuous
 62
     7
370
     9
100
AcDbLine
 10
-149.4621608877687
 20
-161.5472160031874
 30
0.0
 11
-101.8563223937974
 21
-160.5777532416031
 31
0.0
  0
LINE
  5
1ED
330
1F
100
AcDbEntity
  8
E-4
  6
Continuous
 62
     7
370
     9
100
AcDbLine
 10
-148.5623474480924
 20
-161.528891872162
 30
0.0
 11
-146.8358189535561
 21
-246.3107317974061
 31
0.0
  0
LINE
  5
1EE
330
1F
100
AcDbEntity
  8
E-0
  6
Continuous
 62
     4
370
     9
100
AcDbLine
 10
-61.56186075376439
 20
-202.165545024583
 30
0.0
 11
-125.9189252097307
 21
-202.165545024583
 31
0.0
  0
TEXT
  5
1EF
330
1F
100
AcDbEntity
  8
E-4
  6
Continuous
 62
     2
370
     9
100
AcDbText
 10
-114.3447461775362
 20
-236.8394678371847
 30
0.0
 40
9.144
  1
1ﾟ10'
 50
90.58341893000005
 41
1.099999999999999
  7
ＭＳ ゴシック
100
AcDbText
  0
LINE
  5
1F0
330
1F
100
AcDbEntity
  8
E-4
  6
Continuous
 62
     7
370
     9
100
AcDbLine
 10
-148.5623474480924
 20
-161.528891872162
 30
0.0
 11
-147.432209218645
 21
-168.9432554714429
 31
0.0
  0
LINE
  5
1F1
330
1F
100
AcDbEntity
  8
E-4
  6
Continuous
 62
     7
370
     9
100
AcDbLine
 10
-148.5623474480924
 20
-161.528891872162
 30
0.0
 11
-149.3896962518013
 21
-168.9831184555844
 31
0.0
  0
LINE
  5
1F2
330
1F
100
AcDbEntity
  8
E-4
  6
Continuous
 62
     7
370
     9
100
AcDbLine
 10
-146.8358189535561
 20
-246.3107317974061
 30
0.0
 11
-147.9659571830036
 21
-238.8963681981252
 31
0.0
  0
LINE
  5
1F3
330
1F
100
AcDbEntity
  8
E-4
  6
Continuous
 62
     7
370
     9
100
AcDbLine
 10
-146.8358189535561
 20
-246.3107317974061
 30
0.0
 11
-146.0084701498472
 21
-238.8565052139837
 31
0.0
  0
LINE
  5
1F4
330
1F
100
AcDbEntity
  8
E-4
  6
Continuous
 62
     7
370
     9
100
AcDbLine
 10
-62.56141948608069
 20
-49.84217364171299
 30
0.0
 11
-55.12558302577712
 21
-48.8632272000626
 31
0.0
  0
LINE
  5
1F5
330
1F
100
AcDbEntity
  8
E-4
  6
Continuous
 62
     7
370
     9
100
AcDbLine
 10
-62.56141948608069
 20
-49.84217364171299
 30
0.0
 11
-55.12558302577712
 21
-50.82112008336338
 31
0.0
  0
LINE
  5
1F6
330
1F
100
AcDbEntity
  8
E-4
  6
Continuous
 62
     7
370
     9
100
AcDbLine
 10
67.43788805431215
 20
-49.84217364171299
 30
0.0
 11
60.00205159400858
 21
-50.82112008336338
 31
0.0
  0
LINE
  5
1F7
330
1F
100
AcDbEntity
  8
E-4
  6
Continuous
 62
     7
370
     9
100
AcDbLine
 10
67.43788805431215
 20
-49.84217364171299
 30
0.0
 11
60.00205159400858
 21
-48.8632272000626
 31
0.0
  0
LINE
  5
1F8
330
1F
100
AcDbEntity
  8
E-4
  6
Continuous
 62
     7
370
     9
100
AcDbLine
 10
64.43788338167616
 20
-74.842173641713
 30
0.0
 11
57.00204692137258
 21
-75.82112008336338
 31
0.0
  0
LINE
  5
1F9
330
1F
100
AcDbEntity
  8
E-4
  6
Continuous
 62
     7
370
     9
100
AcDbLine
 10
64.43788338167616
 20
-74.842173641713
 30
0.0
 11
57.00204692137258
 21
-73.86322720006261
 31
0.0
  0
LINE
  5
1FA
330
1F
100
AcDbEntity
  8
E-4
  6
Continuous
 62
     7
370
     9
100
AcDbLine
 10
-54.5613822522788
 20
-74.842173641713
 30
0.0
 11
-47.12554579197523
 21
-73.86322720006261
 31
0.0
  0
LINE
  5
1FB
330
1F
100
AcDbEntity
  8
E-4
  6
Continuous
 62
     7
370
     9
100
AcDbLine
 10
-54.5613822522788
 20
-74.842173641713
 30
0.0
 11
-47.12554579197523
 21
-75.82112008336338
 31
0.0
  0
LINE
  5
1FC
330
1F
100
AcDbEntity
  8
E-4
  6
Continuous
 62
     7
370
     9
100
AcDbLine
 10
-62.56141948608069
 20
-74.842173641713
 30
0.0
 11
-69.99725594638427
 21
-75.82112008336338
 31
0.0
  0
LINE
  5
1FD
330
1F
100
AcDbEntity
  8
E-4
  6
Continuous
 62
     7
370
     9
100
AcDbLine
 10
-62.56141948608069
 20
-74.842173641713
 30
0.0
 11
-69.99725594638427
 21
-73.86322720006261
 31
0.0
  0
LINE
  5
1FE
330
1F
100
AcDbEntity
  8
E-4
  6
Continuous
 62
     7
370
     9
100
AcDbLine
 10
-97.53046694409608
 20
-74.842173641713
 30
0.0
 11
-90.0946304837925
 21
-73.86322720006261
 31
0.0
  0
LINE
  5
1FF
330
1F
100
AcDbEntity
  8
E-4
  6
Continuous
 62
     7
370
     9
100
AcDbLine
 10
-97.53046694409608
 20
-74.842173641713
 30
0.0
 11
-90.0946304837925
 21
-75.82112008336338
 31
0.0
  0
LINE
  5
200
330
1F
100
AcDbEntity
  8
E-4
  6
Continuous
 62
     7
370
     9
100
AcDbLine
 10
102.4378477974732
 20
-106.8423160981948
 30
0.0
 11
103.4167942391235
 21
-114.2781525584984
 31
0.0
  0
LINE
  5
201
330
1F
100
AcDbEntity
  8
E-4
  6
Continuous
 62
     7
370
     9
100
AcDbLine
 10
102.4378477974732
 20
-106.8423160981948
 30
0.0
 11
101.4589013558228
 21
-114.2781525584984
 31
0.0
  0
LINE
  5
202
330
1F
100
AcDbEntity
  8
E-4
  6
Continuous
 62
     7
370
     9
100
AcDbLine
 10
102.4378477974732
 20
-225.842176294695
 30
0.0
 11
101.4589013558228
 21
-218.4063398343914
 31
0.0
  0
LINE
  5
203
330
1F
100
AcDbEntity
  8
E-4
  6
Continuous
 62
     7
370
     9
100
AcDbLine
 10
102.4378477974732
 20
-225.842176294695
 30
0.0
 11
103.4167942391235
 21
-218.4063398343914
 31
0.0
  0
LINE
  5
204
330
1F
100
AcDbEntity
  8
E-4
  6
Continuous
 62
     7
370
     9
100
AcDbLine
 10
162.4378477974732
 20
-253.6578791951581
 30
0.0
 11
161.4589013558228
 21
-246.2220427348545
 31
0.0
  0
LINE
  5
205
330
1F
100
AcDbEntity
  8
E-4
  6
Continuous
 62
     7
370
     9
100
AcDbLine
 10
162.4378477974732
 20
-253.6578791951581
 30
0.0
 11
163.4167942391236
 21
-246.2220427348545
 31
0.0
  0
LINE
  5
206
330
1F
100
AcDbEntity
  8
E-4
  6
Continuous
 62
     7
370
     9
100
AcDbLine
 10
162.4378477974732
 20
-233.842208883477
 30
0.0
 11
163.4167942391236
 21
-241.2780453437806
 31
0.0
  0
LINE
  5
207
330
1F
100
AcDbEntity
  8
E-4
  6
Continuous
 62
     7
370
     9
100
AcDbLine
 10
162.4378477974732
 20
-233.842208883477
 30
0.0
 11
161.4589013558228
 21
-241.2780453437806
 31
0.0
  0
LINE
  5
208
330
1F
100
AcDbEntity
  8
E-4
  6
Continuous
 62
     7
370
     9
100
AcDbLine
 10
162.4378477974732
 20
-233.842208883477
 30
0.0
 11
161.4589013558228
 21
-226.4063724231735
 31
0.0
  0
LINE
  5
209
330
1F
100
AcDbEntity
  8
E-4
  6
Continuous
 62
     7
370
     9
100
AcDbLine
 10
162.4378477974732
 20
-233.842208883477
 30
0.0
 11
163.4167942391236
 21
-226.4063724231735
 31
0.0
  0
LINE
  5
20A
330
1F
100
AcDbEntity
  8
E-4
  6
Continuous
 62
     7
370
     9
100
AcDbLine
 10
162.4378477974732
 20
-103.8422634270201
 30
0.0
 11
163.4167942391236
 21
-111.2780998873237
 31
0.0
  0
LINE
  5
20B
330
1F
100
AcDbEntity
  8
E-4
  6
Continuous
 62
     7
370
     9
100
AcDbLine
 10
162.4378477974732
 20
-103.8422634270201
 30
0.0
 11
161.4589013558228
 21
-111.2780998873237
 31
0.0
  0
LINE
  5
20C
330
1F
100
AcDbEntity
  8
E-4
  6
Continuous
 62
     7
370
     9
100
AcDbLine
 10
132.4378477974732
 20
-233.842208883477
 30
0.0
 11
131.4589013558228
 21
-226.4063724231735
 31
0.0
  0
LINE
  5
20D
330
1F
100
AcDbEntity
  8
E-4
  6
Continuous
 62
     7
370
     9
100
AcDbLine
 10
132.4378477974732
 20
-233.842208883477
 30
0.0
 11
133.4167942391236
 21
-226.4063724231735
 31
0.0
  0
LINE
  5
20E
330
1F
100
AcDbEntity
  8
E-4
  6
Continuous
 62
     7
370
     9
100
AcDbLine
 10
132.4378477974732
 20
-202.165545024583
 30
0.0
 11
133.4167942391236
 21
-209.6013814848866
 31
0.0
  0
LINE
  5
20F
330
1F
100
AcDbEntity
  8
E-4
  6
Continuous
 62
     7
370
     9
100
AcDbLine
 10
132.4378477974732
 20
-202.165545024583
 30
0.0
 11
131.4589013558228
 21
-209.6013814848866
 31
0.0
  0
LINE
  5
210
330
1F
100
AcDbEntity
  8
E-4
  6
Continuous
 62
     7
370
     9
100
AcDbLine
 10
102.4378477974732
 20
-233.842208883477
 30
0.0
 11
102.4378477974732
 21
-243.842208883477
 31
0.0
  0
LINE
  5
211
330
1F
100
AcDbEntity
  8
E-4
  6
Continuous
 62
     7
370
     9
100
AcDbLine
 10
102.4378477974732
 20
-233.842208883477
 30
0.0
 11
103.4167942391235
 21
-241.2780453437806
 31
0.0
  0
LINE
  5
212
330
1F
100
AcDbEntity
  8
E-4
  6
Continuous
 62
     7
370
     9
100
AcDbLine
 10
102.4378477974732
 20
-233.842208883477
 30
0.0
 11
101.4589013558228
 21
-241.2780453437806
 31
0.0
  0
LINE
  5
213
330
1F
100
AcDbEntity
  8
E-5
  6
Continuous
 62
     7
370
     9
100
AcDbLine
 10
-149.9090558712408
 20
-27.49457914457986
 30
0.0
 11
-73.56137158880063
 21
-103.8422634270201
 31
0.0
  0
LINE
  5
214
330
1F
100
AcDbEntity
  8
E-F
  6
Continuous
 62
     7
370
     9
100
AcDbLine
 10
-68.09823364180647
 20
-132.763569315428
 30
0.0
 11
-63.1623983521275
 21
-135.1241808075702
 31
0.0
  0
LINE
  5
215
330
1F
100
AcDbEntity
  8
E-F
  6
Continuous
 62
     7
370
     9
100
AcDbLine
 10
-63.1623983521275
 20
-135.1241808075702
 30
0.0
 11
-59.56170213787005
 21
-139.4173204461424
 31
0.0
  0
LINE
  5
216
330
1F
100
AcDbEntity
  8
E-F
  6
Continuous
 62
     7
370
     9
100
AcDbLine
 10
-79.25370879470358
 20
-130.6182729692875
 30
0.0
 11
-68.09823364180647
 21
-132.763569315428
 31
0.0
  0
LINE
  5
217
330
1F
100
AcDbEntity
  8
E-5
  6
Continuous
 62
     7
370
     9
100
AcDbLine
 10
-130.7016111168944
 20
-77.49457914457986
 30
0.0
 11
-90.37885807564064
 21
-117.8173321858336
 31
0.0
  0
LINE
  5
218
330
1F
100
AcDbEntity
  8
E-4
  6
Continuous
 62
     7
370
     9
100
AcDbLine
 10
149.3654903715969
 20
44.47576452406233
 30
0.0
 11
-43.97374079557441
 21
-148.863466643109
 31
0.0
  0
LINE
  5
219
330
1F
100
AcDbEntity
  8
E-4
  6
Continuous
 62
     7
370
     9
100
AcDbLine
 10
164.742328758396
 20
-5.524235475937692
 30
0.0
 11
-17.17871336469669
 21
-187.4452775990304
 31
0.0
  0
LINE
  5
21A
330
1F
100
AcDbEntity
  8
E-4
  6
Continuous
 62
     7
370
     9
100
AcDbLine
 10
167.7088100404147
 20
-55.5242354759377
 30
0.0
 11
6.890571002332479
 21
-216.34247451402
 31
0.0
  0
LINE
  5
21B
330
1F
100
AcDbEntity
  8
E-4
  6
Continuous
 62
     7
370
     9
100
AcDbLine
 10
182.4378477974732
 20
-105.5242354759377
 30
0.0
 11
62.11988220527647
 21
-225.8422010681344
 31
0.0
  0
LINE
  5
21C
330
1F
100
AcDbEntity
  8
E-4
  6
Continuous
 62
     7
370
     9
100
AcDbLine
 10
62.11988220527647
 20
-225.8422010681344
 30
0.0
 11
66.68559292284186
 21
-219.8920510159501
 31
0.0
  0
LINE
  5
21D
330
1F
100
AcDbEntity
  8
E-4
  6
Continuous
 62
     7
370
     9
100
AcDbLine
 10
62.11988220527647
 20
-225.8422010681344
 30
0.0
 11
68.07003225746072
 21
-221.276490350569
 31
0.0
  0
LINE
  5
21E
330
1F
100
AcDbEntity
  8
E-4
  6
Continuous
 62
     7
370
     9
100
AcDbLine
 10
6.890571002332479
 20
-216.34247451402
 30
0.0
 11
11.45628171989788
 21
-210.3923244618357
 31
0.0
  0
LINE
  5
21F
330
1F
100
AcDbEntity
  8
E-4
  6
Continuous
 62
     7
370
     9
100
AcDbLine
 10
6.890571002332479
 20
-216.34247451402
 30
0.0
 11
12.84072105451674
 21
-211.7767637964545
 31
0.0
  0
LINE
  5
220
330
1F
100
AcDbEntity
  8
E-4
  6
Continuous
 62
     7
370
     9
100
AcDbLine
 10
-17.17871336469669
 20
-187.4452775990304
 30
0.0
 11
-12.61300264713128
 21
-181.4951275468461
 31
0.0
  0
LINE
  5
221
330
1F
100
AcDbEntity
  8
E-4
  6
Continuous
 62
     7
370
     9
100
AcDbLine
 10
-17.17871336469669
 20
-187.4452775990304
 30
0.0
 11
-11.22856331251242
 21
-182.8795668814649
 31
0.0
  0
LINE
  5
222
330
1F
100
AcDbEntity
  8
E-4
  6
Continuous
 62
     7
370
     9
100
AcDbLine
 10
-43.97374079557441
 20
-148.863466643109
 30
0.0
 11
-39.40803007800901
 21
-142.9133165909248
 31
0.0
  0
LINE
  5
223
330
1F
100
AcDbEntity
  8
E-4
  6
Continuous
 62
     7
370
     9
100
AcDbLine
 10
-43.97374079557441
 20
-148.863466643109
 30
0.0
 11
-38.02359074339014
 21
-144.2977559255436
 31
0.0
  0
LINE
  5
224
330
1F
100
AcDbEntity
  8
E-4
  6
Continuous
 62
     7
370
     9
100
AcDbLine
 10
-73.56137158880063
 20
-103.8422634270201
 30
0.0
 11
-79.51152164098488
 21
-99.27655270945468
 31
0.0
  0
LINE
  5
225
330
1F
100
AcDbEntity
  8
E-4
  6
Continuous
 62
     7
370
     9
100
AcDbLine
 10
-73.56137158880063
 20
-103.8422634270201
 30
0.0
 11
-78.12708230636602
 21
-97.8921133748358
 31
0.0
  0
LINE
  5
226
330
1F
100
AcDbEntity
  8
E-4
  6
Continuous
 62
     7
370
     9
100
AcDbLine
 10
-90.37885807564064
 20
-117.8173321858336
 30
0.0
 11
-96.3290081278249
 21
-113.2516214682682
 31
0.0
  0
LINE
  5
227
330
1F
100
AcDbEntity
  8
E-4
  6
Continuous
 62
     7
370
     9
100
AcDbLine
 10
-90.37885807564064
 20
-117.8173321858336
 30
0.0
 11
-94.94456879320603
 21
-111.8671821336494
 31
0.0
  0
ELLIPSE
  5
228
330
1F
100
AcDbEntity
  8
E-0
  6
Continuous
 62
     4
370
     9
100
AcDbEllipse
 10
-89.07811625399813
 20
170.6581260209837
 30
0.0
 11
4.776121991789687E-15
 21
77.99999142797756
 31
0.0
210
0.0
220
0.0
230
1.0
 40
0.0202999999999999
 41
0.0
 42
1.217332276096372
  0
LINE
  5
229
330
1F
100
AcDbEntity
  8
E-0
  6
Continuous
 62
     4
370
     9
100
AcDbLine
 10
-64.36234943563113
 20
80.9777304306914
 30
0.0
 11
-73.56137158880063
 21
80.15787822767572
 31
0.0
  0
LINE
  5
22A
330
1F
100
AcDbEntity
  8
E-0
  6
Continuous
 62
     4
370
     9
100
AcDbLine
 10
-78.56141963336626
 20
164.0601663626299
 30
0.0
 11
-78.56141963336626
 21
146.5391513574077
 31
0.0
  0
LINE
  5
22B
330
1F
100
AcDbEntity
  8
E-0
  6
Continuous
 62
     4
370
     9
100
AcDbLine
 10
-77.71362299072399
 20
165.048527500344
 30
0.0
 11
-73.56137158880063
 21
165.6879795177562
 31
0.0
  0
LINE
  5
22C
330
1F
100
AcDbEntity
  8
E-0
  6
Continuous
 62
     4
370
     9
100
AcDbLine
 10
-77.75378073596755
 20
145.5578754233577
 30
0.0
 11
-73.56137158880063
 21
144.7359917983125
 31
0.0
  0
LINE
  5
22D
330
1F
100
AcDbEntity
  8
E-0
  6
Continuous
 62
     4
370
     9
100
AcDbLine
 10
-89.07811625399813
 20
146.6577170383056
 30
0.0
 11
-78.56141963336626
 21
146.6577170383056
 31
0.0
  0
LINE
  5
22E
330
1F
100
AcDbEntity
  8
E-0
  6
Continuous
 62
     4
370
     9
100
AcDbLine
 10
-97.35502144636968
 20
148.157699246204
 30
0.0
 11
-89.38716491032926
 21
148.157699246204
 31
0.0
  0
LINE
  5
22F
330
1F
100
AcDbEntity
  8
E-0
  6
JWW_DASHED2
 62
     4
370
     9
100
AcDbLine
 10
-62.56166722047459
 20
99.65789466474968
 30
0.0
 11
-63.5616718746997
 21
99.65789466474968
 31
0.0
  0
LINE
  5
230
330
1F
100
AcDbEntity
  8
E-0
  6
JWW_DASHED2
 62
     4
370
     9
100
AcDbLine
 10
-64.7163618844466
 20
97.65793490317793
 30
0.0
 11
-73.56166887007333
 21
97.65793490317793
 31
0.0
  0
LINE
  5
231
330
1F
100
AcDbEntity
  8
E-0
  6
JWW_DASHED2
 62
     4
370
     9
100
AcDbLine
 10
-64.7163618844466
 20
92.65786208517301
 30
0.0
 11
-73.56169364351274
 21
92.65786208517301
 31
0.0
  0
LINE
  5
232
330
1F
100
AcDbEntity
  8
E-0
  6
JWW_DASHED2
 62
     4
370
     9
100
AcDbLine
 10
-62.56176631423205
 20
90.65790232360132
 30
0.0
 11
-63.5616718746997
 21
90.65790232360132
 31
0.0
  0
LINE
  5
233
330
1F
100
AcDbEntity
  8
E-0
  6
JWW_DASHED2
 62
     4
370
     9
100
AcDbLine
 10
-64.7163618844466
 20
92.65786208517301
 30
0.0
 11
-63.5616718746997
 21
90.65790232360132
 31
0.0
  0
LINE
  5
234
330
1F
100
AcDbEntity
  8
E-0
  6
JWW_DASHED2
 62
     4
370
     9
100
AcDbLine
 10
-64.7163618844466
 20
97.65793490317793
 30
0.0
 11
-63.5616718746997
 21
99.65789466474968
 31
0.0
  0
LINE
  5
235
330
1F
100
AcDbEntity
  8
E-0
  6
JWW_DASHED2
 62
     4
370
     9
100
AcDbLine
 10
-63.5616718746997
 20
99.65789466474968
 30
0.0
 11
-63.5616718746997
 21
98.66522294858248
 31
0.0
  0
LINE
  5
236
330
1F
100
AcDbEntity
  8
E-0
  6
JWW_DASHED2
 62
     4
370
     9
100
AcDbLine
 10
-63.5616718746997
 20
91.65057403976851
 30
0.0
 11
-63.5616718746997
 21
90.65790232360132
 31
0.0
  0
LINE
  5
237
330
1F
100
AcDbEntity
  8
E-0
  6
JWW_CENTER1
 62
     4
370
     9
100
AcDbLine
 10
-61.06406326275697
 20
95.15789849417547
 30
0.0
 11
-105.3693281812575
 21
95.15789849417547
 31
0.0
  0
ARC
  5
238
330
1F
100
AcDbEntity
  8
E-0
  6
Continuous
 62
     4
370
     9
100
AcDbCircle
 10
-64.56142879453108
 20
82.96783036338775
 30
0.0
 40
2.000000018410701
100
AcDbArc
 50
275.7102966308594
 51
0.0000000000000382
  0
ARC
  5
239
330
1F
100
AcDbEntity
  8
E-0
  6
Continuous
 62
     4
370
     9
100
AcDbCircle
 10
57.43780125522073
 20
91.15783033039577
 30
0.0
 40
9.999999317883525
100
AcDbArc
 50
270.0
 51
0.0
  0
ARC
  5
23A
330
1F
100
AcDbEntity
  8
E-0
  6
Continuous
 62
     4
370
     9
100
AcDbCircle
 10
57.43780125522073
 20
90.15782567617055
 30
0.0
 40
9.999999317883525
100
AcDbArc
 50
270.0
 51
0.0
  0
ARC
  5
23B
330
1F
100
AcDbEntity
  8
E-0
  6
Continuous
 62
     4
370
     9
100
AcDbCircle
 10
-77.56141497914098
 20
146.5391513574077
 30
0.0
 40
1.00000000920535
100
AcDbArc
 50
180.0
 51
258.9078979492188
  0
ARC
  5
23C
330
1F
100
AcDbEntity
  8
E-0
  6
Continuous
 62
     4
370
     9
100
AcDbCircle
 10
-77.56141497914098
 20
164.0601663626299
 30
0.0
 40
1.00000000920535
100
AcDbArc
 50
98.75479125976562
 51
180.0
  0
ELLIPSE
  5
23D
330
1F
100
AcDbEntity
  8
E-0
  6
Continuous
 62
     4
370
     9
100
AcDbEllipse
 10
-97.04594801659914
 20
224.657188224056
 30
0.0
 11
4.776121991789687E-15
 21
-77.99999142797756
 31
0.0
210
0.0
220
0.0
230
1.0
 40
0.0203
 41
5.065856237117128
 42
6.086719918822779
  0
LINE
  5
23E
330
1F
100
AcDbEntity
  8
E-A
  6
JWW_DASHED2
 62
     2
370
     9
100
AcDbLine
 10
-62.8822355261197
 20
99.25790271243534
 30
0.0
 11
-65.2322439862051
 21
97.2079006033054
 31
0.0
  0
LINE
  5
23F
330
1F
100
AcDbEntity
  8
E-A
  6
JWW_DASHED2
 62
     2
370
     9
100
AcDbLine
 10
-65.2322439862051
 20
93.10789638504559
 30
0.0
 11
-62.8822355261197
 21
91.05789427591566
 31
0.0
  0
LINE
  5
240
330
1F
100
AcDbEntity
  8
E-A
  6
JWW_DASHED2
 62
     2
370
     9
100
AcDbLine
 10
-62.8822355261197
 20
99.25790271243534
 30
0.0
 11
-62.8822355261197
 21
91.05789427591566
 31
0.0
  0
LINE
  5
241
330
1F
100
AcDbEntity
  8
E-A
  6
JWW_DASHED2
 62
     2
370
     9
100
AcDbLine
 10
-65.2322439862051
 20
97.2079006033054
 30
0.0
 11
-65.2322439862051
 21
93.10789638504559
 31
0.0
  0
LINE
  5
242
330
1F
100
AcDbEntity
  8
E-A
  6
Continuous
 62
     2
370
     9
100
AcDbLine
 10
-75.54626909922615
 20
92.23641633435102
 30
0.0
 11
-79.87691403816274
 21
97.87529706034417
 31
0.0
  0
LINE
  5
243
330
1F
100
AcDbEntity
  8
E-A
  6
Continuous
 62
     2
370
     9
100
AcDbLine
 10
-96.79618220071706
 20
93.8639322082048
 30
0.0
 11
-98.77008030405545
 21
96.43412699754634
 31
0.0
  0
LINE
  5
244
330
1F
100
AcDbEntity
  8
E-A
  6
Continuous
 62
     2
370
     9
100
AcDbLine
 10
-91.60827716529309
 20
93.61922017395727
 30
0.0
 11
-93.8725199782267
 21
96.56750719519653
 31
0.0
  0
LINE
  5
245
330
1F
100
AcDbEntity
  8
E-A
  6
Continuous
 62
     2
370
     9
100
AcDbLine
 10
-86.38727481485046
 20
93.33145190205812
 30
0.0
 11
-89.11760511637823
 21
96.88658909447861
 31
0.0
  0
LINE
  5
246
330
1F
100
AcDbEntity
  8
E-A
  6
Continuous
 62
     2
370
     9
100
AcDbLine
 10
-80.8758782079338
 20
92.6655913982612
 30
0.0
 11
-84.54353636204218
 21
97.44121685543575
 31
0.0
  0
LINE
  5
247
330
1F
100
AcDbEntity
  8
E-A
  6
Continuous
 62
     2
370
     9
100
AcDbLine
 10
-76.21559788453698
 20
93.10789638504559
 30
0.0
 11
-102.789942445904
 21
95.15789849417547
 31
0.0
  0
LINE
  5
248
330
1F
100
AcDbEntity
  8
E-A
  6
Continuous
 62
     2
370
     9
100
AcDbLine
 10
-76.21559788453698
 20
97.2079006033054
 30
0.0
 11
-104.5421182667443
 21
95.15789849417547
 31
0.0
  0
LINE
  5
249
330
1F
100
AcDbEntity
  8
E-A
  6
JWW_DASHED2
 62
     2
370
     9
100
AcDbLine
 10
-65.2322439862051
 20
93.10789638504559
 30
0.0
 11
-73.56137158880063
 21
93.10789638504559
 31
0.0
  0
LINE
  5
24A
330
1F
100
AcDbEntity
  8
E-A
  6
JWW_DASHED2
 62
     2
370
     9
100
AcDbLine
 10
-65.2322439862051
 20
97.2079006033054
 30
0.0
 11
-73.56137158880063
 21
97.2079006033054
 31
0.0
  0
LINE
  5
24B
330
1F
100
AcDbEntity
  8
E-A
  6
Continuous
 62
     2
370
     9
100
AcDbLine
 10
-73.56137158880063
 20
97.2079006033054
 30
0.0
 11
-76.21559788453698
 21
97.2079006033054
 31
0.0
  0
LINE
  5
24C
330
1F
100
AcDbEntity
  8
E-A
  6
Continuous
 62
     2
370
     9
100
AcDbLine
 10
-73.56137158880063
 20
93.10789638504559
 30
0.0
 11
-76.21559788453698
 21
93.10789638504559
 31
0.0
  0
ARC
  5
24D
330
1F
100
AcDbEntity
  8
E-A
  6
Continuous
 62
     2
370
     9
100
AcDbCircle
 10
-53.8225391960529
 20
197.6578057631562
 30
0.0
 40
10.0000000920535
100
AcDbArc
 50
323.130126953125
 51
357.2540893554688
  0
LINE
  5
24E
330
1F
100
AcDbEntity
  8
E-1
  6
Continuous
 62
     6
370
     9
100
AcDbLine
 10
54.43783683942388
 20
81.15773424126462
 30
0.0
 11
-61.56126619121915
 21
81.15773424126462
 31
0.0
  0
LINE
  5
24F
330
1F
100
AcDbEntity
  8
E-1
  6
JWW_HOJO
 62
     6
370
     9
100
AcDbLine
 10
35.43784750290189
 20
121.157722222759
 30
0.0
 11
35.43784750290189
 21
124.157884826071
 31
0.0
  0
LINE
  5
250
330
1F
100
AcDbEntity
  8
E-1
  6
JWW_HOJO
 62
     6
370
     9
100
AcDbLine
 10
35.43784750290189
 20
121.157722222759
 30
0.0
 11
32.43788308710504
 21
121.157722222759
 31
0.0
  0
LINE
  5
251
330
1F
100
AcDbEntity
  8
E-1
  6
Continuous
 62
     6
370
     9
100
AcDbLine
 10
35.43784750290189
 20
124.157884826071
 30
0.0
 11
35.43784750290189
 21
152.1578169568625
 31
0.0
  0
LINE
  5
252
330
1F
100
AcDbEntity
  8
E-1
  6
Continuous
 62
     6
370
     9
100
AcDbLine
 10
40.4378212271493
 20
165.1578279149118
 30
0.0
 11
34.64128233290836
 21
162.1577644053573
 31
0.0
  0
LINE
  5
253
330
1F
100
AcDbEntity
  8
E-1
  6
Continuous
 62
     6
370
     9
100
AcDbLine
 10
35.43784750290189
 20
152.1578169568625
 30
0.0
 11
40.4378212271493
 21
152.1578169568625
 31
0.0
  0
LINE
  5
254
330
1F
100
AcDbEntity
  8
E-1
  6
Continuous
 62
     6
370
     9
100
AcDbLine
 10
35.43784750290189
 20
165.1578279149118
 30
0.0
 11
40.4378212271493
 21
165.1578279149118
 31
0.0
  0
LINE
  5
255
330
1F
100
AcDbEntity
  8
E-1
  6
Continuous
 62
     6
370
     9
100
AcDbLine
 10
34.64128233290836
 20
194.1578142468073
 30
0.0
 11
40.4378212271493
 21
191.1578498310103
 31
0.0
  0
LINE
  5
256
330
1F
100
AcDbEntity
  8
E-1
  6
Continuous
 62
     6
370
     9
100
AcDbLine
 10
35.43784750290189
 20
191.1578498310103
 30
0.0
 11
40.4378212271493
 21
191.1578498310103
 31
0.0
  0
LINE
  5
257
330
1F
100
AcDbEntity
  8
E-1
  6
Continuous
 62
     6
370
     9
100
AcDbLine
 10
40.4378212271493
 20
165.1578279149118
 30
0.0
 11
40.4378212271493
 21
191.1578498310103
 31
0.0
  0
LINE
  5
258
330
1F
100
AcDbEntity
  8
E-1
  6
Continuous
 62
     6
370
     9
100
AcDbLine
 10
35.43784750290189
 20
165.1578279149118
 30
0.0
 11
35.43784750290189
 21
191.1578498310103
 31
0.0
  0
LINE
  5
259
330
1F
100
AcDbEntity
  8
E-1
  6
Continuous
 62
     6
370
     9
100
AcDbLine
 10
10.67035374309853
 20
81.15773424126462
 30
0.0
 11
10.67035374309853
 21
87.65749198589543
 31
0.0
  0
LINE
  5
25A
330
1F
100
AcDbEntity
  8
E-1
  6
Continuous
 62
     6
370
     9
100
AcDbLine
 10
-16.6716453844993
 20
115.1580906724377
 30
0.0
 11
-16.6716453844993
 21
122.657803524415
 31
0.0
  0
LINE
  5
25B
330
1F
100
AcDbEntity
  8
E-1
  6
Continuous
 62
     6
370
     9
100
AcDbLine
 10
-24.67138533702848
 20
121.157722222759
 30
0.0
 11
-47.561795594611
 21
121.157722222759
 31
0.0
  0
LINE
  5
25C
330
1F
100
AcDbEntity
  8
E-1
  6
Continuous
 62
     6
370
     9
100
AcDbLine
 10
-47.561795594611
 20
122.657803524415
 30
0.0
 11
-24.67138533702848
 21
122.657803524415
 31
0.0
  0
LINE
  5
25D
330
1F
100
AcDbEntity
  8
E-1
  6
Continuous
 62
     6
370
     9
100
AcDbLine
 10
-24.67138533702848
 20
115.1580906724377
 30
0.0
 11
-24.67138533702848
 21
122.657803524415
 31
0.0
  0
LINE
  5
25E
330
1F
100
AcDbEntity
  8
E-1
  6
Continuous
 62
     6
370
     9
100
AcDbLine
 10
35.06124167736726
 20
115.1580906724377
 30
0.0
 11
38.42106507367441
 21
116.3236314486352
 31
0.0
  0
LINE
  5
25F
330
1F
100
AcDbEntity
  8
E-1
  6
Continuous
 62
     6
370
     9
100
AcDbLine
 10
40.4378212271493
 20
119.1580101955811
 30
0.0
 11
40.4378212271493
 21
152.1578169568625
 31
0.0
  0
LINE
  5
260
330
1F
100
AcDbEntity
  8
E-1
  6
JWW_HOJO
 62
     6
370
     9
100
AcDbLine
 10
40.4378212271493
 20
116.1580457797842
 30
0.0
 11
37.43780726447363
 21
116.1580457797842
 31
0.0
  0
LINE
  5
261
330
1F
100
AcDbEntity
  8
E-1
  6
JWW_HOJO
 62
     6
370
     9
100
AcDbLine
 10
40.4378212271493
 20
116.1580457797842
 30
0.0
 11
40.4378212271493
 21
119.1580101955811
 31
0.0
  0
LINE
  5
262
330
1F
100
AcDbEntity
  8
E-1
  6
Continuous
 62
     6
370
     9
100
AcDbLine
 10
-4.448579032450425
 20
121.259194230481
 30
0.0
 11
-16.6716453844993
 21
122.657803524415
 31
0.0
  0
LINE
  5
263
330
1F
100
AcDbEntity
  8
E-1
  6
Continuous
 62
     6
370
     9
100
AcDbLine
 10
-3.562234918124659
 20
117.0845724127927
 30
0.0
 11
-3.562234918124659
 21
120.2656802173747
 31
0.0
  0
LINE
  5
264
330
1F
100
AcDbEntity
  8
E-1
  6
Continuous
 62
     6
370
     9
100
AcDbLine
 10
-4.486185113437159
 20
116.087491024415
 30
0.0
 11
-16.6716453844993
 21
115.1580906724377
 31
0.0
  0
LINE
  5
265
330
1F
100
AcDbEntity
  8
E-1
  6
Continuous
 62
     6
370
     9
100
AcDbLine
 10
32.43788308710504
 20
121.157722222759
 30
0.0
 11
-4.110421584841674
 21
121.157722222759
 31
0.0
  0
LINE
  5
266
330
1F
100
AcDbEntity
  8
E-1
  6
Continuous
 62
     6
370
     9
100
AcDbLine
 10
37.43780726447363
 20
116.1580457797842
 30
0.0
 11
-4.186327403118014
 21
116.1580457797842
 31
0.0
  0
LINE
  5
267
330
1F
100
AcDbEntity
  8
E-1
  6
Continuous
 62
     6
370
     9
100
AcDbLine
 10
53.28720967373624
 20
92.65756480390041
 30
0.0
 11
53.28720967373624
 21
100.6578002252173
 31
0.0
  0
LINE
  5
268
330
1F
100
AcDbEntity
  8
E-1
  6
Continuous
 62
     6
370
     9
100
AcDbLine
 10
55.2872189821868
 20
102.6579086274253
 30
0.0
 11
64.43788338167616
 21
102.6579086274253
 31
0.0
  0
LINE
  5
269
330
1F
100
AcDbEntity
  8
E-1
  6
Continuous
 62
     6
370
     9
100
AcDbLine
 10
62.43792362010458
 20
101.1578273257693
 30
0.0
 11
64.43788338167616
 21
101.1578273257693
 31
0.0
  0
LINE
  5
26A
330
1F
100
AcDbEntity
  8
E-1
  6
Continuous
 62
     6
370
     9
100
AcDbLine
 10
60.43791431165403
 20
99.1578180173189
 30
0.0
 11
60.43791431165403
 21
91.15748350224436
 31
0.0
  0
LINE
  5
26B
330
1F
100
AcDbEntity
  8
E-1
  6
Continuous
 62
     6
370
     9
100
AcDbLine
 10
54.363962443177
 20
102.4319748602318
 30
0.0
 11
61.5147166279736
 21
100.9318935585758
 31
0.0
  0
LINE
  5
26C
330
1F
100
AcDbEntity
  8
E-1
  6
Continuous
 62
     6
370
     9
100
AcDbLine
 10
-56.34066021580668
 20
81.73782909790981
 30
0.0
 11
-61.56126619121915
 21
81.15773424126462
 31
0.0
  0
LINE
  5
26D
330
1F
100
AcDbEntity
  8
E-1
  6
Continuous
 62
     6
370
     9
100
AcDbLine
 10
10.67035374309853
 20
86.15741068423944
 30
0.0
 11
-54.56148134603626
 21
86.15741068423944
 31
0.0
  0
LINE
  5
26E
330
1F
100
AcDbEntity
  8
E-1
  6
Continuous
 62
     6
370
     9
100
AcDbLine
 10
10.67035374309853
 20
87.65749198589543
 30
0.0
 11
-54.56148134603626
 21
87.65749198589543
 31
0.0
  0
LINE
  5
26F
330
1F
100
AcDbEntity
  8
E-1
  6
Continuous
 62
     6
370
     9
100
AcDbLine
 10
-49.38076060803405
 20
115.9926582984482
 30
0.0
 11
-54.56148134603626
 21
115.5216656688557
 31
0.0
  0
LINE
  5
270
330
1F
100
AcDbEntity
  8
E-1
  6
Continuous
 62
     6
370
     9
100
AcDbLine
 10
-48.74685784104406
 20
116.1580457797842
 30
0.0
 11
-24.67138533702848
 21
116.1580457797842
 31
0.0
  0
LINE
  5
271
330
1F
100
AcDbEntity
  8
E-1
  6
Continuous
 62
     6
370
     9
100
AcDbLine
 10
-24.67138533702848
 20
115.1580906724377
 30
0.0
 11
-54.56148134603626
 21
115.1580906724377
 31
0.0
  0
LINE
  5
272
330
1F
100
AcDbEntity
  8
E-1
  6
Continuous
 62
     6
370
     9
100
AcDbLine
 10
35.06124167736726
 20
115.1580906724377
 30
0.0
 11
-16.6716453844993
 21
115.1580906724377
 31
0.0
  0
LINE
  5
273
330
1F
100
AcDbEntity
  8
E-1
  6
Continuous
 62
     6
370
     9
100
AcDbLine
 10
7.206878276403586
 20
122.657803524415
 30
0.0
 11
-16.6716453844993
 21
122.657803524415
 31
0.0
  0
LINE
  5
274
330
1F
100
AcDbEntity
  8
E-1
  6
Continuous
 62
     6
370
     9
100
AcDbLine
 10
11.37862637512302
 20
122.1648120806484
 30
0.0
 11
7.325939426089121
 21
122.650668773872
 31
0.0
  0
LINE
  5
275
330
1F
100
AcDbEntity
  8
E-1
  6
JWW_HOJO
 62
     6
370
     9
100
AcDbLine
 10
7.325642144816413
 20
122.650668773872
 30
0.0
 11
7.266384077806947
 21
122.657803524415
 31
0.0
  0
LINE
  5
276
330
1F
100
AcDbEntity
  8
E-1
  6
JWW_HOJO
 62
     6
370
     9
100
AcDbLine
 10
7.266384077806947
 20
122.657803524415
 30
0.0
 11
7.206878276403586
 21
122.657803524415
 31
0.0
  0
LINE
  5
277
330
1F
100
AcDbEntity
  8
E-1
  6
Continuous
 62
     6
370
     9
100
AcDbLine
 10
26.41625272260961
 20
122.1576773301055
 30
0.0
 11
11.49763797792991
 21
122.1576773301055
 31
0.0
  0
LINE
  5
278
330
1F
100
AcDbEntity
  8
E-1
  6
Continuous
 62
     6
370
     9
100
AcDbLine
 10
26.58302751655123
 20
122.1484616106541
 30
0.0
 11
33.54495854635331
 21
121.3694855826241
 31
0.0
  0
LINE
  5
279
330
1F
100
AcDbEntity
  8
E-1
  6
Continuous
 62
     6
370
     9
100
AcDbLine
 10
48.2873845901251
 20
87.65749198589543
 30
0.0
 11
18.67068825817313
 21
87.65749198589543
 31
0.0
  0
LINE
  5
27A
330
1F
100
AcDbEntity
  8
E-1
  6
Continuous
 62
     6
370
     9
100
AcDbLine
 10
18.67068825817313
 20
81.15773424126462
 30
0.0
 11
18.67068825817313
 21
87.65749198589543
 31
0.0
  0
LINE
  5
27B
330
1F
100
AcDbEntity
  8
E-1
  6
Continuous
 62
     6
370
     9
100
AcDbLine
 10
22.6431588104777
 20
81.9910136484271
 30
0.0
 11
18.67068825817313
 21
81.15773424126462
 31
0.0
  0
LINE
  5
27C
330
1F
100
AcDbEntity
  8
E-1
  6
Continuous
 62
     6
370
     9
100
AcDbLine
 10
22.73799153644444
 20
86.37769610725314
 30
0.0
 11
18.67068825817313
 21
87.65749198589543
 31
0.0
  0
LINE
  5
27D
330
1F
100
AcDbEntity
  8
E-1
  6
Continuous
 62
     6
370
     9
100
AcDbLine
 10
23.43784119907787
 20
85.42381959716323
 30
0.0
 11
23.43784119907787
 21
82.96976269165981
 31
0.0
  0
LINE
  5
27E
330
1F
100
AcDbEntity
  8
E-1
  6
Continuous
 62
     6
370
     9
100
AcDbLine
 10
55.43774239989153
 20
86.15741068423944
 30
0.0
 11
23.1173224403114
 21
86.15741068423944
 31
0.0
  0
LINE
  5
27F
330
1F
100
AcDbEntity
  8
E-1
  6
Continuous
 62
     6
370
     9
100
AcDbLine
 10
7.266631812200842
 20
124.1579343729497
 30
0.0
 11
7.266631812200842
 21
123.5449899356798
 31
0.0
  0
LINE
  5
280
330
1F
100
AcDbEntity
  8
E-1
  6
Continuous
 62
     6
370
     9
100
AcDbLine
 10
11.43778534837503
 20
124.1579343729497
 30
0.0
 11
11.43778534837503
 21
123.1576324374519
 31
0.0
  0
LINE
  5
281
330
1F
100
AcDbEntity
  8
E-1
  6
Continuous
 62
     6
370
     9
100
AcDbLine
 10
26.49968966645923
 20
123.4993077134533
 30
0.0
 11
26.49968966645923
 21
124.1579343729497
 31
0.0
  0
LINE
  5
282
330
1F
100
AcDbEntity
  8
E-1
  6
Continuous
 62
     6
370
     9
100
AcDbLine
 10
33.43818502260285
 20
152.6154814760657
 30
0.0
 11
35.43784750290189
 21
152.1578169568625
 31
0.0
  0
LINE
  5
283
330
1F
100
AcDbEntity
  8
E-1
  6
Continuous
 62
     6
370
     9
100
AcDbLine
 10
34.64128233290836
 20
155.157880466417
 30
0.0
 11
40.4378212271493
 21
152.1578169568625
 31
0.0
  0
LINE
  5
284
330
1F
100
AcDbEntity
  8
E-1
  6
Continuous
 62
     6
370
     9
100
AcDbLine
 10
33.43818502260285
 20
155.157880466417
 30
0.0
 11
34.64128233290836
 21
155.157880466417
 31
0.0
  0
LINE
  5
285
330
1F
100
AcDbEntity
  8
E-1
  6
Continuous
 62
     6
370
     9
100
AcDbLine
 10
33.43818502260285
 20
162.1577644053573
 30
0.0
 11
34.64128233290836
 21
162.1577644053573
 31
0.0
  0
LINE
  5
286
330
1F
100
AcDbEntity
  8
E-1
  6
Continuous
 62
     6
370
     9
100
AcDbLine
 10
33.43818502260285
 20
164.7001138488298
 30
0.0
 11
35.43784750290189
 21
165.1578279149118
 31
0.0
  0
LINE
  5
287
330
1F
100
AcDbEntity
  8
E-1
  6
Continuous
 62
     6
370
     9
100
AcDbLine
 10
33.43818502260285
 20
191.6154648033348
 30
0.0
 11
35.43784750290189
 21
191.1578498310103
 31
0.0
  0
LINE
  5
288
330
1F
100
AcDbEntity
  8
E-1
  6
Continuous
 62
     6
370
     9
100
AcDbLine
 10
33.43818502260285
 20
194.1578142468073
 30
0.0
 11
34.64128233290836
 21
194.1578142468073
 31
0.0
  0
LINE
  5
289
330
1F
100
AcDbEntity
  8
E-1
  6
Continuous
 62
     6
370
     9
100
AcDbLine
 10
10.67035374309853
 20
82.15778844236866
 30
0.0
 11
-55.319796325619
 21
82.15778844236866
 31
0.0
  0
LINE
  5
28A
330
1F
100
AcDbEntity
  8
E-1
  6
Continuous
 62
     6
370
     9
100
AcDbLine
 10
54.43783683942388
 20
82.15778844236866
 30
0.0
 11
23.02149877676925
 21
82.15778844236866
 31
0.0
  0
ARC
  5
28B
330
1F
100
AcDbEntity
  8
E-1
  6
Continuous
 62
     6
370
     9
100
AcDbCircle
 10
54.43783683942388
 20
91.15787987727452
 30
0.0
 40
9.999999317883525
100
AcDbArc
 50
270.0
 51
0.0
  0
ARC
  5
28C
330
1F
100
AcDbEntity
  8
E-1
  6
Continuous
 62
     6
370
     9
100
AcDbCircle
 10
55.43774239989153
 20
91.15748350224436
 30
0.0
 40
4.999999658941762
100
AcDbArc
 50
270.0
 51
0.0
  0
ARC
  5
28D
330
1F
100
AcDbEntity
  8
E-1
  6
Continuous
 62
     6
370
     9
100
AcDbCircle
 10
48.2873845901251
 20
92.65756480390041
 30
0.0
 40
4.999999658941762
100
AcDbArc
 50
270.0
 51
0.0
  0
ARC
  5
28E
330
1F
100
AcDbEntity
  8
E-1
  6
Continuous
 62
     6
370
     9
100
AcDbCircle
 10
-59.56135597652622
 20
83.39388397393537
 30
0.0
 40
3.000000027616052
100
AcDbArc
 50
180.0
 51
228.1888732910156
  0
ARC
  5
28F
330
1F
100
AcDbEntity
  8
E-1
  6
Continuous
 62
     6
370
     9
100
AcDbCircle
 10
32.43788308710504
 20
124.157884826071
 30
0.0
 40
3.000000027616052
100
AcDbArc
 50
270.0
 51
0.0
  0
ARC
  5
290
330
1F
100
AcDbEntity
  8
E-1
  6
Continuous
 62
     6
370
     9
100
AcDbCircle
 10
-4.562239572349938
 20
120.2656802173747
 30
0.0
 40
1.00000000920535
100
AcDbArc
 50
0.0
 51
83.47337341308594
  0
ARC
  5
291
330
1F
100
AcDbEntity
  8
E-1
  6
Continuous
 62
     6
370
     9
100
AcDbCircle
 10
-4.562239572349938
 20
117.0845724127927
 30
0.0
 40
1.00000000920535
100
AcDbArc
 50
274.3611755371094
 51
0.0
  0
ARC
  5
292
330
1F
100
AcDbEntity
  8
E-1
  6
Continuous
 62
     6
370
     9
100
AcDbCircle
 10
24.99970745856064
 20
123.6576595380039
 30
0.0
 40
1.500000013808026
100
AcDbArc
 50
270.0
 51
0.0
  0
ARC
  5
293
330
1F
100
AcDbEntity
  8
E-1
  6
Continuous
 62
     6
370
     9
100
AcDbCircle
 10
6.266627157975563
 20
123.6577586317615
 30
0.0
 40
1.00000000920535
100
AcDbArc
 50
270.0
 51
0.0
  0
ARC
  5
294
330
1F
100
AcDbEntity
  8
E-1
  6
Continuous
 62
     6
370
     9
100
AcDbCircle
 10
8.266586919547308
 20
123.5449899356798
 30
0.0
 40
1.00000000920535
100
AcDbArc
 50
180.0
 51
263.1644744873047
  0
ARC
  5
295
330
1F
100
AcDbEntity
  8
E-1
  6
Continuous
 62
     6
370
     9
100
AcDbCircle
 10
10.43783024102856
 20
123.2847697283771
 30
0.0
 40
1.00000000920535
100
AcDbArc
 50
263.1624755859375
 51
0.0000000000000127
  0
ARC
  5
296
330
1F
100
AcDbEntity
  8
E-1
  6
Continuous
 62
     6
370
     9
100
AcDbCircle
 10
12.43779000260031
 20
123.1576324374519
 30
0.0
 40
1.00000000920535
100
AcDbArc
 50
180.0
 51
270.0
  0
ARC
  5
297
330
1F
100
AcDbEntity
  8
E-1
  6
Continuous
 62
     6
370
     9
100
AcDbCircle
 10
7.206878276403586
 20
121.657749323311
 30
0.0
 40
1.00000000920535
100
AcDbArc
 50
83.16447448730469
 51
90.0
  0
ARC
  5
298
330
1F
100
AcDbEntity
  8
E-1
  6
Continuous
 62
     6
370
     9
100
AcDbCircle
 10
11.49763797792991
 20
123.1576324374519
 30
0.0
 40
1.00000000920535
100
AcDbArc
 50
263.1644744873047
 51
270.0
  0
ARC
  5
299
330
1F
100
AcDbEntity
  8
E-1
  6
Continuous
 62
     6
370
     9
100
AcDbCircle
 10
55.2872189821868
 20
100.6578002252173
 30
0.0
 40
2.000000018410701
100
AcDbArc
 50
90.0
 51
180.0
  0
ARC
  5
29A
330
1F
100
AcDbEntity
  8
E-1
  6
Continuous
 62
     6
370
     9
100
AcDbCircle
 10
62.43792362010458
 20
99.1578180173189
 30
0.0
 40
2.000000018410701
100
AcDbArc
 50
90.0
 51
180.0
  0
ARC
  5
29B
330
1F
100
AcDbEntity
  8
E-1
  6
Continuous
 62
     6
370
     9
100
AcDbCircle
 10
-56.56149065448682
 20
83.72564987418275
 30
0.0
 40
2.000000018410701
100
AcDbArc
 50
276.3399505615234
 51
0.0
  0
ARC
  5
29C
330
1F
100
AcDbEntity
  8
E-1
  6
Continuous
 62
     6
370
     9
100
AcDbCircle
 10
-49.56180490306156
 20
117.9844428250228
 30
0.0
 40
2.000000018410701
100
AcDbArc
 50
275.1943664550781
 51
0.0000000000000127
  0
ARC
  5
29D
330
1F
100
AcDbEntity
  8
E-1
  6
Continuous
 62
     6
370
     9
100
AcDbCircle
 10
27.99967187435766
 20
123.4993077134533
 30
0.0
 40
1.500000013808026
100
AcDbArc
 50
180.0
 51
263.6164398193359
  0
ARC
  5
29E
330
1F
100
AcDbEntity
  8
E-1
  6
Continuous
 62
     6
370
     9
100
AcDbCircle
 10
26.41625272260961
 20
120.657695122207
 30
0.0
 40
1.500000013808026
100
AcDbArc
 50
83.6156005859375
 51
90.0
  0
ARC
  5
29F
330
1F
100
AcDbEntity
  8
E-1
  6
Continuous
 62
     6
370
     9
100
AcDbCircle
 10
22.43783654485259
 20
82.96976269165981
 30
0.0
 40
1.00000000920535
100
AcDbArc
 50
281.8469085693359
 51
0.0000000000000127
  0
ARC
  5
2A0
330
1F
100
AcDbEntity
  8
E-1
  6
Continuous
 62
     6
370
     9
100
AcDbCircle
 10
22.43783654485259
 20
85.42381959716323
 30
0.0
 40
1.00000000920535
100
AcDbArc
 50
0.0
 51
72.53285217285156
  0
ARC
  5
2A1
330
1F
100
AcDbEntity
  8
E-1
  6
Continuous
 62
     6
370
     9
100
AcDbCircle
 10
37.43780726447363
 20
119.1580101955811
 30
0.0
 40
3.000000027616052
100
AcDbArc
 50
270.0
 51
0.0
  0
ARC
  5
2A2
330
1F
100
AcDbEntity
  8
E-1
  6
Continuous
 62
     6
370
     9
100
AcDbCircle
 10
54.43783683942388
 20
92.15773589086348
 30
0.0
 40
9.999999317883525
100
AcDbArc
 50
270.0
 51
0.0
  0
LINE
  5
2A3
330
1F
100
AcDbEntity
  8
E-A
  6
Continuous
 62
     2
370
     9
100
AcDbLine
 10
-43.83383888903893
 20
197.1790838204756
 30
0.0
 11
-45.8224524153722
 21
197.1790838204756
 31
0.0
  0
LINE
  5
2A4
330
1F
100
AcDbEntity
  8
E-A
  6
Continuous
 62
     2
370
     9
100
AcDbLine
 10
-45.8224524153722
 20
191.6578769315624
 30
0.0
 11
-47.561795594611
 21
191.6578769315624
 31
0.0
  0
LINE
  5
2A5
330
1F
100
AcDbEntity
  8
E-A
  6
Continuous
 62
     2
370
     9
100
AcDbLine
 10
-45.8224524153722
 20
197.1790838204756
 30
0.0
 11
-45.8224524153722
 21
197.6578057631562
 31
0.0
  0
LINE
  5
2A6
330
1F
100
AcDbEntity
  8
E-2
  6
Continuous
 62
     3
370
     9
100
AcDbLine
 10
24.43789540018196
 20
143.4078381659902
 30
0.0
 11
24.43789540018196
 21
137.9078373411908
 31
0.0
  0
LINE
  5
2A7
330
1F
100
AcDbEntity
  8
E-2
  6
Continuous
 62
     3
370
     9
100
AcDbLine
 10
24.43789540018196
 20
162.4078275025121
 30
0.0
 11
24.43789540018196
 21
156.9078762245915
 31
0.0
  0
LINE
  5
2A8
330
1F
100
AcDbEntity
  8
E-2
  6
Continuous
 62
     3
370
     9
100
AcDbLine
 10
24.43789540018196
 20
181.4078168390341
 30
0.0
 11
24.43789540018196
 21
175.9078655611134
 31
0.0
  0
LINE
  5
2A9
330
1F
100
AcDbEntity
  8
E-2
  6
Continuous
 62
     3
370
     9
100
AcDbLine
 10
-20.27786540893214
 20
124.157884826071
 30
0.0
 11
-20.27786540893214
 21
135.9078280327403
 31
0.0
  0
LINE
  5
2AA
330
1F
100
AcDbEntity
  8
E-2
  6
Continuous
 62
     3
370
     9
100
AcDbLine
 10
-20.27786540893214
 20
183.4078261474845
 30
0.0
 11
-20.27786540893214
 21
192.9078455891849
 31
0.0
  0
ARC
  5
2AB
330
1F
100
AcDbEntity
  8
E-2
  6
Continuous
 62
     3
370
     9
100
AcDbCircle
 10
30.43782423177583
 20
127.1578492418679
 30
0.0
 40
3.000000027616052
100
AcDbArc
 50
270.0
 51
0.0
  0
ARC
  5
2AC
330
1F
100
AcDbEntity
  8
E-2
  6
Continuous
 62
     3
370
     9
100
AcDbCircle
 10
22.4378860917314
 20
137.9078373411908
 30
0.0
 40
2.000000018410701
100
AcDbArc
 50
270.0
 51
0.0
  0
ARC
  5
2AD
330
1F
100
AcDbEntity
  8
E-2
  6
Continuous
 62
     3
370
     9
100
AcDbCircle
 10
22.4378860917314
 20
143.4078381659902
 30
0.0
 40
2.000000018410701
100
AcDbArc
 50
0.0
 51
90.0
  0
ARC
  5
2AE
330
1F
100
AcDbEntity
  8
E-2
  6
Continuous
 62
     3
370
     9
100
AcDbCircle
 10
22.4378860917314
 20
156.9078762245915
 30
0.0
 40
2.000000018410701
100
AcDbArc
 50
270.0
 51
0.0
  0
ARC
  5
2AF
330
1F
100
AcDbEntity
  8
E-2
  6
Continuous
 62
     3
370
     9
100
AcDbCircle
 10
22.4378860917314
 20
162.4078275025121
 30
0.0
 40
2.000000018410701
100
AcDbArc
 50
0.0
 51
90.0
  0
ARC
  5
2B0
330
1F
100
AcDbEntity
  8
E-2
  6
Continuous
 62
     3
370
     9
100
AcDbCircle
 10
22.4378860917314
 20
175.9078655611134
 30
0.0
 40
2.000000018410701
100
AcDbArc
 50
270.0
 51
0.0
  0
ARC
  5
2B1
330
1F
100
AcDbEntity
  8
E-2
  6
Continuous
 62
     3
370
     9
100
AcDbCircle
 10
22.4378860917314
 20
181.4078168390341
 30
0.0
 40
2.000000018410701
100
AcDbArc
 50
0.0
 51
90.0
  0
ARC
  5
2B2
330
1F
100
AcDbEntity
  8
E-2
  6
Continuous
 62
     3
370
     9
100
AcDbCircle
 10
-28.88445553264256
 20
194.9078548976353
 30
0.0
 40
2.000000018410701
100
AcDbArc
 50
180.0
 51
270.0
  0
ARC
  5
2B3
330
1F
100
AcDbEntity
  8
E-2
  6
Continuous
 62
     3
370
     9
100
AcDbCircle
 10
-39.95555695327704
 20
194.9078548976353
 30
0.0
 40
2.000000018410701
100
AcDbArc
 50
270.0
 51
0.0
  0
ARC
  5
2B4
330
1F
100
AcDbEntity
  8
E-2
  6
Continuous
 62
     3
370
     9
100
AcDbCircle
 10
-42.43042354786417
 20
194.9078548976353
 30
0.0
 40
2.000000018410701
100
AcDbArc
 50
270.0
 51
0.0
  0
ARC
  5
2B5
330
1F
100
AcDbEntity
  8
E-2
  6
Continuous
 62
     3
370
     9
100
AcDbCircle
 10
-14.21898473734268
 20
156.9078669161409
 30
0.0
 40
2.0
100
AcDbArc
 50
172.2478614123127
 51
270.0
  0
ARC
  5
2B6
330
1F
100
AcDbEntity
  8
E-2
  6
Continuous
 62
     3
370
     9
100
AcDbCircle
 10
-34.42003101639921
 20
159.6578766369912
 30
0.0
 40
18.38736923277137
100
AcDbArc
 50
352.2478614123131
 51
7.752138587686652
  0
ARC
  5
2B7
330
1F
100
AcDbEntity
  8
E-2
  6
Continuous
 62
     3
370
     9
100
AcDbCircle
 10
-14.21898473734268
 20
162.4078863578413
 30
0.0
 40
2.0
100
AcDbArc
 50
90.0
 51
187.7521385876865
  0
LINE
  5
2B8
330
1F
100
AcDbEntity
  8
E-2
  6
JWW_CENTER1
 62
     3
370
     9
100
AcDbLine
 10
-34.42003101639921
 20
144.3010468791003
 30
0.0
 11
-34.42003101639921
 21
173.8654762958374
 31
0.0
  0
ARC
  5
2B9
330
1F
100
AcDbEntity
  8
E-2
  6
Continuous
 62
     3
370
     9
100
AcDbCircle
 10
-24.10770155477576
 20
138.9078551332922
 30
0.0
 40
3.0
100
AcDbArc
 50
116.9874828212934
 51
270.0
  0
ARC
  5
2BA
330
1F
100
AcDbEntity
  8
E-2
  6
Continuous
 62
     3
370
     9
100
AcDbCircle
 10
-34.42003101639921
 20
159.1578766369912
 30
0.0
 40
19.72460142280469
100
AcDbArc
 50
296.9874828212933
 51
313.5324309939941
  0
ARC
  5
2BB
330
1F
100
AcDbEntity
  8
E-2
  6
Continuous
 62
     3
370
     9
100
AcDbCircle
 10
-19.45688488910474
 20
143.4078745749926
 30
0.0
 40
2.0
100
AcDbArc
 50
90.0
 51
133.5324309939944
  0
ARC
  5
2BC
330
1F
100
AcDbEntity
  8
E-2
  6
Continuous
 62
     3
370
     9
100
AcDbCircle
 10
-44.81522607903764
 20
138.9078551332922
 30
0.0
 40
3.0
100
AcDbArc
 50
270.0
 51
62.82664676399656
  0
ARC
  5
2BD
330
1F
100
AcDbEntity
  8
E-2
  6
Continuous
 62
     3
370
     9
100
AcDbCircle
 10
-47.17325568759168
 20
139.1078551332922
 30
0.0
 40
4.0
100
AcDbArc
 50
306.8770401078726
 51
57.54076887449891
  0
LINE
  5
2BE
330
1F
100
AcDbEntity
  8
E-2
  6
Continuous
 62
     3
370
     9
100
AcDbLine
 10
-14.21898473734268
 20
154.907866916141
 30
0.0
 11
22.4378860917314
 21
154.907866916141
 31
0.0
  0
LINE
  5
2BF
330
1F
100
AcDbEntity
  8
E-2
  6
Continuous
 62
     3
370
     9
100
AcDbLine
 10
-14.23306255890384
 20
164.4078368109626
 30
0.0
 11
22.4378860917314
 21
164.4078368109626
 31
0.0
  0
ARC
  5
2C0
330
1F
100
AcDbEntity
  8
E-2
  6
Continuous
 62
     3
370
     9
100
AcDbCircle
 10
-19.45688488910474
 20
175.9078786989897
 30
0.0
 40
2.0
100
AcDbArc
 50
226.4675690060056
 51
270.0
  0
ARC
  5
2C1
330
1F
100
AcDbEntity
  8
E-2
  6
Continuous
 62
     3
370
     9
100
AcDbCircle
 10
-34.42003101639921
 20
160.1578766369911
 30
0.0
 40
19.72460142280469
100
AcDbArc
 50
46.46756900600587
 51
63.01251717870669
  0
ARC
  5
2C2
330
1F
100
AcDbEntity
  8
E-2
  6
Continuous
 62
     3
370
     9
100
AcDbCircle
 10
-24.10770155477576
 20
180.4078981406901
 30
0.0
 40
3.0
100
AcDbArc
 50
90.0
 51
243.0125171787066
  0
ARC
  5
2C3
330
1F
100
AcDbEntity
  8
E-2
  6
Continuous
 62
     3
370
     9
100
AcDbCircle
 10
-47.17325568759168
 20
180.20789814069
 30
0.0
 40
4.0
100
AcDbArc
 50
302.459231125501
 51
53.12295989212736
  0
ARC
  5
2C4
330
1F
100
AcDbEntity
  8
E-2
  6
Continuous
 62
     3
370
     9
100
AcDbCircle
 10
-44.81522607903764
 20
180.4078981406901
 30
0.0
 40
3.0
100
AcDbArc
 50
297.1733532360034
 51
90.0
  0
LINE
  5
2C5
330
1F
100
AcDbEntity
  8
E-2
  6
Continuous
 62
     3
370
     9
100
AcDbLine
 10
-24.12848505905885
 20
183.4078261474845
 30
0.0
 11
22.4378860917314
 21
183.4078261474845
 31
0.0
  0
LINE
  5
2C6
330
1F
100
AcDbEntity
  8
E-2
  6
Continuous
 62
     3
370
     9
100
AcDbLine
 10
-19.45688488910474
 20
173.907856252663
 30
0.0
 11
22.4378860917314
 21
173.907856252663
 31
0.0
  0
LINE
  5
2C7
330
1F
100
AcDbEntity
  8
E-2
  6
Continuous
 62
     3
370
     9
100
AcDbLine
 10
-19.46729649193054
 20
145.4078474744406
 30
0.0
 11
22.4378860917314
 21
145.4078474744406
 31
0.0
  0
LINE
  5
2C8
330
1F
100
AcDbEntity
  8
E-2
  6
Continuous
 62
     3
370
     9
100
AcDbLine
 10
-24.10770155477576
 20
135.9078280327403
 30
0.0
 11
22.4378860917314
 21
135.9078280327403
 31
0.0
  0
LINE
  5
2C9
330
1F
100
AcDbEntity
  8
E-2
  6
Continuous
 62
     3
370
     9
100
AcDbLine
 10
30.43782423177583
 20
124.157884826071
 30
0.0
 11
-47.561795594611
 21
124.157884826071
 31
0.0
  0
LINE
  5
2CA
330
1F
100
AcDbEntity
  8
E-2
  6
Continuous
 62
     3
370
     9
100
AcDbLine
 10
-39.95555695327704
 20
192.9078455891849
 30
0.0
 11
-45.02265964081136
 21
192.9078455891849
 31
0.0
  0
LINE
  5
2CB
330
1F
100
AcDbEntity
  8
E-2
  6
Continuous
 62
     3
370
     9
100
AcDbLine
 10
-44.77285679590767
 20
183.4078756943633
 30
0.0
 11
-47.561795594611
 21
183.4078756943633
 31
0.0
  0
ARC
  5
2CC
330
1F
100
AcDbEntity
  8
E-2
  6
Continuous
 62
     3
370
     9
100
AcDbCircle
 10
-34.42003101639921
 20
160.1578766369911
 30
0.0
 40
19.76232526106613
100
AcDbArc
 50
117.1733532360034
 51
131.681619959378
  0
ELLIPSE
  5
2CD
330
1F
100
AcDbEntity
  8
E-A
  6
Continuous
 62
     2
370
     9
100
AcDbEllipse
 10
-32.76950179151987
 20
159.6578766369912
 30
0.0
 11
3.061616997868383E-16
 21
-5.0
 31
0.0
210
0.0
220
0.0
230
1.0
 40
0.7071048989705532
 41
3.141592653589793
 42
6.283185307179586
  0
LINE
  5
2CE
330
1F
100
AcDbEntity
  8
E-A
  6
Continuous
 62
     2
370
     9
100
AcDbLine
 10
-28.51404030247704
 20
164.6578766369911
 30
0.0
 11
-29.94290589661233
 21
168.1578766369912
 31
0.0
  0
LINE
  5
2CF
330
1F
100
AcDbEntity
  8
E-A
  6
Continuous
 62
     2
370
     9
100
AcDbLine
 10
-28.51404030247704
 20
154.6578766369912
 30
0.0
 11
-29.94290589661233
 21
151.1578766369911
 31
0.0
  0
LINE
  5
2D0
330
1F
100
AcDbEntity
  8
E-A
  6
Continuous
 62
     2
370
     9
100
AcDbLine
 10
-36.86188365687445
 20
168.1578766369912
 30
0.0
 11
-40.33214704596116
 21
159.6578766369912
 31
0.0
  0
LINE
  5
2D1
330
1F
100
AcDbEntity
  8
E-A
  6
Continuous
 62
     2
370
     9
100
AcDbLine
 10
-36.86188365687445
 20
151.1578766369911
 30
0.0
 11
-40.33214704596116
 21
159.6578766369912
 31
0.0
  0
LINE
  5
2D2
330
1F
100
AcDbEntity
  8
E-A
  6
Continuous
 62
     2
370
     9
100
AcDbLine
 10
-29.94290589661233
 20
168.1578766369912
 30
0.0
 11
-41.3752196949473
 21
168.1578766369912
 31
0.0
  0
LINE
  5
2D3
330
1F
100
AcDbEntity
  8
E-A
  6
Continuous
 62
     2
370
     9
100
AcDbLine
 10
-29.94290589661233
 20
151.1578766369911
 30
0.0
 11
-41.3752196949473
 21
151.1578766369911
 31
0.0
  0
ELLIPSE
  5
2D4
330
1F
100
AcDbEntity
  8
E-2
  6
Continuous
 62
     3
370
     9
100
AcDbEllipse
 10
-37.95557418952035
 20
159.6578766369912
 30
0.0
 11
-1.199071815626999E-14
 21
14.5
 31
0.0
210
0.0
220
0.0
230
1.0
 40
0.7071027279390983
 41
3.616094977590664
 42
4.360333881075685
  0
ELLIPSE
  5
2D5
330
1F
100
AcDbEntity
  8
E-2
  6
Continuous
 62
     3
370
     9
100
AcDbEllipse
 10
-37.95557418952035
 20
159.6578766369912
 30
0.0
 11
-1.199071815626999E-14
 21
14.5
 31
0.0
210
0.0
220
0.0
230
1.0
 40
0.7071027279390983
 41
5.064444079693692
 42
5.808682983178715
  0
ARC
  5
2D6
330
1F
100
AcDbEntity
  8
E-2
  6
Continuous
 62
     3
370
     9
100
AcDbCircle
 10
-34.42003101639921
 20
159.1578766369912
 30
0.0
 40
19.76232526106613
100
AcDbArc
 50
228.318380040622
 51
242.8266467639966
  0
LINE
  5
2D7
330
1F
100
AcDbEntity
  8
E-2
  6
Continuous
 62
     3
370
     9
100
AcDbLine
 10
-44.77285679590767
 20
135.9078280327403
 30
0.0
 11
-47.561795594611
 21
135.9078280327403
 31
0.0
  0
LINE
  5
2D8
330
1F
100
AcDbEntity
  8
E-A
  6
Continuous
 62
     2
370
     9
100
AcDbLine
 10
-40.33214704596116
 20
159.6578766369912
 30
0.0
 11
-43.61238350493738
 21
159.6578766369912
 31
0.0
  0
LINE
  5
2D9
330
1F
100
AcDbEntity
  8
E-2
  6
Continuous
 62
     3
370
     9
100
AcDbLine
 10
22.43788609173157
 20
192.9078455891849
 30
0.0
 11
-28.88445553264256
 21
192.9078455891849
 31
0.0
  0
ARC
  5
2DA
330
1F
100
AcDbEntity
  8
E-2
  6
Continuous
 62
     3
370
     9
100
AcDbCircle
 10
22.43788609173157
 20
194.9078548976353
 30
0.0
 40
2.000000018410701
100
AcDbArc
 50
270.0
 51
0.0
  0
ELLIPSE
  5
2DB
330
1F
100
AcDbEntity
  8
E-A
  6
Continuous
 62
     2
370
     9
100
AcDbEllipse
 10
-20.18371674353295
 20
159.6578766369912
 30
0.0
 11
3.061616997868383E-16
 21
-5.0
 31
0.0
210
0.0
220
0.0
230
1.0
 40
0.7071048989705532
 41
0.0
 42
6.283185307179586
  0
LINE
  5
2DC
330
1F
100
AcDbEntity
  8
E-A
  6
Continuous
 62
     2
370
     9
100
AcDbLine
 10
-20.71413298778532
 20
164.6012878296894
 30
0.0
 11
-20.71413298778532
 21
154.714465444293
 31
0.0
  0
LINE
  5
2DD
330
1F
100
AcDbEntity
  8
E-A
  6
Continuous
 62
     2
370
     9
100
AcDbLine
 10
-19.65343340706619
 20
164.6013163475631
 30
0.0
 11
-19.65343340706619
 21
154.7144369264192
 31
0.0
  0
LINE
  5
2DE
330
1F
100
AcDbEntity
  8
E-A
  6
Continuous
 62
     2
370
     9
100
AcDbLine
 10
-19.65343340706619
 20
164.6013163475632
 30
0.0
 11
-20.71413298778532
 21
164.6013163475632
 31
0.0
  0
LINE
  5
2DF
330
1F
100
AcDbEntity
  8
E-A
  6
Continuous
 62
     2
370
     9
100
AcDbLine
 10
-19.65343340706619
 20
154.7144369264192
 30
0.0
 11
-20.71413298778532
 21
154.7144369264192
 31
0.0
  0
LINE
  5
2E0
330
1F
100
AcDbEntity
  8
E-A
  6
Continuous
 62
     2
370
     9
100
AcDbLine
 10
-20.18371674353295
 20
164.6578766369911
 30
0.0
 11
-32.76950179151987
 21
164.6578766369911
 31
0.0
  0
LINE
  5
2E1
330
1F
100
AcDbEntity
  8
E-A
  6
Continuous
 62
     2
370
     9
100
AcDbLine
 10
-20.18371674353295
 20
154.6578766369912
 30
0.0
 11
-32.76950179151987
 21
154.6578766369912
 31
0.0
  0
ELLIPSE
  5
2E2
330
1F
100
AcDbEntity
  8
E-2
  6
Continuous
 62
     3
370
     9
100
AcDbEllipse
 10
-34.42003838565722
 20
159.6578766369912
 30
0.0
 11
7.960204194457796E-16
 21
13.0
 31
0.0
210
0.0
220
0.0
230
1.0
 40
0.7071034707138655
 41
5.107180100084451
 42
10.60078316786451
  0
LINE
  5
2E3
330
1F
100
AcDbEntity
  8
E-2
  6
Continuous
 62
     3
370
     9
100
AcDbLine
 10
-20.27786540893214
 20
164.6578766369911
 30
0.0
 11
-20.27786540893214
 21
173.907856252663
 31
0.0
  0
LINE
  5
2E4
330
1F
100
AcDbEntity
  8
E-2
  6
Continuous
 62
     3
370
     9
100
AcDbLine
 10
-20.27786540893214
 20
145.4078474744406
 30
0.0
 11
-20.27786540893214
 21
154.6578766369912
 31
0.0
  0
LINE
  5
2E5
330
1F
100
AcDbEntity
  8
E-2
  6
JWW_CENTER1
 62
     3
370
     9
100
AcDbLine
 10
-16.23305147965613
 20
159.6578766369912
 30
0.0
 11
-40.33214704596116
 21
159.6578766369912
 31
0.0
  0
LINE
  5
2E6
330
1F
100
AcDbEntity
  8
E-A
  6
Continuous
 62
     2
370
     9
100
AcDbLine
 10
-22.30503144044462
 20
163.6578766369912
 30
0.0
 11
-34.89081648843154
 21
163.6578766369912
 31
0.0
  0
LINE
  5
2E7
330
1F
100
AcDbEntity
  8
E-A
  6
Continuous
 62
     2
370
     9
100
AcDbLine
 10
-22.30503144044462
 20
155.6578766369911
 30
0.0
 11
-34.89081648843154
 21
155.6578766369911
 31
0.0
  0
LINE
  5
2E8
330
1F
100
AcDbEntity
  8
E-0
  6
Continuous
 62
     4
370
     9
100
AcDbLine
 10
-64.36234943563113
 20
314.337881095621
 30
0.0
 11
-73.56137158880063
 21
315.1577332986367
 31
0.0
  0
LINE
  5
2E9
330
1F
100
AcDbEntity
  8
E-0
  6
Continuous
 62
     4
370
     9
100
AcDbLine
 10
-78.56141963336626
 20
231.2554451636825
 30
0.0
 11
-78.56141963336626
 21
248.7764601689047
 31
0.0
  0
LINE
  5
2EA
330
1F
100
AcDbEntity
  8
E-0
  6
Continuous
 62
     4
370
     9
100
AcDbLine
 10
-77.71362299072399
 20
230.2670840259684
 30
0.0
 11
-73.56137158880063
 21
229.6276320085562
 31
0.0
  0
LINE
  5
2EB
330
1F
100
AcDbEntity
  8
E-0
  6
Continuous
 62
     4
370
     9
100
AcDbLine
 10
-77.75378073596755
 20
249.7577361029547
 30
0.0
 11
-73.56137158880063
 21
250.5796197279999
 31
0.0
  0
LINE
  5
2EC
330
1F
100
AcDbEntity
  8
E-0
  6
Continuous
 62
     4
370
     9
100
AcDbLine
 10
-89.07811625399813
 20
248.6578944880069
 30
0.0
 11
-78.56141963336626
 21
248.6578944880069
 31
0.0
  0
LINE
  5
2ED
330
1F
100
AcDbEntity
  8
E-0
  6
Continuous
 62
     4
370
     9
100
AcDbLine
 10
-97.35502144636968
 20
247.1579122801084
 30
0.0
 11
-89.38716491032926
 21
247.1579122801084
 31
0.0
  0
LINE
  5
2EE
330
1F
100
AcDbEntity
  8
E-0
  6
JWW_DASHED2
 62
     4
370
     9
100
AcDbLine
 10
-62.56166722047459
 20
295.6577168615628
 30
0.0
 11
-63.5616718746997
 21
295.6577168615628
 31
0.0
  0
LINE
  5
2EF
330
1F
100
AcDbEntity
  8
E-0
  6
JWW_DASHED2
 62
     4
370
     9
100
AcDbLine
 10
-64.7163618844466
 20
297.6576766231345
 30
0.0
 11
-73.56166887007333
 21
297.6576766231345
 31
0.0
  0
LINE
  5
2F0
330
1F
100
AcDbEntity
  8
E-0
  6
JWW_DASHED2
 62
     4
370
     9
100
AcDbLine
 10
-64.7163618844466
 20
302.6577494411393
 30
0.0
 11
-73.56169364351274
 21
302.6577494411393
 31
0.0
  0
LINE
  5
2F1
330
1F
100
AcDbEntity
  8
E-0
  6
JWW_DASHED2
 62
     4
370
     9
100
AcDbLine
 10
-62.56176631423205
 20
304.6577092027111
 30
0.0
 11
-63.5616718746997
 21
304.6577092027111
 31
0.0
  0
LINE
  5
2F2
330
1F
100
AcDbEntity
  8
E-0
  6
JWW_DASHED2
 62
     4
370
     9
100
AcDbLine
 10
-64.7163618844466
 20
302.6577494411393
 30
0.0
 11
-63.5616718746997
 21
304.6577092027111
 31
0.0
  0
LINE
  5
2F3
330
1F
100
AcDbEntity
  8
E-0
  6
JWW_DASHED2
 62
     4
370
     9
100
AcDbLine
 10
-64.7163618844466
 20
297.6576766231345
 30
0.0
 11
-63.5616718746997
 21
295.6577168615628
 31
0.0
  0
LINE
  5
2F4
330
1F
100
AcDbEntity
  8
E-0
  6
JWW_DASHED2
 62
     4
370
     9
100
AcDbLine
 10
-63.5616718746997
 20
295.6577168615628
 30
0.0
 11
-63.5616718746997
 21
296.6503885777299
 31
0.0
  0
LINE
  5
2F5
330
1F
100
AcDbEntity
  8
E-0
  6
JWW_DASHED2
 62
     4
370
     9
100
AcDbLine
 10
-63.5616718746997
 20
303.6650374865438
 30
0.0
 11
-63.5616718746997
 21
304.6577092027111
 31
0.0
  0
LINE
  5
2F6
330
1F
100
AcDbEntity
  8
E-0
  6
JWW_CENTER1
 62
     4
370
     9
100
AcDbLine
 10
-61.06406326275697
 20
300.1577130321369
 30
0.0
 11
-105.3693281812575
 21
300.1577130321369
 31
0.0
  0
ARC
  5
2F7
330
1F
100
AcDbEntity
  8
E-0
  6
Continuous
 62
     4
370
     9
100
AcDbCircle
 10
-64.56142879453108
 20
312.3477811629247
 30
0.0
 40
2.000000018410701
100
AcDbArc
 50
359.9999999999999
 51
84.28970336914058
  0
ARC
  5
2F8
330
1F
100
AcDbEntity
  8
E-0
  6
Continuous
 62
     4
370
     9
100
AcDbCircle
 10
57.43780125522073
 20
304.1577811959166
 30
0.0
 40
9.999999317883525
100
AcDbArc
 50
0.0
 51
90.0
  0
ARC
  5
2F9
330
1F
100
AcDbEntity
  8
E-0
  6
Continuous
 62
     4
370
     9
100
AcDbCircle
 10
57.43780125522073
 20
305.1577858501419
 30
0.0
 40
9.999999317883525
100
AcDbArc
 50
0.0
 51
90.0
  0
ARC
  5
2FA
330
1F
100
AcDbEntity
  8
E-0
  6
Continuous
 62
     4
370
     9
100
AcDbCircle
 10
-77.56141497914098
 20
248.7764601689047
 30
0.0
 40
1.00000000920535
100
AcDbArc
 50
101.0921020507812
 51
180.0
  0
ARC
  5
2FB
330
1F
100
AcDbEntity
  8
E-0
  6
Continuous
 62
     4
370
     9
100
AcDbCircle
 10
-77.56141497914098
 20
231.2554451636825
 30
0.0
 40
1.00000000920535
100
AcDbArc
 50
180.0
 51
261.2452087402344
  0
ELLIPSE
  5
2FC
330
1F
100
AcDbEntity
  8
E-0
  6
Continuous
 62
     4
370
     9
100
AcDbEllipse
 10
-97.04594801659914
 20
170.6584233022564
 30
0.0
 11
4.776121991789687E-15
 21
77.99999142797756
 31
0.0
210
0.0
220
0.0
230
1.0
 40
0.0202999999999999
 41
0.1964653883567804
 42
1.217329070062457
  0
LINE
  5
2FD
330
1F
100
AcDbEntity
  8
E-A
  6
JWW_DASHED2
 62
     2
370
     9
100
AcDbLine
 10
-62.8822355261197
 20
296.0577088138771
 30
0.0
 11
-65.2322439862051
 21
298.1077109230071
 31
0.0
  0
LINE
  5
2FE
330
1F
100
AcDbEntity
  8
E-A
  6
JWW_DASHED2
 62
     2
370
     9
100
AcDbLine
 10
-65.2322439862051
 20
302.2077151412668
 30
0.0
 11
-62.8822355261197
 21
304.2577172503968
 31
0.0
  0
LINE
  5
2FF
330
1F
100
AcDbEntity
  8
E-A
  6
JWW_DASHED2
 62
     2
370
     9
100
AcDbLine
 10
-62.8822355261197
 20
296.0577088138771
 30
0.0
 11
-62.8822355261197
 21
304.2577172503968
 31
0.0
  0
LINE
  5
300
330
1F
100
AcDbEntity
  8
E-A
  6
JWW_DASHED2
 62
     2
370
     9
100
AcDbLine
 10
-65.2322439862051
 20
298.1077109230071
 30
0.0
 11
-65.2322439862051
 21
302.2077151412668
 31
0.0
  0
LINE
  5
301
330
1F
100
AcDbEntity
  8
E-A
  6
Continuous
 62
     2
370
     9
100
AcDbLine
 10
-75.54626909922615
 20
303.0791951919614
 30
0.0
 11
-79.87691403816274
 21
297.4403144659682
 31
0.0
  0
LINE
  5
302
330
1F
100
AcDbEntity
  8
E-A
  6
Continuous
 62
     2
370
     9
100
AcDbLine
 10
-96.79618220071706
 20
301.4516793181076
 30
0.0
 11
-98.77008030405545
 21
298.8814845287661
 31
0.0
  0
LINE
  5
303
330
1F
100
AcDbEntity
  8
E-A
  6
Continuous
 62
     2
370
     9
100
AcDbLine
 10
-91.60827716529309
 20
301.6963913523551
 30
0.0
 11
-93.8725199782267
 21
298.7481043311159
 31
0.0
  0
LINE
  5
304
330
1F
100
AcDbEntity
  8
E-A
  6
Continuous
 62
     2
370
     9
100
AcDbLine
 10
-86.38727481485046
 20
301.9841596242543
 30
0.0
 11
-89.11760511637823
 21
298.4290224318338
 31
0.0
  0
LINE
  5
305
330
1F
100
AcDbEntity
  8
E-A
  6
Continuous
 62
     2
370
     9
100
AcDbLine
 10
-80.8758782079338
 20
302.6500201280512
 30
0.0
 11
-84.54353636204218
 21
297.8743946708767
 31
0.0
  0
LINE
  5
306
330
1F
100
AcDbEntity
  8
E-A
  6
Continuous
 62
     2
370
     9
100
AcDbLine
 10
-76.21559788453698
 20
302.2077151412668
 30
0.0
 11
-102.789942445904
 21
300.1577130321369
 31
0.0
  0
LINE
  5
307
330
1F
100
AcDbEntity
  8
E-A
  6
Continuous
 62
     2
370
     9
100
AcDbLine
 10
-76.21559788453698
 20
298.1077109230071
 30
0.0
 11
-104.5421182667443
 21
300.1577130321369
 31
0.0
  0
LINE
  5
308
330
1F
100
AcDbEntity
  8
E-A
  6
JWW_DASHED2
 62
     2
370
     9
100
AcDbLine
 10
-65.2322439862051
 20
302.2077151412668
 30
0.0
 11
-73.56137158880063
 21
302.2077151412668
 31
0.0
  0
LINE
  5
309
330
1F
100
AcDbEntity
  8
E-A
  6
JWW_DASHED2
 62
     2
370
     9
100
AcDbLine
 10
-65.2322439862051
 20
298.1077109230071
 30
0.0
 11
-73.56137158880063
 21
298.1077109230071
 31
0.0
  0
LINE
  5
30A
330
1F
100
AcDbEntity
  8
E-A
  6
Continuous
 62
     2
370
     9
100
AcDbLine
 10
-73.56137158880063
 20
298.1077109230071
 30
0.0
 11
-76.21559788453698
 21
298.1077109230071
 31
0.0
  0
LINE
  5
30B
330
1F
100
AcDbEntity
  8
E-A
  6
Continuous
 62
     2
370
     9
100
AcDbLine
 10
-73.56137158880063
 20
302.2077151412668
 30
0.0
 11
-76.21559788453698
 21
302.2077151412668
 31
0.0
  0
ARC
  5
30C
330
1F
100
AcDbEntity
  8
E-A
  6
Continuous
 62
     2
370
     9
100
AcDbCircle
 10
-53.8225391960529
 20
197.6578057631562
 30
0.0
 40
10.0000000920535
100
AcDbArc
 50
2.745910644531243
 51
36.86987304687499
  0
LINE
  5
30D
330
1F
100
AcDbEntity
  8
E-1
  6
Continuous
 62
     6
370
     9
100
AcDbLine
 10
54.43783683942388
 20
314.1578772850478
 30
0.0
 11
-61.56126619121915
 21
314.1578772850478
 31
0.0
  0
LINE
  5
30E
330
1F
100
AcDbEntity
  8
E-1
  6
JWW_HOJO
 62
     6
370
     9
100
AcDbLine
 10
35.43784750290189
 20
274.1578893035534
 30
0.0
 11
35.43784750290189
 21
271.1577267002414
 31
0.0
  0
LINE
  5
30F
330
1F
100
AcDbEntity
  8
E-1
  6
JWW_HOJO
 62
     6
370
     9
100
AcDbLine
 10
35.43784750290189
 20
274.1578893035534
 30
0.0
 11
32.43788308710504
 21
274.1578893035534
 31
0.0
  0
LINE
  5
310
330
1F
100
AcDbEntity
  8
E-1
  6
Continuous
 62
     6
370
     9
100
AcDbLine
 10
35.43784750290189
 20
271.1577267002414
 30
0.0
 11
35.43784750290189
 21
243.1577945694499
 31
0.0
  0
LINE
  5
311
330
1F
100
AcDbEntity
  8
E-1
  6
Continuous
 62
     6
370
     9
100
AcDbLine
 10
40.4378212271493
 20
230.1577836114006
 30
0.0
 11
34.64128233290836
 21
233.157847120955
 31
0.0
  0
LINE
  5
312
330
1F
100
AcDbEntity
  8
E-1
  6
Continuous
 62
     6
370
     9
100
AcDbLine
 10
35.43784750290189
 20
243.1577945694499
 30
0.0
 11
40.4378212271493
 21
243.1577945694499
 31
0.0
  0
LINE
  5
313
330
1F
100
AcDbEntity
  8
E-1
  6
Continuous
 62
     6
370
     9
100
AcDbLine
 10
35.43784750290189
 20
230.1577836114006
 30
0.0
 11
40.4378212271493
 21
230.1577836114006
 31
0.0
  0
LINE
  5
314
330
1F
100
AcDbEntity
  8
E-1
  6
Continuous
 62
     6
370
     9
100
AcDbLine
 10
34.64128233290836
 20
201.1577972795051
 30
0.0
 11
40.4378212271493
 21
204.1577616953021
 31
0.0
  0
LINE
  5
315
330
1F
100
AcDbEntity
  8
E-1
  6
Continuous
 62
     6
370
     9
100
AcDbLine
 10
35.43784750290189
 20
204.1577616953021
 30
0.0
 11
40.4378212271493
 21
204.1577616953021
 31
0.0
  0
LINE
  5
316
330
1F
100
AcDbEntity
  8
E-1
  6
Continuous
 62
     6
370
     9
100
AcDbLine
 10
40.4378212271493
 20
230.1577836114006
 30
0.0
 11
40.4378212271493
 21
204.1577616953021
 31
0.0
  0
LINE
  5
317
330
1F
100
AcDbEntity
  8
E-1
  6
Continuous
 62
     6
370
     9
100
AcDbLine
 10
35.43784750290189
 20
230.1577836114006
 30
0.0
 11
35.43784750290189
 21
204.1577616953021
 31
0.0
  0
LINE
  5
318
330
1F
100
AcDbEntity
  8
E-1
  6
Continuous
 62
     6
370
     9
100
AcDbLine
 10
10.67035374309853
 20
314.1578772850478
 30
0.0
 11
10.67035374309853
 21
307.6581195404169
 31
0.0
  0
LINE
  5
319
330
1F
100
AcDbEntity
  8
E-1
  6
Continuous
 62
     6
370
     9
100
AcDbLine
 10
-16.6716453844993
 20
280.1575208538746
 30
0.0
 11
-16.6716453844993
 21
272.6578080018975
 31
0.0
  0
LINE
  5
31A
330
1F
100
AcDbEntity
  8
E-1
  6
Continuous
 62
     6
370
     9
100
AcDbLine
 10
-24.67138533702848
 20
274.1578893035534
 30
0.0
 11
-47.561795594611
 21
274.1578893035534
 31
0.0
  0
LINE
  5
31B
330
1F
100
AcDbEntity
  8
E-1
  6
Continuous
 62
     6
370
     9
100
AcDbLine
 10
-47.561795594611
 20
272.6578080018975
 30
0.0
 11
-24.67138533702848
 21
272.6578080018975
 31
0.0
  0
LINE
  5
31C
330
1F
100
AcDbEntity
  8
E-1
  6
Continuous
 62
     6
370
     9
100
AcDbLine
 10
-24.67138533702848
 20
280.1575208538746
 30
0.0
 11
-24.67138533702848
 21
272.6578080018975
 31
0.0
  0
LINE
  5
31D
330
1F
100
AcDbEntity
  8
E-1
  6
Continuous
 62
     6
370
     9
100
AcDbLine
 10
35.06124167736726
 20
280.1575208538746
 30
0.0
 11
38.42106507367441
 21
278.9919800776772
 31
0.0
  0
LINE
  5
31E
330
1F
100
AcDbEntity
  8
E-1
  6
Continuous
 62
     6
370
     9
100
AcDbLine
 10
40.4378212271493
 20
276.1576013307313
 30
0.0
 11
40.4378212271493
 21
243.1577945694499
 31
0.0
  0
LINE
  5
31F
330
1F
100
AcDbEntity
  8
E-1
  6
JWW_HOJO
 62
     6
370
     9
100
AcDbLine
 10
40.4378212271493
 20
279.1575657465282
 30
0.0
 11
37.43780726447363
 21
279.1575657465282
 31
0.0
  0
LINE
  5
320
330
1F
100
AcDbEntity
  8
E-1
  6
JWW_HOJO
 62
     6
370
     9
100
AcDbLine
 10
40.4378212271493
 20
279.1575657465282
 30
0.0
 11
40.4378212271493
 21
276.1576013307313
 31
0.0
  0
LINE
  5
321
330
1F
100
AcDbEntity
  8
E-1
  6
Continuous
 62
     6
370
     9
100
AcDbLine
 10
-4.448579032450425
 20
274.0564172958315
 30
0.0
 11
-16.6716453844993
 21
272.6578080018975
 31
0.0
  0
LINE
  5
322
330
1F
100
AcDbEntity
  8
E-1
  6
Continuous
 62
     6
370
     9
100
AcDbLine
 10
-3.562234918124659
 20
278.2310391135196
 30
0.0
 11
-3.562234918124659
 21
275.0499313089377
 31
0.0
  0
LINE
  5
323
330
1F
100
AcDbEntity
  8
E-1
  6
Continuous
 62
     6
370
     9
100
AcDbLine
 10
-4.486185113437159
 20
279.2281205018974
 30
0.0
 11
-16.6716453844993
 21
280.1575208538746
 31
0.0
  0
LINE
  5
324
330
1F
100
AcDbEntity
  8
E-1
  6
Continuous
 62
     6
370
     9
100
AcDbLine
 10
32.43788308710504
 20
274.1578893035534
 30
0.0
 11
-4.110421584841674
 21
274.1578893035534
 31
0.0
  0
LINE
  5
325
330
1F
100
AcDbEntity
  8
E-1
  6
Continuous
 62
     6
370
     9
100
AcDbLine
 10
37.43780726447363
 20
279.1575657465282
 30
0.0
 11
-4.186327403118014
 21
279.1575657465282
 31
0.0
  0
LINE
  5
326
330
1F
100
AcDbEntity
  8
E-1
  6
Continuous
 62
     6
370
     9
100
AcDbLine
 10
53.28720967373624
 20
302.658046722412
 30
0.0
 11
53.28720967373624
 21
294.6578113010951
 31
0.0
  0
LINE
  5
327
330
1F
100
AcDbEntity
  8
E-1
  6
Continuous
 62
     6
370
     9
100
AcDbLine
 10
55.2872189821868
 20
292.6577028988871
 30
0.0
 11
64.43788338167616
 21
292.6577028988871
 31
0.0
  0
LINE
  5
328
330
1F
100
AcDbEntity
  8
E-1
  6
Continuous
 62
     6
370
     9
100
AcDbLine
 10
62.43792362010458
 20
294.1577842005431
 30
0.0
 11
64.43788338167616
 21
294.1577842005431
 31
0.0
  0
LINE
  5
329
330
1F
100
AcDbEntity
  8
E-1
  6
Continuous
 62
     6
370
     9
100
AcDbLine
 10
60.43791431165403
 20
296.1577935089936
 30
0.0
 11
60.43791431165403
 21
304.158128024068
 31
0.0
  0
LINE
  5
32A
330
1F
100
AcDbEntity
  8
E-1
  6
Continuous
 62
     6
370
     9
100
AcDbLine
 10
54.363962443177
 20
292.8836366660805
 30
0.0
 11
61.5147166279736
 21
294.3837179677366
 31
0.0
  0
LINE
  5
32B
330
1F
100
AcDbEntity
  8
E-1
  6
Continuous
 62
     6
370
     9
100
AcDbLine
 10
-56.34066021580668
 20
313.5777824284026
 30
0.0
 11
-61.56126619121915
 21
314.1578772850478
 31
0.0
  0
LINE
  5
32C
330
1F
100
AcDbEntity
  8
E-1
  6
Continuous
 62
     6
370
     9
100
AcDbLine
 10
10.67035374309853
 20
309.158200842073
 30
0.0
 11
-54.56148134603626
 21
309.158200842073
 31
0.0
  0
LINE
  5
32D
330
1F
100
AcDbEntity
  8
E-1
  6
Continuous
 62
     6
370
     9
100
AcDbLine
 10
10.67035374309853
 20
307.6581195404169
 30
0.0
 11
-54.56148134603626
 21
307.6581195404169
 31
0.0
  0
LINE
  5
32E
330
1F
100
AcDbEntity
  8
E-1
  6
Continuous
 62
     6
370
     9
100
AcDbLine
 10
-49.38076060803405
 20
279.3229532278642
 30
0.0
 11
-54.56148134603626
 21
279.7939458574566
 31
0.0
  0
LINE
  5
32F
330
1F
100
AcDbEntity
  8
E-1
  6
Continuous
 62
     6
370
     9
100
AcDbLine
 10
-48.74685784104406
 20
279.1575657465282
 30
0.0
 11
-24.67138533702848
 21
279.1575657465282
 31
0.0
  0
LINE
  5
330
330
1F
100
AcDbEntity
  8
E-1
  6
Continuous
 62
     6
370
     9
100
AcDbLine
 10
-24.67138533702848
 20
280.1575208538746
 30
0.0
 11
-54.56148134603626
 21
280.1575208538746
 31
0.0
  0
LINE
  5
331
330
1F
100
AcDbEntity
  8
E-1
  6
Continuous
 62
     6
370
     9
100
AcDbLine
 10
35.06124167736726
 20
280.1575208538746
 30
0.0
 11
-16.6716453844993
 21
280.1575208538746
 31
0.0
  0
LINE
  5
332
330
1F
100
AcDbEntity
  8
E-1
  6
Continuous
 62
     6
370
     9
100
AcDbLine
 10
7.206878276403586
 20
272.6578080018975
 30
0.0
 11
-16.6716453844993
 21
272.6578080018975
 31
0.0
  0
LINE
  5
333
330
1F
100
AcDbEntity
  8
E-1
  6
Continuous
 62
     6
370
     9
100
AcDbLine
 10
11.37862637512302
 20
273.150799445664
 30
0.0
 11
7.325939426089121
 21
272.6649427524404
 31
0.0
  0
LINE
  5
334
330
1F
100
AcDbEntity
  8
E-1
  6
JWW_HOJO
 62
     6
370
     9
100
AcDbLine
 10
7.325642144816413
 20
272.6649427524404
 30
0.0
 11
7.266384077806947
 21
272.6578080018975
 31
0.0
  0
LINE
  5
335
330
1F
100
AcDbEntity
  8
E-1
  6
JWW_HOJO
 62
     6
370
     9
100
AcDbLine
 10
7.266384077806947
 20
272.6578080018975
 30
0.0
 11
7.206878276403586
 21
272.6578080018975
 31
0.0
  0
LINE
  5
336
330
1F
100
AcDbEntity
  8
E-1
  6
Continuous
 62
     6
370
     9
100
AcDbLine
 10
26.41625272260961
 20
273.157934196207
 30
0.0
 11
11.49763797792991
 21
273.157934196207
 31
0.0
  0
LINE
  5
337
330
1F
100
AcDbEntity
  8
E-1
  6
Continuous
 62
     6
370
     9
100
AcDbLine
 10
26.58302751655123
 20
273.1671499156582
 30
0.0
 11
33.54495854635331
 21
273.9461259436883
 31
0.0
  0
LINE
  5
338
330
1F
100
AcDbEntity
  8
E-1
  6
Continuous
 62
     6
370
     9
100
AcDbLine
 10
48.2873845901251
 20
307.6581195404169
 30
0.0
 11
18.67068825817313
 21
307.6581195404169
 31
0.0
  0
LINE
  5
339
330
1F
100
AcDbEntity
  8
E-1
  6
Continuous
 62
     6
370
     9
100
AcDbLine
 10
18.67068825817313
 20
314.1578772850478
 30
0.0
 11
18.67068825817313
 21
307.6581195404169
 31
0.0
  0
LINE
  5
33A
330
1F
100
AcDbEntity
  8
E-1
  6
Continuous
 62
     6
370
     9
100
AcDbLine
 10
22.6431588104777
 20
313.3245978778853
 30
0.0
 11
18.67068825817313
 21
314.1578772850478
 31
0.0
  0
LINE
  5
33B
330
1F
100
AcDbEntity
  8
E-1
  6
Continuous
 62
     6
370
     9
100
AcDbLine
 10
22.73799153644444
 20
308.9379154190593
 30
0.0
 11
18.67068825817313
 21
307.6581195404169
 31
0.0
  0
LINE
  5
33C
330
1F
100
AcDbEntity
  8
E-1
  6
Continuous
 62
     6
370
     9
100
AcDbLine
 10
23.43784119907787
 20
309.8917919291491
 30
0.0
 11
23.43784119907787
 21
312.3458488346526
 31
0.0
  0
LINE
  5
33D
330
1F
100
AcDbEntity
  8
E-1
  6
Continuous
 62
     6
370
     9
100
AcDbLine
 10
55.43774239989153
 20
309.158200842073
 30
0.0
 11
23.1173224403114
 21
309.158200842073
 31
0.0
  0
LINE
  5
33E
330
1F
100
AcDbEntity
  8
E-1
  6
Continuous
 62
     6
370
     9
100
AcDbLine
 10
7.266631812200842
 20
271.1576771533627
 30
0.0
 11
7.266631812200842
 21
271.7706215906326
 31
0.0
  0
LINE
  5
33F
330
1F
100
AcDbEntity
  8
E-1
  6
Continuous
 62
     6
370
     9
100
AcDbLine
 10
11.43778534837503
 20
271.1576771533627
 30
0.0
 11
11.43778534837503
 21
272.1579790888605
 31
0.0
  0
LINE
  5
340
330
1F
100
AcDbEntity
  8
E-1
  6
Continuous
 62
     6
370
     9
100
AcDbLine
 10
26.49968966645923
 20
271.8163038128591
 30
0.0
 11
26.49968966645923
 21
271.1576771533627
 31
0.0
  0
LINE
  5
341
330
1F
100
AcDbEntity
  8
E-1
  6
Continuous
 62
     6
370
     9
100
AcDbLine
 10
33.43818502260285
 20
242.7001300502467
 30
0.0
 11
35.43784750290189
 21
243.1577945694499
 31
0.0
  0
LINE
  5
342
330
1F
100
AcDbEntity
  8
E-1
  6
Continuous
 62
     6
370
     9
100
AcDbLine
 10
34.64128233290836
 20
240.1577310598954
 30
0.0
 11
40.4378212271493
 21
243.1577945694499
 31
0.0
  0
LINE
  5
343
330
1F
100
AcDbEntity
  8
E-1
  6
Continuous
 62
     6
370
     9
100
AcDbLine
 10
33.43818502260285
 20
240.1577310598954
 30
0.0
 11
34.64128233290836
 21
240.1577310598954
 31
0.0
  0
LINE
  5
344
330
1F
100
AcDbEntity
  8
E-1
  6
Continuous
 62
     6
370
     9
100
AcDbLine
 10
33.43818502260285
 20
233.157847120955
 30
0.0
 11
34.64128233290836
 21
233.157847120955
 31
0.0
  0
LINE
  5
345
330
1F
100
AcDbEntity
  8
E-1
  6
Continuous
 62
     6
370
     9
100
AcDbLine
 10
33.43818502260285
 20
230.6154976774826
 30
0.0
 11
35.43784750290189
 21
230.1577836114006
 31
0.0
  0
LINE
  5
346
330
1F
100
AcDbEntity
  8
E-1
  6
Continuous
 62
     6
370
     9
100
AcDbLine
 10
33.43818502260285
 20
203.7001467229776
 30
0.0
 11
35.43784750290189
 21
204.1577616953021
 31
0.0
  0
LINE
  5
347
330
1F
100
AcDbEntity
  8
E-1
  6
Continuous
 62
     6
370
     9
100
AcDbLine
 10
33.43818502260285
 20
201.1577972795051
 30
0.0
 11
34.64128233290836
 21
201.1577972795051
 31
0.0
  0
LINE
  5
348
330
1F
100
AcDbEntity
  8
E-1
  6
Continuous
 62
     6
370
     9
100
AcDbLine
 10
10.67035374309853
 20
313.1578230839438
 30
0.0
 11
-55.319796325619
 21
313.1578230839438
 31
0.0
  0
LINE
  5
349
330
1F
100
AcDbEntity
  8
E-1
  6
Continuous
 62
     6
370
     9
100
AcDbLine
 10
54.43783683942388
 20
313.1578230839438
 30
0.0
 11
23.02149877676925
 21
313.1578230839438
 31
0.0
  0
ARC
  5
34A
330
1F
100
AcDbEntity
  8
E-1
  6
Continuous
 62
     6
370
     9
100
AcDbCircle
 10
54.43783683942388
 20
304.1577316490379
 30
0.0
 40
9.999999317883525
100
AcDbArc
 50
0.0
 51
90.0
  0
ARC
  5
34B
330
1F
100
AcDbEntity
  8
E-1
  6
Continuous
 62
     6
370
     9
100
AcDbCircle
 10
55.43774239989153
 20
304.158128024068
 30
0.0
 40
4.999999658941762
100
AcDbArc
 50
0.0
 51
90.0
  0
ARC
  5
34C
330
1F
100
AcDbEntity
  8
E-1
  6
Continuous
 62
     6
370
     9
100
AcDbCircle
 10
48.2873845901251
 20
302.658046722412
 30
0.0
 40
4.999999658941762
100
AcDbArc
 50
0.0
 51
90.0
  0
ARC
  5
34D
330
1F
100
AcDbEntity
  8
E-1
  6
Continuous
 62
     6
370
     9
100
AcDbCircle
 10
-59.56135597652622
 20
311.9217275523771
 30
0.0
 40
3.000000027616052
100
AcDbArc
 50
131.8111267089844
 51
180.0
  0
ARC
  5
34E
330
1F
100
AcDbEntity
  8
E-1
  6
Continuous
 62
     6
370
     9
100
AcDbCircle
 10
32.43788308710504
 20
271.1577267002414
 30
0.0
 40
3.000000027616052
100
AcDbArc
 50
0.0
 51
90.0
  0
ARC
  5
34F
330
1F
100
AcDbEntity
  8
E-1
  6
Continuous
 62
     6
370
     9
100
AcDbCircle
 10
-4.562239572349938
 20
275.0499313089377
 30
0.0
 40
1.00000000920535
100
AcDbArc
 50
276.5266265869141
 51
0.0
  0
ARC
  5
350
330
1F
100
AcDbEntity
  8
E-1
  6
Continuous
 62
     6
370
     9
100
AcDbCircle
 10
-4.562239572349938
 20
278.2310391135196
 30
0.0
 40
1.00000000920535
100
AcDbArc
 50
0.0000000000000254
 51
85.63882446289065
  0
ARC
  5
351
330
1F
100
AcDbEntity
  8
E-1
  6
Continuous
 62
     6
370
     9
100
AcDbCircle
 10
24.99970745856064
 20
271.6579519883085
 30
0.0
 40
1.500000013808026
100
AcDbArc
 50
0.0
 51
90.0
  0
ARC
  5
352
330
1F
100
AcDbEntity
  8
E-1
  6
Continuous
 62
     6
370
     9
100
AcDbCircle
 10
6.266627157975563
 20
271.657852894551
 30
0.0
 40
1.00000000920535
100
AcDbArc
 50
0.0
 51
90.0
  0
ARC
  5
353
330
1F
100
AcDbEntity
  8
E-1
  6
Continuous
 62
     6
370
     9
100
AcDbCircle
 10
8.266586919547308
 20
271.7706215906326
 30
0.0
 40
1.00000000920535
100
AcDbArc
 50
96.83552551269531
 51
180.0
  0
ARC
  5
354
330
1F
100
AcDbEntity
  8
E-1
  6
Continuous
 62
     6
370
     9
100
AcDbCircle
 10
10.43783024102856
 20
272.0308417979353
 30
0.0
 40
1.00000000920535
100
AcDbArc
 50
0.0
 51
96.83752441406249
  0
ARC
  5
355
330
1F
100
AcDbEntity
  8
E-1
  6
Continuous
 62
     6
370
     9
100
AcDbCircle
 10
12.43779000260031
 20
272.1579790888605
 30
0.0
 40
1.00000000920535
100
AcDbArc
 50
90.0
 51
180.0
  0
ARC
  5
356
330
1F
100
AcDbEntity
  8
E-1
  6
Continuous
 62
     6
370
     9
100
AcDbCircle
 10
7.206878276403586
 20
273.6578622030015
 30
0.0
 40
1.00000000920535
100
AcDbArc
 50
270.0
 51
276.8355255126953
  0
ARC
  5
357
330
1F
100
AcDbEntity
  8
E-1
  6
Continuous
 62
     6
370
     9
100
AcDbCircle
 10
11.49763797792991
 20
272.1579790888605
 30
0.0
 40
1.00000000920535
100
AcDbArc
 50
90.0
 51
96.83552551269531
  0
ARC
  5
358
330
1F
100
AcDbEntity
  8
E-1
  6
Continuous
 62
     6
370
     9
100
AcDbCircle
 10
55.2872189821868
 20
294.6578113010951
 30
0.0
 40
2.000000018410701
100
AcDbArc
 50
180.0
 51
270.0
  0
ARC
  5
359
330
1F
100
AcDbEntity
  8
E-1
  6
Continuous
 62
     6
370
     9
100
AcDbCircle
 10
62.43792362010458
 20
296.1577935089936
 30
0.0
 40
2.000000018410701
100
AcDbArc
 50
180.0
 51
270.0
  0
ARC
  5
35A
330
1F
100
AcDbEntity
  8
E-1
  6
Continuous
 62
     6
370
     9
100
AcDbCircle
 10
-56.56149065448682
 20
311.5899616521297
 30
0.0
 40
2.000000018410701
100
AcDbArc
 50
0.0
 51
83.66004943847656
  0
ARC
  5
35B
330
1F
100
AcDbEntity
  8
E-1
  6
Continuous
 62
     6
370
     9
100
AcDbCircle
 10
-49.56180490306156
 20
277.3311687012897
 30
0.0
 40
2.000000018410701
100
AcDbArc
 50
0.0
 51
84.80563354492186
  0
ARC
  5
35C
330
1F
100
AcDbEntity
  8
E-1
  6
Continuous
 62
     6
370
     9
100
AcDbCircle
 10
27.99967187435766
 20
271.8163038128591
 30
0.0
 40
1.500000013808026
100
AcDbArc
 50
96.3835601806641
 51
180.0
  0
ARC
  5
35D
330
1F
100
AcDbEntity
  8
E-1
  6
Continuous
 62
     6
370
     9
100
AcDbCircle
 10
26.41625272260961
 20
274.6579164041054
 30
0.0
 40
1.500000013808026
100
AcDbArc
 50
270.0
 51
276.3843994140625
  0
ARC
  5
35E
330
1F
100
AcDbEntity
  8
E-1
  6
Continuous
 62
     6
370
     9
100
AcDbCircle
 10
22.43783654485259
 20
312.3458488346526
 30
0.0
 40
1.00000000920535
100
AcDbArc
 50
0.0
 51
78.15309143066406
  0
ARC
  5
35F
330
1F
100
AcDbEntity
  8
E-1
  6
Continuous
 62
     6
370
     9
100
AcDbCircle
 10
22.43783654485259
 20
309.8917919291491
 30
0.0
 40
1.00000000920535
100
AcDbArc
 50
287.4671478271484
 51
0.0
  0
ARC
  5
360
330
1F
100
AcDbEntity
  8
E-1
  6
Continuous
 62
     6
370
     9
100
AcDbCircle
 10
37.43780726447363
 20
276.1576013307313
 30
0.0
 40
3.000000027616052
100
AcDbArc
 50
0.0
 51
90.0
  0
ARC
  5
361
330
1F
100
AcDbEntity
  8
E-1
  6
Continuous
 62
     6
370
     9
100
AcDbCircle
 10
54.43783683942388
 20
303.1578756354489
 30
0.0
 40
9.999999317883525
100
AcDbArc
 50
0.0
 51
90.0
  0
LINE
  5
362
330
1F
100
AcDbEntity
  8
E-A
  6
Continuous
 62
     2
370
     9
100
AcDbLine
 10
-43.83383888903893
 20
198.1365277058368
 30
0.0
 11
-45.8224524153722
 21
198.1365277058368
 31
0.0
  0
LINE
  5
363
330
1F
100
AcDbEntity
  8
E-A
  6
Continuous
 62
     2
370
     9
100
AcDbLine
 10
-45.8224524153722
 20
203.65773459475
 30
0.0
 11
-47.561795594611
 21
203.65773459475
 31
0.0
  0
LINE
  5
364
330
1F
100
AcDbEntity
  8
E-A
  6
Continuous
 62
     2
370
     9
100
AcDbLine
 10
-45.8224524153722
 20
198.1365277058368
 30
0.0
 11
-45.8224524153722
 21
197.6578057631562
 31
0.0
  0
LINE
  5
365
330
1F
100
AcDbEntity
  8
E-2
  6
Continuous
 62
     3
370
     9
100
AcDbLine
 10
24.43789540018196
 20
251.9077733603222
 30
0.0
 11
24.43789540018196
 21
257.4077741851216
 31
0.0
  0
LINE
  5
366
330
1F
100
AcDbEntity
  8
E-2
  6
Continuous
 62
     3
370
     9
100
AcDbLine
 10
24.43789540018196
 20
232.9077840238002
 30
0.0
 11
24.43789540018196
 21
238.4077353017209
 31
0.0
  0
LINE
  5
367
330
1F
100
AcDbEntity
  8
E-2
  6
Continuous
 62
     3
370
     9
100
AcDbLine
 10
24.43789540018196
 20
213.9077946872783
 30
0.0
 11
24.43789540018196
 21
219.407745965199
 31
0.0
  0
LINE
  5
368
330
1F
100
AcDbEntity
  8
E-2
  6
Continuous
 62
     3
370
     9
100
AcDbLine
 10
-20.27786540893214
 20
271.1577267002414
 30
0.0
 11
-20.27786540893214
 21
259.4077834935722
 31
0.0
  0
LINE
  5
369
330
1F
100
AcDbEntity
  8
E-2
  6
Continuous
 62
     3
370
     9
100
AcDbLine
 10
-20.27786540893214
 20
211.9077853788279
 30
0.0
 11
-20.27786540893214
 21
202.4077659371275
 31
0.0
  0
ARC
  5
36A
330
1F
100
AcDbEntity
  8
E-2
  6
Continuous
 62
     3
370
     9
100
AcDbCircle
 10
30.43782423177583
 20
268.1577622844445
 30
0.0
 40
3.000000027616051
100
AcDbArc
 50
0.0000000000000254
 51
90.00000000000001
  0
ARC
  5
36B
330
1F
100
AcDbEntity
  8
E-2
  6
Continuous
 62
     3
370
     9
100
AcDbCircle
 10
22.4378860917314
 20
257.4077741851216
 30
0.0
 40
2.0000000184107
100
AcDbArc
 50
0.0000000000000254
 51
90.00000000000001
  0
ARC
  5
36C
330
1F
100
AcDbEntity
  8
E-2
  6
Continuous
 62
     3
370
     9
100
AcDbCircle
 10
22.4378860917314
 20
251.9077733603222
 30
0.0
 40
2.0000000184107
100
AcDbArc
 50
270.0
 51
0.0
  0
ARC
  5
36D
330
1F
100
AcDbEntity
  8
E-2
  6
Continuous
 62
     3
370
     9
100
AcDbCircle
 10
22.4378860917314
 20
238.4077353017209
 30
0.0
 40
2.0000000184107
100
AcDbArc
 50
0.0000000000000254
 51
90.00000000000001
  0
ARC
  5
36E
330
1F
100
AcDbEntity
  8
E-2
  6
Continuous
 62
     3
370
     9
100
AcDbCircle
 10
22.4378860917314
 20
232.9077840238002
 30
0.0
 40
2.0000000184107
100
AcDbArc
 50
270.0
 51
0.0
  0
ARC
  5
36F
330
1F
100
AcDbEntity
  8
E-2
  6
Continuous
 62
     3
370
     9
100
AcDbCircle
 10
22.4378860917314
 20
219.407745965199
 30
0.0
 40
2.0000000184107
100
AcDbArc
 50
0.0000000000000254
 51
90.00000000000001
  0
ARC
  5
370
330
1F
100
AcDbEntity
  8
E-2
  6
Continuous
 62
     3
370
     9
100
AcDbCircle
 10
22.4378860917314
 20
213.9077946872783
 30
0.0
 40
2.0000000184107
100
AcDbArc
 50
270.0
 51
0.0
  0
ARC
  5
371
330
1F
100
AcDbEntity
  8
E-2
  6
Continuous
 62
     3
370
     9
100
AcDbCircle
 10
-28.88445553264256
 20
200.4077566286771
 30
0.0
 40
2.0000000184107
100
AcDbArc
 50
90.0
 51
180.0
  0
ARC
  5
372
330
1F
100
AcDbEntity
  8
E-2
  6
Continuous
 62
     3
370
     9
100
AcDbCircle
 10
-39.95555695327704
 20
200.4077566286771
 30
0.0
 40
2.0000000184107
100
AcDbArc
 50
0.0000000000000254
 51
90.00000000000001
  0
ARC
  5
373
330
1F
100
AcDbEntity
  8
E-2
  6
Continuous
 62
     3
370
     9
100
AcDbCircle
 10
-42.43042354786417
 20
200.4077566286771
 30
0.0
 40
2.0000000184107
100
AcDbArc
 50
0.0000000000000254
 51
90.00000000000001
  0
ARC
  5
374
330
1F
100
AcDbEntity
  8
E-2
  6
Continuous
 62
     3
370
     9
100
AcDbCircle
 10
-14.21898473734268
 20
238.4077446101715
 30
0.0
 40
1.999999999999999
100
AcDbArc
 50
90.0
 51
187.7521385876873
  0
ARC
  5
375
330
1F
100
AcDbEntity
  8
E-2
  6
Continuous
 62
     3
370
     9
100
AcDbCircle
 10
-34.42003101639921
 20
235.6577348893212
 30
0.0
 40
18.38736923277136
100
AcDbArc
 50
352.2478614123133
 51
7.752138587686957
  0
ARC
  5
376
330
1F
100
AcDbEntity
  8
E-2
  6
Continuous
 62
     3
370
     9
100
AcDbCircle
 10
-14.21898473734268
 20
232.9077251684711
 30
0.0
 40
1.999999999999999
100
AcDbArc
 50
172.2478614123135
 51
270.0
  0
LINE
  5
377
330
1F
100
AcDbEntity
  8
E-2
  6
JWW_CENTER1
 62
     3
370
     9
100
AcDbLine
 10
-34.42003101639921
 20
251.0145646472121
 30
0.0
 11
-34.42003101639921
 21
221.450135230475
 31
0.0
  0
ARC
  5
378
330
1F
100
AcDbEntity
  8
E-2
  6
Continuous
 62
     3
370
     9
100
AcDbCircle
 10
-24.10770155477576
 20
256.4077563930202
 30
0.0
 40
2.999999999999999
100
AcDbArc
 50
90.0
 51
243.0125171787066
  0
ARC
  5
379
330
1F
100
AcDbEntity
  8
E-2
  6
Continuous
 62
     3
370
     9
100
AcDbCircle
 10
-34.42003101639921
 20
236.1577348893213
 30
0.0
 40
19.72460142280468
100
AcDbArc
 50
46.46756900600587
 51
63.01251717870669
  0
ARC
  5
37A
330
1F
100
AcDbEntity
  8
E-2
  6
Continuous
 62
     3
370
     9
100
AcDbCircle
 10
-19.45688488910474
 20
251.9077369513198
 30
0.0
 40
1.999999999999999
100
AcDbArc
 50
226.4675690060056
 51
270.0
  0
ARC
  5
37B
330
1F
100
AcDbEntity
  8
E-2
  6
Continuous
 62
     3
370
     9
100
AcDbCircle
 10
-44.81522607903764
 20
256.4077563930202
 30
0.0
 40
2.999999999999999
100
AcDbArc
 50
297.1733532360034
 51
90.00000000000001
  0
ARC
  5
37C
330
1F
100
AcDbEntity
  8
E-2
  6
Continuous
 62
     3
370
     9
100
AcDbCircle
 10
-47.17325568759168
 20
256.2077563930202
 30
0.0
 40
3.999999999999998
100
AcDbArc
 50
302.459231125501
 51
53.12295989212736
  0
LINE
  5
37D
330
1F
100
AcDbEntity
  8
E-2
  6
Continuous
 62
     3
370
     9
100
AcDbLine
 10
-14.21898473734268
 20
240.4077446101714
 30
0.0
 11
22.4378860917314
 21
240.4077446101714
 31
0.0
  0
LINE
  5
37E
330
1F
100
AcDbEntity
  8
E-2
  6
Continuous
 62
     3
370
     9
100
AcDbLine
 10
-14.23306255890384
 20
230.9077747153498
 30
0.0
 11
22.4378860917314
 21
230.9077747153498
 31
0.0
  0
ARC
  5
37F
330
1F
100
AcDbEntity
  8
E-2
  6
Continuous
 62
     3
370
     9
100
AcDbCircle
 10
-19.45688488910474
 20
219.4077328273227
 30
0.0
 40
2.0
100
AcDbArc
 50
90.0
 51
133.5324309939944
  0
ARC
  5
380
330
1F
100
AcDbEntity
  8
E-2
  6
Continuous
 62
     3
370
     9
100
AcDbCircle
 10
-34.42003101639921
 20
235.1577348893212
 30
0.0
 40
19.72460142280469
100
AcDbArc
 50
296.9874828212933
 51
313.5324309939941
  0
ARC
  5
381
330
1F
100
AcDbEntity
  8
E-2
  6
Continuous
 62
     3
370
     9
100
AcDbCircle
 10
-24.10770155477576
 20
214.9077133856223
 30
0.0
 40
3.0
100
AcDbArc
 50
116.9874828212934
 51
270.0
  0
ARC
  5
382
330
1F
100
AcDbEntity
  8
E-2
  6
Continuous
 62
     3
370
     9
100
AcDbCircle
 10
-47.17325568759168
 20
215.1077133856224
 30
0.0
 40
4.0
100
AcDbArc
 50
306.8770401078726
 51
57.54076887449891
  0
ARC
  5
383
330
1F
100
AcDbEntity
  8
E-2
  6
Continuous
 62
     3
370
     9
100
AcDbCircle
 10
-44.81522607903764
 20
214.9077133856223
 30
0.0
 40
3.0
100
AcDbArc
 50
270.0
 51
62.82664676399656
  0
LINE
  5
384
330
1F
100
AcDbEntity
  8
E-2
  6
Continuous
 62
     3
370
     9
100
AcDbLine
 10
-24.12848505905885
 20
211.9077853788279
 30
0.0
 11
22.4378860917314
 21
211.9077853788279
 31
0.0
  0
LINE
  5
385
330
1F
100
AcDbEntity
  8
E-2
  6
Continuous
 62
     3
370
     9
100
AcDbLine
 10
-19.45688488910474
 20
221.4077552736495
 30
0.0
 11
22.4378860917314
 21
221.4077552736495
 31
0.0
  0
LINE
  5
386
330
1F
100
AcDbEntity
  8
E-2
  6
Continuous
 62
     3
370
     9
100
AcDbLine
 10
-19.46729649193054
 20
249.9077640518718
 30
0.0
 11
22.4378860917314
 21
249.9077640518718
 31
0.0
  0
LINE
  5
387
330
1F
100
AcDbEntity
  8
E-2
  6
Continuous
 62
     3
370
     9
100
AcDbLine
 10
-24.10770155477576
 20
259.4077834935722
 30
0.0
 11
22.4378860917314
 21
259.4077834935722
 31
0.0
  0
LINE
  5
388
330
1F
100
AcDbEntity
  8
E-2
  6
Continuous
 62
     3
370
     9
100
AcDbLine
 10
30.43782423177583
 20
271.1577267002414
 30
0.0
 11
-47.561795594611
 21
271.1577267002414
 31
0.0
  0
LINE
  5
389
330
1F
100
AcDbEntity
  8
E-2
  6
Continuous
 62
     3
370
     9
100
AcDbLine
 10
-39.95555695327704
 20
202.4077659371275
 30
0.0
 11
-45.02265964081136
 21
202.4077659371275
 31
0.0
  0
LINE
  5
38A
330
1F
100
AcDbEntity
  8
E-2
  6
Continuous
 62
     3
370
     9
100
AcDbLine
 10
-44.77285679590767
 20
211.9077358319491
 30
0.0
 11
-47.561795594611
 21
211.9077358319491
 31
0.0
  0
ARC
  5
38B
330
1F
100
AcDbEntity
  8
E-2
  6
Continuous
 62
     3
370
     9
100
AcDbCircle
 10
-34.42003101639921
 20
235.1577348893212
 30
0.0
 40
19.76232526106613
100
AcDbArc
 50
228.318380040622
 51
242.8266467639966
  0
ELLIPSE
  5
38C
330
1F
100
AcDbEntity
  8
E-A
  6
Continuous
 62
     2
370
     9
100
AcDbEllipse
 10
-32.76950179151987
 20
235.6577348893212
 30
0.0
 11
3.061616997868383E-16
 21
5.0
 31
0.0
210
0.0
220
0.0
230
1.0
 40
0.7071048989705531
 41
0.0
 42
3.141592653589793
  0
LINE
  5
38D
330
1F
100
AcDbEntity
  8
E-A
  6
Continuous
 62
     2
370
     9
100
AcDbLine
 10
-28.51404030247704
 20
230.6577348893212
 30
0.0
 11
-29.94290589661233
 21
227.1577348893213
 31
0.0
  0
LINE
  5
38E
330
1F
100
AcDbEntity
  8
E-A
  6
Continuous
 62
     2
370
     9
100
AcDbLine
 10
-28.51404030247704
 20
240.6577348893213
 30
0.0
 11
-29.94290589661233
 21
244.1577348893212
 31
0.0
  0
LINE
  5
38F
330
1F
100
AcDbEntity
  8
E-A
  6
Continuous
 62
     2
370
     9
100
AcDbLine
 10
-36.86188365687445
 20
227.1577348893213
 30
0.0
 11
-40.33214704596116
 21
235.6577348893212
 31
0.0
  0
LINE
  5
390
330
1F
100
AcDbEntity
  8
E-A
  6
Continuous
 62
     2
370
     9
100
AcDbLine
 10
-36.86188365687445
 20
244.1577348893212
 30
0.0
 11
-40.33214704596116
 21
235.6577348893212
 31
0.0
  0
LINE
  5
391
330
1F
100
AcDbEntity
  8
E-A
  6
Continuous
 62
     2
370
     9
100
AcDbLine
 10
-29.94290589661233
 20
227.1577348893213
 30
0.0
 11
-41.3752196949473
 21
227.1577348893213
 31
0.0
  0
LINE
  5
392
330
1F
100
AcDbEntity
  8
E-A
  6
Continuous
 62
     2
370
     9
100
AcDbLine
 10
-29.94290589661233
 20
244.1577348893212
 30
0.0
 11
-41.3752196949473
 21
244.1577348893212
 31
0.0
  0
ELLIPSE
  5
393
330
1F
100
AcDbEntity
  8
E-2
  6
Continuous
 62
     3
370
     9
100
AcDbEllipse
 10
-37.95557418952035
 20
235.6577348893212
 30
0.0
 11
-1.199071815626999E-14
 21
-14.5
 31
0.0
210
0.0
220
0.0
230
1.0
 40
0.7071027279390982
 41
1.922851426103901
 42
2.667090329588922
  0
ELLIPSE
  5
394
330
1F
100
AcDbEntity
  8
E-2
  6
Continuous
 62
     3
370
     9
100
AcDbEllipse
 10
-37.95557418952035
 20
235.6577348893212
 30
0.0
 11
-1.199071815626999E-14
 21
-14.5
 31
0.0
210
0.0
220
0.0
230
1.0
 40
0.7071027279390982
 41
0.4745023240008708
 42
1.218741227485893
  0
ARC
  5
395
330
1F
100
AcDbEntity
  8
E-2
  6
Continuous
 62
     3
370
     9
100
AcDbCircle
 10
-34.42003101639921
 20
236.1577348893213
 30
0.0
 40
19.76232526106612
100
AcDbArc
 50
117.1733532360034
 51
131.6816199593781
  0
LINE
  5
396
330
1F
100
AcDbEntity
  8
E-2
  6
Continuous
 62
     3
370
     9
100
AcDbLine
 10
-44.77285679590767
 20
259.4077834935722
 30
0.0
 11
-47.561795594611
 21
259.4077834935722
 31
0.0
  0
LINE
  5
397
330
1F
100
AcDbEntity
  8
E-A
  6
Continuous
 62
     2
370
     9
100
AcDbLine
 10
-40.33214704596116
 20
235.6577348893212
 30
0.0
 11
-43.61238350493738
 21
235.6577348893212
 31
0.0
  0
LINE
  5
398
330
1F
100
AcDbEntity
  8
E-2
  6
Continuous
 62
     3
370
     9
100
AcDbLine
 10
22.43788609173157
 20
202.4077659371275
 30
0.0
 11
-28.88445553264256
 21
202.4077659371275
 31
0.0
  0
ARC
  5
399
330
1F
100
AcDbEntity
  8
E-2
  6
Continuous
 62
     3
370
     9
100
AcDbCircle
 10
22.43788609173157
 20
200.4077566286771
 30
0.0
 40
2.0000000184107
100
AcDbArc
 50
0.0000000000000254
 51
90.00000000000001
  0
ELLIPSE
  5
39A
330
1F
100
AcDbEntity
  8
E-A
  6
Continuous
 62
     2
370
     9
100
AcDbEllipse
 10
-20.18371674353295
 20
235.6577348893212
 30
0.0
 11
3.061616997868383E-16
 21
5.0
 31
0.0
210
0.0
220
0.0
230
1.0
 40
0.7071048989705531
 41
0.0
 42
6.283185307179586
  0
LINE
  5
39B
330
1F
100
AcDbEntity
  8
E-A
  6
Continuous
 62
     2
370
     9
100
AcDbLine
 10
-20.71413298778532
 20
230.714323696623
 30
0.0
 11
-20.71413298778532
 21
240.6011460820195
 31
0.0
  0
LINE
  5
39C
330
1F
100
AcDbEntity
  8
E-A
  6
Continuous
 62
     2
370
     9
100
AcDbLine
 10
-19.65343340706619
 20
230.7142951787493
 30
0.0
 11
-19.65343340706619
 21
240.6011745998932
 31
0.0
  0
LINE
  5
39D
330
1F
100
AcDbEntity
  8
E-A
  6
Continuous
 62
     2
370
     9
100
AcDbLine
 10
-19.65343340706619
 20
230.7142951787492
 30
0.0
 11
-20.71413298778532
 21
230.7142951787492
 31
0.0
  0
LINE
  5
39E
330
1F
100
AcDbEntity
  8
E-A
  6
Continuous
 62
     2
370
     9
100
AcDbLine
 10
-19.65343340706619
 20
240.6011745998932
 30
0.0
 11
-20.71413298778532
 21
240.6011745998932
 31
0.0
  0
LINE
  5
39F
330
1F
100
AcDbEntity
  8
E-A
  6
Continuous
 62
     2
370
     9
100
AcDbLine
 10
-20.18371674353295
 20
230.6577348893212
 30
0.0
 11
-32.76950179151987
 21
230.6577348893212
 31
0.0
  0
LINE
  5
3A0
330
1F
100
AcDbEntity
  8
E-A
  6
Continuous
 62
     2
370
     9
100
AcDbLine
 10
-20.18371674353295
 20
240.6577348893213
 30
0.0
 11
-32.76950179151987
 21
240.6577348893213
 31
0.0
  0
ELLIPSE
  5
3A1
330
1F
100
AcDbEntity
  8
E-2
  6
Continuous
 62
     3
370
     9
100
AcDbEllipse
 10
-34.42003838565722
 20
235.6577348893212
 30
0.0
 11
7.960204194457796E-16
 21
-13.0
 31
0.0
210
0.0
220
0.0
230
1.0
 40
0.7071034707138655
 41
1.965587446494658
 42
7.459190514274721
  0
LINE
  5
3A2
330
1F
100
AcDbEntity
  8
E-2
  6
Continuous
 62
     3
370
     9
100
AcDbLine
 10
-20.27786540893214
 20
230.6577348893212
 30
0.0
 11
-20.27786540893214
 21
221.4077552736495
 31
0.0
  0
LINE
  5
3A3
330
1F
100
AcDbEntity
  8
E-2
  6
Continuous
 62
     3
370
     9
100
AcDbLine
 10
-20.27786540893214
 20
249.9077640518718
 30
0.0
 11
-20.27786540893214
 21
240.6577348893213
 31
0.0
  0
LINE
  5
3A4
330
1F
100
AcDbEntity
  8
E-2
  6
JWW_CENTER1
 62
     3
370
     9
100
AcDbLine
 10
-16.23305147965613
 20
235.6577348893212
 30
0.0
 11
-40.33214704596116
 21
235.6577348893212
 31
0.0
  0
LINE
  5
3A5
330
1F
100
AcDbEntity
  8
E-A
  6
Continuous
 62
     2
370
     9
100
AcDbLine
 10
-22.30503144044462
 20
231.6577348893213
 30
0.0
 11
-34.89081648843154
 21
231.6577348893213
 31
0.0
  0
LINE
  5
3A6
330
1F
100
AcDbEntity
  8
E-A
  6
Continuous
 62
     2
370
     9
100
AcDbLine
 10
-22.30503144044462
 20
239.6577348893212
 30
0.0
 11
-34.89081648843154
 21
239.6577348893212
 31
0.0
  0
LINE
  5
3A7
330
1F
100
AcDbEntity
  8
E-0
  6
Continuous
 62
     4
370
     9
100
AcDbLine
 10
57.43780125522073
 20
315.1577332986367
 30
0.0
 11
-73.56137158880063
 21
315.1577332986367
 31
0.0
  0
LINE
  5
3A8
330
1F
100
AcDbEntity
  8
E-0
  6
Continuous
 62
     4
370
     9
100
AcDbLine
 10
57.43780125522073
 20
314.157827738169
 30
0.0
 11
-63.71060979228395
 21
314.157827738169
 31
0.0
  0
LINE
  5
3A9
330
1F
100
AcDbEntity
  8
E-0
  6
Continuous
 62
     4
370
     9
100
AcDbLine
 10
57.43780125522073
 20
80.15787822767572
 30
0.0
 11
-73.56137158880063
 21
80.15787822767572
 31
0.0
  0
LINE
  5
3AA
330
1F
100
AcDbEntity
  8
E-0
  6
Continuous
 62
     4
370
     9
100
AcDbLine
 10
57.43780125522073
 20
81.15778378814343
 30
0.0
 11
-63.71060979228395
 21
81.15778378814343
 31
0.0
  0
LINE
  5
3AB
330
1F
100
AcDbEntity
  8
E-0
  6
Continuous
 62
     4
370
     9
100
AcDbLine
 10
67.43784779747318
 20
90.15782567617055
 30
0.0
 11
67.43784779747318
 21
305.1577858501419
 31
0.0
  0
LINE
  5
3AC
330
1F
100
AcDbEntity
  8
E-0
  6
Continuous
 62
     4
370
     9
100
AcDbLine
 10
-73.56137158880063
 20
80.15787822767572
 30
0.0
 11
-73.56137158880063
 21
315.1577332986367
 31
0.0
  0
LINE
  5
3AD
330
1F
100
AcDbEntity
  8
E-0
  6
Continuous
 62
     4
370
     9
100
AcDbLine
 10
-62.56141948608069
 20
82.96783036338775
 30
0.0
 11
-62.56141948608069
 21
312.3477811629247
 31
0.0
  0
ELLIPSE
  5
3AE
330
1F
100
AcDbEntity
  8
E-0
  6
Continuous
 62
     4
370
     9
100
AcDbEllipse
 10
-89.07811625399813
 20
224.6574855053287
 30
0.0
 11
4.776121991789687E-15
 21
-77.99999142797756
 31
0.0
210
0.0
220
0.0
230
1.0
 40
0.0203
 41
5.065853031083149
 42
6.283185307179586
  0
LINE
  5
3AF
330
1F
100
AcDbEntity
  8
E-1
  6
Continuous
 62
     6
370
     9
100
AcDbLine
 10
64.43788338167616
 20
91.15787987727452
 30
0.0
 11
64.43788338167616
 21
304.1577316490379
 31
0.0
  0
LINE
  5
3B0
330
1F
100
AcDbEntity
  8
E-1
  6
Continuous
 62
     6
370
     9
100
AcDbLine
 10
-54.56148134603626
 20
83.72564987418275
 30
0.0
 11
-54.56148134603626
 21
311.5899616521297
 31
0.0
  0
LINE
  5
3B1
330
1F
100
AcDbEntity
  8
E-1
  6
Continuous
 62
     6
370
     9
100
AcDbLine
 10
-47.561795594611
 20
117.9844428250228
 30
0.0
 11
-47.561795594611
 21
277.3311687012897
 31
0.0
  0
LINE
  5
3B2
330
1F
100
AcDbEntity
  8
E-1
  6
Continuous
 62
     6
370
     9
100
AcDbLine
 10
-62.56141948608069
 20
83.39388397393537
 30
0.0
 11
-62.56141948608069
 21
311.9217275523771
 31
0.0
  0
LINE
  5
3B3
330
1F
100
AcDbEntity
  8
E-1
  6
JWW_CENTER1
 62
     6
370
     9
100
AcDbLine
 10
-105.027008795832
 20
197.6578057631562
 30
0.0
 11
80.69755872059807
 21
197.6578057631562
 31
0.0
  0
LINE
  5
3B4
330
1F
100
AcDbEntity
  8
E-2
  6
Continuous
 62
     3
370
     9
100
AcDbLine
 10
33.43788774133031
 20
127.1578492418679
 30
0.0
 11
33.43788774133031
 21
268.1577622844445
 31
0.0
  0
LINE
  5
3B5
330
1F
100
AcDbEntity
  8
E-2
  6
Continuous
 62
     3
370
     9
100
AcDbLine
 10
24.43789540018196
 20
194.9078548976353
 30
0.0
 11
24.43789540018196
 21
200.4077566286771
 31
0.0
  0
LINE
  5
3B6
330
1F
100
AcDbEntity
  8
E-2
  6
Continuous
 62
     3
370
     9
100
AcDbLine
 10
-30.88446484109295
 20
194.9078548976353
 30
0.0
 11
-30.88446484109295
 21
200.4077566286771
 31
0.0
  0
LINE
  5
3B7
330
1F
100
AcDbEntity
  8
E-2
  6
Continuous
 62
     3
370
     9
100
AcDbLine
 10
-37.95554764482665
 20
200.4077566286771
 30
0.0
 11
-37.95554764482665
 21
194.9078548976353
 31
0.0
  0
LINE
  5
3B8
330
1F
100
AcDbEntity
  8
E-2
  6
Continuous
 62
     3
370
     9
100
AcDbLine
 10
-40.43038946597437
 20
200.4077566286771
 30
0.0
 11
-40.43038946597437
 21
194.9078548976353
 31
0.0
  0
LINE
  5
3B9
330
1F
100
AcDbEntity
  8
E-4
  6
Continuous
 62
     7
370
     9
100
AcDbLine
 10
132.4378477974732
 20
315.1577851680254
 30
0.0
 11
132.4378477974732
 21
80.15782635828702
 31
0.0
  0
LINE
  5
3BA
330
1F
100
AcDbEntity
  8
E-4
  6
Continuous
 62
     7
370
     9
100
AcDbLine
 10
133.3378477974732
 20
315.1577851680254
 30
0.0
 11
63.43780125522072
 21
315.1577851680254
 31
0.0
  0
LINE
  5
3BB
330
1F
100
AcDbEntity
  8
E-4
  6
Continuous
 62
     7
370
     9
100
AcDbLine
 10
133.3378477974732
 20
80.15782635828702
 30
0.0
 11
63.43780125522075
 21
80.15782635828702
 31
0.0
  0
TEXT
  5
3BC
330
1F
100
AcDbEntity
  8
E-4
  6
Continuous
 62
     2
370
   211
100
AcDbText
 10
128.9458477974732
 20
187.9078057631562
 30
0.0
 40
9.144
  1
235
 50
90.0
 41
1.083333333333332
  7
ＭＳ ゴシック
100
AcDbText
  0
LINE
  5
3BD
330
1F
100
AcDbEntity
  8
E-4
  6
Continuous
 62
     7
370
     9
100
AcDbLine
 10
102.4378477974732
 20
271.1577267002414
 30
0.0
 11
102.4378477974732
 21
124.1578492142519
 31
0.0
  0
LINE
  5
3BE
330
1F
100
AcDbEntity
  8
E-4
  6
Continuous
 62
     7
370
     9
100
AcDbLine
 10
103.3378477974732
 20
271.1577267002414
 30
0.0
 11
36.43782423177583
 21
271.1577267002414
 31
0.0
  0
LINE
  5
3BF
330
1F
100
AcDbEntity
  8
E-4
  6
Continuous
 62
     7
370
     9
100
AcDbLine
 10
103.3378477974732
 20
124.1578492142519
 30
0.0
 11
36.43782423177585
 21
124.1578492142519
 31
0.0
  0
TEXT
  5
3C0
330
1F
100
AcDbEntity
  8
E-4
  6
Continuous
 62
     2
370
   211
100
AcDbText
 10
98.94584779747316
 20
187.9077879572467
 30
0.0
 40
9.144
  1
147
 50
90.0
 41
1.083333333333332
  7
ＭＳ ゴシック
100
AcDbText
  0
LINE
  5
3C1
330
1F
100
AcDbEntity
  8
E-4
  6
Continuous
 62
     7
370
     9
100
AcDbLine
 10
132.4378477974732
 20
315.1577851680254
 30
0.0
 11
133.4167942391236
 21
307.7219487077218
 31
0.0
  0
LINE
  5
3C2
330
1F
100
AcDbEntity
  8
E-4
  6
Continuous
 62
     7
370
     9
100
AcDbLine
 10
132.4378477974732
 20
315.1577851680254
 30
0.0
 11
131.4589013558228
 21
307.7219487077218
 31
0.0
  0
LINE
  5
3C3
330
1F
100
AcDbEntity
  8
E-4
  6
Continuous
 62
     7
370
     9
100
AcDbLine
 10
102.4378477974732
 20
271.1577267002414
 30
0.0
 11
103.4167942391236
 21
263.7218902399378
 31
0.0
  0
LINE
  5
3C4
330
1F
100
AcDbEntity
  8
E-4
  6
Continuous
 62
     7
370
     9
100
AcDbLine
 10
102.4378477974732
 20
271.1577267002414
 30
0.0
 11
101.4589013558228
 21
263.7218902399378
 31
0.0
  0
LINE
  5
3C5
330
1F
100
AcDbEntity
  8
E-4
  6
Continuous
 62
     7
370
     9
100
AcDbLine
 10
102.4378477974732
 20
124.1578492142519
 30
0.0
 11
101.4589013558228
 21
131.5936856745554
 31
0.0
  0
LINE
  5
3C6
330
1F
100
AcDbEntity
  8
E-4
  6
Continuous
 62
     7
370
     9
100
AcDbLine
 10
102.4378477974732
 20
124.1578492142519
 30
0.0
 11
103.4167942391236
 21
131.5936856745554
 31
0.0
  0
LINE
  5
3C7
330
1F
100
AcDbEntity
  8
E-4
  6
Continuous
 62
     7
370
     9
100
AcDbLine
 10
132.4378477974732
 20
80.15782635828702
 30
0.0
 11
131.4589013558228
 21
87.59366281859059
 31
0.0
  0
LINE
  5
3C8
330
1F
100
AcDbEntity
  8
E-4
  6
Continuous
 62
     7
370
     9
100
AcDbLine
 10
132.4378477974732
 20
80.15782635828702
 30
0.0
 11
133.4167942391236
 21
87.59366281859059
 31
0.0
  0
TEXT
  5
3C9
330
1F
100
AcDbEntity
  8
E-4
  6
Continuous
 62
     2
370
   211
100
AcDbText
 10
-150.9918479313148
 20
-213.7388883923809
 30
0.0
 40
9.144
  1
Rc3
 50
91.16663100000005
 41
1.083333333333331
  7
ＭＳ ゴシック
100
AcDbText
  0
TEXT
  5
3CA
330
1F
100
AcDbEntity
  8
E-5
  6
Continuous
 62
     7
370
     9
100
AcDbText
 10
149.365490371597
 20
46.94971363917357
 30
0.0
 40
6.858000000000001
  1
丸小ねじ：ＳＵＳ３０４
 41
1.151515151515151
  7
ＭＳ ゴシック
100
AcDbText
  0
TEXT
  5
3CB
330
1F
100
AcDbEntity
  8
E-5
  6
Continuous
 62
     7
370
     9
100
AcDbText
 10
164.742328758396
 20
-2.684903008618075
 30
0.0
 40
6.858000000000001
  1
ボルト：ＳＵＳ３０４
 41
1.15
  7
ＭＳ ゴシック
100
AcDbText
  0
TEXT
  5
3CC
330
1F
100
AcDbEntity
  8
E-5
  6
Continuous
 62
     7
370
     9
100
AcDbText
 10
167.7088100404147
 20
-52.5729683747164
 30
0.0
 40
6.858000000000001
  1
ストレーナー：ＦＣ１５０
 41
1.152777777777777
  7
ＭＳ ゴシック
100
AcDbText
  0
TEXT
  5
3CD
330
1F
100
AcDbEntity
  8
E-5
  6
Continuous
 62
     7
370
     9
100
AcDbText
 10
182.4378477974731
 20
-102.2001237851215
 30
0.0
 40
6.858000000000001
  1
防水層押え：ＦＣ１５０
 41
1.151515151515151
  7
ＭＳ ゴシック
100
AcDbText
  0
TEXT
  5
3CE
330
1F
100
AcDbEntity
  8
E-5
  6
Continuous
 62
     7
370
     9
100
AcDbText
 10
-233.6177394622569
 20
-24.936675834629
 30
0.0
 40
6.858000000000001
  1
本体：ＦＣ１５０
 41
1.145833333333333
  7
ＭＳ ゴシック
100
AcDbText
  0
TEXT
  5
3CF
330
1F
100
AcDbEntity
  8
E-5
  6
Continuous
 62
     7
370
     9
100
AcDbText
 10
-235.4050924079848
 20
-74.15135784389568
 30
0.0
 40
6.858000000000001
  1
木ねじ：ＳＵＳ３０４
 41
1.15
  7
ＭＳ ゴシック
100
AcDbText
  0
LINE
  5
3D0
330
1F
100
AcDbEntity
  8
E-5
  6
Continuous
 62
     7
370
     9
100
AcDbLine
 10
-233.635074496343
 20
-27.49457914457986
 30
0.0
 11
-149.9090558712408
 21
-27.49457914457986
 31
0.0
  0
LINE
  5
3D1
330
1F
100
AcDbEntity
  8
E-5
  6
Continuous
 62
     7
370
     9
100
AcDbLine
 10
-236.2841901547365
 20
-77.49457914457986
 30
0.0
 11
-130.7016111168944
 21
-77.49457914457986
 31
0.0
  0
LINE
  5
3D2
330
1F
100
AcDbEntity
  8
E-5
  6
Continuous
 62
     7
370
     9
100
AcDbLine
 10
149.3654903715969
 20
44.47576452406233
 30
0.0
 11
261.9220627020356
 21
44.4757645240623
 31
0.0
  0
LINE
  5
3D3
330
1F
100
AcDbEntity
  8
E-5
  6
Continuous
 62
     7
370
     9
100
AcDbLine
 10
164.742328758396
 20
-5.524235475937692
 30
0.0
 11
267.4642125926521
 21
-5.524235475937692
 31
0.0
  0
LINE
  5
3D4
330
1F
100
AcDbEntity
  8
E-5
  6
Continuous
 62
     7
370
     9
100
AcDbLine
 10
167.7088100404147
 20
-55.5242354759377
 30
0.0
 11
290.4443412462442
 21
-55.5242354759377
 31
0.0
  0
LINE
  5
3D5
330
1F
100
AcDbEntity
  8
E-5
  6
Continuous
 62
     7
370
     9
100
AcDbLine
 10
182.4378477974732
 20
-105.5242354759377
 30
0.0
 11
294.7197140190056
 21
-105.5242354759377
 31
0.0
  0
TEXT
  5
3D6
330
1F
100
AcDbEntity
  8
E-5
  6
Continuous
 62
     7
370
     9
100
AcDbText
 10
213.0787809082394
 20
-116.5466170896044
 30
0.0
 40
6.858000000000001
  1
樹脂系塗装
 41
1.133333333333333
  7
ＭＳ ゴシック
100
AcDbText
  0
TEXT
  5
3D7
330
1F
100
AcDbEntity
  8
E-5
  6
Continuous
 62
     7
370
     9
100
AcDbText
 10
203.5765756433294
 20
-66.62667610155678
 30
0.0
 40
6.858000000000001
  1
樹脂系塗装
 41
1.133333333333333
  7
ＭＳ ゴシック
100
AcDbText
  0
TEXT
  5
3D8
330
1F
100
AcDbEntity
  8
E-5
  6
Continuous
 62
     7
370
     9
100
AcDbText
 10
185.3532706755241
 20
-16.25307404875344
 30
0.0
 40
6.858000000000001
  1
Ｍ１０×７０
 41
1.138888888888889
  7
ＭＳ ゴシック
100
AcDbText
  0
TEXT
  5
3D9
330
1F
100
AcDbEntity
  8
E-5
  6
Continuous
 62
     7
370
     9
100
AcDbText
 10
180.1437765368163
 20
34.24499413887037
 30
0.0
 40
6.858000000000001
  1
Ｍ６×１２
 41
1.133333333333333
  7
ＭＳ ゴシック
100
AcDbText
  0
TEXT
  5
3DA
330
1F
100
AcDbEntity
  8
E-5
  6
Continuous
 62
     7
370
     9
100
AcDbText
 10
-217.2720651837919
 20
-37.652430994918
 30
0.0
 40
6.858000000000001
  1
樹脂系塗装
 41
1.133333333333333
  7
ＭＳ ゴシック
100
AcDbText
  0
TEXT
  5
3DB
330
1F
100
AcDbEntity
  8
E-5
  6
Continuous
 62
     7
370
     9
100
AcDbText
 10
-214.2429006358154
 20
-87.04372071474424
 30
0.0
 40
6.858000000000001
  1
４．１×３８
 41
1.138888888888888
  7
ＭＳ ゴシック
100
AcDbText
  0
TEXT
  5
3DC
330
1F
100
AcDbEntity
  8
F-5ﾚｲﾔ
  6
Continuous
 62
     2
370
     9
100
AcDbText
 10
-246.8282461817309
 20
-399.0051066249857
 30
0.0
 40
9.144
  1
鋳鉄製ルーフドレン　防水層張掛け幅50mm　よこ引き用　木付け用
 41
0.8991666666666668
  7
ＭＳ ゴシック
100
AcDbText
  0
TEXT
  5
3DD
330
1F
100
AcDbEntity
  8
F-5ﾚｲﾔ
  6
Continuous
 62
     2
370
     9
100
AcDbText
 10
-130.626440940356
 20
-413.7078771941543
 30
0.0
 40
9.144
  1
ねじ込み式　シート防水用　　ＥＷＸＳ－Ｌ－７５
 41
0.898913043478261
  7
ＭＳ ゴシック
100
AcDbText
  0
ENDSEC
  0
SECTION
  2
OBJECTS
  0
DICTIONARY
  5
C
330
0
100
AcDbDictionary
281
     1
  3
ACAD_DETAILVIEWSTYLE
350
423
  3
ACAD_GROUP
350
D
  3
ACAD_LAYOUT
350
1A
  3
ACAD_MATERIAL
350
43
  3
ACAD_MLEADERSTYLE
350
6B
  3
ACAD_MLINESTYLE
350
17
  3
ACAD_PLOTSETTINGS
350
19
  3
ACAD_PLOTSTYLENAME
350
E
  3
ACAD_SCALELIST
350
47
  3
ACAD_SECTIONVIEWSTYLE
350
424
  3
ACAD_TABLESTYLE
350
69
  3
ACAD_VISUALSTYLE
350
2A
  3
ACDB_RECOMPOSE_DATA
350
420
  3
AcDbVariableDictionary
350
3E0
  0
DICTIONARY
  5
3DE
330
8
100
AcDbDictionary
280
     1
281
     1
  3
ACAD_XREC_ROUNDTRIP
360
3DF
  0
DICTIONARY
  5
423
102
{ACAD_REACTORS
330
C
102
}
330
C
100
AcDbDictionary
281
     1
  0
DICTIONARY
  5
D
102
{ACAD_REACTORS
330
C
102
}
330
C
100
AcDbDictionary
281
     1
  0
DICTIONARY
  5
1A
102
{ACAD_REACTORS
330
C
102
}
330
C
100
AcDbDictionary
281
     1
  3
Layout1
350
1E
  3
Layout2
350
26
  3
Model
350
22
  0
DICTIONARY
  5
43
102
{ACAD_REACTORS
330
C
102
}
330
C
100
AcDbDictionary
281
     1
  3
ByBlock
350
45
  3
ByLayer
350
44
  3
Global
350
46
  0
DICTIONARY
  5
6B
102
{ACAD_REACTORS
330
C
102
}
330
C
100
AcDbDictionary
281
     1
  3
Standard
350
6C
  0
DICTIONARY
  5
17
102
{ACAD_REACTORS
330
C
102
}
330
C
100
AcDbDictionary
281
     1
  3
Standard
350
18
  0
DICTIONARY
  5
19
102
{ACAD_REACTORS
330
C
102
}
330
C
100
AcDbDictionary
281
     1
  0
ACDBDICTIONARYWDFLT
  5
E
102
{ACAD_REACTORS
330
C
102
}
330
C
100
AcDbDictionary
281
     1
  3
Normal
350
F
100
AcDbDictionaryWithDefault
340
F
  0
DICTIONARY
  5
47
102
{ACAD_REACTORS
330
C
102
}
330
C
100
AcDbDictionary
281
     1
  3
A0
350
48
  3
A1
350
49
  3
A2
350
4A
  3
A3
350
4B
  3
A4
350
4C
  3
A5
350
4D
  3
A6
350
4E
  3
A7
350
4F
  3
A8
350
50
  3
A9
350
51
  3
B0
350
52
  3
B1
350
53
  3
B2
350
54
  3
B3
350
55
  3
B4
350
56
  3
B5
350
57
  3
B6
350
58
  3
B7
350
59
  3
B8
350
5A
  3
B9
350
5B
  3
C0
350
5C
  3
C1
350
5D
  3
C2
350
5E
  3
C3
350
5F
  3
C4
350
60
  3
C5
350
61
  3
C6
350
62
  3
C7
350
63
  3
C8
350
64
  3
C9
350
65
  3
D0
350
66
  3
D1
350
67
  3
D2
350
68
  0
DICTIONARY
  5
424
102
{ACAD_REACTORS
330
C
102
}
330
C
100
AcDbDictionary
281
     1
  0
DICTIONARY
  5
69
102
{ACAD_REACTORS
330
C
102
}
330
C
100
AcDbDictionary
281
     1
  3
Standard
350
6A
  0
DICTIONARY
  5
2A
102
{ACAD_REACTORS
330
C
102
}
330
C
100
AcDbDictionary
281
     1
  3
2dWireframe
350
2F
  3
Basic
350
32
  3
Brighten
350
36
  3
ColorChange
350
3A
  3
Conceptual
350
34
  3
Dim
350
35
  3
EdgeColorOff
350
3D
  3
Facepattern
350
39
  3
Flat
350
2B
  3
FlatWithEdges
350
2C
  3
Gouraud
350
2D
  3
GouraudWithEdges
350
2E
  3
Hidden
350
31
  3
JitterOff
350
3B
  3
Linepattern
350
38
  3
OverhangOff
350
3C
  3
Realistic
350
33
  3
Shaded
350
42
  3
Shaded with edges
350
41
  3
Shades of Gray
350
3E
  3
Sketchy
350
3F
  3
Thicken
350
37
  3
Wireframe
350
30
  3
X-Ray
350
40
  0
XRECORD
  5
420
102
{ACAD_REACTORS
330
C
102
}
330
C
100
AcDbXrecord
280
     1
 90
        1
330
6A
  0
DICTIONARY
  5
3E0
102
{ACAD_REACTORS
330
C
102
}
330
C
100
AcDbDictionary
281
     1
  3
CANNOSCALE
350
3E1
  3
CENTEREXE
350
425
  3
CENTERLTYPEFILE
350
426
  3
CMLEADERSTYLE
350
422
  3
CTABLESTYLE
350
421
  3
MSLTSCALE
350
3E2
  3
XCLIPFRAME
350
3E3
  0
XRECORD
  5
3DF
102
{ACAD_REACTORS
330
3DE
102
}
330
3DE
100
AcDbXrecord
280
     1
102
VTR_0.000_0.000_1.000_1.000_VISUALSTYLE
340
2F
102
VTR_0.000_0.000_1.000_1.000_GRIDDISPLAY
 70
     3
102
VTR_0.000_0.000_1.000_1.000_GRIDMAJOR
 70
     5
102
VTR_0.000_0.000_1.000_1.000_DEFAULTLIGHTING
280
     1
102
VTR_0.000_0.000_1.000_1.000_DEFAULTLIGHTINGTYPE
 70
     1
102
VTR_0.000_0.000_1.000_1.000_BRIGHTNESS
141
0.0
102
VTR_0.000_0.000_1.000_1.000_CONTRAST
142
0.0
  0
LAYOUT
  5
1E
102
{ACAD_REACTORS
330
1A
102
}
330
1A
100
AcDbPlotSettings
  1

  2
none_device
  4

  6

 40
0.0
 41
0.0
 42
0.0
 43
0.0
 44
0.0
 45
0.0
 46
0.0
 47
0.0
 48
0.0
 49
0.0
140
0.0
141
0.0
142
1.0
143
1.0
 70
   688
 72
     1
 73
     0
 74
     5
  7

 75
    16
 76
     0
 77
     5
 78
   300
147
1.0
148
0.0
149
0.0
100
AcDbLayout
  1
Layout1
 70
     1
 71
     1
 10
0.0
 20
0.0
 11
420.0
 21
297.0
 12
0.0
 22
0.0
 32
0.0
 14
1.000000000000000E+20
 24
1.000000000000000E+20
 34
1.000000000000000E+20
 15
-1.000000000000000E+20
 25
-1.000000000000000E+20
 35
-1.000000000000000E+20
146
0.0
 13
0.0
 23
0.0
 33
0.0
 16
1.0
 26
0.0
 36
0.0
 17
0.0
 27
1.0
 37
0.0
 76
     0
330
1B
  0
LAYOUT
  5
26
102
{ACAD_REACTORS
330
1A
102
}
330
1A
100
AcDbPlotSettings
  1

  2
none_device
  4

  6

 40
0.0
 41
0.0
 42
0.0
 43
0.0
 44
0.0
 45
0.0
 46
0.0
 47
0.0
 48
0.0
 49
0.0
140
0.0
141
0.0
142
1.0
143
1.0
 70
   688
 72
     1
 73
     0
 74
     5
  7

 75
    16
 76
     0
 77
     5
 78
   300
147
1.0
148
0.0
149
0.0
100
AcDbLayout
  1
Layout2
 70
     1
 71
     2
 10
0.0
 20
0.0
 11
0.0
 21
0.0
 12
0.0
 22
0.0
 32
0.0
 14
0.0
 24
0.0
 34
0.0
 15
0.0
 25
0.0
 35
0.0
146
0.0
 13
0.0
 23
0.0
 33
0.0
 16
1.0
 26
0.0
 36
0.0
 17
0.0
 27
1.0
 37
0.0
 76
     0
330
23
  0
LAYOUT
  5
22
102
{ACAD_REACTORS
330
1A
102
}
330
1A
100
AcDbPlotSettings
  1

  2
none_device
  4
Letter_(8.50_x_11.00_Inches)
  6

 40
6.35
 41
6.35
 42
6.35000508
 43
6.35000508
 44
215.9
 45
279.4
 46
0.0
 47
0.0
 48
0.0
 49
0.0
140
0.0
141
0.0
142
1.0
143
1.0
 70
  1712
 72
     1
 73
     0
 74
     0
  7

 75
     0
 76
     0
 77
     5
 78
   300
147
1.0
148
0.0
149
0.0
100
AcDbLayout
  1
Model
 70
     1
 71
     0
 10
-630.0
 20
-445.5
 11
630.0
 21
445.5
 12
0.0
 22
0.0
 32
0.0
 14
-630.0
 24
-445.5
 34
0.0
 15
630.0
 25
445.5
 35
0.0
146
0.0
 13
0.0
 23
0.0
 33
0.0
 16
1.0
 26
0.0
 36
0.0
 17
0.0
 27
1.0
 37
0.0
 76
     0
330
1F
331
29
  0
MATERIAL
  5
45
102
{ACAD_REACTORS
330
43
102
}
102
{ACAD_XDICTIONARY
360
416
102
}
330
43
100
AcDbMaterial
  1
ByBlock
  0
MATERIAL
  5
44
102
{ACAD_REACTORS
330
43
102
}
102
{ACAD_XDICTIONARY
360
414
102
}
330
43
100
AcDbMaterial
  1
ByLayer
  0
MATERIAL
  5
46
102
{ACAD_REACTORS
330
43
102
}
102
{ACAD_XDICTIONARY
360
418
102
}
330
43
100
AcDbMaterial
  1
Global
  0
MLEADERSTYLE
  5
6C
102
{ACAD_REACTORS
330
6B
102
}
102
{ACAD_XDICTIONARY
360
41E
102
}
330
6B
100
AcDbMLeaderStyle
170
     2
171
     1
172
     0
 90
        2
 40
0.0
 41
0.0
173
     1
 91
-1056964608
340
14
 92
       -2
290
     1
 42
2.0
291
     1
 43
8.0
  3
Standard
341
0
 44
4.0
300

342
11
174
     1
178
     6
175
     1
176
     0
 93
-1056964608
 45
4.0
292
     0
297
     0
 46
4.0
343
0
 94
-1056964608
 47
1.0
 49
1.0
140
1.0
293
     1
141
0.0
294
     1
177
     0
142
1.0
295
     0
296
     0
143
3.75
1001
ACAD_MLEADERVER
1070
     2
  0
MLINESTYLE
  5
18
102
{ACAD_REACTORS
330
17
102
}
330
17
100
AcDbMlineStyle
  2
Standard
 70
     0
  3

 62
   256
 51
90.0
 52
90.0
 71
     2
 49
0.5
 62
   256
  6
BYLAYER
 49
-0.5
 62
   256
  6
BYLAYER
  0
ACDBPLACEHOLDER
  5
F
102
{ACAD_REACTORS
330
E
102
}
330
E
  0
SCALE
  5
48
102
{ACAD_REACTORS
330
47
102
}
330
47
100
AcDbScale
 70
     0
300
1:1
140
1.0
141
1.0
290
     1
  0
SCALE
  5
49
102
{ACAD_REACTORS
330
47
102
}
330
47
100
AcDbScale
 70
     0
300
1:2
140
1.0
141
2.0
290
     0
  0
SCALE
  5
4A
102
{ACAD_REACTORS
330
47
102
}
330
47
100
AcDbScale
 70
     0
300
1:4
140
1.0
141
4.0
290
     0
  0
SCALE
  5
4B
102
{ACAD_REACTORS
330
47
102
}
330
47
100
AcDbScale
 70
     0
300
1:5
140
1.0
141
5.0
290
     0
  0
SCALE
  5
4C
102
{ACAD_REACTORS
330
47
102
}
330
47
100
AcDbScale
 70
     0
300
1:8
140
1.0
141
8.0
290
     0
  0
SCALE
  5
4D
102
{ACAD_REACTORS
330
47
102
}
330
47
100
AcDbScale
 70
     0
300
1:10
140
1.0
141
10.0
290
     0
  0
SCALE
  5
4E
102
{ACAD_REACTORS
330
47
102
}
330
47
100
AcDbScale
 70
     0
300
1:16
140
1.0
141
16.0
290
     0
  0
SCALE
  5
4F
102
{ACAD_REACTORS
330
47
102
}
330
47
100
AcDbScale
 70
     0
300
1:20
140
1.0
141
20.0
290
     0
  0
SCALE
  5
50
102
{ACAD_REACTORS
330
47
102
}
330
47
100
AcDbScale
 70
     0
300
1:30
140
1.0
141
30.0
290
     0
  0
SCALE
  5
51
102
{ACAD_REACTORS
330
47
102
}
330
47
100
AcDbScale
 70
     0
300
1:40
140
1.0
141
40.0
290
     0
  0
SCALE
  5
52
102
{ACAD_REACTORS
330
47
102
}
330
47
100
AcDbScale
 70
     0
300
1:50
140
1.0
141
50.0
290
     0
  0
SCALE
  5
53
102
{ACAD_REACTORS
330
47
102
}
330
47
100
AcDbScale
 70
     0
300
1:100
140
1.0
141
100.0
290
     0
  0
SCALE
  5
54
102
{ACAD_REACTORS
330
47
102
}
330
47
100
AcDbScale
 70
     0
300
2:1
140
2.0
141
1.0
290
     0
  0
SCALE
  5
55
102
{ACAD_REACTORS
330
47
102
}
330
47
100
AcDbScale
 70
     0
300
4:1
140
4.0
141
1.0
290
     0
  0
SCALE
  5
56
102
{ACAD_REACTORS
330
47
102
}
330
47
100
AcDbScale
 70
     0
300
8:1
140
8.0
141
1.0
290
     0
  0
SCALE
  5
57
102
{ACAD_REACTORS
330
47
102
}
330
47
100
AcDbScale
 70
     0
300
10:1
140
10.0
141
1.0
290
     0
  0
SCALE
  5
58
102
{ACAD_REACTORS
330
47
102
}
330
47
100
AcDbScale
 70
     0
300
100:1
140
100.0
141
1.0
290
     0
  0
SCALE
  5
59
102
{ACAD_REACTORS
330
47
102
}
330
47
100
AcDbScale
 70
     0
300
1/128" = 1'-0"
140
0.0078125
141
12.0
290
     0
  0
SCALE
  5
5A
102
{ACAD_REACTORS
330
47
102
}
330
47
100
AcDbScale
 70
     0
300
1/64" = 1'-0"
140
0.015625
141
12.0
290
     0
  0
SCALE
  5
5B
102
{ACAD_REACTORS
330
47
102
}
330
47
100
AcDbScale
 70
     0
300
1/32" = 1'-0"
140
0.03125
141
12.0
290
     0
  0
SCALE
  5
5C
102
{ACAD_REACTORS
330
47
102
}
330
47
100
AcDbScale
 70
     0
300
1/16" = 1'-0"
140
0.0625
141
12.0
290
     0
  0
SCALE
  5
5D
102
{ACAD_REACTORS
330
47
102
}
330
47
100
AcDbScale
 70
     0
300
3/32" = 1'-0"
140
0.09375
141
12.0
290
     0
  0
SCALE
  5
5E
102
{ACAD_REACTORS
330
47
102
}
330
47
100
AcDbScale
 70
     0
300
1/8" = 1'-0"
140
0.125
141
12.0
290
     0
  0
SCALE
  5
5F
102
{ACAD_REACTORS
330
47
102
}
330
47
100
AcDbScale
 70
     0
300
3/16" = 1'-0"
140
0.1875
141
12.0
290
     0
  0
SCALE
  5
60
102
{ACAD_REACTORS
330
47
102
}
330
47
100
AcDbScale
 70
     0
300
1/4" = 1'-0"
140
0.25
141
12.0
290
     0
  0
SCALE
  5
61
102
{ACAD_REACTORS
330
47
102
}
330
47
100
AcDbScale
 70
     0
300
3/8" = 1'-0"
140
0.375
141
12.0
290
     0
  0
SCALE
  5
62
102
{ACAD_REACTORS
330
47
102
}
330
47
100
AcDbScale
 70
     0
300
1/2" = 1'-0"
140
0.5
141
12.0
290
     0
  0
SCALE
  5
63
102
{ACAD_REACTORS
330
47
102
}
330
47
100
AcDbScale
 70
     0
300
3/4" = 1'-0"
140
0.75
141
12.0
290
     0
  0
SCALE
  5
64
102
{ACAD_REACTORS
330
47
102
}
330
47
100
AcDbScale
 70
     0
300
1" = 1'-0"
140
1.0
141
12.0
290
     0
  0
SCALE
  5
65
102
{ACAD_REACTORS
330
47
102
}
330
47
100
AcDbScale
 70
     0
300
1-1/2" = 1'-0"
140
1.5
141
12.0
290
     0
  0
SCALE
  5
66
102
{ACAD_REACTORS
330
47
102
}
330
47
100
AcDbScale
 70
     0
300
3" = 1'-0"
140
3.0
141
12.0
290
     0
  0
SCALE
  5
67
102
{ACAD_REACTORS
330
47
102
}
330
47
100
AcDbScale
 70
     0
300
6" = 1'-0"
140
6.0
141
12.0
290
     0
  0
SCALE
  5
68
102
{ACAD_REACTORS
330
47
102
}
330
47
100
AcDbScale
 70
     0
300
1'-0" = 1'-0"
140
12.0
141
12.0
290
     0
  0
TABLESTYLE
  5
6A
102
{ACAD_REACTORS
330
69
102
}
102
{ACAD_XDICTIONARY
360
41A
102
}
330
69
100
AcDbTableStyle
  3
Standard
 70
     0
 71
     0
 40
0.06
 41
0.06
280
     0
281
     0
  7
Standard
140
4.5
170
     2
 62
     0
 63
   257
283
     0
274
    -2
284
     1
 64
     0
275
    -2
285
     1
 65
     0
276
    -2
286
     1
 66
     0
277
    -2
287
     1
 67
     0
278
    -2
288
     1
 68
     0
279
    -2
289
     1
 69
     0
  7
Standard
140
6.0
170
     5
 62
     0
 63
   257
283
     0
274
    -2
284
     1
 64
     0
275
    -2
285
     1
 65
     0
276
    -2
286
     1
 66
     0
277
    -2
287
     1
 67
     0
278
    -2
288
     1
 68
     0
279
    -2
289
     1
 69
     0
  7
Standard
140
4.5
170
     5
 62
     0
 63
   257
283
     0
274
    -2
284
     1
 64
     0
275
    -2
285
     1
 65
     0
276
    -2
286
     1
 66
     0
277
    -2
287
     1
 67
     0
278
    -2
288
     1
 68
     0
279
    -2
289
     1
 69
     0
  0
VISUALSTYLE
  5
2F
102
{ACAD_REACTORS
330
2A
102
}
102
{ACAD_XDICTIONARY
360
3EC
102
}
330
2A
100
AcDbVisualStyle
  2
2dWireframe
 70
     4
 71
     0
 72
     2
 73
     0
 90
        0
 40
0.6
 41
30.0
 62
     5
 63
     7
421
 16777215
 74
     1
 91
        4
 64
     7
 65
   257
 75
     1
175
     1
 42
1.0
 92
        0
 66
   257
 43
1.0
 76
     1
 77
     6
 78
     2
 67
     7
 79
     5
170
     0
171
     0
290
     0
174
     0
 93
        1
 44
0.0
173
     0
291
     0
 45
0.0
1001
ACAD
1000
AcDbSavedByObjectVersion
1070
     0
  0
VISUALSTYLE
  5
32
102
{ACAD_REACTORS
330
2A
102
}
102
{ACAD_XDICTIONARY
360
3F2
102
}
330
2A
100
AcDbVisualStyle
  2
Basic
 70
     7
 71
     1
 72
     0
 73
     1
 90
        0
 40
0.6
 41
30.0
 62
     5
 63
     7
421
 16777215
 74
     0
 91
        4
 64
     7
 65
   257
 75
     1
175
     1
 42
1.0
 92
        8
 66
     7
 43
1.0
 76
     1
 77
     6
 78
     2
 67
     7
 79
     5
170
     0
171
     0
290
     0
174
     0
 93
        1
 44
0.0
173
     0
291
     1
 45
0.0
1001
ACAD
1000
AcDbSavedByObjectVersion
1070
     0
  0
VISUALSTYLE
  5
36
102
{ACAD_REACTORS
330
2A
102
}
102
{ACAD_XDICTIONARY
360
3FA
102
}
330
2A
100
AcDbVisualStyle
  2
Brighten
 70
    12
 71
     2
 72
     2
 73
     0
 90
        0
 40
0.6
 41
30.0
 62
     5
 63
     7
421
 16777215
 74
     1
 91
        4
 64
     7
 65
   257
 75
     1
175
     1
 42
1.0
 92
        8
 66
     7
 43
1.0
 76
     1
 77
     6
 78
     2
 67
     7
 79
     5
170
     0
171
     0
290
     0
174
     0
 93
        1
 44
50.0
173
     0
291
     1
 45
0.0
1001
ACAD
1000
AcDbSavedByObjectVersion
1070
     0
  0
VISUALSTYLE
  5
3A
102
{ACAD_REACTORS
330
2A
102
}
102
{ACAD_XDICTIONARY
360
402
102
}
330
2A
100
AcDbVisualStyle
  2
ColorChange
 70
    16
 71
     2
 72
     2
 73
     3
 90
        0
 40
0.6
 41
30.0
 62
     5
 63
     8
421
  8421504
 74
     1
 91
        4
 64
     7
 65
   257
 75
     1
175
     1
 42
1.0
 92
        8
 66
     8
424
  8421504
 43
1.0
 76
     1
 77
     6
 78
     2
 67
     7
 79
     5
170
     0
171
     0
290
     0
174
     0
 93
        1
 44
0.0
173
     0
291
     1
 45
0.0
1001
ACAD
1000
AcDbSavedByObjectVersion
1070
     0
  0
VISUALSTYLE
  5
34
102
{ACAD_REACTORS
330
2A
102
}
102
{ACAD_XDICTIONARY
360
3F6
102
}
330
2A
100
AcDbVisualStyle
  2
Conceptual
 70
     9
 71
     3
 72
     2
 73
     0
 90
        0
 40
0.6
 41
30.0
 62
     5
 63
     7
421
 16777215
 74
     2
 91
        2
 64
     7
 65
   257
 75
     1
175
     1
 42
179.0
 92
        8
 66
     7
 43
1.0
 76
     1
 77
     6
 78
     2
 67
     7
 79
     3
170
     0
171
     0
290
     0
174
     0
 93
        1
 44
0.0
173
     0
291
     0
 45
0.0
1001
ACAD
1000
AcDbSavedByObjectVersion
1070
     0
  0
VISUALSTYLE
  5
35
102
{ACAD_REACTORS
330
2A
102
}
102
{ACAD_XDICTIONARY
360
3F8
102
}
330
2A
100
AcDbVisualStyle
  2
Dim
 70
    11
 71
     2
 72
     2
 73
     0
 90
        0
 40
0.6
 41
30.0
 62
     5
 63
     7
421
 16777215
 74
     1
 91
        4
 64
     7
 65
   257
 75
     1
175
     1
 42
1.0
 92
        8
 66
     7
 43
1.0
 76
     1
 77
     6
 78
     2
 67
     7
 79
     5
170
     0
171
     0
290
     0
174
     0
 93
        1
 44
-50.0
173
     0
291
     1
 45
0.0
1001
ACAD
1000
AcDbSavedByObjectVersion
1070
     0
  0
VISUALSTYLE
  5
3D
102
{ACAD_REACTORS
330
2A
102
}
102
{ACAD_XDICTIONARY
360
408
102
}
330
2A
100
AcDbVisualStyle
  2
EdgeColorOff
 70
    22
 71
     2
 72
     2
 73
     0
 90
        0
 40
0.6
 41
30.0
 62
     5
 63
     7
421
 16777215
 74
     1
 91
        4
 64
     7
 65
   257
 75
     1
175
     1
 42
1.0
 92
        8
 66
     7
 43
1.0
 76
     1
 77
     6
 78
     2
 67
     7
 79
     5
170
     0
171
     0
290
     0
174
     0
 93
        1
 44
0.0
173
     0
291
     1
 45
0.0
1001
ACAD
1000
AcDbSavedByObjectVersion
1070
     0
  0
VISUALSTYLE
  5
39
102
{ACAD_REACTORS
330
2A
102
}
102
{ACAD_XDICTIONARY
360
400
102
}
330
2A
100
AcDbVisualStyle
  2
Facepattern
 70
    15
 71
     2
 72
     2
 73
     0
 90
        0
 40
0.6
 41
30.0
 62
     5
 63
     7
421
 16777215
 74
     1
 91
        4
 64
     7
 65
   257
 75
     1
175
     1
 42
1.0
 92
        8
 66
     7
 43
1.0
 76
     1
 77
     6
 78
     2
 67
     7
 79
     5
170
     0
171
     0
290
     0
174
     0
 93
        1
 44
0.0
173
     0
291
     1
 45
0.0
1001
ACAD
1000
AcDbSavedByObjectVersion
1070
     0
  0
VISUALSTYLE
  5
2B
102
{ACAD_REACTORS
330
2A
102
}
102
{ACAD_XDICTIONARY
360
3E4
102
}
330
2A
100
AcDbVisualStyle
  2
Flat
 70
     0
 71
     2
 72
     1
 73
     1
 90
        2
 40
0.6
 41
30.0
 62
     5
 63
     7
421
 16777215
 74
     0
 91
        0
 64
     7
 65
   257
 75
     1
175
     1
 42
1.0
 92
        8
 66
     7
 43
1.0
 76
     1
 77
     6
 78
     2
 67
     7
 79
     5
170
     0
171
     0
290
     0
174
     0
 93
       13
 44
0.0
173
     0
291
     1
 45
0.0
1001
ACAD
1000
AcDbSavedByObjectVersion
1070
     0
  0
VISUALSTYLE
  5
2C
102
{ACAD_REACTORS
330
2A
102
}
102
{ACAD_XDICTIONARY
360
3E6
102
}
330
2A
100
AcDbVisualStyle
  2
FlatWithEdges
 70
     1
 71
     2
 72
     1
 73
     1
 90
        2
 40
0.6
 41
30.0
 62
     5
 63
     7
421
 16777215
 74
     1
 91
        0
 64
     7
 65
   257
 75
     1
175
     1
 42
1.0
 92
        0
 66
   257
 43
1.0
 76
     1
 77
     6
 78
     2
 67
     7
 79
     5
170
     0
171
     0
290
     0
174
     0
 93
       13
 44
0.0
173
     0
291
     1
 45
0.0
1001
ACAD
1000
AcDbSavedByObjectVersion
1070
     0
  0
VISUALSTYLE
  5
2D
102
{ACAD_REACTORS
330
2A
102
}
102
{ACAD_XDICTIONARY
360
3E8
102
}
330
2A
100
AcDbVisualStyle
  2
Gouraud
 70
     2
 71
     2
 72
     2
 73
     1
 90
        2
 40
0.6
 41
30.0
 62
     5
 63
     7
421
 16777215
 74
     0
 91
        0
 64
     7
 65
   257
 75
     1
175
     1
 42
1.0
 92
        0
 66
     7
 43
1.0
 76
     1
 77
     6
 78
     2
 67
     7
 79
     5
170
     0
171
     0
290
     0
174
     0
 93
       13
 44
0.0
173
     0
291
     1
 45
0.0
1001
ACAD
1000
AcDbSavedByObjectVersion
1070
     0
  0
VISUALSTYLE
  5
2E
102
{ACAD_REACTORS
330
2A
102
}
102
{ACAD_XDICTIONARY
360
3EA
102
}
330
2A
100
AcDbVisualStyle
  2
GouraudWithEdges
 70
     3
 71
     2
 72
     2
 73
     1
 90
        2
 40
0.6
 41
30.0
 62
     5
 63
     7
421
 16777215
 74
     1
 91
        0
 64
     7
 65
   257
 75
     1
175
     1
 42
1.0
 92
        0
 66
   257
 43
1.0
 76
     1
 77
     6
 78
     2
 67
     7
 79
     5
170
     0
171
     0
290
     0
174
     0
 93
       13
 44
0.0
173
     0
291
     1
 45
0.0
1001
ACAD
1000
AcDbSavedByObjectVersion
1070
     0
  0
VISUALSTYLE
  5
31
102
{ACAD_REACTORS
330
2A
102
}
102
{ACAD_XDICTIONARY
360
3F0
102
}
330
2A
100
AcDbVisualStyle
  2
Hidden
 70
     6
 71
     1
 72
     2
 73
     2
 90
        0
 40
0.6
 41
30.0
 62
     5
 63
     7
421
 16777215
 74
     2
 91
        2
 64
     7
 65
   257
 75
     2
175
     1
 42
40.0
 92
        0
 66
   257
 43
1.0
 76
     1
 77
     6
 78
     2
 67
     7
 79
     3
170
     0
171
     0
290
     0
174
     0
 93
        1
 44
0.0
173
     0
291
     0
 45
0.0
1001
ACAD
1000
AcDbSavedByObjectVersion
1070
     0
  0
VISUALSTYLE
  5
3B
102
{ACAD_REACTORS
330
2A
102
}
102
{ACAD_XDICTIONARY
360
404
102
}
330
2A
100
AcDbVisualStyle
  2
JitterOff
 70
    20
 71
     2
 72
     2
 73
     0
 90
        0
 40
0.6
 41
30.0
 62
     5
 63
     7
421
 16777215
 74
     1
 91
        4
 64
     7
 65
   257
 75
     1
175
     1
 42
1.0
 92
       10
 66
     7
 43
1.0
 76
     1
 77
     6
 78
     2
 67
     7
 79
     5
170
     0
171
     0
290
     0
174
     0
 93
        1
 44
0.0
173
     0
291
     1
 45
0.0
1001
ACAD
1000
AcDbSavedByObjectVersion
1070
     0
  0
VISUALSTYLE
  5
38
102
{ACAD_REACTORS
330
2A
102
}
102
{ACAD_XDICTIONARY
360
3FE
102
}
330
2A
100
AcDbVisualStyle
  2
Linepattern
 70
    14
 71
     2
 72
     2
 73
     0
 90
        0
 40
0.6
 41
30.0
 62
     5
 63
     7
421
 16777215
 74
     1
 91
        4
 64
     7
 65
   257
 75
     7
175
     7
 42
1.0
 92
        8
 66
     7
 43
1.0
 76
     1
 77
     6
 78
     2
 67
     7
 79
     5
170
     0
171
     0
290
     0
174
     0
 93
        1
 44
0.0
173
     0
291
     1
 45
0.0
1001
ACAD
1000
AcDbSavedByObjectVersion
1070
     0
  0
VISUALSTYLE
  5
3C
102
{ACAD_REACTORS
330
2A
102
}
102
{ACAD_XDICTIONARY
360
406
102
}
330
2A
100
AcDbVisualStyle
  2
OverhangOff
 70
    21
 71
     2
 72
     2
 73
     0
 90
        0
 40
0.6
 41
30.0
 62
     5
 63
     7
421
 16777215
 74
     1
 91
        4
 64
     7
 65
   257
 75
     1
175
     1
 42
1.0
 92
        9
 66
     7
 43
1.0
 76
     1
 77
     6
 78
     2
 67
     7
 79
     5
170
     0
171
     0
290
     0
174
     0
 93
        1
 44
0.0
173
     0
291
     1
 45
0.0
1001
ACAD
1000
AcDbSavedByObjectVersion
1070
     0
  0
VISUALSTYLE
  5
33
102
{ACAD_REACTORS
330
2A
102
}
102
{ACAD_XDICTIONARY
360
3F4
102
}
330
2A
100
AcDbVisualStyle
  2
Realistic
 70
     8
 71
     2
 72
     3
 73
     0
 90
        2
 40
0.6
 41
30.0
 62
     5
 63
     7
421
 16777215
 74
     0
 91
        0
 64
     7
 65
   257
 75
     1
175
     1
 42
1.0
 92
        8
 66
   257
 43
1.0
 76
     1
 77
     6
 78
     2
 67
     7
 79
     3
170
     0
171
     0
290
     0
174
     0
 93
       13
 44
0.0
173
     0
291
     0
 45
0.0
1001
ACAD
1000
AcDbSavedByObjectVersion
1070
     0
  0
VISUALSTYLE
  5
42
102
{ACAD_REACTORS
330
2A
102
}
102
{ACAD_XDICTIONARY
360
412
102
}
330
2A
100
AcDbVisualStyle
  2
Shaded
 70
    27
 71
     2
 72
     2
 73
     1
 90
        2
 40
0.6
 41
30.0
 62
     5
 63
     7
421
 16777215
 74
     0
 91
        4
 64
     7
 65
   257
 75
     1
175
     1
 42
1.0
 92
        8
 66
   257
 43
1.0
 76
     1
 77
     6
 78
     2
 67
     8
425
  7895160
 79
     3
170
     0
171
     0
290
     0
174
     0
 93
        5
 44
0.0
173
     0
291
     0
 45
0.0
1001
ACAD
1000
AcDbSavedByObjectVersion
1070
     0
  0
VISUALSTYLE
  5
41
102
{ACAD_REACTORS
330
2A
102
}
102
{ACAD_XDICTIONARY
360
410
102
}
330
2A
100
AcDbVisualStyle
  2
Shaded with edges
 70
    26
 71
     2
 72
     2
 73
     1
 90
        2
 40
0.6
 41
30.0
 62
     5
 63
     7
421
 16777215
 74
     1
 91
       10
 64
     7
 65
   257
 75
     2
175
     1
 42
1.0
 92
        8
 66
   257
 43
1.0
 76
     1
 77
     6
 78
     2
 67
     7
 79
     3
170
     0
171
     0
290
     0
174
     0
 93
        5
 44
0.0
173
     0
291
     0
 45
0.0
1001
ACAD
1000
AcDbSavedByObjectVersion
1070
     0
  0
VISUALSTYLE
  5
3E
102
{ACAD_REACTORS
330
2A
102
}
102
{ACAD_XDICTIONARY
360
40A
102
}
330
2A
100
AcDbVisualStyle
  2
Shades of Gray
 70
    23
 71
     2
 72
     2
 73
     3
 90
        0
 40
0.6
 41
30.0
 62
     5
 63
     7
421
 16777215
 74
     2
 91
        2
 64
     7
 65
     7
 75
     1
175
     1
 42
40.0
 92
        8
 66
     7
 43
1.0
 76
     1
 77
     6
 78
     2
 67
     7
 79
     3
170
     0
171
     0
290
     0
174
     0
 93
        1
 44
0.0
173
     0
291
     0
 45
0.0
1001
ACAD
1000
AcDbSavedByObjectVersion
1070
     0
  0
VISUALSTYLE
  5
3F
102
{ACAD_REACTORS
330
2A
102
}
102
{ACAD_XDICTIONARY
360
40C
102
}
330
2A
100
AcDbVisualStyle
  2
Sketchy
 70
    24
 71
     1
 72
     2
 73
     2
 90
        0
 40
0.6
 41
30.0
 62
     5
 63
     7
421
 16777215
 74
     2
 91
        2
 64
     7
 65
     7
 75
     1
175
     1
 42
40.0
 92
       11
 66
     7
 43
1.0
 76
     1
 77
     6
 78
     2
 67
     7
 79
     6
170
     0
171
     0
290
     0
174
     0
 93
        1
 44
0.0
173
     0
291
     0
 45
0.0
1001
ACAD
1000
AcDbSavedByObjectVersion
1070
     0
  0
VISUALSTYLE
  5
37
102
{ACAD_REACTORS
330
2A
102
}
102
{ACAD_XDICTIONARY
360
3FC
102
}
330
2A
100
AcDbVisualStyle
  2
Thicken
 70
    13
 71
     2
 72
     2
 73
     0
 90
        0
 40
0.6
 41
30.0
 62
     5
 63
     7
421
 16777215
 74
     1
 91
        4
 64
     7
 65
   257
 75
     1
175
     1
 42
1.0
 92
       12
 66
     7
 43
1.0
 76
     1
 77
     6
 78
     2
 67
     7
 79
     5
170
     0
171
     0
290
     0
174
     0
 93
        1
 44
0.0
173
     0
291
     1
 45
0.0
1001
ACAD
1000
AcDbSavedByObjectVersion
1070
     0
  0
VISUALSTYLE
  5
30
102
{ACAD_REACTORS
330
2A
102
}
102
{ACAD_XDICTIONARY
360
3EE
102
}
330
2A
100
AcDbVisualStyle
  2
Wireframe
 70
     5
 71
     0
 72
     2
 73
     0
 90
        0
 40
0.6
 41
30.0
 62
     5
 63
     7
421
 16777215
 74
     1
 91
        4
 64
     7
 65
   257
 75
     1
175
     1
 42
1.0
 92
        0
 66
   257
 43
1.0
 76
     1
 77
     6
 78
     2
 67
     7
 79
     3
170
     0
171
     0
290
     0
174
     0
 93
        1
 44
0.0
173
     0
291
     0
 45
0.0
1001
ACAD
1000
AcDbSavedByObjectVersion
1070
     0
  0
VISUALSTYLE
  5
40
102
{ACAD_REACTORS
330
2A
102
}
102
{ACAD_XDICTIONARY
360
40E
102
}
330
2A
100
AcDbVisualStyle
  2
X-Ray
 70
    25
 71
     2
 72
     2
 73
     1
 90
        1
 40
0.5
 41
30.0
 62
     5
 63
     7
421
 16777215
 74
     1
 91
        0
 64
     7
 65
   257
 75
     1
175
     1
 42
1.0
 92
        8
 66
     7
 43
1.0
 76
     1
 77
     6
 78
     2
 67
     7
 79
     3
170
     0
171
     0
290
     0
174
     0
 93
       13
 44
0.0
173
     0
291
     0
 45
0.0
1001
ACAD
1000
AcDbSavedByObjectVersion
1070
     0
  0
DICTIONARYVAR
  5
3E1
102
{ACAD_REACTORS
330
3E0
102
}
330
3E0
100
DictionaryVariables
280
     0
  1
1:1
  0
DICTIONARYVAR
  5
425
102
{ACAD_REACTORS
330
3E0
102
}
330
3E0
100
DictionaryVariables
280
     0
  1
3.500000
  0
DICTIONARYVAR
  5
426
102
{ACAD_REACTORS
330
3E0
102
}
330
3E0
100
DictionaryVariables
280
     0
  1
acadiso.lin
  0
DICTIONARYVAR
  5
422
102
{ACAD_REACTORS
330
3E0
102
}
330
3E0
100
DictionaryVariables
280
     0
  1
Standard
  0
DICTIONARYVAR
  5
421
102
{ACAD_REACTORS
330
3E0
102
}
330
3E0
100
DictionaryVariables
280
     0
  1
Standard
  0
DICTIONARYVAR
  5
3E2
102
{ACAD_REACTORS
330
3E0
102
}
330
3E0
100
DictionaryVariables
280
     0
  1
1
  0
DICTIONARYVAR
  5
3E3
102
{ACAD_REACTORS
330
3E0
102
}
330
3E0
100
DictionaryVariables
280
     0
  1
2
  0
DICTIONARY
  5
416
330
45
100
AcDbDictionary
280
     1
281
     1
  3
ACAD_XREC_ROUNDTRIP
360
417
  0
DICTIONARY
  5
414
330
44
100
AcDbDictionary
280
     1
281
     1
  3
ACAD_XREC_ROUNDTRIP
360
415
  0
DICTIONARY
  5
418
330
46
100
AcDbDictionary
280
     1
281
     1
  3
ACAD_XREC_ROUNDTRIP
360
419
  0
DICTIONARY
  5
41E
330
6C
100
AcDbDictionary
280
     1
281
     1
  3
ACAD_XREC_ROUNDTRIP
360
41F
  0
DICTIONARY
  5
41A
330
6A
100
AcDbDictionary
280
     1
281
     1
  3
ACAD_ROUNDTRIP_2008_TABLESTYLE_CELLSTYLEMAP
360
41C
  3
ACAD_XREC_ROUNDTRIP
360
41B
  0
DICTIONARY
  5
3EC
330
2F
100
AcDbDictionary
280
     1
281
     1
  3
ACAD_XREC_ROUNDTRIP
360
3ED
  0
DICTIONARY
  5
3F2
330
32
100
AcDbDictionary
280
     1
281
     1
  3
ACAD_XREC_ROUNDTRIP
360
3F3
  0
DICTIONARY
  5
3FA
330
36
100
AcDbDictionary
280
     1
281
     1
  3
ACAD_XREC_ROUNDTRIP
360
3FB
  0
DICTIONARY
  5
402
330
3A
100
AcDbDictionary
280
     1
281
     1
  3
ACAD_XREC_ROUNDTRIP
360
403
  0
DICTIONARY
  5
3F6
330
34
100
AcDbDictionary
280
     1
281
     1
  3
ACAD_XREC_ROUNDTRIP
360
3F7
  0
DICTIONARY
  5
3F8
330
35
100
AcDbDictionary
280
     1
281
     1
  3
ACAD_XREC_ROUNDTRIP
360
3F9
  0
DICTIONARY
  5
408
330
3D
100
AcDbDictionary
280
     1
281
     1
  3
ACAD_XREC_ROUNDTRIP
360
409
  0
DICTIONARY
  5
400
330
39
100
AcDbDictionary
280
     1
281
     1
  3
ACAD_XREC_ROUNDTRIP
360
401
  0
DICTIONARY
  5
3E4
330
2B
100
AcDbDictionary
280
     1
281
     1
  3
ACAD_XREC_ROUNDTRIP
360
3E5
  0
DICTIONARY
  5
3E6
330
2C
100
AcDbDictionary
280
     1
281
     1
  3
ACAD_XREC_ROUNDTRIP
360
3E7
  0
DICTIONARY
  5
3E8
330
2D
100
AcDbDictionary
280
     1
281
     1
  3
ACAD_XREC_ROUNDTRIP
360
3E9
  0
DICTIONARY
  5
3EA
330
2E
100
AcDbDictionary
280
     1
281
     1
  3
ACAD_XREC_ROUNDTRIP
360
3EB
  0
DICTIONARY
  5
3F0
330
31
100
AcDbDictionary
280
     1
281
     1
  3
ACAD_XREC_ROUNDTRIP
360
3F1
  0
DICTIONARY
  5
404
330
3B
100
AcDbDictionary
280
     1
281
     1
  3
ACAD_XREC_ROUNDTRIP
360
405
  0
DICTIONARY
  5
3FE
330
38
100
AcDbDictionary
280
     1
281
     1
  3
ACAD_XREC_ROUNDTRIP
360
3FF
  0
DICTIONARY
  5
406
330
3C
100
AcDbDictionary
280
     1
281
     1
  3
ACAD_XREC_ROUNDTRIP
360
407
  0
DICTIONARY
  5
3F4
330
33
100
AcDbDictionary
280
     1
281
     1
  3
ACAD_XREC_ROUNDTRIP
360
3F5
  0
DICTIONARY
  5
412
330
42
100
AcDbDictionary
280
     1
281
     1
  3
ACAD_XREC_ROUNDTRIP
360
413
  0
DICTIONARY
  5
410
330
41
100
AcDbDictionary
280
     1
281
     1
  3
ACAD_XREC_ROUNDTRIP
360
411
  0
DICTIONARY
  5
40A
330
3E
100
AcDbDictionary
280
     1
281
     1
  3
ACAD_XREC_ROUNDTRIP
360
40B
  0
DICTIONARY
  5
40C
330
3F
100
AcDbDictionary
280
     1
281
     1
  3
ACAD_XREC_ROUNDTRIP
360
40D
  0
DICTIONARY
  5
3FC
330
37
100
AcDbDictionary
280
     1
281
     1
  3
ACAD_XREC_ROUNDTRIP
360
3FD
  0
DICTIONARY
  5
3EE
330
30
100
AcDbDictionary
280
     1
281
     1
  3
ACAD_XREC_ROUNDTRIP
360
3EF
  0
DICTIONARY
  5
40E
330
40
100
AcDbDictionary
280
     1
281
     1
  3
ACAD_XREC_ROUNDTRIP
360
40F
  0
XRECORD
  5
417
102
{ACAD_REACTORS
330
416
102
}
330
416
100
AcDbXrecord
280
     1
102
MATERIAL
148
0.0
149
0.0
149
0.0
 93
        0
 94
      127
282
     0
 72
     1
 77
     1
171
     1
175
     1
179
     1
273
     0
  0
XRECORD
  5
415
102
{ACAD_REACTORS
330
414
102
}
330
414
100
AcDbXrecord
280
     1
102
MATERIAL
148
0.0
149
0.0
149
0.0
 93
        0
 94
      127
282
     0
 72
     1
 77
     1
171
     1
175
     1
179
     1
273
     0
  0
XRECORD
  5
419
102
{ACAD_REACTORS
330
418
102
}
330
418
100
AcDbXrecord
280
     1
102
MATERIAL
148
0.0
149
0.0
149
0.0
 93
        0
 94
      127
282
     0
 72
     1
 77
     1
171
     1
175
     1
179
     1
273
     0
  0
XRECORD
  5
41F
102
{ACAD_REACTORS
330
41E
102
}
330
41E
100
AcDbXrecord
280
     1
102
ACAD_ROUNDTRIP_2010_MLEADER_STYLE
  0
CELLSTYLEMAP
  5
41C
102
{ACAD_REACTORS
330
41A
102
}
330
41A
100
AcDbCellStyleMap
 90
        3
300
CELLSTYLE
  1
TABLEFORMAT_BEGIN
 90
        5
170
     1
 91
        0
 92
    32768
 62
   257
 93
        1
300
CONTENTFORMAT
  1
CONTENTFORMAT_BEGIN
 90
        0
 91
        0
 92
        4
 93
        0
300

 40
0.0
140
1.0
 94
        5
 62
     0
340
11
144
6.0
309
CONTENTFORMAT_END
171
     1
301
MARGIN
  1
CELLMARGIN_BEGIN
 40
1.5
 40
1.5
 40
1.5
 40
1.5
 40
1.5
 40
1.5
309
CELLMARGIN_END
 94
        6
 95
        1
302
GRIDFORMAT
  1
GRIDFORMAT_BEGIN
 90
        0
 91
        1
 62
     0
 92
       -2
340
14
 93
        0
 40
0.045
309
GRIDFORMAT_END
 95
        2
302
GRIDFORMAT
  1
GRIDFORMAT_BEGIN
 90
        0
 91
        1
 62
     0
 92
       -2
340
14
 93
        0
 40
0.045
309
GRIDFORMAT_END
 95
        4
302
GRIDFORMAT
  1
GRIDFORMAT_BEGIN
 90
        0
 91
        1
 62
     0
 92
       -2
340
14
 93
        0
 40
0.045
309
GRIDFORMAT_END
 95
        8
302
GRIDFORMAT
  1
GRIDFORMAT_BEGIN
 90
        0
 91
        1
 62
     0
 92
       -2
340
14
 93
        0
 40
0.045
309
GRIDFORMAT_END
 95
       16
302
GRIDFORMAT
  1
GRIDFORMAT_BEGIN
 90
        0
 91
        1
 62
     0
 92
       -2
340
14
 93
        0
 40
0.045
309
GRIDFORMAT_END
 95
       32
302
GRIDFORMAT
  1
GRIDFORMAT_BEGIN
 90
        0
 91
        1
 62
     0
 92
       -2
340
14
 93
        0
 40
0.045
309
GRIDFORMAT_END
309
TABLEFORMAT_END
  1
CELLSTYLE_BEGIN
 90
        1
 91
        1
300
_TITLE
309
CELLSTYLE_END
300
CELLSTYLE
  1
TABLEFORMAT_BEGIN
 90
        5
170
     1
 91
        0
 92
        0
 62
   257
 93
        1
300
CONTENTFORMAT
  1
CONTENTFORMAT_BEGIN
 90
        0
 91
        0
 92
        4
 93
        0
300

 40
0.0
140
1.0
 94
        5
 62
     0
340
11
144
4.5
309
CONTENTFORMAT_END
171
     1
301
MARGIN
  1
CELLMARGIN_BEGIN
 40
1.5
 40
1.5
 40
1.5
 40
1.5
 40
1.5
 40
1.5
309
CELLMARGIN_END
 94
        6
 95
        1
302
GRIDFORMAT
  1
GRIDFORMAT_BEGIN
 90
        0
 91
        1
 62
     0
 92
       -2
340
14
 93
        0
 40
0.045
309
GRIDFORMAT_END
 95
        2
302
GRIDFORMAT
  1
GRIDFORMAT_BEGIN
 90
        0
 91
        1
 62
     0
 92
       -2
340
14
 93
        0
 40
0.045
309
GRIDFORMAT_END
 95
        4
302
GRIDFORMAT
  1
GRIDFORMAT_BEGIN
 90
        0
 91
        1
 62
     0
 92
       -2
340
14
 93
        0
 40
0.045
309
GRIDFORMAT_END
 95
        8
302
GRIDFORMAT
  1
GRIDFORMAT_BEGIN
 90
        0
 91
        1
 62
     0
 92
       -2
340
14
 93
        0
 40
0.045
309
GRIDFORMAT_END
 95
       16
302
GRIDFORMAT
  1
GRIDFORMAT_BEGIN
 90
        0
 91
        1
 62
     0
 92
       -2
340
14
 93
        0
 40
0.045
309
GRIDFORMAT_END
 95
       32
302
GRIDFORMAT
  1
GRIDFORMAT_BEGIN
 90
        0
 91
        1
 62
     0
 92
       -2
340
14
 93
        0
 40
0.045
309
GRIDFORMAT_END
309
TABLEFORMAT_END
  1
CELLSTYLE_BEGIN
 90
        2
 91
        1
300
_HEADER
309
CELLSTYLE_END
300
CELLSTYLE
  1
TABLEFORMAT_BEGIN
 90
        5
170
     1
 91
        0
 92
        0
 62
   257
 93
        1
300
CONTENTFORMAT
  1
CONTENTFORMAT_BEGIN
 90
        0
 91
        0
 92
        4
 93
        0
300

 40
0.0
140
1.0
 94
        2
 62
     0
340
11
144
4.5
309
CONTENTFORMAT_END
171
     1
301
MARGIN
  1
CELLMARGIN_BEGIN
 40
1.5
 40
1.5
 40
1.5
 40
1.5
 40
1.5
 40
1.5
309
CELLMARGIN_END
 94
        6
 95
        1
302
GRIDFORMAT
  1
GRIDFORMAT_BEGIN
 90
        0
 91
        1
 62
     0
 92
       -2
340
14
 93
        0
 40
0.045
309
GRIDFORMAT_END
 95
        2
302
GRIDFORMAT
  1
GRIDFORMAT_BEGIN
 90
        0
 91
        1
 62
     0
 92
       -2
340
14
 93
        0
 40
0.045
309
GRIDFORMAT_END
 95
        4
302
GRIDFORMAT
  1
GRIDFORMAT_BEGIN
 90
        0
 91
        1
 62
     0
 92
       -2
340
14
 93
        0
 40
0.045
309
GRIDFORMAT_END
 95
        8
302
GRIDFORMAT
  1
GRIDFORMAT_BEGIN
 90
        0
 91
        1
 62
     0
 92
       -2
340
14
 93
        0
 40
0.045
309
GRIDFORMAT_END
 95
       16
302
GRIDFORMAT
  1
GRIDFORMAT_BEGIN
 90
        0
 91
        1
 62
     0
 92
       -2
340
14
 93
        0
 40
0.045
309
GRIDFORMAT_END
 95
       32
302
GRIDFORMAT
  1
GRIDFORMAT_BEGIN
 90
        0
 91
        1
 62
     0
 92
       -2
340
14
 93
        0
 40
0.045
309
GRIDFORMAT_END
309
TABLEFORMAT_END
  1
CELLSTYLE_BEGIN
 90
        3
 91
        2
300
_DATA
309
CELLSTYLE_END
  0
XRECORD
  5
41B
102
{ACAD_REACTORS
330
41A
102
}
330
41A
100
AcDbXrecord
280
     1
102
ACAD_ROUNDTRIP_PRE2007_TABLESTYLE
 90
        4
 91
        0
  1

 92
        4
 93
        0
  2

 94
        4
 95
        0
  3

  0
XRECORD
  5
3ED
102
{ACAD_REACTORS
330
3EC
102
}
330
3EC
100
AcDbXrecord
280
     1
102
RTVSPropertyOp0
 70
     1
102
RTVSPropertyOp1
 70
     1
102
RTVSPropertyOp2
 70
     1
102
RTVSPropertyOp3
 70
     1
102
RTVSPropertyOp4
 70
     1
102
RTVSPropertyOp5
 70
     1
102
RTVSPropertyOp6
 70
     1
102
RTVSPropertyOp7
 70
     1
102
RTVSPropertyOp8
 70
     1
102
RTVSPropertyOp9
 70
     1
102
RTVSPropertyOp10
 70
     1
102
RTVSPropertyOp11
 70
     1
102
RTVSPropertyOp12
 70
     1
102
RTVSPropertyOp13
 70
     1
102
RTVSPropertyOp14
 70
     1
102
RTVSPropertyOp15
 70
     1
102
RTVSPropertyOp16
 70
     1
102
RTVSPropertyOp17
 70
     1
102
RTVSPropertyOp18
 70
     1
102
RTVSPropertyOp19
 70
     1
102
RTVSPropertyOp20
 70
     1
102
RTVSPropertyOp21
 70
     1
102
RTVSPropertyOp22
 70
     1
102
RTVSPropertyOp23
 70
     1
102
RTVSPropertyOp24
 70
     1
102
RTVSPropertyOp25
 70
     1
102
RTVSPropertyOp26
 70
     1
102
RTVSPropertyOp27
 70
     1
102
RTVSPropertyOp28
 70
     1
102
RTVSPropertyOp29
 70
     1
102
RTVSPropertyOp30
 70
     1
102
RTVSPropertyOp31
 70
     1
102
RTVSPropertyOp32
 70
     1
102
RTVSPropertyOp33
 70
     1
102
RTVSPropertyOp34
 70
     1
102
RTVSPropertyOp35
 70
     1
102
RTVSPropertyOp36
 70
     1
102
RTVSPropertyOp37
 70
     1
102
RTVSPropertyOp38
 70
     1
102
RTVSPropertyOp39
 70
     1
102
RTVSPropertyOp40
 70
     1
102
RTVSPropertyOp41
 70
     1
102
RTVSPropertyOp42
 70
     1
102
RTVSPropertyOp43
 70
     1
102
RTVSPropertyOp44
 70
     1
102
RTVSPropertyOp45
 70
     1
102
RTVSPropertyOp46
 70
     1
102
RTVSPropertyOp47
 70
     1
102
RTVSPropertyOp48
 70
     1
102
RTVSPropertyOp49
 70
     1
102
RTVSPropertyOp50
 70
     1
102
RTVSPropertyOp51
 70
     0
102
RTVSPropertyOp52
 70
     0
102
RTVSPropertyOp53
 70
     1
102
RTVSPropertyOp54
 70
     1
102
RTVSPropertyOp55
 70
     1
102
RTVSPropertyOp56
 70
     1
102
RTVSPropertyOp57
 70
     1
102
RTVSPost2010Prop28
280
     1
102
RTVSPost2010PropOp28
 70
     1
102
RTVSPost2010Prop29
280
     1
102
RTVSPost2010PropOp29
 70
     1
102
RTVSPost2010Prop30
280
     0
102
RTVSPost2010PropOp30
 70
     1
102
RTVSPost2010Prop31
280
     0
102
RTVSPost2010PropOp31
 70
     1
102
RTVSPost2010Prop32
280
     0
102
RTVSPost2010PropOp32
 70
     1
102
RTVSPost2010Prop33
280
     0
102
RTVSPost2010PropOp33
 70
     1
102
RTVSPost2010Prop34
280
     0
102
RTVSPost2010PropOp34
 70
     1
102
RTVSPost2010Prop35
280
     0
102
RTVSPost2010PropOp35
 70
     1
102
RTVSPost2010Prop36
280
     0
102
RTVSPost2010PropOp36
 70
     1
102
RTVSPost2010Prop37
 90
       50
102
RTVSPost2010PropOp37
 70
     1
102
RTVSPost2010Prop38
140
0.0
102
RTVSPost2010PropOp38
 70
     1
102
RTVSPost2010Prop39
140
1.0
102
RTVSPost2010PropOp39
 70
     1
102
RTVSPost2010Prop40
 90
        0
102
RTVSPost2010PropOp40
 70
     1
102
RTVSPost2010Prop41ColorIndex
 90
       18
102
RTVSPost2010Prop41ColorRGB
 90
        0
102
RTVSPost2010PropOp41
 70
     1
102
RTVSPost2010Prop42
 90
       50
102
RTVSPost2010PropOp42
 70
     1
102
RTVSPost2010Prop43
 90
        3
102
RTVSPost2010PropOp43
 70
     1
102
RTVSPost2010Prop44ColorIndex
 90
        5
102
RTVSPost2010Prop44ColorRGB
 90
      255
102
RTVSPost2010PropOp44
 70
     1
102
RTVSPost2010Prop45
280
     0
102
RTVSPost2010PropOp45
 70
     1
102
RTVSPost2010Prop46
 90
       50
102
RTVSPost2010PropOp46
 70
     1
102
RTVSPost2010Prop47
 90
       50
102
RTVSPost2010PropOp47
 70
     1
102
RTVSPost2010Prop48
 90
       50
102
RTVSPost2010PropOp48
 70
     1
102
RTVSPost2010Prop49
280
     0
102
RTVSPost2010PropOp49
 70
     1
102
RTVSPost2010Prop50
 90
       50
102
RTVSPost2010PropOp50
 70
     1
102
RTVSPost2010Prop51ColorIndex
 90
      256
102
RTVSPost2010Prop51ColorRGB
 90
-16777216
102
RTVSPost2010PropOp51
 70
     0
102
RTVSPost2010Prop52
140
1.0
102
RTVSPost2010PropOp52
 70
     0
102
RTVSPost2010Prop53
 90
        2
102
RTVSPost2010PropOp53
 70
     1
102
RTVSPost2010Prop54
  1
strokes_ogs.tif
102
RTVSPost2010PropOp54
 70
     1
102
RTVSPost2010Prop55
280
     0
102
RTVSPost2010PropOp55
 70
     1
102
RTVSPost2010Prop56
140
1.0
102
RTVSPost2010PropOp56
 70
     1
102
RTVSPost2010Prop57
140
1.0
102
RTVSPost2010PropOp57
 70
     1
  0
XRECORD
  5
3F3
102
{ACAD_REACTORS
330
3F2
102
}
330
3F2
100
AcDbXrecord
280
     1
102
RTVSPropertyOp0
 70
     1
102
RTVSPropertyOp1
 70
     1
102
RTVSPropertyOp2
 70
     1
102
RTVSPropertyOp3
 70
     1
102
RTVSPropertyOp4
 70
     1
102
RTVSPropertyOp5
 70
     1
102
RTVSPropertyOp6
 70
     1
102
RTVSPropertyOp7
 70
     1
102
RTVSPropertyOp8
 70
     1
102
RTVSPropertyOp9
 70
     1
102
RTVSPropertyOp10
 70
     1
102
RTVSPropertyOp11
 70
     1
102
RTVSPropertyOp12
 70
     1
102
RTVSPropertyOp13
 70
     1
102
RTVSPropertyOp14
 70
     1
102
RTVSPropertyOp15
 70
     1
102
RTVSPropertyOp16
 70
     1
102
RTVSPropertyOp17
 70
     1
102
RTVSPropertyOp18
 70
     1
102
RTVSPropertyOp19
 70
     1
102
RTVSPropertyOp20
 70
     1
102
RTVSPropertyOp21
 70
     1
102
RTVSPropertyOp22
 70
     1
102
RTVSPropertyOp23
 70
     1
102
RTVSPropertyOp24
 70
     1
102
RTVSPropertyOp25
 70
     1
102
RTVSPropertyOp26
 70
     1
102
RTVSPropertyOp27
 70
     1
102
RTVSPropertyOp28
 70
     1
102
RTVSPropertyOp29
 70
     1
102
RTVSPropertyOp30
 70
     1
102
RTVSPropertyOp31
 70
     1
102
RTVSPropertyOp32
 70
     1
102
RTVSPropertyOp33
 70
     1
102
RTVSPropertyOp34
 70
     1
102
RTVSPropertyOp35
 70
     1
102
RTVSPropertyOp36
 70
     1
102
RTVSPropertyOp37
 70
     1
102
RTVSPropertyOp38
 70
     1
102
RTVSPropertyOp39
 70
     1
102
RTVSPropertyOp40
 70
     1
102
RTVSPropertyOp41
 70
     1
102
RTVSPropertyOp42
 70
     1
102
RTVSPropertyOp43
 70
     1
102
RTVSPropertyOp44
 70
     1
102
RTVSPropertyOp45
 70
     1
102
RTVSPropertyOp46
 70
     1
102
RTVSPropertyOp47
 70
     1
102
RTVSPropertyOp48
 70
     1
102
RTVSPropertyOp49
 70
     1
102
RTVSPropertyOp50
 70
     1
102
RTVSPropertyOp51
 70
     0
102
RTVSPropertyOp52
 70
     0
102
RTVSPropertyOp53
 70
     1
102
RTVSPropertyOp54
 70
     1
102
RTVSPropertyOp55
 70
     1
102
RTVSPropertyOp56
 70
     1
102
RTVSPropertyOp57
 70
     1
102
RTVSPost2010Prop28
280
     0
102
RTVSPost2010PropOp28
 70
     1
102
RTVSPost2010Prop29
280
     1
102
RTVSPost2010PropOp29
 70
     1
102
RTVSPost2010Prop30
280
     1
102
RTVSPost2010PropOp30
 70
     1
102
RTVSPost2010Prop31
280
     0
102
RTVSPost2010PropOp31
 70
     1
102
RTVSPost2010Prop32
280
     0
102
RTVSPost2010PropOp32
 70
     1
102
RTVSPost2010Prop33
280
     0
102
RTVSPost2010PropOp33
 70
     1
102
RTVSPost2010Prop34
280
     0
102
RTVSPost2010PropOp34
 70
     1
102
RTVSPost2010Prop35
280
     0
102
RTVSPost2010PropOp35
 70
     1
102
RTVSPost2010Prop36
280
     0
102
RTVSPost2010PropOp36
 70
     1
102
RTVSPost2010Prop37
 90
       50
102
RTVSPost2010PropOp37
 70
     1
102
RTVSPost2010Prop38
140
0.0
102
RTVSPost2010PropOp38
 70
     1
102
RTVSPost2010Prop39
140
1.0
102
RTVSPost2010PropOp39
 70
     1
102
RTVSPost2010Prop40
 90
        0
102
RTVSPost2010PropOp40
 70
     1
102
RTVSPost2010Prop41ColorIndex
 90
       18
102
RTVSPost2010Prop41ColorRGB
 90
        0
102
RTVSPost2010PropOp41
 70
     1
102
RTVSPost2010Prop42
 90
       50
102
RTVSPost2010PropOp42
 70
     1
102
RTVSPost2010Prop43
 90
        3
102
RTVSPost2010PropOp43
 70
     1
102
RTVSPost2010Prop44ColorIndex
 90
        5
102
RTVSPost2010Prop44ColorRGB
 90
      255
102
RTVSPost2010PropOp44
 70
     1
102
RTVSPost2010Prop45
280
     0
102
RTVSPost2010PropOp45
 70
     1
102
RTVSPost2010Prop46
 90
       50
102
RTVSPost2010PropOp46
 70
     1
102
RTVSPost2010Prop47
 90
       50
102
RTVSPost2010PropOp47
 70
     1
102
RTVSPost2010Prop48
 90
       50
102
RTVSPost2010PropOp48
 70
     1
102
RTVSPost2010Prop49
280
     0
102
RTVSPost2010PropOp49
 70
     1
102
RTVSPost2010Prop50
 90
       50
102
RTVSPost2010PropOp50
 70
     1
102
RTVSPost2010Prop51ColorIndex
 90
      256
102
RTVSPost2010Prop51ColorRGB
 90
-16777216
102
RTVSPost2010PropOp51
 70
     0
102
RTVSPost2010Prop52
140
1.0
102
RTVSPost2010PropOp52
 70
     0
102
RTVSPost2010Prop53
 90
        2
102
RTVSPost2010PropOp53
 70
     1
102
RTVSPost2010Prop54
  1
strokes_ogs.tif
102
RTVSPost2010PropOp54
 70
     1
102
RTVSPost2010Prop55
280
     0
102
RTVSPost2010PropOp55
 70
     1
102
RTVSPost2010Prop56
140
1.0
102
RTVSPost2010PropOp56
 70
     1
102
RTVSPost2010Prop57
140
1.0
102
RTVSPost2010PropOp57
 70
     1
  0
XRECORD
  5
3FB
102
{ACAD_REACTORS
330
3FA
102
}
330
3FA
100
AcDbXrecord
280
     1
102
RTVSPropertyOp0
 70
     1
102
RTVSPropertyOp1
 70
     1
102
RTVSPropertyOp2
 70
     1
102
RTVSPropertyOp3
 70
     1
102
RTVSPropertyOp4
 70
     1
102
RTVSPropertyOp5
 70
     1
102
RTVSPropertyOp6
 70
     1
102
RTVSPropertyOp7
 70
     1
102
RTVSPropertyOp8
 70
     1
102
RTVSPropertyOp9
 70
     1
102
RTVSPropertyOp10
 70
     1
102
RTVSPropertyOp11
 70
     1
102
RTVSPropertyOp12
 70
     1
102
RTVSPropertyOp13
 70
     1
102
RTVSPropertyOp14
 70
     1
102
RTVSPropertyOp15
 70
     1
102
RTVSPropertyOp16
 70
     1
102
RTVSPropertyOp17
 70
     1
102
RTVSPropertyOp18
 70
     1
102
RTVSPropertyOp19
 70
     1
102
RTVSPropertyOp20
 70
     1
102
RTVSPropertyOp21
 70
     1
102
RTVSPropertyOp22
 70
     1
102
RTVSPropertyOp23
 70
     1
102
RTVSPropertyOp24
 70
     1
102
RTVSPropertyOp25
 70
     1
102
RTVSPropertyOp26
 70
     1
102
RTVSPropertyOp27
 70
     1
102
RTVSPropertyOp28
 70
     1
102
RTVSPropertyOp29
 70
     1
102
RTVSPropertyOp30
 70
     1
102
RTVSPropertyOp31
 70
     1
102
RTVSPropertyOp32
 70
     1
102
RTVSPropertyOp33
 70
     1
102
RTVSPropertyOp34
 70
     1
102
RTVSPropertyOp35
 70
     1
102
RTVSPropertyOp36
 70
     1
102
RTVSPropertyOp37
 70
     1
102
RTVSPropertyOp38
 70
     1
102
RTVSPropertyOp39
 70
     1
102
RTVSPropertyOp40
 70
     1
102
RTVSPropertyOp41
 70
     1
102
RTVSPropertyOp42
 70
     1
102
RTVSPropertyOp43
 70
     1
102
RTVSPropertyOp44
 70
     1
102
RTVSPropertyOp45
 70
     1
102
RTVSPropertyOp46
 70
     1
102
RTVSPropertyOp47
 70
     1
102
RTVSPropertyOp48
 70
     1
102
RTVSPropertyOp49
 70
     1
102
RTVSPropertyOp50
 70
     1
102
RTVSPropertyOp51
 70
     0
102
RTVSPropertyOp52
 70
     0
102
RTVSPropertyOp53
 70
     1
102
RTVSPropertyOp54
 70
     1
102
RTVSPropertyOp55
 70
     1
102
RTVSPropertyOp56
 70
     1
102
RTVSPropertyOp57
 70
     1
102
RTVSPost2010Prop28
280
     0
102
RTVSPost2010PropOp28
 70
     1
102
RTVSPost2010Prop29
280
     1
102
RTVSPost2010PropOp29
 70
     1
102
RTVSPost2010Prop30
280
     1
102
RTVSPost2010PropOp30
 70
     1
102
RTVSPost2010Prop31
280
     0
102
RTVSPost2010PropOp31
 70
     1
102
RTVSPost2010Prop32
280
     0
102
RTVSPost2010PropOp32
 70
     1
102
RTVSPost2010Prop33
280
     0
102
RTVSPost2010PropOp33
 70
     1
102
RTVSPost2010Prop34
280
     0
102
RTVSPost2010PropOp34
 70
     1
102
RTVSPost2010Prop35
280
     0
102
RTVSPost2010PropOp35
 70
     1
102
RTVSPost2010Prop36
280
     0
102
RTVSPost2010PropOp36
 70
     1
102
RTVSPost2010Prop37
 90
       50
102
RTVSPost2010PropOp37
 70
     1
102
RTVSPost2010Prop38
140
0.0
102
RTVSPost2010PropOp38
 70
     1
102
RTVSPost2010Prop39
140
1.0
102
RTVSPost2010PropOp39
 70
     1
102
RTVSPost2010Prop40
 90
        0
102
RTVSPost2010PropOp40
 70
     1
102
RTVSPost2010Prop41ColorIndex
 90
       18
102
RTVSPost2010Prop41ColorRGB
 90
        0
102
RTVSPost2010PropOp41
 70
     1
102
RTVSPost2010Prop42
 90
       50
102
RTVSPost2010PropOp42
 70
     1
102
RTVSPost2010Prop43
 90
        3
102
RTVSPost2010PropOp43
 70
     1
102
RTVSPost2010Prop44ColorIndex
 90
        5
102
RTVSPost2010Prop44ColorRGB
 90
      255
102
RTVSPost2010PropOp44
 70
     1
102
RTVSPost2010Prop45
280
     0
102
RTVSPost2010PropOp45
 70
     1
102
RTVSPost2010Prop46
 90
       50
102
RTVSPost2010PropOp46
 70
     1
102
RTVSPost2010Prop47
 90
       50
102
RTVSPost2010PropOp47
 70
     1
102
RTVSPost2010Prop48
 90
       50
102
RTVSPost2010PropOp48
 70
     1
102
RTVSPost2010Prop49
280
     0
102
RTVSPost2010PropOp49
 70
     1
102
RTVSPost2010Prop50
 90
       50
102
RTVSPost2010PropOp50
 70
     1
102
RTVSPost2010Prop51ColorIndex
 90
      256
102
RTVSPost2010Prop51ColorRGB
 90
-16777216
102
RTVSPost2010PropOp51
 70
     0
102
RTVSPost2010Prop52
140
1.0
102
RTVSPost2010PropOp52
 70
     0
102
RTVSPost2010Prop53
 90
        2
102
RTVSPost2010PropOp53
 70
     1
102
RTVSPost2010Prop54
  1
strokes_ogs.tif
102
RTVSPost2010PropOp54
 70
     1
102
RTVSPost2010Prop55
280
     0
102
RTVSPost2010PropOp55
 70
     1
102
RTVSPost2010Prop56
140
1.0
102
RTVSPost2010PropOp56
 70
     1
102
RTVSPost2010Prop57
140
1.0
102
RTVSPost2010PropOp57
 70
     1
  0
XRECORD
  5
403
102
{ACAD_REACTORS
330
402
102
}
330
402
100
AcDbXrecord
280
     1
102
RTVSPropertyOp0
 70
     1
102
RTVSPropertyOp1
 70
     1
102
RTVSPropertyOp2
 70
     1
102
RTVSPropertyOp3
 70
     1
102
RTVSPropertyOp4
 70
     1
102
RTVSPropertyOp5
 70
     1
102
RTVSPropertyOp6
 70
     1
102
RTVSPropertyOp7
 70
     1
102
RTVSPropertyOp8
 70
     1
102
RTVSPropertyOp9
 70
     1
102
RTVSPropertyOp10
 70
     1
102
RTVSPropertyOp11
 70
     1
102
RTVSPropertyOp12
 70
     1
102
RTVSPropertyOp13
 70
     1
102
RTVSPropertyOp14
 70
     1
102
RTVSPropertyOp15
 70
     1
102
RTVSPropertyOp16
 70
     1
102
RTVSPropertyOp17
 70
     1
102
RTVSPropertyOp18
 70
     1
102
RTVSPropertyOp19
 70
     1
102
RTVSPropertyOp20
 70
     1
102
RTVSPropertyOp21
 70
     1
102
RTVSPropertyOp22
 70
     1
102
RTVSPropertyOp23
 70
     1
102
RTVSPropertyOp24
 70
     1
102
RTVSPropertyOp25
 70
     1
102
RTVSPropertyOp26
 70
     1
102
RTVSPropertyOp27
 70
     1
102
RTVSPropertyOp28
 70
     1
102
RTVSPropertyOp29
 70
     1
102
RTVSPropertyOp30
 70
     1
102
RTVSPropertyOp31
 70
     1
102
RTVSPropertyOp32
 70
     1
102
RTVSPropertyOp33
 70
     1
102
RTVSPropertyOp34
 70
     1
102
RTVSPropertyOp35
 70
     1
102
RTVSPropertyOp36
 70
     1
102
RTVSPropertyOp37
 70
     1
102
RTVSPropertyOp38
 70
     1
102
RTVSPropertyOp39
 70
     1
102
RTVSPropertyOp40
 70
     1
102
RTVSPropertyOp41
 70
     1
102
RTVSPropertyOp42
 70
     1
102
RTVSPropertyOp43
 70
     1
102
RTVSPropertyOp44
 70
     1
102
RTVSPropertyOp45
 70
     1
102
RTVSPropertyOp46
 70
     1
102
RTVSPropertyOp47
 70
     1
102
RTVSPropertyOp48
 70
     1
102
RTVSPropertyOp49
 70
     1
102
RTVSPropertyOp50
 70
     1
102
RTVSPropertyOp51
 70
     0
102
RTVSPropertyOp52
 70
     0
102
RTVSPropertyOp53
 70
     1
102
RTVSPropertyOp54
 70
     1
102
RTVSPropertyOp55
 70
     1
102
RTVSPropertyOp56
 70
     1
102
RTVSPropertyOp57
 70
     1
102
RTVSPost2010Prop28
280
     0
102
RTVSPost2010PropOp28
 70
     1
102
RTVSPost2010Prop29
280
     1
102
RTVSPost2010PropOp29
 70
     1
102
RTVSPost2010Prop30
280
     1
102
RTVSPost2010PropOp30
 70
     1
102
RTVSPost2010Prop31
280
     0
102
RTVSPost2010PropOp31
 70
     1
102
RTVSPost2010Prop32
280
     0
102
RTVSPost2010PropOp32
 70
     1
102
RTVSPost2010Prop33
280
     0
102
RTVSPost2010PropOp33
 70
     1
102
RTVSPost2010Prop34
280
     0
102
RTVSPost2010PropOp34
 70
     1
102
RTVSPost2010Prop35
280
     0
102
RTVSPost2010PropOp35
 70
     1
102
RTVSPost2010Prop36
280
     0
102
RTVSPost2010PropOp36
 70
     1
102
RTVSPost2010Prop37
 90
       50
102
RTVSPost2010PropOp37
 70
     1
102
RTVSPost2010Prop38
140
0.0
102
RTVSPost2010PropOp38
 70
     1
102
RTVSPost2010Prop39
140
1.0
102
RTVSPost2010PropOp39
 70
     1
102
RTVSPost2010Prop40
 90
        0
102
RTVSPost2010PropOp40
 70
     1
102
RTVSPost2010Prop41ColorIndex
 90
       18
102
RTVSPost2010Prop41ColorRGB
 90
        0
102
RTVSPost2010PropOp41
 70
     1
102
RTVSPost2010Prop42
 90
       50
102
RTVSPost2010PropOp42
 70
     1
102
RTVSPost2010Prop43
 90
        3
102
RTVSPost2010PropOp43
 70
     1
102
RTVSPost2010Prop44ColorIndex
 90
        5
102
RTVSPost2010Prop44ColorRGB
 90
      255
102
RTVSPost2010PropOp44
 70
     1
102
RTVSPost2010Prop45
280
     0
102
RTVSPost2010PropOp45
 70
     1
102
RTVSPost2010Prop46
 90
       50
102
RTVSPost2010PropOp46
 70
     1
102
RTVSPost2010Prop47
 90
       50
102
RTVSPost2010PropOp47
 70
     1
102
RTVSPost2010Prop48
 90
       50
102
RTVSPost2010PropOp48
 70
     1
102
RTVSPost2010Prop49
280
     0
102
RTVSPost2010PropOp49
 70
     1
102
RTVSPost2010Prop50
 90
       50
102
RTVSPost2010PropOp50
 70
     1
102
RTVSPost2010Prop51ColorIndex
 90
      256
102
RTVSPost2010Prop51ColorRGB
 90
-16777216
102
RTVSPost2010PropOp51
 70
     0
102
RTVSPost2010Prop52
140
1.0
102
RTVSPost2010PropOp52
 70
     0
102
RTVSPost2010Prop53
 90
        2
102
RTVSPost2010PropOp53
 70
     1
102
RTVSPost2010Prop54
  1
strokes_ogs.tif
102
RTVSPost2010PropOp54
 70
     1
102
RTVSPost2010Prop55
280
     0
102
RTVSPost2010PropOp55
 70
     1
102
RTVSPost2010Prop56
140
1.0
102
RTVSPost2010PropOp56
 70
     1
102
RTVSPost2010Prop57
140
1.0
102
RTVSPost2010PropOp57
 70
     1
  0
XRECORD
  5
3F7
102
{ACAD_REACTORS
330
3F6
102
}
330
3F6
100
AcDbXrecord
280
     1
102
RTVSPropertyOp0
 70
     1
102
RTVSPropertyOp1
 70
     1
102
RTVSPropertyOp2
 70
     1
102
RTVSPropertyOp3
 70
     1
102
RTVSPropertyOp4
 70
     1
102
RTVSPropertyOp5
 70
     1
102
RTVSPropertyOp6
 70
     1
102
RTVSPropertyOp7
 70
     1
102
RTVSPropertyOp8
 70
     1
102
RTVSPropertyOp9
 70
     1
102
RTVSPropertyOp10
 70
     1
102
RTVSPropertyOp11
 70
     1
102
RTVSPropertyOp12
 70
     1
102
RTVSPropertyOp13
 70
     1
102
RTVSPropertyOp14
 70
     1
102
RTVSPropertyOp15
 70
     1
102
RTVSPropertyOp16
 70
     1
102
RTVSPropertyOp17
 70
     1
102
RTVSPropertyOp18
 70
     1
102
RTVSPropertyOp19
 70
     1
102
RTVSPropertyOp20
 70
     1
102
RTVSPropertyOp21
 70
     1
102
RTVSPropertyOp22
 70
     1
102
RTVSPropertyOp23
 70
     1
102
RTVSPropertyOp24
 70
     1
102
RTVSPropertyOp25
 70
     1
102
RTVSPropertyOp26
 70
     1
102
RTVSPropertyOp27
 70
     1
102
RTVSPropertyOp28
 70
     1
102
RTVSPropertyOp29
 70
     1
102
RTVSPropertyOp30
 70
     1
102
RTVSPropertyOp31
 70
     1
102
RTVSPropertyOp32
 70
     1
102
RTVSPropertyOp33
 70
     1
102
RTVSPropertyOp34
 70
     1
102
RTVSPropertyOp35
 70
     1
102
RTVSPropertyOp36
 70
     1
102
RTVSPropertyOp37
 70
     1
102
RTVSPropertyOp38
 70
     1
102
RTVSPropertyOp39
 70
     1
102
RTVSPropertyOp40
 70
     1
102
RTVSPropertyOp41
 70
     1
102
RTVSPropertyOp42
 70
     1
102
RTVSPropertyOp43
 70
     1
102
RTVSPropertyOp44
 70
     1
102
RTVSPropertyOp45
 70
     1
102
RTVSPropertyOp46
 70
     1
102
RTVSPropertyOp47
 70
     1
102
RTVSPropertyOp48
 70
     1
102
RTVSPropertyOp49
 70
     1
102
RTVSPropertyOp50
 70
     1
102
RTVSPropertyOp51
 70
     0
102
RTVSPropertyOp52
 70
     0
102
RTVSPropertyOp53
 70
     1
102
RTVSPropertyOp54
 70
     1
102
RTVSPropertyOp55
 70
     1
102
RTVSPropertyOp56
 70
     1
102
RTVSPropertyOp57
 70
     1
102
RTVSPost2010Prop28
280
     0
102
RTVSPost2010PropOp28
 70
     1
102
RTVSPost2010Prop29
280
     1
102
RTVSPost2010PropOp29
 70
     1
102
RTVSPost2010Prop30
280
     1
102
RTVSPost2010PropOp30
 70
     1
102
RTVSPost2010Prop31
280
     0
102
RTVSPost2010PropOp31
 70
     1
102
RTVSPost2010Prop32
280
     0
102
RTVSPost2010PropOp32
 70
     1
102
RTVSPost2010Prop33
280
     0
102
RTVSPost2010PropOp33
 70
     1
102
RTVSPost2010Prop34
280
     0
102
RTVSPost2010PropOp34
 70
     1
102
RTVSPost2010Prop35
280
     0
102
RTVSPost2010PropOp35
 70
     1
102
RTVSPost2010Prop36
280
     0
102
RTVSPost2010PropOp36
 70
     1
102
RTVSPost2010Prop37
 90
       50
102
RTVSPost2010PropOp37
 70
     1
102
RTVSPost2010Prop38
140
0.0
102
RTVSPost2010PropOp38
 70
     1
102
RTVSPost2010Prop39
140
1.0
102
RTVSPost2010PropOp39
 70
     1
102
RTVSPost2010Prop40
 90
        0
102
RTVSPost2010PropOp40
 70
     1
102
RTVSPost2010Prop41ColorIndex
 90
       18
102
RTVSPost2010Prop41ColorRGB
 90
        0
102
RTVSPost2010PropOp41
 70
     1
102
RTVSPost2010Prop42
 90
       50
102
RTVSPost2010PropOp42
 70
     1
102
RTVSPost2010Prop43
 90
        3
102
RTVSPost2010PropOp43
 70
     1
102
RTVSPost2010Prop44ColorIndex
 90
        5
102
RTVSPost2010Prop44ColorRGB
 90
      255
102
RTVSPost2010PropOp44
 70
     1
102
RTVSPost2010Prop45
280
     0
102
RTVSPost2010PropOp45
 70
     1
102
RTVSPost2010Prop46
 90
       50
102
RTVSPost2010PropOp46
 70
     1
102
RTVSPost2010Prop47
 90
       50
102
RTVSPost2010PropOp47
 70
     1
102
RTVSPost2010Prop48
 90
       50
102
RTVSPost2010PropOp48
 70
     1
102
RTVSPost2010Prop49
280
     0
102
RTVSPost2010PropOp49
 70
     1
102
RTVSPost2010Prop50
 90
       50
102
RTVSPost2010PropOp50
 70
     1
102
RTVSPost2010Prop51ColorIndex
 90
      256
102
RTVSPost2010Prop51ColorRGB
 90
-16777216
102
RTVSPost2010PropOp51
 70
     0
102
RTVSPost2010Prop52
140
1.0
102
RTVSPost2010PropOp52
 70
     0
102
RTVSPost2010Prop53
 90
        2
102
RTVSPost2010PropOp53
 70
     1
102
RTVSPost2010Prop54
  1
strokes_ogs.tif
102
RTVSPost2010PropOp54
 70
     1
102
RTVSPost2010Prop55
280
     0
102
RTVSPost2010PropOp55
 70
     1
102
RTVSPost2010Prop56
140
1.0
102
RTVSPost2010PropOp56
 70
     1
102
RTVSPost2010Prop57
140
1.0
102
RTVSPost2010PropOp57
 70
     1
  0
XRECORD
  5
3F9
102
{ACAD_REACTORS
330
3F8
102
}
330
3F8
100
AcDbXrecord
280
     1
102
RTVSPropertyOp0
 70
     1
102
RTVSPropertyOp1
 70
     1
102
RTVSPropertyOp2
 70
     1
102
RTVSPropertyOp3
 70
     1
102
RTVSPropertyOp4
 70
     1
102
RTVSPropertyOp5
 70
     1
102
RTVSPropertyOp6
 70
     1
102
RTVSPropertyOp7
 70
     1
102
RTVSPropertyOp8
 70
     1
102
RTVSPropertyOp9
 70
     1
102
RTVSPropertyOp10
 70
     1
102
RTVSPropertyOp11
 70
     1
102
RTVSPropertyOp12
 70
     1
102
RTVSPropertyOp13
 70
     1
102
RTVSPropertyOp14
 70
     1
102
RTVSPropertyOp15
 70
     1
102
RTVSPropertyOp16
 70
     1
102
RTVSPropertyOp17
 70
     1
102
RTVSPropertyOp18
 70
     1
102
RTVSPropertyOp19
 70
     1
102
RTVSPropertyOp20
 70
     1
102
RTVSPropertyOp21
 70
     1
102
RTVSPropertyOp22
 70
     1
102
RTVSPropertyOp23
 70
     1
102
RTVSPropertyOp24
 70
     1
102
RTVSPropertyOp25
 70
     1
102
RTVSPropertyOp26
 70
     1
102
RTVSPropertyOp27
 70
     1
102
RTVSPropertyOp28
 70
     1
102
RTVSPropertyOp29
 70
     1
102
RTVSPropertyOp30
 70
     1
102
RTVSPropertyOp31
 70
     1
102
RTVSPropertyOp32
 70
     1
102
RTVSPropertyOp33
 70
     1
102
RTVSPropertyOp34
 70
     1
102
RTVSPropertyOp35
 70
     1
102
RTVSPropertyOp36
 70
     1
102
RTVSPropertyOp37
 70
     1
102
RTVSPropertyOp38
 70
     1
102
RTVSPropertyOp39
 70
     1
102
RTVSPropertyOp40
 70
     1
102
RTVSPropertyOp41
 70
     1
102
RTVSPropertyOp42
 70
     1
102
RTVSPropertyOp43
 70
     1
102
RTVSPropertyOp44
 70
     1
102
RTVSPropertyOp45
 70
     1
102
RTVSPropertyOp46
 70
     1
102
RTVSPropertyOp47
 70
     1
102
RTVSPropertyOp48
 70
     1
102
RTVSPropertyOp49
 70
     1
102
RTVSPropertyOp50
 70
     1
102
RTVSPropertyOp51
 70
     0
102
RTVSPropertyOp52
 70
     0
102
RTVSPropertyOp53
 70
     1
102
RTVSPropertyOp54
 70
     1
102
RTVSPropertyOp55
 70
     1
102
RTVSPropertyOp56
 70
     1
102
RTVSPropertyOp57
 70
     1
102
RTVSPost2010Prop28
280
     0
102
RTVSPost2010PropOp28
 70
     1
102
RTVSPost2010Prop29
280
     1
102
RTVSPost2010PropOp29
 70
     1
102
RTVSPost2010Prop30
280
     1
102
RTVSPost2010PropOp30
 70
     1
102
RTVSPost2010Prop31
280
     0
102
RTVSPost2010PropOp31
 70
     1
102
RTVSPost2010Prop32
280
     0
102
RTVSPost2010PropOp32
 70
     1
102
RTVSPost2010Prop33
280
     0
102
RTVSPost2010PropOp33
 70
     1
102
RTVSPost2010Prop34
280
     0
102
RTVSPost2010PropOp34
 70
     1
102
RTVSPost2010Prop35
280
     0
102
RTVSPost2010PropOp35
 70
     1
102
RTVSPost2010Prop36
280
     0
102
RTVSPost2010PropOp36
 70
     1
102
RTVSPost2010Prop37
 90
       50
102
RTVSPost2010PropOp37
 70
     1
102
RTVSPost2010Prop38
140
0.0
102
RTVSPost2010PropOp38
 70
     1
102
RTVSPost2010Prop39
140
1.0
102
RTVSPost2010PropOp39
 70
     1
102
RTVSPost2010Prop40
 90
        0
102
RTVSPost2010PropOp40
 70
     1
102
RTVSPost2010Prop41ColorIndex
 90
       18
102
RTVSPost2010Prop41ColorRGB
 90
        0
102
RTVSPost2010PropOp41
 70
     1
102
RTVSPost2010Prop42
 90
       50
102
RTVSPost2010PropOp42
 70
     1
102
RTVSPost2010Prop43
 90
        3
102
RTVSPost2010PropOp43
 70
     1
102
RTVSPost2010Prop44ColorIndex
 90
        5
102
RTVSPost2010Prop44ColorRGB
 90
      255
102
RTVSPost2010PropOp44
 70
     1
102
RTVSPost2010Prop45
280
     0
102
RTVSPost2010PropOp45
 70
     1
102
RTVSPost2010Prop46
 90
       50
102
RTVSPost2010PropOp46
 70
     1
102
RTVSPost2010Prop47
 90
       50
102
RTVSPost2010PropOp47
 70
     1
102
RTVSPost2010Prop48
 90
       50
102
RTVSPost2010PropOp48
 70
     1
102
RTVSPost2010Prop49
280
     0
102
RTVSPost2010PropOp49
 70
     1
102
RTVSPost2010Prop50
 90
       50
102
RTVSPost2010PropOp50
 70
     1
102
RTVSPost2010Prop51ColorIndex
 90
      256
102
RTVSPost2010Prop51ColorRGB
 90
-16777216
102
RTVSPost2010PropOp51
 70
     0
102
RTVSPost2010Prop52
140
1.0
102
RTVSPost2010PropOp52
 70
     0
102
RTVSPost2010Prop53
 90
        2
102
RTVSPost2010PropOp53
 70
     1
102
RTVSPost2010Prop54
  1
strokes_ogs.tif
102
RTVSPost2010PropOp54
 70
     1
102
RTVSPost2010Prop55
280
     0
102
RTVSPost2010PropOp55
 70
     1
102
RTVSPost2010Prop56
140
1.0
102
RTVSPost2010PropOp56
 70
     1
102
RTVSPost2010Prop57
140
1.0
102
RTVSPost2010PropOp57
 70
     1
  0
XRECORD
  5
409
102
{ACAD_REACTORS
330
408
102
}
330
408
100
AcDbXrecord
280
     1
102
RTVSPropertyOp0
 70
     0
102
RTVSPropertyOp1
 70
     0
102
RTVSPropertyOp2
 70
     0
102
RTVSPropertyOp3
 70
     0
102
RTVSPropertyOp4
 70
     0
102
RTVSPropertyOp5
 70
     0
102
RTVSPropertyOp6
 70
     0
102
RTVSPropertyOp7
 70
     0
102
RTVSPropertyOp8
 70
     0
102
RTVSPropertyOp9
 70
     0
102
RTVSPropertyOp10
 70
     0
102
RTVSPropertyOp11
 70
     0
102
RTVSPropertyOp12
 70
     0
102
RTVSPropertyOp13
 70
     0
102
RTVSPropertyOp14
 70
     2
102
RTVSPropertyOp15
 70
     0
102
RTVSPropertyOp16
 70
     0
102
RTVSPropertyOp17
 70
     0
102
RTVSPropertyOp18
 70
     0
102
RTVSPropertyOp19
 70
     0
102
RTVSPropertyOp20
 70
     0
102
RTVSPropertyOp21
 70
     0
102
RTVSPropertyOp22
 70
     0
102
RTVSPropertyOp23
 70
     0
102
RTVSPropertyOp24
 70
     0
102
RTVSPropertyOp25
 70
     0
102
RTVSPropertyOp26
 70
     0
102
RTVSPropertyOp27
 70
     0
102
RTVSPropertyOp28
 70
     0
102
RTVSPropertyOp29
 70
     0
102
RTVSPropertyOp30
 70
     0
102
RTVSPropertyOp31
 70
     0
102
RTVSPropertyOp32
 70
     0
102
RTVSPropertyOp33
 70
     0
102
RTVSPropertyOp34
 70
     0
102
RTVSPropertyOp35
 70
     0
102
RTVSPropertyOp36
 70
     0
102
RTVSPropertyOp37
 70
     0
102
RTVSPropertyOp38
 70
     0
102
RTVSPropertyOp39
 70
     0
102
RTVSPropertyOp40
 70
     0
102
RTVSPropertyOp41
 70
     0
102
RTVSPropertyOp42
 70
     0
102
RTVSPropertyOp43
 70
     0
102
RTVSPropertyOp44
 70
     0
102
RTVSPropertyOp45
 70
     0
102
RTVSPropertyOp46
 70
     0
102
RTVSPropertyOp47
 70
     0
102
RTVSPropertyOp48
 70
     0
102
RTVSPropertyOp49
 70
     0
102
RTVSPropertyOp50
 70
     0
102
RTVSPropertyOp51
 70
     0
102
RTVSPropertyOp52
 70
     0
102
RTVSPropertyOp53
 70
     0
102
RTVSPropertyOp54
 70
     0
102
RTVSPropertyOp55
 70
     0
102
RTVSPropertyOp56
 70
     0
102
RTVSPropertyOp57
 70
     0
102
RTVSPost2010Prop28
280
     0
102
RTVSPost2010PropOp28
 70
     0
102
RTVSPost2010Prop29
280
     1
102
RTVSPost2010PropOp29
 70
     0
102
RTVSPost2010Prop30
280
     1
102
RTVSPost2010PropOp30
 70
     0
102
RTVSPost2010Prop31
280
     0
102
RTVSPost2010PropOp31
 70
     0
102
RTVSPost2010Prop32
280
     0
102
RTVSPost2010PropOp32
 70
     0
102
RTVSPost2010Prop33
280
     0
102
RTVSPost2010PropOp33
 70
     0
102
RTVSPost2010Prop34
280
     0
102
RTVSPost2010PropOp34
 70
     0
102
RTVSPost2010Prop35
280
     0
102
RTVSPost2010PropOp35
 70
     0
102
RTVSPost2010Prop36
280
     0
102
RTVSPost2010PropOp36
 70
     0
102
RTVSPost2010Prop37
 90
       50
102
RTVSPost2010PropOp37
 70
     0
102
RTVSPost2010Prop38
140
0.0
102
RTVSPost2010PropOp38
 70
     0
102
RTVSPost2010Prop39
140
1.0
102
RTVSPost2010PropOp39
 70
     0
102
RTVSPost2010Prop40
 90
        0
102
RTVSPost2010PropOp40
 70
     0
102
RTVSPost2010Prop41ColorIndex
 90
       18
102
RTVSPost2010Prop41ColorRGB
 90
        0
102
RTVSPost2010PropOp41
 70
     0
102
RTVSPost2010Prop42
 90
       50
102
RTVSPost2010PropOp42
 70
     0
102
RTVSPost2010Prop43
 90
        3
102
RTVSPost2010PropOp43
 70
     0
102
RTVSPost2010Prop44ColorIndex
 90
        5
102
RTVSPost2010Prop44ColorRGB
 90
      255
102
RTVSPost2010PropOp44
 70
     0
102
RTVSPost2010Prop45
280
     0
102
RTVSPost2010PropOp45
 70
     0
102
RTVSPost2010Prop46
 90
       50
102
RTVSPost2010PropOp46
 70
     0
102
RTVSPost2010Prop47
 90
       50
102
RTVSPost2010PropOp47
 70
     0
102
RTVSPost2010Prop48
 90
       50
102
RTVSPost2010PropOp48
 70
     0
102
RTVSPost2010Prop49
280
     0
102
RTVSPost2010PropOp49
 70
     0
102
RTVSPost2010Prop50
 90
       50
102
RTVSPost2010PropOp50
 70
     0
102
RTVSPost2010Prop51ColorIndex
 90
      256
102
RTVSPost2010Prop51ColorRGB
 90
-16777216
102
RTVSPost2010PropOp51
 70
     0
102
RTVSPost2010Prop52
140
1.0
102
RTVSPost2010PropOp52
 70
     0
102
RTVSPost2010Prop53
 90
        2
102
RTVSPost2010PropOp53
 70
     0
102
RTVSPost2010Prop54
  1
strokes_ogs.tif
102
RTVSPost2010PropOp54
 70
     0
102
RTVSPost2010Prop55
280
     0
102
RTVSPost2010PropOp55
 70
     0
102
RTVSPost2010Prop56
140
1.0
102
RTVSPost2010PropOp56
 70
     0
102
RTVSPost2010Prop57
140
1.0
102
RTVSPost2010PropOp57
 70
     0
  0
XRECORD
  5
401
102
{ACAD_REACTORS
330
400
102
}
330
400
100
AcDbXrecord
280
     1
102
RTVSPropertyOp0
 70
     1
102
RTVSPropertyOp1
 70
     1
102
RTVSPropertyOp2
 70
     1
102
RTVSPropertyOp3
 70
     1
102
RTVSPropertyOp4
 70
     1
102
RTVSPropertyOp5
 70
     1
102
RTVSPropertyOp6
 70
     1
102
RTVSPropertyOp7
 70
     1
102
RTVSPropertyOp8
 70
     1
102
RTVSPropertyOp9
 70
     1
102
RTVSPropertyOp10
 70
     1
102
RTVSPropertyOp11
 70
     1
102
RTVSPropertyOp12
 70
     1
102
RTVSPropertyOp13
 70
     1
102
RTVSPropertyOp14
 70
     1
102
RTVSPropertyOp15
 70
     1
102
RTVSPropertyOp16
 70
     1
102
RTVSPropertyOp17
 70
     1
102
RTVSPropertyOp18
 70
     1
102
RTVSPropertyOp19
 70
     1
102
RTVSPropertyOp20
 70
     1
102
RTVSPropertyOp21
 70
     1
102
RTVSPropertyOp22
 70
     1
102
RTVSPropertyOp23
 70
     1
102
RTVSPropertyOp24
 70
     1
102
RTVSPropertyOp25
 70
     1
102
RTVSPropertyOp26
 70
     1
102
RTVSPropertyOp27
 70
     1
102
RTVSPropertyOp28
 70
     1
102
RTVSPropertyOp29
 70
     1
102
RTVSPropertyOp30
 70
     1
102
RTVSPropertyOp31
 70
     1
102
RTVSPropertyOp32
 70
     1
102
RTVSPropertyOp33
 70
     1
102
RTVSPropertyOp34
 70
     1
102
RTVSPropertyOp35
 70
     1
102
RTVSPropertyOp36
 70
     1
102
RTVSPropertyOp37
 70
     1
102
RTVSPropertyOp38
 70
     1
102
RTVSPropertyOp39
 70
     1
102
RTVSPropertyOp40
 70
     1
102
RTVSPropertyOp41
 70
     1
102
RTVSPropertyOp42
 70
     1
102
RTVSPropertyOp43
 70
     1
102
RTVSPropertyOp44
 70
     1
102
RTVSPropertyOp45
 70
     1
102
RTVSPropertyOp46
 70
     1
102
RTVSPropertyOp47
 70
     1
102
RTVSPropertyOp48
 70
     1
102
RTVSPropertyOp49
 70
     1
102
RTVSPropertyOp50
 70
     1
102
RTVSPropertyOp51
 70
     0
102
RTVSPropertyOp52
 70
     0
102
RTVSPropertyOp53
 70
     1
102
RTVSPropertyOp54
 70
     1
102
RTVSPropertyOp55
 70
     1
102
RTVSPropertyOp56
 70
     1
102
RTVSPropertyOp57
 70
     1
102
RTVSPost2010Prop28
280
     0
102
RTVSPost2010PropOp28
 70
     1
102
RTVSPost2010Prop29
280
     1
102
RTVSPost2010PropOp29
 70
     1
102
RTVSPost2010Prop30
280
     1
102
RTVSPost2010PropOp30
 70
     1
102
RTVSPost2010Prop31
280
     0
102
RTVSPost2010PropOp31
 70
     1
102
RTVSPost2010Prop32
280
     0
102
RTVSPost2010PropOp32
 70
     1
102
RTVSPost2010Prop33
280
     0
102
RTVSPost2010PropOp33
 70
     1
102
RTVSPost2010Prop34
280
     0
102
RTVSPost2010PropOp34
 70
     1
102
RTVSPost2010Prop35
280
     0
102
RTVSPost2010PropOp35
 70
     1
102
RTVSPost2010Prop36
280
     0
102
RTVSPost2010PropOp36
 70
     1
102
RTVSPost2010Prop37
 90
       50
102
RTVSPost2010PropOp37
 70
     1
102
RTVSPost2010Prop38
140
0.0
102
RTVSPost2010PropOp38
 70
     1
102
RTVSPost2010Prop39
140
1.0
102
RTVSPost2010PropOp39
 70
     1
102
RTVSPost2010Prop40
 90
        0
102
RTVSPost2010PropOp40
 70
     1
102
RTVSPost2010Prop41ColorIndex
 90
       18
102
RTVSPost2010Prop41ColorRGB
 90
        0
102
RTVSPost2010PropOp41
 70
     1
102
RTVSPost2010Prop42
 90
       50
102
RTVSPost2010PropOp42
 70
     1
102
RTVSPost2010Prop43
 90
        3
102
RTVSPost2010PropOp43
 70
     1
102
RTVSPost2010Prop44ColorIndex
 90
        5
102
RTVSPost2010Prop44ColorRGB
 90
      255
102
RTVSPost2010PropOp44
 70
     1
102
RTVSPost2010Prop45
280
     0
102
RTVSPost2010PropOp45
 70
     1
102
RTVSPost2010Prop46
 90
       50
102
RTVSPost2010PropOp46
 70
     1
102
RTVSPost2010Prop47
 90
       50
102
RTVSPost2010PropOp47
 70
     1
102
RTVSPost2010Prop48
 90
       50
102
RTVSPost2010PropOp48
 70
     1
102
RTVSPost2010Prop49
280
     0
102
RTVSPost2010PropOp49
 70
     1
102
RTVSPost2010Prop50
 90
       50
102
RTVSPost2010PropOp50
 70
     1
102
RTVSPost2010Prop51ColorIndex
 90
      256
102
RTVSPost2010Prop51ColorRGB
 90
-16777216
102
RTVSPost2010PropOp51
 70
     0
102
RTVSPost2010Prop52
140
1.0
102
RTVSPost2010PropOp52
 70
     0
102
RTVSPost2010Prop53
 90
        2
102
RTVSPost2010PropOp53
 70
     1
102
RTVSPost2010Prop54
  1
strokes_ogs.tif
102
RTVSPost2010PropOp54
 70
     1
102
RTVSPost2010Prop55
280
     0
102
RTVSPost2010PropOp55
 70
     1
102
RTVSPost2010Prop56
140
1.0
102
RTVSPost2010PropOp56
 70
     1
102
RTVSPost2010Prop57
140
1.0
102
RTVSPost2010PropOp57
 70
     1
  0
XRECORD
  5
3E5
102
{ACAD_REACTORS
330
3E4
102
}
330
3E4
100
AcDbXrecord
280
     1
102
RTVSPropertyOp0
 70
     1
102
RTVSPropertyOp1
 70
     1
102
RTVSPropertyOp2
 70
     1
102
RTVSPropertyOp3
 70
     1
102
RTVSPropertyOp4
 70
     1
102
RTVSPropertyOp5
 70
     1
102
RTVSPropertyOp6
 70
     1
102
RTVSPropertyOp7
 70
     1
102
RTVSPropertyOp8
 70
     1
102
RTVSPropertyOp9
 70
     1
102
RTVSPropertyOp10
 70
     1
102
RTVSPropertyOp11
 70
     1
102
RTVSPropertyOp12
 70
     1
102
RTVSPropertyOp13
 70
     1
102
RTVSPropertyOp14
 70
     1
102
RTVSPropertyOp15
 70
     1
102
RTVSPropertyOp16
 70
     1
102
RTVSPropertyOp17
 70
     1
102
RTVSPropertyOp18
 70
     1
102
RTVSPropertyOp19
 70
     1
102
RTVSPropertyOp20
 70
     1
102
RTVSPropertyOp21
 70
     1
102
RTVSPropertyOp22
 70
     1
102
RTVSPropertyOp23
 70
     1
102
RTVSPropertyOp24
 70
     1
102
RTVSPropertyOp25
 70
     1
102
RTVSPropertyOp26
 70
     1
102
RTVSPropertyOp27
 70
     1
102
RTVSPropertyOp28
 70
     1
102
RTVSPropertyOp29
 70
     1
102
RTVSPropertyOp30
 70
     1
102
RTVSPropertyOp31
 70
     1
102
RTVSPropertyOp32
 70
     1
102
RTVSPropertyOp33
 70
     1
102
RTVSPropertyOp34
 70
     1
102
RTVSPropertyOp35
 70
     1
102
RTVSPropertyOp36
 70
     1
102
RTVSPropertyOp37
 70
     1
102
RTVSPropertyOp38
 70
     1
102
RTVSPropertyOp39
 70
     1
102
RTVSPropertyOp40
 70
     1
102
RTVSPropertyOp41
 70
     1
102
RTVSPropertyOp42
 70
     1
102
RTVSPropertyOp43
 70
     1
102
RTVSPropertyOp44
 70
     1
102
RTVSPropertyOp45
 70
     1
102
RTVSPropertyOp46
 70
     1
102
RTVSPropertyOp47
 70
     1
102
RTVSPropertyOp48
 70
     1
102
RTVSPropertyOp49
 70
     1
102
RTVSPropertyOp50
 70
     1
102
RTVSPropertyOp51
 70
     0
102
RTVSPropertyOp52
 70
     0
102
RTVSPropertyOp53
 70
     1
102
RTVSPropertyOp54
 70
     1
102
RTVSPropertyOp55
 70
     1
102
RTVSPropertyOp56
 70
     1
102
RTVSPropertyOp57
 70
     1
102
RTVSPost2010Prop28
280
     0
102
RTVSPost2010PropOp28
 70
     1
102
RTVSPost2010Prop29
280
     1
102
RTVSPost2010PropOp29
 70
     1
102
RTVSPost2010Prop30
280
     1
102
RTVSPost2010PropOp30
 70
     1
102
RTVSPost2010Prop31
280
     0
102
RTVSPost2010PropOp31
 70
     1
102
RTVSPost2010Prop32
280
     0
102
RTVSPost2010PropOp32
 70
     1
102
RTVSPost2010Prop33
280
     0
102
RTVSPost2010PropOp33
 70
     1
102
RTVSPost2010Prop34
280
     0
102
RTVSPost2010PropOp34
 70
     1
102
RTVSPost2010Prop35
280
     0
102
RTVSPost2010PropOp35
 70
     1
102
RTVSPost2010Prop36
280
     0
102
RTVSPost2010PropOp36
 70
     1
102
RTVSPost2010Prop37
 90
       50
102
RTVSPost2010PropOp37
 70
     1
102
RTVSPost2010Prop38
140
0.0
102
RTVSPost2010PropOp38
 70
     1
102
RTVSPost2010Prop39
140
1.0
102
RTVSPost2010PropOp39
 70
     1
102
RTVSPost2010Prop40
 90
        0
102
RTVSPost2010PropOp40
 70
     1
102
RTVSPost2010Prop41ColorIndex
 90
       18
102
RTVSPost2010Prop41ColorRGB
 90
        0
102
RTVSPost2010PropOp41
 70
     1
102
RTVSPost2010Prop42
 90
       50
102
RTVSPost2010PropOp42
 70
     1
102
RTVSPost2010Prop43
 90
        3
102
RTVSPost2010PropOp43
 70
     1
102
RTVSPost2010Prop44ColorIndex
 90
        5
102
RTVSPost2010Prop44ColorRGB
 90
      255
102
RTVSPost2010PropOp44
 70
     1
102
RTVSPost2010Prop45
280
     0
102
RTVSPost2010PropOp45
 70
     1
102
RTVSPost2010Prop46
 90
       50
102
RTVSPost2010PropOp46
 70
     1
102
RTVSPost2010Prop47
 90
       50
102
RTVSPost2010PropOp47
 70
     1
102
RTVSPost2010Prop48
 90
       50
102
RTVSPost2010PropOp48
 70
     1
102
RTVSPost2010Prop49
280
     0
102
RTVSPost2010PropOp49
 70
     1
102
RTVSPost2010Prop50
 90
       50
102
RTVSPost2010PropOp50
 70
     1
102
RTVSPost2010Prop51ColorIndex
 90
      256
102
RTVSPost2010Prop51ColorRGB
 90
-16777216
102
RTVSPost2010PropOp51
 70
     0
102
RTVSPost2010Prop52
140
1.0
102
RTVSPost2010PropOp52
 70
     0
102
RTVSPost2010Prop53
 90
        2
102
RTVSPost2010PropOp53
 70
     1
102
RTVSPost2010Prop54
  1
strokes_ogs.tif
102
RTVSPost2010PropOp54
 70
     1
102
RTVSPost2010Prop55
280
     0
102
RTVSPost2010PropOp55
 70
     1
102
RTVSPost2010Prop56
140
1.0
102
RTVSPost2010PropOp56
 70
     1
102
RTVSPost2010Prop57
140
1.0
102
RTVSPost2010PropOp57
 70
     1
  0
XRECORD
  5
3E7
102
{ACAD_REACTORS
330
3E6
102
}
330
3E6
100
AcDbXrecord
280
     1
102
RTVSPropertyOp0
 70
     1
102
RTVSPropertyOp1
 70
     1
102
RTVSPropertyOp2
 70
     1
102
RTVSPropertyOp3
 70
     1
102
RTVSPropertyOp4
 70
     1
102
RTVSPropertyOp5
 70
     1
102
RTVSPropertyOp6
 70
     1
102
RTVSPropertyOp7
 70
     1
102
RTVSPropertyOp8
 70
     1
102
RTVSPropertyOp9
 70
     1
102
RTVSPropertyOp10
 70
     1
102
RTVSPropertyOp11
 70
     1
102
RTVSPropertyOp12
 70
     1
102
RTVSPropertyOp13
 70
     1
102
RTVSPropertyOp14
 70
     1
102
RTVSPropertyOp15
 70
     1
102
RTVSPropertyOp16
 70
     1
102
RTVSPropertyOp17
 70
     1
102
RTVSPropertyOp18
 70
     1
102
RTVSPropertyOp19
 70
     1
102
RTVSPropertyOp20
 70
     1
102
RTVSPropertyOp21
 70
     1
102
RTVSPropertyOp22
 70
     1
102
RTVSPropertyOp23
 70
     1
102
RTVSPropertyOp24
 70
     1
102
RTVSPropertyOp25
 70
     1
102
RTVSPropertyOp26
 70
     1
102
RTVSPropertyOp27
 70
     1
102
RTVSPropertyOp28
 70
     1
102
RTVSPropertyOp29
 70
     1
102
RTVSPropertyOp30
 70
     1
102
RTVSPropertyOp31
 70
     1
102
RTVSPropertyOp32
 70
     1
102
RTVSPropertyOp33
 70
     1
102
RTVSPropertyOp34
 70
     1
102
RTVSPropertyOp35
 70
     1
102
RTVSPropertyOp36
 70
     1
102
RTVSPropertyOp37
 70
     1
102
RTVSPropertyOp38
 70
     1
102
RTVSPropertyOp39
 70
     1
102
RTVSPropertyOp40
 70
     1
102
RTVSPropertyOp41
 70
     1
102
RTVSPropertyOp42
 70
     1
102
RTVSPropertyOp43
 70
     1
102
RTVSPropertyOp44
 70
     1
102
RTVSPropertyOp45
 70
     1
102
RTVSPropertyOp46
 70
     1
102
RTVSPropertyOp47
 70
     1
102
RTVSPropertyOp48
 70
     1
102
RTVSPropertyOp49
 70
     1
102
RTVSPropertyOp50
 70
     1
102
RTVSPropertyOp51
 70
     0
102
RTVSPropertyOp52
 70
     0
102
RTVSPropertyOp53
 70
     1
102
RTVSPropertyOp54
 70
     1
102
RTVSPropertyOp55
 70
     1
102
RTVSPropertyOp56
 70
     1
102
RTVSPropertyOp57
 70
     1
102
RTVSPost2010Prop28
280
     0
102
RTVSPost2010PropOp28
 70
     1
102
RTVSPost2010Prop29
280
     1
102
RTVSPost2010PropOp29
 70
     1
102
RTVSPost2010Prop30
280
     1
102
RTVSPost2010PropOp30
 70
     1
102
RTVSPost2010Prop31
280
     0
102
RTVSPost2010PropOp31
 70
     1
102
RTVSPost2010Prop32
280
     0
102
RTVSPost2010PropOp32
 70
     1
102
RTVSPost2010Prop33
280
     0
102
RTVSPost2010PropOp33
 70
     1
102
RTVSPost2010Prop34
280
     0
102
RTVSPost2010PropOp34
 70
     1
102
RTVSPost2010Prop35
280
     0
102
RTVSPost2010PropOp35
 70
     1
102
RTVSPost2010Prop36
280
     0
102
RTVSPost2010PropOp36
 70
     1
102
RTVSPost2010Prop37
 90
       50
102
RTVSPost2010PropOp37
 70
     1
102
RTVSPost2010Prop38
140
0.0
102
RTVSPost2010PropOp38
 70
     1
102
RTVSPost2010Prop39
140
1.0
102
RTVSPost2010PropOp39
 70
     1
102
RTVSPost2010Prop40
 90
        0
102
RTVSPost2010PropOp40
 70
     1
102
RTVSPost2010Prop41ColorIndex
 90
       18
102
RTVSPost2010Prop41ColorRGB
 90
        0
102
RTVSPost2010PropOp41
 70
     1
102
RTVSPost2010Prop42
 90
       50
102
RTVSPost2010PropOp42
 70
     1
102
RTVSPost2010Prop43
 90
        3
102
RTVSPost2010PropOp43
 70
     1
102
RTVSPost2010Prop44ColorIndex
 90
        5
102
RTVSPost2010Prop44ColorRGB
 90
      255
102
RTVSPost2010PropOp44
 70
     1
102
RTVSPost2010Prop45
280
     0
102
RTVSPost2010PropOp45
 70
     1
102
RTVSPost2010Prop46
 90
       50
102
RTVSPost2010PropOp46
 70
     1
102
RTVSPost2010Prop47
 90
       50
102
RTVSPost2010PropOp47
 70
     1
102
RTVSPost2010Prop48
 90
       50
102
RTVSPost2010PropOp48
 70
     1
102
RTVSPost2010Prop49
280
     0
102
RTVSPost2010PropOp49
 70
     1
102
RTVSPost2010Prop50
 90
       50
102
RTVSPost2010PropOp50
 70
     1
102
RTVSPost2010Prop51ColorIndex
 90
      256
102
RTVSPost2010Prop51ColorRGB
 90
-16777216
102
RTVSPost2010PropOp51
 70
     0
102
RTVSPost2010Prop52
140
1.0
102
RTVSPost2010PropOp52
 70
     0
102
RTVSPost2010Prop53
 90
        2
102
RTVSPost2010PropOp53
 70
     1
102
RTVSPost2010Prop54
  1
strokes_ogs.tif
102
RTVSPost2010PropOp54
 70
     1
102
RTVSPost2010Prop55
280
     0
102
RTVSPost2010PropOp55
 70
     1
102
RTVSPost2010Prop56
140
1.0
102
RTVSPost2010PropOp56
 70
     1
102
RTVSPost2010Prop57
140
1.0
102
RTVSPost2010PropOp57
 70
     1
  0
XRECORD
  5
3E9
102
{ACAD_REACTORS
330
3E8
102
}
330
3E8
100
AcDbXrecord
280
     1
102
RTVSPropertyOp0
 70
     1
102
RTVSPropertyOp1
 70
     1
102
RTVSPropertyOp2
 70
     1
102
RTVSPropertyOp3
 70
     1
102
RTVSPropertyOp4
 70
     1
102
RTVSPropertyOp5
 70
     1
102
RTVSPropertyOp6
 70
     1
102
RTVSPropertyOp7
 70
     1
102
RTVSPropertyOp8
 70
     1
102
RTVSPropertyOp9
 70
     1
102
RTVSPropertyOp10
 70
     1
102
RTVSPropertyOp11
 70
     1
102
RTVSPropertyOp12
 70
     1
102
RTVSPropertyOp13
 70
     1
102
RTVSPropertyOp14
 70
     1
102
RTVSPropertyOp15
 70
     1
102
RTVSPropertyOp16
 70
     1
102
RTVSPropertyOp17
 70
     1
102
RTVSPropertyOp18
 70
     1
102
RTVSPropertyOp19
 70
     1
102
RTVSPropertyOp20
 70
     1
102
RTVSPropertyOp21
 70
     1
102
RTVSPropertyOp22
 70
     1
102
RTVSPropertyOp23
 70
     1
102
RTVSPropertyOp24
 70
     1
102
RTVSPropertyOp25
 70
     1
102
RTVSPropertyOp26
 70
     1
102
RTVSPropertyOp27
 70
     1
102
RTVSPropertyOp28
 70
     1
102
RTVSPropertyOp29
 70
     1
102
RTVSPropertyOp30
 70
     1
102
RTVSPropertyOp31
 70
     1
102
RTVSPropertyOp32
 70
     1
102
RTVSPropertyOp33
 70
     1
102
RTVSPropertyOp34
 70
     1
102
RTVSPropertyOp35
 70
     1
102
RTVSPropertyOp36
 70
     1
102
RTVSPropertyOp37
 70
     1
102
RTVSPropertyOp38
 70
     1
102
RTVSPropertyOp39
 70
     1
102
RTVSPropertyOp40
 70
     1
102
RTVSPropertyOp41
 70
     1
102
RTVSPropertyOp42
 70
     1
102
RTVSPropertyOp43
 70
     1
102
RTVSPropertyOp44
 70
     1
102
RTVSPropertyOp45
 70
     1
102
RTVSPropertyOp46
 70
     1
102
RTVSPropertyOp47
 70
     1
102
RTVSPropertyOp48
 70
     1
102
RTVSPropertyOp49
 70
     1
102
RTVSPropertyOp50
 70
     1
102
RTVSPropertyOp51
 70
     0
102
RTVSPropertyOp52
 70
     0
102
RTVSPropertyOp53
 70
     1
102
RTVSPropertyOp54
 70
     1
102
RTVSPropertyOp55
 70
     1
102
RTVSPropertyOp56
 70
     1
102
RTVSPropertyOp57
 70
     1
102
RTVSPost2010Prop28
280
     0
102
RTVSPost2010PropOp28
 70
     1
102
RTVSPost2010Prop29
280
     1
102
RTVSPost2010PropOp29
 70
     1
102
RTVSPost2010Prop30
280
     1
102
RTVSPost2010PropOp30
 70
     1
102
RTVSPost2010Prop31
280
     0
102
RTVSPost2010PropOp31
 70
     1
102
RTVSPost2010Prop32
280
     0
102
RTVSPost2010PropOp32
 70
     1
102
RTVSPost2010Prop33
280
     0
102
RTVSPost2010PropOp33
 70
     1
102
RTVSPost2010Prop34
280
     0
102
RTVSPost2010PropOp34
 70
     1
102
RTVSPost2010Prop35
280
     0
102
RTVSPost2010PropOp35
 70
     1
102
RTVSPost2010Prop36
280
     0
102
RTVSPost2010PropOp36
 70
     1
102
RTVSPost2010Prop37
 90
       50
102
RTVSPost2010PropOp37
 70
     1
102
RTVSPost2010Prop38
140
0.0
102
RTVSPost2010PropOp38
 70
     1
102
RTVSPost2010Prop39
140
1.0
102
RTVSPost2010PropOp39
 70
     1
102
RTVSPost2010Prop40
 90
        0
102
RTVSPost2010PropOp40
 70
     1
102
RTVSPost2010Prop41ColorIndex
 90
       18
102
RTVSPost2010Prop41ColorRGB
 90
        0
102
RTVSPost2010PropOp41
 70
     1
102
RTVSPost2010Prop42
 90
       50
102
RTVSPost2010PropOp42
 70
     1
102
RTVSPost2010Prop43
 90
        3
102
RTVSPost2010PropOp43
 70
     1
102
RTVSPost2010Prop44ColorIndex
 90
        5
102
RTVSPost2010Prop44ColorRGB
 90
      255
102
RTVSPost2010PropOp44
 70
     1
102
RTVSPost2010Prop45
280
     0
102
RTVSPost2010PropOp45
 70
     1
102
RTVSPost2010Prop46
 90
       50
102
RTVSPost2010PropOp46
 70
     1
102
RTVSPost2010Prop47
 90
       50
102
RTVSPost2010PropOp47
 70
     1
102
RTVSPost2010Prop48
 90
       50
102
RTVSPost2010PropOp48
 70
     1
102
RTVSPost2010Prop49
280
     0
102
RTVSPost2010PropOp49
 70
     1
102
RTVSPost2010Prop50
 90
       50
102
RTVSPost2010PropOp50
 70
     1
102
RTVSPost2010Prop51ColorIndex
 90
      256
102
RTVSPost2010Prop51ColorRGB
 90
-16777216
102
RTVSPost2010PropOp51
 70
     0
102
RTVSPost2010Prop52
140
1.0
102
RTVSPost2010PropOp52
 70
     0
102
RTVSPost2010Prop53
 90
        2
102
RTVSPost2010PropOp53
 70
     1
102
RTVSPost2010Prop54
  1
strokes_ogs.tif
102
RTVSPost2010PropOp54
 70
     1
102
RTVSPost2010Prop55
280
     0
102
RTVSPost2010PropOp55
 70
     1
102
RTVSPost2010Prop56
140
1.0
102
RTVSPost2010PropOp56
 70
     1
102
RTVSPost2010Prop57
140
1.0
102
RTVSPost2010PropOp57
 70
     1
  0
XRECORD
  5
3EB
102
{ACAD_REACTORS
330
3EA
102
}
330
3EA
100
AcDbXrecord
280
     1
102
RTVSPropertyOp0
 70
     1
102
RTVSPropertyOp1
 70
     1
102
RTVSPropertyOp2
 70
     1
102
RTVSPropertyOp3
 70
     1
102
RTVSPropertyOp4
 70
     1
102
RTVSPropertyOp5
 70
     1
102
RTVSPropertyOp6
 70
     1
102
RTVSPropertyOp7
 70
     1
102
RTVSPropertyOp8
 70
     1
102
RTVSPropertyOp9
 70
     1
102
RTVSPropertyOp10
 70
     1
102
RTVSPropertyOp11
 70
     1
102
RTVSPropertyOp12
 70
     1
102
RTVSPropertyOp13
 70
     1
102
RTVSPropertyOp14
 70
     1
102
RTVSPropertyOp15
 70
     1
102
RTVSPropertyOp16
 70
     1
102
RTVSPropertyOp17
 70
     1
102
RTVSPropertyOp18
 70
     1
102
RTVSPropertyOp19
 70
     1
102
RTVSPropertyOp20
 70
     1
102
RTVSPropertyOp21
 70
     1
102
RTVSPropertyOp22
 70
     1
102
RTVSPropertyOp23
 70
     1
102
RTVSPropertyOp24
 70
     1
102
RTVSPropertyOp25
 70
     1
102
RTVSPropertyOp26
 70
     1
102
RTVSPropertyOp27
 70
     1
102
RTVSPropertyOp28
 70
     1
102
RTVSPropertyOp29
 70
     1
102
RTVSPropertyOp30
 70
     1
102
RTVSPropertyOp31
 70
     1
102
RTVSPropertyOp32
 70
     1
102
RTVSPropertyOp33
 70
     1
102
RTVSPropertyOp34
 70
     1
102
RTVSPropertyOp35
 70
     1
102
RTVSPropertyOp36
 70
     1
102
RTVSPropertyOp37
 70
     1
102
RTVSPropertyOp38
 70
     1
102
RTVSPropertyOp39
 70
     1
102
RTVSPropertyOp40
 70
     1
102
RTVSPropertyOp41
 70
     1
102
RTVSPropertyOp42
 70
     1
102
RTVSPropertyOp43
 70
     1
102
RTVSPropertyOp44
 70
     1
102
RTVSPropertyOp45
 70
     1
102
RTVSPropertyOp46
 70
     1
102
RTVSPropertyOp47
 70
     1
102
RTVSPropertyOp48
 70
     1
102
RTVSPropertyOp49
 70
     1
102
RTVSPropertyOp50
 70
     1
102
RTVSPropertyOp51
 70
     0
102
RTVSPropertyOp52
 70
     0
102
RTVSPropertyOp53
 70
     1
102
RTVSPropertyOp54
 70
     1
102
RTVSPropertyOp55
 70
     1
102
RTVSPropertyOp56
 70
     1
102
RTVSPropertyOp57
 70
     1
102
RTVSPost2010Prop28
280
     0
102
RTVSPost2010PropOp28
 70
     1
102
RTVSPost2010Prop29
280
     1
102
RTVSPost2010PropOp29
 70
     1
102
RTVSPost2010Prop30
280
     1
102
RTVSPost2010PropOp30
 70
     1
102
RTVSPost2010Prop31
280
     0
102
RTVSPost2010PropOp31
 70
     1
102
RTVSPost2010Prop32
280
     0
102
RTVSPost2010PropOp32
 70
     1
102
RTVSPost2010Prop33
280
     0
102
RTVSPost2010PropOp33
 70
     1
102
RTVSPost2010Prop34
280
     0
102
RTVSPost2010PropOp34
 70
     1
102
RTVSPost2010Prop35
280
     0
102
RTVSPost2010PropOp35
 70
     1
102
RTVSPost2010Prop36
280
     0
102
RTVSPost2010PropOp36
 70
     1
102
RTVSPost2010Prop37
 90
       50
102
RTVSPost2010PropOp37
 70
     1
102
RTVSPost2010Prop38
140
0.0
102
RTVSPost2010PropOp38
 70
     1
102
RTVSPost2010Prop39
140
1.0
102
RTVSPost2010PropOp39
 70
     1
102
RTVSPost2010Prop40
 90
        0
102
RTVSPost2010PropOp40
 70
     1
102
RTVSPost2010Prop41ColorIndex
 90
       18
102
RTVSPost2010Prop41ColorRGB
 90
        0
102
RTVSPost2010PropOp41
 70
     1
102
RTVSPost2010Prop42
 90
       50
102
RTVSPost2010PropOp42
 70
     1
102
RTVSPost2010Prop43
 90
        3
102
RTVSPost2010PropOp43
 70
     1
102
RTVSPost2010Prop44ColorIndex
 90
        5
102
RTVSPost2010Prop44ColorRGB
 90
      255
102
RTVSPost2010PropOp44
 70
     1
102
RTVSPost2010Prop45
280
     0
102
RTVSPost2010PropOp45
 70
     1
102
RTVSPost2010Prop46
 90
       50
102
RTVSPost2010PropOp46
 70
     1
102
RTVSPost2010Prop47
 90
       50
102
RTVSPost2010PropOp47
 70
     1
102
RTVSPost2010Prop48
 90
       50
102
RTVSPost2010PropOp48
 70
     1
102
RTVSPost2010Prop49
280
     0
102
RTVSPost2010PropOp49
 70
     1
102
RTVSPost2010Prop50
 90
       50
102
RTVSPost2010PropOp50
 70
     1
102
RTVSPost2010Prop51ColorIndex
 90
      256
102
RTVSPost2010Prop51ColorRGB
 90
-16777216
102
RTVSPost2010PropOp51
 70
     0
102
RTVSPost2010Prop52
140
1.0
102
RTVSPost2010PropOp52
 70
     0
102
RTVSPost2010Prop53
 90
        2
102
RTVSPost2010PropOp53
 70
     1
102
RTVSPost2010Prop54
  1
strokes_ogs.tif
102
RTVSPost2010PropOp54
 70
     1
102
RTVSPost2010Prop55
280
     0
102
RTVSPost2010PropOp55
 70
     1
102
RTVSPost2010Prop56
140
1.0
102
RTVSPost2010PropOp56
 70
     1
102
RTVSPost2010Prop57
140
1.0
102
RTVSPost2010PropOp57
 70
     1
  0
XRECORD
  5
3F1
102
{ACAD_REACTORS
330
3F0
102
}
330
3F0
100
AcDbXrecord
280
     1
102
RTVSPropertyOp0
 70
     1
102
RTVSPropertyOp1
 70
     1
102
RTVSPropertyOp2
 70
     1
102
RTVSPropertyOp3
 70
     1
102
RTVSPropertyOp4
 70
     1
102
RTVSPropertyOp5
 70
     1
102
RTVSPropertyOp6
 70
     1
102
RTVSPropertyOp7
 70
     1
102
RTVSPropertyOp8
 70
     1
102
RTVSPropertyOp9
 70
     1
102
RTVSPropertyOp10
 70
     1
102
RTVSPropertyOp11
 70
     1
102
RTVSPropertyOp12
 70
     1
102
RTVSPropertyOp13
 70
     1
102
RTVSPropertyOp14
 70
     1
102
RTVSPropertyOp15
 70
     1
102
RTVSPropertyOp16
 70
     1
102
RTVSPropertyOp17
 70
     1
102
RTVSPropertyOp18
 70
     1
102
RTVSPropertyOp19
 70
     1
102
RTVSPropertyOp20
 70
     1
102
RTVSPropertyOp21
 70
     1
102
RTVSPropertyOp22
 70
     1
102
RTVSPropertyOp23
 70
     1
102
RTVSPropertyOp24
 70
     1
102
RTVSPropertyOp25
 70
     1
102
RTVSPropertyOp26
 70
     1
102
RTVSPropertyOp27
 70
     1
102
RTVSPropertyOp28
 70
     1
102
RTVSPropertyOp29
 70
     1
102
RTVSPropertyOp30
 70
     1
102
RTVSPropertyOp31
 70
     1
102
RTVSPropertyOp32
 70
     1
102
RTVSPropertyOp33
 70
     1
102
RTVSPropertyOp34
 70
     1
102
RTVSPropertyOp35
 70
     1
102
RTVSPropertyOp36
 70
     1
102
RTVSPropertyOp37
 70
     1
102
RTVSPropertyOp38
 70
     1
102
RTVSPropertyOp39
 70
     1
102
RTVSPropertyOp40
 70
     1
102
RTVSPropertyOp41
 70
     1
102
RTVSPropertyOp42
 70
     1
102
RTVSPropertyOp43
 70
     1
102
RTVSPropertyOp44
 70
     1
102
RTVSPropertyOp45
 70
     1
102
RTVSPropertyOp46
 70
     1
102
RTVSPropertyOp47
 70
     1
102
RTVSPropertyOp48
 70
     1
102
RTVSPropertyOp49
 70
     1
102
RTVSPropertyOp50
 70
     1
102
RTVSPropertyOp51
 70
     0
102
RTVSPropertyOp52
 70
     0
102
RTVSPropertyOp53
 70
     1
102
RTVSPropertyOp54
 70
     1
102
RTVSPropertyOp55
 70
     1
102
RTVSPropertyOp56
 70
     1
102
RTVSPropertyOp57
 70
     1
102
RTVSPost2010Prop28
280
     0
102
RTVSPost2010PropOp28
 70
     1
102
RTVSPost2010Prop29
280
     1
102
RTVSPost2010PropOp29
 70
     1
102
RTVSPost2010Prop30
280
     1
102
RTVSPost2010PropOp30
 70
     1
102
RTVSPost2010Prop31
280
     0
102
RTVSPost2010PropOp31
 70
     1
102
RTVSPost2010Prop32
280
     0
102
RTVSPost2010PropOp32
 70
     1
102
RTVSPost2010Prop33
280
     0
102
RTVSPost2010PropOp33
 70
     1
102
RTVSPost2010Prop34
280
     0
102
RTVSPost2010PropOp34
 70
     1
102
RTVSPost2010Prop35
280
     0
102
RTVSPost2010PropOp35
 70
     1
102
RTVSPost2010Prop36
280
     0
102
RTVSPost2010PropOp36
 70
     1
102
RTVSPost2010Prop37
 90
       50
102
RTVSPost2010PropOp37
 70
     1
102
RTVSPost2010Prop38
140
0.0
102
RTVSPost2010PropOp38
 70
     1
102
RTVSPost2010Prop39
140
1.0
102
RTVSPost2010PropOp39
 70
     1
102
RTVSPost2010Prop40
 90
        0
102
RTVSPost2010PropOp40
 70
     1
102
RTVSPost2010Prop41ColorIndex
 90
       18
102
RTVSPost2010Prop41ColorRGB
 90
        0
102
RTVSPost2010PropOp41
 70
     1
102
RTVSPost2010Prop42
 90
       50
102
RTVSPost2010PropOp42
 70
     1
102
RTVSPost2010Prop43
 90
        3
102
RTVSPost2010PropOp43
 70
     1
102
RTVSPost2010Prop44ColorIndex
 90
        5
102
RTVSPost2010Prop44ColorRGB
 90
      255
102
RTVSPost2010PropOp44
 70
     1
102
RTVSPost2010Prop45
280
     0
102
RTVSPost2010PropOp45
 70
     1
102
RTVSPost2010Prop46
 90
       50
102
RTVSPost2010PropOp46
 70
     1
102
RTVSPost2010Prop47
 90
       50
102
RTVSPost2010PropOp47
 70
     1
102
RTVSPost2010Prop48
 90
       50
102
RTVSPost2010PropOp48
 70
     1
102
RTVSPost2010Prop49
280
     0
102
RTVSPost2010PropOp49
 70
     1
102
RTVSPost2010Prop50
 90
       50
102
RTVSPost2010PropOp50
 70
     1
102
RTVSPost2010Prop51ColorIndex
 90
      256
102
RTVSPost2010Prop51ColorRGB
 90
-16777216
102
RTVSPost2010PropOp51
 70
     0
102
RTVSPost2010Prop52
140
1.0
102
RTVSPost2010PropOp52
 70
     0
102
RTVSPost2010Prop53
 90
        2
102
RTVSPost2010PropOp53
 70
     1
102
RTVSPost2010Prop54
  1
strokes_ogs.tif
102
RTVSPost2010PropOp54
 70
     1
102
RTVSPost2010Prop55
280
     0
102
RTVSPost2010PropOp55
 70
     1
102
RTVSPost2010Prop56
140
1.0
102
RTVSPost2010PropOp56
 70
     1
102
RTVSPost2010Prop57
140
1.0
102
RTVSPost2010PropOp57
 70
     1
  0
XRECORD
  5
405
102
{ACAD_REACTORS
330
404
102
}
330
404
100
AcDbXrecord
280
     1
102
RTVSPropertyOp0
 70
     0
102
RTVSPropertyOp1
 70
     0
102
RTVSPropertyOp2
 70
     0
102
RTVSPropertyOp3
 70
     0
102
RTVSPropertyOp4
 70
     0
102
RTVSPropertyOp5
 70
     0
102
RTVSPropertyOp6
 70
     0
102
RTVSPropertyOp7
 70
     0
102
RTVSPropertyOp8
 70
     0
102
RTVSPropertyOp9
 70
     0
102
RTVSPropertyOp10
 70
     0
102
RTVSPropertyOp11
 70
     0
102
RTVSPropertyOp12
 70
     0
102
RTVSPropertyOp13
 70
     0
102
RTVSPropertyOp14
 70
     2
102
RTVSPropertyOp15
 70
     0
102
RTVSPropertyOp16
 70
     0
102
RTVSPropertyOp17
 70
     0
102
RTVSPropertyOp18
 70
     0
102
RTVSPropertyOp19
 70
     0
102
RTVSPropertyOp20
 70
     0
102
RTVSPropertyOp21
 70
     0
102
RTVSPropertyOp22
 70
     0
102
RTVSPropertyOp23
 70
     0
102
RTVSPropertyOp24
 70
     0
102
RTVSPropertyOp25
 70
     0
102
RTVSPropertyOp26
 70
     0
102
RTVSPropertyOp27
 70
     0
102
RTVSPropertyOp28
 70
     0
102
RTVSPropertyOp29
 70
     0
102
RTVSPropertyOp30
 70
     0
102
RTVSPropertyOp31
 70
     0
102
RTVSPropertyOp32
 70
     0
102
RTVSPropertyOp33
 70
     0
102
RTVSPropertyOp34
 70
     0
102
RTVSPropertyOp35
 70
     0
102
RTVSPropertyOp36
 70
     0
102
RTVSPropertyOp37
 70
     0
102
RTVSPropertyOp38
 70
     0
102
RTVSPropertyOp39
 70
     0
102
RTVSPropertyOp40
 70
     0
102
RTVSPropertyOp41
 70
     0
102
RTVSPropertyOp42
 70
     0
102
RTVSPropertyOp43
 70
     0
102
RTVSPropertyOp44
 70
     0
102
RTVSPropertyOp45
 70
     0
102
RTVSPropertyOp46
 70
     0
102
RTVSPropertyOp47
 70
     0
102
RTVSPropertyOp48
 70
     0
102
RTVSPropertyOp49
 70
     0
102
RTVSPropertyOp50
 70
     0
102
RTVSPropertyOp51
 70
     0
102
RTVSPropertyOp52
 70
     0
102
RTVSPropertyOp53
 70
     0
102
RTVSPropertyOp54
 70
     0
102
RTVSPropertyOp55
 70
     0
102
RTVSPropertyOp56
 70
     0
102
RTVSPropertyOp57
 70
     0
102
RTVSPost2010Prop28
280
     0
102
RTVSPost2010PropOp28
 70
     0
102
RTVSPost2010Prop29
280
     1
102
RTVSPost2010PropOp29
 70
     0
102
RTVSPost2010Prop30
280
     1
102
RTVSPost2010PropOp30
 70
     0
102
RTVSPost2010Prop31
280
     0
102
RTVSPost2010PropOp31
 70
     0
102
RTVSPost2010Prop32
280
     0
102
RTVSPost2010PropOp32
 70
     0
102
RTVSPost2010Prop33
280
     0
102
RTVSPost2010PropOp33
 70
     0
102
RTVSPost2010Prop34
280
     0
102
RTVSPost2010PropOp34
 70
     0
102
RTVSPost2010Prop35
280
     0
102
RTVSPost2010PropOp35
 70
     0
102
RTVSPost2010Prop36
280
     0
102
RTVSPost2010PropOp36
 70
     0
102
RTVSPost2010Prop37
 90
       50
102
RTVSPost2010PropOp37
 70
     0
102
RTVSPost2010Prop38
140
0.0
102
RTVSPost2010PropOp38
 70
     0
102
RTVSPost2010Prop39
140
1.0
102
RTVSPost2010PropOp39
 70
     0
102
RTVSPost2010Prop40
 90
        0
102
RTVSPost2010PropOp40
 70
     0
102
RTVSPost2010Prop41ColorIndex
 90
       18
102
RTVSPost2010Prop41ColorRGB
 90
        0
102
RTVSPost2010PropOp41
 70
     0
102
RTVSPost2010Prop42
 90
       50
102
RTVSPost2010PropOp42
 70
     0
102
RTVSPost2010Prop43
 90
        3
102
RTVSPost2010PropOp43
 70
     0
102
RTVSPost2010Prop44ColorIndex
 90
        5
102
RTVSPost2010Prop44ColorRGB
 90
      255
102
RTVSPost2010PropOp44
 70
     0
102
RTVSPost2010Prop45
280
     0
102
RTVSPost2010PropOp45
 70
     0
102
RTVSPost2010Prop46
 90
       50
102
RTVSPost2010PropOp46
 70
     0
102
RTVSPost2010Prop47
 90
       50
102
RTVSPost2010PropOp47
 70
     0
102
RTVSPost2010Prop48
 90
       50
102
RTVSPost2010PropOp48
 70
     0
102
RTVSPost2010Prop49
280
     0
102
RTVSPost2010PropOp49
 70
     0
102
RTVSPost2010Prop50
 90
       50
102
RTVSPost2010PropOp50
 70
     0
102
RTVSPost2010Prop51ColorIndex
 90
      256
102
RTVSPost2010Prop51ColorRGB
 90
-16777216
102
RTVSPost2010PropOp51
 70
     0
102
RTVSPost2010Prop52
140
1.0
102
RTVSPost2010PropOp52
 70
     0
102
RTVSPost2010Prop53
 90
        2
102
RTVSPost2010PropOp53
 70
     0
102
RTVSPost2010Prop54
  1
strokes_ogs.tif
102
RTVSPost2010PropOp54
 70
     0
102
RTVSPost2010Prop55
280
     0
102
RTVSPost2010PropOp55
 70
     0
102
RTVSPost2010Prop56
140
1.0
102
RTVSPost2010PropOp56
 70
     0
102
RTVSPost2010Prop57
140
1.0
102
RTVSPost2010PropOp57
 70
     0
  0
XRECORD
  5
3FF
102
{ACAD_REACTORS
330
3FE
102
}
330
3FE
100
AcDbXrecord
280
     1
102
RTVSPropertyOp0
 70
     1
102
RTVSPropertyOp1
 70
     1
102
RTVSPropertyOp2
 70
     1
102
RTVSPropertyOp3
 70
     1
102
RTVSPropertyOp4
 70
     1
102
RTVSPropertyOp5
 70
     1
102
RTVSPropertyOp6
 70
     1
102
RTVSPropertyOp7
 70
     1
102
RTVSPropertyOp8
 70
     1
102
RTVSPropertyOp9
 70
     1
102
RTVSPropertyOp10
 70
     1
102
RTVSPropertyOp11
 70
     1
102
RTVSPropertyOp12
 70
     1
102
RTVSPropertyOp13
 70
     1
102
RTVSPropertyOp14
 70
     1
102
RTVSPropertyOp15
 70
     1
102
RTVSPropertyOp16
 70
     1
102
RTVSPropertyOp17
 70
     1
102
RTVSPropertyOp18
 70
     1
102
RTVSPropertyOp19
 70
     1
102
RTVSPropertyOp20
 70
     1
102
RTVSPropertyOp21
 70
     1
102
RTVSPropertyOp22
 70
     1
102
RTVSPropertyOp23
 70
     1
102
RTVSPropertyOp24
 70
     1
102
RTVSPropertyOp25
 70
     1
102
RTVSPropertyOp26
 70
     1
102
RTVSPropertyOp27
 70
     1
102
RTVSPropertyOp28
 70
     1
102
RTVSPropertyOp29
 70
     1
102
RTVSPropertyOp30
 70
     1
102
RTVSPropertyOp31
 70
     1
102
RTVSPropertyOp32
 70
     1
102
RTVSPropertyOp33
 70
     1
102
RTVSPropertyOp34
 70
     1
102
RTVSPropertyOp35
 70
     1
102
RTVSPropertyOp36
 70
     1
102
RTVSPropertyOp37
 70
     1
102
RTVSPropertyOp38
 70
     1
102
RTVSPropertyOp39
 70
     1
102
RTVSPropertyOp40
 70
     1
102
RTVSPropertyOp41
 70
     1
102
RTVSPropertyOp42
 70
     1
102
RTVSPropertyOp43
 70
     1
102
RTVSPropertyOp44
 70
     1
102
RTVSPropertyOp45
 70
     1
102
RTVSPropertyOp46
 70
     1
102
RTVSPropertyOp47
 70
     1
102
RTVSPropertyOp48
 70
     1
102
RTVSPropertyOp49
 70
     1
102
RTVSPropertyOp50
 70
     1
102
RTVSPropertyOp51
 70
     0
102
RTVSPropertyOp52
 70
     0
102
RTVSPropertyOp53
 70
     1
102
RTVSPropertyOp54
 70
     1
102
RTVSPropertyOp55
 70
     1
102
RTVSPropertyOp56
 70
     1
102
RTVSPropertyOp57
 70
     1
102
RTVSPost2010Prop28
280
     0
102
RTVSPost2010PropOp28
 70
     1
102
RTVSPost2010Prop29
280
     1
102
RTVSPost2010PropOp29
 70
     1
102
RTVSPost2010Prop30
280
     1
102
RTVSPost2010PropOp30
 70
     1
102
RTVSPost2010Prop31
280
     0
102
RTVSPost2010PropOp31
 70
     1
102
RTVSPost2010Prop32
280
     0
102
RTVSPost2010PropOp32
 70
     1
102
RTVSPost2010Prop33
280
     0
102
RTVSPost2010PropOp33
 70
     1
102
RTVSPost2010Prop34
280
     0
102
RTVSPost2010PropOp34
 70
     1
102
RTVSPost2010Prop35
280
     0
102
RTVSPost2010PropOp35
 70
     1
102
RTVSPost2010Prop36
280
     0
102
RTVSPost2010PropOp36
 70
     1
102
RTVSPost2010Prop37
 90
       50
102
RTVSPost2010PropOp37
 70
     1
102
RTVSPost2010Prop38
140
0.0
102
RTVSPost2010PropOp38
 70
     1
102
RTVSPost2010Prop39
140
1.0
102
RTVSPost2010PropOp39
 70
     1
102
RTVSPost2010Prop40
 90
        0
102
RTVSPost2010PropOp40
 70
     1
102
RTVSPost2010Prop41ColorIndex
 90
       18
102
RTVSPost2010Prop41ColorRGB
 90
        0
102
RTVSPost2010PropOp41
 70
     1
102
RTVSPost2010Prop42
 90
       50
102
RTVSPost2010PropOp42
 70
     1
102
RTVSPost2010Prop43
 90
        3
102
RTVSPost2010PropOp43
 70
     1
102
RTVSPost2010Prop44ColorIndex
 90
        5
102
RTVSPost2010Prop44ColorRGB
 90
      255
102
RTVSPost2010PropOp44
 70
     1
102
RTVSPost2010Prop45
280
     0
102
RTVSPost2010PropOp45
 70
     1
102
RTVSPost2010Prop46
 90
       50
102
RTVSPost2010PropOp46
 70
     1
102
RTVSPost2010Prop47
 90
       50
102
RTVSPost2010PropOp47
 70
     1
102
RTVSPost2010Prop48
 90
       50
102
RTVSPost2010PropOp48
 70
     1
102
RTVSPost2010Prop49
280
     0
102
RTVSPost2010PropOp49
 70
     1
102
RTVSPost2010Prop50
 90
       50
102
RTVSPost2010PropOp50
 70
     1
102
RTVSPost2010Prop51ColorIndex
 90
      256
102
RTVSPost2010Prop51ColorRGB
 90
-16777216
102
RTVSPost2010PropOp51
 70
     0
102
RTVSPost2010Prop52
140
1.0
102
RTVSPost2010PropOp52
 70
     0
102
RTVSPost2010Prop53
 90
        2
102
RTVSPost2010PropOp53
 70
     1
102
RTVSPost2010Prop54
  1
strokes_ogs.tif
102
RTVSPost2010PropOp54
 70
     1
102
RTVSPost2010Prop55
280
     0
102
RTVSPost2010PropOp55
 70
     1
102
RTVSPost2010Prop56
140
1.0
102
RTVSPost2010PropOp56
 70
     1
102
RTVSPost2010Prop57
140
1.0
102
RTVSPost2010PropOp57
 70
     1
  0
XRECORD
  5
407
102
{ACAD_REACTORS
330
406
102
}
330
406
100
AcDbXrecord
280
     1
102
RTVSPropertyOp0
 70
     0
102
RTVSPropertyOp1
 70
     0
102
RTVSPropertyOp2
 70
     0
102
RTVSPropertyOp3
 70
     0
102
RTVSPropertyOp4
 70
     0
102
RTVSPropertyOp5
 70
     0
102
RTVSPropertyOp6
 70
     0
102
RTVSPropertyOp7
 70
     0
102
RTVSPropertyOp8
 70
     0
102
RTVSPropertyOp9
 70
     0
102
RTVSPropertyOp10
 70
     0
102
RTVSPropertyOp11
 70
     0
102
RTVSPropertyOp12
 70
     0
102
RTVSPropertyOp13
 70
     0
102
RTVSPropertyOp14
 70
     2
102
RTVSPropertyOp15
 70
     0
102
RTVSPropertyOp16
 70
     0
102
RTVSPropertyOp17
 70
     0
102
RTVSPropertyOp18
 70
     0
102
RTVSPropertyOp19
 70
     0
102
RTVSPropertyOp20
 70
     0
102
RTVSPropertyOp21
 70
     0
102
RTVSPropertyOp22
 70
     0
102
RTVSPropertyOp23
 70
     0
102
RTVSPropertyOp24
 70
     0
102
RTVSPropertyOp25
 70
     0
102
RTVSPropertyOp26
 70
     0
102
RTVSPropertyOp27
 70
     0
102
RTVSPropertyOp28
 70
     0
102
RTVSPropertyOp29
 70
     0
102
RTVSPropertyOp30
 70
     0
102
RTVSPropertyOp31
 70
     0
102
RTVSPropertyOp32
 70
     0
102
RTVSPropertyOp33
 70
     0
102
RTVSPropertyOp34
 70
     0
102
RTVSPropertyOp35
 70
     0
102
RTVSPropertyOp36
 70
     0
102
RTVSPropertyOp37
 70
     0
102
RTVSPropertyOp38
 70
     0
102
RTVSPropertyOp39
 70
     0
102
RTVSPropertyOp40
 70
     0
102
RTVSPropertyOp41
 70
     0
102
RTVSPropertyOp42
 70
     0
102
RTVSPropertyOp43
 70
     0
102
RTVSPropertyOp44
 70
     0
102
RTVSPropertyOp45
 70
     0
102
RTVSPropertyOp46
 70
     0
102
RTVSPropertyOp47
 70
     0
102
RTVSPropertyOp48
 70
     0
102
RTVSPropertyOp49
 70
     0
102
RTVSPropertyOp50
 70
     0
102
RTVSPropertyOp51
 70
     0
102
RTVSPropertyOp52
 70
     0
102
RTVSPropertyOp53
 70
     0
102
RTVSPropertyOp54
 70
     0
102
RTVSPropertyOp55
 70
     0
102
RTVSPropertyOp56
 70
     0
102
RTVSPropertyOp57
 70
     0
102
RTVSPost2010Prop28
280
     0
102
RTVSPost2010PropOp28
 70
     0
102
RTVSPost2010Prop29
280
     1
102
RTVSPost2010PropOp29
 70
     0
102
RTVSPost2010Prop30
280
     1
102
RTVSPost2010PropOp30
 70
     0
102
RTVSPost2010Prop31
280
     0
102
RTVSPost2010PropOp31
 70
     0
102
RTVSPost2010Prop32
280
     0
102
RTVSPost2010PropOp32
 70
     0
102
RTVSPost2010Prop33
280
     0
102
RTVSPost2010PropOp33
 70
     0
102
RTVSPost2010Prop34
280
     0
102
RTVSPost2010PropOp34
 70
     0
102
RTVSPost2010Prop35
280
     0
102
RTVSPost2010PropOp35
 70
     0
102
RTVSPost2010Prop36
280
     0
102
RTVSPost2010PropOp36
 70
     0
102
RTVSPost2010Prop37
 90
       50
102
RTVSPost2010PropOp37
 70
     0
102
RTVSPost2010Prop38
140
0.0
102
RTVSPost2010PropOp38
 70
     0
102
RTVSPost2010Prop39
140
1.0
102
RTVSPost2010PropOp39
 70
     0
102
RTVSPost2010Prop40
 90
        0
102
RTVSPost2010PropOp40
 70
     0
102
RTVSPost2010Prop41ColorIndex
 90
       18
102
RTVSPost2010Prop41ColorRGB
 90
        0
102
RTVSPost2010PropOp41
 70
     0
102
RTVSPost2010Prop42
 90
       50
102
RTVSPost2010PropOp42
 70
     0
102
RTVSPost2010Prop43
 90
        3
102
RTVSPost2010PropOp43
 70
     0
102
RTVSPost2010Prop44ColorIndex
 90
        5
102
RTVSPost2010Prop44ColorRGB
 90
      255
102
RTVSPost2010PropOp44
 70
     0
102
RTVSPost2010Prop45
280
     0
102
RTVSPost2010PropOp45
 70
     0
102
RTVSPost2010Prop46
 90
       50
102
RTVSPost2010PropOp46
 70
     0
102
RTVSPost2010Prop47
 90
       50
102
RTVSPost2010PropOp47
 70
     0
102
RTVSPost2010Prop48
 90
       50
102
RTVSPost2010PropOp48
 70
     0
102
RTVSPost2010Prop49
280
     0
102
RTVSPost2010PropOp49
 70
     0
102
RTVSPost2010Prop50
 90
       50
102
RTVSPost2010PropOp50
 70
     0
102
RTVSPost2010Prop51ColorIndex
 90
      256
102
RTVSPost2010Prop51ColorRGB
 90
-16777216
102
RTVSPost2010PropOp51
 70
     0
102
RTVSPost2010Prop52
140
1.0
102
RTVSPost2010PropOp52
 70
     0
102
RTVSPost2010Prop53
 90
        2
102
RTVSPost2010PropOp53
 70
     0
102
RTVSPost2010Prop54
  1
strokes_ogs.tif
102
RTVSPost2010PropOp54
 70
     0
102
RTVSPost2010Prop55
280
     0
102
RTVSPost2010PropOp55
 70
     0
102
RTVSPost2010Prop56
140
1.0
102
RTVSPost2010PropOp56
 70
     0
102
RTVSPost2010Prop57
140
1.0
102
RTVSPost2010PropOp57
 70
     0
  0
XRECORD
  5
3F5
102
{ACAD_REACTORS
330
3F4
102
}
330
3F4
100
AcDbXrecord
280
     1
102
RTVSPropertyOp0
 70
     1
102
RTVSPropertyOp1
 70
     1
102
RTVSPropertyOp2
 70
     1
102
RTVSPropertyOp3
 70
     1
102
RTVSPropertyOp4
 70
     1
102
RTVSPropertyOp5
 70
     1
102
RTVSPropertyOp6
 70
     1
102
RTVSPropertyOp7
 70
     1
102
RTVSPropertyOp8
 70
     1
102
RTVSPropertyOp9
 70
     1
102
RTVSPropertyOp10
 70
     1
102
RTVSPropertyOp11
 70
     1
102
RTVSPropertyOp12
 70
     1
102
RTVSPropertyOp13
 70
     1
102
RTVSPropertyOp14
 70
     1
102
RTVSPropertyOp15
 70
     1
102
RTVSPropertyOp16
 70
     1
102
RTVSPropertyOp17
 70
     1
102
RTVSPropertyOp18
 70
     1
102
RTVSPropertyOp19
 70
     1
102
RTVSPropertyOp20
 70
     1
102
RTVSPropertyOp21
 70
     1
102
RTVSPropertyOp22
 70
     1
102
RTVSPropertyOp23
 70
     1
102
RTVSPropertyOp24
 70
     1
102
RTVSPropertyOp25
 70
     1
102
RTVSPropertyOp26
 70
     1
102
RTVSPropertyOp27
 70
     1
102
RTVSPropertyOp28
 70
     1
102
RTVSPropertyOp29
 70
     1
102
RTVSPropertyOp30
 70
     1
102
RTVSPropertyOp31
 70
     1
102
RTVSPropertyOp32
 70
     1
102
RTVSPropertyOp33
 70
     1
102
RTVSPropertyOp34
 70
     1
102
RTVSPropertyOp35
 70
     1
102
RTVSPropertyOp36
 70
     1
102
RTVSPropertyOp37
 70
     1
102
RTVSPropertyOp38
 70
     1
102
RTVSPropertyOp39
 70
     1
102
RTVSPropertyOp40
 70
     1
102
RTVSPropertyOp41
 70
     1
102
RTVSPropertyOp42
 70
     1
102
RTVSPropertyOp43
 70
     1
102
RTVSPropertyOp44
 70
     1
102
RTVSPropertyOp45
 70
     1
102
RTVSPropertyOp46
 70
     1
102
RTVSPropertyOp47
 70
     1
102
RTVSPropertyOp48
 70
     1
102
RTVSPropertyOp49
 70
     1
102
RTVSPropertyOp50
 70
     1
102
RTVSPropertyOp51
 70
     0
102
RTVSPropertyOp52
 70
     0
102
RTVSPropertyOp53
 70
     1
102
RTVSPropertyOp54
 70
     1
102
RTVSPropertyOp55
 70
     1
102
RTVSPropertyOp56
 70
     1
102
RTVSPropertyOp57
 70
     1
102
RTVSPost2010Prop28
280
     0
102
RTVSPost2010PropOp28
 70
     1
102
RTVSPost2010Prop29
280
     1
102
RTVSPost2010PropOp29
 70
     1
102
RTVSPost2010Prop30
280
     1
102
RTVSPost2010PropOp30
 70
     1
102
RTVSPost2010Prop31
280
     0
102
RTVSPost2010PropOp31
 70
     1
102
RTVSPost2010Prop32
280
     0
102
RTVSPost2010PropOp32
 70
     1
102
RTVSPost2010Prop33
280
     0
102
RTVSPost2010PropOp33
 70
     1
102
RTVSPost2010Prop34
280
     0
102
RTVSPost2010PropOp34
 70
     1
102
RTVSPost2010Prop35
280
     0
102
RTVSPost2010PropOp35
 70
     1
102
RTVSPost2010Prop36
280
     0
102
RTVSPost2010PropOp36
 70
     1
102
RTVSPost2010Prop37
 90
       50
102
RTVSPost2010PropOp37
 70
     1
102
RTVSPost2010Prop38
140
0.0
102
RTVSPost2010PropOp38
 70
     1
102
RTVSPost2010Prop39
140
1.0
102
RTVSPost2010PropOp39
 70
     1
102
RTVSPost2010Prop40
 90
        0
102
RTVSPost2010PropOp40
 70
     1
102
RTVSPost2010Prop41ColorIndex
 90
       18
102
RTVSPost2010Prop41ColorRGB
 90
        0
102
RTVSPost2010PropOp41
 70
     1
102
RTVSPost2010Prop42
 90
       50
102
RTVSPost2010PropOp42
 70
     1
102
RTVSPost2010Prop43
 90
        3
102
RTVSPost2010PropOp43
 70
     1
102
RTVSPost2010Prop44ColorIndex
 90
        5
102
RTVSPost2010Prop44ColorRGB
 90
      255
102
RTVSPost2010PropOp44
 70
     1
102
RTVSPost2010Prop45
280
     0
102
RTVSPost2010PropOp45
 70
     1
102
RTVSPost2010Prop46
 90
       50
102
RTVSPost2010PropOp46
 70
     1
102
RTVSPost2010Prop47
 90
       50
102
RTVSPost2010PropOp47
 70
     1
102
RTVSPost2010Prop48
 90
       50
102
RTVSPost2010PropOp48
 70
     1
102
RTVSPost2010Prop49
280
     0
102
RTVSPost2010PropOp49
 70
     1
102
RTVSPost2010Prop50
 90
       50
102
RTVSPost2010PropOp50
 70
     1
102
RTVSPost2010Prop51ColorIndex
 90
      256
102
RTVSPost2010Prop51ColorRGB
 90
-16777216
102
RTVSPost2010PropOp51
 70
     0
102
RTVSPost2010Prop52
140
1.0
102
RTVSPost2010PropOp52
 70
     0
102
RTVSPost2010Prop53
 90
        2
102
RTVSPost2010PropOp53
 70
     1
102
RTVSPost2010Prop54
  1
strokes_ogs.tif
102
RTVSPost2010PropOp54
 70
     1
102
RTVSPost2010Prop55
280
     0
102
RTVSPost2010PropOp55
 70
     1
102
RTVSPost2010Prop56
140
1.0
102
RTVSPost2010PropOp56
 70
     1
102
RTVSPost2010Prop57
140
1.0
102
RTVSPost2010PropOp57
 70
     1
  0
XRECORD
  5
413
102
{ACAD_REACTORS
330
412
102
}
330
412
100
AcDbXrecord
280
     1
102
RTVSPropertyOp0
 70
     1
102
RTVSPropertyOp1
 70
     1
102
RTVSPropertyOp2
 70
     1
102
RTVSPropertyOp3
 70
     1
102
RTVSPropertyOp4
 70
     1
102
RTVSPropertyOp5
 70
     1
102
RTVSPropertyOp6
 70
     1
102
RTVSPropertyOp7
 70
     1
102
RTVSPropertyOp8
 70
     1
102
RTVSPropertyOp9
 70
     1
102
RTVSPropertyOp10
 70
     1
102
RTVSPropertyOp11
 70
     1
102
RTVSPropertyOp12
 70
     1
102
RTVSPropertyOp13
 70
     1
102
RTVSPropertyOp14
 70
     1
102
RTVSPropertyOp15
 70
     1
102
RTVSPropertyOp16
 70
     1
102
RTVSPropertyOp17
 70
     1
102
RTVSPropertyOp18
 70
     1
102
RTVSPropertyOp19
 70
     1
102
RTVSPropertyOp20
 70
     1
102
RTVSPropertyOp21
 70
     1
102
RTVSPropertyOp22
 70
     1
102
RTVSPropertyOp23
 70
     1
102
RTVSPropertyOp24
 70
     1
102
RTVSPropertyOp25
 70
     1
102
RTVSPropertyOp26
 70
     1
102
RTVSPropertyOp27
 70
     1
102
RTVSPropertyOp28
 70
     1
102
RTVSPropertyOp29
 70
     1
102
RTVSPropertyOp30
 70
     1
102
RTVSPropertyOp31
 70
     1
102
RTVSPropertyOp32
 70
     1
102
RTVSPropertyOp33
 70
     1
102
RTVSPropertyOp34
 70
     1
102
RTVSPropertyOp35
 70
     1
102
RTVSPropertyOp36
 70
     1
102
RTVSPropertyOp37
 70
     1
102
RTVSPropertyOp38
 70
     1
102
RTVSPropertyOp39
 70
     1
102
RTVSPropertyOp40
 70
     1
102
RTVSPropertyOp41
 70
     1
102
RTVSPropertyOp42
 70
     1
102
RTVSPropertyOp43
 70
     1
102
RTVSPropertyOp44
 70
     1
102
RTVSPropertyOp45
 70
     1
102
RTVSPropertyOp46
 70
     1
102
RTVSPropertyOp47
 70
     1
102
RTVSPropertyOp48
 70
     1
102
RTVSPropertyOp49
 70
     1
102
RTVSPropertyOp50
 70
     1
102
RTVSPropertyOp51
 70
     0
102
RTVSPropertyOp52
 70
     0
102
RTVSPropertyOp53
 70
     1
102
RTVSPropertyOp54
 70
     1
102
RTVSPropertyOp55
 70
     1
102
RTVSPropertyOp56
 70
     1
102
RTVSPropertyOp57
 70
     1
102
RTVSPost2010Prop28
280
     0
102
RTVSPost2010PropOp28
 70
     1
102
RTVSPost2010Prop29
280
     1
102
RTVSPost2010PropOp29
 70
     1
102
RTVSPost2010Prop30
280
     1
102
RTVSPost2010PropOp30
 70
     1
102
RTVSPost2010Prop31
280
     0
102
RTVSPost2010PropOp31
 70
     1
102
RTVSPost2010Prop32
280
     0
102
RTVSPost2010PropOp32
 70
     1
102
RTVSPost2010Prop33
280
     0
102
RTVSPost2010PropOp33
 70
     1
102
RTVSPost2010Prop34
280
     0
102
RTVSPost2010PropOp34
 70
     1
102
RTVSPost2010Prop35
280
     0
102
RTVSPost2010PropOp35
 70
     1
102
RTVSPost2010Prop36
280
     0
102
RTVSPost2010PropOp36
 70
     1
102
RTVSPost2010Prop37
 90
       50
102
RTVSPost2010PropOp37
 70
     1
102
RTVSPost2010Prop38
140
0.0
102
RTVSPost2010PropOp38
 70
     1
102
RTVSPost2010Prop39
140
1.0
102
RTVSPost2010PropOp39
 70
     1
102
RTVSPost2010Prop40
 90
        0
102
RTVSPost2010PropOp40
 70
     1
102
RTVSPost2010Prop41ColorIndex
 90
       18
102
RTVSPost2010Prop41ColorRGB
 90
        0
102
RTVSPost2010PropOp41
 70
     1
102
RTVSPost2010Prop42
 90
       50
102
RTVSPost2010PropOp42
 70
     1
102
RTVSPost2010Prop43
 90
        3
102
RTVSPost2010PropOp43
 70
     1
102
RTVSPost2010Prop44ColorIndex
 90
        5
102
RTVSPost2010Prop44ColorRGB
 90
      255
102
RTVSPost2010PropOp44
 70
     1
102
RTVSPost2010Prop45
280
     0
102
RTVSPost2010PropOp45
 70
     1
102
RTVSPost2010Prop46
 90
       50
102
RTVSPost2010PropOp46
 70
     1
102
RTVSPost2010Prop47
 90
       50
102
RTVSPost2010PropOp47
 70
     1
102
RTVSPost2010Prop48
 90
       50
102
RTVSPost2010PropOp48
 70
     1
102
RTVSPost2010Prop49
280
     0
102
RTVSPost2010PropOp49
 70
     1
102
RTVSPost2010Prop50
 90
       50
102
RTVSPost2010PropOp50
 70
     1
102
RTVSPost2010Prop51ColorIndex
 90
      256
102
RTVSPost2010Prop51ColorRGB
 90
-16777216
102
RTVSPost2010PropOp51
 70
     0
102
RTVSPost2010Prop52
140
1.0
102
RTVSPost2010PropOp52
 70
     0
102
RTVSPost2010Prop53
 90
        2
102
RTVSPost2010PropOp53
 70
     1
102
RTVSPost2010Prop54
  1
strokes_ogs.tif
102
RTVSPost2010PropOp54
 70
     1
102
RTVSPost2010Prop55
280
     0
102
RTVSPost2010PropOp55
 70
     1
102
RTVSPost2010Prop56
140
1.0
102
RTVSPost2010PropOp56
 70
     1
102
RTVSPost2010Prop57
140
1.0
102
RTVSPost2010PropOp57
 70
     1
  0
XRECORD
  5
411
102
{ACAD_REACTORS
330
410
102
}
330
410
100
AcDbXrecord
280
     1
102
RTVSPropertyOp0
 70
     1
102
RTVSPropertyOp1
 70
     1
102
RTVSPropertyOp2
 70
     1
102
RTVSPropertyOp3
 70
     1
102
RTVSPropertyOp4
 70
     1
102
RTVSPropertyOp5
 70
     1
102
RTVSPropertyOp6
 70
     1
102
RTVSPropertyOp7
 70
     1
102
RTVSPropertyOp8
 70
     1
102
RTVSPropertyOp9
 70
     1
102
RTVSPropertyOp10
 70
     1
102
RTVSPropertyOp11
 70
     1
102
RTVSPropertyOp12
 70
     1
102
RTVSPropertyOp13
 70
     1
102
RTVSPropertyOp14
 70
     1
102
RTVSPropertyOp15
 70
     1
102
RTVSPropertyOp16
 70
     1
102
RTVSPropertyOp17
 70
     1
102
RTVSPropertyOp18
 70
     1
102
RTVSPropertyOp19
 70
     1
102
RTVSPropertyOp20
 70
     1
102
RTVSPropertyOp21
 70
     1
102
RTVSPropertyOp22
 70
     1
102
RTVSPropertyOp23
 70
     1
102
RTVSPropertyOp24
 70
     1
102
RTVSPropertyOp25
 70
     1
102
RTVSPropertyOp26
 70
     1
102
RTVSPropertyOp27
 70
     1
102
RTVSPropertyOp28
 70
     1
102
RTVSPropertyOp29
 70
     1
102
RTVSPropertyOp30
 70
     1
102
RTVSPropertyOp31
 70
     1
102
RTVSPropertyOp32
 70
     1
102
RTVSPropertyOp33
 70
     1
102
RTVSPropertyOp34
 70
     1
102
RTVSPropertyOp35
 70
     1
102
RTVSPropertyOp36
 70
     1
102
RTVSPropertyOp37
 70
     1
102
RTVSPropertyOp38
 70
     1
102
RTVSPropertyOp39
 70
     1
102
RTVSPropertyOp40
 70
     1
102
RTVSPropertyOp41
 70
     1
102
RTVSPropertyOp42
 70
     1
102
RTVSPropertyOp43
 70
     1
102
RTVSPropertyOp44
 70
     1
102
RTVSPropertyOp45
 70
     1
102
RTVSPropertyOp46
 70
     1
102
RTVSPropertyOp47
 70
     1
102
RTVSPropertyOp48
 70
     1
102
RTVSPropertyOp49
 70
     1
102
RTVSPropertyOp50
 70
     1
102
RTVSPropertyOp51
 70
     0
102
RTVSPropertyOp52
 70
     0
102
RTVSPropertyOp53
 70
     1
102
RTVSPropertyOp54
 70
     1
102
RTVSPropertyOp55
 70
     1
102
RTVSPropertyOp56
 70
     1
102
RTVSPropertyOp57
 70
     1
102
RTVSPost2010Prop28
280
     0
102
RTVSPost2010PropOp28
 70
     1
102
RTVSPost2010Prop29
280
     1
102
RTVSPost2010PropOp29
 70
     1
102
RTVSPost2010Prop30
280
     1
102
RTVSPost2010PropOp30
 70
     1
102
RTVSPost2010Prop31
280
     0
102
RTVSPost2010PropOp31
 70
     1
102
RTVSPost2010Prop32
280
     0
102
RTVSPost2010PropOp32
 70
     1
102
RTVSPost2010Prop33
280
     0
102
RTVSPost2010PropOp33
 70
     1
102
RTVSPost2010Prop34
280
     0
102
RTVSPost2010PropOp34
 70
     1
102
RTVSPost2010Prop35
280
     0
102
RTVSPost2010PropOp35
 70
     1
102
RTVSPost2010Prop36
280
     0
102
RTVSPost2010PropOp36
 70
     1
102
RTVSPost2010Prop37
 90
       50
102
RTVSPost2010PropOp37
 70
     1
102
RTVSPost2010Prop38
140
0.0
102
RTVSPost2010PropOp38
 70
     1
102
RTVSPost2010Prop39
140
1.0
102
RTVSPost2010PropOp39
 70
     1
102
RTVSPost2010Prop40
 90
        0
102
RTVSPost2010PropOp40
 70
     1
102
RTVSPost2010Prop41ColorIndex
 90
       18
102
RTVSPost2010Prop41ColorRGB
 90
        0
102
RTVSPost2010PropOp41
 70
     1
102
RTVSPost2010Prop42
 90
       50
102
RTVSPost2010PropOp42
 70
     1
102
RTVSPost2010Prop43
 90
        3
102
RTVSPost2010PropOp43
 70
     1
102
RTVSPost2010Prop44ColorIndex
 90
        5
102
RTVSPost2010Prop44ColorRGB
 90
      255
102
RTVSPost2010PropOp44
 70
     1
102
RTVSPost2010Prop45
280
     0
102
RTVSPost2010PropOp45
 70
     1
102
RTVSPost2010Prop46
 90
       50
102
RTVSPost2010PropOp46
 70
     1
102
RTVSPost2010Prop47
 90
       50
102
RTVSPost2010PropOp47
 70
     1
102
RTVSPost2010Prop48
 90
       50
102
RTVSPost2010PropOp48
 70
     1
102
RTVSPost2010Prop49
280
     0
102
RTVSPost2010PropOp49
 70
     1
102
RTVSPost2010Prop50
 90
       50
102
RTVSPost2010PropOp50
 70
     1
102
RTVSPost2010Prop51ColorIndex
 90
      256
102
RTVSPost2010Prop51ColorRGB
 90
-16777216
102
RTVSPost2010PropOp51
 70
     0
102
RTVSPost2010Prop52
140
1.0
102
RTVSPost2010PropOp52
 70
     0
102
RTVSPost2010Prop53
 90
        2
102
RTVSPost2010PropOp53
 70
     1
102
RTVSPost2010Prop54
  1
strokes_ogs.tif
102
RTVSPost2010PropOp54
 70
     1
102
RTVSPost2010Prop55
280
     0
102
RTVSPost2010PropOp55
 70
     1
102
RTVSPost2010Prop56
140
1.0
102
RTVSPost2010PropOp56
 70
     1
102
RTVSPost2010Prop57
140
1.0
102
RTVSPost2010PropOp57
 70
     1
  0
XRECORD
  5
40B
102
{ACAD_REACTORS
330
40A
102
}
330
40A
100
AcDbXrecord
280
     1
102
RTVSPropertyOp0
 70
     1
102
RTVSPropertyOp1
 70
     1
102
RTVSPropertyOp2
 70
     1
102
RTVSPropertyOp3
 70
     1
102
RTVSPropertyOp4
 70
     1
102
RTVSPropertyOp5
 70
     1
102
RTVSPropertyOp6
 70
     1
102
RTVSPropertyOp7
 70
     1
102
RTVSPropertyOp8
 70
     1
102
RTVSPropertyOp9
 70
     1
102
RTVSPropertyOp10
 70
     1
102
RTVSPropertyOp11
 70
     1
102
RTVSPropertyOp12
 70
     1
102
RTVSPropertyOp13
 70
     1
102
RTVSPropertyOp14
 70
     1
102
RTVSPropertyOp15
 70
     1
102
RTVSPropertyOp16
 70
     1
102
RTVSPropertyOp17
 70
     1
102
RTVSPropertyOp18
 70
     1
102
RTVSPropertyOp19
 70
     1
102
RTVSPropertyOp20
 70
     1
102
RTVSPropertyOp21
 70
     1
102
RTVSPropertyOp22
 70
     1
102
RTVSPropertyOp23
 70
     1
102
RTVSPropertyOp24
 70
     1
102
RTVSPropertyOp25
 70
     1
102
RTVSPropertyOp26
 70
     1
102
RTVSPropertyOp27
 70
     1
102
RTVSPropertyOp28
 70
     1
102
RTVSPropertyOp29
 70
     1
102
RTVSPropertyOp30
 70
     1
102
RTVSPropertyOp31
 70
     1
102
RTVSPropertyOp32
 70
     1
102
RTVSPropertyOp33
 70
     1
102
RTVSPropertyOp34
 70
     1
102
RTVSPropertyOp35
 70
     1
102
RTVSPropertyOp36
 70
     1
102
RTVSPropertyOp37
 70
     1
102
RTVSPropertyOp38
 70
     1
102
RTVSPropertyOp39
 70
     1
102
RTVSPropertyOp40
 70
     1
102
RTVSPropertyOp41
 70
     1
102
RTVSPropertyOp42
 70
     1
102
RTVSPropertyOp43
 70
     1
102
RTVSPropertyOp44
 70
     1
102
RTVSPropertyOp45
 70
     1
102
RTVSPropertyOp46
 70
     1
102
RTVSPropertyOp47
 70
     1
102
RTVSPropertyOp48
 70
     1
102
RTVSPropertyOp49
 70
     1
102
RTVSPropertyOp50
 70
     1
102
RTVSPropertyOp51
 70
     0
102
RTVSPropertyOp52
 70
     0
102
RTVSPropertyOp53
 70
     1
102
RTVSPropertyOp54
 70
     1
102
RTVSPropertyOp55
 70
     1
102
RTVSPropertyOp56
 70
     1
102
RTVSPropertyOp57
 70
     1
102
RTVSPost2010Prop28
280
     0
102
RTVSPost2010PropOp28
 70
     1
102
RTVSPost2010Prop29
280
     1
102
RTVSPost2010PropOp29
 70
     1
102
RTVSPost2010Prop30
280
     1
102
RTVSPost2010PropOp30
 70
     1
102
RTVSPost2010Prop31
280
     0
102
RTVSPost2010PropOp31
 70
     1
102
RTVSPost2010Prop32
280
     0
102
RTVSPost2010PropOp32
 70
     1
102
RTVSPost2010Prop33
280
     0
102
RTVSPost2010PropOp33
 70
     1
102
RTVSPost2010Prop34
280
     0
102
RTVSPost2010PropOp34
 70
     1
102
RTVSPost2010Prop35
280
     0
102
RTVSPost2010PropOp35
 70
     1
102
RTVSPost2010Prop36
280
     0
102
RTVSPost2010PropOp36
 70
     1
102
RTVSPost2010Prop37
 90
       50
102
RTVSPost2010PropOp37
 70
     1
102
RTVSPost2010Prop38
140
0.0
102
RTVSPost2010PropOp38
 70
     1
102
RTVSPost2010Prop39
140
1.0
102
RTVSPost2010PropOp39
 70
     1
102
RTVSPost2010Prop40
 90
        0
102
RTVSPost2010PropOp40
 70
     1
102
RTVSPost2010Prop41ColorIndex
 90
       18
102
RTVSPost2010Prop41ColorRGB
 90
        0
102
RTVSPost2010PropOp41
 70
     1
102
RTVSPost2010Prop42
 90
       50
102
RTVSPost2010PropOp42
 70
     1
102
RTVSPost2010Prop43
 90
        3
102
RTVSPost2010PropOp43
 70
     1
102
RTVSPost2010Prop44ColorIndex
 90
        5
102
RTVSPost2010Prop44ColorRGB
 90
      255
102
RTVSPost2010PropOp44
 70
     1
102
RTVSPost2010Prop45
280
     0
102
RTVSPost2010PropOp45
 70
     1
102
RTVSPost2010Prop46
 90
       50
102
RTVSPost2010PropOp46
 70
     1
102
RTVSPost2010Prop47
 90
       50
102
RTVSPost2010PropOp47
 70
     1
102
RTVSPost2010Prop48
 90
       50
102
RTVSPost2010PropOp48
 70
     1
102
RTVSPost2010Prop49
280
     0
102
RTVSPost2010PropOp49
 70
     1
102
RTVSPost2010Prop50
 90
       50
102
RTVSPost2010PropOp50
 70
     1
102
RTVSPost2010Prop51ColorIndex
 90
      256
102
RTVSPost2010Prop51ColorRGB
 90
-16777216
102
RTVSPost2010PropOp51
 70
     0
102
RTVSPost2010Prop52
140
1.0
102
RTVSPost2010PropOp52
 70
     0
102
RTVSPost2010Prop53
 90
        2
102
RTVSPost2010PropOp53
 70
     1
102
RTVSPost2010Prop54
  1
strokes_ogs.tif
102
RTVSPost2010PropOp54
 70
     1
102
RTVSPost2010Prop55
280
     0
102
RTVSPost2010PropOp55
 70
     1
102
RTVSPost2010Prop56
140
1.0
102
RTVSPost2010PropOp56
 70
     1
102
RTVSPost2010Prop57
140
1.0
102
RTVSPost2010PropOp57
 70
     1
  0
XRECORD
  5
40D
102
{ACAD_REACTORS
330
40C
102
}
330
40C
100
AcDbXrecord
280
     1
102
RTVSPropertyOp0
 70
     1
102
RTVSPropertyOp1
 70
     1
102
RTVSPropertyOp2
 70
     1
102
RTVSPropertyOp3
 70
     1
102
RTVSPropertyOp4
 70
     1
102
RTVSPropertyOp5
 70
     1
102
RTVSPropertyOp6
 70
     1
102
RTVSPropertyOp7
 70
     1
102
RTVSPropertyOp8
 70
     1
102
RTVSPropertyOp9
 70
     1
102
RTVSPropertyOp10
 70
     1
102
RTVSPropertyOp11
 70
     1
102
RTVSPropertyOp12
 70
     1
102
RTVSPropertyOp13
 70
     1
102
RTVSPropertyOp14
 70
     1
102
RTVSPropertyOp15
 70
     1
102
RTVSPropertyOp16
 70
     1
102
RTVSPropertyOp17
 70
     1
102
RTVSPropertyOp18
 70
     1
102
RTVSPropertyOp19
 70
     1
102
RTVSPropertyOp20
 70
     1
102
RTVSPropertyOp21
 70
     1
102
RTVSPropertyOp22
 70
     1
102
RTVSPropertyOp23
 70
     1
102
RTVSPropertyOp24
 70
     1
102
RTVSPropertyOp25
 70
     1
102
RTVSPropertyOp26
 70
     1
102
RTVSPropertyOp27
 70
     1
102
RTVSPropertyOp28
 70
     1
102
RTVSPropertyOp29
 70
     1
102
RTVSPropertyOp30
 70
     1
102
RTVSPropertyOp31
 70
     1
102
RTVSPropertyOp32
 70
     1
102
RTVSPropertyOp33
 70
     1
102
RTVSPropertyOp34
 70
     1
102
RTVSPropertyOp35
 70
     1
102
RTVSPropertyOp36
 70
     1
102
RTVSPropertyOp37
 70
     1
102
RTVSPropertyOp38
 70
     1
102
RTVSPropertyOp39
 70
     1
102
RTVSPropertyOp40
 70
     1
102
RTVSPropertyOp41
 70
     1
102
RTVSPropertyOp42
 70
     1
102
RTVSPropertyOp43
 70
     1
102
RTVSPropertyOp44
 70
     1
102
RTVSPropertyOp45
 70
     1
102
RTVSPropertyOp46
 70
     1
102
RTVSPropertyOp47
 70
     1
102
RTVSPropertyOp48
 70
     1
102
RTVSPropertyOp49
 70
     1
102
RTVSPropertyOp50
 70
     1
102
RTVSPropertyOp51
 70
     0
102
RTVSPropertyOp52
 70
     0
102
RTVSPropertyOp53
 70
     1
102
RTVSPropertyOp54
 70
     1
102
RTVSPropertyOp55
 70
     1
102
RTVSPropertyOp56
 70
     1
102
RTVSPropertyOp57
 70
     1
102
RTVSPost2010Prop28
280
     0
102
RTVSPost2010PropOp28
 70
     1
102
RTVSPost2010Prop29
280
     1
102
RTVSPost2010PropOp29
 70
     1
102
RTVSPost2010Prop30
280
     1
102
RTVSPost2010PropOp30
 70
     1
102
RTVSPost2010Prop31
280
     0
102
RTVSPost2010PropOp31
 70
     1
102
RTVSPost2010Prop32
280
     0
102
RTVSPost2010PropOp32
 70
     1
102
RTVSPost2010Prop33
280
     0
102
RTVSPost2010PropOp33
 70
     1
102
RTVSPost2010Prop34
280
     0
102
RTVSPost2010PropOp34
 70
     1
102
RTVSPost2010Prop35
280
     0
102
RTVSPost2010PropOp35
 70
     1
102
RTVSPost2010Prop36
280
     0
102
RTVSPost2010PropOp36
 70
     1
102
RTVSPost2010Prop37
 90
       50
102
RTVSPost2010PropOp37
 70
     1
102
RTVSPost2010Prop38
140
0.0
102
RTVSPost2010PropOp38
 70
     1
102
RTVSPost2010Prop39
140
1.0
102
RTVSPost2010PropOp39
 70
     1
102
RTVSPost2010Prop40
 90
        0
102
RTVSPost2010PropOp40
 70
     1
102
RTVSPost2010Prop41ColorIndex
 90
       18
102
RTVSPost2010Prop41ColorRGB
 90
        0
102
RTVSPost2010PropOp41
 70
     1
102
RTVSPost2010Prop42
 90
       50
102
RTVSPost2010PropOp42
 70
     1
102
RTVSPost2010Prop43
 90
        3
102
RTVSPost2010PropOp43
 70
     1
102
RTVSPost2010Prop44ColorIndex
 90
        5
102
RTVSPost2010Prop44ColorRGB
 90
      255
102
RTVSPost2010PropOp44
 70
     1
102
RTVSPost2010Prop45
280
     0
102
RTVSPost2010PropOp45
 70
     1
102
RTVSPost2010Prop46
 90
       50
102
RTVSPost2010PropOp46
 70
     1
102
RTVSPost2010Prop47
 90
       50
102
RTVSPost2010PropOp47
 70
     1
102
RTVSPost2010Prop48
 90
       50
102
RTVSPost2010PropOp48
 70
     1
102
RTVSPost2010Prop49
280
     0
102
RTVSPost2010PropOp49
 70
     1
102
RTVSPost2010Prop50
 90
       50
102
RTVSPost2010PropOp50
 70
     1
102
RTVSPost2010Prop51ColorIndex
 90
      256
102
RTVSPost2010Prop51ColorRGB
 90
-16777216
102
RTVSPost2010PropOp51
 70
     0
102
RTVSPost2010Prop52
140
1.0
102
RTVSPost2010PropOp52
 70
     0
102
RTVSPost2010Prop53
 90
        2
102
RTVSPost2010PropOp53
 70
     1
102
RTVSPost2010Prop54
  1
strokes_ogs.tif
102
RTVSPost2010PropOp54
 70
     1
102
RTVSPost2010Prop55
280
     0
102
RTVSPost2010PropOp55
 70
     1
102
RTVSPost2010Prop56
140
1.0
102
RTVSPost2010PropOp56
 70
     1
102
RTVSPost2010Prop57
140
1.0
102
RTVSPost2010PropOp57
 70
     1
  0
XRECORD
  5
3FD
102
{ACAD_REACTORS
330
3FC
102
}
330
3FC
100
AcDbXrecord
280
     1
102
RTVSPropertyOp0
 70
     1
102
RTVSPropertyOp1
 70
     1
102
RTVSPropertyOp2
 70
     1
102
RTVSPropertyOp3
 70
     1
102
RTVSPropertyOp4
 70
     1
102
RTVSPropertyOp5
 70
     1
102
RTVSPropertyOp6
 70
     1
102
RTVSPropertyOp7
 70
     1
102
RTVSPropertyOp8
 70
     1
102
RTVSPropertyOp9
 70
     1
102
RTVSPropertyOp10
 70
     1
102
RTVSPropertyOp11
 70
     1
102
RTVSPropertyOp12
 70
     1
102
RTVSPropertyOp13
 70
     1
102
RTVSPropertyOp14
 70
     1
102
RTVSPropertyOp15
 70
     1
102
RTVSPropertyOp16
 70
     1
102
RTVSPropertyOp17
 70
     1
102
RTVSPropertyOp18
 70
     1
102
RTVSPropertyOp19
 70
     1
102
RTVSPropertyOp20
 70
     1
102
RTVSPropertyOp21
 70
     1
102
RTVSPropertyOp22
 70
     1
102
RTVSPropertyOp23
 70
     1
102
RTVSPropertyOp24
 70
     1
102
RTVSPropertyOp25
 70
     1
102
RTVSPropertyOp26
 70
     1
102
RTVSPropertyOp27
 70
     1
102
RTVSPropertyOp28
 70
     1
102
RTVSPropertyOp29
 70
     1
102
RTVSPropertyOp30
 70
     1
102
RTVSPropertyOp31
 70
     1
102
RTVSPropertyOp32
 70
     1
102
RTVSPropertyOp33
 70
     1
102
RTVSPropertyOp34
 70
     1
102
RTVSPropertyOp35
 70
     1
102
RTVSPropertyOp36
 70
     1
102
RTVSPropertyOp37
 70
     1
102
RTVSPropertyOp38
 70
     1
102
RTVSPropertyOp39
 70
     1
102
RTVSPropertyOp40
 70
     1
102
RTVSPropertyOp41
 70
     1
102
RTVSPropertyOp42
 70
     1
102
RTVSPropertyOp43
 70
     1
102
RTVSPropertyOp44
 70
     1
102
RTVSPropertyOp45
 70
     1
102
RTVSPropertyOp46
 70
     1
102
RTVSPropertyOp47
 70
     1
102
RTVSPropertyOp48
 70
     1
102
RTVSPropertyOp49
 70
     1
102
RTVSPropertyOp50
 70
     1
102
RTVSPropertyOp51
 70
     0
102
RTVSPropertyOp52
 70
     0
102
RTVSPropertyOp53
 70
     1
102
RTVSPropertyOp54
 70
     1
102
RTVSPropertyOp55
 70
     1
102
RTVSPropertyOp56
 70
     1
102
RTVSPropertyOp57
 70
     1
102
RTVSPost2010Prop28
280
     0
102
RTVSPost2010PropOp28
 70
     1
102
RTVSPost2010Prop29
280
     1
102
RTVSPost2010PropOp29
 70
     1
102
RTVSPost2010Prop30
280
     1
102
RTVSPost2010PropOp30
 70
     1
102
RTVSPost2010Prop31
280
     0
102
RTVSPost2010PropOp31
 70
     1
102
RTVSPost2010Prop32
280
     0
102
RTVSPost2010PropOp32
 70
     1
102
RTVSPost2010Prop33
280
     0
102
RTVSPost2010PropOp33
 70
     1
102
RTVSPost2010Prop34
280
     0
102
RTVSPost2010PropOp34
 70
     1
102
RTVSPost2010Prop35
280
     0
102
RTVSPost2010PropOp35
 70
     1
102
RTVSPost2010Prop36
280
     0
102
RTVSPost2010PropOp36
 70
     1
102
RTVSPost2010Prop37
 90
       50
102
RTVSPost2010PropOp37
 70
     1
102
RTVSPost2010Prop38
140
0.0
102
RTVSPost2010PropOp38
 70
     1
102
RTVSPost2010Prop39
140
1.0
102
RTVSPost2010PropOp39
 70
     1
102
RTVSPost2010Prop40
 90
        0
102
RTVSPost2010PropOp40
 70
     1
102
RTVSPost2010Prop41ColorIndex
 90
       18
102
RTVSPost2010Prop41ColorRGB
 90
        0
102
RTVSPost2010PropOp41
 70
     1
102
RTVSPost2010Prop42
 90
       50
102
RTVSPost2010PropOp42
 70
     1
102
RTVSPost2010Prop43
 90
        3
102
RTVSPost2010PropOp43
 70
     1
102
RTVSPost2010Prop44ColorIndex
 90
        5
102
RTVSPost2010Prop44ColorRGB
 90
      255
102
RTVSPost2010PropOp44
 70
     1
102
RTVSPost2010Prop45
280
     0
102
RTVSPost2010PropOp45
 70
     1
102
RTVSPost2010Prop46
 90
       50
102
RTVSPost2010PropOp46
 70
     1
102
RTVSPost2010Prop47
 90
       50
102
RTVSPost2010PropOp47
 70
     1
102
RTVSPost2010Prop48
 90
       50
102
RTVSPost2010PropOp48
 70
     1
102
RTVSPost2010Prop49
280
     0
102
RTVSPost2010PropOp49
 70
     1
102
RTVSPost2010Prop50
 90
       50
102
RTVSPost2010PropOp50
 70
     1
102
RTVSPost2010Prop51ColorIndex
 90
      256
102
RTVSPost2010Prop51ColorRGB
 90
-16777216
102
RTVSPost2010PropOp51
 70
     0
102
RTVSPost2010Prop52
140
1.0
102
RTVSPost2010PropOp52
 70
     0
102
RTVSPost2010Prop53
 90
        2
102
RTVSPost2010PropOp53
 70
     1
102
RTVSPost2010Prop54
  1
strokes_ogs.tif
102
RTVSPost2010PropOp54
 70
     1
102
RTVSPost2010Prop55
280
     0
102
RTVSPost2010PropOp55
 70
     1
102
RTVSPost2010Prop56
140
1.0
102
RTVSPost2010PropOp56
 70
     1
102
RTVSPost2010Prop57
140
1.0
102
RTVSPost2010PropOp57
 70
     1
  0
XRECORD
  5
3EF
102
{ACAD_REACTORS
330
3EE
102
}
330
3EE
100
AcDbXrecord
280
     1
102
RTVSPropertyOp0
 70
     1
102
RTVSPropertyOp1
 70
     1
102
RTVSPropertyOp2
 70
     1
102
RTVSPropertyOp3
 70
     1
102
RTVSPropertyOp4
 70
     1
102
RTVSPropertyOp5
 70
     1
102
RTVSPropertyOp6
 70
     1
102
RTVSPropertyOp7
 70
     1
102
RTVSPropertyOp8
 70
     1
102
RTVSPropertyOp9
 70
     1
102
RTVSPropertyOp10
 70
     1
102
RTVSPropertyOp11
 70
     1
102
RTVSPropertyOp12
 70
     1
102
RTVSPropertyOp13
 70
     1
102
RTVSPropertyOp14
 70
     1
102
RTVSPropertyOp15
 70
     1
102
RTVSPropertyOp16
 70
     1
102
RTVSPropertyOp17
 70
     1
102
RTVSPropertyOp18
 70
     1
102
RTVSPropertyOp19
 70
     1
102
RTVSPropertyOp20
 70
     1
102
RTVSPropertyOp21
 70
     1
102
RTVSPropertyOp22
 70
     1
102
RTVSPropertyOp23
 70
     1
102
RTVSPropertyOp24
 70
     1
102
RTVSPropertyOp25
 70
     1
102
RTVSPropertyOp26
 70
     1
102
RTVSPropertyOp27
 70
     1
102
RTVSPropertyOp28
 70
     1
102
RTVSPropertyOp29
 70
     1
102
RTVSPropertyOp30
 70
     1
102
RTVSPropertyOp31
 70
     1
102
RTVSPropertyOp32
 70
     1
102
RTVSPropertyOp33
 70
     1
102
RTVSPropertyOp34
 70
     1
102
RTVSPropertyOp35
 70
     1
102
RTVSPropertyOp36
 70
     1
102
RTVSPropertyOp37
 70
     1
102
RTVSPropertyOp38
 70
     1
102
RTVSPropertyOp39
 70
     1
102
RTVSPropertyOp40
 70
     1
102
RTVSPropertyOp41
 70
     1
102
RTVSPropertyOp42
 70
     1
102
RTVSPropertyOp43
 70
     1
102
RTVSPropertyOp44
 70
     1
102
RTVSPropertyOp45
 70
     1
102
RTVSPropertyOp46
 70
     1
102
RTVSPropertyOp47
 70
     1
102
RTVSPropertyOp48
 70
     1
102
RTVSPropertyOp49
 70
     1
102
RTVSPropertyOp50
 70
     1
102
RTVSPropertyOp51
 70
     0
102
RTVSPropertyOp52
 70
     0
102
RTVSPropertyOp53
 70
     1
102
RTVSPropertyOp54
 70
     1
102
RTVSPropertyOp55
 70
     1
102
RTVSPropertyOp56
 70
     1
102
RTVSPropertyOp57
 70
     1
102
RTVSPost2010Prop28
280
     0
102
RTVSPost2010PropOp28
 70
     1
102
RTVSPost2010Prop29
280
     1
102
RTVSPost2010PropOp29
 70
     1
102
RTVSPost2010Prop30
280
     1
102
RTVSPost2010PropOp30
 70
     1
102
RTVSPost2010Prop31
280
     0
102
RTVSPost2010PropOp31
 70
     1
102
RTVSPost2010Prop32
280
     0
102
RTVSPost2010PropOp32
 70
     1
102
RTVSPost2010Prop33
280
     0
102
RTVSPost2010PropOp33
 70
     1
102
RTVSPost2010Prop34
280
     0
102
RTVSPost2010PropOp34
 70
     1
102
RTVSPost2010Prop35
280
     0
102
RTVSPost2010PropOp35
 70
     1
102
RTVSPost2010Prop36
280
     0
102
RTVSPost2010PropOp36
 70
     1
102
RTVSPost2010Prop37
 90
       50
102
RTVSPost2010PropOp37
 70
     1
102
RTVSPost2010Prop38
140
0.0
102
RTVSPost2010PropOp38
 70
     1
102
RTVSPost2010Prop39
140
1.0
102
RTVSPost2010PropOp39
 70
     1
102
RTVSPost2010Prop40
 90
        0
102
RTVSPost2010PropOp40
 70
     1
102
RTVSPost2010Prop41ColorIndex
 90
       18
102
RTVSPost2010Prop41ColorRGB
 90
        0
102
RTVSPost2010PropOp41
 70
     1
102
RTVSPost2010Prop42
 90
       50
102
RTVSPost2010PropOp42
 70
     1
102
RTVSPost2010Prop43
 90
        3
102
RTVSPost2010PropOp43
 70
     1
102
RTVSPost2010Prop44ColorIndex
 90
        5
102
RTVSPost2010Prop44ColorRGB
 90
      255
102
RTVSPost2010PropOp44
 70
     1
102
RTVSPost2010Prop45
280
     0
102
RTVSPost2010PropOp45
 70
     1
102
RTVSPost2010Prop46
 90
       50
102
RTVSPost2010PropOp46
 70
     1
102
RTVSPost2010Prop47
 90
       50
102
RTVSPost2010PropOp47
 70
     1
102
RTVSPost2010Prop48
 90
       50
102
RTVSPost2010PropOp48
 70
     1
102
RTVSPost2010Prop49
280
     0
102
RTVSPost2010PropOp49
 70
     1
102
RTVSPost2010Prop50
 90
       50
102
RTVSPost2010PropOp50
 70
     1
102
RTVSPost2010Prop51ColorIndex
 90
      256
102
RTVSPost2010Prop51ColorRGB
 90
-16777216
102
RTVSPost2010PropOp51
 70
     0
102
RTVSPost2010Prop52
140
1.0
102
RTVSPost2010PropOp52
 70
     0
102
RTVSPost2010Prop53
 90
        2
102
RTVSPost2010PropOp53
 70
     1
102
RTVSPost2010Prop54
  1
strokes_ogs.tif
102
RTVSPost2010PropOp54
 70
     1
102
RTVSPost2010Prop55
280
     0
102
RTVSPost2010PropOp55
 70
     1
102
RTVSPost2010Prop56
140
1.0
102
RTVSPost2010PropOp56
 70
     1
102
RTVSPost2010Prop57
140
1.0
102
RTVSPost2010PropOp57
 70
     1
  0
XRECORD
  5
40F
102
{ACAD_REACTORS
330
40E
102
}
330
40E
100
AcDbXrecord
280
     1
102
RTVSPropertyOp0
 70
     1
102
RTVSPropertyOp1
 70
     1
102
RTVSPropertyOp2
 70
     1
102
RTVSPropertyOp3
 70
     1
102
RTVSPropertyOp4
 70
     1
102
RTVSPropertyOp5
 70
     1
102
RTVSPropertyOp6
 70
     1
102
RTVSPropertyOp7
 70
     1
102
RTVSPropertyOp8
 70
     1
102
RTVSPropertyOp9
 70
     1
102
RTVSPropertyOp10
 70
     1
102
RTVSPropertyOp11
 70
     1
102
RTVSPropertyOp12
 70
     1
102
RTVSPropertyOp13
 70
     1
102
RTVSPropertyOp14
 70
     1
102
RTVSPropertyOp15
 70
     1
102
RTVSPropertyOp16
 70
     1
102
RTVSPropertyOp17
 70
     1
102
RTVSPropertyOp18
 70
     1
102
RTVSPropertyOp19
 70
     1
102
RTVSPropertyOp20
 70
     1
102
RTVSPropertyOp21
 70
     1
102
RTVSPropertyOp22
 70
     1
102
RTVSPropertyOp23
 70
     1
102
RTVSPropertyOp24
 70
     1
102
RTVSPropertyOp25
 70
     1
102
RTVSPropertyOp26
 70
     1
102
RTVSPropertyOp27
 70
     1
102
RTVSPropertyOp28
 70
     1
102
RTVSPropertyOp29
 70
     1
102
RTVSPropertyOp30
 70
     1
102
RTVSPropertyOp31
 70
     1
102
RTVSPropertyOp32
 70
     1
102
RTVSPropertyOp33
 70
     1
102
RTVSPropertyOp34
 70
     1
102
RTVSPropertyOp35
 70
     1
102
RTVSPropertyOp36
 70
     1
102
RTVSPropertyOp37
 70
     1
102
RTVSPropertyOp38
 70
     1
102
RTVSPropertyOp39
 70
     1
102
RTVSPropertyOp40
 70
     1
102
RTVSPropertyOp41
 70
     1
102
RTVSPropertyOp42
 70
     1
102
RTVSPropertyOp43
 70
     1
102
RTVSPropertyOp44
 70
     1
102
RTVSPropertyOp45
 70
     1
102
RTVSPropertyOp46
 70
     1
102
RTVSPropertyOp47
 70
     1
102
RTVSPropertyOp48
 70
     1
102
RTVSPropertyOp49
 70
     1
102
RTVSPropertyOp50
 70
     1
102
RTVSPropertyOp51
 70
     0
102
RTVSPropertyOp52
 70
     0
102
RTVSPropertyOp53
 70
     1
102
RTVSPropertyOp54
 70
     1
102
RTVSPropertyOp55
 70
     1
102
RTVSPropertyOp56
 70
     1
102
RTVSPropertyOp57
 70
     1
102
RTVSPost2010Prop28
280
     0
102
RTVSPost2010PropOp28
 70
     1
102
RTVSPost2010Prop29
280
     1
102
RTVSPost2010PropOp29
 70
     1
102
RTVSPost2010Prop30
280
     1
102
RTVSPost2010PropOp30
 70
     1
102
RTVSPost2010Prop31
280
     0
102
RTVSPost2010PropOp31
 70
     1
102
RTVSPost2010Prop32
280
     0
102
RTVSPost2010PropOp32
 70
     1
102
RTVSPost2010Prop33
280
     0
102
RTVSPost2010PropOp33
 70
     1
102
RTVSPost2010Prop34
280
     0
102
RTVSPost2010PropOp34
 70
     1
102
RTVSPost2010Prop35
280
     0
102
RTVSPost2010PropOp35
 70
     1
102
RTVSPost2010Prop36
280
     0
102
RTVSPost2010PropOp36
 70
     1
102
RTVSPost2010Prop37
 90
       50
102
RTVSPost2010PropOp37
 70
     1
102
RTVSPost2010Prop38
140
0.0
102
RTVSPost2010PropOp38
 70
     1
102
RTVSPost2010Prop39
140
1.0
102
RTVSPost2010PropOp39
 70
     1
102
RTVSPost2010Prop40
 90
        0
102
RTVSPost2010PropOp40
 70
     1
102
RTVSPost2010Prop41ColorIndex
 90
       18
102
RTVSPost2010Prop41ColorRGB
 90
        0
102
RTVSPost2010PropOp41
 70
     1
102
RTVSPost2010Prop42
 90
       50
102
RTVSPost2010PropOp42
 70
     1
102
RTVSPost2010Prop43
 90
        3
102
RTVSPost2010PropOp43
 70
     1
102
RTVSPost2010Prop44ColorIndex
 90
        5
102
RTVSPost2010Prop44ColorRGB
 90
      255
102
RTVSPost2010PropOp44
 70
     1
102
RTVSPost2010Prop45
280
     0
102
RTVSPost2010PropOp45
 70
     1
102
RTVSPost2010Prop46
 90
       50
102
RTVSPost2010PropOp46
 70
     1
102
RTVSPost2010Prop47
 90
       50
102
RTVSPost2010PropOp47
 70
     1
102
RTVSPost2010Prop48
 90
       50
102
RTVSPost2010PropOp48
 70
     1
102
RTVSPost2010Prop49
280
     0
102
RTVSPost2010PropOp49
 70
     1
102
RTVSPost2010Prop50
 90
       50
102
RTVSPost2010PropOp50
 70
     1
102
RTVSPost2010Prop51ColorIndex
 90
      256
102
RTVSPost2010Prop51ColorRGB
 90
-16777216
102
RTVSPost2010PropOp51
 70
     0
102
RTVSPost2010Prop52
140
1.0
102
RTVSPost2010PropOp52
 70
     0
102
RTVSPost2010Prop53
 90
        2
102
RTVSPost2010PropOp53
 70
     1
102
RTVSPost2010Prop54
  1
strokes_ogs.tif
102
RTVSPost2010PropOp54
 70
     1
102
RTVSPost2010Prop55
280
     0
102
RTVSPost2010PropOp55
 70
     1
102
RTVSPost2010Prop56
140
1.0
102
RTVSPost2010PropOp56
 70
     1
102
RTVSPost2010Prop57
140
1.0
102
RTVSPost2010PropOp57
 70
     1
  0
ENDSEC
  0
EOF
