  0
SECTION
  2
HEADER
  9
$ACADVER
  1
AC1018
  9
$ACADMAINTVER
 70
     0
  9
$DWGCODEPAGE
  3
ANSI_932
  9
$INSBASE
 10
0.0
 20
0.0
 30
0.0
  9
$EXTMIN
 10
-420.0
 20
-297.0
 30
0.0
  9
$EXTMAX
 10
420.0
 20
297.0
 30
0.0
  9
$LIMMIN
 10
-420.0
 20
-297.0
  9
$LIMMAX
 10
420.0
 20
297.0
  9
$ORTHOMODE
 70
     0
  9
$REGENMODE
 70
     1
  9
$FILLMODE
 70
     1
  9
$QTEXTMODE
 70
     0
  9
$MIRRTEXT
 70
     1
  9
$LTSCALE
 40
2.0
  9
$ATTMODE
 70
     1
  9
$TEXTSIZE
 40
2.5
  9
$TRACEWID
 40
1.0
  9
$TEXTSTYLE
  7
Standard
  9
$CLAYER
  8
0
  9
$CELTYPE
  6
ByLayer
  9
$CECOLOR
 62
   256
  9
$CELTSCALE
 40
1.0
  9
$DISPSILH
 70
     0
  9
$DIMSCALE
 40
1.0
  9
$DIMASZ
 40
2.5
  9
$DIMEXO
 40
0.625
  9
$DIMDLI
 40
3.75
  9
$DIMRND
 40
0.0
  9
$DIMDLE
 40
0.0
  9
$DIMEXE
 40
1.25
  9
$DIMTP
 40
0.0
  9
$DIMTM
 40
0.0
  9
$DIMTXT
 40
2.5
  9
$DIMCEN
 40
2.5
  9
$DIMTSZ
 40
0.0
  9
$DIMTOL
 70
     0
  9
$DIMLIM
 70
     0
  9
$DIMTIH
 70
     0
  9
$DIMTOH
 70
     0
  9
$DIMSE1
 70
     0
  9
$DIMSE2
 70
     0
  9
$DIMTAD
 70
     1
  9
$DIMZIN
 70
     8
  9
$DIMBLK
  1

  9
$DIMASO
 70
     1
  9
$DIMSHO
 70
     1
  9
$DIMPOST
  1

  9
$DIMAPOST
  1

  9
$DIMALT
 70
     0
  9
$DIMALTD
 70
     3
  9
$DIMALTF
 40
0.03937007874016
  9
$DIMLFAC
 40
1.0
  9
$DIMTOFL
 70
     1
  9
$DIMTVP
 40
0.0
  9
$DIMTIX
 70
     0
  9
$DIMSOXD
 70
     0
  9
$DIMSAH
 70
     0
  9
$DIMBLK1
  1

  9
$DIMBLK2
  1

  9
$DIMSTYLE
  2
ISO-25
  9
$DIMCLRD
 70
     0
  9
$DIMCLRE
 70
     0
  9
$DIMCLRT
 70
     0
  9
$DIMTFAC
 40
1.0
  9
$DIMGAP
 40
0.625
  9
$DIMJUST
 70
     0
  9
$DIMSD1
 70
     0
  9
$DIMSD2
 70
     0
  9
$DIMTOLJ
 70
     0
  9
$DIMTZIN
 70
     8
  9
$DIMALTZ
 70
     0
  9
$DIMALTTZ
 70
     0
  9
$DIMUPT
 70
     0
  9
$DIMDEC
 70
     2
  9
$DIMTDEC
 70
     2
  9
$DIMALTU
 70
     2
  9
$DIMALTTD
 70
     3
  9
$DIMTXSTY
  7
Standard
  9
$DIMAUNIT
 70
     0
  9
$DIMADEC
 70
     0
  9
$DIMALTRND
 40
0.0
  9
$DIMAZIN
 70
     0
  9
$DIMDSEP
 70
    44
  9
$DIMATFIT
 70
     3
  9
$DIMFRAC
 70
     0
  9
$DIMLDRBLK
  1

  9
$DIMLUNIT
 70
     2
  9
$DIMLWD
 70
    -2
  9
$DIMLWE
 70
    -2
  9
$DIMTMOVE
 70
     0
  9
$LUNITS
 70
     2
  9
$LUPREC
 70
     4
  9
$SKETCHINC
 40
1.0
  9
$FILLETRAD
 40
10.0
  9
$AUNITS
 70
     0
  9
$AUPREC
 70
     0
  9
$MENU
  1
.
  9
$ELEVATION
 40
0.0
  9
$PELEVATION
 40
0.0
  9
$THICKNESS
 40
0.0
  9
$LIMCHECK
 70
     0
  9
$CHAMFERA
 40
0.0
  9
$CHAMFERB
 40
0.0
  9
$CHAMFERC
 40
0.0
  9
$CHAMFERD
 40
0.0
  9
$SKPOLY
 70
     0
  9
$TDCREATE
 40
2460059.403210764
  9
$TDUCREATE
 40
2460059.028210764
  9
$TDUPDATE
 40
2460059.403210903
  9
$TDUUPDATE
 40
2460059.028210903
  9
$TDINDWG
 40
0.0000000116
  9
$TDUSRTIMER
 40
0.0000000116
  9
$USRTIMER
 70
     1
  9
$ANGBASE
 50
0.0
  9
$ANGDIR
 70
     0
  9
$PDMODE
 70
     0
  9
$PDSIZE
 40
0.0
  9
$PLINEWID
 40
0.0
  9
$SPLFRAME
 70
     0
  9
$SPLINETYPE
 70
     6
  9
$SPLINESEGS
 70
     8
  9
$HANDSEED
  5
3DE
  9
$SURFTAB1
 70
     6
  9
$SURFTAB2
 70
     6
  9
$SURFTYPE
 70
     6
  9
$SURFU
 70
     6
  9
$SURFV
 70
     6
  9
$UCSBASE
  2

  9
$UCSNAME
  2

  9
$UCSORG
 10
0.0
 20
0.0
 30
0.0
  9
$UCSXDIR
 10
1.0
 20
0.0
 30
0.0
  9
$UCSYDIR
 10
0.0
 20
1.0
 30
0.0
  9
$UCSORTHOREF
  2

  9
$UCSORTHOVIEW
 70
     0
  9
$UCSORGTOP
 10
0.0
 20
0.0
 30
0.0
  9
$UCSORGBOTTOM
 10
0.0
 20
0.0
 30
0.0
  9
$UCSORGLEFT
 10
0.0
 20
0.0
 30
0.0
  9
$UCSORGRIGHT
 10
0.0
 20
0.0
 30
0.0
  9
$UCSORGFRONT
 10
0.0
 20
0.0
 30
0.0
  9
$UCSORGBACK
 10
0.0
 20
0.0
 30
0.0
  9
$PUCSBASE
  2

  9
$PUCSNAME
  2

  9
$PUCSORG
 10
0.0
 20
0.0
 30
0.0
  9
$PUCSXDIR
 10
1.0
 20
0.0
 30
0.0
  9
$PUCSYDIR
 10
0.0
 20
1.0
 30
0.0
  9
$PUCSORTHOREF
  2

  9
$PUCSORTHOVIEW
 70
     0
  9
$PUCSORGTOP
 10
0.0
 20
0.0
 30
0.0
  9
$PUCSORGBOTTOM
 10
0.0
 20
0.0
 30
0.0
  9
$PUCSORGLEFT
 10
0.0
 20
0.0
 30
0.0
  9
$PUCSORGRIGHT
 10
0.0
 20
0.0
 30
0.0
  9
$PUCSORGFRONT
 10
0.0
 20
0.0
 30
0.0
  9
$PUCSORGBACK
 10
0.0
 20
0.0
 30
0.0
  9
$USERI1
 70
     0
  9
$USERI2
 70
     0
  9
$USERI3
 70
     0
  9
$USERI4
 70
     0
  9
$USERI5
 70
     0
  9
$USERR1
 40
0.0
  9
$USERR2
 40
0.0
  9
$USERR3
 40
0.0
  9
$USERR4
 40
0.0
  9
$USERR5
 40
0.0
  9
$WORLDVIEW
 70
     1
  9
$SHADEDGE
 70
     3
  9
$SHADEDIF
 70
    70
  9
$TILEMODE
 70
     1
  9
$MAXACTVP
 70
    64
  9
$PINSBASE
 10
0.0
 20
0.0
 30
0.0
  9
$PLIMCHECK
 70
     0
  9
$PEXTMIN
 10
1.000000000000000E+20
 20
1.000000000000000E+20
 30
1.000000000000000E+20
  9
$PEXTMAX
 10
-1.000000000000000E+20
 20
-1.000000000000000E+20
 30
-1.000000000000000E+20
  9
$PLIMMIN
 10
0.0
 20
0.0
  9
$PLIMMAX
 10
420.0
 20
297.0
  9
$UNITMODE
 70
     0
  9
$VISRETAIN
 70
     1
  9
$PLINEGEN
 70
     0
  9
$PSLTSCALE
 70
     1
  9
$TREEDEPTH
 70
  3020
  9
$CMLSTYLE
  2
Standard
  9
$CMLJUST
 70
     0
  9
$CMLSCALE
 40
20.0
  9
$PROXYGRAPHICS
 70
     1
  9
$MEASUREMENT
 70
     1
  9
$CELWEIGHT
370
    -1
  9
$ENDCAPS
280
     0
  9
$JOINSTYLE
280
     0
  9
$LWDISPLAY
290
     0
  9
$INSUNITS
 70
     4
  9
$HYPERLINKBASE
  1

  9
$STYLESHEET
  1

  9
$XEDIT
290
     1
  9
$CEPSNTYPE
380
     0
  9
$PSTYLEMODE
290
     1
  9
$FINGERPRINTGUID
  2
{5A91C629-DA05-408E-9A04-0F6451F06732}
  9
$VERSIONGUID
  2
{FAEB1C32-E019-11D5-929B-00C0DF256EC4}
  9
$EXTNAMES
290
     1
  9
$PSVPSCALE
 40
0.0
  9
$OLESTARTUP
290
     0
  9
$SORTENTS
280
   127
  9
$INDEXCTL
280
     0
  9
$HIDETEXT
280
     1
  9
$XCLIPFRAME
290
     0
  9
$HALOGAP
280
     0
  9
$OBSCOLOR
 70
   257
  9
$OBSLTYPE
280
     0
  9
$INTERSECTIONDISPLAY
280
     0
  9
$INTERSECTIONCOLOR
 70
   257
  9
$DIMASSOC
280
     2
  9
$PROJECTNAME
  1

  0
ENDSEC
  0
SECTION
  2
CLASSES
  0
CLASS
  1
ACDBDICTIONARYWDFLT
  2
AcDbDictionaryWithDefault
  3
ObjectDBX Classes
 90
        0
 91
        4
280
     0
281
     0
  0
CLASS
  1
VISUALSTYLE
  2
AcDbVisualStyle
  3
ObjectDBX Classes
 90
     4095
 91
        4
280
     0
281
     0
  0
CLASS
  1
MATERIAL
  2
AcDbMaterial
  3
ObjectDBX Classes
 90
     1153
 91
        4
280
     0
281
     0
  0
CLASS
  1
SCALE
  2
AcDbScale
  3
ObjectDBX Classes
 90
     1153
 91
        4
280
     0
281
     0
  0
CLASS
  1
TABLESTYLE
  2
AcDbTableStyle
  3
ObjectDBX Classes
 90
     4095
 91
        4
280
     0
281
     0
  0
CLASS
  1
MLEADERSTYLE
  2
AcDbMLeaderStyle
  3
ACDB_MLEADERSTYLE_CLASS
 90
     4095
 91
        4
280
     0
281
     0
  0
CLASS
  1
SUN
  2
AcDbSun
  3
SCENEOE
 90
     1153
 91
        4
280
     0
281
     0
  0
CLASS
  1
DICTIONARYVAR
  2
AcDbDictionaryVar
  3
ObjectDBX Classes
 90
        0
 91
        4
280
     0
281
     0
  0
CLASS
  1
CELLSTYLEMAP
  2
AcDbCellStyleMap
  3
ObjectDBX Classes
 90
     1152
 91
        4
280
     0
281
     0
  0
ENDSEC
  0
SECTION
  2
TABLES
  0
TABLE
  2
VPORT
  5
8
102
{ACAD_XDICTIONARY
360
395
102
}
330
0
100
AcDbSymbolTable
 70
     1
  0
VPORT
  5
29
330
8
100
AcDbSymbolTableRecord
100
AcDbViewportTableRecord
  2
*Active
 70
     0
 10
0.0
 20
0.0
 11
1.0
 21
1.0
 12
0.0
 22
0.0
 13
0.0
 23
0.0
 14
10.0
 24
10.0
 15
10.0
 25
10.0
 16
0.0
 26
0.0
 36
1.0
 17
0.0
 27
0.0
 37
0.0
 40
653.4000000000001
 41
1.414141414141414
 42
50.0
 43
0.0
 44
0.0
 50
0.0
 51
0.0
 71
     0
 72
 10000
 73
     1
 74
     3
 75
     0
 76
     0
 77
     0
 78
     0
281
     0
 65
     1
110
0.0
120
0.0
130
0.0
111
1.0
121
0.0
131
0.0
112
0.0
122
1.0
132
0.0
 79
     0
146
0.0
  0
ENDTAB
  0
TABLE
  2
LTYPE
  5
5
330
0
100
AcDbSymbolTable
 70
     4
  0
LTYPE
  5
14
330
5
100
AcDbSymbolTableRecord
100
AcDbLinetypeTableRecord
  2
ByBlock
 70
     0
  3

 72
    65
 73
     0
 40
0.0
  0
LTYPE
  5
15
330
5
100
AcDbSymbolTableRecord
100
AcDbLinetypeTableRecord
  2
ByLayer
 70
     0
  3

 72
    65
 73
     0
 40
0.0
  0
LTYPE
  5
16
330
5
100
AcDbSymbolTableRecord
100
AcDbLinetypeTableRecord
  2
Continuous
 70
     0
  3
Solid line
 72
    65
 73
     0
 40
0.0
  0
LTYPE
  5
6F
330
5
100
AcDbSymbolTableRecord
100
AcDbLinetypeTableRecord
  2
JWW_HOJO
 70
     0
  3
  -   -   -   -   -   -   -   - 
 72
    65
 73
     2
 40
1.693333333333333
 49
-1.27
 74
     0
 49
0.4233333333333333
 74
     0
  0
LTYPE
  5
70
330
5
100
AcDbSymbolTableRecord
100
AcDbLinetypeTableRecord
  2
JWW_CENTER1
 70
     0
  3
-----  --  ----------  --  -----
 72
    65
 73
     4
 40
6.773333333333333
 49
4.233333333333333
 74
     0
 49
-0.8466666666666667
 74
     0
 49
0.8466666666666667
 74
     0
 49
-0.8466666666666667
 74
     0
  0
LTYPE
  5
71
330
5
100
AcDbSymbolTableRecord
100
AcDbLinetypeTableRecord
  2
JWW_DASHED1
 70
     0
  3
-  --  --  --  --  --  --  --  -
 72
    65
 73
     2
 40
1.693333333333333
 49
0.8466666666666667
 74
     0
 49
-0.8466666666666667
 74
     0
  0
ENDTAB
  0
TABLE
  2
LAYER
  5
2
330
0
100
AcDbSymbolTable
 70
     8
  0
LAYER
  5
10
330
2
100
AcDbSymbolTableRecord
100
AcDbLayerTableRecord
  2
0
 70
     0
 62
     7
  6
Continuous
370
    -3
390
F
  0
LAYER
  5
72
330
2
100
AcDbSymbolTableRecord
100
AcDbLayerTableRecord
  2
仕上
 70
     0
 62
     7
  6
Continuous
370
    -3
390
F
  0
LAYER
  5
73
330
2
100
AcDbSymbolTableRecord
100
AcDbLayerTableRecord
  2
躯体
 70
     0
 62
     7
  6
Continuous
370
    -3
390
F
  0
LAYER
  5
74
330
2
100
AcDbSymbolTableRecord
100
AcDbLayerTableRecord
  2
通り芯
 70
     0
 62
     7
  6
Continuous
370
    -3
390
F
  0
LAYER
  5
75
330
2
100
AcDbSymbolTableRecord
100
AcDbLayerTableRecord
  2
その他
 70
     0
 62
     7
  6
Continuous
370
    -3
390
F
  0
LAYER
  5
76
330
2
100
AcDbSymbolTableRecord
100
AcDbLayerTableRecord
  2
F-5ﾚｲﾔ
 70
     0
 62
     7
  6
Continuous
370
    -3
390
F
  0
LAYER
  5
77
330
2
100
AcDbSymbolTableRecord
100
AcDbLayerTableRecord
  2
F-0ﾚｲﾔ
 70
     0
 62
     7
  6
Continuous
370
    -3
390
F
  0
LAYER
  5
78
330
2
100
AcDbSymbolTableRecord
100
AcDbLayerTableRecord
  2
寸法
 70
     0
 62
     7
  6
Continuous
370
    -3
390
F
  0
ENDTAB
  0
TABLE
  2
STYLE
  5
3
330
0
100
AcDbSymbolTable
 70
     2
  0
STYLE
  5
11
330
3
100
AcDbSymbolTableRecord
100
AcDbTextStyleTableRecord
  2
Standard
 70
     0
 40
0.0
 41
1.0
 50
0.0
 71
     0
 42
2.5
  3
txt
  4

  0
STYLE
  5
6E
330
3
100
AcDbSymbolTableRecord
100
AcDbTextStyleTableRecord
  2
ＭＳ ゴシック
 70
     0
 40
1.0
 41
1.0
 50
0.0
 71
     0
 42
2.5
  3

  4

1001
ACAD
1000
MS Gothic
1071
    32817
  0
ENDTAB
  0
TABLE
  2
VIEW
  5
6
330
0
100
AcDbSymbolTable
 70
     0
  0
ENDTAB
  0
TABLE
  2
UCS
  5
7
330
0
100
AcDbSymbolTable
 70
     0
  0
ENDTAB
  0
TABLE
  2
APPID
  5
9
330
0
100
AcDbSymbolTable
 70
     2
  0
APPID
  5
12
330
9
100
AcDbSymbolTableRecord
100
AcDbRegAppTableRecord
  2
ACAD
 70
     0
  0
APPID
  5
3D4
330
9
100
AcDbSymbolTableRecord
100
AcDbRegAppTableRecord
  2
ACAD_MLEADERVER
 70
     0
  0
ENDTAB
  0
TABLE
  2
DIMSTYLE
  5
A
330
0
100
AcDbSymbolTable
 70
     1
100
AcDbDimStyleTable
  0
DIMSTYLE
105
27
330
A
100
AcDbSymbolTableRecord
100
AcDbDimStyleTableRecord
  2
ISO-25
 70
     0
 41
2.5
 42
0.625
 43
3.75
 44
1.25
 73
     0
 74
     0
 77
     1
 78
     8
140
2.5
141
2.5
143
0.03937007874016
147
0.625
171
     3
172
     1
178
     0
271
     2
272
     2
274
     3
278
    44
283
     0
284
     8
340
11
  0
ENDTAB
  0
TABLE
  2
BLOCK_RECORD
  5
1
330
0
100
AcDbSymbolTable
 70
     1
  0
BLOCK_RECORD
  5
1F
330
1
100
AcDbSymbolTableRecord
100
AcDbBlockTableRecord
  2
*Model_Space
340
22
  0
BLOCK_RECORD
  5
1B
330
1
100
AcDbSymbolTableRecord
100
AcDbBlockTableRecord
  2
*Paper_Space
340
1E
  0
BLOCK_RECORD
  5
23
330
1
100
AcDbSymbolTableRecord
100
AcDbBlockTableRecord
  2
*Paper_Space0
340
26
  0
ENDTAB
  0
ENDSEC
  0
SECTION
  2
BLOCKS
  0
BLOCK
  5
20
330
1F
100
AcDbEntity
  8
0
100
AcDbBlockBegin
  2
*Model_Space
 70
     0
 10
0.0
 20
0.0
 30
0.0
  3
*Model_Space
  1

  0
ENDBLK
  5
21
330
1F
100
AcDbEntity
  8
0
100
AcDbBlockEnd
  0
BLOCK
  5
1C
330
1B
100
AcDbEntity
 67
     1
  8
0
100
AcDbBlockBegin
  2
*Paper_Space
 70
     0
 10
0.0
 20
0.0
 30
0.0
  3
*Paper_Space
  1

  0
ENDBLK
  5
1D
330
1B
100
AcDbEntity
 67
     1
  8
0
100
AcDbBlockEnd
  0
BLOCK
  5
24
330
23
100
AcDbEntity
  8
0
100
AcDbBlockBegin
  2
*Paper_Space0
 70
     0
 10
0.0
 20
0.0
 30
0.0
  3
*Paper_Space0
  1

  0
ENDBLK
  5
25
330
23
100
AcDbEntity
  8
0
100
AcDbBlockEnd
  0
ENDSEC
  0
SECTION
  2
ENTITIES
  0
LINE
  5
79
330
1F
100
AcDbEntity
  8
仕上
  6
Continuous
 62
     4
370
     9
100
AcDbLine
 10
-44.09948109141873
 20
152.555384330691
 30
0.0
 11
-44.09948109141873
 21
153.5134713239342
 31
0.0
  0
LINE
  5
7A
330
1F
100
AcDbEntity
  8
仕上
  6
Continuous
 62
     4
370
     9
100
AcDbLine
 10
-42.11098044477597
 20
153.5134713239342
 30
0.0
 11
-44.09948109141873
 21
153.5134713239342
 31
0.0
  0
LINE
  5
7B
330
1F
100
AcDbEntity
  8
躯体
  6
JWW_HOJO
 62
     2
370
     9
100
AcDbLine
 10
-60.6996249364356
 20
58.03446081928894
 30
0.0
 11
-60.6996249364356
 21
248.0343948353362
 31
0.0
  0
LINE
  5
7C
330
1F
100
AcDbEntity
  8
躯体
  6
Continuous
 62
     2
370
     9
100
AcDbLine
 10
-52.6996232868368
 20
150.7690667631234
 30
0.0
 11
-52.6996232868368
 21
155.2998878674308
 31
0.0
  0
LINE
  5
7D
330
1F
100
AcDbEntity
  8
躯体
  6
Continuous
 62
     2
370
     9
100
AcDbLine
 10
-52.6996232868368
 20
174.7690469679376
 30
0.0
 11
-52.6996232868368
 21
179.299868072245
 31
0.0
  0
LINE
  5
7E
330
1F
100
AcDbEntity
  8
躯体
  6
Continuous
 62
     2
370
     9
100
AcDbLine
 10
-52.6996232868368
 20
198.7690271727517
 30
0.0
 11
-52.6996232868368
 21
203.2999472529882
 31
0.0
  0
LINE
  5
7F
330
1F
100
AcDbEntity
  8
躯体
  6
Continuous
 62
     2
370
     9
100
AcDbLine
 10
-52.6996232868368
 20
222.7690073775659
 30
0.0
 11
-52.6996232868368
 21
227.2998284818733
 31
0.0
  0
LINE
  5
80
330
1F
100
AcDbEntity
  8
躯体
  6
Continuous
 62
     2
370
     9
100
AcDbLine
 10
-52.6996232868368
 20
131.2999076626166
 30
0.0
 11
-52.6996232868368
 21
126.7689875823801
 31
0.0
  0
LINE
  5
81
330
1F
100
AcDbEntity
  8
躯体
  6
Continuous
 62
     2
370
     9
100
AcDbLine
 10
-52.6996232868368
 20
107.2998284818734
 30
0.0
 11
-52.6996232868368
 21
102.7690073775659
 31
0.0
  0
LINE
  5
82
330
1F
100
AcDbEntity
  8
躯体
  6
Continuous
 62
     2
370
     9
100
AcDbLine
 10
-52.6996232868368
 20
83.29989776502373
 30
0.0
 11
-52.6996232868368
 21
78.76902717275175
 31
0.0
  0
LINE
  5
83
330
1F
100
AcDbEntity
  8
躯体
  6
Continuous
 62
     2
370
     9
100
AcDbLine
 10
-0.8087953861822186
 20
58.03446081928894
 30
0.0
 11
-0.8087953861822186
 21
64.03448061447466
 31
0.0
  0
LINE
  5
84
330
1F
100
AcDbEntity
  8
躯体
  6
Continuous
 62
     2
370
     9
100
AcDbLine
 10
48.3005614682308
 20
64.03448061447466
 30
0.0
 11
-45.69960019245337
 21
64.03448061447466
 31
0.0
  0
LINE
  5
85
330
1F
100
AcDbEntity
  8
躯体
  6
Continuous
 62
     2
370
     9
100
AcDbLine
 10
48.3005614682308
 20
242.0344740160795
 30
0.0
 11
-45.69960019245337
 21
242.0344740160795
 31
0.0
  0
LINE
  5
86
330
1F
100
AcDbEntity
  8
躯体
  6
Continuous
 62
     2
370
     9
100
AcDbLine
 10
14.30047403949346
 20
60.03446741768414
 30
0.0
 11
14.30047403949346
 21
62.03447401607946
 31
0.0
  0
LINE
  5
87
330
1F
100
AcDbEntity
  8
躯体
  6
Continuous
 62
     2
370
     9
100
AcDbLine
 10
-0.8087953861822186
 20
64.03448061447466
 30
0.0
 11
14.62417481546471
 21
62.502333232718
 31
0.0
  0
LINE
  5
88
330
1F
100
AcDbEntity
  8
躯体
  6
Continuous
 62
     2
370
     9
100
AcDbLine
 10
14.62417481546471
 20
59.56660820104571
 30
0.0
 11
-0.8087953861822186
 21
58.03446081928894
 31
0.0
  0
LINE
  5
89
330
1F
100
AcDbEntity
  8
躯体
  6
Continuous
 62
     2
370
     9
100
AcDbLine
 10
-0.8087953861822186
 20
248.0343948353362
 30
0.0
 11
-0.8087953861822186
 21
242.0344740160795
 31
0.0
  0
LINE
  5
8A
330
1F
100
AcDbEntity
  8
躯体
  6
Continuous
 62
     2
370
     9
100
AcDbLine
 10
14.30047403949346
 20
246.0343882369409
 30
0.0
 11
14.30047403949346
 21
244.0344806144747
 31
0.0
  0
LINE
  5
8B
330
1F
100
AcDbEntity
  8
躯体
  6
Continuous
 62
     2
370
     9
100
AcDbLine
 10
-0.8087953861822186
 20
242.0344740160795
 30
0.0
 11
14.62417481546471
 21
243.5665224219072
 31
0.0
  0
LINE
  5
8C
330
1F
100
AcDbEntity
  8
躯体
  6
Continuous
 62
     2
370
     9
100
AcDbLine
 10
14.62417481546471
 20
246.5022474535795
 30
0.0
 11
-0.8087953861822186
 21
248.0343948353362
 31
0.0
  0
LINE
  5
8D
330
1F
100
AcDbEntity
  8
躯体
  6
Continuous
 62
     2
370
     9
100
AcDbLine
 10
68.80045589390647
 20
230.0345334016368
 30
0.0
 11
66.80044929551116
 21
230.0345334016368
 31
0.0
  0
LINE
  5
8E
330
1F
100
AcDbEntity
  8
躯体
  6
Continuous
 62
     2
370
     9
100
AcDbLine
 10
66.30047238989465
 20
219.5344740160795
 30
0.0
 11
66.30047238989465
 21
206.5344806144747
 31
0.0
  0
LINE
  5
8F
330
1F
100
AcDbEntity
  8
躯体
  6
Continuous
 62
     2
370
     9
100
AcDbLine
 10
68.80045589390647
 20
220.0345004096605
 30
0.0
 11
66.80044929551116
 21
220.0345004096605
 31
0.0
  0
LINE
  5
90
330
1F
100
AcDbEntity
  8
躯体
  6
Continuous
 62
     2
370
     9
100
AcDbLine
 10
68.80045589390647
 20
206.0344542208937
 30
0.0
 11
66.80044929551116
 21
206.0344542208937
 31
0.0
  0
LINE
  5
91
330
1F
100
AcDbEntity
  8
躯体
  6
Continuous
 62
     2
370
     9
100
AcDbLine
 10
68.80045589390647
 20
196.0344212289173
 30
0.0
 11
66.80044929551116
 21
196.0344212289173
 31
0.0
  0
LINE
  5
92
330
1F
100
AcDbEntity
  8
躯体
  6
Continuous
 62
     2
370
     9
100
AcDbLine
 10
66.80044929551116
 20
182.0344740160795
 30
0.0
 11
68.80045589390647
 21
182.0344740160795
 31
0.0
  0
LINE
  5
93
330
1F
100
AcDbEntity
  8
躯体
  6
Continuous
 62
     2
370
     9
100
AcDbLine
 10
66.30047238989465
 20
182.5345004096606
 30
0.0
 11
66.30047238989465
 21
195.5344938112653
 31
0.0
  0
LINE
  5
94
330
1F
100
AcDbEntity
  8
躯体
  6
Continuous
 62
     2
370
     9
100
AcDbLine
 10
66.80044929551116
 20
172.0344410241031
 30
0.0
 11
68.80045589390647
 21
172.0344410241031
 31
0.0
  0
LINE
  5
95
330
1F
100
AcDbEntity
  8
躯体
  6
Continuous
 62
     2
370
     9
100
AcDbLine
 10
66.30047238989465
 20
171.5345136064511
 30
0.0
 11
66.30047238989465
 21
158.5344212289173
 31
0.0
  0
LINE
  5
96
330
1F
100
AcDbEntity
  8
躯体
  6
Continuous
 62
     2
370
     9
100
AcDbLine
 10
68.80045589390647
 20
158.0344938112653
 30
0.0
 11
66.80044929551116
 21
158.0344938112653
 31
0.0
  0
LINE
  5
97
330
1F
100
AcDbEntity
  8
躯体
  6
Continuous
 62
     2
370
     9
100
AcDbLine
 10
68.80045589390647
 20
148.0344608192889
 30
0.0
 11
66.80044929551116
 21
148.0344608192889
 31
0.0
  0
LINE
  5
98
330
1F
100
AcDbEntity
  8
躯体
  6
Continuous
 62
     2
370
     9
100
AcDbLine
 10
66.30047238989465
 20
134.5344410241031
 30
0.0
 11
66.30047238989465
 21
147.5344344257078
 31
0.0
  0
LINE
  5
99
330
1F
100
AcDbEntity
  8
躯体
  6
Continuous
 62
     2
370
     9
100
AcDbLine
 10
68.80045589390647
 20
134.034414630522
 30
0.0
 11
66.80044929551116
 21
134.034414630522
 31
0.0
  0
LINE
  5
9A
330
1F
100
AcDbEntity
  8
躯体
  6
Continuous
 62
     2
370
     9
100
AcDbLine
 10
66.30047238989465
 20
123.5344542208937
 30
0.0
 11
66.30047238989465
 21
110.5344608192889
 31
0.0
  0
LINE
  5
9B
330
1F
100
AcDbEntity
  8
躯体
  6
Continuous
 62
     2
370
     9
100
AcDbLine
 10
68.80045589390647
 20
124.0344806144748
 30
0.0
 11
66.80044929551116
 21
124.0344806144748
 31
0.0
  0
LINE
  5
9C
330
1F
100
AcDbEntity
  8
躯体
  6
Continuous
 62
     2
370
     9
100
AcDbLine
 10
68.80045589390647
 20
110.0344344257078
 30
0.0
 11
66.80044929551116
 21
110.0344344257078
 31
0.0
  0
LINE
  5
9D
330
1F
100
AcDbEntity
  8
躯体
  6
Continuous
 62
     2
370
     9
100
AcDbLine
 10
68.80045589390647
 20
100.0344014337315
 30
0.0
 11
66.80044929551116
 21
100.0344014337315
 31
0.0
  0
LINE
  5
9E
330
1F
100
AcDbEntity
  8
躯体
  6
Continuous
 62
     2
370
     9
100
AcDbLine
 10
66.30047238989465
 20
86.53438163854571
 30
0.0
 11
66.30047238989465
 21
99.53447401607946
 31
0.0
  0
LINE
  5
9F
330
1F
100
AcDbEntity
  8
躯体
  6
Continuous
 62
     2
370
     9
100
AcDbLine
 10
68.80045589390647
 20
86.03445422089362
 30
0.0
 11
66.80044929551116
 21
86.03445422089362
 31
0.0
  0
LINE
  5
A0
330
1F
100
AcDbEntity
  8
躯体
  6
Continuous
 62
     2
370
     9
100
AcDbLine
 10
66.80044929551116
 20
76.03442122891727
 30
0.0
 11
68.80045589390647
 21
76.03442122891727
 31
0.0
  0
LINE
  5
A1
330
1F
100
AcDbEntity
  8
通り芯
  6
Continuous
 62
     3
370
     9
100
AcDbLine
 10
79.3004410475171
 20
248.0343948353362
 30
0.0
 11
79.3004410475171
 21
58.03446081928894
 31
0.0
  0
LINE
  5
A2
330
1F
100
AcDbEntity
  8
通り芯
  6
Continuous
 62
     3
370
     9
100
AcDbLine
 10
69.30043279952298
 20
258.0344278273126
 30
0.0
 11
-70.6996331844297
 21
258.0344278273126
 31
0.0
  0
LINE
  5
A3
330
1F
100
AcDbEntity
  8
通り芯
  6
Continuous
 62
     3
370
     9
100
AcDbLine
 10
-70.6996331844297
 20
48.03442782731258
 30
0.0
 11
-70.6996331844297
 21
258.0344278273126
 31
0.0
  0
LINE
  5
A4
330
1F
100
AcDbEntity
  8
通り芯
  6
Continuous
 62
     3
370
     9
100
AcDbLine
 10
69.30043279952298
 20
48.03442782731258
 30
0.0
 11
-70.6996331844297
 21
48.03442782731258
 31
0.0
  0
LINE
  5
A5
330
1F
100
AcDbEntity
  8
通り芯
  6
JWW_HOJO
 62
     3
370
     9
100
AcDbLine
 10
-65.69954245649473
 20
48.53445422089362
 30
0.0
 11
-65.69954245649473
 21
257.5344014337314
 31
0.0
  0
LINE
  5
A6
330
1F
100
AcDbEntity
  8
通り芯
  6
Continuous
 62
     3
370
     9
100
AcDbLine
 10
-70.6996331844297
 20
227.0344740160795
 30
0.0
 11
-75.29760945660033
 21
227.9540593729207
 31
0.0
  0
LINE
  5
A7
330
1F
100
AcDbEntity
  8
通り芯
  6
JWW_HOJO
 62
     3
370
     9
100
AcDbLine
 10
-68.11121468780809
 20
226.5167309311977
 30
0.0
 11
-70.6996331844297
 21
227.0344740160795
 31
0.0
  0
LINE
  5
A8
330
1F
100
AcDbEntity
  8
通り芯
  6
JWW_HOJO
 62
     3
370
     9
100
AcDbLine
 10
-68.11121468780809
 20
239.5521577154037
 30
0.0
 11
-70.6996331844297
 21
239.0344146305221
 31
0.0
  0
LINE
  5
A9
330
1F
100
AcDbEntity
  8
通り芯
  6
Continuous
 62
     3
370
     9
100
AcDbLine
 10
-70.6996331844297
 20
67.0344410241031
 30
0.0
 11
-75.29770843252936
 21
67.95402638094436
 31
0.0
  0
LINE
  5
AA
330
1F
100
AcDbEntity
  8
通り芯
  6
Continuous
 62
     3
370
     9
100
AcDbLine
 10
-70.6996331844297
 20
79.03438163854571
 30
0.0
 11
-75.29760945660033
 21
78.11479628170446
 31
0.0
  0
LINE
  5
AB
330
1F
100
AcDbEntity
  8
通り芯
  6
JWW_HOJO
 62
     3
370
     9
100
AcDbLine
 10
-68.11121468780809
 20
79.55212472342737
 30
0.0
 11
-70.6996331844297
 21
79.03438163854571
 31
0.0
  0
LINE
  5
AC
330
1F
100
AcDbEntity
  8
通り芯
  6
JWW_HOJO
 62
     3
370
     9
100
AcDbLine
 10
-68.11121468780809
 20
66.5167969151504
 30
0.0
 11
-70.6996331844297
 21
67.0344410241031
 31
0.0
  0
LINE
  5
AD
330
1F
100
AcDbEntity
  8
躯体
  6
Continuous
 62
     2
370
     9
100
AcDbLine
 10
66.5930452361784
 20
230.0795674493564
 30
0.0
 11
60.30060105860242
 21
229.1114838872787
 31
0.0
  0
LINE
  5
AE
330
1F
100
AcDbEntity
  8
躯体
  6
Continuous
 62
     2
370
     9
100
AcDbLine
 10
60.30060105860242
 20
228.0345268032416
 30
0.0
 11
69.30048228748751
 21
228.0345268032416
 31
0.0
  0
LINE
  5
AF
330
1F
100
AcDbEntity
  8
躯体
  6
Continuous
 62
     2
370
     9
100
AcDbLine
 10
60.30060105860242
 20
222.0345070080558
 30
0.0
 11
69.30048228748751
 21
222.0345070080558
 31
0.0
  0
LINE
  5
B0
330
1F
100
AcDbEntity
  8
躯体
  6
Continuous
 62
     2
370
     9
100
AcDbLine
 10
60.30060105860242
 20
220.9575499240186
 30
0.0
 11
66.5930452361784
 21
219.9893673860118
 31
0.0
  0
LINE
  5
B1
330
1F
100
AcDbEntity
  8
躯体
  6
Continuous
 62
     2
370
     9
100
AcDbLine
 10
60.30060105860242
 20
205.3092575887146
 30
0.0
 11
66.61051448765647
 21
206.0719660980051
 31
0.0
  0
LINE
  5
B2
330
1F
100
AcDbEntity
  8
躯体
  6
Continuous
 62
     2
370
     9
100
AcDbLine
 10
60.30060105860242
 20
205.0345004096606
 30
0.0
 11
69.30048228748751
 21
205.0345004096606
 31
0.0
  0
LINE
  5
B3
330
1F
100
AcDbEntity
  8
躯体
  6
Continuous
 62
     2
370
     9
100
AcDbLine
 10
60.30060105860242
 20
197.0344740160795
 30
0.0
 11
69.30048228748751
 21
197.0344740160795
 31
0.0
  0
LINE
  5
B4
330
1F
100
AcDbEntity
  8
躯体
  6
Continuous
 62
     2
370
     9
100
AcDbLine
 10
60.30060105860242
 20
196.7597168370254
 30
0.0
 11
66.61051448765647
 21
195.9970083277349
 31
0.0
  0
LINE
  5
B5
330
1F
100
AcDbEntity
  8
躯体
  6
Continuous
 62
     2
370
     9
100
AcDbLine
 10
60.30060105860242
 20
181.1114245017213
 30
0.0
 11
66.5930452361784
 21
182.079508063799
 31
0.0
  0
LINE
  5
B6
330
1F
100
AcDbEntity
  8
躯体
  6
Continuous
 62
     2
370
     9
100
AcDbLine
 10
60.30060105860242
 20
180.0344674176842
 30
0.0
 11
69.30048228748751
 21
180.0344674176842
 31
0.0
  0
LINE
  5
B7
330
1F
100
AcDbEntity
  8
躯体
  6
Continuous
 62
     2
370
     9
100
AcDbLine
 10
60.30060105860242
 20
174.0344476224984
 30
0.0
 11
69.30048228748751
 21
174.0344476224984
 31
0.0
  0
LINE
  5
B8
330
1F
100
AcDbEntity
  8
躯体
  6
Continuous
 62
     2
370
     9
100
AcDbLine
 10
66.5930452361784
 20
171.9894069763835
 30
0.0
 11
60.30060105860242
 21
172.9574905384612
 31
0.0
  0
LINE
  5
B9
330
1F
100
AcDbEntity
  8
躯体
  6
Continuous
 62
     2
370
     9
100
AcDbLine
 10
60.30060105860242
 20
157.3091982031572
 30
0.0
 11
66.61051448765647
 21
158.0719067124477
 31
0.0
  0
LINE
  5
BA
330
1F
100
AcDbEntity
  8
躯体
  6
Continuous
 62
     2
370
     9
100
AcDbLine
 10
60.30060105860242
 20
157.0344410241031
 30
0.0
 11
69.30048228748751
 21
157.0344410241031
 31
0.0
  0
LINE
  5
BB
330
1F
100
AcDbEntity
  8
躯体
  6
Continuous
 62
     2
370
     9
100
AcDbLine
 10
60.30060105860242
 20
149.034414630522
 30
0.0
 11
69.30048228748751
 21
149.034414630522
 31
0.0
  0
LINE
  5
BC
330
1F
100
AcDbEntity
  8
躯体
  6
Continuous
 62
     2
370
     9
100
AcDbLine
 10
60.30060105860242
 20
148.759657451468
 30
0.0
 11
66.61051448765647
 21
147.9969489421774
 31
0.0
  0
LINE
  5
BD
330
1F
100
AcDbEntity
  8
躯体
  6
Continuous
 62
     2
370
     9
100
AcDbLine
 10
66.5930452361784
 20
134.0795476541707
 30
0.0
 11
60.30060105860242
 21
133.1113651161639
 31
0.0
  0
LINE
  5
BE
330
1F
100
AcDbEntity
  8
躯体
  6
Continuous
 62
     2
370
     9
100
AcDbLine
 10
60.30060105860242
 20
132.0344080321267
 30
0.0
 11
69.30048228748751
 21
132.0344080321267
 31
0.0
  0
LINE
  5
BF
330
1F
100
AcDbEntity
  8
躯体
  6
Continuous
 62
     2
370
     9
100
AcDbLine
 10
60.30060105860242
 20
126.034388236941
 30
0.0
 11
69.30048228748751
 21
126.034388236941
 31
0.0
  0
LINE
  5
C0
330
1F
100
AcDbEntity
  8
躯体
  6
Continuous
 62
     2
370
     9
100
AcDbLine
 10
60.30060105860242
 20
124.9575301288328
 30
0.0
 11
66.59314421210746
 21
123.9894465667551
 31
0.0
  0
LINE
  5
C1
330
1F
100
AcDbEntity
  8
躯体
  6
Continuous
 62
     2
370
     9
100
AcDbLine
 10
60.30060105860242
 20
109.3091388175998
 30
0.0
 11
66.61051448765647
 21
110.0719463028194
 31
0.0
  0
LINE
  5
C2
330
1F
100
AcDbEntity
  8
躯体
  6
Continuous
 62
     2
370
     9
100
AcDbLine
 10
60.30060105860242
 20
109.0344806144748
 30
0.0
 11
69.30048228748751
 21
109.0344806144748
 31
0.0
  0
LINE
  5
C3
330
1F
100
AcDbEntity
  8
躯体
  6
Continuous
 62
     2
370
     9
100
AcDbLine
 10
60.30060105860242
 20
101.0344542208937
 30
0.0
 11
69.30048228748751
 21
101.0344542208937
 31
0.0
  0
LINE
  5
C4
330
1F
100
AcDbEntity
  8
躯体
  6
Continuous
 62
     2
370
     9
100
AcDbLine
 10
60.30060105860242
 20
100.7596970418396
 30
0.0
 11
66.61051448765647
 21
99.9969885325491
 31
0.0
  0
LINE
  5
C5
330
1F
100
AcDbEntity
  8
躯体
  6
Continuous
 62
     2
370
     9
100
AcDbLine
 10
60.30060105860242
 20
85.1114047065355
 30
0.0
 11
66.59314421210746
 21
86.07938929268414
 31
0.0
  0
LINE
  5
C6
330
1F
100
AcDbEntity
  8
躯体
  6
Continuous
 62
     2
370
     9
100
AcDbLine
 10
60.30060105860242
 20
84.03444762249842
 30
0.0
 11
69.30048228748751
 21
84.03444762249842
 31
0.0
  0
LINE
  5
C7
330
1F
100
AcDbEntity
  8
躯体
  6
Continuous
 62
     2
370
     9
100
AcDbLine
 10
60.30060105860242
 20
78.03442782731258
 30
0.0
 11
69.30048228748751
 21
78.03442782731258
 31
0.0
  0
LINE
  5
C8
330
1F
100
AcDbEntity
  8
躯体
  6
Continuous
 62
     2
370
     9
100
AcDbLine
 10
66.59314421210746
 20
75.98938718119769
 30
0.0
 11
60.30060105860242
 21
76.9574707432754
 31
0.0
  0
LINE
  5
C9
330
1F
100
AcDbEntity
  8
仕上
  6
Continuous
 62
     4
370
     9
100
AcDbLine
 10
-42.11093095681144
 20
152.555384330691
 30
0.0
 11
-44.09948109141873
 21
152.555384330691
 31
0.0
  0
LINE
  5
CA
330
1F
100
AcDbEntity
  8
躯体
  6
Continuous
 62
     2
370
     9
100
AcDbLine
 10
-47.41678307357665
 20
229.7890730975828
 30
0.0
 11
-50.982489893678
 21
229.2797429666707
 31
0.0
  0
LINE
  5
CB
330
1F
100
AcDbEntity
  8
躯体
  6
Continuous
 62
     2
370
     9
100
AcDbLine
 10
-47.41678307357665
 20
76.27978255704227
 30
0.0
 11
-50.982489893678
 21
76.78911268795446
 31
0.0
  0
LINE
  5
CC
330
1F
100
AcDbEntity
  8
躯体
  6
Continuous
 62
     2
370
     9
100
AcDbLine
 10
-45.69960019245337
 20
61.34441383871456
 30
0.0
 11
-45.69960019245337
 21
74.29986807224498
 31
0.0
  0
LINE
  5
CD
330
1F
100
AcDbEntity
  8
躯体
  6
Continuous
 62
     2
370
     9
100
AcDbLine
 10
-47.50056619752092
 20
59.35440380915372
 30
0.0
 11
-60.6996249364356
 21
58.03446081928894
 31
0.0
  0
LINE
  5
CE
330
1F
100
AcDbEntity
  8
躯体
  6
Continuous
 62
     2
370
     9
100
AcDbLine
 10
-47.41678307357665
 20
85.78919186869769
 30
0.0
 11
-50.982489893678
 21
85.27976276185643
 31
0.0
  0
LINE
  5
CF
330
1F
100
AcDbEntity
  8
躯体
  6
Continuous
 62
     2
370
     9
100
AcDbLine
 10
-45.69960019245337
 20
98.2999472529882
 30
0.0
 11
-45.69960019245337
 21
87.76900737756591
 31
0.0
  0
LINE
  5
D0
330
1F
100
AcDbEntity
  8
躯体
  6
Continuous
 62
     2
370
     9
100
AcDbLine
 10
-47.41683256154118
 20
100.2798617377855
 30
0.0
 11
-50.982489893678
 21
100.7890928927686
 31
0.0
  0
LINE
  5
D1
330
1F
100
AcDbEntity
  8
躯体
  6
Continuous
 62
     2
370
     9
100
AcDbLine
 10
-47.41673358561211
 20
109.7891720735118
 30
0.0
 11
-50.982489893678
 21
109.2797429666707
 31
0.0
  0
LINE
  5
D2
330
1F
100
AcDbEntity
  8
躯体
  6
Continuous
 62
     2
370
     9
100
AcDbLine
 10
-45.69960019245337
 20
122.2998284818734
 30
0.0
 11
-45.69960019245337
 21
111.7690865583091
 31
0.0
  0
LINE
  5
D3
330
1F
100
AcDbEntity
  8
躯体
  6
Continuous
 62
     2
370
     9
100
AcDbLine
 10
-47.41678307357665
 20
124.2797429666707
 30
0.0
 11
-50.982489893678
 21
124.7890730975828
 31
0.0
  0
LINE
  5
D4
330
1F
100
AcDbEntity
  8
躯体
  6
Continuous
 62
     2
370
     9
100
AcDbLine
 10
-47.41678307357665
 20
133.789053302397
 30
0.0
 11
-50.982489893678
 21
133.2797231714849
 31
0.0
  0
LINE
  5
D5
330
1F
100
AcDbEntity
  8
躯体
  6
Continuous
 62
     2
370
     9
100
AcDbLine
 10
-45.69960019245337
 20
146.2999076626166
 30
0.0
 11
-45.69960019245337
 21
135.7689677871944
 31
0.0
  0
LINE
  5
D6
330
1F
100
AcDbEntity
  8
躯体
  6
Continuous
 62
     2
370
     9
100
AcDbLine
 10
-47.41678307357665
 20
148.2798221474139
 30
0.0
 11
-50.982489893678
 21
148.7891522783261
 31
0.0
  0
LINE
  5
D7
330
1F
100
AcDbEntity
  8
躯体
  6
Continuous
 62
     2
370
     9
100
AcDbLine
 10
-47.41678307357665
 20
157.7891324831403
 30
0.0
 11
-50.982489893678
 21
157.2798023522281
 31
0.0
  0
LINE
  5
D8
330
1F
100
AcDbEntity
  8
躯体
  6
Continuous
 62
     2
370
     9
100
AcDbLine
 10
-45.69960019245337
 20
170.2998878674308
 30
0.0
 11
-45.69960019245337
 21
159.7690469679376
 31
0.0
  0
LINE
  5
D9
330
1F
100
AcDbEntity
  8
躯体
  6
Continuous
 62
     2
370
     9
100
AcDbLine
 10
-47.41678307357665
 20
172.2798023522281
 30
0.0
 11
-50.982489893678
 21
172.7891324831403
 31
0.0
  0
LINE
  5
DA
330
1F
100
AcDbEntity
  8
躯体
  6
Continuous
 62
     2
370
     9
100
AcDbLine
 10
-47.41678307357665
 20
181.7891126879545
 30
0.0
 11
-50.982489893678
 21
181.2797825570423
 31
0.0
  0
LINE
  5
DB
330
1F
100
AcDbEntity
  8
躯体
  6
Continuous
 62
     2
370
     9
100
AcDbLine
 10
-47.41673358561211
 20
196.2796835811132
 30
0.0
 11
-50.982489893678
 21
196.7891126879545
 31
0.0
  0
LINE
  5
DC
330
1F
100
AcDbEntity
  8
躯体
  6
Continuous
 62
     2
370
     9
100
AcDbLine
 10
-45.69960019245337
 20
194.2997690963159
 30
0.0
 11
-45.69960019245337
 21
183.7690271727517
 31
0.0
  0
LINE
  5
DD
330
1F
100
AcDbEntity
  8
躯体
  6
Continuous
 62
     2
370
     9
100
AcDbLine
 10
-47.41683256154118
 20
205.7890928927686
 30
0.0
 11
-50.982489893678
 21
205.2797627618565
 31
0.0
  0
LINE
  5
DE
330
1F
100
AcDbEntity
  8
躯体
  6
Continuous
 62
     2
370
     9
100
AcDbLine
 10
-45.69960019245337
 20
218.2998482770592
 30
0.0
 11
-45.69960019245337
 21
207.7690073775659
 31
0.0
  0
LINE
  5
DF
330
1F
100
AcDbEntity
  8
躯体
  6
Continuous
 62
     2
370
     9
100
AcDbLine
 10
-47.41678307357665
 20
220.2797627618565
 30
0.0
 11
-50.982489893678
 21
220.7890928927686
 31
0.0
  0
LINE
  5
E0
330
1F
100
AcDbEntity
  8
躯体
  6
Continuous
 62
     2
370
     9
100
AcDbLine
 10
-45.69960019245337
 20
244.7244418159105
 30
0.0
 11
-45.69960019245337
 21
231.7689875823801
 31
0.0
  0
LINE
  5
E1
330
1F
100
AcDbEntity
  8
躯体
  6
Continuous
 62
     2
370
     9
100
AcDbLine
 10
-47.50056619752092
 20
246.7145508214004
 30
0.0
 11
-60.6996249364356
 21
248.0343948353362
 31
0.0
  0
LINE
  5
E2
330
1F
100
AcDbEntity
  8
仕上
  6
Continuous
 62
     4
370
     9
100
AcDbLine
 10
-44.09945634743644
 20
159.0344476224984
 30
0.0
 11
-45.83940369224222
 21
159.0344476224984
 31
0.0
  0
LINE
  5
E3
330
1F
100
AcDbEntity
  8
仕上
  6
Continuous
 62
     4
370
     9
100
AcDbLine
 10
-44.09945634743644
 20
147.0345070080558
 30
0.0
 11
-45.83940369224222
 21
147.0345070080558
 31
0.0
  0
LINE
  5
E4
330
1F
100
AcDbEntity
  8
仕上
  6
Continuous
 62
     4
370
     9
100
AcDbLine
 10
-46.69955400368644
 20
148.0318874451335
 30
0.0
 11
-46.69955400368644
 21
158.0369682094916
 31
0.0
  0
LINE
  5
E5
330
1F
100
AcDbEntity
  8
躯体
  6
Continuous
 62
     2
370
     9
100
AcDbLine
 10
63.30046249230174
 20
243.5344542208936
 30
0.0
 11
14.80045094511002
 21
243.5344542208936
 31
0.0
  0
LINE
  5
E6
330
1F
100
AcDbEntity
  8
躯体
  6
Continuous
 62
     2
370
     9
100
AcDbLine
 10
66.30047238989465
 20
240.5343948353362
 30
0.0
 11
66.30047238989465
 21
230.5344608192889
 31
0.0
  0
LINE
  5
E7
330
1F
100
AcDbEntity
  8
躯体
  6
Continuous
 62
     2
370
     9
100
AcDbLine
 10
63.30046249230174
 20
246.5344146305221
 30
0.0
 11
14.80045094511002
 21
246.5344146305221
 31
0.0
  0
LINE
  5
E8
330
1F
100
AcDbEntity
  8
躯体
  6
Continuous
 62
     2
370
     9
100
AcDbLine
 10
63.30046249230174
 20
248.0343948353362
 30
0.0
 11
-60.6996249364356
 21
248.0343948353362
 31
0.0
  0
LINE
  5
E9
330
1F
100
AcDbEntity
  8
躯体
  6
Continuous
 62
     2
370
     9
100
AcDbLine
 10
63.30046249230174
 20
59.5344410241031
 30
0.0
 11
14.80045094511002
 21
59.5344410241031
 31
0.0
  0
LINE
  5
EA
330
1F
100
AcDbEntity
  8
躯体
  6
Continuous
 62
     2
370
     9
100
AcDbLine
 10
69.30048228748751
 20
64.03448061447466
 30
0.0
 11
69.30048228748751
 21
242.0344740160795
 31
0.0
  0
LINE
  5
EB
330
1F
100
AcDbEntity
  8
躯体
  6
Continuous
 62
     2
370
     9
100
AcDbLine
 10
63.30046249230174
 20
58.03446081928894
 30
0.0
 11
-60.6996249364356
 21
58.03446081928894
 31
0.0
  0
LINE
  5
EC
330
1F
100
AcDbEntity
  8
躯体
  6
Continuous
 62
     2
370
     9
100
AcDbLine
 10
66.30047238989465
 20
65.53446081928894
 30
0.0
 11
66.30047238989465
 21
75.53439483533623
 31
0.0
  0
LINE
  5
ED
330
1F
100
AcDbEntity
  8
躯体
  6
Continuous
 62
     2
370
     9
100
AcDbLine
 10
63.30046249230174
 20
62.53445092169602
 30
0.0
 11
14.80045094511002
 21
62.53445092169602
 31
0.0
  0
LINE
  5
EE
330
1F
100
AcDbEntity
  8
通り芯
  6
Continuous
 62
     3
370
     9
100
AcDbLine
 10
-62.50061568548545
 20
257.2145112310287
 30
0.0
 11
-70.6996331844297
 21
258.0344278273126
 31
0.0
  0
LINE
  5
EF
330
1F
100
AcDbEntity
  8
通り芯
  6
Continuous
 62
     3
370
     9
100
AcDbLine
 10
69.30043279952298
 20
257.0344740160795
 30
0.0
 11
-61.84880970469998
 21
257.0344740160795
 31
0.0
  0
LINE
  5
F0
330
1F
100
AcDbEntity
  8
通り芯
  6
Continuous
 62
     3
370
     9
100
AcDbLine
 10
-60.6996249364356
 20
50.84445342908623
 30
0.0
 11
-60.6996249364356
 21
255.2244022255389
 31
0.0
  0
LINE
  5
F1
330
1F
100
AcDbEntity
  8
通り芯
  6
Continuous
 62
     3
370
     9
100
AcDbLine
 10
-62.50061568548545
 20
48.85434442359633
 30
0.0
 11
-70.6996331844297
 21
48.03442782731258
 31
0.0
  0
LINE
  5
F2
330
1F
100
AcDbEntity
  8
通り芯
  6
Continuous
 62
     3
370
     9
100
AcDbLine
 10
69.30043279952298
 20
49.03448061447466
 30
0.0
 11
-61.84873547275318
 21
49.03448061447466
 31
0.0
  0
LINE
  5
F3
330
1F
100
AcDbEntity
  8
躯体
  6
Continuous
 62
     2
370
     9
100
AcDbLine
 10
-0.8087953861822186
 20
246.5344146305221
 30
0.0
 11
-46.84866124080639
 21
246.5344146305221
 31
0.0
  0
LINE
  5
F4
330
1F
100
AcDbEntity
  8
躯体
  6
Continuous
 62
     2
370
     9
100
AcDbLine
 10
-45.69960019245337
 20
243.5344542208936
 30
0.0
 11
-0.8087953861822186
 21
243.5344542208936
 31
0.0
  0
LINE
  5
F5
330
1F
100
AcDbEntity
  8
躯体
  6
Continuous
 62
     2
370
     9
100
AcDbLine
 10
-45.69960019245337
 20
62.53445092169602
 30
0.0
 11
-0.8087953861822186
 21
62.53445092169602
 31
0.0
  0
LINE
  5
F6
330
1F
100
AcDbEntity
  8
躯体
  6
Continuous
 62
     2
370
     9
100
AcDbLine
 10
-46.84871072877092
 20
59.5344410241031
 30
0.0
 11
-0.8087953861822186
 21
59.5344410241031
 31
0.0
  0
LINE
  5
F7
330
1F
100
AcDbEntity
  8
通り芯
  6
Continuous
 62
     3
370
     9
100
AcDbLine
 10
-70.6996331844297
 20
239.0344146305221
 30
0.0
 11
-75.29770843252936
 21
238.1148292736808
 31
0.0
  0
LINE
  5
F8
330
1F
100
AcDbEntity
  8
通り芯
  6
Continuous
 62
     3
370
     9
100
AcDbLine
 10
-75.69960019245335
 20
237.6245025211471
 30
0.0
 11
-75.69960019245335
 21
228.4443861254545
 31
0.0
  0
LINE
  5
F9
330
1F
100
AcDbEntity
  8
通り芯
  6
Continuous
 62
     3
370
     9
100
AcDbLine
 10
-75.69960019245335
 20
68.4443531334781
 30
0.0
 11
-75.69960019245335
 21
77.62446952917071
 31
0.0
  0
LINE
  5
FA
330
1F
100
AcDbEntity
  8
通り芯
  6
Continuous
 62
     3
370
     9
100
AcDbLine
 10
-77.6996315348309
 20
235.3944758636301
 30
0.0
 11
-75.69960019245335
 21
235.3944758636301
 31
0.0
  0
LINE
  5
FB
330
1F
100
AcDbEntity
  8
通り芯
  6
Continuous
 62
     3
370
     9
100
AcDbLine
 10
-77.6996315348309
 20
236.2092457116031
 30
0.0
 11
-75.69960019245335
 21
236.2092457116031
 31
0.0
  0
LINE
  5
FC
330
1F
100
AcDbEntity
  8
通り芯
  6
Continuous
 62
     3
370
     9
100
AcDbLine
 10
-77.6996315348309
 20
230.6744127829713
 30
0.0
 11
-75.69960019245335
 21
230.6744127829713
 31
0.0
  0
LINE
  5
FD
330
1F
100
AcDbEntity
  8
通り芯
  6
Continuous
 62
     3
370
     9
100
AcDbLine
 10
-77.6996315348309
 20
229.8594449831403
 30
0.0
 11
-75.69960019245335
 21
229.8594449831403
 31
0.0
  0
LINE
  5
FE
330
1F
100
AcDbEntity
  8
通り芯
  6
Continuous
 62
     3
370
     9
100
AcDbLine
 10
-95.69961668844152
 20
230.0343354497787
 30
0.0
 11
-77.6996315348309
 21
230.0343354497787
 31
0.0
  0
LINE
  5
FF
330
1F
100
AcDbEntity
  8
通り芯
  6
Continuous
 62
     3
370
     9
100
AcDbLine
 10
-95.69961668844152
 20
236.0343552449646
 30
0.0
 11
-77.6996315348309
 21
236.0343552449646
 31
0.0
  0
LINE
  5
100
330
1F
100
AcDbEntity
  8
通り芯
  6
JWW_CENTER1
 62
     3
370
     9
100
AcDbLine
 10
-95.69961668844152
 20
227.973062751299
 30
0.0
 11
-95.69961668844152
 21
238.4070062162483
 31
0.0
  0
LINE
  5
101
330
1F
100
AcDbEntity
  8
通り芯
  6
Continuous
 62
     3
370
     9
100
AcDbLine
 10
-77.6996315348309
 20
229.8594449831403
 30
0.0
 11
-77.6996315348309
 21
236.2092457116031
 31
0.0
  0
LINE
  5
102
330
1F
100
AcDbEntity
  8
通り芯
  6
JWW_CENTER1
 62
     3
370
     9
100
AcDbLine
 10
-100.4561523989567
 20
233.0344938112653
 30
0.0
 11
-75.69960019245335
 21
233.0344938112653
 31
0.0
  0
LINE
  5
103
330
1F
100
AcDbEntity
  8
通り芯
  6
Continuous
 62
     3
370
     9
100
AcDbLine
 10
-77.6996315348309
 20
70.67437979099498
 30
0.0
 11
-75.69960019245335
 21
70.67437979099498
 31
0.0
  0
LINE
  5
104
330
1F
100
AcDbEntity
  8
通り芯
  6
Continuous
 62
     3
370
     9
100
AcDbLine
 10
-77.6996315348309
 20
69.85960994302206
 30
0.0
 11
-75.69960019245335
 21
69.85960994302206
 31
0.0
  0
LINE
  5
105
330
1F
100
AcDbEntity
  8
通り芯
  6
Continuous
 62
     3
370
     9
100
AcDbLine
 10
-77.6996315348309
 20
75.39444287165372
 30
0.0
 11
-75.69960019245335
 21
75.39444287165372
 31
0.0
  0
LINE
  5
106
330
1F
100
AcDbEntity
  8
通り芯
  6
Continuous
 62
     3
370
     9
100
AcDbLine
 10
-77.6996315348309
 20
76.20950964741394
 30
0.0
 11
-75.69960019245335
 21
76.20950964741394
 31
0.0
  0
LINE
  5
107
330
1F
100
AcDbEntity
  8
通り芯
  6
Continuous
 62
     3
370
     9
100
AcDbLine
 10
-95.69961668844152
 20
76.0346191807754
 30
0.0
 11
-77.6996315348309
 21
76.0346191807754
 31
0.0
  0
LINE
  5
108
330
1F
100
AcDbEntity
  8
通り芯
  6
Continuous
 62
     3
370
     9
100
AcDbLine
 10
-95.69961668844152
 20
70.03459938558956
 30
0.0
 11
-77.6996315348309
 21
70.03459938558956
 31
0.0
  0
LINE
  5
109
330
1F
100
AcDbEntity
  8
通り芯
  6
JWW_CENTER1
 62
     3
370
     9
100
AcDbLine
 10
-95.69961668844152
 20
78.0958423912906
 30
0.0
 11
-95.69961668844152
 21
67.66184943837675
 31
0.0
  0
LINE
  5
10A
330
1F
100
AcDbEntity
  8
通り芯
  6
Continuous
 62
     3
370
     9
100
AcDbLine
 10
-77.6996315348309
 20
76.20950964741394
 30
0.0
 11
-77.6996315348309
 21
69.85960994302206
 31
0.0
  0
LINE
  5
10B
330
1F
100
AcDbEntity
  8
通り芯
  6
JWW_CENTER1
 62
     3
370
     9
100
AcDbLine
 10
-100.4561523989567
 20
73.03446081928894
 30
0.0
 11
-75.69960019245335
 21
73.03446081928894
 31
0.0
  0
LINE
  5
10C
330
1F
100
AcDbEntity
  8
通り芯
  6
Continuous
 62
     3
370
     9
100
AcDbLine
 10
-100.6996084404475
 20
91.03442122891727
 30
0.0
 11
-100.6996084404475
 21
215.0344344257078
 31
0.0
  0
LINE
  5
10D
330
1F
100
AcDbEntity
  8
通り芯
  6
Continuous
 62
     3
370
     9
100
AcDbLine
 10
-100.6996084404475
 20
91.03442122891727
 30
0.0
 11
-93.74179857980559
 21
91.03442122891727
 31
0.0
  0
LINE
  5
10E
330
1F
100
AcDbEntity
  8
通り芯
  6
Continuous
 62
     3
370
     9
100
AcDbLine
 10
-100.6996084404475
 20
215.0344344257078
 30
0.0
 11
-93.74179857980559
 21
215.0344344257078
 31
0.0
  0
LINE
  5
10F
330
1F
100
AcDbEntity
  8
仕上
  6
Continuous
 62
     6
370
     9
100
AcDbLine
 10
60.30067529054919
 20
67.53446741768414
 30
0.0
 11
60.30067529054919
 21
238.5343882369409
 31
0.0
  0
LINE
  5
110
330
1F
100
AcDbEntity
  8
仕上
  6
JWW_CENTER1
 62
     6
370
     9
100
AcDbLine
 10
-32.55722991690435
 20
199.7267677502433
 30
0.0
 11
-32.55722991690435
 21
217.4699351119409
 31
0.0
  0
LINE
  5
111
330
1F
100
AcDbEntity
  8
仕上
  6
Continuous
 62
     6
370
     9
100
AcDbLine
 10
-27.0217041567692
 20
157.7844558704925
 30
0.0
 11
46.33279627872486
 21
157.7844558704925
 31
0.0
  0
LINE
  5
112
330
1F
100
AcDbEntity
  8
仕上
  6
Continuous
 62
     6
370
     9
100
AcDbLine
 10
-29.02171075516451
 20
150.5344443233008
 30
0.0
 11
-29.02171075516451
 21
155.7844245281149
 31
0.0
  0
LINE
  5
113
330
1F
100
AcDbEntity
  8
仕上
  6
Continuous
 62
     6
370
     9
100
AcDbLine
 10
-18.41515326994487
 20
166.5344228785161
 30
0.0
 11
-18.41515326994487
 21
157.7844558704925
 31
0.0
  0
LINE
  5
114
330
1F
100
AcDbEntity
  8
仕上
  6
Continuous
 62
     6
370
     9
100
AcDbLine
 10
-18.41515326994487
 20
241.5344476224983
 30
0.0
 11
-18.41515326994487
 21
231.7845268032416
 31
0.0
  0
LINE
  5
115
330
1F
100
AcDbEntity
  8
仕上
  6
Continuous
 62
     6
370
     9
100
AcDbLine
 10
-18.41515326994487
 20
222.2844707168819
 30
0.0
 11
-18.41515326994487
 21
213.2844410241031
 31
0.0
  0
LINE
  5
116
330
1F
100
AcDbEntity
  8
仕上
  6
Continuous
 62
     6
370
     9
100
AcDbLine
 10
-18.41515326994487
 20
203.7844344257078
 30
0.0
 11
-18.41515326994487
 21
194.7844542208936
 31
0.0
  0
LINE
  5
117
330
1F
100
AcDbEntity
  8
仕上
  6
Continuous
 62
     6
370
     9
100
AcDbLine
 10
-18.41515326994487
 20
185.2844476224984
 30
0.0
 11
-18.41515326994487
 21
176.284442673702
 31
0.0
  0
LINE
  5
118
330
1F
100
AcDbEntity
  8
仕上
  6
Continuous
 62
     6
370
     9
100
AcDbLine
 10
48.30063570017757
 20
224.2844773152771
 30
0.0
 11
48.30063570017757
 21
229.7845202048463
 31
0.0
  0
LINE
  5
119
330
1F
100
AcDbEntity
  8
仕上
  6
Continuous
 62
     6
370
     9
100
AcDbLine
 10
48.30063570017757
 20
205.7844410241031
 30
0.0
 11
48.30063570017757
 21
211.2844344257078
 31
0.0
  0
LINE
  5
11A
330
1F
100
AcDbEntity
  8
仕上
  6
Continuous
 62
     6
370
     9
100
AcDbLine
 10
48.30063570017757
 20
187.2844542208936
 30
0.0
 11
48.30063570017757
 21
192.7844476224984
 31
0.0
  0
LINE
  5
11B
330
1F
100
AcDbEntity
  8
仕上
  6
Continuous
 62
     6
370
     9
100
AcDbLine
 10
48.30063570017757
 20
168.784442673702
 30
0.0
 11
48.30063570017757
 21
174.2844360753066
 31
0.0
  0
LINE
  5
11C
330
1F
100
AcDbEntity
  8
仕上
  6
Continuous
 62
     6
370
     9
100
AcDbLine
 10
-27.0217041567692
 20
231.7845268032416
 30
0.0
 11
46.30062910178231
 21
231.7845268032416
 31
0.0
  0
LINE
  5
11D
330
1F
100
AcDbEntity
  8
仕上
  6
Continuous
 62
     6
370
     9
100
AcDbLine
 10
-29.02171075516451
 20
224.2844773152771
 30
0.0
 11
-29.02171075516451
 21
229.7845202048463
 31
0.0
  0
LINE
  5
11E
330
1F
100
AcDbEntity
  8
仕上
  6
Continuous
 62
     6
370
     9
100
AcDbLine
 10
-27.0217041567692
 20
222.2844707168819
 30
0.0
 11
46.30062910178231
 21
222.2844707168819
 31
0.0
  0
LINE
  5
11F
330
1F
100
AcDbEntity
  8
仕上
  6
Continuous
 62
     6
370
     9
100
AcDbLine
 10
-19.59714855869066
 20
213.2844410241031
 30
0.0
 11
46.30062910178231
 21
213.2844410241031
 31
0.0
  0
LINE
  5
120
330
1F
100
AcDbEntity
  8
仕上
  6
Continuous
 62
     6
370
     9
100
AcDbLine
 10
-21.59715515708597
 20
205.7844410241031
 30
0.0
 11
-21.59715515708597
 21
211.2844344257078
 31
0.0
  0
LINE
  5
121
330
1F
100
AcDbEntity
  8
仕上
  6
Continuous
 62
     6
370
     9
100
AcDbLine
 10
-19.59714855869066
 20
203.7844344257078
 30
0.0
 11
46.30062910178231
 21
203.7844344257078
 31
0.0
  0
LINE
  5
122
330
1F
100
AcDbEntity
  8
仕上
  6
Continuous
 62
     6
370
     9
100
AcDbLine
 10
-27.0217041567692
 20
194.7844542208936
 30
0.0
 11
46.30062910178231
 21
194.7844542208936
 31
0.0
  0
LINE
  5
123
330
1F
100
AcDbEntity
  8
仕上
  6
Continuous
 62
     6
370
     9
100
AcDbLine
 10
-29.02171075516451
 20
187.2844542208936
 30
0.0
 11
-29.02171075516451
 21
192.7844476224984
 31
0.0
  0
LINE
  5
124
330
1F
100
AcDbEntity
  8
仕上
  6
Continuous
 62
     6
370
     9
100
AcDbLine
 10
-27.0217041567692
 20
185.2844476224984
 30
0.0
 11
46.30062910178231
 21
185.2844476224984
 31
0.0
  0
LINE
  5
125
330
1F
100
AcDbEntity
  8
仕上
  6
Continuous
 62
     6
370
     9
100
AcDbLine
 10
-27.0217041567692
 20
176.284442673702
 30
0.0
 11
46.30062910178231
 21
176.284442673702
 31
0.0
  0
LINE
  5
126
330
1F
100
AcDbEntity
  8
仕上
  6
Continuous
 62
     6
370
     9
100
AcDbLine
 10
-29.02171075516451
 20
168.784442673702
 30
0.0
 11
-29.02171075516451
 21
174.2844360753066
 31
0.0
  0
LINE
  5
127
330
1F
100
AcDbEntity
  8
仕上
  6
Continuous
 62
     6
370
     9
100
AcDbLine
 10
-27.0217041567692
 20
166.7844360753066
 30
0.0
 11
46.30062910178231
 21
166.7844360753066
 31
0.0
  0
LINE
  5
128
330
1F
100
AcDbEntity
  8
仕上
  6
Continuous
 62
     6
370
     9
100
AcDbLine
 10
-36.09279856660873
 20
168.784442673702
 30
0.0
 11
-36.09279856660873
 21
174.2844360753066
 31
0.0
  0
LINE
  5
129
330
1F
100
AcDbEntity
  8
仕上
  6
Continuous
 62
     6
370
     9
100
AcDbLine
 10
-36.09279856660873
 20
192.7844476224984
 30
0.0
 11
-36.09279856660873
 21
187.2844542208936
 31
0.0
  0
LINE
  5
12A
330
1F
100
AcDbEntity
  8
仕上
  6
Continuous
 62
     6
370
     9
100
AcDbLine
 10
-36.09279856660873
 20
224.2844773152771
 30
0.0
 11
-36.09279856660873
 21
229.7845202048463
 31
0.0
  0
LINE
  5
12B
330
1F
100
AcDbEntity
  8
仕上
  6
Continuous
 62
     6
370
     9
100
AcDbLine
 10
-43.51735416468733
 20
205.7844410241031
 30
0.0
 11
-43.51735416468733
 21
211.2844344257078
 31
0.0
  0
LINE
  5
12C
330
1F
100
AcDbEntity
  8
仕上
  6
Continuous
 62
     6
370
     9
100
AcDbLine
 10
-36.09279856660873
 20
155.7844245281149
 30
0.0
 11
-36.09279856660873
 21
150.5344443233008
 31
0.0
  0
LINE
  5
12D
330
1F
100
AcDbEntity
  8
仕上
  6
JWW_CENTER1
 62
     6
370
     9
100
AcDbLine
 10
-32.55722991690435
 20
106.342112648364
 30
0.0
 11
-32.55722991690435
 21
88.59894528666644
 31
0.0
  0
LINE
  5
12E
330
1F
100
AcDbEntity
  8
仕上
  6
Continuous
 62
     6
370
     9
100
AcDbLine
 10
-27.0217041567692
 20
148.2844245281149
 30
0.0
 11
46.33279627872486
 21
148.2844245281149
 31
0.0
  0
LINE
  5
12F
330
1F
100
AcDbEntity
  8
仕上
  6
Continuous
 62
     6
370
     9
100
AcDbLine
 10
-18.41515326994487
 20
139.534432776109
 30
0.0
 11
-18.41515326994487
 21
148.2844245281149
 31
0.0
  0
LINE
  5
130
330
1F
100
AcDbEntity
  8
仕上
  6
Continuous
 62
     6
370
     9
100
AcDbLine
 10
-18.41515326994487
 20
64.53443277610904
 30
0.0
 11
-18.41515326994487
 21
74.28440308333029
 31
0.0
  0
LINE
  5
131
330
1F
100
AcDbEntity
  8
仕上
  6
Continuous
 62
     6
370
     9
100
AcDbLine
 10
-18.41515326994487
 20
83.7844096817256
 30
0.0
 11
-18.41515326994487
 21
92.78438988653977
 31
0.0
  0
LINE
  5
132
330
1F
100
AcDbEntity
  8
仕上
  6
Continuous
 62
     6
370
     9
100
AcDbLine
 10
-18.41515326994487
 20
102.2844212289173
 30
0.0
 11
-18.41515326994487
 21
111.2844014337314
 31
0.0
  0
LINE
  5
133
330
1F
100
AcDbEntity
  8
仕上
  6
Continuous
 62
     6
370
     9
100
AcDbLine
 10
-18.41515326994487
 20
120.784432776109
 30
0.0
 11
-18.41515326994487
 21
129.7844129809232
 31
0.0
  0
LINE
  5
134
330
1F
100
AcDbEntity
  8
仕上
  6
Continuous
 62
     6
370
     9
100
AcDbLine
 10
48.30063570017757
 20
81.78440308333029
 30
0.0
 11
48.30063570017757
 21
76.28438493774331
 31
0.0
  0
LINE
  5
135
330
1F
100
AcDbEntity
  8
仕上
  6
Continuous
 62
     6
370
     9
100
AcDbLine
 10
48.30063570017757
 20
100.2843898865398
 30
0.0
 11
48.30063570017757
 21
94.78439648493497
 31
0.0
  0
LINE
  5
136
330
1F
100
AcDbEntity
  8
仕上
  6
Continuous
 62
     6
370
     9
100
AcDbLine
 10
48.30063570017757
 20
118.7844261777137
 30
0.0
 11
48.30063570017757
 21
113.284432776109
 31
0.0
  0
LINE
  5
137
330
1F
100
AcDbEntity
  8
仕上
  6
Continuous
 62
     6
370
     9
100
AcDbLine
 10
48.30063570017757
 20
137.2844129809232
 30
0.0
 11
48.30063570017757
 21
131.7844195793185
 31
0.0
  0
LINE
  5
138
330
1F
100
AcDbEntity
  8
仕上
  6
Continuous
 62
     6
370
     9
100
AcDbLine
 10
-27.0217041567692
 20
74.28440308333029
 30
0.0
 11
46.30062910178231
 21
74.28440308333029
 31
0.0
  0
LINE
  5
139
330
1F
100
AcDbEntity
  8
仕上
  6
Continuous
 62
     6
370
     9
100
AcDbLine
 10
-29.02171075516451
 20
81.78440308333029
 30
0.0
 11
-29.02171075516451
 21
76.28438493774331
 31
0.0
  0
LINE
  5
13A
330
1F
100
AcDbEntity
  8
仕上
  6
Continuous
 62
     6
370
     9
100
AcDbLine
 10
-27.0217041567692
 20
83.7844096817256
 30
0.0
 11
46.30062910178231
 21
83.7844096817256
 31
0.0
  0
LINE
  5
13B
330
1F
100
AcDbEntity
  8
仕上
  6
Continuous
 62
     6
370
     9
100
AcDbLine
 10
-19.59714855869066
 20
92.78438988653977
 30
0.0
 11
46.30062910178231
 21
92.78438988653977
 31
0.0
  0
LINE
  5
13C
330
1F
100
AcDbEntity
  8
仕上
  6
Continuous
 62
     6
370
     9
100
AcDbLine
 10
-21.59715515708597
 20
100.2843898865398
 30
0.0
 11
-21.59715515708597
 21
94.78439648493497
 31
0.0
  0
LINE
  5
13D
330
1F
100
AcDbEntity
  8
仕上
  6
Continuous
 62
     6
370
     9
100
AcDbLine
 10
-19.59714855869066
 20
102.2844212289173
 30
0.0
 11
46.30062910178231
 21
102.2844212289173
 31
0.0
  0
LINE
  5
13E
330
1F
100
AcDbEntity
  8
仕上
  6
Continuous
 62
     6
370
     9
100
AcDbLine
 10
-27.0217041567692
 20
111.2844014337314
 30
0.0
 11
46.30062910178231
 21
111.2844014337314
 31
0.0
  0
LINE
  5
13F
330
1F
100
AcDbEntity
  8
仕上
  6
Continuous
 62
     6
370
     9
100
AcDbLine
 10
-29.02171075516451
 20
118.7844261777137
 30
0.0
 11
-29.02171075516451
 21
113.284432776109
 31
0.0
  0
LINE
  5
140
330
1F
100
AcDbEntity
  8
仕上
  6
Continuous
 62
     6
370
     9
100
AcDbLine
 10
-27.0217041567692
 20
120.784432776109
 30
0.0
 11
46.30062910178231
 21
120.784432776109
 31
0.0
  0
LINE
  5
141
330
1F
100
AcDbEntity
  8
仕上
  6
Continuous
 62
     6
370
     9
100
AcDbLine
 10
-27.0217041567692
 20
129.7844129809232
 30
0.0
 11
46.30062910178231
 21
129.7844129809232
 31
0.0
  0
LINE
  5
142
330
1F
100
AcDbEntity
  8
仕上
  6
Continuous
 62
     6
370
     9
100
AcDbLine
 10
-29.02171075516451
 20
137.2844129809232
 30
0.0
 11
-29.02171075516451
 21
131.7844195793185
 31
0.0
  0
LINE
  5
143
330
1F
100
AcDbEntity
  8
仕上
  6
Continuous
 62
     6
370
     9
100
AcDbLine
 10
-27.0217041567692
 20
139.2844195793185
 30
0.0
 11
46.30062910178231
 21
139.2844195793185
 31
0.0
  0
LINE
  5
144
330
1F
100
AcDbEntity
  8
仕上
  6
Continuous
 62
     6
370
     9
100
AcDbLine
 10
-36.09279856660873
 20
137.2844129809232
 30
0.0
 11
-36.09279856660873
 21
131.7844195793185
 31
0.0
  0
LINE
  5
145
330
1F
100
AcDbEntity
  8
仕上
  6
Continuous
 62
     6
370
     9
100
AcDbLine
 10
-36.09279856660873
 20
113.284432776109
 30
0.0
 11
-36.09279856660873
 21
118.7844261777137
 31
0.0
  0
LINE
  5
146
330
1F
100
AcDbEntity
  8
仕上
  6
Continuous
 62
     6
370
     9
100
AcDbLine
 10
-36.09279856660873
 20
81.78440308333029
 30
0.0
 11
-36.09279856660873
 21
76.28438493774331
 31
0.0
  0
LINE
  5
147
330
1F
100
AcDbEntity
  8
仕上
  6
Continuous
 62
     6
370
     9
100
AcDbLine
 10
-43.51735416468733
 20
100.2843898865398
 30
0.0
 11
-43.51735416468733
 21
94.78439648493497
 31
0.0
  0
LINE
  5
148
330
1F
100
AcDbEntity
  8
仕上
  6
Continuous
 62
     6
370
     9
100
AcDbLine
 10
48.30063570017757
 20
155.4272946321057
 30
0.0
 11
48.30063570017757
 21
150.6415610225195
 31
0.0
  0
LINE
  5
149
330
1F
100
AcDbEntity
  8
仕上
  6
Continuous
 62
     6
370
     9
100
AcDbLine
 10
-45.69957544847107
 20
241.5344476224983
 30
0.0
 11
57.30066539295627
 21
241.5344476224983
 31
0.0
  0
LINE
  5
14A
330
1F
100
AcDbEntity
  8
仕上
  6
Continuous
 62
     6
370
     9
100
AcDbLine
 10
-38.09280516500404
 20
231.7845268032416
 30
0.0
 11
-45.82309740793055
 21
231.7845268032416
 31
0.0
  0
LINE
  5
14B
330
1F
100
AcDbEntity
  8
仕上
  6
Continuous
 62
     6
370
     9
100
AcDbLine
 10
-38.09280516500404
 20
222.2844707168819
 30
0.0
 11
-52.64491434205217
 21
222.2844707168819
 31
0.0
  0
LINE
  5
14C
330
1F
100
AcDbEntity
  8
仕上
  6
Continuous
 62
     6
370
     9
100
AcDbLine
 10
-45.51736076308259
 20
213.2844410241031
 30
0.0
 11
-45.69957544847107
 21
213.2844410241031
 31
0.0
  0
LINE
  5
14D
330
1F
100
AcDbEntity
  8
仕上
  6
Continuous
 62
     6
370
     9
100
AcDbLine
 10
-45.51736076308259
 20
203.7844344257078
 30
0.0
 11
-52.6996232868368
 21
203.7844344257078
 31
0.0
  0
LINE
  5
14E
330
1F
100
AcDbEntity
  8
仕上
  6
Continuous
 62
     6
370
     9
100
AcDbLine
 10
-38.09280516500404
 20
194.7844542208936
 30
0.0
 11
-46.02149465771941
 21
194.7844542208936
 31
0.0
  0
LINE
  5
14F
330
1F
100
AcDbEntity
  8
仕上
  6
Continuous
 62
     6
370
     9
100
AcDbLine
 10
-38.09280516500404
 20
185.2844476224984
 30
0.0
 11
-45.69957544847107
 21
185.2844476224984
 31
0.0
  0
LINE
  5
150
330
1F
100
AcDbEntity
  8
仕上
  6
Continuous
 62
     6
370
     9
100
AcDbLine
 10
-38.09280516500404
 20
176.284442673702
 30
0.0
 11
-52.6996232868368
 21
176.284442673702
 31
0.0
  0
LINE
  5
151
330
1F
100
AcDbEntity
  8
仕上
  6
Continuous
 62
     6
370
     9
100
AcDbLine
 10
-38.09280516500404
 20
166.7844360753066
 30
0.0
 11
-45.69957544847107
 21
166.7844360753066
 31
0.0
  0
LINE
  5
152
330
1F
100
AcDbEntity
  8
仕上
  6
Continuous
 62
     6
370
     9
100
AcDbLine
 10
-38.09280516500404
 20
139.2844195793185
 30
0.0
 11
-45.69957544847107
 21
139.2844195793185
 31
0.0
  0
LINE
  5
153
330
1F
100
AcDbEntity
  8
仕上
  6
Continuous
 62
     6
370
     9
100
AcDbLine
 10
-38.09280516500404
 20
129.7844129809232
 30
0.0
 11
-52.6996232868368
 21
129.7844129809232
 31
0.0
  0
LINE
  5
154
330
1F
100
AcDbEntity
  8
仕上
  6
Continuous
 62
     6
370
     9
100
AcDbLine
 10
-38.09280516500404
 20
120.784432776109
 30
0.0
 11
-45.69957544847107
 21
120.784432776109
 31
0.0
  0
LINE
  5
155
330
1F
100
AcDbEntity
  8
仕上
  6
Continuous
 62
     6
370
     9
100
AcDbLine
 10
-38.09280516500404
 20
111.2844014337314
 30
0.0
 11
-46.02149465771941
 21
111.2844014337314
 31
0.0
  0
LINE
  5
156
330
1F
100
AcDbEntity
  8
仕上
  6
Continuous
 62
     6
370
     9
100
AcDbLine
 10
-45.51736076308259
 20
102.2844212289173
 30
0.0
 11
-52.64001503356399
 21
102.2844212289173
 31
0.0
  0
LINE
  5
157
330
1F
100
AcDbEntity
  8
仕上
  6
Continuous
 62
     6
370
     9
100
AcDbLine
 10
-45.51736076308259
 20
92.78438988653977
 30
0.0
 11
-45.69957544847107
 21
92.78438988653977
 31
0.0
  0
LINE
  5
158
330
1F
100
AcDbEntity
  8
仕上
  6
Continuous
 62
     6
370
     9
100
AcDbLine
 10
-38.09280516500404
 20
83.7844096817256
 30
0.0
 11
-52.64003977754626
 21
83.7844096817256
 31
0.0
  0
LINE
  5
159
330
1F
100
AcDbEntity
  8
仕上
  6
Continuous
 62
     6
370
     9
100
AcDbLine
 10
-38.09280516500404
 20
74.28440308333029
 30
0.0
 11
-45.82309740793055
 21
74.28440308333029
 31
0.0
  0
LINE
  5
15A
330
1F
100
AcDbEntity
  8
仕上
  6
Continuous
 62
     6
370
     9
100
AcDbLine
 10
-45.69957544847107
 20
64.53443277610904
 30
0.0
 11
57.30066539295627
 21
64.53443277610904
 31
0.0
  0
LINE
  5
15B
330
1F
100
AcDbEntity
  8
通り芯
  6
JWW_CENTER1
 62
     2
370
     9
100
AcDbLine
 10
-27.72935730552347
 20
203.8006664780727
 30
0.0
 11
-27.72935730552347
 21
213.1657193972028
 31
0.0
  0
LINE
  5
15C
330
1F
100
AcDbEntity
  8
通り芯
  6
Continuous
 62
     2
370
     9
100
AcDbLine
 10
-26.70409040043477
 20
212.2624155806909
 30
0.0
 11
-26.70409040043477
 21
204.80645986912
 31
0.0
  0
LINE
  5
15D
330
1F
100
AcDbEntity
  8
通り芯
  6
Continuous
 62
     2
370
     9
100
AcDbLine
 10
-27.76469171219576
 20
212.5342034818734
 30
0.0
 11
-27.76469171219576
 21
204.5346719679376
 31
0.0
  0
LINE
  5
15E
330
1F
100
AcDbEntity
  8
通り芯
  6
Continuous
 62
     2
370
     9
100
AcDbLine
 10
-26.70409040043477
 20
204.80645986912
 30
0.0
 11
-27.76469171219576
 21
204.80645986912
 31
0.0
  0
LINE
  5
15F
330
1F
100
AcDbEntity
  8
通り芯
  6
Continuous
 62
     2
370
     9
100
AcDbLine
 10
-26.70409040043477
 20
212.2624155806909
 30
0.0
 11
-27.76469171219576
 21
212.2624155806909
 31
0.0
  0
LINE
  5
160
330
1F
100
AcDbEntity
  8
通り芯
  6
JWW_CENTER1
 62
     2
370
     9
100
AcDbLine
 10
-40.83894180457326
 20
208.53448721287
 30
0.0
 11
-24.21981932516029
 21
208.53448721287
 31
0.0
  0
LINE
  5
161
330
1F
100
AcDbEntity
  8
通り芯
  6
Continuous
 62
     2
370
     9
100
AcDbLine
 10
-36.61922678926498
 20
212.5344014337315
 30
0.0
 11
-27.72935730552347
 21
212.5344014337315
 31
0.0
  0
LINE
  5
162
330
1F
100
AcDbEntity
  8
通り芯
  6
Continuous
 62
     2
370
     9
100
AcDbLine
 10
-36.61917730130045
 20
204.5344740160795
 30
0.0
 11
-27.72935730552347
 21
204.5344740160795
 31
0.0
  0
LINE
  5
163
330
1F
100
AcDbEntity
  8
通り芯
  6
JWW_CENTER1
 62
     2
370
     9
100
AcDbLine
 10
-27.72935730552347
 20
102.2682139205347
 30
0.0
 11
-27.72935730552347
 21
92.90316100140467
 31
0.0
  0
LINE
  5
164
330
1F
100
AcDbEntity
  8
通り芯
  6
Continuous
 62
     2
370
     9
100
AcDbLine
 10
-26.70409040043477
 20
93.80651430588102
 30
0.0
 11
-26.70409040043477
 21
101.2624205294874
 31
0.0
  0
LINE
  5
165
330
1F
100
AcDbEntity
  8
通り芯
  6
Continuous
 62
     2
370
     9
100
AcDbLine
 10
-27.76469171219576
 20
93.53467691673404
 30
0.0
 11
-27.76469171219576
 21
101.5342084306698
 31
0.0
  0
LINE
  5
166
330
1F
100
AcDbEntity
  8
通り芯
  6
Continuous
 62
     2
370
     9
100
AcDbLine
 10
-26.70409040043477
 20
101.2624205294874
 30
0.0
 11
-27.76469171219576
 21
101.2624205294874
 31
0.0
  0
LINE
  5
167
330
1F
100
AcDbEntity
  8
通り芯
  6
Continuous
 62
     2
370
     9
100
AcDbLine
 10
-26.70409040043477
 20
93.80651430588102
 30
0.0
 11
-27.76469171219576
 21
93.80651430588102
 31
0.0
  0
LINE
  5
168
330
1F
100
AcDbEntity
  8
通り芯
  6
JWW_CENTER1
 62
     2
370
     9
100
AcDbLine
 10
-40.83894180457326
 20
97.53439318573737
 30
0.0
 11
-24.21981932516029
 21
97.53439318573737
 31
0.0
  0
LINE
  5
169
330
1F
100
AcDbEntity
  8
通り芯
  6
Continuous
 62
     2
370
     9
100
AcDbLine
 10
-36.61922678926498
 20
93.53442947691133
 30
0.0
 11
-27.72935730552347
 21
93.53442947691133
 31
0.0
  0
LINE
  5
16A
330
1F
100
AcDbEntity
  8
通り芯
  6
Continuous
 62
     2
370
     9
100
AcDbLine
 10
-36.61917730130045
 20
101.5344063825279
 30
0.0
 11
-27.72935730552347
 21
101.5344063825279
 31
0.0
  0
LINE
  5
16B
330
1F
100
AcDbEntity
  8
仕上
  6
Continuous
 62
     6
370
     9
100
AcDbLine
 10
-38.09280516500404
 20
157.7844558704925
 30
0.0
 11
-43.2996566087329
 21
157.7844558704925
 31
0.0
  0
LINE
  5
16C
330
1F
100
AcDbEntity
  8
仕上
  6
Continuous
 62
     6
370
     9
100
AcDbLine
 10
-38.09280516500404
 20
148.2844245281149
 30
0.0
 11
-43.2996566087329
 21
148.2844245281149
 31
0.0
  0
LINE
  5
16D
330
1F
100
AcDbEntity
  8
仕上
  6
Continuous
 62
     6
370
     9
100
AcDbLine
 10
-51.69954575569238
 20
149.0369385167129
 30
0.0
 11
-51.69954575569238
 21
157.0319418818945
 31
0.0
  0
LINE
  5
16E
330
1F
100
AcDbEntity
  8
仕上
  6
Continuous
 62
     6
370
     9
100
AcDbLine
 10
-38.21422388597107
 20
168.784442673702
 30
0.0
 11
-38.21422388597107
 21
174.2844360753066
 31
0.0
  0
LINE
  5
16F
330
1F
100
AcDbEntity
  8
仕上
  6
Continuous
 62
     6
370
     9
100
AcDbLine
 10
-38.21422388597107
 20
192.7844476224984
 30
0.0
 11
-38.21422388597107
 21
187.2844542208936
 31
0.0
  0
LINE
  5
170
330
1F
100
AcDbEntity
  8
仕上
  6
Continuous
 62
     6
370
     9
100
AcDbLine
 10
-38.21422388597107
 20
224.2844773152771
 30
0.0
 11
-38.21422388597107
 21
229.7845202048463
 31
0.0
  0
LINE
  5
171
330
1F
100
AcDbEntity
  8
仕上
  6
Continuous
 62
     6
370
     9
100
AcDbLine
 10
-38.21422388597107
 20
155.7844245281149
 30
0.0
 11
-38.21422388597107
 21
150.5344443233008
 31
0.0
  0
LINE
  5
172
330
1F
100
AcDbEntity
  8
仕上
  6
Continuous
 62
     6
370
     9
100
AcDbLine
 10
-38.21422388597107
 20
137.2844129809232
 30
0.0
 11
-38.21422388597107
 21
131.7844195793185
 31
0.0
  0
LINE
  5
173
330
1F
100
AcDbEntity
  8
仕上
  6
Continuous
 62
     6
370
     9
100
AcDbLine
 10
-38.21422388597107
 20
113.284432776109
 30
0.0
 11
-38.21422388597107
 21
118.7844261777137
 31
0.0
  0
LINE
  5
174
330
1F
100
AcDbEntity
  8
仕上
  6
Continuous
 62
     6
370
     9
100
AcDbLine
 10
-38.21422388597107
 20
81.78440308333029
 30
0.0
 11
-38.21422388597107
 21
76.28438493774331
 31
0.0
  0
LINE
  5
175
330
1F
100
AcDbEntity
  8
仕上
  6
Continuous
 62
     6
370
     9
100
AcDbLine
 10
-45.99239573457748
 20
100.2843898865398
 30
0.0
 11
-45.99239573457748
 21
99.34179262619352
 31
0.0
  0
LINE
  5
176
330
1F
100
AcDbEntity
  8
仕上
  6
Continuous
 62
     6
370
     9
100
AcDbLine
 10
-45.99239573457748
 20
205.7844410241031
 30
0.0
 11
-45.99239573457748
 21
206.7270877724139
 31
0.0
  0
LINE
  5
177
330
1F
100
AcDbEntity
  8
仕上
  6
Continuous
 62
     6
370
     9
100
AcDbLine
 10
-47.6995325589018
 20
148.320204326468
 30
0.0
 11
-47.6995325589018
 21
157.7487503040862
 31
0.0
  0
LINE
  5
178
330
1F
100
AcDbEntity
  8
通り芯
  6
Continuous
 62
     3
370
     9
100
AcDbLine
 10
-93.74179857980559
 20
217.0344410241031
 30
0.0
 11
-70.6996331844297
 21
217.0344410241031
 31
0.0
  0
LINE
  5
179
330
1F
100
AcDbEntity
  8
通り芯
  6
Continuous
 62
     3
370
     9
100
AcDbLine
 10
-93.74179857980559
 20
89.03441463052206
 30
0.0
 11
-93.74179857980559
 21
217.0344410241031
 31
0.0
  0
LINE
  5
17A
330
1F
100
AcDbEntity
  8
通り芯
  6
Continuous
 62
     3
370
     9
100
AcDbLine
 10
-93.74179857980559
 20
89.03441463052206
 30
0.0
 11
-70.6996331844297
 21
89.03441463052206
 31
0.0
  0
ARC
  5
17B
330
1F
100
AcDbEntity
  8
仕上
  6
Continuous
 62
     4
370
     9
100
AcDbCircle
 10
-52.09948274101753
 20
153.0344278273126
 30
0.0
 40
10.00000128874908
100
AcDbArc
 50
2.745620727539063
 51
36.869873046875
  0
ARC
  5
17C
330
1F
100
AcDbEntity
  8
躯体
  6
Continuous
 62
     2
370
     9
100
AcDbCircle
 10
-50.69961668844152
 20
155.2998878674308
 30
0.0
 40
2.000000025774982
100
AcDbArc
 50
98.1300048828125
 51
180.0
  0
ARC
  5
17D
330
1F
100
AcDbEntity
  8
躯体
  6
Continuous
 62
     2
370
     9
100
AcDbCircle
 10
-50.69961668844152
 20
150.7690667631234
 30
0.0
 40
2.000000025774982
100
AcDbArc
 50
180.0
 51
261.8699951171875
  0
ARC
  5
17E
330
1F
100
AcDbEntity
  8
躯体
  6
Continuous
 62
     2
370
     9
100
AcDbCircle
 10
-50.69961668844152
 20
179.299868072245
 30
0.0
 40
2.000000025774982
100
AcDbArc
 50
98.1300048828125
 51
180.0
  0
ARC
  5
17F
330
1F
100
AcDbEntity
  8
躯体
  6
Continuous
 62
     2
370
     9
100
AcDbCircle
 10
-50.69961668844152
 20
174.7690469679376
 30
0.0
 40
2.000000025774982
100
AcDbArc
 50
180.0
 51
261.8699951171875
  0
ARC
  5
180
330
1F
100
AcDbEntity
  8
躯体
  6
Continuous
 62
     2
370
     9
100
AcDbCircle
 10
-50.69961668844152
 20
203.2999472529882
 30
0.0
 40
2.000000025774982
100
AcDbArc
 50
98.1300048828125
 51
180.0
  0
ARC
  5
181
330
1F
100
AcDbEntity
  8
躯体
  6
Continuous
 62
     2
370
     9
100
AcDbCircle
 10
-50.69961668844152
 20
198.7690271727517
 30
0.0
 40
2.000000025774982
100
AcDbArc
 50
180.0
 51
261.8699951171875
  0
ARC
  5
182
330
1F
100
AcDbEntity
  8
躯体
  6
Continuous
 62
     2
370
     9
100
AcDbCircle
 10
-50.69961668844152
 20
227.2998284818733
 30
0.0
 40
2.000000025774982
100
AcDbArc
 50
98.1300048828125
 51
180.0
  0
ARC
  5
183
330
1F
100
AcDbEntity
  8
躯体
  6
Continuous
 62
     2
370
     9
100
AcDbCircle
 10
-50.69961668844152
 20
222.7690073775659
 30
0.0
 40
2.000000025774982
100
AcDbArc
 50
180.0
 51
261.8699951171875
  0
ARC
  5
184
330
1F
100
AcDbEntity
  8
躯体
  6
Continuous
 62
     2
370
     9
100
AcDbCircle
 10
-50.69961668844152
 20
126.7689875823801
 30
0.0
 40
2.000000025774982
100
AcDbArc
 50
180.0
 51
261.8699951171875
  0
ARC
  5
185
330
1F
100
AcDbEntity
  8
躯体
  6
Continuous
 62
     2
370
     9
100
AcDbCircle
 10
-50.69961668844152
 20
131.2999076626166
 30
0.0
 40
2.000000025774982
100
AcDbArc
 50
98.1300048828125
 51
180.0
  0
ARC
  5
186
330
1F
100
AcDbEntity
  8
躯体
  6
Continuous
 62
     2
370
     9
100
AcDbCircle
 10
-50.69961668844152
 20
102.7690073775659
 30
0.0
 40
2.000000025774982
100
AcDbArc
 50
180.0
 51
261.8699951171875
  0
ARC
  5
187
330
1F
100
AcDbEntity
  8
躯体
  6
Continuous
 62
     2
370
     9
100
AcDbCircle
 10
-50.69961668844152
 20
107.2998284818734
 30
0.0
 40
2.000000025774982
100
AcDbArc
 50
98.1300048828125
 51
180.0
  0
ARC
  5
188
330
1F
100
AcDbEntity
  8
躯体
  6
Continuous
 62
     2
370
     9
100
AcDbCircle
 10
-50.69961668844152
 20
78.76902717275175
 30
0.0
 40
2.000000025774982
100
AcDbArc
 50
180.0
 51
261.8699951171875
  0
ARC
  5
189
330
1F
100
AcDbEntity
  8
躯体
  6
Continuous
 62
     2
370
     9
100
AcDbCircle
 10
-50.69961668844152
 20
83.29989776502373
 30
0.0
 40
2.000000025774982
100
AcDbArc
 50
98.1300048828125
 51
180.0
  0
ARC
  5
18A
330
1F
100
AcDbEntity
  8
躯体
  6
Continuous
 62
     2
370
     9
100
AcDbCircle
 10
14.80045094511002
 20
62.03447401607946
 30
0.0
 40
0.5000000064437454
100
AcDbArc
 50
90.0
 51
180.0
  0
ARC
  5
18B
330
1F
100
AcDbEntity
  8
躯体
  6
Continuous
 62
     2
370
     9
100
AcDbCircle
 10
14.80045094511002
 20
60.03446741768414
 30
0.0
 40
0.5000000064437454
100
AcDbArc
 50
180.0
 51
270.0
  0
ARC
  5
18C
330
1F
100
AcDbEntity
  8
躯体
  6
Continuous
 62
     2
370
     9
100
AcDbCircle
 10
14.80045094511002
 20
244.0344806144747
 30
0.0
 40
0.5000000064437454
100
AcDbArc
 50
180.0
 51
270.0
  0
ARC
  5
18D
330
1F
100
AcDbEntity
  8
躯体
  6
Continuous
 62
     2
370
     9
100
AcDbCircle
 10
14.80045094511002
 20
246.0343882369409
 30
0.0
 40
0.5000000064437454
100
AcDbArc
 50
90.0
 51
180.0
  0
ARC
  5
18E
330
1F
100
AcDbEntity
  8
躯体
  6
Continuous
 62
     2
370
     9
100
AcDbCircle
 10
66.80044929551116
 20
158.5344212289173
 30
0.0
 40
0.5000000064437454
100
AcDbArc
 50
180.0
 51
270.0
  0
ARC
  5
18F
330
1F
100
AcDbEntity
  8
躯体
  6
Continuous
 62
     2
370
     9
100
AcDbCircle
 10
66.80044929551116
 20
147.5344344257078
 30
0.0
 40
0.5000000064437454
100
AcDbArc
 50
90.0
 51
180.0
  0
ARC
  5
190
330
1F
100
AcDbEntity
  8
躯体
  6
Continuous
 62
     2
370
     9
100
AcDbCircle
 10
66.80044929551116
 20
99.53447401607946
 30
0.0
 40
0.5000000064437454
100
AcDbArc
 50
90.0
 51
180.0
  0
ARC
  5
191
330
1F
100
AcDbEntity
  8
躯体
  6
Continuous
 62
     2
370
     9
100
AcDbCircle
 10
66.80044929551116
 20
110.5344608192889
 30
0.0
 40
0.5000000064437454
100
AcDbArc
 50
180.0
 51
270.0
  0
ARC
  5
192
330
1F
100
AcDbEntity
  8
躯体
  6
Continuous
 62
     2
370
     9
100
AcDbCircle
 10
66.80044929551116
 20
206.5344806144747
 30
0.0
 40
0.5000000064437454
100
AcDbArc
 50
180.0
 51
270.0
  0
ARC
  5
193
330
1F
100
AcDbEntity
  8
躯体
  6
Continuous
 62
     2
370
     9
100
AcDbCircle
 10
66.80044929551116
 20
195.5344938112653
 30
0.0
 40
0.5000000064437454
100
AcDbArc
 50
90.0
 51
180.0
  0
ARC
  5
194
330
1F
100
AcDbEntity
  8
躯体
  6
Continuous
 62
     2
370
     9
100
AcDbCircle
 10
66.80044929551116
 20
230.5344608192889
 30
0.0
 40
0.5000000064437454
100
AcDbArc
 50
180.0
 51
270.0
  0
ARC
  5
195
330
1F
100
AcDbEntity
  8
躯体
  6
Continuous
 62
     2
370
     9
100
AcDbCircle
 10
68.80045589390647
 20
230.5344608192889
 30
0.0
 40
0.5000000064437454
100
AcDbArc
 50
270.0
 51
0.0
  0
ARC
  5
196
330
1F
100
AcDbEntity
  8
躯体
  6
Continuous
 62
     2
370
     9
100
AcDbCircle
 10
66.80044929551116
 20
219.5344740160795
 30
0.0
 40
0.5000000064437454
100
AcDbArc
 50
90.0
 51
180.0
  0
ARC
  5
197
330
1F
100
AcDbEntity
  8
躯体
  6
Continuous
 62
     2
370
     9
100
AcDbCircle
 10
68.80045589390647
 20
219.5344740160795
 30
0.0
 40
0.5000000064437454
100
AcDbArc
 50
0.0
 51
90.0
  0
ARC
  5
198
330
1F
100
AcDbEntity
  8
躯体
  6
Continuous
 62
     2
370
     9
100
AcDbCircle
 10
68.80045589390647
 20
206.5344806144747
 30
0.0
 40
0.5000000064437454
100
AcDbArc
 50
270.0
 51
0.0
  0
ARC
  5
199
330
1F
100
AcDbEntity
  8
躯体
  6
Continuous
 62
     2
370
     9
100
AcDbCircle
 10
68.80045589390647
 20
195.5344938112653
 30
0.0
 40
0.5000000064437454
100
AcDbArc
 50
0.0
 51
90.0
  0
ARC
  5
19A
330
1F
100
AcDbEntity
  8
躯体
  6
Continuous
 62
     2
370
     9
100
AcDbCircle
 10
68.80045589390647
 20
182.5345004096606
 30
0.0
 40
0.5000000064437454
100
AcDbArc
 50
270.0
 51
0.0
  0
ARC
  5
19B
330
1F
100
AcDbEntity
  8
躯体
  6
Continuous
 62
     2
370
     9
100
AcDbCircle
 10
66.80044929551116
 20
182.5345004096606
 30
0.0
 40
0.5000000064437454
100
AcDbArc
 50
180.0
 51
270.0
  0
ARC
  5
19C
330
1F
100
AcDbEntity
  8
躯体
  6
Continuous
 62
     2
370
     9
100
AcDbCircle
 10
68.80045589390647
 20
171.5345136064511
 30
0.0
 40
0.5000000064437454
100
AcDbArc
 50
0.0
 51
90.0
  0
ARC
  5
19D
330
1F
100
AcDbEntity
  8
躯体
  6
Continuous
 62
     2
370
     9
100
AcDbCircle
 10
66.80044929551116
 20
171.5345136064511
 30
0.0
 40
0.5000000064437454
100
AcDbArc
 50
90.0
 51
180.0
  0
ARC
  5
19E
330
1F
100
AcDbEntity
  8
躯体
  6
Continuous
 62
     2
370
     9
100
AcDbCircle
 10
68.80045589390647
 20
158.5344212289173
 30
0.0
 40
0.5000000064437454
100
AcDbArc
 50
270.0
 51
0.0
  0
ARC
  5
19F
330
1F
100
AcDbEntity
  8
躯体
  6
Continuous
 62
     2
370
     9
100
AcDbCircle
 10
68.80045589390647
 20
147.5344344257078
 30
0.0
 40
0.5000000064437454
100
AcDbArc
 50
0.0
 51
90.0
  0
ARC
  5
1A0
330
1F
100
AcDbEntity
  8
躯体
  6
Continuous
 62
     2
370
     9
100
AcDbCircle
 10
66.80044929551116
 20
134.5344410241031
 30
0.0
 40
0.5000000064437454
100
AcDbArc
 50
180.0
 51
270.0
  0
ARC
  5
1A1
330
1F
100
AcDbEntity
  8
躯体
  6
Continuous
 62
     2
370
     9
100
AcDbCircle
 10
68.80045589390647
 20
134.5344410241031
 30
0.0
 40
0.5000000064437454
100
AcDbArc
 50
270.0
 51
0.0
  0
ARC
  5
1A2
330
1F
100
AcDbEntity
  8
躯体
  6
Continuous
 62
     2
370
     9
100
AcDbCircle
 10
66.80044929551116
 20
123.5344542208937
 30
0.0
 40
0.5000000064437454
100
AcDbArc
 50
90.0
 51
180.0
  0
ARC
  5
1A3
330
1F
100
AcDbEntity
  8
躯体
  6
Continuous
 62
     2
370
     9
100
AcDbCircle
 10
68.80045589390647
 20
123.5344542208937
 30
0.0
 40
0.5000000064437454
100
AcDbArc
 50
0.0
 51
90.0
  0
ARC
  5
1A4
330
1F
100
AcDbEntity
  8
躯体
  6
Continuous
 62
     2
370
     9
100
AcDbCircle
 10
68.80045589390647
 20
110.5344608192889
 30
0.0
 40
0.5000000064437454
100
AcDbArc
 50
270.0
 51
0.0
  0
ARC
  5
1A5
330
1F
100
AcDbEntity
  8
躯体
  6
Continuous
 62
     2
370
     9
100
AcDbCircle
 10
68.80045589390647
 20
99.53437504015045
 30
0.0
 40
0.5000000064437454
100
AcDbArc
 50
0.0
 51
90.0
  0
ARC
  5
1A6
330
1F
100
AcDbEntity
  8
躯体
  6
Continuous
 62
     2
370
     9
100
AcDbCircle
 10
66.80044929551116
 20
86.53438163854571
 30
0.0
 40
0.5000000064437454
100
AcDbArc
 50
180.0
 51
270.0
  0
ARC
  5
1A7
330
1F
100
AcDbEntity
  8
躯体
  6
Continuous
 62
     2
370
     9
100
AcDbCircle
 10
68.80045589390647
 20
86.53438163854571
 30
0.0
 40
0.5000000064437454
100
AcDbArc
 50
270.0
 51
0.0
  0
ARC
  5
1A8
330
1F
100
AcDbEntity
  8
躯体
  6
Continuous
 62
     2
370
     9
100
AcDbCircle
 10
68.80045589390647
 20
75.53439483533623
 30
0.0
 40
0.5000000064437454
100
AcDbArc
 50
0.0
 51
90.0
  0
ARC
  5
1A9
330
1F
100
AcDbEntity
  8
躯体
  6
Continuous
 62
     2
370
     9
100
AcDbCircle
 10
66.80044929551116
 20
75.53439483533623
 30
0.0
 40
0.5000000064437454
100
AcDbArc
 50
90.0
 51
180.0
  0
ARC
  5
1AA
330
1F
100
AcDbEntity
  8
通り芯
  6
Continuous
 62
     3
370
     9
100
AcDbCircle
 10
69.30043279952298
 20
248.0343948353362
 30
0.0
 40
10.00000051549963
100
AcDbArc
 50
0.0
 51
90.0
  0
ARC
  5
1AB
330
1F
100
AcDbEntity
  8
通り芯
  6
Continuous
 62
     3
370
     9
100
AcDbCircle
 10
69.30043279952298
 20
58.03446081928894
 30
0.0
 40
10.00000051549963
100
AcDbArc
 50
270.0
 51
0.0
  0
ARC
  5
1AC
330
1F
100
AcDbEntity
  8
通り芯
  6
Continuous
 62
     3
370
     9
100
AcDbCircle
 10
69.30043279952298
 20
247.0344410241031
 30
0.0
 40
10.00000051549963
100
AcDbArc
 50
0.0
 51
90.0
  0
ARC
  5
1AD
330
1F
100
AcDbEntity
  8
通り芯
  6
Continuous
 62
     3
370
     9
100
AcDbCircle
 10
69.30043279952298
 20
59.03446411848654
 30
0.0
 40
10.00000051549963
100
AcDbArc
 50
270.0
 51
0.0
  0
ARC
  5
1AE
330
1F
100
AcDbEntity
  8
通り芯
  6
Continuous
 62
     3
370
     9
100
AcDbCircle
 10
-75.19957379887228
 20
228.4443861254545
 30
0.0
 40
0.5000000064437454
100
AcDbArc
 50
180.0
 51
258.6906280517579
  0
ARC
  5
1AF
330
1F
100
AcDbEntity
  8
通り芯
  6
Continuous
 62
     3
370
     9
100
AcDbCircle
 10
-75.19957379887228
 20
237.6245025211471
 30
0.0
 40
0.5000000064437454
100
AcDbArc
 50
101.3093719482422
 51
180.0
  0
ARC
  5
1B0
330
1F
100
AcDbEntity
  8
通り芯
  6
JWW_HOJO
 62
     3
370
     9
100
AcDbCircle
 10
-68.69952761010538
 20
223.5750673437822
 30
0.0
 40
3.000000038662472
100
AcDbArc
 50
0.0
 51
78.6900634765625
  0
ARC
  5
1B1
330
1F
100
AcDbEntity
  8
通り芯
  6
JWW_HOJO
 62
     3
370
     9
100
AcDbCircle
 10
-68.69952761010538
 20
242.4939202787483
 30
0.0
 40
3.000000038662472
100
AcDbArc
 50
281.3099365234376
 51
0.0000000000000382
  0
ARC
  5
1B2
330
1F
100
AcDbEntity
  8
通り芯
  6
Continuous
 62
     3
370
     9
100
AcDbCircle
 10
-75.19957379887228
 20
77.62446952917071
 30
0.0
 40
0.5000000064437454
100
AcDbArc
 50
101.3093719482422
 51
180.0
  0
ARC
  5
1B3
330
1F
100
AcDbEntity
  8
通り芯
  6
Continuous
 62
     3
370
     9
100
AcDbCircle
 10
-75.19957379887228
 20
68.4443531334781
 30
0.0
 40
0.5000000064437454
100
AcDbArc
 50
180.0
 51
258.6906280517579
  0
ARC
  5
1B4
330
1F
100
AcDbEntity
  8
通り芯
  6
JWW_HOJO
 62
     3
370
     9
100
AcDbCircle
 10
-68.69952761010538
 20
82.49388728677206
 30
0.0
 40
3.000000038662472
100
AcDbArc
 50
281.3099365234376
 51
0.0000000000000382
  0
ARC
  5
1B5
330
1F
100
AcDbEntity
  8
通り芯
  6
JWW_HOJO
 62
     3
370
     9
100
AcDbCircle
 10
-68.69952761010538
 20
63.57498486384122
 30
0.0
 40
3.000000038662472
100
AcDbArc
 50
0.0
 51
78.6900634765625
  0
ARC
  5
1B6
330
1F
100
AcDbEntity
  8
躯体
  6
Continuous
 62
     2
370
     9
100
AcDbCircle
 10
48.3005614682308
 20
237.0344080321267
 30
0.0
 40
5.000000257749815
100
AcDbArc
 50
64.15785217285156
 51
90.0
  0
ARC
  5
1B7
330
1F
100
AcDbEntity
  8
躯体
  6
Continuous
 62
     2
370
     9
100
AcDbCircle
 10
48.3005614682308
 20
69.03444762249842
 30
0.0
 40
5.000000257749815
100
AcDbArc
 50
270.0
 51
295.8421478271485
  0
ARC
  5
1B8
330
1F
100
AcDbEntity
  8
躯体
  6
Continuous
 62
     2
370
     9
100
AcDbCircle
 10
-47.69960679084863
 20
231.7689875823801
 30
0.0
 40
2.000000025774982
100
AcDbArc
 50
278.1300048828125
 51
0.0
  0
ARC
  5
1B9
330
1F
100
AcDbEntity
  8
躯体
  6
Continuous
 62
     2
370
     9
100
AcDbCircle
 10
-47.69960679084863
 20
74.29986807224498
 30
0.0
 40
2.000000025774982
100
AcDbArc
 50
0.0
 51
81.8699951171875
  0
ARC
  5
1BA
330
1F
100
AcDbEntity
  8
躯体
  6
Continuous
 62
     2
370
     9
100
AcDbCircle
 10
-47.69960679084863
 20
61.34441383871456
 30
0.0
 40
2.000000025774982
100
AcDbArc
 50
275.7112274169922
 51
0.0000000000000127
  0
ARC
  5
1BB
330
1F
100
AcDbEntity
  8
躯体
  6
Continuous
 62
     2
370
     9
100
AcDbCircle
 10
-47.69960679084863
 20
87.76900737756591
 30
0.0
 40
2.000000025774982
100
AcDbArc
 50
278.1300048828125
 51
0.0
  0
ARC
  5
1BC
330
1F
100
AcDbEntity
  8
躯体
  6
Continuous
 62
     2
370
     9
100
AcDbCircle
 10
-47.69960679084863
 20
98.2999472529882
 30
0.0
 40
2.000000025774982
100
AcDbArc
 50
0.0
 51
81.87139892578124
  0
ARC
  5
1BD
330
1F
100
AcDbEntity
  8
躯体
  6
Continuous
 62
     2
370
     9
100
AcDbCircle
 10
-47.69960679084863
 20
111.7690865583091
 30
0.0
 40
2.000000025774982
100
AcDbArc
 50
278.1307983398438
 51
0.0
  0
ARC
  5
1BE
330
1F
100
AcDbEntity
  8
躯体
  6
Continuous
 62
     2
370
     9
100
AcDbCircle
 10
-47.69960679084863
 20
122.2998284818734
 30
0.0
 40
2.000000025774982
100
AcDbArc
 50
0.0
 51
81.8699951171875
  0
ARC
  5
1BF
330
1F
100
AcDbEntity
  8
躯体
  6
Continuous
 62
     2
370
     9
100
AcDbCircle
 10
-47.69960679084863
 20
135.7689677871944
 30
0.0
 40
2.000000025774982
100
AcDbArc
 50
278.1300048828125
 51
0.0
  0
ARC
  5
1C0
330
1F
100
AcDbEntity
  8
躯体
  6
Continuous
 62
     2
370
     9
100
AcDbCircle
 10
-47.69960679084863
 20
146.2999076626166
 30
0.0
 40
2.000000025774982
100
AcDbArc
 50
0.0
 51
81.8699951171875
  0
ARC
  5
1C1
330
1F
100
AcDbEntity
  8
躯体
  6
Continuous
 62
     2
370
     9
100
AcDbCircle
 10
-47.69960679084863
 20
159.7690469679376
 30
0.0
 40
2.000000025774982
100
AcDbArc
 50
278.1300048828125
 51
0.0
  0
ARC
  5
1C2
330
1F
100
AcDbEntity
  8
躯体
  6
Continuous
 62
     2
370
     9
100
AcDbCircle
 10
-47.69960679084863
 20
170.2998878674308
 30
0.0
 40
2.000000025774982
100
AcDbArc
 50
0.0
 51
81.8699951171875
  0
ARC
  5
1C3
330
1F
100
AcDbEntity
  8
躯体
  6
Continuous
 62
     2
370
     9
100
AcDbCircle
 10
-47.69960679084863
 20
183.7690271727517
 30
0.0
 40
2.000000025774982
100
AcDbArc
 50
278.1300048828125
 51
0.0
  0
ARC
  5
1C4
330
1F
100
AcDbEntity
  8
躯体
  6
Continuous
 62
     2
370
     9
100
AcDbCircle
 10
-47.69960679084863
 20
194.2997690963159
 30
0.0
 40
2.000000025774982
100
AcDbArc
 50
0.0
 51
81.86929321289062
  0
ARC
  5
1C5
330
1F
100
AcDbEntity
  8
躯体
  6
Continuous
 62
     2
370
     9
100
AcDbCircle
 10
-47.69960679084863
 20
207.7690073775659
 30
0.0
 40
2.000000025774982
100
AcDbArc
 50
278.1286010742188
 51
0.0000000000000127
  0
ARC
  5
1C6
330
1F
100
AcDbEntity
  8
躯体
  6
Continuous
 62
     2
370
     9
100
AcDbCircle
 10
-47.69960679084863
 20
218.2998482770592
 30
0.0
 40
2.000000025774982
100
AcDbArc
 50
0.0
 51
81.8699951171875
  0
ARC
  5
1C7
330
1F
100
AcDbEntity
  8
躯体
  6
Continuous
 62
     2
370
     9
100
AcDbCircle
 10
-47.69960679084863
 20
244.7244418159105
 30
0.0
 40
2.000000025774982
100
AcDbArc
 50
0.0
 51
84.2886962890625
  0
ARC
  5
1C8
330
1F
100
AcDbEntity
  8
仕上
  6
Continuous
 62
     4
370
     9
100
AcDbCircle
 10
-52.09948274101753
 20
153.0344278273126
 30
0.0
 40
10.00000128874908
100
AcDbArc
 50
323.130126953125
 51
0.8641052246093799
  0
ARC
  5
1C9
330
1F
100
AcDbEntity
  8
躯体
  6
Continuous
 62
     2
370
     9
100
AcDbCircle
 10
63.30046249230174
 20
240.5343948353362
 30
0.0
 40
3.000000038662472
100
AcDbArc
 50
0.0
 51
90.0
  0
ARC
  5
1CA
330
1F
100
AcDbEntity
  8
躯体
  6
Continuous
 62
     2
370
     9
100
AcDbCircle
 10
63.30046249230174
 20
240.5343948353362
 30
0.0
 40
6.000000077324945
100
AcDbArc
 50
0.0
 51
90.0
  0
ARC
  5
1CB
330
1F
100
AcDbEntity
  8
躯体
  6
Continuous
 62
     2
370
     9
100
AcDbCircle
 10
63.30046249230174
 20
242.0344740160795
 30
0.0
 40
6.000000077324945
100
AcDbArc
 50
0.0
 51
90.0
  0
ARC
  5
1CC
330
1F
100
AcDbEntity
  8
躯体
  6
Continuous
 62
     2
370
     9
100
AcDbCircle
 10
63.30046249230174
 20
65.53446081928894
 30
0.0
 40
6.000000077324945
100
AcDbArc
 50
270.0
 51
0.0
  0
ARC
  5
1CD
330
1F
100
AcDbEntity
  8
躯体
  6
Continuous
 62
     2
370
     9
100
AcDbCircle
 10
63.30046249230174
 20
64.03448061447466
 30
0.0
 40
6.000000077324945
100
AcDbArc
 50
270.0
 51
0.0
  0
ARC
  5
1CE
330
1F
100
AcDbEntity
  8
躯体
  6
Continuous
 62
     2
370
     9
100
AcDbCircle
 10
63.30046249230174
 20
65.53446081928894
 30
0.0
 40
3.000000038662472
100
AcDbArc
 50
270.0
 51
0.0
  0
ARC
  5
1CF
330
1F
100
AcDbEntity
  8
通り芯
  6
Continuous
 62
     3
370
     9
100
AcDbCircle
 10
-62.69963153483089
 20
255.2244022255389
 30
0.0
 40
2.000000025774982
100
AcDbArc
 50
0.0
 51
84.28884887695312
  0
ARC
  5
1D0
330
1F
100
AcDbEntity
  8
通り芯
  6
Continuous
 62
     3
370
     9
100
AcDbCircle
 10
-62.69963153483089
 20
50.84445342908623
 30
0.0
 40
2.000000025774982
100
AcDbArc
 50
275.7112274169922
 51
0.0000000000000127
  0
CIRCLE
  5
1D1
330
1F
100
AcDbEntity
  8
通り芯
  6
Continuous
 62
     3
370
     9
100
AcDbCircle
 10
-95.69961668844152
 20
233.0344938112653
 30
0.0
 40
3.000113126393911
  0
CIRCLE
  5
1D2
330
1F
100
AcDbEntity
  8
通り芯
  6
Continuous
 62
     3
370
     9
100
AcDbCircle
 10
-95.69961668844152
 20
73.03446081928894
 30
0.0
 40
3.000113126393911
  0
ARC
  5
1D3
330
1F
100
AcDbEntity
  8
仕上
  6
Continuous
 62
     6
370
     9
100
AcDbCircle
 10
57.30066539295627
 20
238.5343882369409
 30
0.0
 40
3.000000038662472
100
AcDbArc
 50
0.0
 51
90.0
  0
ARC
  5
1D4
330
1F
100
AcDbEntity
  8
仕上
  6
Continuous
 62
     6
370
     9
100
AcDbCircle
 10
46.33279627872486
 20
155.7844245281149
 30
0.0
 40
2.000000025774982
100
AcDbArc
 50
349.7136840820313
 51
90.00000000000004
  0
ARC
  5
1D5
330
1F
100
AcDbEntity
  8
仕上
  6
Continuous
 62
     6
370
     9
100
AcDbCircle
 10
-27.0217041567692
 20
155.7844245281149
 30
0.0
 40
2.000000025774982
100
AcDbArc
 50
90.0
 51
180.0
  0
ARC
  5
1D6
330
1F
100
AcDbEntity
  8
仕上
  6
Continuous
 62
     6
370
     9
100
AcDbCircle
 10
46.30062910178231
 20
229.7845202048463
 30
0.0
 40
2.000000025774982
100
AcDbArc
 50
0.0
 51
90.0
  0
ARC
  5
1D7
330
1F
100
AcDbEntity
  8
仕上
  6
Continuous
 62
     6
370
     9
100
AcDbCircle
 10
46.30062910178231
 20
224.2844773152771
 30
0.0
 40
2.000000025774982
100
AcDbArc
 50
270.0
 51
0.0
  0
ARC
  5
1D8
330
1F
100
AcDbEntity
  8
仕上
  6
Continuous
 62
     6
370
     9
100
AcDbCircle
 10
46.30062910178231
 20
211.2844344257078
 30
0.0
 40
2.000000025774982
100
AcDbArc
 50
0.0
 51
90.0
  0
ARC
  5
1D9
330
1F
100
AcDbEntity
  8
仕上
  6
Continuous
 62
     6
370
     9
100
AcDbCircle
 10
46.30062910178231
 20
205.7844410241031
 30
0.0
 40
2.000000025774982
100
AcDbArc
 50
270.0
 51
0.0
  0
ARC
  5
1DA
330
1F
100
AcDbEntity
  8
仕上
  6
Continuous
 62
     6
370
     9
100
AcDbCircle
 10
46.30062910178231
 20
192.7844476224984
 30
0.0
 40
2.000000025774982
100
AcDbArc
 50
0.0
 51
90.0
  0
ARC
  5
1DB
330
1F
100
AcDbEntity
  8
仕上
  6
Continuous
 62
     6
370
     9
100
AcDbCircle
 10
46.30062910178231
 20
187.2844542208936
 30
0.0
 40
2.000000025774982
100
AcDbArc
 50
270.0
 51
0.0
  0
ARC
  5
1DC
330
1F
100
AcDbEntity
  8
仕上
  6
Continuous
 62
     6
370
     9
100
AcDbCircle
 10
46.30062910178231
 20
174.2844360753066
 30
0.0
 40
2.000000025774982
100
AcDbArc
 50
0.0
 51
90.0
  0
ARC
  5
1DD
330
1F
100
AcDbEntity
  8
仕上
  6
Continuous
 62
     6
370
     9
100
AcDbCircle
 10
46.30062910178231
 20
168.784442673702
 30
0.0
 40
2.000000025774982
100
AcDbArc
 50
270.0
 51
0.0
  0
ARC
  5
1DE
330
1F
100
AcDbEntity
  8
仕上
  6
Continuous
 62
     6
370
     9
100
AcDbCircle
 10
-27.0217041567692
 20
229.7845202048463
 30
0.0
 40
2.000000025774982
100
AcDbArc
 50
90.0
 51
180.0
  0
ARC
  5
1DF
330
1F
100
AcDbEntity
  8
仕上
  6
Continuous
 62
     6
370
     9
100
AcDbCircle
 10
-27.0217041567692
 20
224.2844773152771
 30
0.0
 40
2.000000025774982
100
AcDbArc
 50
180.0
 51
270.0
  0
ARC
  5
1E0
330
1F
100
AcDbEntity
  8
仕上
  6
Continuous
 62
     6
370
     9
100
AcDbCircle
 10
-19.59714855869066
 20
211.2844344257078
 30
0.0
 40
2.000000025774982
100
AcDbArc
 50
90.0
 51
180.0
  0
ARC
  5
1E1
330
1F
100
AcDbEntity
  8
仕上
  6
Continuous
 62
     6
370
     9
100
AcDbCircle
 10
-19.59714855869066
 20
205.7844410241031
 30
0.0
 40
2.000000025774982
100
AcDbArc
 50
180.0
 51
270.0
  0
ARC
  5
1E2
330
1F
100
AcDbEntity
  8
仕上
  6
Continuous
 62
     6
370
     9
100
AcDbCircle
 10
-27.0217041567692
 20
192.7844476224984
 30
0.0
 40
2.000000025774982
100
AcDbArc
 50
90.0
 51
180.0
  0
ARC
  5
1E3
330
1F
100
AcDbEntity
  8
仕上
  6
Continuous
 62
     6
370
     9
100
AcDbCircle
 10
-27.0217041567692
 20
187.2844542208936
 30
0.0
 40
2.000000025774982
100
AcDbArc
 50
180.0
 51
270.0
  0
ARC
  5
1E4
330
1F
100
AcDbEntity
  8
仕上
  6
Continuous
 62
     6
370
     9
100
AcDbCircle
 10
-27.0217041567692
 20
174.2844360753066
 30
0.0
 40
2.000000025774982
100
AcDbArc
 50
90.0
 51
180.0
  0
ARC
  5
1E5
330
1F
100
AcDbEntity
  8
仕上
  6
Continuous
 62
     6
370
     9
100
AcDbCircle
 10
-27.0217041567692
 20
168.784442673702
 30
0.0
 40
2.000000025774982
100
AcDbArc
 50
180.0
 51
270.0
  0
ARC
  5
1E6
330
1F
100
AcDbEntity
  8
仕上
  6
Continuous
 62
     6
370
     9
100
AcDbCircle
 10
-38.09280516500404
 20
174.2844360753066
 30
0.0
 40
2.000000025774982
100
AcDbArc
 50
0.0
 51
90.0
  0
ARC
  5
1E7
330
1F
100
AcDbEntity
  8
仕上
  6
Continuous
 62
     6
370
     9
100
AcDbCircle
 10
-38.09280516500404
 20
168.784442673702
 30
0.0
 40
2.000000025774982
100
AcDbArc
 50
270.0
 51
0.0
  0
ARC
  5
1E8
330
1F
100
AcDbEntity
  8
仕上
  6
Continuous
 62
     6
370
     9
100
AcDbCircle
 10
-38.09280516500404
 20
187.2844542208936
 30
0.0
 40
2.000000025774982
100
AcDbArc
 50
270.0
 51
0.0
  0
ARC
  5
1E9
330
1F
100
AcDbEntity
  8
仕上
  6
Continuous
 62
     6
370
     9
100
AcDbCircle
 10
-38.09280516500404
 20
192.7844476224984
 30
0.0
 40
2.000000025774982
100
AcDbArc
 50
0.0
 51
90.0
  0
ARC
  5
1EA
330
1F
100
AcDbEntity
  8
仕上
  6
Continuous
 62
     6
370
     9
100
AcDbCircle
 10
-38.09280516500404
 20
229.7845202048463
 30
0.0
 40
2.000000025774982
100
AcDbArc
 50
0.0
 51
90.0
  0
ARC
  5
1EB
330
1F
100
AcDbEntity
  8
仕上
  6
Continuous
 62
     6
370
     9
100
AcDbCircle
 10
-38.09280516500404
 20
224.2844773152771
 30
0.0
 40
2.000000025774982
100
AcDbArc
 50
270.0
 51
0.0
  0
ARC
  5
1EC
330
1F
100
AcDbEntity
  8
仕上
  6
Continuous
 62
     6
370
     9
100
AcDbCircle
 10
-45.51736076308259
 20
211.2844344257078
 30
0.0
 40
2.000000025774982
100
AcDbArc
 50
0.0
 51
90.0
  0
ARC
  5
1ED
330
1F
100
AcDbEntity
  8
仕上
  6
Continuous
 62
     6
370
     9
100
AcDbCircle
 10
-45.51736076308259
 20
205.7844410241031
 30
0.0
 40
2.000000025774982
100
AcDbArc
 50
270.0
 51
0.0
  0
ARC
  5
1EE
330
1F
100
AcDbEntity
  8
仕上
  6
Continuous
 62
     6
370
     9
100
AcDbCircle
 10
-38.09280516500404
 20
155.7844245281149
 30
0.0
 40
2.000000025774982
100
AcDbArc
 50
0.0
 51
90.0
  0
ARC
  5
1EF
330
1F
100
AcDbEntity
  8
仕上
  6
Continuous
 62
     6
370
     9
100
AcDbCircle
 10
57.30066539295627
 20
67.53446741768414
 30
0.0
 40
3.000000038662472
100
AcDbArc
 50
270.0
 51
0.0
  0
ARC
  5
1F0
330
1F
100
AcDbEntity
  8
仕上
  6
Continuous
 62
     6
370
     9
100
AcDbCircle
 10
46.33279627872486
 20
150.2844311265102
 30
0.0
 40
2.000000025774982
100
AcDbArc
 50
270.0
 51
10.28631591796876
  0
ARC
  5
1F1
330
1F
100
AcDbEntity
  8
仕上
  6
Continuous
 62
     6
370
     9
100
AcDbCircle
 10
-27.0217041567692
 20
150.2844311265102
 30
0.0
 40
2.000000025774982
100
AcDbArc
 50
180.0
 51
270.0
  0
ARC
  5
1F2
330
1F
100
AcDbEntity
  8
仕上
  6
Continuous
 62
     6
370
     9
100
AcDbCircle
 10
46.30062910178231
 20
76.28438493774331
 30
0.0
 40
2.000000025774982
100
AcDbArc
 50
270.0
 51
0.0
  0
ARC
  5
1F3
330
1F
100
AcDbEntity
  8
仕上
  6
Continuous
 62
     6
370
     9
100
AcDbCircle
 10
46.30062910178231
 20
81.78440308333029
 30
0.0
 40
2.000000025774982
100
AcDbArc
 50
0.0
 51
90.0
  0
ARC
  5
1F4
330
1F
100
AcDbEntity
  8
仕上
  6
Continuous
 62
     6
370
     9
100
AcDbCircle
 10
46.30062910178231
 20
94.78439648493497
 30
0.0
 40
2.000000025774982
100
AcDbArc
 50
270.0
 51
0.0
  0
ARC
  5
1F5
330
1F
100
AcDbEntity
  8
仕上
  6
Continuous
 62
     6
370
     9
100
AcDbCircle
 10
46.30062910178231
 20
100.2843898865398
 30
0.0
 40
2.000000025774982
100
AcDbArc
 50
0.0
 51
90.0
  0
ARC
  5
1F6
330
1F
100
AcDbEntity
  8
仕上
  6
Continuous
 62
     6
370
     9
100
AcDbCircle
 10
46.30062910178231
 20
113.284432776109
 30
0.0
 40
2.000000025774982
100
AcDbArc
 50
270.0
 51
0.0
  0
ARC
  5
1F7
330
1F
100
AcDbEntity
  8
仕上
  6
Continuous
 62
     6
370
     9
100
AcDbCircle
 10
46.30062910178231
 20
118.7844261777137
 30
0.0
 40
2.000000025774982
100
AcDbArc
 50
0.0
 51
90.0
  0
ARC
  5
1F8
330
1F
100
AcDbEntity
  8
仕上
  6
Continuous
 62
     6
370
     9
100
AcDbCircle
 10
46.30062910178231
 20
131.7844195793185
 30
0.0
 40
2.000000025774982
100
AcDbArc
 50
270.0
 51
0.0
  0
ARC
  5
1F9
330
1F
100
AcDbEntity
  8
仕上
  6
Continuous
 62
     6
370
     9
100
AcDbCircle
 10
46.30062910178231
 20
137.2844129809232
 30
0.0
 40
2.000000025774982
100
AcDbArc
 50
0.0
 51
90.0
  0
ARC
  5
1FA
330
1F
100
AcDbEntity
  8
仕上
  6
Continuous
 62
     6
370
     9
100
AcDbCircle
 10
-27.0217041567692
 20
76.28438493774331
 30
0.0
 40
2.000000025774982
100
AcDbArc
 50
180.0
 51
270.0
  0
ARC
  5
1FB
330
1F
100
AcDbEntity
  8
仕上
  6
Continuous
 62
     6
370
     9
100
AcDbCircle
 10
-27.0217041567692
 20
81.78440308333029
 30
0.0
 40
2.000000025774982
100
AcDbArc
 50
90.0
 51
180.0
  0
ARC
  5
1FC
330
1F
100
AcDbEntity
  8
仕上
  6
Continuous
 62
     6
370
     9
100
AcDbCircle
 10
-19.59714855869066
 20
94.78439648493497
 30
0.0
 40
2.000000025774982
100
AcDbArc
 50
180.0
 51
270.0
  0
ARC
  5
1FD
330
1F
100
AcDbEntity
  8
仕上
  6
Continuous
 62
     6
370
     9
100
AcDbCircle
 10
-19.59714855869066
 20
100.2843898865398
 30
0.0
 40
2.000000025774982
100
AcDbArc
 50
90.0
 51
180.0
  0
ARC
  5
1FE
330
1F
100
AcDbEntity
  8
仕上
  6
Continuous
 62
     6
370
     9
100
AcDbCircle
 10
-27.0217041567692
 20
113.284432776109
 30
0.0
 40
2.000000025774982
100
AcDbArc
 50
180.0
 51
270.0
  0
ARC
  5
1FF
330
1F
100
AcDbEntity
  8
仕上
  6
Continuous
 62
     6
370
     9
100
AcDbCircle
 10
-27.0217041567692
 20
118.7844261777137
 30
0.0
 40
2.000000025774982
100
AcDbArc
 50
90.0
 51
180.0
  0
ARC
  5
200
330
1F
100
AcDbEntity
  8
仕上
  6
Continuous
 62
     6
370
     9
100
AcDbCircle
 10
-27.0217041567692
 20
131.7844195793185
 30
0.0
 40
2.000000025774982
100
AcDbArc
 50
180.0
 51
270.0
  0
ARC
  5
201
330
1F
100
AcDbEntity
  8
仕上
  6
Continuous
 62
     6
370
     9
100
AcDbCircle
 10
-27.0217041567692
 20
137.2844129809232
 30
0.0
 40
2.000000025774982
100
AcDbArc
 50
90.0
 51
180.0
  0
ARC
  5
202
330
1F
100
AcDbEntity
  8
仕上
  6
Continuous
 62
     6
370
     9
100
AcDbCircle
 10
-38.09280516500404
 20
131.7844195793185
 30
0.0
 40
2.000000025774982
100
AcDbArc
 50
270.0
 51
0.0
  0
ARC
  5
203
330
1F
100
AcDbEntity
  8
仕上
  6
Continuous
 62
     6
370
     9
100
AcDbCircle
 10
-38.09280516500404
 20
137.2844129809232
 30
0.0
 40
2.000000025774982
100
AcDbArc
 50
0.0
 51
90.0
  0
ARC
  5
204
330
1F
100
AcDbEntity
  8
仕上
  6
Continuous
 62
     6
370
     9
100
AcDbCircle
 10
-38.09280516500404
 20
118.7844261777137
 30
0.0
 40
2.000000025774982
100
AcDbArc
 50
0.0
 51
90.0
  0
ARC
  5
205
330
1F
100
AcDbEntity
  8
仕上
  6
Continuous
 62
     6
370
     9
100
AcDbCircle
 10
-38.09280516500404
 20
113.284432776109
 30
0.0
 40
2.000000025774982
100
AcDbArc
 50
270.0
 51
0.0
  0
ARC
  5
206
330
1F
100
AcDbEntity
  8
仕上
  6
Continuous
 62
     6
370
     9
100
AcDbCircle
 10
-38.09280516500404
 20
76.28438493774331
 30
0.0
 40
2.000000025774982
100
AcDbArc
 50
270.0
 51
0.0
  0
ARC
  5
207
330
1F
100
AcDbEntity
  8
仕上
  6
Continuous
 62
     6
370
     9
100
AcDbCircle
 10
-38.09280516500404
 20
81.78440308333029
 30
0.0
 40
2.000000025774982
100
AcDbArc
 50
0.0
 51
90.0
  0
ARC
  5
208
330
1F
100
AcDbEntity
  8
仕上
  6
Continuous
 62
     6
370
     9
100
AcDbCircle
 10
-45.51736076308259
 20
94.78439648493497
 30
0.0
 40
2.000000025774982
100
AcDbArc
 50
270.0
 51
0.0
  0
ARC
  5
209
330
1F
100
AcDbEntity
  8
仕上
  6
Continuous
 62
     6
370
     9
100
AcDbCircle
 10
-45.51736076308259
 20
100.2843898865398
 30
0.0
 40
2.000000025774982
100
AcDbArc
 50
0.0
 51
90.0
  0
ARC
  5
20A
330
1F
100
AcDbEntity
  8
仕上
  6
Continuous
 62
     6
370
     9
100
AcDbCircle
 10
-38.09280516500404
 20
150.2844311265102
 30
0.0
 40
2.000000025774982
100
AcDbArc
 50
270.0
 51
0.0
  0
ELLIPSE
  5
20B
330
1F
100
AcDbEntity
  8
通り芯
  6
Continuous
 62
     2
370
     9
100
AcDbEllipse
 10
-27.72935730552347
 20
208.53448721287
 30
0.0
 11
2.449350684046840E-16
 21
4.000093228108175
 31
0.0
210
0.0
220
0.0
230
1.0
 40
0.7070000000000001
 41
0.0124920897252347
 42
3.129100830180668
  0
ELLIPSE
  5
20C
330
1F
100
AcDbEntity
  8
通り芯
  6
Continuous
 62
     2
370
     9
100
AcDbEllipse
 10
-27.72935730552347
 20
208.53448721287
 30
0.0
 11
2.449350684046840E-16
 21
4.000093228108175
 31
0.0
210
0.0
220
0.0
230
1.0
 40
0.7070000000000001
 41
3.512575787127794
 42
5.91219311889388
  0
ELLIPSE
  5
20D
330
1F
100
AcDbEntity
  8
通り芯
  6
Continuous
 62
     2
370
     9
100
AcDbEllipse
 10
-29.72936390391873
 20
208.53448721287
 30
0.0
 11
2.449350684046840E-16
 21
4.000093228108175
 31
0.0
210
0.0
220
0.0
230
1.0
 40
0.7070000000000001
 41
0.0124920897252347
 42
3.129100830180668
  0
ELLIPSE
  5
20E
330
1F
100
AcDbEntity
  8
通り芯
  6
Continuous
 62
     2
370
     9
100
AcDbEllipse
 10
-31.72937050231399
 20
208.53448721287
 30
0.0
 11
2.449350684046840E-16
 21
4.000093228108175
 31
0.0
210
0.0
220
0.0
230
1.0
 40
0.7070000000000001
 41
0.0124920897252347
 42
3.129100830180668
  0
ELLIPSE
  5
20F
330
1F
100
AcDbEntity
  8
通り芯
  6
Continuous
 62
     2
370
     9
100
AcDbEllipse
 10
-33.72937710070925
 20
208.53448721287
 30
0.0
 11
2.449350684046840E-16
 21
4.000093228108175
 31
0.0
210
0.0
220
0.0
230
1.0
 40
0.7070000000000001
 41
0.0124920897252347
 42
3.129100830180668
  0
ELLIPSE
  5
210
330
1F
100
AcDbEntity
  8
仕上
  6
Continuous
 62
     6
370
     9
100
AcDbEllipse
 10
-35.7392318040454
 20
208.53448721287
 30
0.0
 11
5.204757071775645E-16
 21
8.50001335144043
 31
0.0
210
0.0
220
0.0
230
1.0
 40
0.7071000000000001
 41
3.746431957189286
 42
4.222429657779617
  0
ELLIPSE
  5
211
330
1F
100
AcDbEntity
  8
仕上
  6
Continuous
 62
     6
370
     9
100
AcDbEllipse
 10
-35.7392318040454
 20
208.53448721287
 30
0.0
 11
5.204757071775645E-16
 21
8.50001335144043
 31
0.0
210
0.0
220
0.0
230
1.0
 40
0.7071000000000001
 41
5.202341112454818
 42
5.678342807786785
  0
ELLIPSE
  5
212
330
1F
100
AcDbEntity
  8
仕上
  6
Continuous
 62
     6
370
     9
100
AcDbEllipse
 10
-32.55722991690435
 20
208.53448721287
 30
0.0
 11
4.286253317353194E-16
 21
6.999982885412268
 31
0.0
210
0.0
220
0.0
230
1.0
 40
0.7071000000000001
 41
5.320631271225087
 42
10.38732320829228
  0
ELLIPSE
  5
213
330
1F
100
AcDbEntity
  8
通り芯
  6
Continuous
 62
     2
370
     9
100
AcDbEllipse
 10
-35.72933421113998
 20
208.53448721287
 30
0.0
 11
2.449350684046840E-16
 21
4.000093228108175
 31
0.0
210
0.0
220
0.0
230
1.0
 40
0.7070000000000001
 41
0.0124920897252347
 42
0.366947379222094
  0
ELLIPSE
  5
214
330
1F
100
AcDbEntity
  8
通り芯
  6
Continuous
 62
     2
370
     9
100
AcDbEllipse
 10
-35.72933421113998
 20
208.53448721287
 30
0.0
 11
2.449350684046840E-16
 21
4.000093228108175
 31
0.0
210
0.0
220
0.0
230
1.0
 40
0.7070000000000001
 41
2.774624501711197
 42
3.129100830180668
  0
ELLIPSE
  5
215
330
1F
100
AcDbEntity
  8
通り芯
  6
Continuous
 62
     2
370
     9
100
AcDbEllipse
 10
-27.72935730552347
 20
97.53439318573737
 30
0.0
 11
2.449350684046840E-16
 21
-4.000093228108175
 31
0.0
210
0.0
220
0.0
230
1.0
 40
0.7070000000000001
 41
3.154084476998919
 42
6.270693217454352
  0
ELLIPSE
  5
216
330
1F
100
AcDbEntity
  8
通り芯
  6
Continuous
 62
     2
370
     9
100
AcDbEllipse
 10
-27.72935730552347
 20
97.53439318573737
 30
0.0
 11
2.449350684046840E-16
 21
-4.000093228108175
 31
0.0
210
0.0
220
0.0
230
1.0
 40
0.7070000000000001
 41
0.3709921882857063
 42
2.770609520051793
  0
ELLIPSE
  5
217
330
1F
100
AcDbEntity
  8
通り芯
  6
Continuous
 62
     2
370
     9
100
AcDbEllipse
 10
-29.72936390391873
 20
97.53439318573737
 30
0.0
 11
2.449350684046840E-16
 21
-4.000093228108175
 31
0.0
210
0.0
220
0.0
230
1.0
 40
0.7070000000000001
 41
3.154084476998919
 42
6.270693217454352
  0
ELLIPSE
  5
218
330
1F
100
AcDbEntity
  8
通り芯
  6
Continuous
 62
     2
370
     9
100
AcDbEllipse
 10
-31.72937050231399
 20
97.53439318573737
 30
0.0
 11
2.449350684046840E-16
 21
-4.000093228108175
 31
0.0
210
0.0
220
0.0
230
1.0
 40
0.7070000000000001
 41
3.154084476998919
 42
6.270693217454352
  0
ELLIPSE
  5
219
330
1F
100
AcDbEntity
  8
通り芯
  6
Continuous
 62
     2
370
     9
100
AcDbEllipse
 10
-33.72937710070925
 20
97.53439318573737
 30
0.0
 11
2.449350684046840E-16
 21
-4.000093228108175
 31
0.0
210
0.0
220
0.0
230
1.0
 40
0.7070000000000001
 41
3.154084476998919
 42
6.270693217454352
  0
ELLIPSE
  5
21A
330
1F
100
AcDbEntity
  8
通り芯
  6
Continuous
 62
     2
370
     9
100
AcDbEllipse
 10
-35.72933421113998
 20
97.53439318573737
 30
0.0
 11
2.449350684046840E-16
 21
-4.000093228108175
 31
0.0
210
0.0
220
0.0
230
1.0
 40
0.7070000000000001
 41
5.916237927957491
 42
6.270693217454351
  0
ELLIPSE
  5
21B
330
1F
100
AcDbEntity
  8
通り芯
  6
Continuous
 62
     2
370
     9
100
AcDbEllipse
 10
-35.72933421113998
 20
97.53439318573737
 30
0.0
 11
2.449350684046840E-16
 21
-4.000093228108175
 31
0.0
210
0.0
220
0.0
230
1.0
 40
0.7070000000000001
 41
3.154084476998919
 42
3.50856080546839
  0
ELLIPSE
  5
21C
330
1F
100
AcDbEntity
  8
仕上
  6
Continuous
 62
     6
370
     9
100
AcDbEllipse
 10
-35.7392318040454
 20
97.53439318573737
 30
0.0
 11
5.204757071775645E-16
 21
-8.50001335144043
 31
0.0
210
0.0
220
0.0
230
1.0
 40
0.7071000000000001
 41
0.6048424993928012
 42
1.080844194724768
  0
ELLIPSE
  5
21D
330
1F
100
AcDbEntity
  8
仕上
  6
Continuous
 62
     6
370
     9
100
AcDbEllipse
 10
-35.7392318040454
 20
97.53439318573737
 30
0.0
 11
5.204757071775645E-16
 21
-8.50001335144043
 31
0.0
210
0.0
220
0.0
230
1.0
 40
0.7071000000000001
 41
2.060755649399968
 42
2.5367533499903
  0
ELLIPSE
  5
21E
330
1F
100
AcDbEntity
  8
仕上
  6
Continuous
 62
     6
370
     9
100
AcDbEllipse
 10
-32.55722991690435
 20
97.53439318573737
 30
0.0
 11
4.286253317353194E-16
 21
-6.999982885412268
 31
0.0
210
0.0
220
0.0
230
1.0
 40
0.7071000000000001
 41
2.17904740606689
 42
7.245739343134087
  0
ARC
  5
21F
330
1F
100
AcDbEntity
  8
仕上
  6
Continuous
 62
     6
370
     9
100
AcDbCircle
 10
-40.21423048436633
 20
174.2844360753066
 30
0.0
 40
2.000000025774982
100
AcDbArc
 50
0.0
 51
90.0
  0
ARC
  5
220
330
1F
100
AcDbEntity
  8
仕上
  6
Continuous
 62
     6
370
     9
100
AcDbCircle
 10
-40.21423048436633
 20
168.784442673702
 30
0.0
 40
2.000000025774982
100
AcDbArc
 50
270.0
 51
0.0
  0
ARC
  5
221
330
1F
100
AcDbEntity
  8
仕上
  6
Continuous
 62
     6
370
     9
100
AcDbCircle
 10
-40.21423048436633
 20
187.2844542208936
 30
0.0
 40
2.000000025774982
100
AcDbArc
 50
270.0
 51
0.0
  0
ARC
  5
222
330
1F
100
AcDbEntity
  8
仕上
  6
Continuous
 62
     6
370
     9
100
AcDbCircle
 10
-40.21423048436633
 20
192.7844476224984
 30
0.0
 40
2.000000025774982
100
AcDbArc
 50
0.0
 51
90.0
  0
ARC
  5
223
330
1F
100
AcDbEntity
  8
仕上
  6
Continuous
 62
     6
370
     9
100
AcDbCircle
 10
-40.21423048436633
 20
229.7845202048463
 30
0.0
 40
2.000000025774982
100
AcDbArc
 50
0.0
 51
90.0
  0
ARC
  5
224
330
1F
100
AcDbEntity
  8
仕上
  6
Continuous
 62
     6
370
     9
100
AcDbCircle
 10
-40.21423048436633
 20
224.2844773152771
 30
0.0
 40
2.000000025774982
100
AcDbArc
 50
270.0
 51
0.0
  0
ARC
  5
225
330
1F
100
AcDbEntity
  8
仕上
  6
Continuous
 62
     6
370
     9
100
AcDbCircle
 10
-40.21423048436633
 20
155.7844245281149
 30
0.0
 40
2.000000025774982
100
AcDbArc
 50
0.0
 51
90.0
  0
ARC
  5
226
330
1F
100
AcDbEntity
  8
仕上
  6
Continuous
 62
     6
370
     9
100
AcDbCircle
 10
-40.21423048436633
 20
131.7844195793185
 30
0.0
 40
2.000000025774982
100
AcDbArc
 50
270.0
 51
0.0
  0
ARC
  5
227
330
1F
100
AcDbEntity
  8
仕上
  6
Continuous
 62
     6
370
     9
100
AcDbCircle
 10
-40.21423048436633
 20
137.2844129809232
 30
0.0
 40
2.000000025774982
100
AcDbArc
 50
0.0
 51
90.0
  0
ARC
  5
228
330
1F
100
AcDbEntity
  8
仕上
  6
Continuous
 62
     6
370
     9
100
AcDbCircle
 10
-40.21423048436633
 20
118.7844261777137
 30
0.0
 40
2.000000025774982
100
AcDbArc
 50
0.0
 51
90.0
  0
ARC
  5
229
330
1F
100
AcDbEntity
  8
仕上
  6
Continuous
 62
     6
370
     9
100
AcDbCircle
 10
-40.21423048436633
 20
113.284432776109
 30
0.0
 40
2.000000025774982
100
AcDbArc
 50
270.0
 51
0.0
  0
ARC
  5
22A
330
1F
100
AcDbEntity
  8
仕上
  6
Continuous
 62
     6
370
     9
100
AcDbCircle
 10
-40.21423048436633
 20
76.28438493774331
 30
0.0
 40
2.000000025774982
100
AcDbArc
 50
270.0
 51
0.0
  0
ARC
  5
22B
330
1F
100
AcDbEntity
  8
仕上
  6
Continuous
 62
     6
370
     9
100
AcDbCircle
 10
-40.21423048436633
 20
81.78440308333029
 30
0.0
 40
2.000000025774982
100
AcDbArc
 50
0.0
 51
90.0
  0
ARC
  5
22C
330
1F
100
AcDbEntity
  8
仕上
  6
Continuous
 62
     6
370
     9
100
AcDbCircle
 10
-40.21423048436633
 20
150.2844311265102
 30
0.0
 40
2.000000025774982
100
AcDbArc
 50
270.0
 51
0.0
  0
ARC
  5
22D
330
1F
100
AcDbEntity
  8
仕上
  6
Continuous
 62
     6
370
     9
100
AcDbCircle
 10
-47.99242707695503
 20
100.2843898865398
 30
0.0
 40
2.000000025774982
100
AcDbArc
 50
0.0
 51
90.0
  0
ARC
  5
22E
330
1F
100
AcDbEntity
  8
仕上
  6
Continuous
 62
     6
370
     9
100
AcDbCircle
 10
-47.99242707695503
 20
205.7844410241031
 30
0.0
 40
2.000000025774982
100
AcDbArc
 50
270.0
 51
0.0
  0
LINE
  5
22F
330
1F
100
AcDbEntity
  8
その他
  6
Continuous
 62
     7
370
     9
100
AcDbLine
 10
94.3004410475171
 20
64.53446737902169
 30
0.0
 11
94.3004410475171
 21
241.5343882756034
 31
0.0
  0
LINE
  5
230
330
1F
100
AcDbEntity
  8
その他
  6
Continuous
 62
     7
370
     9
100
AcDbLine
 10
94.3004410475171
 20
64.53446737902169
 30
0.0
 11
93.64781008641683
 21
69.49169168589077
 31
0.0
  0
LINE
  5
231
330
1F
100
AcDbEntity
  8
その他
  6
Continuous
 62
     7
370
     9
100
AcDbLine
 10
94.3004410475171
 20
64.53446737902169
 30
0.0
 11
94.95307200861735
 21
69.49169168589077
 31
0.0
  0
LINE
  5
232
330
1F
100
AcDbEntity
  8
その他
  6
Continuous
 62
     7
370
     9
100
AcDbLine
 10
94.3004410475171
 20
241.5343882756034
 30
0.0
 11
93.64781008641685
 21
236.5771639687343
 31
0.0
  0
LINE
  5
233
330
1F
100
AcDbEntity
  8
その他
  6
Continuous
 62
     7
370
     9
100
AcDbLine
 10
94.3004410475171
 20
241.5343882756034
 30
0.0
 11
94.95307200861737
 21
236.5771639687343
 31
0.0
  0
LINE
  5
234
330
1F
100
AcDbEntity
  8
その他
  6
Continuous
 62
     7
370
     9
100
AcDbLine
 10
94.90044107135894
 20
64.53446737902169
 30
0.0
 11
61.30066539295627
 21
64.53446737902169
 31
0.0
  0
LINE
  5
235
330
1F
100
AcDbEntity
  8
その他
  6
Continuous
 62
     7
370
     9
100
AcDbLine
 10
94.90044107135897
 20
241.5343882756034
 30
0.0
 11
61.30066539295627
 21
241.5343882756034
 31
0.0
  0
TEXT
  5
236
330
1F
100
AcDbEntity
  8
その他
  6
Continuous
 62
     2
370
   211
100
AcDbText
 10
91.1724410475171
 20
146.5344278273125
 30
0.0
 40
6.096
  1
177
 50
90.0
 41
1.083333333333333
  7
ＭＳ ゴシック
100
AcDbText
  0
LINE
  5
237
330
1F
100
AcDbEntity
  8
その他
  6
Continuous
 62
     7
370
     9
100
AcDbLine
 10
109.3004410475171
 20
48.03442782731258
 30
0.0
 11
109.3004410475171
 21
258.0344278273126
 31
0.0
  0
LINE
  5
238
330
1F
100
AcDbEntity
  8
その他
  6
Continuous
 62
     7
370
     9
100
AcDbLine
 10
109.3004410475171
 20
48.03442782731258
 30
0.0
 11
108.6478100864169
 21
52.99165213418166
 31
0.0
  0
LINE
  5
239
330
1F
100
AcDbEntity
  8
その他
  6
Continuous
 62
     7
370
     9
100
AcDbLine
 10
109.3004410475171
 20
48.03442782731258
 30
0.0
 11
109.9530720086174
 21
52.99165213418166
 31
0.0
  0
LINE
  5
23A
330
1F
100
AcDbEntity
  8
その他
  6
Continuous
 62
     7
370
     9
100
AcDbLine
 10
109.3004410475171
 20
258.0344278273126
 30
0.0
 11
108.6478100864169
 21
253.0772035204435
 31
0.0
  0
LINE
  5
23B
330
1F
100
AcDbEntity
  8
その他
  6
Continuous
 62
     7
370
     9
100
AcDbLine
 10
109.3004410475171
 20
258.0344278273126
 30
0.0
 11
109.9530720086174
 21
253.0772035204435
 31
0.0
  0
LINE
  5
23C
330
1F
100
AcDbEntity
  8
その他
  6
Continuous
 62
     7
370
     9
100
AcDbLine
 10
109.900441071359
 20
48.03442782731258
 30
0.0
 11
73.30043279952298
 21
48.03442782731258
 31
0.0
  0
LINE
  5
23D
330
1F
100
AcDbEntity
  8
その他
  6
Continuous
 62
     7
370
     9
100
AcDbLine
 10
109.900441071359
 20
258.0344278273126
 30
0.0
 11
73.30043279952298
 21
258.0344278273126
 31
0.0
  0
TEXT
  5
23E
330
1F
100
AcDbEntity
  8
その他
  6
Continuous
 62
     2
370
   211
100
AcDbText
 10
106.1724410475171
 20
146.5344278273126
 30
0.0
 40
6.096
  1
210
 50
90.0
 41
1.083333333333333
  7
ＭＳ ゴシック
100
AcDbText
  0
LINE
  5
23F
330
1F
100
AcDbEntity
  8
通り芯
  6
JWW_CENTER1
 62
     3
370
     9
100
AcDbLine
 10
-119.19142972951
 20
153.0344278273125
 30
0.0
 11
80.70087488750667
 21
153.0344278273126
 31
0.0
  0
TEXT
  5
240
330
1F
100
AcDbEntity
  8
F-5ﾚｲﾔ
  6
Continuous
 62
     2
370
     9
100
AcDbText
 10
-167.9520085509806
 20
-264.8734115753024
 30
0.0
 40
6.096
  1
鋳鉄製ルーフドレン　よこ引き用　後付型　ねじ込み式
 41
0.899
  7
ＭＳ ゴシック
100
AcDbText
  0
TEXT
  5
241
330
1F
100
AcDbEntity
  8
F-0ﾚｲﾔ
  6
Continuous
 62
     2
370
     9
100
AcDbText
 10
-91.90598196858446
 20
-274.2883882171942
 30
0.0
 40
6.096
  1
アスファルト・シート防水用　　ＥＺＣ－Ｌ－１００
 41
0.8989583333333334
  7
ＭＳ ゴシック
100
AcDbText
  0
LINE
  5
242
330
1F
100
AcDbEntity
  8
その他
  6
Continuous
 62
     7
370
     9
100
AcDbLine
 10
104.8488389353281
 20
-182.1607440686073
 30
0.0
 11
104.8488389353281
 21
-162.3249846995046
 31
0.0
  0
LINE
  5
243
330
1F
100
AcDbEntity
  8
仕上
  6
Continuous
 62
     4
370
     9
100
AcDbLine
 10
-48.55108320360773
 20
-50.32495503250084
 30
0.0
 11
-51.15115611587566
 21
-50.32495503250084
 31
0.0
  0
LINE
  5
244
330
1F
100
AcDbEntity
  8
仕上
  6
Continuous
 62
     4
370
     9
100
AcDbLine
 10
-48.55108320360773
 20
-62.32479667101438
 30
0.0
 11
-51.15115611587566
 21
-62.32479667101438
 31
0.0
  0
LINE
  5
245
330
1F
100
AcDbEntity
  8
仕上
  6
Continuous
 62
     4
370
     9
100
AcDbLine
 10
-48.55108320360773
 20
-56.80386986041469
 30
0.0
 11
-48.55108320360773
 21
-55.84588184310053
 31
0.0
  0
LINE
  5
246
330
1F
100
AcDbEntity
  8
仕上
  6
Continuous
 62
     4
370
     9
100
AcDbLine
 10
-63.15107198633586
 20
-53.32491544212928
 30
0.0
 11
-63.15107198633586
 21
-59.324935237315
 31
0.0
  0
LINE
  5
247
330
1F
100
AcDbEntity
  8
仕上
  6
Continuous
 62
     4
370
     9
100
AcDbLine
 10
-53.15111322630628
 20
-53.32491544212928
 30
0.0
 11
-63.15107198633586
 21
-53.32491544212928
 31
0.0
  0
LINE
  5
248
330
1F
100
AcDbEntity
  8
仕上
  6
Continuous
 62
     4
370
     9
100
AcDbLine
 10
-51.15115611587566
 20
-50.32495503250084
 30
0.0
 11
-51.15115611587566
 21
-62.32479667101438
 31
0.0
  0
LINE
  5
249
330
1F
100
AcDbEntity
  8
仕上
  6
Continuous
 62
     4
370
     9
100
AcDbLine
 10
-53.15111322630628
 20
-59.324935237315
 30
0.0
 11
-63.15107198633586
 21
-59.324935237315
 31
0.0
  0
LINE
  5
24A
330
1F
100
AcDbEntity
  8
仕上
  6
Continuous
 62
     4
370
     9
100
AcDbLine
 10
-53.15111322630628
 20
-54.19496334647886
 30
0.0
 11
-63.15107198633586
 21
-54.19496334647886
 31
0.0
  0
LINE
  5
24B
330
1F
100
AcDbEntity
  8
仕上
  6
Continuous
 62
     4
370
     9
100
AcDbLine
 10
-53.15111322630628
 20
-58.45498630889449
 30
0.0
 11
-63.15107198633586
 21
-58.45498630889449
 31
0.0
  0
LINE
  5
24C
330
1F
100
AcDbEntity
  8
仕上
  6
Continuous
 62
     4
370
     9
100
AcDbLine
 10
-53.15111322630628
 20
-58.45498630889449
 30
0.0
 11
-51.27863711249711
 21
-59.50700145881001
 31
0.0
  0
LINE
  5
24D
330
1F
100
AcDbEntity
  8
仕上
  6
Continuous
 62
     4
370
     9
100
AcDbLine
 10
-53.15111322630628
 20
-59.324935237315
 30
0.0
 11
-52.38736546976065
 21
-58.88404696134376
 31
0.0
  0
LINE
  5
24E
330
1F
100
AcDbEntity
  8
仕上
  6
Continuous
 62
     4
370
     9
100
AcDbLine
 10
-53.15111322630628
 20
-54.19496334647886
 30
0.0
 11
-51.27863711249711
 21
-53.14294819656334
 31
0.0
  0
LINE
  5
24F
330
1F
100
AcDbEntity
  8
仕上
  6
Continuous
 62
     4
370
     9
100
AcDbLine
 10
-53.15111322630628
 20
-53.32491544212928
 30
0.0
 11
-52.38736546976065
 21
-53.76590269402959
 31
0.0
  0
LINE
  5
250
330
1F
100
AcDbEntity
  8
通り芯
  6
Continuous
 62
     2
370
     9
100
AcDbLine
 10
-31.40342926304606
 20
-122.9205327879907
 30
0.0
 11
-30.41354625259441
 21
-122.9205822759552
 31
0.0
  0
LINE
  5
251
330
1F
100
AcDbEntity
  8
通り芯
  6
Continuous
 62
     2
370
     9
100
AcDbLine
 10
-25.74665798981982
 20
-127.587495282712
 30
0.0
 11
-25.74665798981982
 21
-128.5774525251106
 31
0.0
  0
LINE
  5
252
330
1F
100
AcDbEntity
  8
仕上
  6
Continuous
 62
     4
370
     9
100
AcDbLine
 10
-46.56258255696503
 20
-55.84588184310053
 30
0.0
 11
-48.55108320360773
 21
-55.84588184310053
 31
0.0
  0
LINE
  5
253
330
1F
100
AcDbEntity
  8
通り芯
  6
Continuous
 62
     2
370
     9
100
AcDbLine
 10
-40.77865195888648
 20
-148.5593069381174
 30
0.0
 11
-44.86452677413149
 21
-152.6451322653978
 31
0.0
  0
LINE
  5
254
330
1F
100
AcDbEntity
  8
通り芯
  6
Continuous
 62
     2
370
     9
100
AcDbLine
 10
-48.73151632227336
 20
-140.6061951349079
 30
0.0
 11
-52.81749011344732
 21
-144.692168926082
 31
0.0
  0
LINE
  5
255
330
1F
100
AcDbEntity
  8
通り芯
  6
Continuous
 62
     2
370
     9
100
AcDbLine
 10
-43.43222136080794
 20
-145.9055643283201
 30
0.0
 11
-47.5181951519819
 21
-149.9914886315296
 31
0.0
  0
LINE
  5
256
330
1F
100
AcDbEntity
  8
通り芯
  6
Continuous
 62
     2
370
     9
100
AcDbLine
 10
-49.54809248095148
 20
-138.7691029157356
 30
0.0
 11
-41.59522811756483
 21
-146.7220662550516
 31
0.0
  0
LINE
  5
257
330
1F
100
AcDbEntity
  8
通り芯
  6
JWW_DASHED1
 62
     2
370
     9
100
AcDbLine
 10
-65.76886158990419
 20
-157.2859651148489
 30
0.0
 11
-65.76886158990419
 21
-158.2760213331766
 31
0.0
  0
LINE
  5
258
330
1F
100
AcDbEntity
  8
通り芯
  6
JWW_DASHED1
 62
     2
370
     9
100
AcDbLine
 10
-65.76886158990419
 20
-157.2859651148489
 30
0.0
 11
-60.11194185278441
 21
-162.9427858760397
 31
0.0
  0
LINE
  5
259
330
1F
100
AcDbEntity
  8
通り芯
  6
JWW_DASHED1
 62
     2
370
     9
100
AcDbLine
 10
-61.10189909518294
 20
-162.9428353640043
 30
0.0
 11
-60.11194185278441
 21
-162.9428353640043
 31
0.0
  0
LINE
  5
25A
330
1F
100
AcDbEntity
  8
通り芯
  6
JWW_DASHED1
 62
     2
370
     9
100
AcDbLine
 10
-65.76886158990419
 20
-158.2760213331766
 30
0.0
 11
-61.10189909518294
 21
-162.9428353640043
 31
0.0
  0
LINE
  5
25B
330
1F
100
AcDbEntity
  8
通り芯
  6
Continuous
 62
     2
370
     9
100
AcDbLine
 10
-30.73167963255628
 20
-126.845027350913
 30
0.0
 11
-29.67107832079523
 21
-127.9056534066563
 31
0.0
  0
LINE
  5
25C
330
1F
100
AcDbEntity
  8
通り芯
  6
Continuous
 62
     2
370
     9
100
AcDbLine
 10
-30.73167963255628
 20
-126.845027350913
 30
0.0
 11
-28.61037803310523
 21
-124.723725751462
 31
0.0
  0
LINE
  5
25D
330
1F
100
AcDbEntity
  8
通り芯
  6
Continuous
 62
     2
370
     9
100
AcDbLine
 10
-29.67107832079523
 20
-127.9056534066563
 30
0.0
 11
-27.54977672134441
 21
-125.7843518072052
 31
0.0
  0
LINE
  5
25E
330
1F
100
AcDbEntity
  8
通り芯
  6
Continuous
 62
     2
370
     9
100
AcDbLine
 10
-31.40342926304606
 20
-122.9205327879907
 30
0.0
 11
-29.10535665430461
 21
-125.2187043726614
 31
0.0
  0
LINE
  5
25F
330
1F
100
AcDbEntity
  8
通り芯
  6
Continuous
 62
     2
370
     9
100
AcDbLine
 10
-28.04470585457898
 20
-126.2793304284046
 30
0.0
 11
-25.74665798981982
 21
-128.5774525251106
 31
0.0
  0
LINE
  5
260
330
1F
100
AcDbEntity
  8
通り芯
  6
Continuous
 62
     2
370
     9
100
AcDbLine
 10
-30.41354625259441
 20
-122.9205822759552
 30
0.0
 11
-28.61037803310523
 21
-124.723725751462
 31
0.0
  0
LINE
  5
261
330
1F
100
AcDbEntity
  8
通り芯
  6
Continuous
 62
     2
370
     9
100
AcDbLine
 10
-27.54977672134441
 20
-125.7843518072052
 30
0.0
 11
-25.74665798981982
 21
-127.587495282712
 31
0.0
  0
LINE
  5
262
330
1F
100
AcDbEntity
  8
通り芯
  6
Continuous
 62
     2
370
     9
100
AcDbLine
 10
-48.40009542383586
 20
-139.9171742047981
 30
0.0
 11
-31.40342926304606
 21
-122.9205327879907
 31
0.0
  0
LINE
  5
263
330
1F
100
AcDbEntity
  8
通り芯
  6
Continuous
 62
     2
370
     9
100
AcDbLine
 10
-47.90511680263648
 20
-140.4121528259975
 30
0.0
 11
-30.41354625259441
 21
-122.9205822759552
 31
0.0
  0
LINE
  5
264
330
1F
100
AcDbEntity
  8
通り芯
  6
Continuous
 62
     2
370
     9
100
AcDbLine
 10
-43.23820379587983
 20
-145.0791153207188
 30
0.0
 11
-25.74665798981982
 21
-127.587495282712
 31
0.0
  0
LINE
  5
265
330
1F
100
AcDbEntity
  8
通り芯
  6
Continuous
 62
     2
370
     9
100
AcDbLine
 10
-42.74324991866274
 20
-145.5740939419181
 30
0.0
 11
-25.74665798981982
 21
-128.5774525251106
 31
0.0
  0
LINE
  5
266
330
1F
100
AcDbEntity
  8
躯体
  6
Continuous
 62
     2
370
     9
100
AcDbLine
 10
-50.65122869822358
 20
-32.32499462287251
 30
0.0
 11
-65.15122704862483
 21
-32.32499462287251
 31
0.0
  0
LINE
  5
267
330
1F
100
AcDbEntity
  8
躯体
  6
Continuous
 62
     2
370
     9
100
AcDbLine
 10
64.84888017529852
 20
-147.8249550325008
 30
0.0
 11
64.84888017529852
 21
-162.3249781268843
 31
0.0
  0
LINE
  5
268
330
1F
100
AcDbEntity
  8
躯体
  6
Continuous
 62
     2
370
     9
100
AcDbLine
 10
54.13542868670038
 20
-153.8517478164958
 30
0.0
 11
61.70906677791663
 21
-147.4432543621039
 31
0.0
  0
LINE
  5
269
330
1F
100
AcDbEntity
  8
躯体
  6
Continuous
 62
     2
370
     9
100
AcDbLine
 10
34.61586609432288
 20
-154.3249517333032
 30
0.0
 11
25.08186126429769
 21
-162.3249781268843
 31
0.0
  0
LINE
  5
26A
330
1F
100
AcDbEntity
  8
躯体
  6
Continuous
 62
     2
370
     9
100
AcDbLine
 10
-39.56114905559275
 20
-157.9482625441141
 30
0.0
 11
-60.77443723390775
 21
-136.7351475736749
 31
0.0
  0
LINE
  5
26B
330
1F
100
AcDbEntity
  8
躯体
  6
Continuous
 62
     2
370
     9
100
AcDbLine
 10
-61.15109013192296
 20
-62.32494513490792
 30
0.0
 11
-61.15109013192296
 21
-132.3249781268843
 31
0.0
  0
LINE
  5
26C
330
1F
100
AcDbEntity
  8
躯体
  6
Continuous
 62
     2
370
     9
100
AcDbLine
 10
-55.47115849129796
 20
-142.0384263162847
 30
0.0
 11
-58.29959361587566
 21
-146.2810790031513
 31
0.0
  0
LINE
  5
26D
330
1F
100
AcDbEntity
  8
躯体
  6
Continuous
 62
     2
370
     9
100
AcDbLine
 10
-49.10715471701565
 20
-155.4733694381174
 30
0.0
 11
-44.8645020301492
 21
-152.6449838015043
 31
0.0
  0
LINE
  5
26E
330
1F
100
AcDbEntity
  8
躯体
  6
Continuous
 62
     2
370
     9
100
AcDbLine
 10
-35.15122704862483
 20
-158.3249649300938
 30
0.0
 11
64.84888017529852
 21
-158.3249649300938
 31
0.0
  0
LINE
  5
26F
330
1F
100
AcDbEntity
  8
躯体
  6
Continuous
 62
     2
370
     9
100
AcDbLine
 10
64.84888017529852
 20
-154.3249517333032
 30
0.0
 11
34.61586609432288
 21
-154.3249517333032
 31
0.0
  0
LINE
  5
270
330
1F
100
AcDbEntity
  8
躯体
  6
JWW_DASHED1
 62
     2
370
     9
100
AcDbLine
 10
-61.15109013192296
 20
-50.15649800125084
 30
0.0
 11
-61.15109013192296
 21
-53.32491544212928
 31
0.0
  0
LINE
  5
271
330
1F
100
AcDbEntity
  8
躯体
  6
JWW_DASHED1
 62
     2
370
     9
100
AcDbLine
 10
-61.15109013192296
 20
-59.324935237315
 30
0.0
 11
-61.15109013192296
 21
-62.32494513490792
 31
0.0
  0
LINE
  5
272
330
1F
100
AcDbEntity
  8
通り芯
  6
Continuous
 62
     2
370
     9
100
AcDbLine
 10
-51.385184700124
 20
-137.9525515010397
 30
0.0
 11
-55.47108425935107
 21
-142.0385252922138
 31
0.0
  0
LINE
  5
273
330
1F
100
AcDbEntity
  8
躯体
  6
Continuous
 62
     2
370
     9
100
AcDbLine
 10
-43.98084493555461
 20
-160.5996792195785
 30
0.0
 11
-50.87491429788565
 21
-153.705659345212
 31
0.0
  0
LINE
  5
274
330
1F
100
AcDbEntity
  8
躯体
  6
Continuous
 62
     2
370
     9
100
AcDbLine
 10
-56.53178454704107
 20
-148.0488385840212
 30
0.0
 11
-63.42585390937211
 21
-141.1548187096546
 31
0.0
  0
LINE
  5
275
330
1F
100
AcDbEntity
  8
躯体
  6
Continuous
 62
     2
370
     9
100
AcDbLine
 10
-57.1511759110615
 20
-61.32499132367479
 30
0.0
 11
-65.15122704862483
 21
-70.85909512962928
 31
0.0
  0
LINE
  5
276
330
1F
100
AcDbEntity
  8
躯体
  6
Continuous
 62
     2
370
     9
100
AcDbLine
 10
-57.1511759110615
 20
-43.59780857451949
 30
0.0
 11
-50.26947853986212
 21
-35.46485750821876
 31
0.0
  0
LINE
  5
277
330
1F
100
AcDbEntity
  8
躯体
  6
JWW_DASHED1
 62
     2
370
     9
100
AcDbLine
 10
-59.96808033990419
 20
-46.9268639482525
 30
0.0
 11
-57.1511759110615
 21
-43.59780857451949
 31
0.0
  0
LINE
  5
278
330
1F
100
AcDbEntity
  8
躯体
  6
Continuous
 62
     2
370
     9
100
AcDbLine
 10
-57.1511759110615
 20
-61.32499132367479
 30
0.0
 11
-57.1511759110615
 21
-59.324935237315
 31
0.0
  0
LINE
  5
279
330
1F
100
AcDbEntity
  8
躯体
  6
Continuous
 62
     2
370
     9
100
AcDbLine
 10
-57.1511759110615
 20
-53.32491544212928
 30
0.0
 11
-57.1511759110615
 21
-32.32499462287251
 31
0.0
  0
LINE
  5
27A
330
1F
100
AcDbEntity
  8
仕上
  6
Continuous
 62
     4
370
     9
100
AcDbLine
 10
-53.15111322630628
 20
-53.32491544212928
 30
0.0
 11
-53.15111322630628
 21
-59.324935237315
 31
0.0
  0
LINE
  5
27B
330
1F
100
AcDbEntity
  8
通り芯
  6
Continuous
 62
     3
370
     9
100
AcDbLine
 10
69.59529559706789
 20
-170.9305392544181
 30
0.0
 11
69.8487729513754
 21
-172.3249616308962
 31
0.0
  0
LINE
  5
27C
330
1F
100
AcDbEntity
  8
通り芯
  6
JWW_HOJO
 62
     3
370
     9
100
AcDbLine
 10
8.313260388030585
 20
-169.2636361452543
 30
0.0
 11
9.229876467000167
 21
-174.0759447917914
 31
0.0
  0
LINE
  5
27D
330
1F
100
AcDbEntity
  8
通り芯
  6
JWW_HOJO
 62
     3
370
     9
100
AcDbLine
 10
-35.15122704862483
 20
-166.8249682292914
 30
0.0
 11
5.366252100446218
 21
-166.8249682292914
 31
0.0
  0
LINE
  5
27E
330
1F
100
AcDbEntity
  8
通り芯
  6
Continuous
 62
     3
370
     9
100
AcDbLine
 10
19.66673972185663
 20
-177.3250276148489
 30
0.0
 11
10.26249233482122
 21
-177.3250276148489
 31
0.0
  0
LINE
  5
27F
330
1F
100
AcDbEntity
  8
通り芯
  6
Continuous
 62
     3
370
     9
100
AcDbLine
 10
19.98813930747747
 20
-177.208038066707
 30
0.0
 11
30.96823194894705
 21
-167.9947152468168
 31
0.0
  0
LINE
  5
280
330
1F
100
AcDbEntity
  8
通り芯
  6
Continuous
 62
     3
370
     9
100
AcDbLine
 10
32.57859505863871
 20
-166.8249682292914
 30
0.0
 11
64.67587025131206
 21
-166.8249682292914
 31
0.0
  0
LINE
  5
281
330
1F
100
AcDbEntity
  8
通り芯
  6
JWW_HOJO
 62
     3
370
     9
100
AcDbLine
 10
-71.40286839944815
 20
-157.4348744001106
 30
0.0
 11
-68.82563418280961
 21
-153.754207038413
 31
0.0
  0
LINE
  5
282
330
1F
100
AcDbEntity
  8
通り芯
  6
Continuous
 62
     3
370
     9
100
AcDbLine
 10
-60.1784041891442
 20
-148.8670231015465
 30
0.0
 11
-62.49305526600233
 21
-148.8670231015465
 31
0.0
  0
LINE
  5
283
330
1F
100
AcDbEntity
  8
通り芯
  6
Continuous
 62
     3
370
     9
100
AcDbLine
 10
-51.69309881541108
 20
-157.352278987315
 30
0.0
 11
-51.69309881541108
 21
-163.5322865094856
 31
0.0
  0
LINE
  5
284
330
1F
100
AcDbEntity
  8
通り芯
  6
Continuous
 62
     3
370
     9
100
AcDbLine
 10
74.8488389353281
 20
-172.3249616308962
 30
0.0
 11
25.80757752010413
 21
-172.3249616308962
 31
0.0
  0
LINE
  5
285
330
1F
100
AcDbEntity
  8
通り芯
  6
Continuous
 62
     3
370
     9
100
AcDbLine
 10
74.8488389353281
 20
-164.3249847252796
 30
0.0
 11
74.8488389353281
 21
-172.3249616308962
 31
0.0
  0
LINE
  5
286
330
1F
100
AcDbEntity
  8
通り芯
  6
Continuous
 62
     3
370
     9
100
AcDbLine
 10
-67.15123364702004
 20
-22.32501111886063
 30
0.0
 11
-75.15123529661878
 21
-22.32501111886063
 31
0.0
  0
LINE
  5
287
330
1F
100
AcDbEntity
  8
通り芯
  6
Continuous
 62
     3
370
     9
100
AcDbLine
 10
-70.994468972189
 20
-31.78265601962084
 30
0.0
 11
-75.15123529661878
 21
-27.32502761484886
 31
0.0
  0
LINE
  5
288
330
1F
100
AcDbEntity
  8
躯体
  6
Continuous
 62
     2
370
     9
100
AcDbLine
 10
-5.260446986335864
 20
-153.3249979220701
 30
0.0
 11
-5.260446986335864
 21
-156.8586365411579
 31
0.0
  0
LINE
  5
289
330
1F
100
AcDbEntity
  8
躯体
  6
Continuous
 62
     2
370
     9
100
AcDbLine
 10
2.698306444829768
 20
-153.3249979220701
 30
0.0
 11
-2.851595569000665
 21
-157.9819143599924
 31
0.0
  0
LINE
  5
28A
330
1F
100
AcDbEntity
  8
躯体
  6
Continuous
 62
     2
370
     9
100
AcDbLine
 10
-60.77448672187211
 20
-136.7351475736749
 30
0.0
 11
-64.8253240582319
 21
-136.7351475736749
 31
0.0
  0
LINE
  5
28B
330
1F
100
AcDbEntity
  8
躯体
  6
Continuous
 62
     2
370
     9
100
AcDbLine
 10
-39.56134700745065
 20
-157.9484110080076
 30
0.0
 11
-39.56134700745065
 21
-161.9990503925093
 31
0.0
  0
LINE
  5
28C
330
1F
100
AcDbEntity
  8
躯体
  6
JWW_CENTER1
 62
     2
370
     9
100
AcDbLine
 10
-45.68738790430461
 20
-56.32502431565115
 30
0.0
 11
-65.8410397861669
 21
-56.32502431565115
 31
0.0
  0
LINE
  5
28D
330
1F
100
AcDbEntity
  8
躯体
  6
Continuous
 62
     2
370
     9
100
AcDbLine
 10
-63.15107198633586
 20
-54.19496334647886
 30
0.0
 11
-65.15122704862483
 21
-54.19496334647886
 31
0.0
  0
LINE
  5
28E
330
1F
100
AcDbEntity
  8
躯体
  6
Continuous
 62
     2
370
     9
100
AcDbLine
 10
-63.15107198633586
 20
-53.32491544212928
 30
0.0
 11
-65.15122704862483
 21
-53.32491544212928
 31
0.0
  0
LINE
  5
28F
330
1F
100
AcDbEntity
  8
躯体
  6
Continuous
 62
     2
370
     9
100
AcDbLine
 10
-63.15107198633586
 20
-58.45498630889449
 30
0.0
 11
-65.15122704862483
 21
-58.45498630889449
 31
0.0
  0
LINE
  5
290
330
1F
100
AcDbEntity
  8
躯体
  6
Continuous
 62
     2
370
     9
100
AcDbLine
 10
-63.15107198633586
 20
-59.324935237315
 30
0.0
 11
-65.15122704862483
 21
-59.324935237315
 31
0.0
  0
LINE
  5
291
330
1F
100
AcDbEntity
  8
仕上
  6
Continuous
 62
     4
370
     9
100
AcDbLine
 10
-46.56253306900066
 20
-56.80386986041469
 30
0.0
 11
-48.55108320360773
 21
-56.80386986041469
 31
0.0
  0
LINE
  5
292
330
1F
100
AcDbEntity
  8
通り芯
  6
Continuous
 62
     3
370
     9
100
AcDbLine
 10
27.84860964109225
 20
-194.3249847252796
 30
0.0
 11
27.84860964109225
 21
-200.3250045204654
 31
0.0
  0
LINE
  5
293
330
1F
100
AcDbEntity
  8
通り芯
  6
Continuous
 62
     3
370
     9
100
AcDbLine
 10
19.84855850352892
 20
-194.3249847252796
 30
0.0
 11
27.84860964109225
 21
-194.3249847252796
 31
0.0
  0
LINE
  5
294
330
1F
100
AcDbEntity
  8
通り芯
  6
Continuous
 62
     3
370
     9
100
AcDbLine
 10
11.84858159791247
 20
-192.3250771028133
 30
0.0
 11
11.84858159791247
 21
-179.3250342132441
 31
0.0
  0
LINE
  5
295
330
1F
100
AcDbEntity
  8
通り芯
  6
Continuous
 62
     3
370
     9
100
AcDbLine
 10
19.84855850352892
 20
-200.3250045204654
 30
0.0
 11
27.84860964109225
 21
-200.3250045204654
 31
0.0
  0
LINE
  5
296
330
1F
100
AcDbEntity
  8
通り芯
  6
JWW_CENTER1
 62
     3
370
     9
100
AcDbLine
 10
19.84878119936934
 20
-197.3249946228725
 30
0.0
 11
30.84866902664976
 21
-197.3249946228725
 31
0.0
  0
LINE
  5
297
330
1F
100
AcDbEntity
  8
通り芯
  6
Continuous
 62
     3
370
     9
100
AcDbLine
 10
17.84865088106267
 20
-192.3250771028133
 30
0.0
 11
17.84865088106267
 21
-179.3250342132441
 31
0.0
  0
LINE
  5
298
330
1F
100
AcDbEntity
  8
通り芯
  6
Continuous
 62
     3
370
     9
100
AcDbLine
 10
11.67369113127393
 20
-179.3250342132441
 30
0.0
 11
18.02356609168351
 21
-179.3250342132441
 31
0.0
  0
LINE
  5
299
330
1F
100
AcDbEntity
  8
通り芯
  6
Continuous
 62
     3
370
     9
100
AcDbLine
 10
17.20872201176371
 20
-179.3250342132441
 30
0.0
 11
17.20872201176371
 21
-177.3250276148489
 31
0.0
  0
LINE
  5
29A
330
1F
100
AcDbEntity
  8
通り芯
  6
Continuous
 62
     3
370
     9
100
AcDbLine
 10
12.48878265101644
 20
-179.3250342132441
 30
0.0
 11
12.48878265101644
 21
-177.3250276148489
 31
0.0
  0
LINE
  5
29B
330
1F
100
AcDbEntity
  8
通り芯
  6
Continuous
 62
     3
370
     9
100
AcDbLine
 10
11.67369113127393
 20
-179.3250342132441
 30
0.0
 11
11.67369113127393
 21
-177.3250276148489
 31
0.0
  0
LINE
  5
29C
330
1F
100
AcDbEntity
  8
通り芯
  6
Continuous
 62
     3
370
     9
100
AcDbLine
 10
18.02356609168351
 20
-179.3250342132441
 30
0.0
 11
18.02356609168351
 21
-177.3250276148489
 31
0.0
  0
LINE
  5
29D
330
1F
100
AcDbEntity
  8
通り芯
  6
JWW_CENTER1
 62
     3
370
     9
100
AcDbLine
 10
14.84873995939893
 20
-192.3250771028133
 30
0.0
 11
14.84873995939893
 21
-177.3250276148489
 31
0.0
  0
LINE
  5
29E
330
1F
100
AcDbEntity
  8
躯体
  6
JWW_HOJO
 62
     2
370
     9
100
AcDbLine
 10
-65.15122704862483
 20
-132.3249781268843
 30
0.0
 11
-65.15122704862483
 21
-32.32499462287251
 31
0.0
  0
LINE
  5
29F
330
1F
100
AcDbEntity
  8
躯体
  6
JWW_HOJO
 62
     2
370
     9
100
AcDbLine
 10
-35.15122704862483
 20
-162.3249781268843
 30
0.0
 11
64.84888017529852
 21
-162.3249781268843
 31
0.0
  0
LINE
  5
2A0
330
1F
100
AcDbEntity
  8
通り芯
  6
Continuous
 62
     3
370
     9
100
AcDbLine
 10
72.84883233693267
 20
-162.3249781268843
 30
0.0
 11
-35.15122704862483
 21
-162.3249781268843
 31
0.0
  0
LINE
  5
2A1
330
1F
100
AcDbEntity
  8
通り芯
  6
Continuous
 62
     3
370
     9
100
AcDbLine
 10
-65.15122704862483
 20
-24.32501771725595
 30
0.0
 11
-65.15122704862483
 21
-139.3250012212677
 31
0.0
  0
LINE
  5
2A2
330
1F
100
AcDbEntity
  8
通り芯
  6
JWW_CENTER1
 62
     2
370
     9
100
AcDbLine
 10
-64.85274039058004
 20
-162.0266646767154
 30
0.0
 11
-25.44562270160191
 21
-122.6195964757019
 31
0.0
  0
LINE
  5
2A3
330
1F
100
AcDbEntity
  8
通り芯
  6
JWW_DASHED1
 62
     2
370
     9
100
AcDbLine
 10
-65.76886158990419
 20
-158.2759223572475
 30
0.0
 11
-58.56900609476065
 21
-151.0762153259975
 31
0.0
  0
LINE
  5
2A4
330
1F
100
AcDbEntity
  8
通り芯
  6
JWW_DASHED1
 62
     2
370
     9
100
AcDbLine
 10
-65.76886158990419
 20
-157.2859651148489
 30
0.0
 11
-59.00336195941441
 21
-150.520465484359
 31
0.0
  0
LINE
  5
2A5
330
1F
100
AcDbEntity
  8
通り芯
  6
Continuous
 62
     2
370
     9
100
AcDbLine
 10
-59.00336195941441
 20
-150.520465484359
 30
0.0
 11
-52.99624064131899
 21
-144.5132699343168
 31
0.0
  0
LINE
  5
2A6
330
1F
100
AcDbEntity
  8
通り芯
  6
Continuous
 62
     2
370
     9
100
AcDbLine
 10
-58.56900609476065
 20
-151.0761658380329
 30
0.0
 11
-52.50126202011961
 21
-145.0082980434806
 31
0.0
  0
LINE
  5
2A7
330
1F
100
AcDbEntity
  8
通り芯
  6
Continuous
 62
     2
370
     9
100
AcDbLine
 10
-53.90209308800399
 20
-155.7430293568252
 30
0.0
 11
-47.83432426938066
 21
-149.6751615622728
 31
0.0
  0
LINE
  5
2A8
330
1F
100
AcDbEntity
  8
通り芯
  6
Continuous
 62
     2
370
     9
100
AcDbLine
 10
-53.34649171025899
 20
-156.1772862455499
 30
0.0
 11
-47.33939513614587
 21
-150.1701401834722
 31
0.0
  0
LINE
  5
2A9
330
1F
100
AcDbEntity
  8
通り芯
  6
JWW_DASHED1
 62
     2
370
     9
100
AcDbLine
 10
-60.11194185278441
 20
-162.9427858760397
 30
0.0
 11
-53.34654119822358
 21
-156.1772367575853
 31
0.0
  0
LINE
  5
2AA
330
1F
100
AcDbEntity
  8
通り芯
  6
JWW_DASHED1
 62
     2
370
     9
100
AcDbLine
 10
-61.10189909518294
 20
-162.9427858760397
 30
0.0
 11
-53.90214257596858
 21
-155.7430293568252
 31
0.0
  0
LINE
  5
2AB
330
1F
100
AcDbEntity
  8
通り芯
  6
Continuous
 62
     3
370
     9
100
AcDbLine
 10
-69.65121715103191
 20
-49.68660977806678
 30
0.0
 11
-69.65121715103191
 21
-35.19257472739105
 31
0.0
  0
LINE
  5
2AC
330
1F
100
AcDbEntity
  8
通り芯
  6
JWW_HOJO
 62
     3
370
     9
100
AcDbLine
 10
-69.65121715103191
 20
-139.3249517333032
 30
0.0
 11
-69.65121715103191
 21
-49.68660977806678
 31
0.0
  0
LINE
  5
2AD
330
1F
100
AcDbEntity
  8
通り芯
  6
Continuous
 62
     3
370
     9
100
AcDbLine
 10
-75.15123529661878
 20
-22.32501111886063
 30
0.0
 11
-75.15123529661878
 21
-53.7179983443674
 31
0.0
  0
LINE
  5
2AE
330
1F
100
AcDbEntity
  8
通り芯
  6
Continuous
 62
     3
370
     9
100
AcDbLine
 10
20.41455235382455
 20
-169.3250012212677
 30
0.0
 11
-35.15122704862483
 21
-169.3250012212677
 31
0.0
  0
LINE
  5
2AF
330
1F
100
AcDbEntity
  8
通り芯
  6
Continuous
 62
     3
370
     9
100
AcDbLine
 10
-73.29484277128108
 20
-175.7055339757019
 30
0.0
 11
-76.261893684499
 21
-175.7659587803894
 31
0.0
  0
LINE
  5
2B0
330
1F
100
AcDbEntity
  8
通り芯
  6
Continuous
 62
     3
370
     9
100
AcDbLine
 10
-69.50931041275066
 20
-172.7292288131174
 30
0.0
 11
-68.88729618661046
 21
-170.3777586906513
 31
0.0
  0
LINE
  5
2B1
330
1F
100
AcDbEntity
  8
通り芯
  6
Continuous
 62
     3
370
     9
100
AcDbLine
 10
-69.52732403183836
 20
-64.8558091287847
 30
0.0
 11
-65.15122704862483
 21
-64.76668130467147
 31
0.0
  0
LINE
  5
2B2
330
1F
100
AcDbEntity
  8
通り芯
  6
Continuous
 62
     3
370
     9
100
AcDbLine
 10
-75.65878386080794
 20
-59.7295983232525
 30
0.0
 11
-78.62370679155129
 21
-59.78997363997553
 31
0.0
  0
LINE
  5
2B3
330
1F
100
AcDbEntity
  8
通り芯
  6
Continuous
 62
     3
370
     9
100
AcDbLine
 10
-71.75440615546586
 20
-62.55179796429979
 30
0.0
 11
-71.47950051251837
 21
-63.44470930826105
 31
0.0
  0
LINE
  5
2B4
330
1F
100
AcDbEntity
  8
通り芯
  6
Continuous
 62
     3
370
     9
100
AcDbLine
 10
-70.30826885605711
 20
-174.272906890609
 30
0.0
 11
-72.61423479514065
 21
-61.04177170268667
 31
0.0
  0
LINE
  5
2B5
330
1F
100
AcDbEntity
  8
通り芯
  6
Continuous
 62
     3
370
     9
100
AcDbLine
 10
-79.30644275016607
 20
-174.4537854009552
 30
0.0
 11
-81.61235920128524
 21
-61.22502563533021
 31
0.0
  0
LINE
  5
2B6
330
1F
100
AcDbEntity
  8
通り芯
  6
Continuous
 62
     3
370
     9
100
AcDbLine
 10
-68.88729618661046
 20
-170.3777586906513
 30
0.0
 11
-71.04957382068983
 21
-64.1997471830498
 31
0.0
  0
LINE
  5
2B7
330
1F
100
AcDbEntity
  8
通り芯
  6
Continuous
 62
     3
370
     9
100
AcDbLine
 10
-53.0461492535444
 20
-175.9878628133285
 30
0.0
 11
-63.26266734634441
 21
-180.6745215179316
 31
0.0
  0
LINE
  5
2B8
330
1F
100
AcDbEntity
  8
通り芯
  6
Continuous
 62
     3
370
     9
100
AcDbLine
 10
23.98832571214393
 20
-173.1168185512931
 30
0.0
 11
30.65024703287872
 21
-167.5268560301782
 31
0.0
  0
LINE
  5
2B9
330
1F
100
AcDbEntity
  8
通り芯
  6
JWW_HOJO
 62
     3
370
     9
100
AcDbLine
 10
-35.15120230464254
 20
-173.8249418357103
 30
0.0
 11
21.53758273283643
 21
-173.8249418357103
 31
0.0
  0
LINE
  5
2BA
330
1F
100
AcDbEntity
  8
通り芯
  6
Continuous
 62
     3
370
     9
100
AcDbLine
 10
20.43437228361768
 20
-169.3374721883285
 30
0.0
 11
-68.88729618661046
 21
-170.3777586906513
 31
0.0
  0
LINE
  5
2BB
330
1F
100
AcDbEntity
  8
通り芯
  6
Continuous
 62
     3
370
     9
100
AcDbLine
 10
22.32780655040392
 20
-168.6358318272644
 30
0.0
 11
29.01236861490997
 21
-163.0268164398066
 31
0.0
  0
LINE
  5
2BC
330
1F
100
AcDbEntity
  8
通り芯
  6
Continuous
 62
     3
370
     9
100
AcDbLine
 10
-98.152672097189
 20
-56.18685391869178
 30
0.0
 11
-98.19340069199461
 21
-54.18724322401272
 31
0.0
  0
LINE
  5
2BD
330
1F
100
AcDbEntity
  8
通り芯
  6
Continuous
 62
     3
370
     9
100
AcDbLine
 10
-73.56979790219316
 20
-53.68583116742479
 30
0.0
 11
-98.19340069199461
 21
-54.18724322401272
 31
0.0
  0
LINE
  5
2BE
330
1F
100
AcDbEntity
  8
通り芯
  6
Continuous
 62
     3
370
     9
100
AcDbLine
 10
-105.1512105526365
 20
-56.32937925652959
 30
0.0
 11
-102.6264830663613
 21
-180.303658711766
 31
0.0
  0
LINE
  5
2BF
330
1F
100
AcDbEntity
  8
通り芯
  6
Continuous
 62
     3
370
     9
100
AcDbLine
 10
-102.6264830663613
 20
-180.303658711766
 30
0.0
 11
-95.62791986693128
 21
-180.1611828618927
 31
0.0
  0
LINE
  5
2C0
330
1F
100
AcDbEntity
  8
通り芯
  6
Continuous
 62
     3
370
     9
100
AcDbLine
 10
-95.58719127212566
 20
-182.1607440686073
 30
0.0
 11
-95.62791986693128
 21
-180.1611828618927
 31
0.0
  0
LINE
  5
2C1
330
1F
100
AcDbEntity
  8
通り芯
  6
Continuous
 62
     3
370
     9
100
AcDbLine
 10
-67.22865756752253
 20
-181.5832195225769
 30
0.0
 11
-95.58719127212566
 21
-182.1607440686073
 31
0.0
  0
LINE
  5
2C2
330
1F
100
AcDbEntity
  8
通り芯
  6
Continuous
 62
     3
370
     9
100
AcDbLine
 10
-105.0395409606813
 20
-61.81323958169855
 30
0.0
 11
-82.15029337569399
 21
-62.06226301919855
 31
0.0
  0
LINE
  5
2C3
330
1F
100
AcDbEntity
  8
通り芯
  6
Continuous
 62
     3
370
     9
100
AcDbLine
 10
-102.7381526583165
 20
-174.8197983865972
 30
0.0
 11
-79.87802874045315
 21
-173.6391640168758
 31
0.0
  0
LINE
  5
2C4
330
1F
100
AcDbEntity
  8
通り芯
  6
Continuous
 62
     3
370
     9
100
AcDbLine
 10
-80.39958239860357
 20
-172.1858509626106
 30
0.0
 11
-80.16624664585856
 21
-172.9437096513775
 31
0.0
  0
LINE
  5
2C5
330
1F
100
AcDbEntity
  8
通り芯
  6
Continuous
 62
     3
370
     9
100
AcDbLine
 10
-80.85249624995504
 20
-172.2092092818674
 30
0.0
 11
-83.06569699953275
 21
-63.53066990264449
 31
0.0
  0
LINE
  5
2C6
330
1F
100
AcDbEntity
  8
通り芯
  6
Continuous
 62
     3
370
     9
100
AcDbLine
 10
-82.40995672556733
 20
-62.76885217671543
 30
0.0
 11
-82.61223878057149
 21
-63.53556921113261
 31
0.0
  0
LINE
  5
2C7
330
1F
100
AcDbEntity
  8
通り芯
  6
Continuous
 62
     3
370
     9
100
AcDbLine
 10
22.09486670137517
 20
-173.8184589123573
 30
0.0
 11
-46.96645383547025
 21
-174.6227373118505
 31
0.0
  0
LINE
  5
2C8
330
1F
100
AcDbEntity
  8
通り芯
  6
Continuous
 62
     3
370
     9
100
AcDbLine
 10
9.771324286890604
 20
-176.9185829621883
 30
0.0
 11
9.209413193668297
 21
-173.9685064208032
 31
0.0
  0
LINE
  5
2C9
330
1F
100
AcDbEntity
  8
通り芯
  6
Continuous
 62
     3
370
     9
100
AcDbLine
 10
-105.1512105526365
 20
-56.32937925652959
 30
0.0
 11
-98.152672097189
 21
-56.18685391869178
 31
0.0
  0
LINE
  5
2CA
330
1F
100
AcDbEntity
  8
通り芯
  6
Continuous
 62
     3
370
     9
100
AcDbLine
 10
-65.15122704862483
 20
-117.5276313416225
 30
0.0
 11
-123.6672809443173
 21
-117.5276313416225
 31
0.0
  0
LINE
  5
2CB
330
1F
100
AcDbEntity
  8
通り芯
  6
Continuous
 62
     3
370
     9
100
AcDbLine
 10
-103.5305044583586
 20
-63.30802355023729
 30
0.0
 11
-82.61223878057149
 21
-63.53556921113261
 31
0.0
  0
LINE
  5
2CC
330
1F
100
AcDbEntity
  8
通り芯
  6
Continuous
 62
     3
370
     9
100
AcDbLine
 10
-105.0395409606813
 20
-61.81323958169855
 30
0.0
 11
-103.5305044583586
 21
-63.30802355023729
 31
0.0
  0
LINE
  5
2CD
330
1F
100
AcDbEntity
  8
通り芯
  6
Continuous
 62
     3
370
     9
100
AcDbLine
 10
-101.2912235514752
 20
-173.2648370531934
 30
0.0
 11
-80.39958239860357
 21
-172.1858509626106
 31
0.0
  0
LINE
  5
2CE
330
1F
100
AcDbEntity
  8
通り芯
  6
Continuous
 62
     3
370
     9
100
AcDbLine
 10
-103.5305044583586
 20
-63.30802355023729
 30
0.0
 11
-101.2912235514752
 21
-173.2648370531934
 31
0.0
  0
LINE
  5
2CF
330
1F
100
AcDbEntity
  8
通り芯
  6
Continuous
 62
     3
370
     9
100
AcDbLine
 10
-101.2912235514752
 20
-173.2648370531934
 30
0.0
 11
-102.7381526583165
 21
-174.8197983865972
 31
0.0
  0
LINE
  5
2D0
330
1F
100
AcDbEntity
  8
仕上
  6
Continuous
 62
     6
370
     9
100
AcDbLine
 10
35.84905668237184
 20
-158.3250639060228
 30
0.0
 11
45.21282291442435
 21
-158.3250639060228
 31
0.0
  0
LINE
  5
2D1
330
1F
100
AcDbEntity
  8
仕上
  6
Continuous
 62
     6
370
     9
100
AcDbLine
 10
55.84907317836019
 20
-149.3250837012087
 30
0.0
 11
55.84907317836019
 21
-148.3250309140465
 31
0.0
  0
LINE
  5
2D2
330
1F
100
AcDbEntity
  8
仕上
  6
Continuous
 62
     6
370
     9
100
AcDbLine
 10
-52.15113467109086
 20
-41.32502431565115
 30
0.0
 11
-51.15118085985773
 21
-41.32502431565115
 31
0.0
  0
LINE
  5
2D3
330
1F
100
AcDbEntity
  8
仕上
  6
Continuous
 62
     6
370
     9
100
AcDbLine
 10
-22.86673063815169
 20
-148.3250309140465
 30
0.0
 11
55.84907317836019
 21
-148.3250309140465
 31
0.0
  0
LINE
  5
2D4
330
1F
100
AcDbEntity
  8
仕上
  6
Continuous
 62
     6
370
     9
100
AcDbLine
 10
-46.20136990388232
 20
-132.0617021556005
 30
0.0
 11
-41.60515045445231
 21
-129.5868090496039
 31
0.0
  0
LINE
  5
2D5
330
1F
100
AcDbEntity
  8
仕上
  6
Continuous
 62
     6
370
     9
100
AcDbLine
 10
-32.41271155559275
 20
-138.7791489725347
 30
0.0
 11
-34.88762940557149
 21
-143.3753436779823
 31
0.0
  0
LINE
  5
2D6
330
1F
100
AcDbEntity
  8
仕上
  6
Continuous
 62
     6
370
     9
100
AcDbLine
 10
49.94006174993956
 20
-154.3250507092323
 30
0.0
 11
55.84907317836019
 21
-149.3250837012087
 31
0.0
  0
LINE
  5
2D7
330
1F
100
AcDbEntity
  8
仕上
  6
JWW_DASHED1
 62
     6
370
     9
100
AcDbLine
 10
45.21282291442435
 20
-158.3250639060228
 30
0.0
 11
49.94006174993956
 21
-154.3250507092323
 31
0.0
  0
LINE
  5
2D8
330
1F
100
AcDbEntity
  8
仕上
  6
JWW_DASHED1
 62
     6
370
     9
100
AcDbLine
 10
35.04908373579246
 20
-154.3250507092323
 30
0.0
 11
35.84905668237184
 21
-158.3250639060228
 31
0.0
  0
LINE
  5
2D9
330
1F
100
AcDbEntity
  8
仕上
  6
Continuous
 62
     6
370
     9
100
AcDbLine
 10
-51.15118085985773
 20
-50.32500452046543
 30
0.0
 11
-51.15118085985773
 21
-41.32502431565115
 31
0.0
  0
LINE
  5
2DA
330
1F
100
AcDbEntity
  8
仕上
  6
Continuous
 62
     6
370
     9
100
AcDbLine
 10
-51.15113137189337
 20
-120.0408776201275
 30
0.0
 11
-51.15118085985773
 21
-62.32484615897886
 31
0.0
  0
LINE
  5
2DB
330
1F
100
AcDbEntity
  8
仕上
  6
Continuous
 62
     6
370
     9
100
AcDbLine
 10
-50.44399784676648
 20
-127.8190989566986
 30
0.0
 11
-47.96917897271692
 21
-123.2228547632864
 31
0.0
  0
LINE
  5
2DC
330
1F
100
AcDbEntity
  8
仕上
  6
Continuous
 62
     6
370
     9
100
AcDbLine
 10
-30.64505095065169
 20
-147.6180458528133
 30
0.0
 11
-26.04883150122191
 21
-145.1431527468168
 31
0.0
  0
LINE
  5
2DD
330
1F
100
AcDbEntity
  8
仕上
  6
JWW_DASHED1
 62
     6
370
     9
100
AcDbLine
 10
-51.15118085985773
 20
-51.3250573076275
 30
0.0
 11
-56.15114786788149
 21
-51.3250573076275
 31
0.0
  0
LINE
  5
2DE
330
1F
100
AcDbEntity
  8
仕上
  6
Continuous
 62
     6
370
     9
100
AcDbLine
 10
43.84903358798852
 20
-148.3250309140465
 30
0.0
 11
43.84903358798852
 21
-153.3250968979992
 31
0.0
  0
LINE
  5
2DF
330
1F
100
AcDbEntity
  8
仕上
  6
Continuous
 62
     6
370
     9
100
AcDbLine
 10
-35.15115281667795
 20
-153.3250968979992
 30
0.0
 11
51.12183434284498
 21
-153.3250968979992
 31
0.0
  0
LINE
  5
2E0
330
1F
100
AcDbEntity
  8
仕上
  6
Continuous
 62
     6
370
     9
100
AcDbLine
 10
-56.1511231238992
 20
-132.3250771028133
 30
0.0
 11
-56.15119735584608
 21
-59.32498472527959
 31
0.0
  0
LINE
  5
2E1
330
1F
100
AcDbEntity
  8
仕上
  6
Continuous
 62
     6
370
     9
100
AcDbLine
 10
-56.15119735584608
 20
-53.32496493009376
 30
0.0
 11
-56.15119735584608
 21
-46.05241161506001
 31
0.0
  0
LINE
  5
2E2
330
1F
100
AcDbEntity
  8
仕上
  6
Continuous
 62
     6
370
     9
100
AcDbLine
 10
-57.15115116707921
 20
-47.23413472000084
 30
0.0
 11
-52.15113467109086
 21
-41.32502431565115
 31
0.0
  0
LINE
  5
2E3
330
1F
100
AcDbEntity
  8
仕上
  6
JWW_DASHED1
 62
     6
370
     9
100
AcDbLine
 10
-61.15109013192296
 20
-51.96137355551605
 30
0.0
 11
-57.15115116707921
 21
-47.23413472000084
 31
0.0
  0
LINE
  5
2E4
330
1F
100
AcDbEntity
  8
仕上
  6
Continuous
 62
     6
370
     9
100
AcDbLine
 10
-57.35694686756483
 20
-62.08393874766136
 30
0.0
 11
-57.72595387506044
 21
-62.01010270458698
 31
0.0
  0
LINE
  5
2E5
330
1F
100
AcDbEntity
  8
仕上
  6
JWW_DASHED1
 62
     6
370
     9
100
AcDbLine
 10
-57.72595387506044
 20
-62.01010270458698
 30
0.0
 11
-61.15109013192296
 21
-61.32499132367479
 31
0.0
  0
LINE
  5
2E6
330
1F
100
AcDbEntity
  8
躯体
  6
Continuous
 62
     2
370
     9
100
AcDbLine
 10
9.848871927304344
 20
-147.3249781268843
 30
0.0
 11
8.657102765564332
 21
-148.324981426082
 31
0.0
  0
LINE
  5
2E7
330
1F
100
AcDbEntity
  8
躯体
  6
Continuous
 62
     2
370
     9
100
AcDbLine
 10
9.848871927304344
 20
-147.3249781268843
 30
0.0
 11
64.34880429375289
 21
-147.3249781268843
 31
0.0
  0
LINE
  5
2E8
330
1F
100
AcDbEntity
  8
躯体
  6
Continuous
 62
     2
370
     9
100
AcDbLine
 10
-6.260400797568991
 20
-147.3249781268843
 30
0.0
 11
-23.86680816929606
 21
-147.3249781268843
 31
0.0
  0
LINE
  5
2E9
330
1F
100
AcDbEntity
  8
仕上
  6
Continuous
 62
     6
370
     9
100
AcDbLine
 10
-37.7160645301492
 20
-140.5469085534046
 30
0.0
 11
-24.93777720962566
 21
-153.3250968979992
 31
0.0
  0
LINE
  5
2EA
330
1F
100
AcDbEntity
  8
仕上
  6
Continuous
 62
     6
370
     9
100
AcDbLine
 10
-34.18054536840941
 20
-137.0113399037002
 30
0.0
 11
-22.86673063815169
 21
-148.3250309140465
 31
0.0
  0
LINE
  5
2EB
330
1F
100
AcDbEntity
  8
仕上
  6
Continuous
 62
     6
370
     9
100
AcDbLine
 10
-56.1511231238992
 20
-122.1120479115127
 30
0.0
 11
-43.37295952328691
 21
-134.8900383042492
 31
0.0
  0
LINE
  5
2EC
330
1F
100
AcDbEntity
  8
仕上
  6
Continuous
 62
     6
370
     9
100
AcDbLine
 10
-51.15113137189337
 20
-120.0408776201275
 30
0.0
 11
-39.83741561756483
 21
-131.3545191425093
 31
0.0
  0
LINE
  5
2ED
330
1F
100
AcDbEntity
  8
躯体
  6
Continuous
 62
     2
370
     9
100
AcDbLine
 10
-50.15115281667795
 20
-121.0408314313606
 30
0.0
 11
-50.15115281667795
 21
-62.32479667101438
 31
0.0
  0
LINE
  5
2EE
330
1F
100
AcDbEntity
  8
躯体
  6
Continuous
 62
     2
370
     9
100
AcDbLine
 10
-50.15115281667795
 20
-50.32495503250084
 30
0.0
 11
-50.15115281667795
 21
-32.82502101645355
 31
0.0
  0
LINE
  5
2EF
330
1F
100
AcDbEntity
  8
通り芯
  6
JWW_CENTER1
 62
     3
370
     9
100
AcDbLine
 10
-123.643031841699
 20
-118.7188561357525
 30
0.0
 11
-59.57715016412294
 21
-117.414155438962
 31
0.0
  0
ARC
  5
2F0
330
1F
100
AcDbEntity
  8
仕上
  6
Continuous
 62
     4
370
     9
100
AcDbCircle
 10
-51.40111982470148
 20
-59.72494645458698
 30
0.0
 40
0.2500000032218727
100
AcDbArc
 50
0.0
 51
60.67082214355469
  0
ARC
  5
2F1
330
1F
100
AcDbEntity
  8
仕上
  6
Continuous
 62
     4
370
     9
100
AcDbCircle
 10
-51.40111982470148
 20
-52.92500320078636
 30
0.0
 40
0.2500000032218727
100
AcDbArc
 50
299.3291778564453
 51
0.0
  0
ARC
  5
2F2
330
1F
100
AcDbEntity
  8
仕上
  6
Continuous
 62
     4
370
     9
100
AcDbCircle
 10
-56.5510848532067
 20
-56.32487585175761
 30
0.0
 40
10.00000128874908
100
AcDbArc
 50
2.745620727539063
 51
36.869873046875
  0
ARC
  5
2F3
330
1F
100
AcDbEntity
  8
通り芯
  6
Continuous
 62
     2
370
     9
100
AcDbCircle
 10
-51.52805645371336
 20
-140.749116376462
 30
0.0
 40
2.800173243960819
100
AcDbArc
 50
2.925567626953125
 51
87.07463073730469
  0
ARC
  5
2F4
330
1F
100
AcDbEntity
  8
通り芯
  6
Continuous
 62
     2
370
     9
100
AcDbCircle
 10
-52.70591949742106
 20
-149.8798932715212
 30
0.0
 40
10.08940980241105
100
AcDbArc
 50
23.19786071777344
 51
66.80213928222658
  0
ARC
  5
2F5
330
1F
100
AcDbEntity
  8
通り芯
  6
Continuous
 62
     2
370
     9
100
AcDbCircle
 10
-43.57521683430878
 20
-148.702178691707
 30
0.0
 40
2.800189482199179
100
AcDbArc
 50
2.92572021484375
 51
87.07427978515625
  0
ARC
  5
2F6
330
1F
100
AcDbEntity
  8
躯体
  6
JWW_DASHED1
 62
     2
370
     9
100
AcDbCircle
 10
-56.15117261186379
 20
-50.15649800125084
 30
0.0
 40
5.000000644374539
100
AcDbArc
 50
139.7629089355469
 51
180.0
  0
ARC
  5
2F7
330
1F
100
AcDbEntity
  8
躯体
  6
Continuous
 62
     2
370
     9
100
AcDbCircle
 10
64.34880429375289
 20
-147.8249550325008
 30
0.0
 40
0.5000000064437454
100
AcDbArc
 50
0.0
 51
90.0
  0
ARC
  5
2F8
330
1F
100
AcDbEntity
  8
躯体
  6
Continuous
 62
     2
370
     9
100
AcDbCircle
 10
62.03202523441996
 20
-147.8249550325008
 30
0.0
 40
0.5000000064437454
100
AcDbArc
 50
90.0
 51
130.2366943359375
  0
ARC
  5
2F9
330
1F
100
AcDbEntity
  8
躯体
  6
Continuous
 62
     2
370
     9
100
AcDbCircle
 10
-50.65122869822358
 20
-32.82502101645355
 30
0.0
 40
0.5000000064437454
100
AcDbArc
 50
0.0
 51
90.0
  0
ARC
  5
2FA
330
1F
100
AcDbEntity
  8
躯体
  6
Continuous
 62
     2
370
     9
100
AcDbCircle
 10
-50.65122869822358
 20
-35.14180007578636
 30
0.0
 40
0.5000000064437454
100
AcDbArc
 50
319.7669830322266
 51
0.0
  0
ARC
  5
2FB
330
1F
100
AcDbEntity
  8
躯体
  6
Continuous
 62
     2
370
     9
100
AcDbCircle
 10
52.84359486068706
 20
-152.3249451349079
 30
0.0
 40
2.000000025774982
100
AcDbArc
 50
270.0
 51
310.236572265625
  0
ARC
  5
2FC
330
1F
100
AcDbEntity
  8
躯体
  6
Continuous
 62
     2
370
     9
100
AcDbCircle
 10
-35.15122704862483
 20
-132.3249781268843
 30
0.0
 40
25.99999917520059
100
AcDbArc
 50
260.2346649169922
 51
270.0
  0
ARC
  5
2FD
330
1F
100
AcDbEntity
  8
躯体
  6
JWW_DASHED1
 62
     2
370
     9
100
AcDbCircle
 10
-35.15122704862483
 20
-132.3249781268843
 30
0.0
 40
25.99999917520059
100
AcDbArc
 50
189.7658538818359
 51
260.2346649169922
  0
ARC
  5
2FE
330
1F
100
AcDbEntity
  8
躯体
  6
Continuous
 62
     2
370
     9
100
AcDbCircle
 10
-35.15122704862483
 20
-132.3249781268843
 30
0.0
 40
25.99999917520059
100
AcDbArc
 50
180.0
 51
189.7658538818359
  0
ARC
  5
2FF
330
1F
100
AcDbEntity
  8
躯体
  6
Continuous
 62
     2
370
     9
100
AcDbCircle
 10
-61.30455230992106
 20
-139.0335171102035
 30
0.0
 40
3.000000038662472
100
AcDbArc
 50
194.3868255615234
 51
225.0003356933593
  0
ARC
  5
300
330
1F
100
AcDbEntity
  8
躯体
  6
Continuous
 62
     2
370
     9
100
AcDbCircle
 10
-41.85969179999711
 20
-158.4784765960566
 30
0.0
 40
3.000000038662472
100
AcDbArc
 50
224.9991912841797
 51
255.6127014160156
  0
ARC
  5
301
330
1F
100
AcDbEntity
  8
通り芯
  6
Continuous
 62
     3
370
     9
100
AcDbCircle
 10
30.94074138465226
 20
-165.3249880244772
 30
0.0
 40
3.000000038662472
100
AcDbArc
 50
90.0
 51
129.9998779296875
  0
ARC
  5
302
330
1F
100
AcDbEntity
  8
通り芯
  6
Continuous
 62
     3
370
     9
100
AcDbCircle
 10
32.57859505863871
 20
-169.8249781268843
 30
0.0
 40
3.000000038662472
100
AcDbArc
 50
90.0
 51
130.0000305175781
  0
ARC
  5
303
330
1F
100
AcDbEntity
  8
通り芯
  6
JWW_HOJO
 62
     3
370
     9
100
AcDbCircle
 10
-35.15120230464254
 20
-139.3249517333032
 30
0.0
 40
34.49999938140044
100
AcDbArc
 50
180.0
 51
269.9999542236328
  0
ARC
  5
304
330
1F
100
AcDbEntity
  8
通り芯
  6
Continuous
 62
     3
370
     9
100
AcDbCircle
 10
64.67587025131206
 20
-171.8249847252796
 30
0.0
 40
5.000000257749815
100
AcDbArc
 50
10.30488586425781
 51
90.0
  0
ARC
  5
305
330
1F
100
AcDbEntity
  8
通り芯
  6
Continuous
 62
     3
370
     9
100
AcDbCircle
 10
34.1821535732081
 20
-171.8249847252796
 30
0.0
 40
5.000000257749815
100
AcDbArc
 50
90.0
 51
129.9996490478516
  0
ARC
  5
306
330
1F
100
AcDbEntity
  8
通り芯
  6
JWW_HOJO
 62
     3
370
     9
100
AcDbCircle
 10
5.366252100446218
 20
-169.8249781268843
 30
0.0
 40
3.000000038662472
100
AcDbArc
 50
10.78445434570312
 51
90.0
  0
ARC
  5
307
330
1F
100
AcDbEntity
  8
通り芯
  6
JWW_HOJO
 62
     3
370
     9
100
AcDbCircle
 10
-35.15120230464254
 20
-132.3249781268843
 30
0.0
 40
34.49999938140044
100
AcDbArc
 50
180.0
 51
269.9999542236328
  0
ARC
  5
308
330
1F
100
AcDbEntity
  8
通り芯
  6
Continuous
 62
     3
370
     9
100
AcDbCircle
 10
10.26249233482122
 20
-176.8250012212677
 30
0.0
 40
0.5000000064437454
100
AcDbArc
 50
190.7846374511718
 51
270.0
  0
ARC
  5
309
330
1F
100
AcDbEntity
  8
通り芯
  6
Continuous
 62
     3
370
     9
100
AcDbCircle
 10
19.66673972185663
 20
-176.8250012212677
 30
0.0
 40
0.5000000064437454
100
AcDbArc
 50
270.0
 51
309.9992980957031
  0
ARC
  5
30A
330
1F
100
AcDbEntity
  8
通り芯
  6
JWW_HOJO
 62
     3
370
     9
100
AcDbCircle
 10
-72.92135710299544
 20
-150.8863300061073
 30
0.0
 40
5.000000257749815
100
AcDbArc
 50
324.9999389648438
 51
17.01924133300782
  0
ARC
  5
30B
330
1F
100
AcDbEntity
  8
通り芯
  6
JWW_HOJO
 62
     3
370
     9
100
AcDbCircle
 10
-64.84967213677919
 20
-162.0234974469856
 30
0.0
 40
8.000000103099927
100
AcDbArc
 50
144.9998931884766
 51
307.7427825927734
  0
ARC
  5
30C
330
1F
100
AcDbEntity
  8
通り芯
  6
JWW_HOJO
 62
     3
370
     9
100
AcDbCircle
 10
-56.89210641676232
 20
-172.3034343663269
 30
0.0
 40
5.000000257749815
100
AcDbArc
 50
56.60530090332031
 51
127.7429046630859
  0
ARC
  5
30D
330
1F
100
AcDbEntity
  8
通り芯
  6
Continuous
 62
     3
370
     9
100
AcDbCircle
 10
-62.49305526600233
 20
-147.3670428967323
 30
0.0
 40
1.500000019331236
100
AcDbArc
 50
196.3902587890625
 51
270.0
  0
ARC
  5
30E
330
1F
100
AcDbEntity
  8
通り芯
  6
Continuous
 62
     3
370
     9
100
AcDbCircle
 10
-50.19311861059691
 20
-163.5322865094856
 30
0.0
 40
1.500000019331236
100
AcDbArc
 50
180.0
 51
238.1441192626953
  0
ARC
  5
30F
330
1F
100
AcDbEntity
  8
通り芯
  6
Continuous
 62
     3
370
     9
100
AcDbCircle
 10
72.84883233693267
 20
-164.3249847252796
 30
0.0
 40
2.000000025774982
100
AcDbArc
 50
0.0
 51
90.0
  0
ARC
  5
310
330
1F
100
AcDbEntity
  8
通り芯
  6
Continuous
 62
     3
370
     9
100
AcDbCircle
 10
-67.15123364702004
 20
-24.32501771725595
 30
0.0
 40
2.000000025774982
100
AcDbArc
 50
0.0
 51
90.0
  0
ARC
  5
311
330
1F
100
AcDbEntity
  8
通り芯
  6
Continuous
 62
     3
370
     9
100
AcDbCircle
 10
-74.65120890303774
 20
-35.19257472739105
 30
0.0
 40
5.000000257749815
100
AcDbArc
 50
0.0
 51
43.00006103515624
  0
ARC
  5
312
330
1F
100
AcDbEntity
  8
躯体
  6
Continuous
 62
     2
370
     9
100
AcDbCircle
 10
-3.794118597400029
 20
-156.8586365411579
 30
0.0
 40
1.466317950068293
100
AcDbArc
 50
180.0
 51
309.9999694824219
  0
ARC
  5
313
330
1F
100
AcDbEntity
  8
仕上
  6
Continuous
 62
     4
370
     9
100
AcDbCircle
 10
-56.5510848532067
 20
-56.32487585175761
 30
0.0
 40
10.00000128874908
100
AcDbArc
 50
323.130126953125
 51
357.2543792724609
  0
ARC
  5
314
330
1F
100
AcDbEntity
  8
通り芯
  6
Continuous
 62
     3
370
     9
100
AcDbCircle
 10
19.84855850352892
 20
-192.3250771028133
 30
0.0
 40
1.99999983246262
100
AcDbArc
 50
180.0
 51
270.0
  0
ARC
  5
315
330
1F
100
AcDbEntity
  8
通り芯
  6
Continuous
 62
     3
370
     9
100
AcDbCircle
 10
19.84855850352892
 20
-192.3250771028133
 30
0.0
 40
7.999999329850481
100
AcDbArc
 50
180.0
 51
270.0
  0
ARC
  5
316
330
1F
100
AcDbEntity
  8
通り芯
  6
JWW_CENTER1
 62
     3
370
     9
100
AcDbCircle
 10
19.84878119936934
 20
-192.3250771028133
 30
0.0
 40
5.000000257749815
100
AcDbArc
 50
180.0
 51
270.0
  0
ARC
  5
317
330
1F
100
AcDbEntity
  8
躯体
  6
JWW_HOJO
 62
     2
370
     9
100
AcDbCircle
 10
-35.15122704862483
 20
-132.3249781268843
 30
0.0
 40
30.0
100
AcDbArc
 50
180.0
 51
270.0
  0
ARC
  5
318
330
1F
100
AcDbEntity
  8
通り芯
  6
Continuous
 62
     3
370
     9
100
AcDbCircle
 10
-35.15122704862483
 20
-132.3249781268843
 30
0.0
 40
30.0
100
AcDbArc
 50
180.0
 51
270.0
  0
ARC
  5
319
330
1F
100
AcDbEntity
  8
通り芯
  6
Continuous
 62
     3
370
     9
100
AcDbCircle
 10
-35.15122704862483
 20
-139.3250012212677
 30
0.0
 40
30.0
100
AcDbArc
 50
180.0
 51
270.0
  0
ARC
  5
31A
330
1F
100
AcDbEntity
  8
通り芯
  6
Continuous
 62
     3
370
     9
100
AcDbCircle
 10
-73.65120560384003
 20
-49.68660977806678
 30
0.0
 40
4.000000051549963
100
AcDbArc
 50
271.1664886474609
 51
0.0
  0
ARC
  5
31B
330
1F
100
AcDbEntity
  8
通り芯
  6
Continuous
 62
     3
370
     9
100
AcDbCircle
 10
20.41455235382455
 20
-166.3249913236749
 30
0.0
 40
3.000000038662472
100
AcDbArc
 50
270.0
 51
310.0000305175782
  0
ARC
  5
31C
330
1F
100
AcDbEntity
  8
通り芯
  6
Continuous
 62
     3
370
     9
100
AcDbCircle
 10
-76.34335087411046
 20
-171.7667868789958
 30
0.0
 40
4.000000051549963
100
AcDbArc
 50
197.112045288086
 51
271.1668395996094
  0
ARC
  5
31D
330
1F
100
AcDbEntity
  8
通り芯
  6
Continuous
 62
     3
370
     9
100
AcDbCircle
 10
-73.37629996089254
 20
-171.7063620743083
 30
0.0
 40
4.000000051549963
100
AcDbArc
 50
271.1668395996094
 51
345.1835632324219
  0
ARC
  5
31E
330
1F
100
AcDbEntity
  8
通り芯
  6
Continuous
 62
     3
370
     9
100
AcDbCircle
 10
-69.5680526266442
 20
-62.85624792207011
 30
0.0
 40
2.000000025774982
100
AcDbArc
 50
197.1124877929688
 51
271.1668395996094
  0
ARC
  5
31F
330
1F
100
AcDbEntity
  8
通り芯
  6
Continuous
 62
     3
370
     9
100
AcDbCircle
 10
-78.54229908990419
 20
-63.78919502933365
 30
0.0
 40
4.000000051549963
100
AcDbArc
 50
91.16648864746094
 51
165.2216796875
  0
ARC
  5
320
330
1F
100
AcDbEntity
  8
通り芯
  6
Continuous
 62
     3
370
     9
100
AcDbCircle
 10
-75.57732667119649
 20
-63.72877022464615
 30
0.0
 40
4.000000051549963
100
AcDbArc
 50
17.11238098144531
 51
91.16683959960938
  0
ARC
  5
321
330
1F
100
AcDbEntity
  8
通り芯
  6
Continuous
 62
     3
370
     9
100
AcDbCircle
 10
-67.4322510535867
 20
-171.5853145130752
 30
0.0
 40
10.00000051549963
100
AcDbArc
 50
271.1665496826171
 51
294.6426391601563
  0
ARC
  5
322
330
1F
100
AcDbEntity
  8
通り芯
  6
Continuous
 62
     3
370
     9
100
AcDbCircle
 10
-46.79176132068983
 20
-189.62174755256
 30
0.0
 40
15.0
100
AcDbArc
 50
90.667236328125
 51
114.6427001953125
  0
ARC
  5
323
330
1F
100
AcDbEntity
  8
通り芯
  6
Continuous
 62
     3
370
     9
100
AcDbCircle
 10
22.05995294240142
 20
-170.818696454587
 30
0.0
 40
3.000000038662472
100
AcDbArc
 50
270.6671447753906
 51
309.9998779296875
  0
ARC
  5
324
330
1F
100
AcDbEntity
  8
通り芯
  6
Continuous
 62
     3
370
     9
100
AcDbCircle
 10
20.39943378066164
 20
-166.3377097305583
 30
0.0
 40
3.000000038662472
100
AcDbArc
 50
270.6671447753906
 51
310.0000305175782
  0
ARC
  5
325
330
1F
100
AcDbEntity
  8
仕上
  6
Continuous
 62
     6
370
     9
100
AcDbCircle
 10
-57.65115281667795
 20
-63.55482002933365
 30
0.0
 40
1.500000019331236
100
AcDbArc
 50
0.0
 51
78.68969726562501
  0
ARC
  5
326
330
1F
100
AcDbEntity
  8
仕上
  6
Continuous
 62
     6
370
     9
100
AcDbCircle
 10
33.61932695264227
 20
-154.8250771028133
 30
0.0
 40
1.500000019331236
100
AcDbArc
 50
19.47171020507812
 51
90.0
  0
ARC
  5
327
330
1F
100
AcDbEntity
  8
躯体
  6
Continuous
 62
     2
370
     9
100
AcDbCircle
 10
-6.260400797568991
 20
-148.324981426082
 30
0.0
 40
1.000000012887491
100
AcDbArc
 50
0.0
 51
90.0
  0
ARC
  5
328
330
1F
100
AcDbEntity
  8
仕上
  6
Continuous
 62
     6
370
     9
100
AcDbCircle
 10
-35.15115281667795
 20
-132.3250771028133
 30
0.0
 40
20.99999969070022
100
AcDbArc
 50
245.925033569336
 51
270.0
  0
ARC
  5
329
330
1F
100
AcDbEntity
  8
仕上
  6
Continuous
 62
     6
370
     9
100
AcDbCircle
 10
-35.15115281667795
 20
-132.3250771028133
 30
0.0
 40
20.99999969070022
100
AcDbArc
 50
180.0000305175781
 51
204.0754089355468
  0
LINE
  5
32A
330
1F
100
AcDbEntity
  8
その他
  6
Continuous
 62
     7
370
     9
100
AcDbLine
 10
-65.15123362124496
 20
-7.32501769148098
 30
0.0
 11
-50.15122869177981
 21
-7.32501769148098
 31
0.0
  0
LINE
  5
32B
330
1F
100
AcDbEntity
  8
その他
  6
Continuous
 62
     7
370
     9
100
AcDbLine
 10
-65.15123362124496
 20
-7.32501769148098
 30
0.0
 11
-60.19400931437599
 21
-6.672386730380722
 31
0.0
  0
LINE
  5
32C
330
1F
100
AcDbEntity
  8
その他
  6
Continuous
 62
     7
370
     9
100
AcDbLine
 10
-65.15123362124496
 20
-7.32501769148098
 30
0.0
 11
-60.19400931437599
 21
-7.977648652581237
 31
0.0
  0
LINE
  5
32D
330
1F
100
AcDbEntity
  8
その他
  6
Continuous
 62
     7
370
     9
100
AcDbLine
 10
-50.15122869177981
 20
-7.32501769148098
 30
0.0
 11
-55.10845299864877
 21
-6.672386730380722
 31
0.0
  0
LINE
  5
32E
330
1F
100
AcDbEntity
  8
その他
  6
Continuous
 62
     7
370
     9
100
AcDbLine
 10
-50.15122869177981
 20
-7.32501769148098
 30
0.0
 11
-55.10845299864877
 21
-7.977648652581237
 31
0.0
  0
LINE
  5
32F
330
1F
100
AcDbEntity
  8
その他
  6
Continuous
 62
     7
370
     9
100
AcDbLine
 10
-50.15122869177981
 20
-6.725017667639122
 30
0.0
 11
-50.15122869177981
 21
-28.82502101645355
 31
0.0
  0
TEXT
  5
330
330
1F
100
AcDbEntity
  8
その他
  6
Continuous
 62
     2
370
   211
100
AcDbText
 10
-61.90123115651249
 20
-4.19701769148098
 30
0.0
 40
6.096
  1
15
 41
1.0625
  7
ＭＳ ゴシック
100
AcDbText
  0
LINE
  5
331
330
1F
100
AcDbEntity
  8
その他
  6
Continuous
 62
     7
370
     9
100
AcDbLine
 10
-50.15122869177981
 20
-7.32501769148098
 30
0.0
 11
61.70905187098697
 21
-7.32501769148098
 31
0.0
  0
LINE
  5
332
330
1F
100
AcDbEntity
  8
その他
  6
Continuous
 62
     7
370
     9
100
AcDbLine
 10
-50.15122869177981
 20
-7.32501769148098
 30
0.0
 11
-45.19400438491061
 21
-6.672386730380722
 31
0.0
  0
LINE
  5
333
330
1F
100
AcDbEntity
  8
その他
  6
Continuous
 62
     7
370
     9
100
AcDbLine
 10
-50.15122869177981
 20
-7.32501769148098
 30
0.0
 11
-45.19400438491061
 21
-7.977648652581237
 31
0.0
  0
LINE
  5
334
330
1F
100
AcDbEntity
  8
その他
  6
Continuous
 62
     7
370
     9
100
AcDbLine
 10
61.70905187098697
 20
-7.32501769148098
 30
0.0
 11
56.751827564118
 21
-6.672386730380722
 31
0.0
  0
LINE
  5
335
330
1F
100
AcDbEntity
  8
その他
  6
Continuous
 62
     7
370
     9
100
AcDbLine
 10
61.70905187098697
 20
-7.32501769148098
 30
0.0
 11
56.751827564118
 21
-7.977648652581237
 31
0.0
  0
LINE
  5
336
330
1F
100
AcDbEntity
  8
その他
  6
Continuous
 62
     7
370
     9
100
AcDbLine
 10
61.70905187098697
 20
-6.725017667639122
 30
0.0
 11
61.70905187098697
 21
-143.4432637790557
 31
0.0
  0
TEXT
  5
337
330
1F
100
AcDbEntity
  8
その他
  6
Continuous
 62
     2
370
   211
100
AcDbText
 10
-1.651200629268715
 20
10.80298230851902
 30
0.0
 40
6.096
  1
140
 41
1.083333333333333
  7
ＭＳ ゴシック
100
AcDbText
  0
LINE
  5
338
330
1F
100
AcDbEntity
  8
その他
  6
Continuous
 62
     7
370
     9
100
AcDbLine
 10
74.84883236270775
 20
8.274982332360878
 30
0.0
 11
74.84883236270775
 21
-160.3249847252796
 31
0.0
  0
LINE
  5
339
330
1F
100
AcDbEntity
  8
その他
  6
Continuous
 62
     7
370
     9
100
AcDbLine
 10
74.84883236270775
 20
7.67498230851902
 30
0.0
 11
69.89160805583856
 21
7.022351347418763
 31
0.0
  0
LINE
  5
33A
330
1F
100
AcDbEntity
  8
その他
  6
Continuous
 62
     7
370
     9
100
AcDbLine
 10
74.84883236270775
 20
7.67498230851902
 30
0.0
 11
69.89160805583856
 21
8.327613269619278
 31
0.0
  0
LINE
  5
33B
330
1F
100
AcDbEntity
  8
その他
  6
Continuous
 62
     7
370
     9
100
AcDbLine
 10
-65.15123362124496
 20
7.67498230851902
 30
0.0
 11
-60.19400931437599
 21
7.022351347418763
 31
0.0
  0
LINE
  5
33C
330
1F
100
AcDbEntity
  8
その他
  6
Continuous
 62
     7
370
     9
100
AcDbLine
 10
-65.15123362124496
 20
7.67498230851902
 30
0.0
 11
-60.19400931437599
 21
8.327613269619278
 31
0.0
  0
LINE
  5
33D
330
1F
100
AcDbEntity
  8
その他
  6
Continuous
 62
     7
370
     9
100
AcDbLine
 10
-65.15123362124496
 20
7.67498230851902
 30
0.0
 11
74.84883236270775
 21
7.67498230851902
 31
0.0
  0
LINE
  5
33E
330
1F
100
AcDbEntity
  8
その他
  6
Continuous
 62
     7
370
     9
100
AcDbLine
 10
-105.1512105526365
 20
7.67498230851902
 30
0.0
 11
-65.15123362124496
 21
7.67498230851902
 31
0.0
  0
LINE
  5
33F
330
1F
100
AcDbEntity
  8
その他
  6
Continuous
 62
     7
370
     9
100
AcDbLine
 10
-105.1512105526365
 20
7.67498230851902
 30
0.0
 11
-100.1939862457675
 21
8.327613269619278
 31
0.0
  0
LINE
  5
340
330
1F
100
AcDbEntity
  8
その他
  6
Continuous
 62
     7
370
     9
100
AcDbLine
 10
-105.1512105526365
 20
7.67498230851902
 30
0.0
 11
-100.1939862457675
 21
7.022351347418763
 31
0.0
  0
LINE
  5
341
330
1F
100
AcDbEntity
  8
その他
  6
Continuous
 62
     7
370
     9
100
AcDbLine
 10
-65.15123362124496
 20
7.67498230851902
 30
0.0
 11
-70.10845792811415
 21
8.327613269619278
 31
0.0
  0
LINE
  5
342
330
1F
100
AcDbEntity
  8
その他
  6
Continuous
 62
     7
370
     9
100
AcDbLine
 10
-65.15123362124496
 20
7.67498230851902
 30
0.0
 11
-70.10845792811415
 21
7.022351347418763
 31
0.0
  0
LINE
  5
343
330
1F
100
AcDbEntity
  8
その他
  6
Continuous
 62
     7
370
     9
100
AcDbLine
 10
-105.1512105526365
 20
8.274982332360878
 30
0.0
 11
-105.1512105526365
 21
-52.32937925652959
 31
0.0
  0
LINE
  5
344
330
1F
100
AcDbEntity
  8
その他
  6
Continuous
 62
     7
370
     9
100
AcDbLine
 10
-65.15123362124496
 20
8.274982332360878
 30
0.0
 11
-65.15123362124496
 21
-20.32501771725595
 31
0.0
  0
TEXT
  5
345
330
1F
100
AcDbEntity
  8
その他
  6
Continuous
 62
     2
370
   211
100
AcDbText
 10
-89.40122208694083
 20
10.80298230851902
 30
0.0
 40
6.096
  1
40
 41
1.0625
  7
ＭＳ ゴシック
100
AcDbText
  0
LINE
  5
346
330
1F
100
AcDbEntity
  8
その他
  6
Continuous
 62
     7
370
     9
100
AcDbLine
 10
89.8488389353281
 20
-162.3249846995046
 30
0.0
 11
89.8488389353281
 21
-147.3249550260571
 31
0.0
  0
LINE
  5
347
330
1F
100
AcDbEntity
  8
その他
  6
Continuous
 62
     7
370
     9
100
AcDbLine
 10
89.8488389353281
 20
-162.3249846995046
 30
0.0
 11
89.19620797422772
 21
-157.3677603926355
 31
0.0
  0
LINE
  5
348
330
1F
100
AcDbEntity
  8
その他
  6
Continuous
 62
     7
370
     9
100
AcDbLine
 10
89.8488389353281
 20
-162.3249846995046
 30
0.0
 11
90.50146989642826
 21
-157.3677603926355
 31
0.0
  0
LINE
  5
349
330
1F
100
AcDbEntity
  8
その他
  6
Continuous
 62
     7
370
     9
100
AcDbLine
 10
89.8488389353281
 20
-147.3249550260571
 30
0.0
 11
89.19620797422772
 21
-152.2821793329261
 31
0.0
  0
LINE
  5
34A
330
1F
100
AcDbEntity
  8
その他
  6
Continuous
 62
     7
370
     9
100
AcDbLine
 10
89.8488389353281
 20
-147.3249550260571
 30
0.0
 11
90.50146989642826
 21
-152.2821793329261
 31
0.0
  0
LINE
  5
34B
330
1F
100
AcDbEntity
  8
その他
  6
Continuous
 62
     7
370
     9
100
AcDbLine
 10
90.44883895916996
 20
-147.3249550260571
 30
0.0
 11
68.34880429375289
 21
-147.3249550260571
 31
0.0
  0
TEXT
  5
34C
330
1F
100
AcDbEntity
  8
その他
  6
Continuous
 62
     2
370
     5
100
AcDbText
 10
86.7208389353281
 20
-159.0749698627808
 30
0.0
 40
6.096
  1
15
 50
90.0
 41
1.0625
  7
ＭＳ ゴシック
100
AcDbText
  0
LINE
  5
34D
330
1F
100
AcDbEntity
  8
その他
  6
Continuous
 62
     7
370
     9
100
AcDbLine
 10
89.8488389353281
 20
-147.3249550260571
 30
0.0
 11
89.8488389353281
 21
-35.46485750821876
 31
0.0
  0
LINE
  5
34E
330
1F
100
AcDbEntity
  8
その他
  6
Continuous
 62
     7
370
     9
100
AcDbLine
 10
89.8488389353281
 20
-147.3249550260571
 30
0.0
 11
89.19620797422772
 21
-142.367730719188
 31
0.0
  0
LINE
  5
34F
330
1F
100
AcDbEntity
  8
その他
  6
Continuous
 62
     7
370
     9
100
AcDbLine
 10
89.8488389353281
 20
-147.3249550260571
 30
0.0
 11
90.50146989642826
 21
-142.367730719188
 31
0.0
  0
LINE
  5
350
330
1F
100
AcDbEntity
  8
その他
  6
Continuous
 62
     7
370
     9
100
AcDbLine
 10
89.8488389353281
 20
-35.46485750821876
 30
0.0
 11
89.19620797422772
 21
-40.42208181508784
 31
0.0
  0
LINE
  5
351
330
1F
100
AcDbEntity
  8
その他
  6
Continuous
 62
     7
370
     9
100
AcDbLine
 10
89.8488389353281
 20
-35.46485750821876
 30
0.0
 11
90.50146989642826
 21
-40.42208181508784
 31
0.0
  0
LINE
  5
352
330
1F
100
AcDbEntity
  8
その他
  6
Continuous
 62
     7
370
     9
100
AcDbLine
 10
90.44883895916996
 20
-35.46485750821876
 30
0.0
 11
-46.26947853986212
 21
-35.46485750821876
 31
0.0
  0
TEXT
  5
353
330
1F
100
AcDbEntity
  8
その他
  6
Continuous
 62
     2
370
     5
100
AcDbText
 10
86.7208389353281
 20
-97.89490626713791
 30
0.0
 40
6.096
  1
112
 50
90.0
 41
1.083333333333333
  7
ＭＳ ゴシック
100
AcDbText
  0
LINE
  5
354
330
1F
100
AcDbEntity
  8
その他
  6
Continuous
 62
     7
370
     9
100
AcDbLine
 10
104.8488389353281
 20
-182.1607440686073
 30
0.0
 11
104.1962079742277
 21
-177.2035197617383
 31
0.0
  0
LINE
  5
355
330
1F
100
AcDbEntity
  8
その他
  6
Continuous
 62
     7
370
     9
100
AcDbLine
 10
104.8488389353281
 20
-182.1607440686073
 30
0.0
 11
105.5014698964283
 21
-177.2035197617383
 31
0.0
  0
LINE
  5
356
330
1F
100
AcDbEntity
  8
その他
  6
Continuous
 62
     7
370
     9
100
AcDbLine
 10
104.8488389353281
 20
-162.3249846995046
 30
0.0
 11
104.1962079742277
 21
-167.2822090063736
 31
0.0
  0
LINE
  5
357
330
1F
100
AcDbEntity
  8
その他
  6
Continuous
 62
     7
370
     9
100
AcDbLine
 10
104.8488389353281
 20
-162.3249846995046
 30
0.0
 11
105.5014698964283
 21
-167.2822090063736
 31
0.0
  0
LINE
  5
358
330
1F
100
AcDbEntity
  8
その他
  6
Continuous
 62
     7
370
     9
100
AcDbLine
 10
105.44883895917
 20
-162.3249846995046
 30
0.0
 11
76.84883233693267
 21
-162.3249846995046
 31
0.0
  0
TEXT
  5
359
330
1F
100
AcDbEntity
  8
その他
  6
Continuous
 62
     2
370
     5
100
AcDbText
 10
101.7208389353281
 20
-176.492864384056
 30
0.0
 40
6.096
  1
20
 50
90.0
 41
1.0625
  7
ＭＳ ゴシック
100
AcDbText
  0
TEXT
  5
35A
330
1F
100
AcDbEntity
  8
その他
  6
Continuous
 62
     2
370
     5
100
AcDbText
 10
-154.3124372621407
 20
-125.7140639691184
 30
0.0
 40
6.096
  1
Rc4
 50
91.16666325642517
 41
1.083333333333333
  7
ＭＳ ゴシック
100
AcDbText
  0
TEXT
  5
35B
330
1F
100
AcDbEntity
  8
その他
  6
Continuous
 62
     2
370
     5
100
AcDbText
 10
-14.90261080075038
 20
-4.19701769148098
 30
0.0
 40
6.096
  1
112
 41
1.083333333333333
  7
ＭＳ ゴシック
100
AcDbText
  0
LINE
  5
35C
330
1F
100
AcDbEntity
  8
その他
  6
Continuous
 62
     7
370
     9
100
AcDbLine
 10
104.8488389353281
 20
-162.3249846995046
 30
0.0
 11
104.1962079742278
 21
-157.3677603926356
 31
0.0
  0
LINE
  5
35D
330
1F
100
AcDbEntity
  8
その他
  6
Continuous
 62
     7
370
     9
100
AcDbLine
 10
104.8488389353281
 20
-162.3249846995046
 30
0.0
 11
105.5014698964284
 21
-157.3677603926356
 31
0.0
  0
LINE
  5
35E
330
1F
100
AcDbEntity
  8
その他
  6
Continuous
 62
     7
370
     9
100
AcDbLine
 10
104.8488389353281
 20
-22.32501111886063
 30
0.0
 11
104.1962079742279
 21
-27.28223542572968
 31
0.0
  0
LINE
  5
35F
330
1F
100
AcDbEntity
  8
その他
  6
Continuous
 62
     7
370
     9
100
AcDbLine
 10
104.8488389353281
 20
-22.32501111886063
 30
0.0
 11
105.5014698964284
 21
-27.28223542572968
 31
0.0
  0
LINE
  5
360
330
1F
100
AcDbEntity
  8
その他
  6
Continuous
 62
     7
370
     9
100
AcDbLine
 10
105.4488389353281
 20
-22.32501111886063
 30
0.0
 11
-63.15123364702002
 21
-22.32501111886062
 31
0.0
  0
TEXT
  5
361
330
1F
100
AcDbEntity
  8
その他
  6
Continuous
 62
     2
370
     5
100
AcDbText
 10
101.7208389353281
 20
-98.82499790918263
 30
0.0
 40
6.096
  1
140
 50
90.0
 41
1.083333333333333
  7
ＭＳ ゴシック
100
AcDbText
  0
LINE
  5
362
330
1F
100
AcDbEntity
  8
その他
  6
Continuous
 62
     7
370
     9
100
AcDbLine
 10
104.8488389353281
 20
-162.3249846995046
 30
0.0
 11
104.8488389353281
 21
-22.32501111886063
 31
0.0
  0
LINE
  5
363
330
1F
100
AcDbEntity
  8
その他
  6
Continuous
 62
     7
370
     9
100
AcDbLine
 10
-121.5650485293596
 20
-118.676538037499
 30
0.0
 11
-120.4828539277174
 21
-123.5580188419452
 31
0.0
  0
LINE
  5
364
330
1F
100
AcDbEntity
  8
その他
  6
Continuous
 62
     7
370
     9
100
AcDbLine
 10
-121.5650485293596
 20
-118.676538037499
 30
0.0
 11
-121.7831490150559
 21
-123.67177899046
 31
0.0
  0
LINE
  5
365
330
1F
100
AcDbEntity
  8
その他
  6
Continuous
 62
     7
370
     9
100
AcDbLine
 10
-121.5767456420982
 20
-117.5276313416225
 30
0.0
 11
-121.8965042871043
 21
-112.5378663763216
 31
0.0
  0
LINE
  5
366
330
1F
100
AcDbEntity
  8
その他
  6
Continuous
 62
     7
370
     9
100
AcDbLine
 10
-121.5767456420982
 20
-117.5276313416225
 30
0.0
 11
-120.5941625718836
 21
-112.6251288673623
 31
0.0
  0
ARC
  5
367
330
1F
100
AcDbEntity
  8
その他
  6
Continuous
 62
     7
370
     9
100
AcDbCircle
 10
-65.15122704862483
 20
-117.5276714291387
 30
0.0
 40
56.42551859348761
100
AcDbArc
 50
166.498440942313
 51
196.7486733530936
  0
TEXT
  5
368
330
1F
100
AcDbEntity
  8
その他
  6
Continuous
 62
     2
370
     9
100
AcDbText
 10
-124.420150108381
 20
-141.2483777224015
 30
0.0
 40
6.096
  1
1ﾟ10'
 50
90.58331284999998
 41
1.1
  7
ＭＳ ゴシック
100
AcDbText
  0
LINE
  5
369
330
1F
100
AcDbEntity
  8
寸法
  6
Continuous
 62
     7
370
     9
100
AcDbLine
 10
63.65340932796181
 20
-147.3249781268843
 30
0.0
 11
66.69721607449473
 21
-143.3582111196401
 31
0.0
  0
LINE
  5
36A
330
1F
100
AcDbEntity
  8
寸法
  6
Continuous
 62
     7
370
     9
100
AcDbLine
 10
63.65340932796181
 20
-147.3249781268843
 30
0.0
 11
67.62017572362998
 21
-144.28117058333
 31
0.0
  0
LINE
  5
36B
330
1F
100
AcDbEntity
  8
寸法
  6
Continuous
 62
     7
370
     9
100
AcDbLine
 10
1.698327889614347
 20
-148.324981426082
 30
0.0
 11
4.742134636147276
 21
-144.3582144188379
 31
0.0
  0
LINE
  5
36C
330
1F
100
AcDbEntity
  8
寸法
  6
Continuous
 62
     7
370
     9
100
AcDbLine
 10
1.698327889614347
 20
-148.324981426082
 30
0.0
 11
5.665094285282519
 21
-145.2811738825278
 31
0.0
  0
LINE
  5
36D
330
1F
100
AcDbEntity
  8
寸法
  6
Continuous
 62
     7
370
     9
100
AcDbLine
 10
-28.61037803310523
 20
-124.723725751462
 30
0.0
 11
-25.56657128657231
 21
-120.7569587442178
 31
0.0
  0
LINE
  5
36E
330
1F
100
AcDbEntity
  8
寸法
  6
Continuous
 62
     7
370
     9
100
AcDbLine
 10
-28.61037803310523
 20
-124.723725751462
 30
0.0
 11
-24.64361163743706
 21
-121.6799182079077
 31
0.0
  0
LINE
  5
36F
330
1F
100
AcDbEntity
  8
寸法
  6
Continuous
 62
     7
370
     9
100
AcDbLine
 10
-46.56256305927354
 20
-55.84585795323477
 30
0.0
 11
-43.51875631274061
 21
-51.87909094599063
 31
0.0
  0
LINE
  5
370
330
1F
100
AcDbEntity
  8
寸法
  6
Continuous
 62
     7
370
     9
100
AcDbLine
 10
-46.56256305927354
 20
-55.84585795323477
 30
0.0
 11
-42.59579666360537
 21
-52.80205040968053
 31
0.0
  0
LINE
  5
371
330
1F
100
AcDbEntity
  8
その他
  6
Continuous
 62
     7
370
     9
100
AcDbLine
 10
-149.4561378463483
 20
-174.1370768487141
 30
0.0
 11
-151.6955189656717
 21
-64.17445228705347
 31
0.0
  0
LINE
  5
372
330
1F
100
AcDbEntity
  8
その他
  6
Continuous
 62
     7
370
     9
100
AcDbLine
 10
-152.3480146359151
 20
-64.18774031551048
 30
0.0
 11
-109.1503813498255
 21
-63.30802355023729
 31
0.0
  0
LINE
  5
373
330
1F
100
AcDbEntity
  8
その他
  6
Continuous
 62
     7
370
     9
100
AcDbLine
 10
-150.1086335165917
 20
-174.1503648771711
 30
0.0
 11
-106.6256538635503
 21
-173.2648370531934
 31
0.0
  0
LINE
  5
374
330
1F
100
AcDbEntity
  8
その他
  6
Continuous
 62
     7
370
     9
100
AcDbLine
 10
105.44883895917
 20
-182.1607440686073
 30
0.0
 11
-57.07697936787136
 21
-182.1607440686073
 31
0.0
  0
TEXT
  5
375
330
1F
100
AcDbEntity
  8
寸法
  6
Continuous
 62
     7
370
     9
100
AcDbText
 10
131.6120346236437
 20
-53.21230829352356
 30
0.0
 40
4.572
  1
樹脂系塗装
 41
1.133333333333333
  7
ＭＳ ゴシック
100
AcDbText
  0
LINE
  5
376
330
1F
100
AcDbEntity
  8
寸法
  6
Continuous
 62
     7
370
     9
100
AcDbLine
 10
1.698327889614347
 20
-148.324981426082
 30
0.0
 11
103.8171863475109
 21
-46.20610244998471
 31
0.0
  0
LINE
  5
377
330
1F
100
AcDbEntity
  8
寸法
  6
Continuous
 62
     7
370
     9
100
AcDbLine
 10
-28.61037803310523
 20
-124.723725751462
 30
0.0
 11
86.21074538858738
 21
-9.902579259369986
 31
0.0
  0
LINE
  5
378
330
1F
100
AcDbEntity
  8
寸法
  6
Continuous
 62
     7
370
     9
100
AcDbLine
 10
157.5794726220695
 20
-9.902579259369986
 30
0.0
 11
86.21074538858738
 21
-9.902579259369986
 31
0.0
  0
LINE
  5
379
330
1F
100
AcDbEntity
  8
寸法
  6
Continuous
 62
     7
370
     9
100
AcDbLine
 10
-46.56256305927354
 20
-55.84585795323477
 30
0.0
 11
31.74745695787556
 21
22.46417779833135
 31
0.0
  0
TEXT
  5
37A
330
1F
100
AcDbEntity
  8
寸法
  6
Continuous
 62
     7
370
     9
100
AcDbText
 10
138.9487678616212
 20
-111.3951509174298
 30
0.0
 40
4.572
  1
樹脂系塗装
 41
1.133333333333333
  7
ＭＳ ゴシック
100
AcDbText
  0
TEXT
  5
37B
330
1F
100
AcDbEntity
  8
寸法
  6
Continuous
 62
     7
370
     9
100
AcDbText
 10
117.6396907791677
 20
-99.18473798985384
 30
0.0
 40
4.572
  1
防水層押え：ＦＣ１５０
 41
1.151515151515152
  7
ＭＳ ゴシック
100
AcDbText
  0
LINE
  5
37C
330
1F
100
AcDbEntity
  8
寸法
  6
Continuous
 62
     7
370
     9
100
AcDbLine
 10
63.65340932796181
 20
-147.3249781268843
 30
0.0
 11
107.9431272637292
 21
-103.0352512922187
 31
0.0
  0
LINE
  5
37D
330
1F
100
AcDbEntity
  8
寸法
  6
Continuous
 62
     7
370
     9
100
AcDbLine
 10
195.8588492504131
 20
-103.0352512922187
 30
0.0
 11
107.9431272637291
 21
-103.0352512922187
 31
0.0
  0
TEXT
  5
37E
330
1F
100
AcDbEntity
  8
寸法
  6
Continuous
 62
     7
370
     9
100
AcDbText
 10
112.4530611359958
 20
-42.35558914761981
 30
0.0
 40
4.572
  1
ストレーナー：ＦＣ１５０
 41
1.152777777777778
  7
ＭＳ ゴシック
100
AcDbText
  0
LINE
  5
37F
330
1F
100
AcDbEntity
  8
寸法
  6
Continuous
 62
     7
370
     9
100
AcDbLine
 10
195.196899134857
 20
-46.20610244998471
 30
0.0
 11
103.8171863475109
 21
-46.20610244998471
 31
0.0
  0
TEXT
  5
380
330
1F
100
AcDbEntity
  8
寸法
  6
Continuous
 62
     7
370
     9
100
AcDbText
 10
87.59594245264405
 20
-6.706346336016967
 30
0.0
 40
4.572
  1
ボルト：Ｃ３６０２Ｗ
 41
1.15
  7
ＭＳ ゴシック
100
AcDbText
  0
TEXT
  5
381
330
1F
100
AcDbEntity
  8
寸法
  6
Continuous
 62
     7
370
     9
100
AcDbText
 10
33.28393979844532
 20
26.29459898709822
 30
0.0
 40
4.572
  1
丸小ねじ：Ｃ２７００Ｗ
 41
1.151515151515152
  7
ＭＳ ゴシック
100
AcDbText
  0
LINE
  5
382
330
1F
100
AcDbEntity
  8
寸法
  6
Continuous
 62
     7
370
     9
100
AcDbLine
 10
110.3398127544124
 20
22.46417779833138
 30
0.0
 11
31.74745695787556
 21
22.46417779833135
 31
0.0
  0
LINE
  5
383
330
1F
100
AcDbEntity
  8
寸法
  6
Continuous
 62
     7
370
     9
100
AcDbLine
 10
27.84860964109225
 20
-197.3249946228725
 30
0.0
 11
41.008124148861
 21
-220.1179423532677
 31
0.0
  0
LINE
  5
384
330
1F
100
AcDbEntity
  8
寸法
  6
Continuous
 62
     7
370
     9
100
AcDbLine
 10
27.84860964109225
 20
-197.3249946228725
 30
0.0
 11
30.89241678613586
 21
-201.2917613243287
 31
0.0
  0
LINE
  5
385
330
1F
100
AcDbEntity
  8
寸法
  6
Continuous
 62
     7
370
     9
100
AcDbLine
 10
27.84860964109225
 20
-197.3249946228725
 30
0.0
 11
29.7620268029177
 21
-201.9443922854289
 31
0.0
  0
LINE
  5
386
330
1F
100
AcDbEntity
  8
寸法
  6
Continuous
 62
     7
370
     9
100
AcDbLine
 10
74.8488389353281
 20
-172.3249616308962
 30
0.0
 11
89.01842732888954
 21
-196.8674086508828
 31
0.0
  0
LINE
  5
387
330
1F
100
AcDbEntity
  8
寸法
  6
Continuous
 62
     7
370
     9
100
AcDbLine
 10
74.8488389353281
 20
-172.3249616308962
 30
0.0
 11
77.8926460803717
 21
-176.2917283323523
 31
0.0
  0
LINE
  5
388
330
1F
100
AcDbEntity
  8
寸法
  6
Continuous
 62
     7
370
     9
100
AcDbLine
 10
74.8488389353281
 20
-172.3249616308962
 30
0.0
 11
76.76225609715355
 21
-176.9443592934526
 31
0.0
  0
LINE
  5
389
330
1F
100
AcDbEntity
  8
寸法
  6
Continuous
 62
     7
370
     9
100
AcDbLine
 10
41.008124148861
 20
-220.1179423532677
 30
0.0
 11
109.4562784330274
 21
-220.1179423532677
 31
0.0
  0
LINE
  5
38A
330
1F
100
AcDbEntity
  8
寸法
  6
Continuous
 62
     7
370
     9
100
AcDbLine
 10
89.01842732888954
 20
-196.8674086508828
 30
0.0
 11
146.6973923046075
 21
-196.8674086508828
 31
0.0
  0
TEXT
  5
38B
330
1F
100
AcDbEntity
  8
寸法
  6
Continuous
 62
     7
370
     9
100
AcDbText
 10
40.7322012909442
 20
-216.7800253874738
 30
0.0
 40
4.572
  1
アンカー：ＳＷＲＭ８
 41
1.15
  7
ＭＳ ゴシック
100
AcDbText
  0
TEXT
  5
38C
330
1F
100
AcDbEntity
  8
寸法
  6
Continuous
 62
     7
370
     9
100
AcDbText
 10
100.8579098167485
 20
-204.0745356304015
 30
0.0
 40
4.572
  1
樹脂系塗装
 41
1.133333333333333
  7
ＭＳ ゴシック
100
AcDbText
  0
TEXT
  5
38D
330
1F
100
AcDbEntity
  8
寸法
  6
Continuous
 62
     7
370
     9
100
AcDbText
 10
90.3579098167485
 20
-193.9869584291768
 30
0.0
 40
4.572
  1
本体：ＦＣ１５０
 41
1.145833333333333
  7
ＭＳ ゴシック
100
AcDbText
  0
TEXT
  5
38E
330
1F
100
AcDbEntity
  8
寸法
  6
Continuous
 62
     7
370
     9
100
AcDbText
 10
54.7322012909442
 20
-227.6745533382762
 30
0.0
 40
4.572
  1
りん酸塩被膜
 41
1.138888888888889
  7
ＭＳ ゴシック
100
AcDbText
  0
TEXT
  5
38F
330
1F
100
AcDbEntity
  8
寸法
  6
Continuous
 62
     7
370
     9
100
AcDbText
 10
54.043634856144
 20
15.09433439144791
 30
0.0
 40
4.572
  1
Ｍ６×１２
 41
1.133333333333333
  7
ＭＳ ゴシック
100
AcDbText
  0
TEXT
  5
390
330
1F
100
AcDbEntity
  8
寸法
  6
Continuous
 62
     7
370
     9
100
AcDbText
 10
104.8951090053284
 20
-16.66555175725853
 30
0.0
 40
4.572
  1
Ｍ８×５０
 41
1.133333333333333
  7
ＭＳ ゴシック
100
AcDbText
  0
LINE
  5
391
330
1F
100
AcDbEntity
  8
その他
  6
Continuous
 62
     7
370
     9
100
AcDbLine
 10
-151.6955189656717
 20
-64.17445228705347
 30
0.0
 11
-150.9420906986259
 21
-69.11736092938304
 31
0.0
  0
LINE
  5
392
330
1F
100
AcDbEntity
  8
その他
  6
Continuous
 62
     7
370
     9
100
AcDbLine
 10
-151.6955189656717
 20
-64.17445228705347
 30
0.0
 11
-152.2470820391127
 21
-69.14393698629708
 31
0.0
  0
LINE
  5
393
330
1F
100
AcDbEntity
  8
その他
  6
Continuous
 62
     7
370
     9
100
AcDbLine
 10
-149.4561378463483
 20
-174.1370768487141
 30
0.0
 11
-150.209566113394
 21
-169.1941682063845
 31
0.0
  0
LINE
  5
394
330
1F
100
AcDbEntity
  8
その他
  6
Continuous
 62
     7
370
     9
100
AcDbLine
 10
-149.4561378463483
 20
-174.1370768487141
 30
0.0
 11
-148.9045747729073
 21
-169.1675921494705
 31
0.0
  0
ENDSEC
  0
SECTION
  2
OBJECTS
  0
DICTIONARY
  5
C
330
0
100
AcDbDictionary
281
     1
  3
ACAD_DETAILVIEWSTYLE
350
3DA
  3
ACAD_GROUP
350
D
  3
ACAD_LAYOUT
350
1A
  3
ACAD_MATERIAL
350
43
  3
ACAD_MLEADERSTYLE
350
6B
  3
ACAD_MLINESTYLE
350
17
  3
ACAD_PLOTSETTINGS
350
19
  3
ACAD_PLOTSTYLENAME
350
E
  3
ACAD_SCALELIST
350
47
  3
ACAD_SECTIONVIEWSTYLE
350
3DB
  3
ACAD_TABLESTYLE
350
69
  3
ACAD_VISUALSTYLE
350
2A
  3
ACDB_RECOMPOSE_DATA
350
3D7
  3
AcDbVariableDictionary
350
397
  0
DICTIONARY
  5
395
330
8
100
AcDbDictionary
280
     1
281
     1
  3
ACAD_XREC_ROUNDTRIP
360
396
  0
DICTIONARY
  5
3DA
102
{ACAD_REACTORS
330
C
102
}
330
C
100
AcDbDictionary
281
     1
  0
DICTIONARY
  5
D
102
{ACAD_REACTORS
330
C
102
}
330
C
100
AcDbDictionary
281
     1
  0
DICTIONARY
  5
1A
102
{ACAD_REACTORS
330
C
102
}
330
C
100
AcDbDictionary
281
     1
  3
Layout1
350
1E
  3
Layout2
350
26
  3
Model
350
22
  0
DICTIONARY
  5
43
102
{ACAD_REACTORS
330
C
102
}
330
C
100
AcDbDictionary
281
     1
  3
ByBlock
350
45
  3
ByLayer
350
44
  3
Global
350
46
  0
DICTIONARY
  5
6B
102
{ACAD_REACTORS
330
C
102
}
330
C
100
AcDbDictionary
281
     1
  3
Standard
350
6C
  0
DICTIONARY
  5
17
102
{ACAD_REACTORS
330
C
102
}
330
C
100
AcDbDictionary
281
     1
  3
Standard
350
18
  0
DICTIONARY
  5
19
102
{ACAD_REACTORS
330
C
102
}
330
C
100
AcDbDictionary
281
     1
  0
ACDBDICTIONARYWDFLT
  5
E
102
{ACAD_REACTORS
330
C
102
}
330
C
100
AcDbDictionary
281
     1
  3
Normal
350
F
100
AcDbDictionaryWithDefault
340
F
  0
DICTIONARY
  5
47
102
{ACAD_REACTORS
330
C
102
}
330
C
100
AcDbDictionary
281
     1
  3
A0
350
48
  3
A1
350
49
  3
A2
350
4A
  3
A3
350
4B
  3
A4
350
4C
  3
A5
350
4D
  3
A6
350
4E
  3
A7
350
4F
  3
A8
350
50
  3
A9
350
51
  3
B0
350
52
  3
B1
350
53
  3
B2
350
54
  3
B3
350
55
  3
B4
350
56
  3
B5
350
57
  3
B6
350
58
  3
B7
350
59
  3
B8
350
5A
  3
B9
350
5B
  3
C0
350
5C
  3
C1
350
5D
  3
C2
350
5E
  3
C3
350
5F
  3
C4
350
60
  3
C5
350
61
  3
C6
350
62
  3
C7
350
63
  3
C8
350
64
  3
C9
350
65
  3
D0
350
66
  3
D1
350
67
  3
D2
350
68
  0
DICTIONARY
  5
3DB
102
{ACAD_REACTORS
330
C
102
}
330
C
100
AcDbDictionary
281
     1
  0
DICTIONARY
  5
69
102
{ACAD_REACTORS
330
C
102
}
330
C
100
AcDbDictionary
281
     1
  3
Standard
350
6A
  0
DICTIONARY
  5
2A
102
{ACAD_REACTORS
330
C
102
}
330
C
100
AcDbDictionary
281
     1
  3
2dWireframe
350
2F
  3
Basic
350
32
  3
Brighten
350
36
  3
ColorChange
350
3A
  3
Conceptual
350
34
  3
Dim
350
35
  3
EdgeColorOff
350
3D
  3
Facepattern
350
39
  3
Flat
350
2B
  3
FlatWithEdges
350
2C
  3
Gouraud
350
2D
  3
GouraudWithEdges
350
2E
  3
Hidden
350
31
  3
JitterOff
350
3B
  3
Linepattern
350
38
  3
OverhangOff
350
3C
  3
Realistic
350
33
  3
Shaded
350
42
  3
Shaded with edges
350
41
  3
Shades of Gray
350
3E
  3
Sketchy
350
3F
  3
Thicken
350
37
  3
Wireframe
350
30
  3
X-Ray
350
40
  0
XRECORD
  5
3D7
102
{ACAD_REACTORS
330
C
102
}
330
C
100
AcDbXrecord
280
     1
 90
        1
330
6A
  0
DICTIONARY
  5
397
102
{ACAD_REACTORS
330
C
102
}
330
C
100
AcDbDictionary
281
     1
  3
CANNOSCALE
350
398
  3
CENTEREXE
350
3DC
  3
CENTERLTYPEFILE
350
3DD
  3
CMLEADERSTYLE
350
3D9
  3
CTABLESTYLE
350
3D8
  3
MSLTSCALE
350
399
  3
XCLIPFRAME
350
39A
  0
XRECORD
  5
396
102
{ACAD_REACTORS
330
395
102
}
330
395
100
AcDbXrecord
280
     1
102
VTR_0.000_0.000_1.000_1.000_VISUALSTYLE
340
2F
102
VTR_0.000_0.000_1.000_1.000_GRIDDISPLAY
 70
     3
102
VTR_0.000_0.000_1.000_1.000_GRIDMAJOR
 70
     5
102
VTR_0.000_0.000_1.000_1.000_DEFAULTLIGHTING
280
     1
102
VTR_0.000_0.000_1.000_1.000_DEFAULTLIGHTINGTYPE
 70
     1
102
VTR_0.000_0.000_1.000_1.000_BRIGHTNESS
141
0.0
102
VTR_0.000_0.000_1.000_1.000_CONTRAST
142
0.0
  0
LAYOUT
  5
1E
102
{ACAD_REACTORS
330
1A
102
}
330
1A
100
AcDbPlotSettings
  1

  2
none_device
  4

  6

 40
0.0
 41
0.0
 42
0.0
 43
0.0
 44
0.0
 45
0.0
 46
0.0
 47
0.0
 48
0.0
 49
0.0
140
0.0
141
0.0
142
1.0
143
1.0
 70
   688
 72
     1
 73
     0
 74
     5
  7

 75
    16
 76
     0
 77
     5
 78
   300
147
1.0
148
0.0
149
0.0
100
AcDbLayout
  1
Layout1
 70
     1
 71
     1
 10
0.0
 20
0.0
 11
420.0
 21
297.0
 12
0.0
 22
0.0
 32
0.0
 14
1.000000000000000E+20
 24
1.000000000000000E+20
 34
1.000000000000000E+20
 15
-1.000000000000000E+20
 25
-1.000000000000000E+20
 35
-1.000000000000000E+20
146
0.0
 13
0.0
 23
0.0
 33
0.0
 16
1.0
 26
0.0
 36
0.0
 17
0.0
 27
1.0
 37
0.0
 76
     0
330
1B
  0
LAYOUT
  5
26
102
{ACAD_REACTORS
330
1A
102
}
330
1A
100
AcDbPlotSettings
  1

  2
none_device
  4

  6

 40
0.0
 41
0.0
 42
0.0
 43
0.0
 44
0.0
 45
0.0
 46
0.0
 47
0.0
 48
0.0
 49
0.0
140
0.0
141
0.0
142
1.0
143
1.0
 70
   688
 72
     1
 73
     0
 74
     5
  7

 75
    16
 76
     0
 77
     5
 78
   300
147
1.0
148
0.0
149
0.0
100
AcDbLayout
  1
Layout2
 70
     1
 71
     2
 10
0.0
 20
0.0
 11
0.0
 21
0.0
 12
0.0
 22
0.0
 32
0.0
 14
0.0
 24
0.0
 34
0.0
 15
0.0
 25
0.0
 35
0.0
146
0.0
 13
0.0
 23
0.0
 33
0.0
 16
1.0
 26
0.0
 36
0.0
 17
0.0
 27
1.0
 37
0.0
 76
     0
330
23
  0
LAYOUT
  5
22
102
{ACAD_REACTORS
330
1A
102
}
330
1A
100
AcDbPlotSettings
  1

  2
none_device
  4
Letter_(8.50_x_11.00_Inches)
  6

 40
6.35
 41
6.35
 42
6.35000508
 43
6.35000508
 44
215.9
 45
279.4
 46
0.0
 47
0.0
 48
0.0
 49
0.0
140
0.0
141
0.0
142
1.0
143
1.0
 70
  1712
 72
     1
 73
     0
 74
     0
  7

 75
     0
 76
     0
 77
     5
 78
   300
147
1.0
148
0.0
149
0.0
100
AcDbLayout
  1
Model
 70
     1
 71
     0
 10
-420.0
 20
-297.0
 11
420.0
 21
297.0
 12
0.0
 22
0.0
 32
0.0
 14
-420.0
 24
-297.0
 34
0.0
 15
420.0
 25
297.0
 35
0.0
146
0.0
 13
0.0
 23
0.0
 33
0.0
 16
1.0
 26
0.0
 36
0.0
 17
0.0
 27
1.0
 37
0.0
 76
     0
330
1F
331
29
  0
MATERIAL
  5
45
102
{ACAD_REACTORS
330
43
102
}
102
{ACAD_XDICTIONARY
360
3CD
102
}
330
43
100
AcDbMaterial
  1
ByBlock
  0
MATERIAL
  5
44
102
{ACAD_REACTORS
330
43
102
}
102
{ACAD_XDICTIONARY
360
3CB
102
}
330
43
100
AcDbMaterial
  1
ByLayer
  0
MATERIAL
  5
46
102
{ACAD_REACTORS
330
43
102
}
102
{ACAD_XDICTIONARY
360
3CF
102
}
330
43
100
AcDbMaterial
  1
Global
  0
MLEADERSTYLE
  5
6C
102
{ACAD_REACTORS
330
6B
102
}
102
{ACAD_XDICTIONARY
360
3D5
102
}
330
6B
100
AcDbMLeaderStyle
170
     2
171
     1
172
     0
 90
        2
 40
0.0
 41
0.0
173
     1
 91
-1056964608
340
14
 92
       -2
290
     1
 42
2.0
291
     1
 43
8.0
  3
Standard
341
0
 44
4.0
300

342
11
174
     1
178
     6
175
     1
176
     0
 93
-1056964608
 45
4.0
292
     0
297
     0
 46
4.0
343
0
 94
-1056964608
 47
1.0
 49
1.0
140
1.0
293
     1
141
0.0
294
     1
177
     0
142
1.0
295
     0
296
     0
143
3.75
1001
ACAD_MLEADERVER
1070
     2
  0
MLINESTYLE
  5
18
102
{ACAD_REACTORS
330
17
102
}
330
17
100
AcDbMlineStyle
  2
Standard
 70
     0
  3

 62
   256
 51
90.0
 52
90.0
 71
     2
 49
0.5
 62
   256
  6
BYLAYER
 49
-0.5
 62
   256
  6
BYLAYER
  0
ACDBPLACEHOLDER
  5
F
102
{ACAD_REACTORS
330
E
102
}
330
E
  0
SCALE
  5
48
102
{ACAD_REACTORS
330
47
102
}
330
47
100
AcDbScale
 70
     0
300
1:1
140
1.0
141
1.0
290
     1
  0
SCALE
  5
49
102
{ACAD_REACTORS
330
47
102
}
330
47
100
AcDbScale
 70
     0
300
1:2
140
1.0
141
2.0
290
     0
  0
SCALE
  5
4A
102
{ACAD_REACTORS
330
47
102
}
330
47
100
AcDbScale
 70
     0
300
1:4
140
1.0
141
4.0
290
     0
  0
SCALE
  5
4B
102
{ACAD_REACTORS
330
47
102
}
330
47
100
AcDbScale
 70
     0
300
1:5
140
1.0
141
5.0
290
     0
  0
SCALE
  5
4C
102
{ACAD_REACTORS
330
47
102
}
330
47
100
AcDbScale
 70
     0
300
1:8
140
1.0
141
8.0
290
     0
  0
SCALE
  5
4D
102
{ACAD_REACTORS
330
47
102
}
330
47
100
AcDbScale
 70
     0
300
1:10
140
1.0
141
10.0
290
     0
  0
SCALE
  5
4E
102
{ACAD_REACTORS
330
47
102
}
330
47
100
AcDbScale
 70
     0
300
1:16
140
1.0
141
16.0
290
     0
  0
SCALE
  5
4F
102
{ACAD_REACTORS
330
47
102
}
330
47
100
AcDbScale
 70
     0
300
1:20
140
1.0
141
20.0
290
     0
  0
SCALE
  5
50
102
{ACAD_REACTORS
330
47
102
}
330
47
100
AcDbScale
 70
     0
300
1:30
140
1.0
141
30.0
290
     0
  0
SCALE
  5
51
102
{ACAD_REACTORS
330
47
102
}
330
47
100
AcDbScale
 70
     0
300
1:40
140
1.0
141
40.0
290
     0
  0
SCALE
  5
52
102
{ACAD_REACTORS
330
47
102
}
330
47
100
AcDbScale
 70
     0
300
1:50
140
1.0
141
50.0
290
     0
  0
SCALE
  5
53
102
{ACAD_REACTORS
330
47
102
}
330
47
100
AcDbScale
 70
     0
300
1:100
140
1.0
141
100.0
290
     0
  0
SCALE
  5
54
102
{ACAD_REACTORS
330
47
102
}
330
47
100
AcDbScale
 70
     0
300
2:1
140
2.0
141
1.0
290
     0
  0
SCALE
  5
55
102
{ACAD_REACTORS
330
47
102
}
330
47
100
AcDbScale
 70
     0
300
4:1
140
4.0
141
1.0
290
     0
  0
SCALE
  5
56
102
{ACAD_REACTORS
330
47
102
}
330
47
100
AcDbScale
 70
     0
300
8:1
140
8.0
141
1.0
290
     0
  0
SCALE
  5
57
102
{ACAD_REACTORS
330
47
102
}
330
47
100
AcDbScale
 70
     0
300
10:1
140
10.0
141
1.0
290
     0
  0
SCALE
  5
58
102
{ACAD_REACTORS
330
47
102
}
330
47
100
AcDbScale
 70
     0
300
100:1
140
100.0
141
1.0
290
     0
  0
SCALE
  5
59
102
{ACAD_REACTORS
330
47
102
}
330
47
100
AcDbScale
 70
     0
300
1/128" = 1'-0"
140
0.0078125
141
12.0
290
     0
  0
SCALE
  5
5A
102
{ACAD_REACTORS
330
47
102
}
330
47
100
AcDbScale
 70
     0
300
1/64" = 1'-0"
140
0.015625
141
12.0
290
     0
  0
SCALE
  5
5B
102
{ACAD_REACTORS
330
47
102
}
330
47
100
AcDbScale
 70
     0
300
1/32" = 1'-0"
140
0.03125
141
12.0
290
     0
  0
SCALE
  5
5C
102
{ACAD_REACTORS
330
47
102
}
330
47
100
AcDbScale
 70
     0
300
1/16" = 1'-0"
140
0.0625
141
12.0
290
     0
  0
SCALE
  5
5D
102
{ACAD_REACTORS
330
47
102
}
330
47
100
AcDbScale
 70
     0
300
3/32" = 1'-0"
140
0.09375
141
12.0
290
     0
  0
SCALE
  5
5E
102
{ACAD_REACTORS
330
47
102
}
330
47
100
AcDbScale
 70
     0
300
1/8" = 1'-0"
140
0.125
141
12.0
290
     0
  0
SCALE
  5
5F
102
{ACAD_REACTORS
330
47
102
}
330
47
100
AcDbScale
 70
     0
300
3/16" = 1'-0"
140
0.1875
141
12.0
290
     0
  0
SCALE
  5
60
102
{ACAD_REACTORS
330
47
102
}
330
47
100
AcDbScale
 70
     0
300
1/4" = 1'-0"
140
0.25
141
12.0
290
     0
  0
SCALE
  5
61
102
{ACAD_REACTORS
330
47
102
}
330
47
100
AcDbScale
 70
     0
300
3/8" = 1'-0"
140
0.375
141
12.0
290
     0
  0
SCALE
  5
62
102
{ACAD_REACTORS
330
47
102
}
330
47
100
AcDbScale
 70
     0
300
1/2" = 1'-0"
140
0.5
141
12.0
290
     0
  0
SCALE
  5
63
102
{ACAD_REACTORS
330
47
102
}
330
47
100
AcDbScale
 70
     0
300
3/4" = 1'-0"
140
0.75
141
12.0
290
     0
  0
SCALE
  5
64
102
{ACAD_REACTORS
330
47
102
}
330
47
100
AcDbScale
 70
     0
300
1" = 1'-0"
140
1.0
141
12.0
290
     0
  0
SCALE
  5
65
102
{ACAD_REACTORS
330
47
102
}
330
47
100
AcDbScale
 70
     0
300
1-1/2" = 1'-0"
140
1.5
141
12.0
290
     0
  0
SCALE
  5
66
102
{ACAD_REACTORS
330
47
102
}
330
47
100
AcDbScale
 70
     0
300
3" = 1'-0"
140
3.0
141
12.0
290
     0
  0
SCALE
  5
67
102
{ACAD_REACTORS
330
47
102
}
330
47
100
AcDbScale
 70
     0
300
6" = 1'-0"
140
6.0
141
12.0
290
     0
  0
SCALE
  5
68
102
{ACAD_REACTORS
330
47
102
}
330
47
100
AcDbScale
 70
     0
300
1'-0" = 1'-0"
140
12.0
141
12.0
290
     0
  0
TABLESTYLE
  5
6A
102
{ACAD_REACTORS
330
69
102
}
102
{ACAD_XDICTIONARY
360
3D1
102
}
330
69
100
AcDbTableStyle
  3
Standard
 70
     0
 71
     0
 40
0.06
 41
0.06
280
     0
281
     0
  7
Standard
140
4.5
170
     2
 62
     0
 63
   257
283
     0
274
    -2
284
     1
 64
     0
275
    -2
285
     1
 65
     0
276
    -2
286
     1
 66
     0
277
    -2
287
     1
 67
     0
278
    -2
288
     1
 68
     0
279
    -2
289
     1
 69
     0
  7
Standard
140
6.0
170
     5
 62
     0
 63
   257
283
     0
274
    -2
284
     1
 64
     0
275
    -2
285
     1
 65
     0
276
    -2
286
     1
 66
     0
277
    -2
287
     1
 67
     0
278
    -2
288
     1
 68
     0
279
    -2
289
     1
 69
     0
  7
Standard
140
4.5
170
     5
 62
     0
 63
   257
283
     0
274
    -2
284
     1
 64
     0
275
    -2
285
     1
 65
     0
276
    -2
286
     1
 66
     0
277
    -2
287
     1
 67
     0
278
    -2
288
     1
 68
     0
279
    -2
289
     1
 69
     0
  0
VISUALSTYLE
  5
2F
102
{ACAD_REACTORS
330
2A
102
}
102
{ACAD_XDICTIONARY
360
3A3
102
}
330
2A
100
AcDbVisualStyle
  2
2dWireframe
 70
     4
 71
     0
 72
     2
 73
     0
 90
        0
 40
0.6
 41
30.0
 62
     5
 63
     7
421
 16777215
 74
     1
 91
        4
 64
     7
 65
   257
 75
     1
175
     1
 42
1.0
 92
        0
 66
   257
 43
1.0
 76
     1
 77
     6
 78
     2
 67
     7
 79
     5
170
     0
171
     0
290
     0
174
     0
 93
        1
 44
0.0
173
     0
291
     0
 45
0.0
1001
ACAD
1000
AcDbSavedByObjectVersion
1070
     0
  0
VISUALSTYLE
  5
32
102
{ACAD_REACTORS
330
2A
102
}
102
{ACAD_XDICTIONARY
360
3A9
102
}
330
2A
100
AcDbVisualStyle
  2
Basic
 70
     7
 71
     1
 72
     0
 73
     1
 90
        0
 40
0.6
 41
30.0
 62
     5
 63
     7
421
 16777215
 74
     0
 91
        4
 64
     7
 65
   257
 75
     1
175
     1
 42
1.0
 92
        8
 66
     7
 43
1.0
 76
     1
 77
     6
 78
     2
 67
     7
 79
     5
170
     0
171
     0
290
     0
174
     0
 93
        1
 44
0.0
173
     0
291
     1
 45
0.0
1001
ACAD
1000
AcDbSavedByObjectVersion
1070
     0
  0
VISUALSTYLE
  5
36
102
{ACAD_REACTORS
330
2A
102
}
102
{ACAD_XDICTIONARY
360
3B1
102
}
330
2A
100
AcDbVisualStyle
  2
Brighten
 70
    12
 71
     2
 72
     2
 73
     0
 90
        0
 40
0.6
 41
30.0
 62
     5
 63
     7
421
 16777215
 74
     1
 91
        4
 64
     7
 65
   257
 75
     1
175
     1
 42
1.0
 92
        8
 66
     7
 43
1.0
 76
     1
 77
     6
 78
     2
 67
     7
 79
     5
170
     0
171
     0
290
     0
174
     0
 93
        1
 44
50.0
173
     0
291
     1
 45
0.0
1001
ACAD
1000
AcDbSavedByObjectVersion
1070
     0
  0
VISUALSTYLE
  5
3A
102
{ACAD_REACTORS
330
2A
102
}
102
{ACAD_XDICTIONARY
360
3B9
102
}
330
2A
100
AcDbVisualStyle
  2
ColorChange
 70
    16
 71
     2
 72
     2
 73
     3
 90
        0
 40
0.6
 41
30.0
 62
     5
 63
     8
421
  8421504
 74
     1
 91
        4
 64
     7
 65
   257
 75
     1
175
     1
 42
1.0
 92
        8
 66
     8
424
  8421504
 43
1.0
 76
     1
 77
     6
 78
     2
 67
     7
 79
     5
170
     0
171
     0
290
     0
174
     0
 93
        1
 44
0.0
173
     0
291
     1
 45
0.0
1001
ACAD
1000
AcDbSavedByObjectVersion
1070
     0
  0
VISUALSTYLE
  5
34
102
{ACAD_REACTORS
330
2A
102
}
102
{ACAD_XDICTIONARY
360
3AD
102
}
330
2A
100
AcDbVisualStyle
  2
Conceptual
 70
     9
 71
     3
 72
     2
 73
     0
 90
        0
 40
0.6
 41
30.0
 62
     5
 63
     7
421
 16777215
 74
     2
 91
        2
 64
     7
 65
   257
 75
     1
175
     1
 42
179.0
 92
        8
 66
     7
 43
1.0
 76
     1
 77
     6
 78
     2
 67
     7
 79
     3
170
     0
171
     0
290
     0
174
     0
 93
        1
 44
0.0
173
     0
291
     0
 45
0.0
1001
ACAD
1000
AcDbSavedByObjectVersion
1070
     0
  0
VISUALSTYLE
  5
35
102
{ACAD_REACTORS
330
2A
102
}
102
{ACAD_XDICTIONARY
360
3AF
102
}
330
2A
100
AcDbVisualStyle
  2
Dim
 70
    11
 71
     2
 72
     2
 73
     0
 90
        0
 40
0.6
 41
30.0
 62
     5
 63
     7
421
 16777215
 74
     1
 91
        4
 64
     7
 65
   257
 75
     1
175
     1
 42
1.0
 92
        8
 66
     7
 43
1.0
 76
     1
 77
     6
 78
     2
 67
     7
 79
     5
170
     0
171
     0
290
     0
174
     0
 93
        1
 44
-50.0
173
     0
291
     1
 45
0.0
1001
ACAD
1000
AcDbSavedByObjectVersion
1070
     0
  0
VISUALSTYLE
  5
3D
102
{ACAD_REACTORS
330
2A
102
}
102
{ACAD_XDICTIONARY
360
3BF
102
}
330
2A
100
AcDbVisualStyle
  2
EdgeColorOff
 70
    22
 71
     2
 72
     2
 73
     0
 90
        0
 40
0.6
 41
30.0
 62
     5
 63
     7
421
 16777215
 74
     1
 91
        4
 64
     7
 65
   257
 75
     1
175
     1
 42
1.0
 92
        8
 66
     7
 43
1.0
 76
     1
 77
     6
 78
     2
 67
     7
 79
     5
170
     0
171
     0
290
     0
174
     0
 93
        1
 44
0.0
173
     0
291
     1
 45
0.0
1001
ACAD
1000
AcDbSavedByObjectVersion
1070
     0
  0
VISUALSTYLE
  5
39
102
{ACAD_REACTORS
330
2A
102
}
102
{ACAD_XDICTIONARY
360
3B7
102
}
330
2A
100
AcDbVisualStyle
  2
Facepattern
 70
    15
 71
     2
 72
     2
 73
     0
 90
        0
 40
0.6
 41
30.0
 62
     5
 63
     7
421
 16777215
 74
     1
 91
        4
 64
     7
 65
   257
 75
     1
175
     1
 42
1.0
 92
        8
 66
     7
 43
1.0
 76
     1
 77
     6
 78
     2
 67
     7
 79
     5
170
     0
171
     0
290
     0
174
     0
 93
        1
 44
0.0
173
     0
291
     1
 45
0.0
1001
ACAD
1000
AcDbSavedByObjectVersion
1070
     0
  0
VISUALSTYLE
  5
2B
102
{ACAD_REACTORS
330
2A
102
}
102
{ACAD_XDICTIONARY
360
39B
102
}
330
2A
100
AcDbVisualStyle
  2
Flat
 70
     0
 71
     2
 72
     1
 73
     1
 90
        2
 40
0.6
 41
30.0
 62
     5
 63
     7
421
 16777215
 74
     0
 91
        0
 64
     7
 65
   257
 75
     1
175
     1
 42
1.0
 92
        8
 66
     7
 43
1.0
 76
     1
 77
     6
 78
     2
 67
     7
 79
     5
170
     0
171
     0
290
     0
174
     0
 93
       13
 44
0.0
173
     0
291
     1
 45
0.0
1001
ACAD
1000
AcDbSavedByObjectVersion
1070
     0
  0
VISUALSTYLE
  5
2C
102
{ACAD_REACTORS
330
2A
102
}
102
{ACAD_XDICTIONARY
360
39D
102
}
330
2A
100
AcDbVisualStyle
  2
FlatWithEdges
 70
     1
 71
     2
 72
     1
 73
     1
 90
        2
 40
0.6
 41
30.0
 62
     5
 63
     7
421
 16777215
 74
     1
 91
        0
 64
     7
 65
   257
 75
     1
175
     1
 42
1.0
 92
        0
 66
   257
 43
1.0
 76
     1
 77
     6
 78
     2
 67
     7
 79
     5
170
     0
171
     0
290
     0
174
     0
 93
       13
 44
0.0
173
     0
291
     1
 45
0.0
1001
ACAD
1000
AcDbSavedByObjectVersion
1070
     0
  0
VISUALSTYLE
  5
2D
102
{ACAD_REACTORS
330
2A
102
}
102
{ACAD_XDICTIONARY
360
39F
102
}
330
2A
100
AcDbVisualStyle
  2
Gouraud
 70
     2
 71
     2
 72
     2
 73
     1
 90
        2
 40
0.6
 41
30.0
 62
     5
 63
     7
421
 16777215
 74
     0
 91
        0
 64
     7
 65
   257
 75
     1
175
     1
 42
1.0
 92
        0
 66
     7
 43
1.0
 76
     1
 77
     6
 78
     2
 67
     7
 79
     5
170
     0
171
     0
290
     0
174
     0
 93
       13
 44
0.0
173
     0
291
     1
 45
0.0
1001
ACAD
1000
AcDbSavedByObjectVersion
1070
     0
  0
VISUALSTYLE
  5
2E
102
{ACAD_REACTORS
330
2A
102
}
102
{ACAD_XDICTIONARY
360
3A1
102
}
330
2A
100
AcDbVisualStyle
  2
GouraudWithEdges
 70
     3
 71
     2
 72
     2
 73
     1
 90
        2
 40
0.6
 41
30.0
 62
     5
 63
     7
421
 16777215
 74
     1
 91
        0
 64
     7
 65
   257
 75
     1
175
     1
 42
1.0
 92
        0
 66
   257
 43
1.0
 76
     1
 77
     6
 78
     2
 67
     7
 79
     5
170
     0
171
     0
290
     0
174
     0
 93
       13
 44
0.0
173
     0
291
     1
 45
0.0
1001
ACAD
1000
AcDbSavedByObjectVersion
1070
     0
  0
VISUALSTYLE
  5
31
102
{ACAD_REACTORS
330
2A
102
}
102
{ACAD_XDICTIONARY
360
3A7
102
}
330
2A
100
AcDbVisualStyle
  2
Hidden
 70
     6
 71
     1
 72
     2
 73
     2
 90
        0
 40
0.6
 41
30.0
 62
     5
 63
     7
421
 16777215
 74
     2
 91
        2
 64
     7
 65
   257
 75
     2
175
     1
 42
40.0
 92
        0
 66
   257
 43
1.0
 76
     1
 77
     6
 78
     2
 67
     7
 79
     3
170
     0
171
     0
290
     0
174
     0
 93
        1
 44
0.0
173
     0
291
     0
 45
0.0
1001
ACAD
1000
AcDbSavedByObjectVersion
1070
     0
  0
VISUALSTYLE
  5
3B
102
{ACAD_REACTORS
330
2A
102
}
102
{ACAD_XDICTIONARY
360
3BB
102
}
330
2A
100
AcDbVisualStyle
  2
JitterOff
 70
    20
 71
     2
 72
     2
 73
     0
 90
        0
 40
0.6
 41
30.0
 62
     5
 63
     7
421
 16777215
 74
     1
 91
        4
 64
     7
 65
   257
 75
     1
175
     1
 42
1.0
 92
       10
 66
     7
 43
1.0
 76
     1
 77
     6
 78
     2
 67
     7
 79
     5
170
     0
171
     0
290
     0
174
     0
 93
        1
 44
0.0
173
     0
291
     1
 45
0.0
1001
ACAD
1000
AcDbSavedByObjectVersion
1070
     0
  0
VISUALSTYLE
  5
38
102
{ACAD_REACTORS
330
2A
102
}
102
{ACAD_XDICTIONARY
360
3B5
102
}
330
2A
100
AcDbVisualStyle
  2
Linepattern
 70
    14
 71
     2
 72
     2
 73
     0
 90
        0
 40
0.6
 41
30.0
 62
     5
 63
     7
421
 16777215
 74
     1
 91
        4
 64
     7
 65
   257
 75
     7
175
     7
 42
1.0
 92
        8
 66
     7
 43
1.0
 76
     1
 77
     6
 78
     2
 67
     7
 79
     5
170
     0
171
     0
290
     0
174
     0
 93
        1
 44
0.0
173
     0
291
     1
 45
0.0
1001
ACAD
1000
AcDbSavedByObjectVersion
1070
     0
  0
VISUALSTYLE
  5
3C
102
{ACAD_REACTORS
330
2A
102
}
102
{ACAD_XDICTIONARY
360
3BD
102
}
330
2A
100
AcDbVisualStyle
  2
OverhangOff
 70
    21
 71
     2
 72
     2
 73
     0
 90
        0
 40
0.6
 41
30.0
 62
     5
 63
     7
421
 16777215
 74
     1
 91
        4
 64
     7
 65
   257
 75
     1
175
     1
 42
1.0
 92
        9
 66
     7
 43
1.0
 76
     1
 77
     6
 78
     2
 67
     7
 79
     5
170
     0
171
     0
290
     0
174
     0
 93
        1
 44
0.0
173
     0
291
     1
 45
0.0
1001
ACAD
1000
AcDbSavedByObjectVersion
1070
     0
  0
VISUALSTYLE
  5
33
102
{ACAD_REACTORS
330
2A
102
}
102
{ACAD_XDICTIONARY
360
3AB
102
}
330
2A
100
AcDbVisualStyle
  2
Realistic
 70
     8
 71
     2
 72
     3
 73
     0
 90
        2
 40
0.6
 41
30.0
 62
     5
 63
     7
421
 16777215
 74
     0
 91
        0
 64
     7
 65
   257
 75
     1
175
     1
 42
1.0
 92
        8
 66
   257
 43
1.0
 76
     1
 77
     6
 78
     2
 67
     7
 79
     3
170
     0
171
     0
290
     0
174
     0
 93
       13
 44
0.0
173
     0
291
     0
 45
0.0
1001
ACAD
1000
AcDbSavedByObjectVersion
1070
     0
  0
VISUALSTYLE
  5
42
102
{ACAD_REACTORS
330
2A
102
}
102
{ACAD_XDICTIONARY
360
3C9
102
}
330
2A
100
AcDbVisualStyle
  2
Shaded
 70
    27
 71
     2
 72
     2
 73
     1
 90
        2
 40
0.6
 41
30.0
 62
     5
 63
     7
421
 16777215
 74
     0
 91
        4
 64
     7
 65
   257
 75
     1
175
     1
 42
1.0
 92
        8
 66
   257
 43
1.0
 76
     1
 77
     6
 78
     2
 67
     8
425
  7895160
 79
     3
170
     0
171
     0
290
     0
174
     0
 93
        5
 44
0.0
173
     0
291
     0
 45
0.0
1001
ACAD
1000
AcDbSavedByObjectVersion
1070
     0
  0
VISUALSTYLE
  5
41
102
{ACAD_REACTORS
330
2A
102
}
102
{ACAD_XDICTIONARY
360
3C7
102
}
330
2A
100
AcDbVisualStyle
  2
Shaded with edges
 70
    26
 71
     2
 72
     2
 73
     1
 90
        2
 40
0.6
 41
30.0
 62
     5
 63
     7
421
 16777215
 74
     1
 91
       10
 64
     7
 65
   257
 75
     2
175
     1
 42
1.0
 92
        8
 66
   257
 43
1.0
 76
     1
 77
     6
 78
     2
 67
     7
 79
     3
170
     0
171
     0
290
     0
174
     0
 93
        5
 44
0.0
173
     0
291
     0
 45
0.0
1001
ACAD
1000
AcDbSavedByObjectVersion
1070
     0
  0
VISUALSTYLE
  5
3E
102
{ACAD_REACTORS
330
2A
102
}
102
{ACAD_XDICTIONARY
360
3C1
102
}
330
2A
100
AcDbVisualStyle
  2
Shades of Gray
 70
    23
 71
     2
 72
     2
 73
     3
 90
        0
 40
0.6
 41
30.0
 62
     5
 63
     7
421
 16777215
 74
     2
 91
        2
 64
     7
 65
     7
 75
     1
175
     1
 42
40.0
 92
        8
 66
     7
 43
1.0
 76
     1
 77
     6
 78
     2
 67
     7
 79
     3
170
     0
171
     0
290
     0
174
     0
 93
        1
 44
0.0
173
     0
291
     0
 45
0.0
1001
ACAD
1000
AcDbSavedByObjectVersion
1070
     0
  0
VISUALSTYLE
  5
3F
102
{ACAD_REACTORS
330
2A
102
}
102
{ACAD_XDICTIONARY
360
3C3
102
}
330
2A
100
AcDbVisualStyle
  2
Sketchy
 70
    24
 71
     1
 72
     2
 73
     2
 90
        0
 40
0.6
 41
30.0
 62
     5
 63
     7
421
 16777215
 74
     2
 91
        2
 64
     7
 65
     7
 75
     1
175
     1
 42
40.0
 92
       11
 66
     7
 43
1.0
 76
     1
 77
     6
 78
     2
 67
     7
 79
     6
170
     0
171
     0
290
     0
174
     0
 93
        1
 44
0.0
173
     0
291
     0
 45
0.0
1001
ACAD
1000
AcDbSavedByObjectVersion
1070
     0
  0
VISUALSTYLE
  5
37
102
{ACAD_REACTORS
330
2A
102
}
102
{ACAD_XDICTIONARY
360
3B3
102
}
330
2A
100
AcDbVisualStyle
  2
Thicken
 70
    13
 71
     2
 72
     2
 73
     0
 90
        0
 40
0.6
 41
30.0
 62
     5
 63
     7
421
 16777215
 74
     1
 91
        4
 64
     7
 65
   257
 75
     1
175
     1
 42
1.0
 92
       12
 66
     7
 43
1.0
 76
     1
 77
     6
 78
     2
 67
     7
 79
     5
170
     0
171
     0
290
     0
174
     0
 93
        1
 44
0.0
173
     0
291
     1
 45
0.0
1001
ACAD
1000
AcDbSavedByObjectVersion
1070
     0
  0
VISUALSTYLE
  5
30
102
{ACAD_REACTORS
330
2A
102
}
102
{ACAD_XDICTIONARY
360
3A5
102
}
330
2A
100
AcDbVisualStyle
  2
Wireframe
 70
     5
 71
     0
 72
     2
 73
     0
 90
        0
 40
0.6
 41
30.0
 62
     5
 63
     7
421
 16777215
 74
     1
 91
        4
 64
     7
 65
   257
 75
     1
175
     1
 42
1.0
 92
        0
 66
   257
 43
1.0
 76
     1
 77
     6
 78
     2
 67
     7
 79
     3
170
     0
171
     0
290
     0
174
     0
 93
        1
 44
0.0
173
     0
291
     0
 45
0.0
1001
ACAD
1000
AcDbSavedByObjectVersion
1070
     0
  0
VISUALSTYLE
  5
40
102
{ACAD_REACTORS
330
2A
102
}
102
{ACAD_XDICTIONARY
360
3C5
102
}
330
2A
100
AcDbVisualStyle
  2
X-Ray
 70
    25
 71
     2
 72
     2
 73
     1
 90
        1
 40
0.5
 41
30.0
 62
     5
 63
     7
421
 16777215
 74
     1
 91
        0
 64
     7
 65
   257
 75
     1
175
     1
 42
1.0
 92
        8
 66
     7
 43
1.0
 76
     1
 77
     6
 78
     2
 67
     7
 79
     3
170
     0
171
     0
290
     0
174
     0
 93
       13
 44
0.0
173
     0
291
     0
 45
0.0
1001
ACAD
1000
AcDbSavedByObjectVersion
1070
     0
  0
DICTIONARYVAR
  5
398
102
{ACAD_REACTORS
330
397
102
}
330
397
100
DictionaryVariables
280
     0
  1
1:1
  0
DICTIONARYVAR
  5
3DC
102
{ACAD_REACTORS
330
397
102
}
330
397
100
DictionaryVariables
280
     0
  1
3.500000
  0
DICTIONARYVAR
  5
3DD
102
{ACAD_REACTORS
330
397
102
}
330
397
100
DictionaryVariables
280
     0
  1
acadiso.lin
  0
DICTIONARYVAR
  5
3D9
102
{ACAD_REACTORS
330
397
102
}
330
397
100
DictionaryVariables
280
     0
  1
Standard
  0
DICTIONARYVAR
  5
3D8
102
{ACAD_REACTORS
330
397
102
}
330
397
100
DictionaryVariables
280
     0
  1
Standard
  0
DICTIONARYVAR
  5
399
102
{ACAD_REACTORS
330
397
102
}
330
397
100
DictionaryVariables
280
     0
  1
1
  0
DICTIONARYVAR
  5
39A
102
{ACAD_REACTORS
330
397
102
}
330
397
100
DictionaryVariables
280
     0
  1
2
  0
DICTIONARY
  5
3CD
330
45
100
AcDbDictionary
280
     1
281
     1
  3
ACAD_XREC_ROUNDTRIP
360
3CE
  0
DICTIONARY
  5
3CB
330
44
100
AcDbDictionary
280
     1
281
     1
  3
ACAD_XREC_ROUNDTRIP
360
3CC
  0
DICTIONARY
  5
3CF
330
46
100
AcDbDictionary
280
     1
281
     1
  3
ACAD_XREC_ROUNDTRIP
360
3D0
  0
DICTIONARY
  5
3D5
330
6C
100
AcDbDictionary
280
     1
281
     1
  3
ACAD_XREC_ROUNDTRIP
360
3D6
  0
DICTIONARY
  5
3D1
330
6A
100
AcDbDictionary
280
     1
281
     1
  3
ACAD_ROUNDTRIP_2008_TABLESTYLE_CELLSTYLEMAP
360
3D3
  3
ACAD_XREC_ROUNDTRIP
360
3D2
  0
DICTIONARY
  5
3A3
330
2F
100
AcDbDictionary
280
     1
281
     1
  3
ACAD_XREC_ROUNDTRIP
360
3A4
  0
DICTIONARY
  5
3A9
330
32
100
AcDbDictionary
280
     1
281
     1
  3
ACAD_XREC_ROUNDTRIP
360
3AA
  0
DICTIONARY
  5
3B1
330
36
100
AcDbDictionary
280
     1
281
     1
  3
ACAD_XREC_ROUNDTRIP
360
3B2
  0
DICTIONARY
  5
3B9
330
3A
100
AcDbDictionary
280
     1
281
     1
  3
ACAD_XREC_ROUNDTRIP
360
3BA
  0
DICTIONARY
  5
3AD
330
34
100
AcDbDictionary
280
     1
281
     1
  3
ACAD_XREC_ROUNDTRIP
360
3AE
  0
DICTIONARY
  5
3AF
330
35
100
AcDbDictionary
280
     1
281
     1
  3
ACAD_XREC_ROUNDTRIP
360
3B0
  0
DICTIONARY
  5
3BF
330
3D
100
AcDbDictionary
280
     1
281
     1
  3
ACAD_XREC_ROUNDTRIP
360
3C0
  0
DICTIONARY
  5
3B7
330
39
100
AcDbDictionary
280
     1
281
     1
  3
ACAD_XREC_ROUNDTRIP
360
3B8
  0
DICTIONARY
  5
39B
330
2B
100
AcDbDictionary
280
     1
281
     1
  3
ACAD_XREC_ROUNDTRIP
360
39C
  0
DICTIONARY
  5
39D
330
2C
100
AcDbDictionary
280
     1
281
     1
  3
ACAD_XREC_ROUNDTRIP
360
39E
  0
DICTIONARY
  5
39F
330
2D
100
AcDbDictionary
280
     1
281
     1
  3
ACAD_XREC_ROUNDTRIP
360
3A0
  0
DICTIONARY
  5
3A1
330
2E
100
AcDbDictionary
280
     1
281
     1
  3
ACAD_XREC_ROUNDTRIP
360
3A2
  0
DICTIONARY
  5
3A7
330
31
100
AcDbDictionary
280
     1
281
     1
  3
ACAD_XREC_ROUNDTRIP
360
3A8
  0
DICTIONARY
  5
3BB
330
3B
100
AcDbDictionary
280
     1
281
     1
  3
ACAD_XREC_ROUNDTRIP
360
3BC
  0
DICTIONARY
  5
3B5
330
38
100
AcDbDictionary
280
     1
281
     1
  3
ACAD_XREC_ROUNDTRIP
360
3B6
  0
DICTIONARY
  5
3BD
330
3C
100
AcDbDictionary
280
     1
281
     1
  3
ACAD_XREC_ROUNDTRIP
360
3BE
  0
DICTIONARY
  5
3AB
330
33
100
AcDbDictionary
280
     1
281
     1
  3
ACAD_XREC_ROUNDTRIP
360
3AC
  0
DICTIONARY
  5
3C9
330
42
100
AcDbDictionary
280
     1
281
     1
  3
ACAD_XREC_ROUNDTRIP
360
3CA
  0
DICTIONARY
  5
3C7
330
41
100
AcDbDictionary
280
     1
281
     1
  3
ACAD_XREC_ROUNDTRIP
360
3C8
  0
DICTIONARY
  5
3C1
330
3E
100
AcDbDictionary
280
     1
281
     1
  3
ACAD_XREC_ROUNDTRIP
360
3C2
  0
DICTIONARY
  5
3C3
330
3F
100
AcDbDictionary
280
     1
281
     1
  3
ACAD_XREC_ROUNDTRIP
360
3C4
  0
DICTIONARY
  5
3B3
330
37
100
AcDbDictionary
280
     1
281
     1
  3
ACAD_XREC_ROUNDTRIP
360
3B4
  0
DICTIONARY
  5
3A5
330
30
100
AcDbDictionary
280
     1
281
     1
  3
ACAD_XREC_ROUNDTRIP
360
3A6
  0
DICTIONARY
  5
3C5
330
40
100
AcDbDictionary
280
     1
281
     1
  3
ACAD_XREC_ROUNDTRIP
360
3C6
  0
XRECORD
  5
3CE
102
{ACAD_REACTORS
330
3CD
102
}
330
3CD
100
AcDbXrecord
280
     1
102
MATERIAL
148
0.0
149
0.0
149
0.0
 93
        0
 94
      127
282
     0
 72
     1
 77
     1
171
     1
175
     1
179
     1
273
     0
  0
XRECORD
  5
3CC
102
{ACAD_REACTORS
330
3CB
102
}
330
3CB
100
AcDbXrecord
280
     1
102
MATERIAL
148
0.0
149
0.0
149
0.0
 93
        0
 94
      127
282
     0
 72
     1
 77
     1
171
     1
175
     1
179
     1
273
     0
  0
XRECORD
  5
3D0
102
{ACAD_REACTORS
330
3CF
102
}
330
3CF
100
AcDbXrecord
280
     1
102
MATERIAL
148
0.0
149
0.0
149
0.0
 93
        0
 94
      127
282
     0
 72
     1
 77
     1
171
     1
175
     1
179
     1
273
     0
  0
XRECORD
  5
3D6
102
{ACAD_REACTORS
330
3D5
102
}
330
3D5
100
AcDbXrecord
280
     1
102
ACAD_ROUNDTRIP_2010_MLEADER_STYLE
  0
CELLSTYLEMAP
  5
3D3
102
{ACAD_REACTORS
330
3D1
102
}
330
3D1
100
AcDbCellStyleMap
 90
        3
300
CELLSTYLE
  1
TABLEFORMAT_BEGIN
 90
        5
170
     1
 91
        0
 92
    32768
 62
   257
 93
        1
300
CONTENTFORMAT
  1
CONTENTFORMAT_BEGIN
 90
        0
 91
        0
 92
        4
 93
        0
300

 40
0.0
140
1.0
 94
        5
 62
     0
340
11
144
6.0
309
CONTENTFORMAT_END
171
     1
301
MARGIN
  1
CELLMARGIN_BEGIN
 40
1.5
 40
1.5
 40
1.5
 40
1.5
 40
1.5
 40
1.5
309
CELLMARGIN_END
 94
        6
 95
        1
302
GRIDFORMAT
  1
GRIDFORMAT_BEGIN
 90
        0
 91
        1
 62
     0
 92
       -2
340
14
 93
        0
 40
0.045
309
GRIDFORMAT_END
 95
        2
302
GRIDFORMAT
  1
GRIDFORMAT_BEGIN
 90
        0
 91
        1
 62
     0
 92
       -2
340
14
 93
        0
 40
0.045
309
GRIDFORMAT_END
 95
        4
302
GRIDFORMAT
  1
GRIDFORMAT_BEGIN
 90
        0
 91
        1
 62
     0
 92
       -2
340
14
 93
        0
 40
0.045
309
GRIDFORMAT_END
 95
        8
302
GRIDFORMAT
  1
GRIDFORMAT_BEGIN
 90
        0
 91
        1
 62
     0
 92
       -2
340
14
 93
        0
 40
0.045
309
GRIDFORMAT_END
 95
       16
302
GRIDFORMAT
  1
GRIDFORMAT_BEGIN
 90
        0
 91
        1
 62
     0
 92
       -2
340
14
 93
        0
 40
0.045
309
GRIDFORMAT_END
 95
       32
302
GRIDFORMAT
  1
GRIDFORMAT_BEGIN
 90
        0
 91
        1
 62
     0
 92
       -2
340
14
 93
        0
 40
0.045
309
GRIDFORMAT_END
309
TABLEFORMAT_END
  1
CELLSTYLE_BEGIN
 90
        1
 91
        1
300
_TITLE
309
CELLSTYLE_END
300
CELLSTYLE
  1
TABLEFORMAT_BEGIN
 90
        5
170
     1
 91
        0
 92
        0
 62
   257
 93
        1
300
CONTENTFORMAT
  1
CONTENTFORMAT_BEGIN
 90
        0
 91
        0
 92
        4
 93
        0
300

 40
0.0
140
1.0
 94
        5
 62
     0
340
11
144
4.5
309
CONTENTFORMAT_END
171
     1
301
MARGIN
  1
CELLMARGIN_BEGIN
 40
1.5
 40
1.5
 40
1.5
 40
1.5
 40
1.5
 40
1.5
309
CELLMARGIN_END
 94
        6
 95
        1
302
GRIDFORMAT
  1
GRIDFORMAT_BEGIN
 90
        0
 91
        1
 62
     0
 92
       -2
340
14
 93
        0
 40
0.045
309
GRIDFORMAT_END
 95
        2
302
GRIDFORMAT
  1
GRIDFORMAT_BEGIN
 90
        0
 91
        1
 62
     0
 92
       -2
340
14
 93
        0
 40
0.045
309
GRIDFORMAT_END
 95
        4
302
GRIDFORMAT
  1
GRIDFORMAT_BEGIN
 90
        0
 91
        1
 62
     0
 92
       -2
340
14
 93
        0
 40
0.045
309
GRIDFORMAT_END
 95
        8
302
GRIDFORMAT
  1
GRIDFORMAT_BEGIN
 90
        0
 91
        1
 62
     0
 92
       -2
340
14
 93
        0
 40
0.045
309
GRIDFORMAT_END
 95
       16
302
GRIDFORMAT
  1
GRIDFORMAT_BEGIN
 90
        0
 91
        1
 62
     0
 92
       -2
340
14
 93
        0
 40
0.045
309
GRIDFORMAT_END
 95
       32
302
GRIDFORMAT
  1
GRIDFORMAT_BEGIN
 90
        0
 91
        1
 62
     0
 92
       -2
340
14
 93
        0
 40
0.045
309
GRIDFORMAT_END
309
TABLEFORMAT_END
  1
CELLSTYLE_BEGIN
 90
        2
 91
        1
300
_HEADER
309
CELLSTYLE_END
300
CELLSTYLE
  1
TABLEFORMAT_BEGIN
 90
        5
170
     1
 91
        0
 92
        0
 62
   257
 93
        1
300
CONTENTFORMAT
  1
CONTENTFORMAT_BEGIN
 90
        0
 91
        0
 92
        4
 93
        0
300

 40
0.0
140
1.0
 94
        2
 62
     0
340
11
144
4.5
309
CONTENTFORMAT_END
171
     1
301
MARGIN
  1
CELLMARGIN_BEGIN
 40
1.5
 40
1.5
 40
1.5
 40
1.5
 40
1.5
 40
1.5
309
CELLMARGIN_END
 94
        6
 95
        1
302
GRIDFORMAT
  1
GRIDFORMAT_BEGIN
 90
        0
 91
        1
 62
     0
 92
       -2
340
14
 93
        0
 40
0.045
309
GRIDFORMAT_END
 95
        2
302
GRIDFORMAT
  1
GRIDFORMAT_BEGIN
 90
        0
 91
        1
 62
     0
 92
       -2
340
14
 93
        0
 40
0.045
309
GRIDFORMAT_END
 95
        4
302
GRIDFORMAT
  1
GRIDFORMAT_BEGIN
 90
        0
 91
        1
 62
     0
 92
       -2
340
14
 93
        0
 40
0.045
309
GRIDFORMAT_END
 95
        8
302
GRIDFORMAT
  1
GRIDFORMAT_BEGIN
 90
        0
 91
        1
 62
     0
 92
       -2
340
14
 93
        0
 40
0.045
309
GRIDFORMAT_END
 95
       16
302
GRIDFORMAT
  1
GRIDFORMAT_BEGIN
 90
        0
 91
        1
 62
     0
 92
       -2
340
14
 93
        0
 40
0.045
309
GRIDFORMAT_END
 95
       32
302
GRIDFORMAT
  1
GRIDFORMAT_BEGIN
 90
        0
 91
        1
 62
     0
 92
       -2
340
14
 93
        0
 40
0.045
309
GRIDFORMAT_END
309
TABLEFORMAT_END
  1
CELLSTYLE_BEGIN
 90
        3
 91
        2
300
_DATA
309
CELLSTYLE_END
  0
XRECORD
  5
3D2
102
{ACAD_REACTORS
330
3D1
102
}
330
3D1
100
AcDbXrecord
280
     1
102
ACAD_ROUNDTRIP_PRE2007_TABLESTYLE
 90
        4
 91
        0
  1

 92
        4
 93
        0
  2

 94
        4
 95
        0
  3

  0
XRECORD
  5
3A4
102
{ACAD_REACTORS
330
3A3
102
}
330
3A3
100
AcDbXrecord
280
     1
102
RTVSPropertyOp0
 70
     1
102
RTVSPropertyOp1
 70
     1
102
RTVSPropertyOp2
 70
     1
102
RTVSPropertyOp3
 70
     1
102
RTVSPropertyOp4
 70
     1
102
RTVSPropertyOp5
 70
     1
102
RTVSPropertyOp6
 70
     1
102
RTVSPropertyOp7
 70
     1
102
RTVSPropertyOp8
 70
     1
102
RTVSPropertyOp9
 70
     1
102
RTVSPropertyOp10
 70
     1
102
RTVSPropertyOp11
 70
     1
102
RTVSPropertyOp12
 70
     1
102
RTVSPropertyOp13
 70
     1
102
RTVSPropertyOp14
 70
     1
102
RTVSPropertyOp15
 70
     1
102
RTVSPropertyOp16
 70
     1
102
RTVSPropertyOp17
 70
     1
102
RTVSPropertyOp18
 70
     1
102
RTVSPropertyOp19
 70
     1
102
RTVSPropertyOp20
 70
     1
102
RTVSPropertyOp21
 70
     1
102
RTVSPropertyOp22
 70
     1
102
RTVSPropertyOp23
 70
     1
102
RTVSPropertyOp24
 70
     1
102
RTVSPropertyOp25
 70
     1
102
RTVSPropertyOp26
 70
     1
102
RTVSPropertyOp27
 70
     1
102
RTVSPropertyOp28
 70
     1
102
RTVSPropertyOp29
 70
     1
102
RTVSPropertyOp30
 70
     1
102
RTVSPropertyOp31
 70
     1
102
RTVSPropertyOp32
 70
     1
102
RTVSPropertyOp33
 70
     1
102
RTVSPropertyOp34
 70
     1
102
RTVSPropertyOp35
 70
     1
102
RTVSPropertyOp36
 70
     1
102
RTVSPropertyOp37
 70
     1
102
RTVSPropertyOp38
 70
     1
102
RTVSPropertyOp39
 70
     1
102
RTVSPropertyOp40
 70
     1
102
RTVSPropertyOp41
 70
     1
102
RTVSPropertyOp42
 70
     1
102
RTVSPropertyOp43
 70
     1
102
RTVSPropertyOp44
 70
     1
102
RTVSPropertyOp45
 70
     1
102
RTVSPropertyOp46
 70
     1
102
RTVSPropertyOp47
 70
     1
102
RTVSPropertyOp48
 70
     1
102
RTVSPropertyOp49
 70
     1
102
RTVSPropertyOp50
 70
     1
102
RTVSPropertyOp51
 70
     0
102
RTVSPropertyOp52
 70
     0
102
RTVSPropertyOp53
 70
     1
102
RTVSPropertyOp54
 70
     1
102
RTVSPropertyOp55
 70
     1
102
RTVSPropertyOp56
 70
     1
102
RTVSPropertyOp57
 70
     1
102
RTVSPost2010Prop28
280
     1
102
RTVSPost2010PropOp28
 70
     1
102
RTVSPost2010Prop29
280
     1
102
RTVSPost2010PropOp29
 70
     1
102
RTVSPost2010Prop30
280
     0
102
RTVSPost2010PropOp30
 70
     1
102
RTVSPost2010Prop31
280
     0
102
RTVSPost2010PropOp31
 70
     1
102
RTVSPost2010Prop32
280
     0
102
RTVSPost2010PropOp32
 70
     1
102
RTVSPost2010Prop33
280
     0
102
RTVSPost2010PropOp33
 70
     1
102
RTVSPost2010Prop34
280
     0
102
RTVSPost2010PropOp34
 70
     1
102
RTVSPost2010Prop35
280
     0
102
RTVSPost2010PropOp35
 70
     1
102
RTVSPost2010Prop36
280
     0
102
RTVSPost2010PropOp36
 70
     1
102
RTVSPost2010Prop37
 90
       50
102
RTVSPost2010PropOp37
 70
     1
102
RTVSPost2010Prop38
140
0.0
102
RTVSPost2010PropOp38
 70
     1
102
RTVSPost2010Prop39
140
1.0
102
RTVSPost2010PropOp39
 70
     1
102
RTVSPost2010Prop40
 90
        0
102
RTVSPost2010PropOp40
 70
     1
102
RTVSPost2010Prop41ColorIndex
 90
       18
102
RTVSPost2010Prop41ColorRGB
 90
        0
102
RTVSPost2010PropOp41
 70
     1
102
RTVSPost2010Prop42
 90
       50
102
RTVSPost2010PropOp42
 70
     1
102
RTVSPost2010Prop43
 90
        3
102
RTVSPost2010PropOp43
 70
     1
102
RTVSPost2010Prop44ColorIndex
 90
        5
102
RTVSPost2010Prop44ColorRGB
 90
      255
102
RTVSPost2010PropOp44
 70
     1
102
RTVSPost2010Prop45
280
     0
102
RTVSPost2010PropOp45
 70
     1
102
RTVSPost2010Prop46
 90
       50
102
RTVSPost2010PropOp46
 70
     1
102
RTVSPost2010Prop47
 90
       50
102
RTVSPost2010PropOp47
 70
     1
102
RTVSPost2010Prop48
 90
       50
102
RTVSPost2010PropOp48
 70
     1
102
RTVSPost2010Prop49
280
     0
102
RTVSPost2010PropOp49
 70
     1
102
RTVSPost2010Prop50
 90
       50
102
RTVSPost2010PropOp50
 70
     1
102
RTVSPost2010Prop51ColorIndex
 90
      256
102
RTVSPost2010Prop51ColorRGB
 90
-16777216
102
RTVSPost2010PropOp51
 70
     0
102
RTVSPost2010Prop52
140
1.0
102
RTVSPost2010PropOp52
 70
     0
102
RTVSPost2010Prop53
 90
        2
102
RTVSPost2010PropOp53
 70
     1
102
RTVSPost2010Prop54
  1
strokes_ogs.tif
102
RTVSPost2010PropOp54
 70
     1
102
RTVSPost2010Prop55
280
     0
102
RTVSPost2010PropOp55
 70
     1
102
RTVSPost2010Prop56
140
1.0
102
RTVSPost2010PropOp56
 70
     1
102
RTVSPost2010Prop57
140
1.0
102
RTVSPost2010PropOp57
 70
     1
  0
XRECORD
  5
3AA
102
{ACAD_REACTORS
330
3A9
102
}
330
3A9
100
AcDbXrecord
280
     1
102
RTVSPropertyOp0
 70
     1
102
RTVSPropertyOp1
 70
     1
102
RTVSPropertyOp2
 70
     1
102
RTVSPropertyOp3
 70
     1
102
RTVSPropertyOp4
 70
     1
102
RTVSPropertyOp5
 70
     1
102
RTVSPropertyOp6
 70
     1
102
RTVSPropertyOp7
 70
     1
102
RTVSPropertyOp8
 70
     1
102
RTVSPropertyOp9
 70
     1
102
RTVSPropertyOp10
 70
     1
102
RTVSPropertyOp11
 70
     1
102
RTVSPropertyOp12
 70
     1
102
RTVSPropertyOp13
 70
     1
102
RTVSPropertyOp14
 70
     1
102
RTVSPropertyOp15
 70
     1
102
RTVSPropertyOp16
 70
     1
102
RTVSPropertyOp17
 70
     1
102
RTVSPropertyOp18
 70
     1
102
RTVSPropertyOp19
 70
     1
102
RTVSPropertyOp20
 70
     1
102
RTVSPropertyOp21
 70
     1
102
RTVSPropertyOp22
 70
     1
102
RTVSPropertyOp23
 70
     1
102
RTVSPropertyOp24
 70
     1
102
RTVSPropertyOp25
 70
     1
102
RTVSPropertyOp26
 70
     1
102
RTVSPropertyOp27
 70
     1
102
RTVSPropertyOp28
 70
     1
102
RTVSPropertyOp29
 70
     1
102
RTVSPropertyOp30
 70
     1
102
RTVSPropertyOp31
 70
     1
102
RTVSPropertyOp32
 70
     1
102
RTVSPropertyOp33
 70
     1
102
RTVSPropertyOp34
 70
     1
102
RTVSPropertyOp35
 70
     1
102
RTVSPropertyOp36
 70
     1
102
RTVSPropertyOp37
 70
     1
102
RTVSPropertyOp38
 70
     1
102
RTVSPropertyOp39
 70
     1
102
RTVSPropertyOp40
 70
     1
102
RTVSPropertyOp41
 70
     1
102
RTVSPropertyOp42
 70
     1
102
RTVSPropertyOp43
 70
     1
102
RTVSPropertyOp44
 70
     1
102
RTVSPropertyOp45
 70
     1
102
RTVSPropertyOp46
 70
     1
102
RTVSPropertyOp47
 70
     1
102
RTVSPropertyOp48
 70
     1
102
RTVSPropertyOp49
 70
     1
102
RTVSPropertyOp50
 70
     1
102
RTVSPropertyOp51
 70
     0
102
RTVSPropertyOp52
 70
     0
102
RTVSPropertyOp53
 70
     1
102
RTVSPropertyOp54
 70
     1
102
RTVSPropertyOp55
 70
     1
102
RTVSPropertyOp56
 70
     1
102
RTVSPropertyOp57
 70
     1
102
RTVSPost2010Prop28
280
     0
102
RTVSPost2010PropOp28
 70
     1
102
RTVSPost2010Prop29
280
     1
102
RTVSPost2010PropOp29
 70
     1
102
RTVSPost2010Prop30
280
     1
102
RTVSPost2010PropOp30
 70
     1
102
RTVSPost2010Prop31
280
     0
102
RTVSPost2010PropOp31
 70
     1
102
RTVSPost2010Prop32
280
     0
102
RTVSPost2010PropOp32
 70
     1
102
RTVSPost2010Prop33
280
     0
102
RTVSPost2010PropOp33
 70
     1
102
RTVSPost2010Prop34
280
     0
102
RTVSPost2010PropOp34
 70
     1
102
RTVSPost2010Prop35
280
     0
102
RTVSPost2010PropOp35
 70
     1
102
RTVSPost2010Prop36
280
     0
102
RTVSPost2010PropOp36
 70
     1
102
RTVSPost2010Prop37
 90
       50
102
RTVSPost2010PropOp37
 70
     1
102
RTVSPost2010Prop38
140
0.0
102
RTVSPost2010PropOp38
 70
     1
102
RTVSPost2010Prop39
140
1.0
102
RTVSPost2010PropOp39
 70
     1
102
RTVSPost2010Prop40
 90
        0
102
RTVSPost2010PropOp40
 70
     1
102
RTVSPost2010Prop41ColorIndex
 90
       18
102
RTVSPost2010Prop41ColorRGB
 90
        0
102
RTVSPost2010PropOp41
 70
     1
102
RTVSPost2010Prop42
 90
       50
102
RTVSPost2010PropOp42
 70
     1
102
RTVSPost2010Prop43
 90
        3
102
RTVSPost2010PropOp43
 70
     1
102
RTVSPost2010Prop44ColorIndex
 90
        5
102
RTVSPost2010Prop44ColorRGB
 90
      255
102
RTVSPost2010PropOp44
 70
     1
102
RTVSPost2010Prop45
280
     0
102
RTVSPost2010PropOp45
 70
     1
102
RTVSPost2010Prop46
 90
       50
102
RTVSPost2010PropOp46
 70
     1
102
RTVSPost2010Prop47
 90
       50
102
RTVSPost2010PropOp47
 70
     1
102
RTVSPost2010Prop48
 90
       50
102
RTVSPost2010PropOp48
 70
     1
102
RTVSPost2010Prop49
280
     0
102
RTVSPost2010PropOp49
 70
     1
102
RTVSPost2010Prop50
 90
       50
102
RTVSPost2010PropOp50
 70
     1
102
RTVSPost2010Prop51ColorIndex
 90
      256
102
RTVSPost2010Prop51ColorRGB
 90
-16777216
102
RTVSPost2010PropOp51
 70
     0
102
RTVSPost2010Prop52
140
1.0
102
RTVSPost2010PropOp52
 70
     0
102
RTVSPost2010Prop53
 90
        2
102
RTVSPost2010PropOp53
 70
     1
102
RTVSPost2010Prop54
  1
strokes_ogs.tif
102
RTVSPost2010PropOp54
 70
     1
102
RTVSPost2010Prop55
280
     0
102
RTVSPost2010PropOp55
 70
     1
102
RTVSPost2010Prop56
140
1.0
102
RTVSPost2010PropOp56
 70
     1
102
RTVSPost2010Prop57
140
1.0
102
RTVSPost2010PropOp57
 70
     1
  0
XRECORD
  5
3B2
102
{ACAD_REACTORS
330
3B1
102
}
330
3B1
100
AcDbXrecord
280
     1
102
RTVSPropertyOp0
 70
     1
102
RTVSPropertyOp1
 70
     1
102
RTVSPropertyOp2
 70
     1
102
RTVSPropertyOp3
 70
     1
102
RTVSPropertyOp4
 70
     1
102
RTVSPropertyOp5
 70
     1
102
RTVSPropertyOp6
 70
     1
102
RTVSPropertyOp7
 70
     1
102
RTVSPropertyOp8
 70
     1
102
RTVSPropertyOp9
 70
     1
102
RTVSPropertyOp10
 70
     1
102
RTVSPropertyOp11
 70
     1
102
RTVSPropertyOp12
 70
     1
102
RTVSPropertyOp13
 70
     1
102
RTVSPropertyOp14
 70
     1
102
RTVSPropertyOp15
 70
     1
102
RTVSPropertyOp16
 70
     1
102
RTVSPropertyOp17
 70
     1
102
RTVSPropertyOp18
 70
     1
102
RTVSPropertyOp19
 70
     1
102
RTVSPropertyOp20
 70
     1
102
RTVSPropertyOp21
 70
     1
102
RTVSPropertyOp22
 70
     1
102
RTVSPropertyOp23
 70
     1
102
RTVSPropertyOp24
 70
     1
102
RTVSPropertyOp25
 70
     1
102
RTVSPropertyOp26
 70
     1
102
RTVSPropertyOp27
 70
     1
102
RTVSPropertyOp28
 70
     1
102
RTVSPropertyOp29
 70
     1
102
RTVSPropertyOp30
 70
     1
102
RTVSPropertyOp31
 70
     1
102
RTVSPropertyOp32
 70
     1
102
RTVSPropertyOp33
 70
     1
102
RTVSPropertyOp34
 70
     1
102
RTVSPropertyOp35
 70
     1
102
RTVSPropertyOp36
 70
     1
102
RTVSPropertyOp37
 70
     1
102
RTVSPropertyOp38
 70
     1
102
RTVSPropertyOp39
 70
     1
102
RTVSPropertyOp40
 70
     1
102
RTVSPropertyOp41
 70
     1
102
RTVSPropertyOp42
 70
     1
102
RTVSPropertyOp43
 70
     1
102
RTVSPropertyOp44
 70
     1
102
RTVSPropertyOp45
 70
     1
102
RTVSPropertyOp46
 70
     1
102
RTVSPropertyOp47
 70
     1
102
RTVSPropertyOp48
 70
     1
102
RTVSPropertyOp49
 70
     1
102
RTVSPropertyOp50
 70
     1
102
RTVSPropertyOp51
 70
     0
102
RTVSPropertyOp52
 70
     0
102
RTVSPropertyOp53
 70
     1
102
RTVSPropertyOp54
 70
     1
102
RTVSPropertyOp55
 70
     1
102
RTVSPropertyOp56
 70
     1
102
RTVSPropertyOp57
 70
     1
102
RTVSPost2010Prop28
280
     0
102
RTVSPost2010PropOp28
 70
     1
102
RTVSPost2010Prop29
280
     1
102
RTVSPost2010PropOp29
 70
     1
102
RTVSPost2010Prop30
280
     1
102
RTVSPost2010PropOp30
 70
     1
102
RTVSPost2010Prop31
280
     0
102
RTVSPost2010PropOp31
 70
     1
102
RTVSPost2010Prop32
280
     0
102
RTVSPost2010PropOp32
 70
     1
102
RTVSPost2010Prop33
280
     0
102
RTVSPost2010PropOp33
 70
     1
102
RTVSPost2010Prop34
280
     0
102
RTVSPost2010PropOp34
 70
     1
102
RTVSPost2010Prop35
280
     0
102
RTVSPost2010PropOp35
 70
     1
102
RTVSPost2010Prop36
280
     0
102
RTVSPost2010PropOp36
 70
     1
102
RTVSPost2010Prop37
 90
       50
102
RTVSPost2010PropOp37
 70
     1
102
RTVSPost2010Prop38
140
0.0
102
RTVSPost2010PropOp38
 70
     1
102
RTVSPost2010Prop39
140
1.0
102
RTVSPost2010PropOp39
 70
     1
102
RTVSPost2010Prop40
 90
        0
102
RTVSPost2010PropOp40
 70
     1
102
RTVSPost2010Prop41ColorIndex
 90
       18
102
RTVSPost2010Prop41ColorRGB
 90
        0
102
RTVSPost2010PropOp41
 70
     1
102
RTVSPost2010Prop42
 90
       50
102
RTVSPost2010PropOp42
 70
     1
102
RTVSPost2010Prop43
 90
        3
102
RTVSPost2010PropOp43
 70
     1
102
RTVSPost2010Prop44ColorIndex
 90
        5
102
RTVSPost2010Prop44ColorRGB
 90
      255
102
RTVSPost2010PropOp44
 70
     1
102
RTVSPost2010Prop45
280
     0
102
RTVSPost2010PropOp45
 70
     1
102
RTVSPost2010Prop46
 90
       50
102
RTVSPost2010PropOp46
 70
     1
102
RTVSPost2010Prop47
 90
       50
102
RTVSPost2010PropOp47
 70
     1
102
RTVSPost2010Prop48
 90
       50
102
RTVSPost2010PropOp48
 70
     1
102
RTVSPost2010Prop49
280
     0
102
RTVSPost2010PropOp49
 70
     1
102
RTVSPost2010Prop50
 90
       50
102
RTVSPost2010PropOp50
 70
     1
102
RTVSPost2010Prop51ColorIndex
 90
      256
102
RTVSPost2010Prop51ColorRGB
 90
-16777216
102
RTVSPost2010PropOp51
 70
     0
102
RTVSPost2010Prop52
140
1.0
102
RTVSPost2010PropOp52
 70
     0
102
RTVSPost2010Prop53
 90
        2
102
RTVSPost2010PropOp53
 70
     1
102
RTVSPost2010Prop54
  1
strokes_ogs.tif
102
RTVSPost2010PropOp54
 70
     1
102
RTVSPost2010Prop55
280
     0
102
RTVSPost2010PropOp55
 70
     1
102
RTVSPost2010Prop56
140
1.0
102
RTVSPost2010PropOp56
 70
     1
102
RTVSPost2010Prop57
140
1.0
102
RTVSPost2010PropOp57
 70
     1
  0
XRECORD
  5
3BA
102
{ACAD_REACTORS
330
3B9
102
}
330
3B9
100
AcDbXrecord
280
     1
102
RTVSPropertyOp0
 70
     1
102
RTVSPropertyOp1
 70
     1
102
RTVSPropertyOp2
 70
     1
102
RTVSPropertyOp3
 70
     1
102
RTVSPropertyOp4
 70
     1
102
RTVSPropertyOp5
 70
     1
102
RTVSPropertyOp6
 70
     1
102
RTVSPropertyOp7
 70
     1
102
RTVSPropertyOp8
 70
     1
102
RTVSPropertyOp9
 70
     1
102
RTVSPropertyOp10
 70
     1
102
RTVSPropertyOp11
 70
     1
102
RTVSPropertyOp12
 70
     1
102
RTVSPropertyOp13
 70
     1
102
RTVSPropertyOp14
 70
     1
102
RTVSPropertyOp15
 70
     1
102
RTVSPropertyOp16
 70
     1
102
RTVSPropertyOp17
 70
     1
102
RTVSPropertyOp18
 70
     1
102
RTVSPropertyOp19
 70
     1
102
RTVSPropertyOp20
 70
     1
102
RTVSPropertyOp21
 70
     1
102
RTVSPropertyOp22
 70
     1
102
RTVSPropertyOp23
 70
     1
102
RTVSPropertyOp24
 70
     1
102
RTVSPropertyOp25
 70
     1
102
RTVSPropertyOp26
 70
     1
102
RTVSPropertyOp27
 70
     1
102
RTVSPropertyOp28
 70
     1
102
RTVSPropertyOp29
 70
     1
102
RTVSPropertyOp30
 70
     1
102
RTVSPropertyOp31
 70
     1
102
RTVSPropertyOp32
 70
     1
102
RTVSPropertyOp33
 70
     1
102
RTVSPropertyOp34
 70
     1
102
RTVSPropertyOp35
 70
     1
102
RTVSPropertyOp36
 70
     1
102
RTVSPropertyOp37
 70
     1
102
RTVSPropertyOp38
 70
     1
102
RTVSPropertyOp39
 70
     1
102
RTVSPropertyOp40
 70
     1
102
RTVSPropertyOp41
 70
     1
102
RTVSPropertyOp42
 70
     1
102
RTVSPropertyOp43
 70
     1
102
RTVSPropertyOp44
 70
     1
102
RTVSPropertyOp45
 70
     1
102
RTVSPropertyOp46
 70
     1
102
RTVSPropertyOp47
 70
     1
102
RTVSPropertyOp48
 70
     1
102
RTVSPropertyOp49
 70
     1
102
RTVSPropertyOp50
 70
     1
102
RTVSPropertyOp51
 70
     0
102
RTVSPropertyOp52
 70
     0
102
RTVSPropertyOp53
 70
     1
102
RTVSPropertyOp54
 70
     1
102
RTVSPropertyOp55
 70
     1
102
RTVSPropertyOp56
 70
     1
102
RTVSPropertyOp57
 70
     1
102
RTVSPost2010Prop28
280
     0
102
RTVSPost2010PropOp28
 70
     1
102
RTVSPost2010Prop29
280
     1
102
RTVSPost2010PropOp29
 70
     1
102
RTVSPost2010Prop30
280
     1
102
RTVSPost2010PropOp30
 70
     1
102
RTVSPost2010Prop31
280
     0
102
RTVSPost2010PropOp31
 70
     1
102
RTVSPost2010Prop32
280
     0
102
RTVSPost2010PropOp32
 70
     1
102
RTVSPost2010Prop33
280
     0
102
RTVSPost2010PropOp33
 70
     1
102
RTVSPost2010Prop34
280
     0
102
RTVSPost2010PropOp34
 70
     1
102
RTVSPost2010Prop35
280
     0
102
RTVSPost2010PropOp35
 70
     1
102
RTVSPost2010Prop36
280
     0
102
RTVSPost2010PropOp36
 70
     1
102
RTVSPost2010Prop37
 90
       50
102
RTVSPost2010PropOp37
 70
     1
102
RTVSPost2010Prop38
140
0.0
102
RTVSPost2010PropOp38
 70
     1
102
RTVSPost2010Prop39
140
1.0
102
RTVSPost2010PropOp39
 70
     1
102
RTVSPost2010Prop40
 90
        0
102
RTVSPost2010PropOp40
 70
     1
102
RTVSPost2010Prop41ColorIndex
 90
       18
102
RTVSPost2010Prop41ColorRGB
 90
        0
102
RTVSPost2010PropOp41
 70
     1
102
RTVSPost2010Prop42
 90
       50
102
RTVSPost2010PropOp42
 70
     1
102
RTVSPost2010Prop43
 90
        3
102
RTVSPost2010PropOp43
 70
     1
102
RTVSPost2010Prop44ColorIndex
 90
        5
102
RTVSPost2010Prop44ColorRGB
 90
      255
102
RTVSPost2010PropOp44
 70
     1
102
RTVSPost2010Prop45
280
     0
102
RTVSPost2010PropOp45
 70
     1
102
RTVSPost2010Prop46
 90
       50
102
RTVSPost2010PropOp46
 70
     1
102
RTVSPost2010Prop47
 90
       50
102
RTVSPost2010PropOp47
 70
     1
102
RTVSPost2010Prop48
 90
       50
102
RTVSPost2010PropOp48
 70
     1
102
RTVSPost2010Prop49
280
     0
102
RTVSPost2010PropOp49
 70
     1
102
RTVSPost2010Prop50
 90
       50
102
RTVSPost2010PropOp50
 70
     1
102
RTVSPost2010Prop51ColorIndex
 90
      256
102
RTVSPost2010Prop51ColorRGB
 90
-16777216
102
RTVSPost2010PropOp51
 70
     0
102
RTVSPost2010Prop52
140
1.0
102
RTVSPost2010PropOp52
 70
     0
102
RTVSPost2010Prop53
 90
        2
102
RTVSPost2010PropOp53
 70
     1
102
RTVSPost2010Prop54
  1
strokes_ogs.tif
102
RTVSPost2010PropOp54
 70
     1
102
RTVSPost2010Prop55
280
     0
102
RTVSPost2010PropOp55
 70
     1
102
RTVSPost2010Prop56
140
1.0
102
RTVSPost2010PropOp56
 70
     1
102
RTVSPost2010Prop57
140
1.0
102
RTVSPost2010PropOp57
 70
     1
  0
XRECORD
  5
3AE
102
{ACAD_REACTORS
330
3AD
102
}
330
3AD
100
AcDbXrecord
280
     1
102
RTVSPropertyOp0
 70
     1
102
RTVSPropertyOp1
 70
     1
102
RTVSPropertyOp2
 70
     1
102
RTVSPropertyOp3
 70
     1
102
RTVSPropertyOp4
 70
     1
102
RTVSPropertyOp5
 70
     1
102
RTVSPropertyOp6
 70
     1
102
RTVSPropertyOp7
 70
     1
102
RTVSPropertyOp8
 70
     1
102
RTVSPropertyOp9
 70
     1
102
RTVSPropertyOp10
 70
     1
102
RTVSPropertyOp11
 70
     1
102
RTVSPropertyOp12
 70
     1
102
RTVSPropertyOp13
 70
     1
102
RTVSPropertyOp14
 70
     1
102
RTVSPropertyOp15
 70
     1
102
RTVSPropertyOp16
 70
     1
102
RTVSPropertyOp17
 70
     1
102
RTVSPropertyOp18
 70
     1
102
RTVSPropertyOp19
 70
     1
102
RTVSPropertyOp20
 70
     1
102
RTVSPropertyOp21
 70
     1
102
RTVSPropertyOp22
 70
     1
102
RTVSPropertyOp23
 70
     1
102
RTVSPropertyOp24
 70
     1
102
RTVSPropertyOp25
 70
     1
102
RTVSPropertyOp26
 70
     1
102
RTVSPropertyOp27
 70
     1
102
RTVSPropertyOp28
 70
     1
102
RTVSPropertyOp29
 70
     1
102
RTVSPropertyOp30
 70
     1
102
RTVSPropertyOp31
 70
     1
102
RTVSPropertyOp32
 70
     1
102
RTVSPropertyOp33
 70
     1
102
RTVSPropertyOp34
 70
     1
102
RTVSPropertyOp35
 70
     1
102
RTVSPropertyOp36
 70
     1
102
RTVSPropertyOp37
 70
     1
102
RTVSPropertyOp38
 70
     1
102
RTVSPropertyOp39
 70
     1
102
RTVSPropertyOp40
 70
     1
102
RTVSPropertyOp41
 70
     1
102
RTVSPropertyOp42
 70
     1
102
RTVSPropertyOp43
 70
     1
102
RTVSPropertyOp44
 70
     1
102
RTVSPropertyOp45
 70
     1
102
RTVSPropertyOp46
 70
     1
102
RTVSPropertyOp47
 70
     1
102
RTVSPropertyOp48
 70
     1
102
RTVSPropertyOp49
 70
     1
102
RTVSPropertyOp50
 70
     1
102
RTVSPropertyOp51
 70
     0
102
RTVSPropertyOp52
 70
     0
102
RTVSPropertyOp53
 70
     1
102
RTVSPropertyOp54
 70
     1
102
RTVSPropertyOp55
 70
     1
102
RTVSPropertyOp56
 70
     1
102
RTVSPropertyOp57
 70
     1
102
RTVSPost2010Prop28
280
     0
102
RTVSPost2010PropOp28
 70
     1
102
RTVSPost2010Prop29
280
     1
102
RTVSPost2010PropOp29
 70
     1
102
RTVSPost2010Prop30
280
     1
102
RTVSPost2010PropOp30
 70
     1
102
RTVSPost2010Prop31
280
     0
102
RTVSPost2010PropOp31
 70
     1
102
RTVSPost2010Prop32
280
     0
102
RTVSPost2010PropOp32
 70
     1
102
RTVSPost2010Prop33
280
     0
102
RTVSPost2010PropOp33
 70
     1
102
RTVSPost2010Prop34
280
     0
102
RTVSPost2010PropOp34
 70
     1
102
RTVSPost2010Prop35
280
     0
102
RTVSPost2010PropOp35
 70
     1
102
RTVSPost2010Prop36
280
     0
102
RTVSPost2010PropOp36
 70
     1
102
RTVSPost2010Prop37
 90
       50
102
RTVSPost2010PropOp37
 70
     1
102
RTVSPost2010Prop38
140
0.0
102
RTVSPost2010PropOp38
 70
     1
102
RTVSPost2010Prop39
140
1.0
102
RTVSPost2010PropOp39
 70
     1
102
RTVSPost2010Prop40
 90
        0
102
RTVSPost2010PropOp40
 70
     1
102
RTVSPost2010Prop41ColorIndex
 90
       18
102
RTVSPost2010Prop41ColorRGB
 90
        0
102
RTVSPost2010PropOp41
 70
     1
102
RTVSPost2010Prop42
 90
       50
102
RTVSPost2010PropOp42
 70
     1
102
RTVSPost2010Prop43
 90
        3
102
RTVSPost2010PropOp43
 70
     1
102
RTVSPost2010Prop44ColorIndex
 90
        5
102
RTVSPost2010Prop44ColorRGB
 90
      255
102
RTVSPost2010PropOp44
 70
     1
102
RTVSPost2010Prop45
280
     0
102
RTVSPost2010PropOp45
 70
     1
102
RTVSPost2010Prop46
 90
       50
102
RTVSPost2010PropOp46
 70
     1
102
RTVSPost2010Prop47
 90
       50
102
RTVSPost2010PropOp47
 70
     1
102
RTVSPost2010Prop48
 90
       50
102
RTVSPost2010PropOp48
 70
     1
102
RTVSPost2010Prop49
280
     0
102
RTVSPost2010PropOp49
 70
     1
102
RTVSPost2010Prop50
 90
       50
102
RTVSPost2010PropOp50
 70
     1
102
RTVSPost2010Prop51ColorIndex
 90
      256
102
RTVSPost2010Prop51ColorRGB
 90
-16777216
102
RTVSPost2010PropOp51
 70
     0
102
RTVSPost2010Prop52
140
1.0
102
RTVSPost2010PropOp52
 70
     0
102
RTVSPost2010Prop53
 90
        2
102
RTVSPost2010PropOp53
 70
     1
102
RTVSPost2010Prop54
  1
strokes_ogs.tif
102
RTVSPost2010PropOp54
 70
     1
102
RTVSPost2010Prop55
280
     0
102
RTVSPost2010PropOp55
 70
     1
102
RTVSPost2010Prop56
140
1.0
102
RTVSPost2010PropOp56
 70
     1
102
RTVSPost2010Prop57
140
1.0
102
RTVSPost2010PropOp57
 70
     1
  0
XRECORD
  5
3B0
102
{ACAD_REACTORS
330
3AF
102
}
330
3AF
100
AcDbXrecord
280
     1
102
RTVSPropertyOp0
 70
     1
102
RTVSPropertyOp1
 70
     1
102
RTVSPropertyOp2
 70
     1
102
RTVSPropertyOp3
 70
     1
102
RTVSPropertyOp4
 70
     1
102
RTVSPropertyOp5
 70
     1
102
RTVSPropertyOp6
 70
     1
102
RTVSPropertyOp7
 70
     1
102
RTVSPropertyOp8
 70
     1
102
RTVSPropertyOp9
 70
     1
102
RTVSPropertyOp10
 70
     1
102
RTVSPropertyOp11
 70
     1
102
RTVSPropertyOp12
 70
     1
102
RTVSPropertyOp13
 70
     1
102
RTVSPropertyOp14
 70
     1
102
RTVSPropertyOp15
 70
     1
102
RTVSPropertyOp16
 70
     1
102
RTVSPropertyOp17
 70
     1
102
RTVSPropertyOp18
 70
     1
102
RTVSPropertyOp19
 70
     1
102
RTVSPropertyOp20
 70
     1
102
RTVSPropertyOp21
 70
     1
102
RTVSPropertyOp22
 70
     1
102
RTVSPropertyOp23
 70
     1
102
RTVSPropertyOp24
 70
     1
102
RTVSPropertyOp25
 70
     1
102
RTVSPropertyOp26
 70
     1
102
RTVSPropertyOp27
 70
     1
102
RTVSPropertyOp28
 70
     1
102
RTVSPropertyOp29
 70
     1
102
RTVSPropertyOp30
 70
     1
102
RTVSPropertyOp31
 70
     1
102
RTVSPropertyOp32
 70
     1
102
RTVSPropertyOp33
 70
     1
102
RTVSPropertyOp34
 70
     1
102
RTVSPropertyOp35
 70
     1
102
RTVSPropertyOp36
 70
     1
102
RTVSPropertyOp37
 70
     1
102
RTVSPropertyOp38
 70
     1
102
RTVSPropertyOp39
 70
     1
102
RTVSPropertyOp40
 70
     1
102
RTVSPropertyOp41
 70
     1
102
RTVSPropertyOp42
 70
     1
102
RTVSPropertyOp43
 70
     1
102
RTVSPropertyOp44
 70
     1
102
RTVSPropertyOp45
 70
     1
102
RTVSPropertyOp46
 70
     1
102
RTVSPropertyOp47
 70
     1
102
RTVSPropertyOp48
 70
     1
102
RTVSPropertyOp49
 70
     1
102
RTVSPropertyOp50
 70
     1
102
RTVSPropertyOp51
 70
     0
102
RTVSPropertyOp52
 70
     0
102
RTVSPropertyOp53
 70
     1
102
RTVSPropertyOp54
 70
     1
102
RTVSPropertyOp55
 70
     1
102
RTVSPropertyOp56
 70
     1
102
RTVSPropertyOp57
 70
     1
102
RTVSPost2010Prop28
280
     0
102
RTVSPost2010PropOp28
 70
     1
102
RTVSPost2010Prop29
280
     1
102
RTVSPost2010PropOp29
 70
     1
102
RTVSPost2010Prop30
280
     1
102
RTVSPost2010PropOp30
 70
     1
102
RTVSPost2010Prop31
280
     0
102
RTVSPost2010PropOp31
 70
     1
102
RTVSPost2010Prop32
280
     0
102
RTVSPost2010PropOp32
 70
     1
102
RTVSPost2010Prop33
280
     0
102
RTVSPost2010PropOp33
 70
     1
102
RTVSPost2010Prop34
280
     0
102
RTVSPost2010PropOp34
 70
     1
102
RTVSPost2010Prop35
280
     0
102
RTVSPost2010PropOp35
 70
     1
102
RTVSPost2010Prop36
280
     0
102
RTVSPost2010PropOp36
 70
     1
102
RTVSPost2010Prop37
 90
       50
102
RTVSPost2010PropOp37
 70
     1
102
RTVSPost2010Prop38
140
0.0
102
RTVSPost2010PropOp38
 70
     1
102
RTVSPost2010Prop39
140
1.0
102
RTVSPost2010PropOp39
 70
     1
102
RTVSPost2010Prop40
 90
        0
102
RTVSPost2010PropOp40
 70
     1
102
RTVSPost2010Prop41ColorIndex
 90
       18
102
RTVSPost2010Prop41ColorRGB
 90
        0
102
RTVSPost2010PropOp41
 70
     1
102
RTVSPost2010Prop42
 90
       50
102
RTVSPost2010PropOp42
 70
     1
102
RTVSPost2010Prop43
 90
        3
102
RTVSPost2010PropOp43
 70
     1
102
RTVSPost2010Prop44ColorIndex
 90
        5
102
RTVSPost2010Prop44ColorRGB
 90
      255
102
RTVSPost2010PropOp44
 70
     1
102
RTVSPost2010Prop45
280
     0
102
RTVSPost2010PropOp45
 70
     1
102
RTVSPost2010Prop46
 90
       50
102
RTVSPost2010PropOp46
 70
     1
102
RTVSPost2010Prop47
 90
       50
102
RTVSPost2010PropOp47
 70
     1
102
RTVSPost2010Prop48
 90
       50
102
RTVSPost2010PropOp48
 70
     1
102
RTVSPost2010Prop49
280
     0
102
RTVSPost2010PropOp49
 70
     1
102
RTVSPost2010Prop50
 90
       50
102
RTVSPost2010PropOp50
 70
     1
102
RTVSPost2010Prop51ColorIndex
 90
      256
102
RTVSPost2010Prop51ColorRGB
 90
-16777216
102
RTVSPost2010PropOp51
 70
     0
102
RTVSPost2010Prop52
140
1.0
102
RTVSPost2010PropOp52
 70
     0
102
RTVSPost2010Prop53
 90
        2
102
RTVSPost2010PropOp53
 70
     1
102
RTVSPost2010Prop54
  1
strokes_ogs.tif
102
RTVSPost2010PropOp54
 70
     1
102
RTVSPost2010Prop55
280
     0
102
RTVSPost2010PropOp55
 70
     1
102
RTVSPost2010Prop56
140
1.0
102
RTVSPost2010PropOp56
 70
     1
102
RTVSPost2010Prop57
140
1.0
102
RTVSPost2010PropOp57
 70
     1
  0
XRECORD
  5
3C0
102
{ACAD_REACTORS
330
3BF
102
}
330
3BF
100
AcDbXrecord
280
     1
102
RTVSPropertyOp0
 70
     0
102
RTVSPropertyOp1
 70
     0
102
RTVSPropertyOp2
 70
     0
102
RTVSPropertyOp3
 70
     0
102
RTVSPropertyOp4
 70
     0
102
RTVSPropertyOp5
 70
     0
102
RTVSPropertyOp6
 70
     0
102
RTVSPropertyOp7
 70
     0
102
RTVSPropertyOp8
 70
     0
102
RTVSPropertyOp9
 70
     0
102
RTVSPropertyOp10
 70
     0
102
RTVSPropertyOp11
 70
     0
102
RTVSPropertyOp12
 70
     0
102
RTVSPropertyOp13
 70
     0
102
RTVSPropertyOp14
 70
     2
102
RTVSPropertyOp15
 70
     0
102
RTVSPropertyOp16
 70
     0
102
RTVSPropertyOp17
 70
     0
102
RTVSPropertyOp18
 70
     0
102
RTVSPropertyOp19
 70
     0
102
RTVSPropertyOp20
 70
     0
102
RTVSPropertyOp21
 70
     0
102
RTVSPropertyOp22
 70
     0
102
RTVSPropertyOp23
 70
     0
102
RTVSPropertyOp24
 70
     0
102
RTVSPropertyOp25
 70
     0
102
RTVSPropertyOp26
 70
     0
102
RTVSPropertyOp27
 70
     0
102
RTVSPropertyOp28
 70
     0
102
RTVSPropertyOp29
 70
     0
102
RTVSPropertyOp30
 70
     0
102
RTVSPropertyOp31
 70
     0
102
RTVSPropertyOp32
 70
     0
102
RTVSPropertyOp33
 70
     0
102
RTVSPropertyOp34
 70
     0
102
RTVSPropertyOp35
 70
     0
102
RTVSPropertyOp36
 70
     0
102
RTVSPropertyOp37
 70
     0
102
RTVSPropertyOp38
 70
     0
102
RTVSPropertyOp39
 70
     0
102
RTVSPropertyOp40
 70
     0
102
RTVSPropertyOp41
 70
     0
102
RTVSPropertyOp42
 70
     0
102
RTVSPropertyOp43
 70
     0
102
RTVSPropertyOp44
 70
     0
102
RTVSPropertyOp45
 70
     0
102
RTVSPropertyOp46
 70
     0
102
RTVSPropertyOp47
 70
     0
102
RTVSPropertyOp48
 70
     0
102
RTVSPropertyOp49
 70
     0
102
RTVSPropertyOp50
 70
     0
102
RTVSPropertyOp51
 70
     0
102
RTVSPropertyOp52
 70
     0
102
RTVSPropertyOp53
 70
     0
102
RTVSPropertyOp54
 70
     0
102
RTVSPropertyOp55
 70
     0
102
RTVSPropertyOp56
 70
     0
102
RTVSPropertyOp57
 70
     0
102
RTVSPost2010Prop28
280
     0
102
RTVSPost2010PropOp28
 70
     0
102
RTVSPost2010Prop29
280
     1
102
RTVSPost2010PropOp29
 70
     0
102
RTVSPost2010Prop30
280
     1
102
RTVSPost2010PropOp30
 70
     0
102
RTVSPost2010Prop31
280
     0
102
RTVSPost2010PropOp31
 70
     0
102
RTVSPost2010Prop32
280
     0
102
RTVSPost2010PropOp32
 70
     0
102
RTVSPost2010Prop33
280
     0
102
RTVSPost2010PropOp33
 70
     0
102
RTVSPost2010Prop34
280
     0
102
RTVSPost2010PropOp34
 70
     0
102
RTVSPost2010Prop35
280
     0
102
RTVSPost2010PropOp35
 70
     0
102
RTVSPost2010Prop36
280
     0
102
RTVSPost2010PropOp36
 70
     0
102
RTVSPost2010Prop37
 90
       50
102
RTVSPost2010PropOp37
 70
     0
102
RTVSPost2010Prop38
140
0.0
102
RTVSPost2010PropOp38
 70
     0
102
RTVSPost2010Prop39
140
1.0
102
RTVSPost2010PropOp39
 70
     0
102
RTVSPost2010Prop40
 90
        0
102
RTVSPost2010PropOp40
 70
     0
102
RTVSPost2010Prop41ColorIndex
 90
       18
102
RTVSPost2010Prop41ColorRGB
 90
        0
102
RTVSPost2010PropOp41
 70
     0
102
RTVSPost2010Prop42
 90
       50
102
RTVSPost2010PropOp42
 70
     0
102
RTVSPost2010Prop43
 90
        3
102
RTVSPost2010PropOp43
 70
     0
102
RTVSPost2010Prop44ColorIndex
 90
        5
102
RTVSPost2010Prop44ColorRGB
 90
      255
102
RTVSPost2010PropOp44
 70
     0
102
RTVSPost2010Prop45
280
     0
102
RTVSPost2010PropOp45
 70
     0
102
RTVSPost2010Prop46
 90
       50
102
RTVSPost2010PropOp46
 70
     0
102
RTVSPost2010Prop47
 90
       50
102
RTVSPost2010PropOp47
 70
     0
102
RTVSPost2010Prop48
 90
       50
102
RTVSPost2010PropOp48
 70
     0
102
RTVSPost2010Prop49
280
     0
102
RTVSPost2010PropOp49
 70
     0
102
RTVSPost2010Prop50
 90
       50
102
RTVSPost2010PropOp50
 70
     0
102
RTVSPost2010Prop51ColorIndex
 90
      256
102
RTVSPost2010Prop51ColorRGB
 90
-16777216
102
RTVSPost2010PropOp51
 70
     0
102
RTVSPost2010Prop52
140
1.0
102
RTVSPost2010PropOp52
 70
     0
102
RTVSPost2010Prop53
 90
        2
102
RTVSPost2010PropOp53
 70
     0
102
RTVSPost2010Prop54
  1
strokes_ogs.tif
102
RTVSPost2010PropOp54
 70
     0
102
RTVSPost2010Prop55
280
     0
102
RTVSPost2010PropOp55
 70
     0
102
RTVSPost2010Prop56
140
1.0
102
RTVSPost2010PropOp56
 70
     0
102
RTVSPost2010Prop57
140
1.0
102
RTVSPost2010PropOp57
 70
     0
  0
XRECORD
  5
3B8
102
{ACAD_REACTORS
330
3B7
102
}
330
3B7
100
AcDbXrecord
280
     1
102
RTVSPropertyOp0
 70
     1
102
RTVSPropertyOp1
 70
     1
102
RTVSPropertyOp2
 70
     1
102
RTVSPropertyOp3
 70
     1
102
RTVSPropertyOp4
 70
     1
102
RTVSPropertyOp5
 70
     1
102
RTVSPropertyOp6
 70
     1
102
RTVSPropertyOp7
 70
     1
102
RTVSPropertyOp8
 70
     1
102
RTVSPropertyOp9
 70
     1
102
RTVSPropertyOp10
 70
     1
102
RTVSPropertyOp11
 70
     1
102
RTVSPropertyOp12
 70
     1
102
RTVSPropertyOp13
 70
     1
102
RTVSPropertyOp14
 70
     1
102
RTVSPropertyOp15
 70
     1
102
RTVSPropertyOp16
 70
     1
102
RTVSPropertyOp17
 70
     1
102
RTVSPropertyOp18
 70
     1
102
RTVSPropertyOp19
 70
     1
102
RTVSPropertyOp20
 70
     1
102
RTVSPropertyOp21
 70
     1
102
RTVSPropertyOp22
 70
     1
102
RTVSPropertyOp23
 70
     1
102
RTVSPropertyOp24
 70
     1
102
RTVSPropertyOp25
 70
     1
102
RTVSPropertyOp26
 70
     1
102
RTVSPropertyOp27
 70
     1
102
RTVSPropertyOp28
 70
     1
102
RTVSPropertyOp29
 70
     1
102
RTVSPropertyOp30
 70
     1
102
RTVSPropertyOp31
 70
     1
102
RTVSPropertyOp32
 70
     1
102
RTVSPropertyOp33
 70
     1
102
RTVSPropertyOp34
 70
     1
102
RTVSPropertyOp35
 70
     1
102
RTVSPropertyOp36
 70
     1
102
RTVSPropertyOp37
 70
     1
102
RTVSPropertyOp38
 70
     1
102
RTVSPropertyOp39
 70
     1
102
RTVSPropertyOp40
 70
     1
102
RTVSPropertyOp41
 70
     1
102
RTVSPropertyOp42
 70
     1
102
RTVSPropertyOp43
 70
     1
102
RTVSPropertyOp44
 70
     1
102
RTVSPropertyOp45
 70
     1
102
RTVSPropertyOp46
 70
     1
102
RTVSPropertyOp47
 70
     1
102
RTVSPropertyOp48
 70
     1
102
RTVSPropertyOp49
 70
     1
102
RTVSPropertyOp50
 70
     1
102
RTVSPropertyOp51
 70
     0
102
RTVSPropertyOp52
 70
     0
102
RTVSPropertyOp53
 70
     1
102
RTVSPropertyOp54
 70
     1
102
RTVSPropertyOp55
 70
     1
102
RTVSPropertyOp56
 70
     1
102
RTVSPropertyOp57
 70
     1
102
RTVSPost2010Prop28
280
     0
102
RTVSPost2010PropOp28
 70
     1
102
RTVSPost2010Prop29
280
     1
102
RTVSPost2010PropOp29
 70
     1
102
RTVSPost2010Prop30
280
     1
102
RTVSPost2010PropOp30
 70
     1
102
RTVSPost2010Prop31
280
     0
102
RTVSPost2010PropOp31
 70
     1
102
RTVSPost2010Prop32
280
     0
102
RTVSPost2010PropOp32
 70
     1
102
RTVSPost2010Prop33
280
     0
102
RTVSPost2010PropOp33
 70
     1
102
RTVSPost2010Prop34
280
     0
102
RTVSPost2010PropOp34
 70
     1
102
RTVSPost2010Prop35
280
     0
102
RTVSPost2010PropOp35
 70
     1
102
RTVSPost2010Prop36
280
     0
102
RTVSPost2010PropOp36
 70
     1
102
RTVSPost2010Prop37
 90
       50
102
RTVSPost2010PropOp37
 70
     1
102
RTVSPost2010Prop38
140
0.0
102
RTVSPost2010PropOp38
 70
     1
102
RTVSPost2010Prop39
140
1.0
102
RTVSPost2010PropOp39
 70
     1
102
RTVSPost2010Prop40
 90
        0
102
RTVSPost2010PropOp40
 70
     1
102
RTVSPost2010Prop41ColorIndex
 90
       18
102
RTVSPost2010Prop41ColorRGB
 90
        0
102
RTVSPost2010PropOp41
 70
     1
102
RTVSPost2010Prop42
 90
       50
102
RTVSPost2010PropOp42
 70
     1
102
RTVSPost2010Prop43
 90
        3
102
RTVSPost2010PropOp43
 70
     1
102
RTVSPost2010Prop44ColorIndex
 90
        5
102
RTVSPost2010Prop44ColorRGB
 90
      255
102
RTVSPost2010PropOp44
 70
     1
102
RTVSPost2010Prop45
280
     0
102
RTVSPost2010PropOp45
 70
     1
102
RTVSPost2010Prop46
 90
       50
102
RTVSPost2010PropOp46
 70
     1
102
RTVSPost2010Prop47
 90
       50
102
RTVSPost2010PropOp47
 70
     1
102
RTVSPost2010Prop48
 90
       50
102
RTVSPost2010PropOp48
 70
     1
102
RTVSPost2010Prop49
280
     0
102
RTVSPost2010PropOp49
 70
     1
102
RTVSPost2010Prop50
 90
       50
102
RTVSPost2010PropOp50
 70
     1
102
RTVSPost2010Prop51ColorIndex
 90
      256
102
RTVSPost2010Prop51ColorRGB
 90
-16777216
102
RTVSPost2010PropOp51
 70
     0
102
RTVSPost2010Prop52
140
1.0
102
RTVSPost2010PropOp52
 70
     0
102
RTVSPost2010Prop53
 90
        2
102
RTVSPost2010PropOp53
 70
     1
102
RTVSPost2010Prop54
  1
strokes_ogs.tif
102
RTVSPost2010PropOp54
 70
     1
102
RTVSPost2010Prop55
280
     0
102
RTVSPost2010PropOp55
 70
     1
102
RTVSPost2010Prop56
140
1.0
102
RTVSPost2010PropOp56
 70
     1
102
RTVSPost2010Prop57
140
1.0
102
RTVSPost2010PropOp57
 70
     1
  0
XRECORD
  5
39C
102
{ACAD_REACTORS
330
39B
102
}
330
39B
100
AcDbXrecord
280
     1
102
RTVSPropertyOp0
 70
     1
102
RTVSPropertyOp1
 70
     1
102
RTVSPropertyOp2
 70
     1
102
RTVSPropertyOp3
 70
     1
102
RTVSPropertyOp4
 70
     1
102
RTVSPropertyOp5
 70
     1
102
RTVSPropertyOp6
 70
     1
102
RTVSPropertyOp7
 70
     1
102
RTVSPropertyOp8
 70
     1
102
RTVSPropertyOp9
 70
     1
102
RTVSPropertyOp10
 70
     1
102
RTVSPropertyOp11
 70
     1
102
RTVSPropertyOp12
 70
     1
102
RTVSPropertyOp13
 70
     1
102
RTVSPropertyOp14
 70
     1
102
RTVSPropertyOp15
 70
     1
102
RTVSPropertyOp16
 70
     1
102
RTVSPropertyOp17
 70
     1
102
RTVSPropertyOp18
 70
     1
102
RTVSPropertyOp19
 70
     1
102
RTVSPropertyOp20
 70
     1
102
RTVSPropertyOp21
 70
     1
102
RTVSPropertyOp22
 70
     1
102
RTVSPropertyOp23
 70
     1
102
RTVSPropertyOp24
 70
     1
102
RTVSPropertyOp25
 70
     1
102
RTVSPropertyOp26
 70
     1
102
RTVSPropertyOp27
 70
     1
102
RTVSPropertyOp28
 70
     1
102
RTVSPropertyOp29
 70
     1
102
RTVSPropertyOp30
 70
     1
102
RTVSPropertyOp31
 70
     1
102
RTVSPropertyOp32
 70
     1
102
RTVSPropertyOp33
 70
     1
102
RTVSPropertyOp34
 70
     1
102
RTVSPropertyOp35
 70
     1
102
RTVSPropertyOp36
 70
     1
102
RTVSPropertyOp37
 70
     1
102
RTVSPropertyOp38
 70
     1
102
RTVSPropertyOp39
 70
     1
102
RTVSPropertyOp40
 70
     1
102
RTVSPropertyOp41
 70
     1
102
RTVSPropertyOp42
 70
     1
102
RTVSPropertyOp43
 70
     1
102
RTVSPropertyOp44
 70
     1
102
RTVSPropertyOp45
 70
     1
102
RTVSPropertyOp46
 70
     1
102
RTVSPropertyOp47
 70
     1
102
RTVSPropertyOp48
 70
     1
102
RTVSPropertyOp49
 70
     1
102
RTVSPropertyOp50
 70
     1
102
RTVSPropertyOp51
 70
     0
102
RTVSPropertyOp52
 70
     0
102
RTVSPropertyOp53
 70
     1
102
RTVSPropertyOp54
 70
     1
102
RTVSPropertyOp55
 70
     1
102
RTVSPropertyOp56
 70
     1
102
RTVSPropertyOp57
 70
     1
102
RTVSPost2010Prop28
280
     0
102
RTVSPost2010PropOp28
 70
     1
102
RTVSPost2010Prop29
280
     1
102
RTVSPost2010PropOp29
 70
     1
102
RTVSPost2010Prop30
280
     1
102
RTVSPost2010PropOp30
 70
     1
102
RTVSPost2010Prop31
280
     0
102
RTVSPost2010PropOp31
 70
     1
102
RTVSPost2010Prop32
280
     0
102
RTVSPost2010PropOp32
 70
     1
102
RTVSPost2010Prop33
280
     0
102
RTVSPost2010PropOp33
 70
     1
102
RTVSPost2010Prop34
280
     0
102
RTVSPost2010PropOp34
 70
     1
102
RTVSPost2010Prop35
280
     0
102
RTVSPost2010PropOp35
 70
     1
102
RTVSPost2010Prop36
280
     0
102
RTVSPost2010PropOp36
 70
     1
102
RTVSPost2010Prop37
 90
       50
102
RTVSPost2010PropOp37
 70
     1
102
RTVSPost2010Prop38
140
0.0
102
RTVSPost2010PropOp38
 70
     1
102
RTVSPost2010Prop39
140
1.0
102
RTVSPost2010PropOp39
 70
     1
102
RTVSPost2010Prop40
 90
        0
102
RTVSPost2010PropOp40
 70
     1
102
RTVSPost2010Prop41ColorIndex
 90
       18
102
RTVSPost2010Prop41ColorRGB
 90
        0
102
RTVSPost2010PropOp41
 70
     1
102
RTVSPost2010Prop42
 90
       50
102
RTVSPost2010PropOp42
 70
     1
102
RTVSPost2010Prop43
 90
        3
102
RTVSPost2010PropOp43
 70
     1
102
RTVSPost2010Prop44ColorIndex
 90
        5
102
RTVSPost2010Prop44ColorRGB
 90
      255
102
RTVSPost2010PropOp44
 70
     1
102
RTVSPost2010Prop45
280
     0
102
RTVSPost2010PropOp45
 70
     1
102
RTVSPost2010Prop46
 90
       50
102
RTVSPost2010PropOp46
 70
     1
102
RTVSPost2010Prop47
 90
       50
102
RTVSPost2010PropOp47
 70
     1
102
RTVSPost2010Prop48
 90
       50
102
RTVSPost2010PropOp48
 70
     1
102
RTVSPost2010Prop49
280
     0
102
RTVSPost2010PropOp49
 70
     1
102
RTVSPost2010Prop50
 90
       50
102
RTVSPost2010PropOp50
 70
     1
102
RTVSPost2010Prop51ColorIndex
 90
      256
102
RTVSPost2010Prop51ColorRGB
 90
-16777216
102
RTVSPost2010PropOp51
 70
     0
102
RTVSPost2010Prop52
140
1.0
102
RTVSPost2010PropOp52
 70
     0
102
RTVSPost2010Prop53
 90
        2
102
RTVSPost2010PropOp53
 70
     1
102
RTVSPost2010Prop54
  1
strokes_ogs.tif
102
RTVSPost2010PropOp54
 70
     1
102
RTVSPost2010Prop55
280
     0
102
RTVSPost2010PropOp55
 70
     1
102
RTVSPost2010Prop56
140
1.0
102
RTVSPost2010PropOp56
 70
     1
102
RTVSPost2010Prop57
140
1.0
102
RTVSPost2010PropOp57
 70
     1
  0
XRECORD
  5
39E
102
{ACAD_REACTORS
330
39D
102
}
330
39D
100
AcDbXrecord
280
     1
102
RTVSPropertyOp0
 70
     1
102
RTVSPropertyOp1
 70
     1
102
RTVSPropertyOp2
 70
     1
102
RTVSPropertyOp3
 70
     1
102
RTVSPropertyOp4
 70
     1
102
RTVSPropertyOp5
 70
     1
102
RTVSPropertyOp6
 70
     1
102
RTVSPropertyOp7
 70
     1
102
RTVSPropertyOp8
 70
     1
102
RTVSPropertyOp9
 70
     1
102
RTVSPropertyOp10
 70
     1
102
RTVSPropertyOp11
 70
     1
102
RTVSPropertyOp12
 70
     1
102
RTVSPropertyOp13
 70
     1
102
RTVSPropertyOp14
 70
     1
102
RTVSPropertyOp15
 70
     1
102
RTVSPropertyOp16
 70
     1
102
RTVSPropertyOp17
 70
     1
102
RTVSPropertyOp18
 70
     1
102
RTVSPropertyOp19
 70
     1
102
RTVSPropertyOp20
 70
     1
102
RTVSPropertyOp21
 70
     1
102
RTVSPropertyOp22
 70
     1
102
RTVSPropertyOp23
 70
     1
102
RTVSPropertyOp24
 70
     1
102
RTVSPropertyOp25
 70
     1
102
RTVSPropertyOp26
 70
     1
102
RTVSPropertyOp27
 70
     1
102
RTVSPropertyOp28
 70
     1
102
RTVSPropertyOp29
 70
     1
102
RTVSPropertyOp30
 70
     1
102
RTVSPropertyOp31
 70
     1
102
RTVSPropertyOp32
 70
     1
102
RTVSPropertyOp33
 70
     1
102
RTVSPropertyOp34
 70
     1
102
RTVSPropertyOp35
 70
     1
102
RTVSPropertyOp36
 70
     1
102
RTVSPropertyOp37
 70
     1
102
RTVSPropertyOp38
 70
     1
102
RTVSPropertyOp39
 70
     1
102
RTVSPropertyOp40
 70
     1
102
RTVSPropertyOp41
 70
     1
102
RTVSPropertyOp42
 70
     1
102
RTVSPropertyOp43
 70
     1
102
RTVSPropertyOp44
 70
     1
102
RTVSPropertyOp45
 70
     1
102
RTVSPropertyOp46
 70
     1
102
RTVSPropertyOp47
 70
     1
102
RTVSPropertyOp48
 70
     1
102
RTVSPropertyOp49
 70
     1
102
RTVSPropertyOp50
 70
     1
102
RTVSPropertyOp51
 70
     0
102
RTVSPropertyOp52
 70
     0
102
RTVSPropertyOp53
 70
     1
102
RTVSPropertyOp54
 70
     1
102
RTVSPropertyOp55
 70
     1
102
RTVSPropertyOp56
 70
     1
102
RTVSPropertyOp57
 70
     1
102
RTVSPost2010Prop28
280
     0
102
RTVSPost2010PropOp28
 70
     1
102
RTVSPost2010Prop29
280
     1
102
RTVSPost2010PropOp29
 70
     1
102
RTVSPost2010Prop30
280
     1
102
RTVSPost2010PropOp30
 70
     1
102
RTVSPost2010Prop31
280
     0
102
RTVSPost2010PropOp31
 70
     1
102
RTVSPost2010Prop32
280
     0
102
RTVSPost2010PropOp32
 70
     1
102
RTVSPost2010Prop33
280
     0
102
RTVSPost2010PropOp33
 70
     1
102
RTVSPost2010Prop34
280
     0
102
RTVSPost2010PropOp34
 70
     1
102
RTVSPost2010Prop35
280
     0
102
RTVSPost2010PropOp35
 70
     1
102
RTVSPost2010Prop36
280
     0
102
RTVSPost2010PropOp36
 70
     1
102
RTVSPost2010Prop37
 90
       50
102
RTVSPost2010PropOp37
 70
     1
102
RTVSPost2010Prop38
140
0.0
102
RTVSPost2010PropOp38
 70
     1
102
RTVSPost2010Prop39
140
1.0
102
RTVSPost2010PropOp39
 70
     1
102
RTVSPost2010Prop40
 90
        0
102
RTVSPost2010PropOp40
 70
     1
102
RTVSPost2010Prop41ColorIndex
 90
       18
102
RTVSPost2010Prop41ColorRGB
 90
        0
102
RTVSPost2010PropOp41
 70
     1
102
RTVSPost2010Prop42
 90
       50
102
RTVSPost2010PropOp42
 70
     1
102
RTVSPost2010Prop43
 90
        3
102
RTVSPost2010PropOp43
 70
     1
102
RTVSPost2010Prop44ColorIndex
 90
        5
102
RTVSPost2010Prop44ColorRGB
 90
      255
102
RTVSPost2010PropOp44
 70
     1
102
RTVSPost2010Prop45
280
     0
102
RTVSPost2010PropOp45
 70
     1
102
RTVSPost2010Prop46
 90
       50
102
RTVSPost2010PropOp46
 70
     1
102
RTVSPost2010Prop47
 90
       50
102
RTVSPost2010PropOp47
 70
     1
102
RTVSPost2010Prop48
 90
       50
102
RTVSPost2010PropOp48
 70
     1
102
RTVSPost2010Prop49
280
     0
102
RTVSPost2010PropOp49
 70
     1
102
RTVSPost2010Prop50
 90
       50
102
RTVSPost2010PropOp50
 70
     1
102
RTVSPost2010Prop51ColorIndex
 90
      256
102
RTVSPost2010Prop51ColorRGB
 90
-16777216
102
RTVSPost2010PropOp51
 70
     0
102
RTVSPost2010Prop52
140
1.0
102
RTVSPost2010PropOp52
 70
     0
102
RTVSPost2010Prop53
 90
        2
102
RTVSPost2010PropOp53
 70
     1
102
RTVSPost2010Prop54
  1
strokes_ogs.tif
102
RTVSPost2010PropOp54
 70
     1
102
RTVSPost2010Prop55
280
     0
102
RTVSPost2010PropOp55
 70
     1
102
RTVSPost2010Prop56
140
1.0
102
RTVSPost2010PropOp56
 70
     1
102
RTVSPost2010Prop57
140
1.0
102
RTVSPost2010PropOp57
 70
     1
  0
XRECORD
  5
3A0
102
{ACAD_REACTORS
330
39F
102
}
330
39F
100
AcDbXrecord
280
     1
102
RTVSPropertyOp0
 70
     1
102
RTVSPropertyOp1
 70
     1
102
RTVSPropertyOp2
 70
     1
102
RTVSPropertyOp3
 70
     1
102
RTVSPropertyOp4
 70
     1
102
RTVSPropertyOp5
 70
     1
102
RTVSPropertyOp6
 70
     1
102
RTVSPropertyOp7
 70
     1
102
RTVSPropertyOp8
 70
     1
102
RTVSPropertyOp9
 70
     1
102
RTVSPropertyOp10
 70
     1
102
RTVSPropertyOp11
 70
     1
102
RTVSPropertyOp12
 70
     1
102
RTVSPropertyOp13
 70
     1
102
RTVSPropertyOp14
 70
     1
102
RTVSPropertyOp15
 70
     1
102
RTVSPropertyOp16
 70
     1
102
RTVSPropertyOp17
 70
     1
102
RTVSPropertyOp18
 70
     1
102
RTVSPropertyOp19
 70
     1
102
RTVSPropertyOp20
 70
     1
102
RTVSPropertyOp21
 70
     1
102
RTVSPropertyOp22
 70
     1
102
RTVSPropertyOp23
 70
     1
102
RTVSPropertyOp24
 70
     1
102
RTVSPropertyOp25
 70
     1
102
RTVSPropertyOp26
 70
     1
102
RTVSPropertyOp27
 70
     1
102
RTVSPropertyOp28
 70
     1
102
RTVSPropertyOp29
 70
     1
102
RTVSPropertyOp30
 70
     1
102
RTVSPropertyOp31
 70
     1
102
RTVSPropertyOp32
 70
     1
102
RTVSPropertyOp33
 70
     1
102
RTVSPropertyOp34
 70
     1
102
RTVSPropertyOp35
 70
     1
102
RTVSPropertyOp36
 70
     1
102
RTVSPropertyOp37
 70
     1
102
RTVSPropertyOp38
 70
     1
102
RTVSPropertyOp39
 70
     1
102
RTVSPropertyOp40
 70
     1
102
RTVSPropertyOp41
 70
     1
102
RTVSPropertyOp42
 70
     1
102
RTVSPropertyOp43
 70
     1
102
RTVSPropertyOp44
 70
     1
102
RTVSPropertyOp45
 70
     1
102
RTVSPropertyOp46
 70
     1
102
RTVSPropertyOp47
 70
     1
102
RTVSPropertyOp48
 70
     1
102
RTVSPropertyOp49
 70
     1
102
RTVSPropertyOp50
 70
     1
102
RTVSPropertyOp51
 70
     0
102
RTVSPropertyOp52
 70
     0
102
RTVSPropertyOp53
 70
     1
102
RTVSPropertyOp54
 70
     1
102
RTVSPropertyOp55
 70
     1
102
RTVSPropertyOp56
 70
     1
102
RTVSPropertyOp57
 70
     1
102
RTVSPost2010Prop28
280
     0
102
RTVSPost2010PropOp28
 70
     1
102
RTVSPost2010Prop29
280
     1
102
RTVSPost2010PropOp29
 70
     1
102
RTVSPost2010Prop30
280
     1
102
RTVSPost2010PropOp30
 70
     1
102
RTVSPost2010Prop31
280
     0
102
RTVSPost2010PropOp31
 70
     1
102
RTVSPost2010Prop32
280
     0
102
RTVSPost2010PropOp32
 70
     1
102
RTVSPost2010Prop33
280
     0
102
RTVSPost2010PropOp33
 70
     1
102
RTVSPost2010Prop34
280
     0
102
RTVSPost2010PropOp34
 70
     1
102
RTVSPost2010Prop35
280
     0
102
RTVSPost2010PropOp35
 70
     1
102
RTVSPost2010Prop36
280
     0
102
RTVSPost2010PropOp36
 70
     1
102
RTVSPost2010Prop37
 90
       50
102
RTVSPost2010PropOp37
 70
     1
102
RTVSPost2010Prop38
140
0.0
102
RTVSPost2010PropOp38
 70
     1
102
RTVSPost2010Prop39
140
1.0
102
RTVSPost2010PropOp39
 70
     1
102
RTVSPost2010Prop40
 90
        0
102
RTVSPost2010PropOp40
 70
     1
102
RTVSPost2010Prop41ColorIndex
 90
       18
102
RTVSPost2010Prop41ColorRGB
 90
        0
102
RTVSPost2010PropOp41
 70
     1
102
RTVSPost2010Prop42
 90
       50
102
RTVSPost2010PropOp42
 70
     1
102
RTVSPost2010Prop43
 90
        3
102
RTVSPost2010PropOp43
 70
     1
102
RTVSPost2010Prop44ColorIndex
 90
        5
102
RTVSPost2010Prop44ColorRGB
 90
      255
102
RTVSPost2010PropOp44
 70
     1
102
RTVSPost2010Prop45
280
     0
102
RTVSPost2010PropOp45
 70
     1
102
RTVSPost2010Prop46
 90
       50
102
RTVSPost2010PropOp46
 70
     1
102
RTVSPost2010Prop47
 90
       50
102
RTVSPost2010PropOp47
 70
     1
102
RTVSPost2010Prop48
 90
       50
102
RTVSPost2010PropOp48
 70
     1
102
RTVSPost2010Prop49
280
     0
102
RTVSPost2010PropOp49
 70
     1
102
RTVSPost2010Prop50
 90
       50
102
RTVSPost2010PropOp50
 70
     1
102
RTVSPost2010Prop51ColorIndex
 90
      256
102
RTVSPost2010Prop51ColorRGB
 90
-16777216
102
RTVSPost2010PropOp51
 70
     0
102
RTVSPost2010Prop52
140
1.0
102
RTVSPost2010PropOp52
 70
     0
102
RTVSPost2010Prop53
 90
        2
102
RTVSPost2010PropOp53
 70
     1
102
RTVSPost2010Prop54
  1
strokes_ogs.tif
102
RTVSPost2010PropOp54
 70
     1
102
RTVSPost2010Prop55
280
     0
102
RTVSPost2010PropOp55
 70
     1
102
RTVSPost2010Prop56
140
1.0
102
RTVSPost2010PropOp56
 70
     1
102
RTVSPost2010Prop57
140
1.0
102
RTVSPost2010PropOp57
 70
     1
  0
XRECORD
  5
3A2
102
{ACAD_REACTORS
330
3A1
102
}
330
3A1
100
AcDbXrecord
280
     1
102
RTVSPropertyOp0
 70
     1
102
RTVSPropertyOp1
 70
     1
102
RTVSPropertyOp2
 70
     1
102
RTVSPropertyOp3
 70
     1
102
RTVSPropertyOp4
 70
     1
102
RTVSPropertyOp5
 70
     1
102
RTVSPropertyOp6
 70
     1
102
RTVSPropertyOp7
 70
     1
102
RTVSPropertyOp8
 70
     1
102
RTVSPropertyOp9
 70
     1
102
RTVSPropertyOp10
 70
     1
102
RTVSPropertyOp11
 70
     1
102
RTVSPropertyOp12
 70
     1
102
RTVSPropertyOp13
 70
     1
102
RTVSPropertyOp14
 70
     1
102
RTVSPropertyOp15
 70
     1
102
RTVSPropertyOp16
 70
     1
102
RTVSPropertyOp17
 70
     1
102
RTVSPropertyOp18
 70
     1
102
RTVSPropertyOp19
 70
     1
102
RTVSPropertyOp20
 70
     1
102
RTVSPropertyOp21
 70
     1
102
RTVSPropertyOp22
 70
     1
102
RTVSPropertyOp23
 70
     1
102
RTVSPropertyOp24
 70
     1
102
RTVSPropertyOp25
 70
     1
102
RTVSPropertyOp26
 70
     1
102
RTVSPropertyOp27
 70
     1
102
RTVSPropertyOp28
 70
     1
102
RTVSPropertyOp29
 70
     1
102
RTVSPropertyOp30
 70
     1
102
RTVSPropertyOp31
 70
     1
102
RTVSPropertyOp32
 70
     1
102
RTVSPropertyOp33
 70
     1
102
RTVSPropertyOp34
 70
     1
102
RTVSPropertyOp35
 70
     1
102
RTVSPropertyOp36
 70
     1
102
RTVSPropertyOp37
 70
     1
102
RTVSPropertyOp38
 70
     1
102
RTVSPropertyOp39
 70
     1
102
RTVSPropertyOp40
 70
     1
102
RTVSPropertyOp41
 70
     1
102
RTVSPropertyOp42
 70
     1
102
RTVSPropertyOp43
 70
     1
102
RTVSPropertyOp44
 70
     1
102
RTVSPropertyOp45
 70
     1
102
RTVSPropertyOp46
 70
     1
102
RTVSPropertyOp47
 70
     1
102
RTVSPropertyOp48
 70
     1
102
RTVSPropertyOp49
 70
     1
102
RTVSPropertyOp50
 70
     1
102
RTVSPropertyOp51
 70
     0
102
RTVSPropertyOp52
 70
     0
102
RTVSPropertyOp53
 70
     1
102
RTVSPropertyOp54
 70
     1
102
RTVSPropertyOp55
 70
     1
102
RTVSPropertyOp56
 70
     1
102
RTVSPropertyOp57
 70
     1
102
RTVSPost2010Prop28
280
     0
102
RTVSPost2010PropOp28
 70
     1
102
RTVSPost2010Prop29
280
     1
102
RTVSPost2010PropOp29
 70
     1
102
RTVSPost2010Prop30
280
     1
102
RTVSPost2010PropOp30
 70
     1
102
RTVSPost2010Prop31
280
     0
102
RTVSPost2010PropOp31
 70
     1
102
RTVSPost2010Prop32
280
     0
102
RTVSPost2010PropOp32
 70
     1
102
RTVSPost2010Prop33
280
     0
102
RTVSPost2010PropOp33
 70
     1
102
RTVSPost2010Prop34
280
     0
102
RTVSPost2010PropOp34
 70
     1
102
RTVSPost2010Prop35
280
     0
102
RTVSPost2010PropOp35
 70
     1
102
RTVSPost2010Prop36
280
     0
102
RTVSPost2010PropOp36
 70
     1
102
RTVSPost2010Prop37
 90
       50
102
RTVSPost2010PropOp37
 70
     1
102
RTVSPost2010Prop38
140
0.0
102
RTVSPost2010PropOp38
 70
     1
102
RTVSPost2010Prop39
140
1.0
102
RTVSPost2010PropOp39
 70
     1
102
RTVSPost2010Prop40
 90
        0
102
RTVSPost2010PropOp40
 70
     1
102
RTVSPost2010Prop41ColorIndex
 90
       18
102
RTVSPost2010Prop41ColorRGB
 90
        0
102
RTVSPost2010PropOp41
 70
     1
102
RTVSPost2010Prop42
 90
       50
102
RTVSPost2010PropOp42
 70
     1
102
RTVSPost2010Prop43
 90
        3
102
RTVSPost2010PropOp43
 70
     1
102
RTVSPost2010Prop44ColorIndex
 90
        5
102
RTVSPost2010Prop44ColorRGB
 90
      255
102
RTVSPost2010PropOp44
 70
     1
102
RTVSPost2010Prop45
280
     0
102
RTVSPost2010PropOp45
 70
     1
102
RTVSPost2010Prop46
 90
       50
102
RTVSPost2010PropOp46
 70
     1
102
RTVSPost2010Prop47
 90
       50
102
RTVSPost2010PropOp47
 70
     1
102
RTVSPost2010Prop48
 90
       50
102
RTVSPost2010PropOp48
 70
     1
102
RTVSPost2010Prop49
280
     0
102
RTVSPost2010PropOp49
 70
     1
102
RTVSPost2010Prop50
 90
       50
102
RTVSPost2010PropOp50
 70
     1
102
RTVSPost2010Prop51ColorIndex
 90
      256
102
RTVSPost2010Prop51ColorRGB
 90
-16777216
102
RTVSPost2010PropOp51
 70
     0
102
RTVSPost2010Prop52
140
1.0
102
RTVSPost2010PropOp52
 70
     0
102
RTVSPost2010Prop53
 90
        2
102
RTVSPost2010PropOp53
 70
     1
102
RTVSPost2010Prop54
  1
strokes_ogs.tif
102
RTVSPost2010PropOp54
 70
     1
102
RTVSPost2010Prop55
280
     0
102
RTVSPost2010PropOp55
 70
     1
102
RTVSPost2010Prop56
140
1.0
102
RTVSPost2010PropOp56
 70
     1
102
RTVSPost2010Prop57
140
1.0
102
RTVSPost2010PropOp57
 70
     1
  0
XRECORD
  5
3A8
102
{ACAD_REACTORS
330
3A7
102
}
330
3A7
100
AcDbXrecord
280
     1
102
RTVSPropertyOp0
 70
     1
102
RTVSPropertyOp1
 70
     1
102
RTVSPropertyOp2
 70
     1
102
RTVSPropertyOp3
 70
     1
102
RTVSPropertyOp4
 70
     1
102
RTVSPropertyOp5
 70
     1
102
RTVSPropertyOp6
 70
     1
102
RTVSPropertyOp7
 70
     1
102
RTVSPropertyOp8
 70
     1
102
RTVSPropertyOp9
 70
     1
102
RTVSPropertyOp10
 70
     1
102
RTVSPropertyOp11
 70
     1
102
RTVSPropertyOp12
 70
     1
102
RTVSPropertyOp13
 70
     1
102
RTVSPropertyOp14
 70
     1
102
RTVSPropertyOp15
 70
     1
102
RTVSPropertyOp16
 70
     1
102
RTVSPropertyOp17
 70
     1
102
RTVSPropertyOp18
 70
     1
102
RTVSPropertyOp19
 70
     1
102
RTVSPropertyOp20
 70
     1
102
RTVSPropertyOp21
 70
     1
102
RTVSPropertyOp22
 70
     1
102
RTVSPropertyOp23
 70
     1
102
RTVSPropertyOp24
 70
     1
102
RTVSPropertyOp25
 70
     1
102
RTVSPropertyOp26
 70
     1
102
RTVSPropertyOp27
 70
     1
102
RTVSPropertyOp28
 70
     1
102
RTVSPropertyOp29
 70
     1
102
RTVSPropertyOp30
 70
     1
102
RTVSPropertyOp31
 70
     1
102
RTVSPropertyOp32
 70
     1
102
RTVSPropertyOp33
 70
     1
102
RTVSPropertyOp34
 70
     1
102
RTVSPropertyOp35
 70
     1
102
RTVSPropertyOp36
 70
     1
102
RTVSPropertyOp37
 70
     1
102
RTVSPropertyOp38
 70
     1
102
RTVSPropertyOp39
 70
     1
102
RTVSPropertyOp40
 70
     1
102
RTVSPropertyOp41
 70
     1
102
RTVSPropertyOp42
 70
     1
102
RTVSPropertyOp43
 70
     1
102
RTVSPropertyOp44
 70
     1
102
RTVSPropertyOp45
 70
     1
102
RTVSPropertyOp46
 70
     1
102
RTVSPropertyOp47
 70
     1
102
RTVSPropertyOp48
 70
     1
102
RTVSPropertyOp49
 70
     1
102
RTVSPropertyOp50
 70
     1
102
RTVSPropertyOp51
 70
     0
102
RTVSPropertyOp52
 70
     0
102
RTVSPropertyOp53
 70
     1
102
RTVSPropertyOp54
 70
     1
102
RTVSPropertyOp55
 70
     1
102
RTVSPropertyOp56
 70
     1
102
RTVSPropertyOp57
 70
     1
102
RTVSPost2010Prop28
280
     0
102
RTVSPost2010PropOp28
 70
     1
102
RTVSPost2010Prop29
280
     1
102
RTVSPost2010PropOp29
 70
     1
102
RTVSPost2010Prop30
280
     1
102
RTVSPost2010PropOp30
 70
     1
102
RTVSPost2010Prop31
280
     0
102
RTVSPost2010PropOp31
 70
     1
102
RTVSPost2010Prop32
280
     0
102
RTVSPost2010PropOp32
 70
     1
102
RTVSPost2010Prop33
280
     0
102
RTVSPost2010PropOp33
 70
     1
102
RTVSPost2010Prop34
280
     0
102
RTVSPost2010PropOp34
 70
     1
102
RTVSPost2010Prop35
280
     0
102
RTVSPost2010PropOp35
 70
     1
102
RTVSPost2010Prop36
280
     0
102
RTVSPost2010PropOp36
 70
     1
102
RTVSPost2010Prop37
 90
       50
102
RTVSPost2010PropOp37
 70
     1
102
RTVSPost2010Prop38
140
0.0
102
RTVSPost2010PropOp38
 70
     1
102
RTVSPost2010Prop39
140
1.0
102
RTVSPost2010PropOp39
 70
     1
102
RTVSPost2010Prop40
 90
        0
102
RTVSPost2010PropOp40
 70
     1
102
RTVSPost2010Prop41ColorIndex
 90
       18
102
RTVSPost2010Prop41ColorRGB
 90
        0
102
RTVSPost2010PropOp41
 70
     1
102
RTVSPost2010Prop42
 90
       50
102
RTVSPost2010PropOp42
 70
     1
102
RTVSPost2010Prop43
 90
        3
102
RTVSPost2010PropOp43
 70
     1
102
RTVSPost2010Prop44ColorIndex
 90
        5
102
RTVSPost2010Prop44ColorRGB
 90
      255
102
RTVSPost2010PropOp44
 70
     1
102
RTVSPost2010Prop45
280
     0
102
RTVSPost2010PropOp45
 70
     1
102
RTVSPost2010Prop46
 90
       50
102
RTVSPost2010PropOp46
 70
     1
102
RTVSPost2010Prop47
 90
       50
102
RTVSPost2010PropOp47
 70
     1
102
RTVSPost2010Prop48
 90
       50
102
RTVSPost2010PropOp48
 70
     1
102
RTVSPost2010Prop49
280
     0
102
RTVSPost2010PropOp49
 70
     1
102
RTVSPost2010Prop50
 90
       50
102
RTVSPost2010PropOp50
 70
     1
102
RTVSPost2010Prop51ColorIndex
 90
      256
102
RTVSPost2010Prop51ColorRGB
 90
-16777216
102
RTVSPost2010PropOp51
 70
     0
102
RTVSPost2010Prop52
140
1.0
102
RTVSPost2010PropOp52
 70
     0
102
RTVSPost2010Prop53
 90
        2
102
RTVSPost2010PropOp53
 70
     1
102
RTVSPost2010Prop54
  1
strokes_ogs.tif
102
RTVSPost2010PropOp54
 70
     1
102
RTVSPost2010Prop55
280
     0
102
RTVSPost2010PropOp55
 70
     1
102
RTVSPost2010Prop56
140
1.0
102
RTVSPost2010PropOp56
 70
     1
102
RTVSPost2010Prop57
140
1.0
102
RTVSPost2010PropOp57
 70
     1
  0
XRECORD
  5
3BC
102
{ACAD_REACTORS
330
3BB
102
}
330
3BB
100
AcDbXrecord
280
     1
102
RTVSPropertyOp0
 70
     0
102
RTVSPropertyOp1
 70
     0
102
RTVSPropertyOp2
 70
     0
102
RTVSPropertyOp3
 70
     0
102
RTVSPropertyOp4
 70
     0
102
RTVSPropertyOp5
 70
     0
102
RTVSPropertyOp6
 70
     0
102
RTVSPropertyOp7
 70
     0
102
RTVSPropertyOp8
 70
     0
102
RTVSPropertyOp9
 70
     0
102
RTVSPropertyOp10
 70
     0
102
RTVSPropertyOp11
 70
     0
102
RTVSPropertyOp12
 70
     0
102
RTVSPropertyOp13
 70
     0
102
RTVSPropertyOp14
 70
     2
102
RTVSPropertyOp15
 70
     0
102
RTVSPropertyOp16
 70
     0
102
RTVSPropertyOp17
 70
     0
102
RTVSPropertyOp18
 70
     0
102
RTVSPropertyOp19
 70
     0
102
RTVSPropertyOp20
 70
     0
102
RTVSPropertyOp21
 70
     0
102
RTVSPropertyOp22
 70
     0
102
RTVSPropertyOp23
 70
     0
102
RTVSPropertyOp24
 70
     0
102
RTVSPropertyOp25
 70
     0
102
RTVSPropertyOp26
 70
     0
102
RTVSPropertyOp27
 70
     0
102
RTVSPropertyOp28
 70
     0
102
RTVSPropertyOp29
 70
     0
102
RTVSPropertyOp30
 70
     0
102
RTVSPropertyOp31
 70
     0
102
RTVSPropertyOp32
 70
     0
102
RTVSPropertyOp33
 70
     0
102
RTVSPropertyOp34
 70
     0
102
RTVSPropertyOp35
 70
     0
102
RTVSPropertyOp36
 70
     0
102
RTVSPropertyOp37
 70
     0
102
RTVSPropertyOp38
 70
     0
102
RTVSPropertyOp39
 70
     0
102
RTVSPropertyOp40
 70
     0
102
RTVSPropertyOp41
 70
     0
102
RTVSPropertyOp42
 70
     0
102
RTVSPropertyOp43
 70
     0
102
RTVSPropertyOp44
 70
     0
102
RTVSPropertyOp45
 70
     0
102
RTVSPropertyOp46
 70
     0
102
RTVSPropertyOp47
 70
     0
102
RTVSPropertyOp48
 70
     0
102
RTVSPropertyOp49
 70
     0
102
RTVSPropertyOp50
 70
     0
102
RTVSPropertyOp51
 70
     0
102
RTVSPropertyOp52
 70
     0
102
RTVSPropertyOp53
 70
     0
102
RTVSPropertyOp54
 70
     0
102
RTVSPropertyOp55
 70
     0
102
RTVSPropertyOp56
 70
     0
102
RTVSPropertyOp57
 70
     0
102
RTVSPost2010Prop28
280
     0
102
RTVSPost2010PropOp28
 70
     0
102
RTVSPost2010Prop29
280
     1
102
RTVSPost2010PropOp29
 70
     0
102
RTVSPost2010Prop30
280
     1
102
RTVSPost2010PropOp30
 70
     0
102
RTVSPost2010Prop31
280
     0
102
RTVSPost2010PropOp31
 70
     0
102
RTVSPost2010Prop32
280
     0
102
RTVSPost2010PropOp32
 70
     0
102
RTVSPost2010Prop33
280
     0
102
RTVSPost2010PropOp33
 70
     0
102
RTVSPost2010Prop34
280
     0
102
RTVSPost2010PropOp34
 70
     0
102
RTVSPost2010Prop35
280
     0
102
RTVSPost2010PropOp35
 70
     0
102
RTVSPost2010Prop36
280
     0
102
RTVSPost2010PropOp36
 70
     0
102
RTVSPost2010Prop37
 90
       50
102
RTVSPost2010PropOp37
 70
     0
102
RTVSPost2010Prop38
140
0.0
102
RTVSPost2010PropOp38
 70
     0
102
RTVSPost2010Prop39
140
1.0
102
RTVSPost2010PropOp39
 70
     0
102
RTVSPost2010Prop40
 90
        0
102
RTVSPost2010PropOp40
 70
     0
102
RTVSPost2010Prop41ColorIndex
 90
       18
102
RTVSPost2010Prop41ColorRGB
 90
        0
102
RTVSPost2010PropOp41
 70
     0
102
RTVSPost2010Prop42
 90
       50
102
RTVSPost2010PropOp42
 70
     0
102
RTVSPost2010Prop43
 90
        3
102
RTVSPost2010PropOp43
 70
     0
102
RTVSPost2010Prop44ColorIndex
 90
        5
102
RTVSPost2010Prop44ColorRGB
 90
      255
102
RTVSPost2010PropOp44
 70
     0
102
RTVSPost2010Prop45
280
     0
102
RTVSPost2010PropOp45
 70
     0
102
RTVSPost2010Prop46
 90
       50
102
RTVSPost2010PropOp46
 70
     0
102
RTVSPost2010Prop47
 90
       50
102
RTVSPost2010PropOp47
 70
     0
102
RTVSPost2010Prop48
 90
       50
102
RTVSPost2010PropOp48
 70
     0
102
RTVSPost2010Prop49
280
     0
102
RTVSPost2010PropOp49
 70
     0
102
RTVSPost2010Prop50
 90
       50
102
RTVSPost2010PropOp50
 70
     0
102
RTVSPost2010Prop51ColorIndex
 90
      256
102
RTVSPost2010Prop51ColorRGB
 90
-16777216
102
RTVSPost2010PropOp51
 70
     0
102
RTVSPost2010Prop52
140
1.0
102
RTVSPost2010PropOp52
 70
     0
102
RTVSPost2010Prop53
 90
        2
102
RTVSPost2010PropOp53
 70
     0
102
RTVSPost2010Prop54
  1
strokes_ogs.tif
102
RTVSPost2010PropOp54
 70
     0
102
RTVSPost2010Prop55
280
     0
102
RTVSPost2010PropOp55
 70
     0
102
RTVSPost2010Prop56
140
1.0
102
RTVSPost2010PropOp56
 70
     0
102
RTVSPost2010Prop57
140
1.0
102
RTVSPost2010PropOp57
 70
     0
  0
XRECORD
  5
3B6
102
{ACAD_REACTORS
330
3B5
102
}
330
3B5
100
AcDbXrecord
280
     1
102
RTVSPropertyOp0
 70
     1
102
RTVSPropertyOp1
 70
     1
102
RTVSPropertyOp2
 70
     1
102
RTVSPropertyOp3
 70
     1
102
RTVSPropertyOp4
 70
     1
102
RTVSPropertyOp5
 70
     1
102
RTVSPropertyOp6
 70
     1
102
RTVSPropertyOp7
 70
     1
102
RTVSPropertyOp8
 70
     1
102
RTVSPropertyOp9
 70
     1
102
RTVSPropertyOp10
 70
     1
102
RTVSPropertyOp11
 70
     1
102
RTVSPropertyOp12
 70
     1
102
RTVSPropertyOp13
 70
     1
102
RTVSPropertyOp14
 70
     1
102
RTVSPropertyOp15
 70
     1
102
RTVSPropertyOp16
 70
     1
102
RTVSPropertyOp17
 70
     1
102
RTVSPropertyOp18
 70
     1
102
RTVSPropertyOp19
 70
     1
102
RTVSPropertyOp20
 70
     1
102
RTVSPropertyOp21
 70
     1
102
RTVSPropertyOp22
 70
     1
102
RTVSPropertyOp23
 70
     1
102
RTVSPropertyOp24
 70
     1
102
RTVSPropertyOp25
 70
     1
102
RTVSPropertyOp26
 70
     1
102
RTVSPropertyOp27
 70
     1
102
RTVSPropertyOp28
 70
     1
102
RTVSPropertyOp29
 70
     1
102
RTVSPropertyOp30
 70
     1
102
RTVSPropertyOp31
 70
     1
102
RTVSPropertyOp32
 70
     1
102
RTVSPropertyOp33
 70
     1
102
RTVSPropertyOp34
 70
     1
102
RTVSPropertyOp35
 70
     1
102
RTVSPropertyOp36
 70
     1
102
RTVSPropertyOp37
 70
     1
102
RTVSPropertyOp38
 70
     1
102
RTVSPropertyOp39
 70
     1
102
RTVSPropertyOp40
 70
     1
102
RTVSPropertyOp41
 70
     1
102
RTVSPropertyOp42
 70
     1
102
RTVSPropertyOp43
 70
     1
102
RTVSPropertyOp44
 70
     1
102
RTVSPropertyOp45
 70
     1
102
RTVSPropertyOp46
 70
     1
102
RTVSPropertyOp47
 70
     1
102
RTVSPropertyOp48
 70
     1
102
RTVSPropertyOp49
 70
     1
102
RTVSPropertyOp50
 70
     1
102
RTVSPropertyOp51
 70
     0
102
RTVSPropertyOp52
 70
     0
102
RTVSPropertyOp53
 70
     1
102
RTVSPropertyOp54
 70
     1
102
RTVSPropertyOp55
 70
     1
102
RTVSPropertyOp56
 70
     1
102
RTVSPropertyOp57
 70
     1
102
RTVSPost2010Prop28
280
     0
102
RTVSPost2010PropOp28
 70
     1
102
RTVSPost2010Prop29
280
     1
102
RTVSPost2010PropOp29
 70
     1
102
RTVSPost2010Prop30
280
     1
102
RTVSPost2010PropOp30
 70
     1
102
RTVSPost2010Prop31
280
     0
102
RTVSPost2010PropOp31
 70
     1
102
RTVSPost2010Prop32
280
     0
102
RTVSPost2010PropOp32
 70
     1
102
RTVSPost2010Prop33
280
     0
102
RTVSPost2010PropOp33
 70
     1
102
RTVSPost2010Prop34
280
     0
102
RTVSPost2010PropOp34
 70
     1
102
RTVSPost2010Prop35
280
     0
102
RTVSPost2010PropOp35
 70
     1
102
RTVSPost2010Prop36
280
     0
102
RTVSPost2010PropOp36
 70
     1
102
RTVSPost2010Prop37
 90
       50
102
RTVSPost2010PropOp37
 70
     1
102
RTVSPost2010Prop38
140
0.0
102
RTVSPost2010PropOp38
 70
     1
102
RTVSPost2010Prop39
140
1.0
102
RTVSPost2010PropOp39
 70
     1
102
RTVSPost2010Prop40
 90
        0
102
RTVSPost2010PropOp40
 70
     1
102
RTVSPost2010Prop41ColorIndex
 90
       18
102
RTVSPost2010Prop41ColorRGB
 90
        0
102
RTVSPost2010PropOp41
 70
     1
102
RTVSPost2010Prop42
 90
       50
102
RTVSPost2010PropOp42
 70
     1
102
RTVSPost2010Prop43
 90
        3
102
RTVSPost2010PropOp43
 70
     1
102
RTVSPost2010Prop44ColorIndex
 90
        5
102
RTVSPost2010Prop44ColorRGB
 90
      255
102
RTVSPost2010PropOp44
 70
     1
102
RTVSPost2010Prop45
280
     0
102
RTVSPost2010PropOp45
 70
     1
102
RTVSPost2010Prop46
 90
       50
102
RTVSPost2010PropOp46
 70
     1
102
RTVSPost2010Prop47
 90
       50
102
RTVSPost2010PropOp47
 70
     1
102
RTVSPost2010Prop48
 90
       50
102
RTVSPost2010PropOp48
 70
     1
102
RTVSPost2010Prop49
280
     0
102
RTVSPost2010PropOp49
 70
     1
102
RTVSPost2010Prop50
 90
       50
102
RTVSPost2010PropOp50
 70
     1
102
RTVSPost2010Prop51ColorIndex
 90
      256
102
RTVSPost2010Prop51ColorRGB
 90
-16777216
102
RTVSPost2010PropOp51
 70
     0
102
RTVSPost2010Prop52
140
1.0
102
RTVSPost2010PropOp52
 70
     0
102
RTVSPost2010Prop53
 90
        2
102
RTVSPost2010PropOp53
 70
     1
102
RTVSPost2010Prop54
  1
strokes_ogs.tif
102
RTVSPost2010PropOp54
 70
     1
102
RTVSPost2010Prop55
280
     0
102
RTVSPost2010PropOp55
 70
     1
102
RTVSPost2010Prop56
140
1.0
102
RTVSPost2010PropOp56
 70
     1
102
RTVSPost2010Prop57
140
1.0
102
RTVSPost2010PropOp57
 70
     1
  0
XRECORD
  5
3BE
102
{ACAD_REACTORS
330
3BD
102
}
330
3BD
100
AcDbXrecord
280
     1
102
RTVSPropertyOp0
 70
     0
102
RTVSPropertyOp1
 70
     0
102
RTVSPropertyOp2
 70
     0
102
RTVSPropertyOp3
 70
     0
102
RTVSPropertyOp4
 70
     0
102
RTVSPropertyOp5
 70
     0
102
RTVSPropertyOp6
 70
     0
102
RTVSPropertyOp7
 70
     0
102
RTVSPropertyOp8
 70
     0
102
RTVSPropertyOp9
 70
     0
102
RTVSPropertyOp10
 70
     0
102
RTVSPropertyOp11
 70
     0
102
RTVSPropertyOp12
 70
     0
102
RTVSPropertyOp13
 70
     0
102
RTVSPropertyOp14
 70
     2
102
RTVSPropertyOp15
 70
     0
102
RTVSPropertyOp16
 70
     0
102
RTVSPropertyOp17
 70
     0
102
RTVSPropertyOp18
 70
     0
102
RTVSPropertyOp19
 70
     0
102
RTVSPropertyOp20
 70
     0
102
RTVSPropertyOp21
 70
     0
102
RTVSPropertyOp22
 70
     0
102
RTVSPropertyOp23
 70
     0
102
RTVSPropertyOp24
 70
     0
102
RTVSPropertyOp25
 70
     0
102
RTVSPropertyOp26
 70
     0
102
RTVSPropertyOp27
 70
     0
102
RTVSPropertyOp28
 70
     0
102
RTVSPropertyOp29
 70
     0
102
RTVSPropertyOp30
 70
     0
102
RTVSPropertyOp31
 70
     0
102
RTVSPropertyOp32
 70
     0
102
RTVSPropertyOp33
 70
     0
102
RTVSPropertyOp34
 70
     0
102
RTVSPropertyOp35
 70
     0
102
RTVSPropertyOp36
 70
     0
102
RTVSPropertyOp37
 70
     0
102
RTVSPropertyOp38
 70
     0
102
RTVSPropertyOp39
 70
     0
102
RTVSPropertyOp40
 70
     0
102
RTVSPropertyOp41
 70
     0
102
RTVSPropertyOp42
 70
     0
102
RTVSPropertyOp43
 70
     0
102
RTVSPropertyOp44
 70
     0
102
RTVSPropertyOp45
 70
     0
102
RTVSPropertyOp46
 70
     0
102
RTVSPropertyOp47
 70
     0
102
RTVSPropertyOp48
 70
     0
102
RTVSPropertyOp49
 70
     0
102
RTVSPropertyOp50
 70
     0
102
RTVSPropertyOp51
 70
     0
102
RTVSPropertyOp52
 70
     0
102
RTVSPropertyOp53
 70
     0
102
RTVSPropertyOp54
 70
     0
102
RTVSPropertyOp55
 70
     0
102
RTVSPropertyOp56
 70
     0
102
RTVSPropertyOp57
 70
     0
102
RTVSPost2010Prop28
280
     0
102
RTVSPost2010PropOp28
 70
     0
102
RTVSPost2010Prop29
280
     1
102
RTVSPost2010PropOp29
 70
     0
102
RTVSPost2010Prop30
280
     1
102
RTVSPost2010PropOp30
 70
     0
102
RTVSPost2010Prop31
280
     0
102
RTVSPost2010PropOp31
 70
     0
102
RTVSPost2010Prop32
280
     0
102
RTVSPost2010PropOp32
 70
     0
102
RTVSPost2010Prop33
280
     0
102
RTVSPost2010PropOp33
 70
     0
102
RTVSPost2010Prop34
280
     0
102
RTVSPost2010PropOp34
 70
     0
102
RTVSPost2010Prop35
280
     0
102
RTVSPost2010PropOp35
 70
     0
102
RTVSPost2010Prop36
280
     0
102
RTVSPost2010PropOp36
 70
     0
102
RTVSPost2010Prop37
 90
       50
102
RTVSPost2010PropOp37
 70
     0
102
RTVSPost2010Prop38
140
0.0
102
RTVSPost2010PropOp38
 70
     0
102
RTVSPost2010Prop39
140
1.0
102
RTVSPost2010PropOp39
 70
     0
102
RTVSPost2010Prop40
 90
        0
102
RTVSPost2010PropOp40
 70
     0
102
RTVSPost2010Prop41ColorIndex
 90
       18
102
RTVSPost2010Prop41ColorRGB
 90
        0
102
RTVSPost2010PropOp41
 70
     0
102
RTVSPost2010Prop42
 90
       50
102
RTVSPost2010PropOp42
 70
     0
102
RTVSPost2010Prop43
 90
        3
102
RTVSPost2010PropOp43
 70
     0
102
RTVSPost2010Prop44ColorIndex
 90
        5
102
RTVSPost2010Prop44ColorRGB
 90
      255
102
RTVSPost2010PropOp44
 70
     0
102
RTVSPost2010Prop45
280
     0
102
RTVSPost2010PropOp45
 70
     0
102
RTVSPost2010Prop46
 90
       50
102
RTVSPost2010PropOp46
 70
     0
102
RTVSPost2010Prop47
 90
       50
102
RTVSPost2010PropOp47
 70
     0
102
RTVSPost2010Prop48
 90
       50
102
RTVSPost2010PropOp48
 70
     0
102
RTVSPost2010Prop49
280
     0
102
RTVSPost2010PropOp49
 70
     0
102
RTVSPost2010Prop50
 90
       50
102
RTVSPost2010PropOp50
 70
     0
102
RTVSPost2010Prop51ColorIndex
 90
      256
102
RTVSPost2010Prop51ColorRGB
 90
-16777216
102
RTVSPost2010PropOp51
 70
     0
102
RTVSPost2010Prop52
140
1.0
102
RTVSPost2010PropOp52
 70
     0
102
RTVSPost2010Prop53
 90
        2
102
RTVSPost2010PropOp53
 70
     0
102
RTVSPost2010Prop54
  1
strokes_ogs.tif
102
RTVSPost2010PropOp54
 70
     0
102
RTVSPost2010Prop55
280
     0
102
RTVSPost2010PropOp55
 70
     0
102
RTVSPost2010Prop56
140
1.0
102
RTVSPost2010PropOp56
 70
     0
102
RTVSPost2010Prop57
140
1.0
102
RTVSPost2010PropOp57
 70
     0
  0
XRECORD
  5
3AC
102
{ACAD_REACTORS
330
3AB
102
}
330
3AB
100
AcDbXrecord
280
     1
102
RTVSPropertyOp0
 70
     1
102
RTVSPropertyOp1
 70
     1
102
RTVSPropertyOp2
 70
     1
102
RTVSPropertyOp3
 70
     1
102
RTVSPropertyOp4
 70
     1
102
RTVSPropertyOp5
 70
     1
102
RTVSPropertyOp6
 70
     1
102
RTVSPropertyOp7
 70
     1
102
RTVSPropertyOp8
 70
     1
102
RTVSPropertyOp9
 70
     1
102
RTVSPropertyOp10
 70
     1
102
RTVSPropertyOp11
 70
     1
102
RTVSPropertyOp12
 70
     1
102
RTVSPropertyOp13
 70
     1
102
RTVSPropertyOp14
 70
     1
102
RTVSPropertyOp15
 70
     1
102
RTVSPropertyOp16
 70
     1
102
RTVSPropertyOp17
 70
     1
102
RTVSPropertyOp18
 70
     1
102
RTVSPropertyOp19
 70
     1
102
RTVSPropertyOp20
 70
     1
102
RTVSPropertyOp21
 70
     1
102
RTVSPropertyOp22
 70
     1
102
RTVSPropertyOp23
 70
     1
102
RTVSPropertyOp24
 70
     1
102
RTVSPropertyOp25
 70
     1
102
RTVSPropertyOp26
 70
     1
102
RTVSPropertyOp27
 70
     1
102
RTVSPropertyOp28
 70
     1
102
RTVSPropertyOp29
 70
     1
102
RTVSPropertyOp30
 70
     1
102
RTVSPropertyOp31
 70
     1
102
RTVSPropertyOp32
 70
     1
102
RTVSPropertyOp33
 70
     1
102
RTVSPropertyOp34
 70
     1
102
RTVSPropertyOp35
 70
     1
102
RTVSPropertyOp36
 70
     1
102
RTVSPropertyOp37
 70
     1
102
RTVSPropertyOp38
 70
     1
102
RTVSPropertyOp39
 70
     1
102
RTVSPropertyOp40
 70
     1
102
RTVSPropertyOp41
 70
     1
102
RTVSPropertyOp42
 70
     1
102
RTVSPropertyOp43
 70
     1
102
RTVSPropertyOp44
 70
     1
102
RTVSPropertyOp45
 70
     1
102
RTVSPropertyOp46
 70
     1
102
RTVSPropertyOp47
 70
     1
102
RTVSPropertyOp48
 70
     1
102
RTVSPropertyOp49
 70
     1
102
RTVSPropertyOp50
 70
     1
102
RTVSPropertyOp51
 70
     0
102
RTVSPropertyOp52
 70
     0
102
RTVSPropertyOp53
 70
     1
102
RTVSPropertyOp54
 70
     1
102
RTVSPropertyOp55
 70
     1
102
RTVSPropertyOp56
 70
     1
102
RTVSPropertyOp57
 70
     1
102
RTVSPost2010Prop28
280
     0
102
RTVSPost2010PropOp28
 70
     1
102
RTVSPost2010Prop29
280
     1
102
RTVSPost2010PropOp29
 70
     1
102
RTVSPost2010Prop30
280
     1
102
RTVSPost2010PropOp30
 70
     1
102
RTVSPost2010Prop31
280
     0
102
RTVSPost2010PropOp31
 70
     1
102
RTVSPost2010Prop32
280
     0
102
RTVSPost2010PropOp32
 70
     1
102
RTVSPost2010Prop33
280
     0
102
RTVSPost2010PropOp33
 70
     1
102
RTVSPost2010Prop34
280
     0
102
RTVSPost2010PropOp34
 70
     1
102
RTVSPost2010Prop35
280
     0
102
RTVSPost2010PropOp35
 70
     1
102
RTVSPost2010Prop36
280
     0
102
RTVSPost2010PropOp36
 70
     1
102
RTVSPost2010Prop37
 90
       50
102
RTVSPost2010PropOp37
 70
     1
102
RTVSPost2010Prop38
140
0.0
102
RTVSPost2010PropOp38
 70
     1
102
RTVSPost2010Prop39
140
1.0
102
RTVSPost2010PropOp39
 70
     1
102
RTVSPost2010Prop40
 90
        0
102
RTVSPost2010PropOp40
 70
     1
102
RTVSPost2010Prop41ColorIndex
 90
       18
102
RTVSPost2010Prop41ColorRGB
 90
        0
102
RTVSPost2010PropOp41
 70
     1
102
RTVSPost2010Prop42
 90
       50
102
RTVSPost2010PropOp42
 70
     1
102
RTVSPost2010Prop43
 90
        3
102
RTVSPost2010PropOp43
 70
     1
102
RTVSPost2010Prop44ColorIndex
 90
        5
102
RTVSPost2010Prop44ColorRGB
 90
      255
102
RTVSPost2010PropOp44
 70
     1
102
RTVSPost2010Prop45
280
     0
102
RTVSPost2010PropOp45
 70
     1
102
RTVSPost2010Prop46
 90
       50
102
RTVSPost2010PropOp46
 70
     1
102
RTVSPost2010Prop47
 90
       50
102
RTVSPost2010PropOp47
 70
     1
102
RTVSPost2010Prop48
 90
       50
102
RTVSPost2010PropOp48
 70
     1
102
RTVSPost2010Prop49
280
     0
102
RTVSPost2010PropOp49
 70
     1
102
RTVSPost2010Prop50
 90
       50
102
RTVSPost2010PropOp50
 70
     1
102
RTVSPost2010Prop51ColorIndex
 90
      256
102
RTVSPost2010Prop51ColorRGB
 90
-16777216
102
RTVSPost2010PropOp51
 70
     0
102
RTVSPost2010Prop52
140
1.0
102
RTVSPost2010PropOp52
 70
     0
102
RTVSPost2010Prop53
 90
        2
102
RTVSPost2010PropOp53
 70
     1
102
RTVSPost2010Prop54
  1
strokes_ogs.tif
102
RTVSPost2010PropOp54
 70
     1
102
RTVSPost2010Prop55
280
     0
102
RTVSPost2010PropOp55
 70
     1
102
RTVSPost2010Prop56
140
1.0
102
RTVSPost2010PropOp56
 70
     1
102
RTVSPost2010Prop57
140
1.0
102
RTVSPost2010PropOp57
 70
     1
  0
XRECORD
  5
3CA
102
{ACAD_REACTORS
330
3C9
102
}
330
3C9
100
AcDbXrecord
280
     1
102
RTVSPropertyOp0
 70
     1
102
RTVSPropertyOp1
 70
     1
102
RTVSPropertyOp2
 70
     1
102
RTVSPropertyOp3
 70
     1
102
RTVSPropertyOp4
 70
     1
102
RTVSPropertyOp5
 70
     1
102
RTVSPropertyOp6
 70
     1
102
RTVSPropertyOp7
 70
     1
102
RTVSPropertyOp8
 70
     1
102
RTVSPropertyOp9
 70
     1
102
RTVSPropertyOp10
 70
     1
102
RTVSPropertyOp11
 70
     1
102
RTVSPropertyOp12
 70
     1
102
RTVSPropertyOp13
 70
     1
102
RTVSPropertyOp14
 70
     1
102
RTVSPropertyOp15
 70
     1
102
RTVSPropertyOp16
 70
     1
102
RTVSPropertyOp17
 70
     1
102
RTVSPropertyOp18
 70
     1
102
RTVSPropertyOp19
 70
     1
102
RTVSPropertyOp20
 70
     1
102
RTVSPropertyOp21
 70
     1
102
RTVSPropertyOp22
 70
     1
102
RTVSPropertyOp23
 70
     1
102
RTVSPropertyOp24
 70
     1
102
RTVSPropertyOp25
 70
     1
102
RTVSPropertyOp26
 70
     1
102
RTVSPropertyOp27
 70
     1
102
RTVSPropertyOp28
 70
     1
102
RTVSPropertyOp29
 70
     1
102
RTVSPropertyOp30
 70
     1
102
RTVSPropertyOp31
 70
     1
102
RTVSPropertyOp32
 70
     1
102
RTVSPropertyOp33
 70
     1
102
RTVSPropertyOp34
 70
     1
102
RTVSPropertyOp35
 70
     1
102
RTVSPropertyOp36
 70
     1
102
RTVSPropertyOp37
 70
     1
102
RTVSPropertyOp38
 70
     1
102
RTVSPropertyOp39
 70
     1
102
RTVSPropertyOp40
 70
     1
102
RTVSPropertyOp41
 70
     1
102
RTVSPropertyOp42
 70
     1
102
RTVSPropertyOp43
 70
     1
102
RTVSPropertyOp44
 70
     1
102
RTVSPropertyOp45
 70
     1
102
RTVSPropertyOp46
 70
     1
102
RTVSPropertyOp47
 70
     1
102
RTVSPropertyOp48
 70
     1
102
RTVSPropertyOp49
 70
     1
102
RTVSPropertyOp50
 70
     1
102
RTVSPropertyOp51
 70
     0
102
RTVSPropertyOp52
 70
     0
102
RTVSPropertyOp53
 70
     1
102
RTVSPropertyOp54
 70
     1
102
RTVSPropertyOp55
 70
     1
102
RTVSPropertyOp56
 70
     1
102
RTVSPropertyOp57
 70
     1
102
RTVSPost2010Prop28
280
     0
102
RTVSPost2010PropOp28
 70
     1
102
RTVSPost2010Prop29
280
     1
102
RTVSPost2010PropOp29
 70
     1
102
RTVSPost2010Prop30
280
     1
102
RTVSPost2010PropOp30
 70
     1
102
RTVSPost2010Prop31
280
     0
102
RTVSPost2010PropOp31
 70
     1
102
RTVSPost2010Prop32
280
     0
102
RTVSPost2010PropOp32
 70
     1
102
RTVSPost2010Prop33
280
     0
102
RTVSPost2010PropOp33
 70
     1
102
RTVSPost2010Prop34
280
     0
102
RTVSPost2010PropOp34
 70
     1
102
RTVSPost2010Prop35
280
     0
102
RTVSPost2010PropOp35
 70
     1
102
RTVSPost2010Prop36
280
     0
102
RTVSPost2010PropOp36
 70
     1
102
RTVSPost2010Prop37
 90
       50
102
RTVSPost2010PropOp37
 70
     1
102
RTVSPost2010Prop38
140
0.0
102
RTVSPost2010PropOp38
 70
     1
102
RTVSPost2010Prop39
140
1.0
102
RTVSPost2010PropOp39
 70
     1
102
RTVSPost2010Prop40
 90
        0
102
RTVSPost2010PropOp40
 70
     1
102
RTVSPost2010Prop41ColorIndex
 90
       18
102
RTVSPost2010Prop41ColorRGB
 90
        0
102
RTVSPost2010PropOp41
 70
     1
102
RTVSPost2010Prop42
 90
       50
102
RTVSPost2010PropOp42
 70
     1
102
RTVSPost2010Prop43
 90
        3
102
RTVSPost2010PropOp43
 70
     1
102
RTVSPost2010Prop44ColorIndex
 90
        5
102
RTVSPost2010Prop44ColorRGB
 90
      255
102
RTVSPost2010PropOp44
 70
     1
102
RTVSPost2010Prop45
280
     0
102
RTVSPost2010PropOp45
 70
     1
102
RTVSPost2010Prop46
 90
       50
102
RTVSPost2010PropOp46
 70
     1
102
RTVSPost2010Prop47
 90
       50
102
RTVSPost2010PropOp47
 70
     1
102
RTVSPost2010Prop48
 90
       50
102
RTVSPost2010PropOp48
 70
     1
102
RTVSPost2010Prop49
280
     0
102
RTVSPost2010PropOp49
 70
     1
102
RTVSPost2010Prop50
 90
       50
102
RTVSPost2010PropOp50
 70
     1
102
RTVSPost2010Prop51ColorIndex
 90
      256
102
RTVSPost2010Prop51ColorRGB
 90
-16777216
102
RTVSPost2010PropOp51
 70
     0
102
RTVSPost2010Prop52
140
1.0
102
RTVSPost2010PropOp52
 70
     0
102
RTVSPost2010Prop53
 90
        2
102
RTVSPost2010PropOp53
 70
     1
102
RTVSPost2010Prop54
  1
strokes_ogs.tif
102
RTVSPost2010PropOp54
 70
     1
102
RTVSPost2010Prop55
280
     0
102
RTVSPost2010PropOp55
 70
     1
102
RTVSPost2010Prop56
140
1.0
102
RTVSPost2010PropOp56
 70
     1
102
RTVSPost2010Prop57
140
1.0
102
RTVSPost2010PropOp57
 70
     1
  0
XRECORD
  5
3C8
102
{ACAD_REACTORS
330
3C7
102
}
330
3C7
100
AcDbXrecord
280
     1
102
RTVSPropertyOp0
 70
     1
102
RTVSPropertyOp1
 70
     1
102
RTVSPropertyOp2
 70
     1
102
RTVSPropertyOp3
 70
     1
102
RTVSPropertyOp4
 70
     1
102
RTVSPropertyOp5
 70
     1
102
RTVSPropertyOp6
 70
     1
102
RTVSPropertyOp7
 70
     1
102
RTVSPropertyOp8
 70
     1
102
RTVSPropertyOp9
 70
     1
102
RTVSPropertyOp10
 70
     1
102
RTVSPropertyOp11
 70
     1
102
RTVSPropertyOp12
 70
     1
102
RTVSPropertyOp13
 70
     1
102
RTVSPropertyOp14
 70
     1
102
RTVSPropertyOp15
 70
     1
102
RTVSPropertyOp16
 70
     1
102
RTVSPropertyOp17
 70
     1
102
RTVSPropertyOp18
 70
     1
102
RTVSPropertyOp19
 70
     1
102
RTVSPropertyOp20
 70
     1
102
RTVSPropertyOp21
 70
     1
102
RTVSPropertyOp22
 70
     1
102
RTVSPropertyOp23
 70
     1
102
RTVSPropertyOp24
 70
     1
102
RTVSPropertyOp25
 70
     1
102
RTVSPropertyOp26
 70
     1
102
RTVSPropertyOp27
 70
     1
102
RTVSPropertyOp28
 70
     1
102
RTVSPropertyOp29
 70
     1
102
RTVSPropertyOp30
 70
     1
102
RTVSPropertyOp31
 70
     1
102
RTVSPropertyOp32
 70
     1
102
RTVSPropertyOp33
 70
     1
102
RTVSPropertyOp34
 70
     1
102
RTVSPropertyOp35
 70
     1
102
RTVSPropertyOp36
 70
     1
102
RTVSPropertyOp37
 70
     1
102
RTVSPropertyOp38
 70
     1
102
RTVSPropertyOp39
 70
     1
102
RTVSPropertyOp40
 70
     1
102
RTVSPropertyOp41
 70
     1
102
RTVSPropertyOp42
 70
     1
102
RTVSPropertyOp43
 70
     1
102
RTVSPropertyOp44
 70
     1
102
RTVSPropertyOp45
 70
     1
102
RTVSPropertyOp46
 70
     1
102
RTVSPropertyOp47
 70
     1
102
RTVSPropertyOp48
 70
     1
102
RTVSPropertyOp49
 70
     1
102
RTVSPropertyOp50
 70
     1
102
RTVSPropertyOp51
 70
     0
102
RTVSPropertyOp52
 70
     0
102
RTVSPropertyOp53
 70
     1
102
RTVSPropertyOp54
 70
     1
102
RTVSPropertyOp55
 70
     1
102
RTVSPropertyOp56
 70
     1
102
RTVSPropertyOp57
 70
     1
102
RTVSPost2010Prop28
280
     0
102
RTVSPost2010PropOp28
 70
     1
102
RTVSPost2010Prop29
280
     1
102
RTVSPost2010PropOp29
 70
     1
102
RTVSPost2010Prop30
280
     1
102
RTVSPost2010PropOp30
 70
     1
102
RTVSPost2010Prop31
280
     0
102
RTVSPost2010PropOp31
 70
     1
102
RTVSPost2010Prop32
280
     0
102
RTVSPost2010PropOp32
 70
     1
102
RTVSPost2010Prop33
280
     0
102
RTVSPost2010PropOp33
 70
     1
102
RTVSPost2010Prop34
280
     0
102
RTVSPost2010PropOp34
 70
     1
102
RTVSPost2010Prop35
280
     0
102
RTVSPost2010PropOp35
 70
     1
102
RTVSPost2010Prop36
280
     0
102
RTVSPost2010PropOp36
 70
     1
102
RTVSPost2010Prop37
 90
       50
102
RTVSPost2010PropOp37
 70
     1
102
RTVSPost2010Prop38
140
0.0
102
RTVSPost2010PropOp38
 70
     1
102
RTVSPost2010Prop39
140
1.0
102
RTVSPost2010PropOp39
 70
     1
102
RTVSPost2010Prop40
 90
        0
102
RTVSPost2010PropOp40
 70
     1
102
RTVSPost2010Prop41ColorIndex
 90
       18
102
RTVSPost2010Prop41ColorRGB
 90
        0
102
RTVSPost2010PropOp41
 70
     1
102
RTVSPost2010Prop42
 90
       50
102
RTVSPost2010PropOp42
 70
     1
102
RTVSPost2010Prop43
 90
        3
102
RTVSPost2010PropOp43
 70
     1
102
RTVSPost2010Prop44ColorIndex
 90
        5
102
RTVSPost2010Prop44ColorRGB
 90
      255
102
RTVSPost2010PropOp44
 70
     1
102
RTVSPost2010Prop45
280
     0
102
RTVSPost2010PropOp45
 70
     1
102
RTVSPost2010Prop46
 90
       50
102
RTVSPost2010PropOp46
 70
     1
102
RTVSPost2010Prop47
 90
       50
102
RTVSPost2010PropOp47
 70
     1
102
RTVSPost2010Prop48
 90
       50
102
RTVSPost2010PropOp48
 70
     1
102
RTVSPost2010Prop49
280
     0
102
RTVSPost2010PropOp49
 70
     1
102
RTVSPost2010Prop50
 90
       50
102
RTVSPost2010PropOp50
 70
     1
102
RTVSPost2010Prop51ColorIndex
 90
      256
102
RTVSPost2010Prop51ColorRGB
 90
-16777216
102
RTVSPost2010PropOp51
 70
     0
102
RTVSPost2010Prop52
140
1.0
102
RTVSPost2010PropOp52
 70
     0
102
RTVSPost2010Prop53
 90
        2
102
RTVSPost2010PropOp53
 70
     1
102
RTVSPost2010Prop54
  1
strokes_ogs.tif
102
RTVSPost2010PropOp54
 70
     1
102
RTVSPost2010Prop55
280
     0
102
RTVSPost2010PropOp55
 70
     1
102
RTVSPost2010Prop56
140
1.0
102
RTVSPost2010PropOp56
 70
     1
102
RTVSPost2010Prop57
140
1.0
102
RTVSPost2010PropOp57
 70
     1
  0
XRECORD
  5
3C2
102
{ACAD_REACTORS
330
3C1
102
}
330
3C1
100
AcDbXrecord
280
     1
102
RTVSPropertyOp0
 70
     1
102
RTVSPropertyOp1
 70
     1
102
RTVSPropertyOp2
 70
     1
102
RTVSPropertyOp3
 70
     1
102
RTVSPropertyOp4
 70
     1
102
RTVSPropertyOp5
 70
     1
102
RTVSPropertyOp6
 70
     1
102
RTVSPropertyOp7
 70
     1
102
RTVSPropertyOp8
 70
     1
102
RTVSPropertyOp9
 70
     1
102
RTVSPropertyOp10
 70
     1
102
RTVSPropertyOp11
 70
     1
102
RTVSPropertyOp12
 70
     1
102
RTVSPropertyOp13
 70
     1
102
RTVSPropertyOp14
 70
     1
102
RTVSPropertyOp15
 70
     1
102
RTVSPropertyOp16
 70
     1
102
RTVSPropertyOp17
 70
     1
102
RTVSPropertyOp18
 70
     1
102
RTVSPropertyOp19
 70
     1
102
RTVSPropertyOp20
 70
     1
102
RTVSPropertyOp21
 70
     1
102
RTVSPropertyOp22
 70
     1
102
RTVSPropertyOp23
 70
     1
102
RTVSPropertyOp24
 70
     1
102
RTVSPropertyOp25
 70
     1
102
RTVSPropertyOp26
 70
     1
102
RTVSPropertyOp27
 70
     1
102
RTVSPropertyOp28
 70
     1
102
RTVSPropertyOp29
 70
     1
102
RTVSPropertyOp30
 70
     1
102
RTVSPropertyOp31
 70
     1
102
RTVSPropertyOp32
 70
     1
102
RTVSPropertyOp33
 70
     1
102
RTVSPropertyOp34
 70
     1
102
RTVSPropertyOp35
 70
     1
102
RTVSPropertyOp36
 70
     1
102
RTVSPropertyOp37
 70
     1
102
RTVSPropertyOp38
 70
     1
102
RTVSPropertyOp39
 70
     1
102
RTVSPropertyOp40
 70
     1
102
RTVSPropertyOp41
 70
     1
102
RTVSPropertyOp42
 70
     1
102
RTVSPropertyOp43
 70
     1
102
RTVSPropertyOp44
 70
     1
102
RTVSPropertyOp45
 70
     1
102
RTVSPropertyOp46
 70
     1
102
RTVSPropertyOp47
 70
     1
102
RTVSPropertyOp48
 70
     1
102
RTVSPropertyOp49
 70
     1
102
RTVSPropertyOp50
 70
     1
102
RTVSPropertyOp51
 70
     0
102
RTVSPropertyOp52
 70
     0
102
RTVSPropertyOp53
 70
     1
102
RTVSPropertyOp54
 70
     1
102
RTVSPropertyOp55
 70
     1
102
RTVSPropertyOp56
 70
     1
102
RTVSPropertyOp57
 70
     1
102
RTVSPost2010Prop28
280
     0
102
RTVSPost2010PropOp28
 70
     1
102
RTVSPost2010Prop29
280
     1
102
RTVSPost2010PropOp29
 70
     1
102
RTVSPost2010Prop30
280
     1
102
RTVSPost2010PropOp30
 70
     1
102
RTVSPost2010Prop31
280
     0
102
RTVSPost2010PropOp31
 70
     1
102
RTVSPost2010Prop32
280
     0
102
RTVSPost2010PropOp32
 70
     1
102
RTVSPost2010Prop33
280
     0
102
RTVSPost2010PropOp33
 70
     1
102
RTVSPost2010Prop34
280
     0
102
RTVSPost2010PropOp34
 70
     1
102
RTVSPost2010Prop35
280
     0
102
RTVSPost2010PropOp35
 70
     1
102
RTVSPost2010Prop36
280
     0
102
RTVSPost2010PropOp36
 70
     1
102
RTVSPost2010Prop37
 90
       50
102
RTVSPost2010PropOp37
 70
     1
102
RTVSPost2010Prop38
140
0.0
102
RTVSPost2010PropOp38
 70
     1
102
RTVSPost2010Prop39
140
1.0
102
RTVSPost2010PropOp39
 70
     1
102
RTVSPost2010Prop40
 90
        0
102
RTVSPost2010PropOp40
 70
     1
102
RTVSPost2010Prop41ColorIndex
 90
       18
102
RTVSPost2010Prop41ColorRGB
 90
        0
102
RTVSPost2010PropOp41
 70
     1
102
RTVSPost2010Prop42
 90
       50
102
RTVSPost2010PropOp42
 70
     1
102
RTVSPost2010Prop43
 90
        3
102
RTVSPost2010PropOp43
 70
     1
102
RTVSPost2010Prop44ColorIndex
 90
        5
102
RTVSPost2010Prop44ColorRGB
 90
      255
102
RTVSPost2010PropOp44
 70
     1
102
RTVSPost2010Prop45
280
     0
102
RTVSPost2010PropOp45
 70
     1
102
RTVSPost2010Prop46
 90
       50
102
RTVSPost2010PropOp46
 70
     1
102
RTVSPost2010Prop47
 90
       50
102
RTVSPost2010PropOp47
 70
     1
102
RTVSPost2010Prop48
 90
       50
102
RTVSPost2010PropOp48
 70
     1
102
RTVSPost2010Prop49
280
     0
102
RTVSPost2010PropOp49
 70
     1
102
RTVSPost2010Prop50
 90
       50
102
RTVSPost2010PropOp50
 70
     1
102
RTVSPost2010Prop51ColorIndex
 90
      256
102
RTVSPost2010Prop51ColorRGB
 90
-16777216
102
RTVSPost2010PropOp51
 70
     0
102
RTVSPost2010Prop52
140
1.0
102
RTVSPost2010PropOp52
 70
     0
102
RTVSPost2010Prop53
 90
        2
102
RTVSPost2010PropOp53
 70
     1
102
RTVSPost2010Prop54
  1
strokes_ogs.tif
102
RTVSPost2010PropOp54
 70
     1
102
RTVSPost2010Prop55
280
     0
102
RTVSPost2010PropOp55
 70
     1
102
RTVSPost2010Prop56
140
1.0
102
RTVSPost2010PropOp56
 70
     1
102
RTVSPost2010Prop57
140
1.0
102
RTVSPost2010PropOp57
 70
     1
  0
XRECORD
  5
3C4
102
{ACAD_REACTORS
330
3C3
102
}
330
3C3
100
AcDbXrecord
280
     1
102
RTVSPropertyOp0
 70
     1
102
RTVSPropertyOp1
 70
     1
102
RTVSPropertyOp2
 70
     1
102
RTVSPropertyOp3
 70
     1
102
RTVSPropertyOp4
 70
     1
102
RTVSPropertyOp5
 70
     1
102
RTVSPropertyOp6
 70
     1
102
RTVSPropertyOp7
 70
     1
102
RTVSPropertyOp8
 70
     1
102
RTVSPropertyOp9
 70
     1
102
RTVSPropertyOp10
 70
     1
102
RTVSPropertyOp11
 70
     1
102
RTVSPropertyOp12
 70
     1
102
RTVSPropertyOp13
 70
     1
102
RTVSPropertyOp14
 70
     1
102
RTVSPropertyOp15
 70
     1
102
RTVSPropertyOp16
 70
     1
102
RTVSPropertyOp17
 70
     1
102
RTVSPropertyOp18
 70
     1
102
RTVSPropertyOp19
 70
     1
102
RTVSPropertyOp20
 70
     1
102
RTVSPropertyOp21
 70
     1
102
RTVSPropertyOp22
 70
     1
102
RTVSPropertyOp23
 70
     1
102
RTVSPropertyOp24
 70
     1
102
RTVSPropertyOp25
 70
     1
102
RTVSPropertyOp26
 70
     1
102
RTVSPropertyOp27
 70
     1
102
RTVSPropertyOp28
 70
     1
102
RTVSPropertyOp29
 70
     1
102
RTVSPropertyOp30
 70
     1
102
RTVSPropertyOp31
 70
     1
102
RTVSPropertyOp32
 70
     1
102
RTVSPropertyOp33
 70
     1
102
RTVSPropertyOp34
 70
     1
102
RTVSPropertyOp35
 70
     1
102
RTVSPropertyOp36
 70
     1
102
RTVSPropertyOp37
 70
     1
102
RTVSPropertyOp38
 70
     1
102
RTVSPropertyOp39
 70
     1
102
RTVSPropertyOp40
 70
     1
102
RTVSPropertyOp41
 70
     1
102
RTVSPropertyOp42
 70
     1
102
RTVSPropertyOp43
 70
     1
102
RTVSPropertyOp44
 70
     1
102
RTVSPropertyOp45
 70
     1
102
RTVSPropertyOp46
 70
     1
102
RTVSPropertyOp47
 70
     1
102
RTVSPropertyOp48
 70
     1
102
RTVSPropertyOp49
 70
     1
102
RTVSPropertyOp50
 70
     1
102
RTVSPropertyOp51
 70
     0
102
RTVSPropertyOp52
 70
     0
102
RTVSPropertyOp53
 70
     1
102
RTVSPropertyOp54
 70
     1
102
RTVSPropertyOp55
 70
     1
102
RTVSPropertyOp56
 70
     1
102
RTVSPropertyOp57
 70
     1
102
RTVSPost2010Prop28
280
     0
102
RTVSPost2010PropOp28
 70
     1
102
RTVSPost2010Prop29
280
     1
102
RTVSPost2010PropOp29
 70
     1
102
RTVSPost2010Prop30
280
     1
102
RTVSPost2010PropOp30
 70
     1
102
RTVSPost2010Prop31
280
     0
102
RTVSPost2010PropOp31
 70
     1
102
RTVSPost2010Prop32
280
     0
102
RTVSPost2010PropOp32
 70
     1
102
RTVSPost2010Prop33
280
     0
102
RTVSPost2010PropOp33
 70
     1
102
RTVSPost2010Prop34
280
     0
102
RTVSPost2010PropOp34
 70
     1
102
RTVSPost2010Prop35
280
     0
102
RTVSPost2010PropOp35
 70
     1
102
RTVSPost2010Prop36
280
     0
102
RTVSPost2010PropOp36
 70
     1
102
RTVSPost2010Prop37
 90
       50
102
RTVSPost2010PropOp37
 70
     1
102
RTVSPost2010Prop38
140
0.0
102
RTVSPost2010PropOp38
 70
     1
102
RTVSPost2010Prop39
140
1.0
102
RTVSPost2010PropOp39
 70
     1
102
RTVSPost2010Prop40
 90
        0
102
RTVSPost2010PropOp40
 70
     1
102
RTVSPost2010Prop41ColorIndex
 90
       18
102
RTVSPost2010Prop41ColorRGB
 90
        0
102
RTVSPost2010PropOp41
 70
     1
102
RTVSPost2010Prop42
 90
       50
102
RTVSPost2010PropOp42
 70
     1
102
RTVSPost2010Prop43
 90
        3
102
RTVSPost2010PropOp43
 70
     1
102
RTVSPost2010Prop44ColorIndex
 90
        5
102
RTVSPost2010Prop44ColorRGB
 90
      255
102
RTVSPost2010PropOp44
 70
     1
102
RTVSPost2010Prop45
280
     0
102
RTVSPost2010PropOp45
 70
     1
102
RTVSPost2010Prop46
 90
       50
102
RTVSPost2010PropOp46
 70
     1
102
RTVSPost2010Prop47
 90
       50
102
RTVSPost2010PropOp47
 70
     1
102
RTVSPost2010Prop48
 90
       50
102
RTVSPost2010PropOp48
 70
     1
102
RTVSPost2010Prop49
280
     0
102
RTVSPost2010PropOp49
 70
     1
102
RTVSPost2010Prop50
 90
       50
102
RTVSPost2010PropOp50
 70
     1
102
RTVSPost2010Prop51ColorIndex
 90
      256
102
RTVSPost2010Prop51ColorRGB
 90
-16777216
102
RTVSPost2010PropOp51
 70
     0
102
RTVSPost2010Prop52
140
1.0
102
RTVSPost2010PropOp52
 70
     0
102
RTVSPost2010Prop53
 90
        2
102
RTVSPost2010PropOp53
 70
     1
102
RTVSPost2010Prop54
  1
strokes_ogs.tif
102
RTVSPost2010PropOp54
 70
     1
102
RTVSPost2010Prop55
280
     0
102
RTVSPost2010PropOp55
 70
     1
102
RTVSPost2010Prop56
140
1.0
102
RTVSPost2010PropOp56
 70
     1
102
RTVSPost2010Prop57
140
1.0
102
RTVSPost2010PropOp57
 70
     1
  0
XRECORD
  5
3B4
102
{ACAD_REACTORS
330
3B3
102
}
330
3B3
100
AcDbXrecord
280
     1
102
RTVSPropertyOp0
 70
     1
102
RTVSPropertyOp1
 70
     1
102
RTVSPropertyOp2
 70
     1
102
RTVSPropertyOp3
 70
     1
102
RTVSPropertyOp4
 70
     1
102
RTVSPropertyOp5
 70
     1
102
RTVSPropertyOp6
 70
     1
102
RTVSPropertyOp7
 70
     1
102
RTVSPropertyOp8
 70
     1
102
RTVSPropertyOp9
 70
     1
102
RTVSPropertyOp10
 70
     1
102
RTVSPropertyOp11
 70
     1
102
RTVSPropertyOp12
 70
     1
102
RTVSPropertyOp13
 70
     1
102
RTVSPropertyOp14
 70
     1
102
RTVSPropertyOp15
 70
     1
102
RTVSPropertyOp16
 70
     1
102
RTVSPropertyOp17
 70
     1
102
RTVSPropertyOp18
 70
     1
102
RTVSPropertyOp19
 70
     1
102
RTVSPropertyOp20
 70
     1
102
RTVSPropertyOp21
 70
     1
102
RTVSPropertyOp22
 70
     1
102
RTVSPropertyOp23
 70
     1
102
RTVSPropertyOp24
 70
     1
102
RTVSPropertyOp25
 70
     1
102
RTVSPropertyOp26
 70
     1
102
RTVSPropertyOp27
 70
     1
102
RTVSPropertyOp28
 70
     1
102
RTVSPropertyOp29
 70
     1
102
RTVSPropertyOp30
 70
     1
102
RTVSPropertyOp31
 70
     1
102
RTVSPropertyOp32
 70
     1
102
RTVSPropertyOp33
 70
     1
102
RTVSPropertyOp34
 70
     1
102
RTVSPropertyOp35
 70
     1
102
RTVSPropertyOp36
 70
     1
102
RTVSPropertyOp37
 70
     1
102
RTVSPropertyOp38
 70
     1
102
RTVSPropertyOp39
 70
     1
102
RTVSPropertyOp40
 70
     1
102
RTVSPropertyOp41
 70
     1
102
RTVSPropertyOp42
 70
     1
102
RTVSPropertyOp43
 70
     1
102
RTVSPropertyOp44
 70
     1
102
RTVSPropertyOp45
 70
     1
102
RTVSPropertyOp46
 70
     1
102
RTVSPropertyOp47
 70
     1
102
RTVSPropertyOp48
 70
     1
102
RTVSPropertyOp49
 70
     1
102
RTVSPropertyOp50
 70
     1
102
RTVSPropertyOp51
 70
     0
102
RTVSPropertyOp52
 70
     0
102
RTVSPropertyOp53
 70
     1
102
RTVSPropertyOp54
 70
     1
102
RTVSPropertyOp55
 70
     1
102
RTVSPropertyOp56
 70
     1
102
RTVSPropertyOp57
 70
     1
102
RTVSPost2010Prop28
280
     0
102
RTVSPost2010PropOp28
 70
     1
102
RTVSPost2010Prop29
280
     1
102
RTVSPost2010PropOp29
 70
     1
102
RTVSPost2010Prop30
280
     1
102
RTVSPost2010PropOp30
 70
     1
102
RTVSPost2010Prop31
280
     0
102
RTVSPost2010PropOp31
 70
     1
102
RTVSPost2010Prop32
280
     0
102
RTVSPost2010PropOp32
 70
     1
102
RTVSPost2010Prop33
280
     0
102
RTVSPost2010PropOp33
 70
     1
102
RTVSPost2010Prop34
280
     0
102
RTVSPost2010PropOp34
 70
     1
102
RTVSPost2010Prop35
280
     0
102
RTVSPost2010PropOp35
 70
     1
102
RTVSPost2010Prop36
280
     0
102
RTVSPost2010PropOp36
 70
     1
102
RTVSPost2010Prop37
 90
       50
102
RTVSPost2010PropOp37
 70
     1
102
RTVSPost2010Prop38
140
0.0
102
RTVSPost2010PropOp38
 70
     1
102
RTVSPost2010Prop39
140
1.0
102
RTVSPost2010PropOp39
 70
     1
102
RTVSPost2010Prop40
 90
        0
102
RTVSPost2010PropOp40
 70
     1
102
RTVSPost2010Prop41ColorIndex
 90
       18
102
RTVSPost2010Prop41ColorRGB
 90
        0
102
RTVSPost2010PropOp41
 70
     1
102
RTVSPost2010Prop42
 90
       50
102
RTVSPost2010PropOp42
 70
     1
102
RTVSPost2010Prop43
 90
        3
102
RTVSPost2010PropOp43
 70
     1
102
RTVSPost2010Prop44ColorIndex
 90
        5
102
RTVSPost2010Prop44ColorRGB
 90
      255
102
RTVSPost2010PropOp44
 70
     1
102
RTVSPost2010Prop45
280
     0
102
RTVSPost2010PropOp45
 70
     1
102
RTVSPost2010Prop46
 90
       50
102
RTVSPost2010PropOp46
 70
     1
102
RTVSPost2010Prop47
 90
       50
102
RTVSPost2010PropOp47
 70
     1
102
RTVSPost2010Prop48
 90
       50
102
RTVSPost2010PropOp48
 70
     1
102
RTVSPost2010Prop49
280
     0
102
RTVSPost2010PropOp49
 70
     1
102
RTVSPost2010Prop50
 90
       50
102
RTVSPost2010PropOp50
 70
     1
102
RTVSPost2010Prop51ColorIndex
 90
      256
102
RTVSPost2010Prop51ColorRGB
 90
-16777216
102
RTVSPost2010PropOp51
 70
     0
102
RTVSPost2010Prop52
140
1.0
102
RTVSPost2010PropOp52
 70
     0
102
RTVSPost2010Prop53
 90
        2
102
RTVSPost2010PropOp53
 70
     1
102
RTVSPost2010Prop54
  1
strokes_ogs.tif
102
RTVSPost2010PropOp54
 70
     1
102
RTVSPost2010Prop55
280
     0
102
RTVSPost2010PropOp55
 70
     1
102
RTVSPost2010Prop56
140
1.0
102
RTVSPost2010PropOp56
 70
     1
102
RTVSPost2010Prop57
140
1.0
102
RTVSPost2010PropOp57
 70
     1
  0
XRECORD
  5
3A6
102
{ACAD_REACTORS
330
3A5
102
}
330
3A5
100
AcDbXrecord
280
     1
102
RTVSPropertyOp0
 70
     1
102
RTVSPropertyOp1
 70
     1
102
RTVSPropertyOp2
 70
     1
102
RTVSPropertyOp3
 70
     1
102
RTVSPropertyOp4
 70
     1
102
RTVSPropertyOp5
 70
     1
102
RTVSPropertyOp6
 70
     1
102
RTVSPropertyOp7
 70
     1
102
RTVSPropertyOp8
 70
     1
102
RTVSPropertyOp9
 70
     1
102
RTVSPropertyOp10
 70
     1
102
RTVSPropertyOp11
 70
     1
102
RTVSPropertyOp12
 70
     1
102
RTVSPropertyOp13
 70
     1
102
RTVSPropertyOp14
 70
     1
102
RTVSPropertyOp15
 70
     1
102
RTVSPropertyOp16
 70
     1
102
RTVSPropertyOp17
 70
     1
102
RTVSPropertyOp18
 70
     1
102
RTVSPropertyOp19
 70
     1
102
RTVSPropertyOp20
 70
     1
102
RTVSPropertyOp21
 70
     1
102
RTVSPropertyOp22
 70
     1
102
RTVSPropertyOp23
 70
     1
102
RTVSPropertyOp24
 70
     1
102
RTVSPropertyOp25
 70
     1
102
RTVSPropertyOp26
 70
     1
102
RTVSPropertyOp27
 70
     1
102
RTVSPropertyOp28
 70
     1
102
RTVSPropertyOp29
 70
     1
102
RTVSPropertyOp30
 70
     1
102
RTVSPropertyOp31
 70
     1
102
RTVSPropertyOp32
 70
     1
102
RTVSPropertyOp33
 70
     1
102
RTVSPropertyOp34
 70
     1
102
RTVSPropertyOp35
 70
     1
102
RTVSPropertyOp36
 70
     1
102
RTVSPropertyOp37
 70
     1
102
RTVSPropertyOp38
 70
     1
102
RTVSPropertyOp39
 70
     1
102
RTVSPropertyOp40
 70
     1
102
RTVSPropertyOp41
 70
     1
102
RTVSPropertyOp42
 70
     1
102
RTVSPropertyOp43
 70
     1
102
RTVSPropertyOp44
 70
     1
102
RTVSPropertyOp45
 70
     1
102
RTVSPropertyOp46
 70
     1
102
RTVSPropertyOp47
 70
     1
102
RTVSPropertyOp48
 70
     1
102
RTVSPropertyOp49
 70
     1
102
RTVSPropertyOp50
 70
     1
102
RTVSPropertyOp51
 70
     0
102
RTVSPropertyOp52
 70
     0
102
RTVSPropertyOp53
 70
     1
102
RTVSPropertyOp54
 70
     1
102
RTVSPropertyOp55
 70
     1
102
RTVSPropertyOp56
 70
     1
102
RTVSPropertyOp57
 70
     1
102
RTVSPost2010Prop28
280
     0
102
RTVSPost2010PropOp28
 70
     1
102
RTVSPost2010Prop29
280
     1
102
RTVSPost2010PropOp29
 70
     1
102
RTVSPost2010Prop30
280
     1
102
RTVSPost2010PropOp30
 70
     1
102
RTVSPost2010Prop31
280
     0
102
RTVSPost2010PropOp31
 70
     1
102
RTVSPost2010Prop32
280
     0
102
RTVSPost2010PropOp32
 70
     1
102
RTVSPost2010Prop33
280
     0
102
RTVSPost2010PropOp33
 70
     1
102
RTVSPost2010Prop34
280
     0
102
RTVSPost2010PropOp34
 70
     1
102
RTVSPost2010Prop35
280
     0
102
RTVSPost2010PropOp35
 70
     1
102
RTVSPost2010Prop36
280
     0
102
RTVSPost2010PropOp36
 70
     1
102
RTVSPost2010Prop37
 90
       50
102
RTVSPost2010PropOp37
 70
     1
102
RTVSPost2010Prop38
140
0.0
102
RTVSPost2010PropOp38
 70
     1
102
RTVSPost2010Prop39
140
1.0
102
RTVSPost2010PropOp39
 70
     1
102
RTVSPost2010Prop40
 90
        0
102
RTVSPost2010PropOp40
 70
     1
102
RTVSPost2010Prop41ColorIndex
 90
       18
102
RTVSPost2010Prop41ColorRGB
 90
        0
102
RTVSPost2010PropOp41
 70
     1
102
RTVSPost2010Prop42
 90
       50
102
RTVSPost2010PropOp42
 70
     1
102
RTVSPost2010Prop43
 90
        3
102
RTVSPost2010PropOp43
 70
     1
102
RTVSPost2010Prop44ColorIndex
 90
        5
102
RTVSPost2010Prop44ColorRGB
 90
      255
102
RTVSPost2010PropOp44
 70
     1
102
RTVSPost2010Prop45
280
     0
102
RTVSPost2010PropOp45
 70
     1
102
RTVSPost2010Prop46
 90
       50
102
RTVSPost2010PropOp46
 70
     1
102
RTVSPost2010Prop47
 90
       50
102
RTVSPost2010PropOp47
 70
     1
102
RTVSPost2010Prop48
 90
       50
102
RTVSPost2010PropOp48
 70
     1
102
RTVSPost2010Prop49
280
     0
102
RTVSPost2010PropOp49
 70
     1
102
RTVSPost2010Prop50
 90
       50
102
RTVSPost2010PropOp50
 70
     1
102
RTVSPost2010Prop51ColorIndex
 90
      256
102
RTVSPost2010Prop51ColorRGB
 90
-16777216
102
RTVSPost2010PropOp51
 70
     0
102
RTVSPost2010Prop52
140
1.0
102
RTVSPost2010PropOp52
 70
     0
102
RTVSPost2010Prop53
 90
        2
102
RTVSPost2010PropOp53
 70
     1
102
RTVSPost2010Prop54
  1
strokes_ogs.tif
102
RTVSPost2010PropOp54
 70
     1
102
RTVSPost2010Prop55
280
     0
102
RTVSPost2010PropOp55
 70
     1
102
RTVSPost2010Prop56
140
1.0
102
RTVSPost2010PropOp56
 70
     1
102
RTVSPost2010Prop57
140
1.0
102
RTVSPost2010PropOp57
 70
     1
  0
XRECORD
  5
3C6
102
{ACAD_REACTORS
330
3C5
102
}
330
3C5
100
AcDbXrecord
280
     1
102
RTVSPropertyOp0
 70
     1
102
RTVSPropertyOp1
 70
     1
102
RTVSPropertyOp2
 70
     1
102
RTVSPropertyOp3
 70
     1
102
RTVSPropertyOp4
 70
     1
102
RTVSPropertyOp5
 70
     1
102
RTVSPropertyOp6
 70
     1
102
RTVSPropertyOp7
 70
     1
102
RTVSPropertyOp8
 70
     1
102
RTVSPropertyOp9
 70
     1
102
RTVSPropertyOp10
 70
     1
102
RTVSPropertyOp11
 70
     1
102
RTVSPropertyOp12
 70
     1
102
RTVSPropertyOp13
 70
     1
102
RTVSPropertyOp14
 70
     1
102
RTVSPropertyOp15
 70
     1
102
RTVSPropertyOp16
 70
     1
102
RTVSPropertyOp17
 70
     1
102
RTVSPropertyOp18
 70
     1
102
RTVSPropertyOp19
 70
     1
102
RTVSPropertyOp20
 70
     1
102
RTVSPropertyOp21
 70
     1
102
RTVSPropertyOp22
 70
     1
102
RTVSPropertyOp23
 70
     1
102
RTVSPropertyOp24
 70
     1
102
RTVSPropertyOp25
 70
     1
102
RTVSPropertyOp26
 70
     1
102
RTVSPropertyOp27
 70
     1
102
RTVSPropertyOp28
 70
     1
102
RTVSPropertyOp29
 70
     1
102
RTVSPropertyOp30
 70
     1
102
RTVSPropertyOp31
 70
     1
102
RTVSPropertyOp32
 70
     1
102
RTVSPropertyOp33
 70
     1
102
RTVSPropertyOp34
 70
     1
102
RTVSPropertyOp35
 70
     1
102
RTVSPropertyOp36
 70
     1
102
RTVSPropertyOp37
 70
     1
102
RTVSPropertyOp38
 70
     1
102
RTVSPropertyOp39
 70
     1
102
RTVSPropertyOp40
 70
     1
102
RTVSPropertyOp41
 70
     1
102
RTVSPropertyOp42
 70
     1
102
RTVSPropertyOp43
 70
     1
102
RTVSPropertyOp44
 70
     1
102
RTVSPropertyOp45
 70
     1
102
RTVSPropertyOp46
 70
     1
102
RTVSPropertyOp47
 70
     1
102
RTVSPropertyOp48
 70
     1
102
RTVSPropertyOp49
 70
     1
102
RTVSPropertyOp50
 70
     1
102
RTVSPropertyOp51
 70
     0
102
RTVSPropertyOp52
 70
     0
102
RTVSPropertyOp53
 70
     1
102
RTVSPropertyOp54
 70
     1
102
RTVSPropertyOp55
 70
     1
102
RTVSPropertyOp56
 70
     1
102
RTVSPropertyOp57
 70
     1
102
RTVSPost2010Prop28
280
     0
102
RTVSPost2010PropOp28
 70
     1
102
RTVSPost2010Prop29
280
     1
102
RTVSPost2010PropOp29
 70
     1
102
RTVSPost2010Prop30
280
     1
102
RTVSPost2010PropOp30
 70
     1
102
RTVSPost2010Prop31
280
     0
102
RTVSPost2010PropOp31
 70
     1
102
RTVSPost2010Prop32
280
     0
102
RTVSPost2010PropOp32
 70
     1
102
RTVSPost2010Prop33
280
     0
102
RTVSPost2010PropOp33
 70
     1
102
RTVSPost2010Prop34
280
     0
102
RTVSPost2010PropOp34
 70
     1
102
RTVSPost2010Prop35
280
     0
102
RTVSPost2010PropOp35
 70
     1
102
RTVSPost2010Prop36
280
     0
102
RTVSPost2010PropOp36
 70
     1
102
RTVSPost2010Prop37
 90
       50
102
RTVSPost2010PropOp37
 70
     1
102
RTVSPost2010Prop38
140
0.0
102
RTVSPost2010PropOp38
 70
     1
102
RTVSPost2010Prop39
140
1.0
102
RTVSPost2010PropOp39
 70
     1
102
RTVSPost2010Prop40
 90
        0
102
RTVSPost2010PropOp40
 70
     1
102
RTVSPost2010Prop41ColorIndex
 90
       18
102
RTVSPost2010Prop41ColorRGB
 90
        0
102
RTVSPost2010PropOp41
 70
     1
102
RTVSPost2010Prop42
 90
       50
102
RTVSPost2010PropOp42
 70
     1
102
RTVSPost2010Prop43
 90
        3
102
RTVSPost2010PropOp43
 70
     1
102
RTVSPost2010Prop44ColorIndex
 90
        5
102
RTVSPost2010Prop44ColorRGB
 90
      255
102
RTVSPost2010PropOp44
 70
     1
102
RTVSPost2010Prop45
280
     0
102
RTVSPost2010PropOp45
 70
     1
102
RTVSPost2010Prop46
 90
       50
102
RTVSPost2010PropOp46
 70
     1
102
RTVSPost2010Prop47
 90
       50
102
RTVSPost2010PropOp47
 70
     1
102
RTVSPost2010Prop48
 90
       50
102
RTVSPost2010PropOp48
 70
     1
102
RTVSPost2010Prop49
280
     0
102
RTVSPost2010PropOp49
 70
     1
102
RTVSPost2010Prop50
 90
       50
102
RTVSPost2010PropOp50
 70
     1
102
RTVSPost2010Prop51ColorIndex
 90
      256
102
RTVSPost2010Prop51ColorRGB
 90
-16777216
102
RTVSPost2010PropOp51
 70
     0
102
RTVSPost2010Prop52
140
1.0
102
RTVSPost2010PropOp52
 70
     0
102
RTVSPost2010Prop53
 90
        2
102
RTVSPost2010PropOp53
 70
     1
102
RTVSPost2010Prop54
  1
strokes_ogs.tif
102
RTVSPost2010PropOp54
 70
     1
102
RTVSPost2010Prop55
280
     0
102
RTVSPost2010PropOp55
 70
     1
102
RTVSPost2010Prop56
140
1.0
102
RTVSPost2010PropOp56
 70
     1
102
RTVSPost2010Prop57
140
1.0
102
RTVSPost2010PropOp57
 70
     1
  0
ENDSEC
  0
EOF
