  0
SECTION
  2
HEADER
  9
$ACADVER
  1
AC1018
  9
$ACADMAINTVER
 70
     0
  9
$DWGCODEPAGE
  3
ANSI_932
  9
$INSBASE
 10
0.0
 20
0.0
 30
0.0
  9
$EXTMIN
 10
-840.0
 20
-594.0
 30
0.0
  9
$EXTMAX
 10
840.0
 20
594.0
 30
0.0
  9
$LIMMIN
 10
-840.0
 20
-594.0
  9
$LIMMAX
 10
840.0
 20
594.0
  9
$ORTHOMODE
 70
     0
  9
$REGENMODE
 70
     1
  9
$FILLMODE
 70
     1
  9
$QTEXTMODE
 70
     0
  9
$MIRRTEXT
 70
     1
  9
$LTSCALE
 40
4.0
  9
$ATTMODE
 70
     1
  9
$TEXTSIZE
 40
2.5
  9
$TRACEWID
 40
1.0
  9
$TEXTSTYLE
  7
Standard
  9
$CLAYER
  8
0
  9
$CELTYPE
  6
ByLayer
  9
$CECOLOR
 62
   256
  9
$CELTSCALE
 40
1.0
  9
$DISPSILH
 70
     0
  9
$DIMSCALE
 40
1.0
  9
$DIMASZ
 40
2.5
  9
$DIMEXO
 40
0.625
  9
$DIMDLI
 40
3.75
  9
$DIMRND
 40
0.0
  9
$DIMDLE
 40
0.0
  9
$DIMEXE
 40
1.25
  9
$DIMTP
 40
0.0
  9
$DIMTM
 40
0.0
  9
$DIMTXT
 40
2.5
  9
$DIMCEN
 40
2.5
  9
$DIMTSZ
 40
0.0
  9
$DIMTOL
 70
     0
  9
$DIMLIM
 70
     0
  9
$DIMTIH
 70
     0
  9
$DIMTOH
 70
     0
  9
$DIMSE1
 70
     0
  9
$DIMSE2
 70
     0
  9
$DIMTAD
 70
     1
  9
$DIMZIN
 70
     8
  9
$DIMBLK
  1

  9
$DIMASO
 70
     1
  9
$DIMSHO
 70
     1
  9
$DIMPOST
  1

  9
$DIMAPOST
  1

  9
$DIMALT
 70
     0
  9
$DIMALTD
 70
     3
  9
$DIMALTF
 40
0.03937007874016
  9
$DIMLFAC
 40
1.0
  9
$DIMTOFL
 70
     1
  9
$DIMTVP
 40
0.0
  9
$DIMTIX
 70
     0
  9
$DIMSOXD
 70
     0
  9
$DIMSAH
 70
     0
  9
$DIMBLK1
  1

  9
$DIMBLK2
  1

  9
$DIMSTYLE
  2
ISO-25
  9
$DIMCLRD
 70
     0
  9
$DIMCLRE
 70
     0
  9
$DIMCLRT
 70
     0
  9
$DIMTFAC
 40
1.0
  9
$DIMGAP
 40
0.625
  9
$DIMJUST
 70
     0
  9
$DIMSD1
 70
     0
  9
$DIMSD2
 70
     0
  9
$DIMTOLJ
 70
     0
  9
$DIMTZIN
 70
     8
  9
$DIMALTZ
 70
     0
  9
$DIMALTTZ
 70
     0
  9
$DIMUPT
 70
     0
  9
$DIMDEC
 70
     2
  9
$DIMTDEC
 70
     2
  9
$DIMALTU
 70
     2
  9
$DIMALTTD
 70
     3
  9
$DIMTXSTY
  7
Standard
  9
$DIMAUNIT
 70
     0
  9
$DIMADEC
 70
     0
  9
$DIMALTRND
 40
0.0
  9
$DIMAZIN
 70
     0
  9
$DIMDSEP
 70
    44
  9
$DIMATFIT
 70
     3
  9
$DIMFRAC
 70
     0
  9
$DIMLDRBLK
  1

  9
$DIMLUNIT
 70
     2
  9
$DIMLWD
 70
    -2
  9
$DIMLWE
 70
    -2
  9
$DIMTMOVE
 70
     0
  9
$LUNITS
 70
     2
  9
$LUPREC
 70
     4
  9
$SKETCHINC
 40
1.0
  9
$FILLETRAD
 40
10.0
  9
$AUNITS
 70
     0
  9
$AUPREC
 70
     0
  9
$MENU
  1
.
  9
$ELEVATION
 40
0.0
  9
$PELEVATION
 40
0.0
  9
$THICKNESS
 40
0.0
  9
$LIMCHECK
 70
     0
  9
$CHAMFERA
 40
10.0
  9
$CHAMFERB
 40
10.0
  9
$CHAMFERC
 40
20.0
  9
$CHAMFERD
 40
0.0
  9
$SKPOLY
 70
     0
  9
$TDCREATE
 40
2456498.823431933
  9
$TDUCREATE
 40
2456498.448431933
  9
$TDUPDATE
 40
2456498.823431944
  9
$TDUUPDATE
 40
2456498.448431944
  9
$TDINDWG
 40
0.0000000116
  9
$TDUSRTIMER
 40
0.0000000116
  9
$USRTIMER
 70
     1
  9
$ANGBASE
 50
0.0
  9
$ANGDIR
 70
     0
  9
$PDMODE
 70
     0
  9
$PDSIZE
 40
0.0
  9
$PLINEWID
 40
0.0
  9
$SPLFRAME
 70
     0
  9
$SPLINETYPE
 70
     6
  9
$SPLINESEGS
 70
     8
  9
$HANDSEED
  5
4B5
  9
$SURFTAB1
 70
     6
  9
$SURFTAB2
 70
     6
  9
$SURFTYPE
 70
     6
  9
$SURFU
 70
     6
  9
$SURFV
 70
     6
  9
$UCSBASE
  2

  9
$UCSNAME
  2

  9
$UCSORG
 10
0.0
 20
0.0
 30
0.0
  9
$UCSXDIR
 10
1.0
 20
0.0
 30
0.0
  9
$UCSYDIR
 10
0.0
 20
1.0
 30
0.0
  9
$UCSORTHOREF
  2

  9
$UCSORTHOVIEW
 70
     0
  9
$UCSORGTOP
 10
0.0
 20
0.0
 30
0.0
  9
$UCSORGBOTTOM
 10
0.0
 20
0.0
 30
0.0
  9
$UCSORGLEFT
 10
0.0
 20
0.0
 30
0.0
  9
$UCSORGRIGHT
 10
0.0
 20
0.0
 30
0.0
  9
$UCSORGFRONT
 10
0.0
 20
0.0
 30
0.0
  9
$UCSORGBACK
 10
0.0
 20
0.0
 30
0.0
  9
$PUCSBASE
  2

  9
$PUCSNAME
  2

  9
$PUCSORG
 10
0.0
 20
0.0
 30
0.0
  9
$PUCSXDIR
 10
1.0
 20
0.0
 30
0.0
  9
$PUCSYDIR
 10
0.0
 20
1.0
 30
0.0
  9
$PUCSORTHOREF
  2

  9
$PUCSORTHOVIEW
 70
     0
  9
$PUCSORGTOP
 10
0.0
 20
0.0
 30
0.0
  9
$PUCSORGBOTTOM
 10
0.0
 20
0.0
 30
0.0
  9
$PUCSORGLEFT
 10
0.0
 20
0.0
 30
0.0
  9
$PUCSORGRIGHT
 10
0.0
 20
0.0
 30
0.0
  9
$PUCSORGFRONT
 10
0.0
 20
0.0
 30
0.0
  9
$PUCSORGBACK
 10
0.0
 20
0.0
 30
0.0
  9
$USERI1
 70
     0
  9
$USERI2
 70
     0
  9
$USERI3
 70
     0
  9
$USERI4
 70
     0
  9
$USERI5
 70
     0
  9
$USERR1
 40
0.0
  9
$USERR2
 40
0.0
  9
$USERR3
 40
0.0
  9
$USERR4
 40
0.0
  9
$USERR5
 40
0.0
  9
$WORLDVIEW
 70
     1
  9
$SHADEDGE
 70
     3
  9
$SHADEDIF
 70
    70
  9
$TILEMODE
 70
     1
  9
$MAXACTVP
 70
    64
  9
$PINSBASE
 10
0.0
 20
0.0
 30
0.0
  9
$PLIMCHECK
 70
     0
  9
$PEXTMIN
 10
1.000000000000000E+20
 20
1.000000000000000E+20
 30
1.000000000000000E+20
  9
$PEXTMAX
 10
-1.000000000000000E+20
 20
-1.000000000000000E+20
 30
-1.000000000000000E+20
  9
$PLIMMIN
 10
0.0
 20
0.0
  9
$PLIMMAX
 10
420.0
 20
297.0
  9
$UNITMODE
 70
     0
  9
$VISRETAIN
 70
     1
  9
$PLINEGEN
 70
     0
  9
$PSLTSCALE
 70
     1
  9
$TREEDEPTH
 70
  3020
  9
$CMLSTYLE
  2
Standard
  9
$CMLJUST
 70
     0
  9
$CMLSCALE
 40
20.0
  9
$PROXYGRAPHICS
 70
     1
  9
$MEASUREMENT
 70
     1
  9
$CELWEIGHT
370
    -1
  9
$ENDCAPS
280
     0
  9
$JOINSTYLE
280
     0
  9
$LWDISPLAY
290
     0
  9
$INSUNITS
 70
     4
  9
$HYPERLINKBASE
  1

  9
$STYLESHEET
  1

  9
$XEDIT
290
     1
  9
$CEPSNTYPE
380
     0
  9
$PSTYLEMODE
290
     1
  9
$FINGERPRINTGUID
  2
{31738AB4-A9A5-4003-AB5D-59F8A739E0ED}
  9
$VERSIONGUID
  2
{FAEB1C32-E019-11D5-929B-00C0DF256EC4}
  9
$EXTNAMES
290
     1
  9
$PSVPSCALE
 40
0.0
  9
$OLESTARTUP
290
     0
  9
$SORTENTS
280
   127
  9
$INDEXCTL
280
     0
  9
$HIDETEXT
280
     1
  9
$XCLIPFRAME
290
     0
  9
$HALOGAP
280
     0
  9
$OBSCOLOR
 70
   257
  9
$OBSLTYPE
280
     0
  9
$INTERSECTIONDISPLAY
280
     0
  9
$INTERSECTIONCOLOR
 70
   257
  9
$DIMASSOC
280
     2
  9
$PROJECTNAME
  1

  0
ENDSEC
  0
SECTION
  2
CLASSES
  0
CLASS
  1
ACDBDICTIONARYWDFLT
  2
AcDbDictionaryWithDefault
  3
ObjectDBX Classes
 90
        0
 91
        4
280
     0
281
     0
  0
CLASS
  1
VISUALSTYLE
  2
AcDbVisualStyle
  3
ObjectDBX Classes
 90
     4095
 91
        4
280
     0
281
     0
  0
ENDSEC
  0
SECTION
  2
TABLES
  0
TABLE
  2
VPORT
  5
8
330
0
100
AcDbSymbolTable
 70
     1
  0
VPORT
  5
29
330
8
100
AcDbSymbolTableRecord
100
AcDbViewportTableRecord
  2
*Active
 70
     0
 10
0.0
 20
0.0
 11
1.0
 21
1.0
 12
0.0
 22
0.0
 13
0.0
 23
0.0
 14
10.0
 24
10.0
 15
10.0
 25
10.0
 16
0.0
 26
0.0
 36
1.0
 17
0.0
 27
0.0
 37
0.0
 40
1306.8
 41
1.414141414141414
 42
50.0
 43
0.0
 44
0.0
 50
0.0
 51
0.0
 71
     0
 72
 10000
 73
     1
 74
     3
 75
     0
 76
     0
 77
     0
 78
     0
281
     0
 65
     1
110
0.0
120
0.0
130
0.0
111
1.0
121
0.0
131
0.0
112
0.0
122
1.0
132
0.0
 79
     0
146
0.0
  0
ENDTAB
  0
TABLE
  2
LTYPE
  5
5
330
0
100
AcDbSymbolTable
 70
     2
  0
LTYPE
  5
14
330
5
100
AcDbSymbolTableRecord
100
AcDbLinetypeTableRecord
  2
ByBlock
 70
     0
  3

 72
    65
 73
     0
 40
0.0
  0
LTYPE
  5
15
330
5
100
AcDbSymbolTableRecord
100
AcDbLinetypeTableRecord
  2
ByLayer
 70
     0
  3

 72
    65
 73
     0
 40
0.0
  0
LTYPE
  5
16
330
5
100
AcDbSymbolTableRecord
100
AcDbLinetypeTableRecord
  2
Continuous
 70
     0
  3
Solid line
 72
    65
 73
     0
 40
0.0
  0
LTYPE
  5
3C
330
5
100
AcDbSymbolTableRecord
100
AcDbLinetypeTableRecord
  2
JWW_CENTER1
 70
     0
  3
-----  --  ----------  --  -----
 72
    65
 73
     4
 40
6.773333333333333
 49
4.233333333333333
 74
     0
 49
-0.8466666666666667
 74
     0
 49
0.8466666666666667
 74
     0
 49
-0.8466666666666667
 74
     0
  0
ENDTAB
  0
TABLE
  2
LAYER
  5
2
330
0
100
AcDbSymbolTable
 70
     8
  0
LAYER
  5
10
330
2
100
AcDbSymbolTableRecord
100
AcDbLayerTableRecord
  2
0
 70
     0
 62
     7
  6
Continuous
370
    -3
390
F
  0
LAYER
  5
3D
330
2
100
AcDbSymbolTableRecord
100
AcDbLayerTableRecord
  2
0-0
 70
     0
 62
     7
  6
Continuous
370
    -3
390
F
  0
LAYER
  5
3E
330
2
100
AcDbSymbolTableRecord
100
AcDbLayerTableRecord
  2
0-1
 70
     0
 62
     7
  6
Continuous
370
    -3
390
F
  0
LAYER
  5
3F
330
2
100
AcDbSymbolTableRecord
100
AcDbLayerTableRecord
  2
0-4
 70
     0
 62
     7
  6
Continuous
370
    -3
390
F
  0
LAYER
  5
40
330
2
100
AcDbSymbolTableRecord
100
AcDbLayerTableRecord
  2
0-F
 70
     0
 62
     7
  6
Continuous
370
    -3
390
F
  0
LAYER
  5
41
330
2
100
AcDbSymbolTableRecord
100
AcDbLayerTableRecord
  2
F-E
 70
     0
 62
     7
  6
Continuous
370
    -3
390
F
  0
LAYER
  5
42
330
2
100
AcDbSymbolTableRecord
100
AcDbLayerTableRecord
  2
0-5
 70
     0
 62
     7
  6
Continuous
370
    -3
390
F
  0
LAYER
  5
43
330
2
100
AcDbSymbolTableRecord
100
AcDbLayerTableRecord
  2
F-5
 70
     0
 62
     7
  6
Continuous
370
    -3
390
F
  0
ENDTAB
  0
TABLE
  2
STYLE
  5
3
330
0
100
AcDbSymbolTable
 70
     2
  0
STYLE
  5
11
330
3
100
AcDbSymbolTableRecord
100
AcDbTextStyleTableRecord
  2
Standard
 70
     0
 40
0.0
 41
1.0
 50
0.0
 71
     0
 42
2.5
  3
txt
  4

1001
ACAD
1000

1071
        0
  0
STYLE
  5
3B
330
3
100
AcDbSymbolTableRecord
100
AcDbTextStyleTableRecord
  2
ＭＳ ゴシック
 70
     0
 40
1.0
 41
1.0
 50
0.0
 71
     0
 42
10.0
  3

  4

1001
ACAD
1000
MS Gothic
1071
    32817
  0
ENDTAB
  0
TABLE
  2
VIEW
  5
6
330
0
100
AcDbSymbolTable
 70
     0
  0
ENDTAB
  0
TABLE
  2
UCS
  5
7
330
0
100
AcDbSymbolTable
 70
     0
  0
ENDTAB
  0
TABLE
  2
APPID
  5
9
330
0
100
AcDbSymbolTable
 70
     1
  0
APPID
  5
12
330
9
100
AcDbSymbolTableRecord
100
AcDbRegAppTableRecord
  2
ACAD
 70
     0
  0
ENDTAB
  0
TABLE
  2
DIMSTYLE
  5
A
330
0
100
AcDbSymbolTable
 70
     1
100
AcDbDimStyleTable
  0
DIMSTYLE
105
27
330
A
100
AcDbSymbolTableRecord
100
AcDbDimStyleTableRecord
  2
ISO-25
 70
     0
 41
2.5
 42
0.625
 43
3.75
 44
1.25
 73
     0
 74
     0
 77
     1
 78
     8
140
2.5
141
2.5
143
0.03937007874016
147
0.625
171
     3
172
     1
271
     2
272
     2
274
     3
278
    44
283
     0
284
     8
340
11
  0
ENDTAB
  0
TABLE
  2
BLOCK_RECORD
  5
1
330
0
100
AcDbSymbolTable
 70
     1
  0
BLOCK_RECORD
  5
1F
330
1
100
AcDbSymbolTableRecord
100
AcDbBlockTableRecord
  2
*Model_Space
340
22
  0
BLOCK_RECORD
  5
1B
330
1
100
AcDbSymbolTableRecord
100
AcDbBlockTableRecord
  2
*Paper_Space
340
1E
  0
BLOCK_RECORD
  5
23
330
1
100
AcDbSymbolTableRecord
100
AcDbBlockTableRecord
  2
*Paper_Space0
340
26
  0
ENDTAB
  0
ENDSEC
  0
SECTION
  2
BLOCKS
  0
BLOCK
  5
20
330
1F
100
AcDbEntity
  8
0
100
AcDbBlockBegin
  2
*Model_Space
 70
     0
 10
0.0
 20
0.0
 30
0.0
  3
*Model_Space
  1

  0
ENDBLK
  5
21
330
1F
100
AcDbEntity
  8
0
100
AcDbBlockEnd
  0
BLOCK
  5
1C
330
1B
100
AcDbEntity
 67
     1
  8
0
100
AcDbBlockBegin
  2
*Paper_Space
 70
     0
 10
0.0
 20
0.0
 30
0.0
  3
*Paper_Space
  1

  0
ENDBLK
  5
1D
330
1B
100
AcDbEntity
 67
     1
  8
0
100
AcDbBlockEnd
  0
BLOCK
  5
24
330
23
100
AcDbEntity
  8
0
100
AcDbBlockBegin
  2
*Paper_Space0
 70
     0
 10
0.0
 20
0.0
 30
0.0
  3
*Paper_Space0
  1

  0
ENDBLK
  5
25
330
23
100
AcDbEntity
  8
0
100
AcDbBlockEnd
  0
ENDSEC
  0
SECTION
  2
ENTITIES
  0
LINE
  5
44
330
1F
100
AcDbEntity
  8
0-0
  6
Continuous
 62
     3
370
     9
100
AcDbLine
 10
-508.0673960092905
 20
278.5676335515203
 30
0.0
 11
-508.0673960092905
 21
-91.4324984163851
 31
0.0
  0
LINE
  5
45
330
1F
100
AcDbEntity
  8
0-0
  6
Continuous
 62
     3
370
     9
100
AcDbLine
 10
-133.0673960092905
 20
283.5675015836149
 30
0.0
 11
-503.0675279771959
 21
283.5675015836149
 31
0.0
  0
LINE
  5
46
330
1F
100
AcDbEntity
  8
0-0
  6
Continuous
 62
     3
370
     9
100
AcDbLine
 10
-468.0668681376689
 20
-73.43273595861478
 30
0.0
 11
-483.0668681376689
 21
-73.43273595861478
 31
0.0
  0
LINE
  5
47
330
1F
100
AcDbEntity
  8
0-0
  6
Continuous
 62
     3
370
     9
100
AcDbLine
 10
-466.0669605152027
 20
-41.43272936021958
 30
0.0
 11
-466.0669605152027
 21
-71.43282833614865
 31
0.0
  0
LINE
  5
48
330
1F
100
AcDbEntity
  8
0-0
  6
Continuous
 62
     3
370
     9
100
AcDbLine
 10
-483.0668681376689
 20
-39.43272276182427
 30
0.0
 11
-468.0668681376689
 21
-39.43272276182427
 31
0.0
  0
LINE
  5
49
330
1F
100
AcDbEntity
  8
0-0
  6
Continuous
 62
     3
370
     9
100
AcDbLine
 10
-485.0669737119932
 20
-41.43272936021958
 30
0.0
 11
-485.0669737119932
 21
-71.43282833614865
 31
0.0
  0
LINE
  5
4A
330
1F
100
AcDbEntity
  8
0-0
  6
Continuous
 62
     3
370
     9
100
AcDbLine
 10
-133.0673960092905
 20
-96.43246542440875
 30
0.0
 11
-503.0675279771959
 21
-96.43246542440875
 31
0.0
  0
LINE
  5
4B
330
1F
100
AcDbEntity
  8
0-0
  6
Continuous
 62
     3
370
     9
100
AcDbLine
 10
-128.0674290012669
 20
-91.4324984163851
 30
0.0
 11
-128.0674290012669
 21
278.5676335515203
 31
0.0
  0
LINE
  5
4C
330
1F
100
AcDbEntity
  8
0-0
  6
Continuous
 62
     3
370
     9
100
AcDbLine
 10
-468.0668681376689
 20
-23.43257099873313
 30
0.0
 11
-483.0668681376689
 21
-23.43257099873313
 31
0.0
  0
LINE
  5
4D
330
1F
100
AcDbEntity
  8
0-0
  6
Continuous
 62
     3
370
     9
100
AcDbLine
 10
-466.0669605152027
 20
8.56743559966219
 30
0.0
 11
-466.0669605152027
 21
-21.43266337626687
 31
0.0
  0
LINE
  5
4E
330
1F
100
AcDbEntity
  8
0-0
  6
Continuous
 62
     3
370
     9
100
AcDbLine
 10
-483.0668681376689
 20
10.56744219805751
 30
0.0
 11
-468.0668681376689
 21
10.56744219805751
 31
0.0
  0
LINE
  5
4F
330
1F
100
AcDbEntity
  8
0-0
  6
Continuous
 62
     3
370
     9
100
AcDbLine
 10
-485.0669737119932
 20
8.56743559966219
 30
0.0
 11
-485.0669737119932
 21
-21.43266337626687
 31
0.0
  0
LINE
  5
50
330
1F
100
AcDbEntity
  8
0-0
  6
Continuous
 62
     3
370
     9
100
AcDbLine
 10
-468.0668681376689
 20
26.56749498521958
 30
0.0
 11
-483.0668681376689
 21
26.56749498521958
 31
0.0
  0
LINE
  5
51
330
1F
100
AcDbEntity
  8
0-0
  6
Continuous
 62
     3
370
     9
100
AcDbLine
 10
-466.0669605152027
 20
58.5675015836149
 30
0.0
 11
-466.0669605152027
 21
28.56740260768584
 31
0.0
  0
LINE
  5
52
330
1F
100
AcDbEntity
  8
0-0
  6
Continuous
 62
     3
370
     9
100
AcDbLine
 10
-483.0668681376689
 20
60.56750818201022
 30
0.0
 11
-468.0668681376689
 21
60.56750818201022
 31
0.0
  0
LINE
  5
53
330
1F
100
AcDbEntity
  8
0-0
  6
Continuous
 62
     3
370
     9
100
AcDbLine
 10
-485.0669737119932
 20
58.5675015836149
 30
0.0
 11
-485.0669737119932
 21
28.56740260768584
 31
0.0
  0
LINE
  5
54
330
1F
100
AcDbEntity
  8
0-0
  6
Continuous
 62
     3
370
     9
100
AcDbLine
 10
-468.0668681376689
 20
76.56765994510135
 30
0.0
 11
-483.0668681376689
 21
76.56765994510135
 31
0.0
  0
LINE
  5
55
330
1F
100
AcDbEntity
  8
0-0
  6
Continuous
 62
     3
370
     9
100
AcDbLine
 10
-466.0669605152027
 20
108.5675675675676
 30
0.0
 11
-466.0669605152027
 21
78.56756756756761
 31
0.0
  0
LINE
  5
56
330
1F
100
AcDbEntity
  8
0-0
  6
Continuous
 62
     3
370
     9
100
AcDbLine
 10
-483.0668681376689
 20
110.567673141892
 30
0.0
 11
-468.0668681376689
 21
110.567673141892
 31
0.0
  0
LINE
  5
57
330
1F
100
AcDbEntity
  8
0-0
  6
Continuous
 62
     3
370
     9
100
AcDbLine
 10
-485.0669737119932
 20
108.5675675675676
 30
0.0
 11
-485.0669737119932
 21
78.56756756756761
 31
0.0
  0
LINE
  5
58
330
1F
100
AcDbEntity
  8
0-0
  6
Continuous
 62
     3
370
     9
100
AcDbLine
 10
-468.0668681376689
 20
126.5677259290541
 30
0.0
 11
-483.0668681376689
 21
126.5677259290541
 31
0.0
  0
LINE
  5
59
330
1F
100
AcDbEntity
  8
0-0
  6
Continuous
 62
     3
370
     9
100
AcDbLine
 10
-466.0669605152027
 20
158.5676335515203
 30
0.0
 11
-466.0669605152027
 21
128.5676335515203
 31
0.0
  0
LINE
  5
5A
330
1F
100
AcDbEntity
  8
0-0
  6
Continuous
 62
     3
370
     9
100
AcDbLine
 10
-483.0668681376689
 20
160.5677391258446
 30
0.0
 11
-468.0668681376689
 21
160.5677391258446
 31
0.0
  0
LINE
  5
5B
330
1F
100
AcDbEntity
  8
0-0
  6
Continuous
 62
     3
370
     9
100
AcDbLine
 10
-485.0669737119932
 20
158.5676335515203
 30
0.0
 11
-485.0669737119932
 21
128.5676335515203
 31
0.0
  0
LINE
  5
5C
330
1F
100
AcDbEntity
  8
0-0
  6
Continuous
 62
     3
370
     9
100
AcDbLine
 10
-468.0668681376689
 20
176.5677919130068
 30
0.0
 11
-483.0668681376689
 21
176.5677919130068
 31
0.0
  0
LINE
  5
5D
330
1F
100
AcDbEntity
  8
0-0
  6
Continuous
 62
     3
370
     9
100
AcDbLine
 10
-466.0669605152027
 20
208.5678974873312
 30
0.0
 11
-466.0669605152027
 21
178.567699535473
 31
0.0
  0
LINE
  5
5E
330
1F
100
AcDbEntity
  8
0-0
  6
Continuous
 62
     3
370
     9
100
AcDbLine
 10
-483.0668681376689
 20
210.5678051097973
 30
0.0
 11
-468.0668681376689
 21
210.5678051097973
 31
0.0
  0
LINE
  5
5F
330
1F
100
AcDbEntity
  8
0-0
  6
Continuous
 62
     3
370
     9
100
AcDbLine
 10
-485.0669737119932
 20
208.5678974873312
 30
0.0
 11
-485.0669737119932
 21
178.567699535473
 31
0.0
  0
LINE
  5
60
330
1F
100
AcDbEntity
  8
0-0
  6
Continuous
 62
     3
370
     9
100
AcDbLine
 10
-468.0668681376689
 20
226.5678578969595
 30
0.0
 11
-483.0668681376689
 21
226.5678578969595
 31
0.0
  0
LINE
  5
61
330
1F
100
AcDbEntity
  8
0-0
  6
Continuous
 62
     3
370
     9
100
AcDbLine
 10
-466.0669605152027
 20
258.5679634712839
 30
0.0
 11
-466.0669605152027
 21
228.5677655194257
 31
0.0
  0
LINE
  5
62
330
1F
100
AcDbEntity
  8
0-0
  6
Continuous
 62
     3
370
     9
100
AcDbLine
 10
-483.0668681376689
 20
260.56787109375
 30
0.0
 11
-468.0668681376689
 21
260.56787109375
 31
0.0
  0
LINE
  5
63
330
1F
100
AcDbEntity
  8
0-0
  6
Continuous
 62
     3
370
     9
100
AcDbLine
 10
-485.0669737119932
 20
258.5679634712839
 30
0.0
 11
-485.0669737119932
 21
228.5677655194257
 31
0.0
  0
LINE
  5
64
330
1F
100
AcDbEntity
  8
0-0
  6
Continuous
 62
     3
370
     9
100
AcDbLine
 10
-433.0670001055743
 20
-73.43273595861478
 30
0.0
 11
-448.0670001055743
 21
-73.43273595861478
 31
0.0
  0
LINE
  5
65
330
1F
100
AcDbEntity
  8
0-0
  6
Continuous
 62
     3
370
     9
100
AcDbLine
 10
-431.0670924831081
 20
-41.43272936021958
 30
0.0
 11
-431.0670924831081
 21
-71.43282833614865
 31
0.0
  0
LINE
  5
66
330
1F
100
AcDbEntity
  8
0-0
  6
Continuous
 62
     3
370
     9
100
AcDbLine
 10
-448.0670001055743
 20
-39.43272276182427
 30
0.0
 11
-433.0670001055743
 21
-39.43272276182427
 31
0.0
  0
LINE
  5
67
330
1F
100
AcDbEntity
  8
0-0
  6
Continuous
 62
     3
370
     9
100
AcDbLine
 10
-450.0671056798986
 20
-41.43272936021958
 30
0.0
 11
-450.0671056798986
 21
-71.43282833614865
 31
0.0
  0
LINE
  5
68
330
1F
100
AcDbEntity
  8
0-0
  6
Continuous
 62
     3
370
     9
100
AcDbLine
 10
-433.0670001055743
 20
-23.43257099873313
 30
0.0
 11
-448.0670001055743
 21
-23.43257099873313
 31
0.0
  0
LINE
  5
69
330
1F
100
AcDbEntity
  8
0-0
  6
Continuous
 62
     3
370
     9
100
AcDbLine
 10
-431.0670924831081
 20
8.56743559966219
 30
0.0
 11
-431.0670924831081
 21
-21.43266337626687
 31
0.0
  0
LINE
  5
6A
330
1F
100
AcDbEntity
  8
0-0
  6
Continuous
 62
     3
370
     9
100
AcDbLine
 10
-448.0670001055743
 20
10.56744219805751
 30
0.0
 11
-433.0670001055743
 21
10.56744219805751
 31
0.0
  0
LINE
  5
6B
330
1F
100
AcDbEntity
  8
0-0
  6
Continuous
 62
     3
370
     9
100
AcDbLine
 10
-450.0671056798986
 20
8.56743559966219
 30
0.0
 11
-450.0671056798986
 21
-21.43266337626687
 31
0.0
  0
LINE
  5
6C
330
1F
100
AcDbEntity
  8
0-0
  6
Continuous
 62
     3
370
     9
100
AcDbLine
 10
-433.0670001055743
 20
26.56749498521958
 30
0.0
 11
-448.0670001055743
 21
26.56749498521958
 31
0.0
  0
LINE
  5
6D
330
1F
100
AcDbEntity
  8
0-0
  6
Continuous
 62
     3
370
     9
100
AcDbLine
 10
-431.0670924831081
 20
58.5675015836149
 30
0.0
 11
-431.0670924831081
 21
28.56740260768584
 31
0.0
  0
LINE
  5
6E
330
1F
100
AcDbEntity
  8
0-0
  6
Continuous
 62
     3
370
     9
100
AcDbLine
 10
-448.0670001055743
 20
60.56750818201022
 30
0.0
 11
-433.0670001055743
 21
60.56750818201022
 31
0.0
  0
LINE
  5
6F
330
1F
100
AcDbEntity
  8
0-0
  6
Continuous
 62
     3
370
     9
100
AcDbLine
 10
-450.0671056798986
 20
58.5675015836149
 30
0.0
 11
-450.0671056798986
 21
28.56740260768584
 31
0.0
  0
LINE
  5
70
330
1F
100
AcDbEntity
  8
0-0
  6
Continuous
 62
     3
370
     9
100
AcDbLine
 10
-433.0670001055743
 20
76.56765994510135
 30
0.0
 11
-448.0670001055743
 21
76.56765994510135
 31
0.0
  0
LINE
  5
71
330
1F
100
AcDbEntity
  8
0-0
  6
Continuous
 62
     3
370
     9
100
AcDbLine
 10
-431.0670924831081
 20
108.5675675675676
 30
0.0
 11
-431.0670924831081
 21
78.56756756756761
 31
0.0
  0
LINE
  5
72
330
1F
100
AcDbEntity
  8
0-0
  6
Continuous
 62
     3
370
     9
100
AcDbLine
 10
-448.0670001055743
 20
110.567673141892
 30
0.0
 11
-433.0670001055743
 21
110.567673141892
 31
0.0
  0
LINE
  5
73
330
1F
100
AcDbEntity
  8
0-0
  6
Continuous
 62
     3
370
     9
100
AcDbLine
 10
-450.0671056798986
 20
108.5675675675676
 30
0.0
 11
-450.0671056798986
 21
78.56756756756761
 31
0.0
  0
LINE
  5
74
330
1F
100
AcDbEntity
  8
0-0
  6
Continuous
 62
     3
370
     9
100
AcDbLine
 10
-433.0670001055743
 20
126.5677259290541
 30
0.0
 11
-448.0670001055743
 21
126.5677259290541
 31
0.0
  0
LINE
  5
75
330
1F
100
AcDbEntity
  8
0-0
  6
Continuous
 62
     3
370
     9
100
AcDbLine
 10
-431.0670924831081
 20
158.5676335515203
 30
0.0
 11
-431.0670924831081
 21
128.5676335515203
 31
0.0
  0
LINE
  5
76
330
1F
100
AcDbEntity
  8
0-0
  6
Continuous
 62
     3
370
     9
100
AcDbLine
 10
-448.0670001055743
 20
160.5677391258446
 30
0.0
 11
-433.0670001055743
 21
160.5677391258446
 31
0.0
  0
LINE
  5
77
330
1F
100
AcDbEntity
  8
0-0
  6
Continuous
 62
     3
370
     9
100
AcDbLine
 10
-450.0671056798986
 20
158.5676335515203
 30
0.0
 11
-450.0671056798986
 21
128.5676335515203
 31
0.0
  0
LINE
  5
78
330
1F
100
AcDbEntity
  8
0-0
  6
Continuous
 62
     3
370
     9
100
AcDbLine
 10
-433.0670001055743
 20
176.5677919130068
 30
0.0
 11
-448.0670001055743
 21
176.5677919130068
 31
0.0
  0
LINE
  5
79
330
1F
100
AcDbEntity
  8
0-0
  6
Continuous
 62
     3
370
     9
100
AcDbLine
 10
-431.0670924831081
 20
208.5678974873312
 30
0.0
 11
-431.0670924831081
 21
178.567699535473
 31
0.0
  0
LINE
  5
7A
330
1F
100
AcDbEntity
  8
0-0
  6
Continuous
 62
     3
370
     9
100
AcDbLine
 10
-448.0670001055743
 20
210.5678051097973
 30
0.0
 11
-433.0670001055743
 21
210.5678051097973
 31
0.0
  0
LINE
  5
7B
330
1F
100
AcDbEntity
  8
0-0
  6
Continuous
 62
     3
370
     9
100
AcDbLine
 10
-450.0671056798986
 20
208.5678974873312
 30
0.0
 11
-450.0671056798986
 21
178.567699535473
 31
0.0
  0
LINE
  5
7C
330
1F
100
AcDbEntity
  8
0-0
  6
Continuous
 62
     3
370
     9
100
AcDbLine
 10
-433.0670001055743
 20
226.5678578969595
 30
0.0
 11
-448.0670001055743
 21
226.5678578969595
 31
0.0
  0
LINE
  5
7D
330
1F
100
AcDbEntity
  8
0-0
  6
Continuous
 62
     3
370
     9
100
AcDbLine
 10
-431.0670924831081
 20
258.5679634712839
 30
0.0
 11
-431.0670924831081
 21
228.5677655194257
 31
0.0
  0
LINE
  5
7E
330
1F
100
AcDbEntity
  8
0-0
  6
Continuous
 62
     3
370
     9
100
AcDbLine
 10
-448.0670001055743
 20
260.56787109375
 30
0.0
 11
-433.0670001055743
 21
260.56787109375
 31
0.0
  0
LINE
  5
7F
330
1F
100
AcDbEntity
  8
0-0
  6
Continuous
 62
     3
370
     9
100
AcDbLine
 10
-450.0671056798986
 20
258.5679634712839
 30
0.0
 11
-450.0671056798986
 21
228.5677655194257
 31
0.0
  0
LINE
  5
80
330
1F
100
AcDbEntity
  8
0-0
  6
Continuous
 62
     3
370
     9
100
AcDbLine
 10
-398.0671320734797
 20
-73.43273595861478
 30
0.0
 11
-413.0671320734797
 21
-73.43273595861478
 31
0.0
  0
LINE
  5
81
330
1F
100
AcDbEntity
  8
0-0
  6
Continuous
 62
     3
370
     9
100
AcDbLine
 10
-396.0672244510135
 20
-41.43272936021958
 30
0.0
 11
-396.0672244510135
 21
-71.43282833614865
 31
0.0
  0
LINE
  5
82
330
1F
100
AcDbEntity
  8
0-0
  6
Continuous
 62
     3
370
     9
100
AcDbLine
 10
-413.0671320734797
 20
-39.43272276182427
 30
0.0
 11
-398.0671320734797
 21
-39.43272276182427
 31
0.0
  0
LINE
  5
83
330
1F
100
AcDbEntity
  8
0-0
  6
Continuous
 62
     3
370
     9
100
AcDbLine
 10
-415.067237647804
 20
-41.43272936021958
 30
0.0
 11
-415.067237647804
 21
-71.43282833614865
 31
0.0
  0
LINE
  5
84
330
1F
100
AcDbEntity
  8
0-0
  6
Continuous
 62
     3
370
     9
100
AcDbLine
 10
-398.0671320734797
 20
-23.43257099873313
 30
0.0
 11
-413.0671320734797
 21
-23.43257099873313
 31
0.0
  0
LINE
  5
85
330
1F
100
AcDbEntity
  8
0-0
  6
Continuous
 62
     3
370
     9
100
AcDbLine
 10
-396.0672244510135
 20
8.56743559966219
 30
0.0
 11
-396.0672244510135
 21
-21.43266337626687
 31
0.0
  0
LINE
  5
86
330
1F
100
AcDbEntity
  8
0-0
  6
Continuous
 62
     3
370
     9
100
AcDbLine
 10
-413.0671320734797
 20
10.56744219805751
 30
0.0
 11
-398.0671320734797
 21
10.56744219805751
 31
0.0
  0
LINE
  5
87
330
1F
100
AcDbEntity
  8
0-0
  6
Continuous
 62
     3
370
     9
100
AcDbLine
 10
-415.067237647804
 20
8.56743559966219
 30
0.0
 11
-415.067237647804
 21
-21.43266337626687
 31
0.0
  0
LINE
  5
88
330
1F
100
AcDbEntity
  8
0-0
  6
Continuous
 62
     3
370
     9
100
AcDbLine
 10
-398.0671320734797
 20
26.56749498521958
 30
0.0
 11
-413.0671320734797
 21
26.56749498521958
 31
0.0
  0
LINE
  5
89
330
1F
100
AcDbEntity
  8
0-0
  6
Continuous
 62
     3
370
     9
100
AcDbLine
 10
-396.0672244510135
 20
58.5675015836149
 30
0.0
 11
-396.0672244510135
 21
28.56740260768584
 31
0.0
  0
LINE
  5
8A
330
1F
100
AcDbEntity
  8
0-0
  6
Continuous
 62
     3
370
     9
100
AcDbLine
 10
-413.0671320734797
 20
60.56750818201022
 30
0.0
 11
-398.0671320734797
 21
60.56750818201022
 31
0.0
  0
LINE
  5
8B
330
1F
100
AcDbEntity
  8
0-0
  6
Continuous
 62
     3
370
     9
100
AcDbLine
 10
-415.067237647804
 20
58.5675015836149
 30
0.0
 11
-415.067237647804
 21
28.56740260768584
 31
0.0
  0
LINE
  5
8C
330
1F
100
AcDbEntity
  8
0-0
  6
Continuous
 62
     3
370
     9
100
AcDbLine
 10
-398.0671320734797
 20
76.56765994510135
 30
0.0
 11
-413.0671320734797
 21
76.56765994510135
 31
0.0
  0
LINE
  5
8D
330
1F
100
AcDbEntity
  8
0-0
  6
Continuous
 62
     3
370
     9
100
AcDbLine
 10
-396.0672244510135
 20
108.5675675675676
 30
0.0
 11
-396.0672244510135
 21
78.56756756756761
 31
0.0
  0
LINE
  5
8E
330
1F
100
AcDbEntity
  8
0-0
  6
Continuous
 62
     3
370
     9
100
AcDbLine
 10
-413.0671320734797
 20
110.567673141892
 30
0.0
 11
-398.0671320734797
 21
110.567673141892
 31
0.0
  0
LINE
  5
8F
330
1F
100
AcDbEntity
  8
0-0
  6
Continuous
 62
     3
370
     9
100
AcDbLine
 10
-415.067237647804
 20
108.5675675675676
 30
0.0
 11
-415.067237647804
 21
78.56756756756761
 31
0.0
  0
LINE
  5
90
330
1F
100
AcDbEntity
  8
0-0
  6
Continuous
 62
     3
370
     9
100
AcDbLine
 10
-398.0671320734797
 20
126.5677259290541
 30
0.0
 11
-413.0671320734797
 21
126.5677259290541
 31
0.0
  0
LINE
  5
91
330
1F
100
AcDbEntity
  8
0-0
  6
Continuous
 62
     3
370
     9
100
AcDbLine
 10
-396.0672244510135
 20
158.5676335515203
 30
0.0
 11
-396.0672244510135
 21
128.5676335515203
 31
0.0
  0
LINE
  5
92
330
1F
100
AcDbEntity
  8
0-0
  6
Continuous
 62
     3
370
     9
100
AcDbLine
 10
-413.0671320734797
 20
160.5677391258446
 30
0.0
 11
-398.0671320734797
 21
160.5677391258446
 31
0.0
  0
LINE
  5
93
330
1F
100
AcDbEntity
  8
0-0
  6
Continuous
 62
     3
370
     9
100
AcDbLine
 10
-415.067237647804
 20
158.5676335515203
 30
0.0
 11
-415.067237647804
 21
128.5676335515203
 31
0.0
  0
LINE
  5
94
330
1F
100
AcDbEntity
  8
0-0
  6
Continuous
 62
     3
370
     9
100
AcDbLine
 10
-398.0671320734797
 20
176.5677919130068
 30
0.0
 11
-413.0671320734797
 21
176.5677919130068
 31
0.0
  0
LINE
  5
95
330
1F
100
AcDbEntity
  8
0-0
  6
Continuous
 62
     3
370
     9
100
AcDbLine
 10
-396.0672244510135
 20
208.5678974873312
 30
0.0
 11
-396.0672244510135
 21
178.567699535473
 31
0.0
  0
LINE
  5
96
330
1F
100
AcDbEntity
  8
0-0
  6
Continuous
 62
     3
370
     9
100
AcDbLine
 10
-413.0671320734797
 20
210.5678051097973
 30
0.0
 11
-398.0671320734797
 21
210.5678051097973
 31
0.0
  0
LINE
  5
97
330
1F
100
AcDbEntity
  8
0-0
  6
Continuous
 62
     3
370
     9
100
AcDbLine
 10
-415.067237647804
 20
208.5678974873312
 30
0.0
 11
-415.067237647804
 21
178.567699535473
 31
0.0
  0
LINE
  5
98
330
1F
100
AcDbEntity
  8
0-0
  6
Continuous
 62
     3
370
     9
100
AcDbLine
 10
-398.0671320734797
 20
226.5678578969595
 30
0.0
 11
-413.0671320734797
 21
226.5678578969595
 31
0.0
  0
LINE
  5
99
330
1F
100
AcDbEntity
  8
0-0
  6
Continuous
 62
     3
370
     9
100
AcDbLine
 10
-396.0672244510135
 20
258.5679634712839
 30
0.0
 11
-396.0672244510135
 21
228.5677655194257
 31
0.0
  0
LINE
  5
9A
330
1F
100
AcDbEntity
  8
0-0
  6
Continuous
 62
     3
370
     9
100
AcDbLine
 10
-413.0671320734797
 20
260.56787109375
 30
0.0
 11
-398.0671320734797
 21
260.56787109375
 31
0.0
  0
LINE
  5
9B
330
1F
100
AcDbEntity
  8
0-0
  6
Continuous
 62
     3
370
     9
100
AcDbLine
 10
-415.067237647804
 20
258.5679634712839
 30
0.0
 11
-415.067237647804
 21
228.5677655194257
 31
0.0
  0
LINE
  5
9C
330
1F
100
AcDbEntity
  8
0-0
  6
Continuous
 62
     3
370
     9
100
AcDbLine
 10
-363.067165065456
 20
-73.43273595861478
 30
0.0
 11
-378.067165065456
 21
-73.43273595861478
 31
0.0
  0
LINE
  5
9D
330
1F
100
AcDbEntity
  8
0-0
  6
Continuous
 62
     3
370
     9
100
AcDbLine
 10
-361.0672574429898
 20
-41.43272936021958
 30
0.0
 11
-361.0672574429898
 21
-71.43282833614865
 31
0.0
  0
LINE
  5
9E
330
1F
100
AcDbEntity
  8
0-0
  6
Continuous
 62
     3
370
     9
100
AcDbLine
 10
-378.067165065456
 20
-39.43272276182427
 30
0.0
 11
-363.067165065456
 21
-39.43272276182427
 31
0.0
  0
LINE
  5
9F
330
1F
100
AcDbEntity
  8
0-0
  6
Continuous
 62
     3
370
     9
100
AcDbLine
 10
-380.0672706397804
 20
-41.43272936021958
 30
0.0
 11
-380.0672706397804
 21
-71.43282833614865
 31
0.0
  0
LINE
  5
A0
330
1F
100
AcDbEntity
  8
0-0
  6
Continuous
 62
     3
370
     9
100
AcDbLine
 10
-363.067165065456
 20
-23.43257099873313
 30
0.0
 11
-378.067165065456
 21
-23.43257099873313
 31
0.0
  0
LINE
  5
A1
330
1F
100
AcDbEntity
  8
0-0
  6
Continuous
 62
     3
370
     9
100
AcDbLine
 10
-361.0672574429898
 20
8.56743559966219
 30
0.0
 11
-361.0672574429898
 21
-21.43266337626687
 31
0.0
  0
LINE
  5
A2
330
1F
100
AcDbEntity
  8
0-0
  6
Continuous
 62
     3
370
     9
100
AcDbLine
 10
-378.067165065456
 20
10.56744219805751
 30
0.0
 11
-363.067165065456
 21
10.56744219805751
 31
0.0
  0
LINE
  5
A3
330
1F
100
AcDbEntity
  8
0-0
  6
Continuous
 62
     3
370
     9
100
AcDbLine
 10
-380.0672706397804
 20
8.56743559966219
 30
0.0
 11
-380.0672706397804
 21
-21.43266337626687
 31
0.0
  0
LINE
  5
A4
330
1F
100
AcDbEntity
  8
0-0
  6
Continuous
 62
     3
370
     9
100
AcDbLine
 10
-363.067165065456
 20
26.56749498521958
 30
0.0
 11
-378.067165065456
 21
26.56749498521958
 31
0.0
  0
LINE
  5
A5
330
1F
100
AcDbEntity
  8
0-0
  6
Continuous
 62
     3
370
     9
100
AcDbLine
 10
-361.0672574429898
 20
58.5675015836149
 30
0.0
 11
-361.0672574429898
 21
28.56740260768584
 31
0.0
  0
LINE
  5
A6
330
1F
100
AcDbEntity
  8
0-0
  6
Continuous
 62
     3
370
     9
100
AcDbLine
 10
-378.067165065456
 20
60.56750818201022
 30
0.0
 11
-363.067165065456
 21
60.56750818201022
 31
0.0
  0
LINE
  5
A7
330
1F
100
AcDbEntity
  8
0-0
  6
Continuous
 62
     3
370
     9
100
AcDbLine
 10
-380.0672706397804
 20
58.5675015836149
 30
0.0
 11
-380.0672706397804
 21
28.56740260768584
 31
0.0
  0
LINE
  5
A8
330
1F
100
AcDbEntity
  8
0-0
  6
Continuous
 62
     3
370
     9
100
AcDbLine
 10
-363.067165065456
 20
76.56765994510135
 30
0.0
 11
-378.067165065456
 21
76.56765994510135
 31
0.0
  0
LINE
  5
A9
330
1F
100
AcDbEntity
  8
0-0
  6
Continuous
 62
     3
370
     9
100
AcDbLine
 10
-361.0672574429898
 20
108.5675675675676
 30
0.0
 11
-361.0672574429898
 21
78.56756756756761
 31
0.0
  0
LINE
  5
AA
330
1F
100
AcDbEntity
  8
0-0
  6
Continuous
 62
     3
370
     9
100
AcDbLine
 10
-378.067165065456
 20
110.567673141892
 30
0.0
 11
-363.067165065456
 21
110.567673141892
 31
0.0
  0
LINE
  5
AB
330
1F
100
AcDbEntity
  8
0-0
  6
Continuous
 62
     3
370
     9
100
AcDbLine
 10
-380.0672706397804
 20
108.5675675675676
 30
0.0
 11
-380.0672706397804
 21
78.56756756756761
 31
0.0
  0
LINE
  5
AC
330
1F
100
AcDbEntity
  8
0-0
  6
Continuous
 62
     3
370
     9
100
AcDbLine
 10
-363.067165065456
 20
126.5677259290541
 30
0.0
 11
-378.067165065456
 21
126.5677259290541
 31
0.0
  0
LINE
  5
AD
330
1F
100
AcDbEntity
  8
0-0
  6
Continuous
 62
     3
370
     9
100
AcDbLine
 10
-361.0672574429898
 20
158.5676335515203
 30
0.0
 11
-361.0672574429898
 21
128.5676335515203
 31
0.0
  0
LINE
  5
AE
330
1F
100
AcDbEntity
  8
0-0
  6
Continuous
 62
     3
370
     9
100
AcDbLine
 10
-378.067165065456
 20
160.5677391258446
 30
0.0
 11
-363.067165065456
 21
160.5677391258446
 31
0.0
  0
LINE
  5
AF
330
1F
100
AcDbEntity
  8
0-0
  6
Continuous
 62
     3
370
     9
100
AcDbLine
 10
-380.0672706397804
 20
158.5676335515203
 30
0.0
 11
-380.0672706397804
 21
128.5676335515203
 31
0.0
  0
LINE
  5
B0
330
1F
100
AcDbEntity
  8
0-0
  6
Continuous
 62
     3
370
     9
100
AcDbLine
 10
-363.067165065456
 20
176.5677919130068
 30
0.0
 11
-378.067165065456
 21
176.5677919130068
 31
0.0
  0
LINE
  5
B1
330
1F
100
AcDbEntity
  8
0-0
  6
Continuous
 62
     3
370
     9
100
AcDbLine
 10
-361.0672574429898
 20
208.5678974873312
 30
0.0
 11
-361.0672574429898
 21
178.567699535473
 31
0.0
  0
LINE
  5
B2
330
1F
100
AcDbEntity
  8
0-0
  6
Continuous
 62
     3
370
     9
100
AcDbLine
 10
-378.067165065456
 20
210.5678051097973
 30
0.0
 11
-363.067165065456
 21
210.5678051097973
 31
0.0
  0
LINE
  5
B3
330
1F
100
AcDbEntity
  8
0-0
  6
Continuous
 62
     3
370
     9
100
AcDbLine
 10
-380.0672706397804
 20
208.5678974873312
 30
0.0
 11
-380.0672706397804
 21
178.567699535473
 31
0.0
  0
LINE
  5
B4
330
1F
100
AcDbEntity
  8
0-0
  6
Continuous
 62
     3
370
     9
100
AcDbLine
 10
-363.067165065456
 20
226.5678578969595
 30
0.0
 11
-378.067165065456
 21
226.5678578969595
 31
0.0
  0
LINE
  5
B5
330
1F
100
AcDbEntity
  8
0-0
  6
Continuous
 62
     3
370
     9
100
AcDbLine
 10
-361.0672574429898
 20
258.5679634712839
 30
0.0
 11
-361.0672574429898
 21
228.5677655194257
 31
0.0
  0
LINE
  5
B6
330
1F
100
AcDbEntity
  8
0-0
  6
Continuous
 62
     3
370
     9
100
AcDbLine
 10
-378.067165065456
 20
260.56787109375
 30
0.0
 11
-363.067165065456
 21
260.56787109375
 31
0.0
  0
LINE
  5
B7
330
1F
100
AcDbEntity
  8
0-0
  6
Continuous
 62
     3
370
     9
100
AcDbLine
 10
-380.0672706397804
 20
258.5679634712839
 30
0.0
 11
-380.0672706397804
 21
228.5677655194257
 31
0.0
  0
LINE
  5
B8
330
1F
100
AcDbEntity
  8
0-0
  6
Continuous
 62
     3
370
     9
100
AcDbLine
 10
-328.0672970333615
 20
-73.43273595861478
 30
0.0
 11
-343.0672970333615
 21
-73.43273595861478
 31
0.0
  0
LINE
  5
B9
330
1F
100
AcDbEntity
  8
0-0
  6
Continuous
 62
     3
370
     9
100
AcDbLine
 10
-326.0673894108952
 20
-41.43272936021958
 30
0.0
 11
-326.0673894108952
 21
-71.43282833614865
 31
0.0
  0
LINE
  5
BA
330
1F
100
AcDbEntity
  8
0-0
  6
Continuous
 62
     3
370
     9
100
AcDbLine
 10
-343.0672970333615
 20
-39.43272276182427
 30
0.0
 11
-328.0672970333615
 21
-39.43272276182427
 31
0.0
  0
LINE
  5
BB
330
1F
100
AcDbEntity
  8
0-0
  6
Continuous
 62
     3
370
     9
100
AcDbLine
 10
-345.0674026076858
 20
-41.43272936021958
 30
0.0
 11
-345.0674026076858
 21
-71.43282833614865
 31
0.0
  0
LINE
  5
BC
330
1F
100
AcDbEntity
  8
0-0
  6
Continuous
 62
     3
370
     9
100
AcDbLine
 10
-328.0672970333615
 20
-23.43257099873313
 30
0.0
 11
-343.0672970333615
 21
-23.43257099873313
 31
0.0
  0
LINE
  5
BD
330
1F
100
AcDbEntity
  8
0-0
  6
Continuous
 62
     3
370
     9
100
AcDbLine
 10
-326.0673894108952
 20
8.56743559966219
 30
0.0
 11
-326.0673894108952
 21
-21.43266337626687
 31
0.0
  0
LINE
  5
BE
330
1F
100
AcDbEntity
  8
0-0
  6
Continuous
 62
     3
370
     9
100
AcDbLine
 10
-343.0672970333615
 20
10.56744219805751
 30
0.0
 11
-328.0672970333615
 21
10.56744219805751
 31
0.0
  0
LINE
  5
BF
330
1F
100
AcDbEntity
  8
0-0
  6
Continuous
 62
     3
370
     9
100
AcDbLine
 10
-345.0674026076858
 20
8.56743559966219
 30
0.0
 11
-345.0674026076858
 21
-21.43266337626687
 31
0.0
  0
LINE
  5
C0
330
1F
100
AcDbEntity
  8
0-0
  6
Continuous
 62
     3
370
     9
100
AcDbLine
 10
-328.0672970333615
 20
26.56749498521958
 30
0.0
 11
-343.0672970333615
 21
26.56749498521958
 31
0.0
  0
LINE
  5
C1
330
1F
100
AcDbEntity
  8
0-0
  6
Continuous
 62
     3
370
     9
100
AcDbLine
 10
-326.0673894108952
 20
58.5675015836149
 30
0.0
 11
-326.0673894108952
 21
28.56740260768584
 31
0.0
  0
LINE
  5
C2
330
1F
100
AcDbEntity
  8
0-0
  6
Continuous
 62
     3
370
     9
100
AcDbLine
 10
-343.0672970333615
 20
60.56750818201022
 30
0.0
 11
-328.0672970333615
 21
60.56750818201022
 31
0.0
  0
LINE
  5
C3
330
1F
100
AcDbEntity
  8
0-0
  6
Continuous
 62
     3
370
     9
100
AcDbLine
 10
-345.0674026076858
 20
58.5675015836149
 30
0.0
 11
-345.0674026076858
 21
28.56740260768584
 31
0.0
  0
LINE
  5
C4
330
1F
100
AcDbEntity
  8
0-0
  6
Continuous
 62
     3
370
     9
100
AcDbLine
 10
-328.0672970333615
 20
76.56765994510135
 30
0.0
 11
-343.0672970333615
 21
76.56765994510135
 31
0.0
  0
LINE
  5
C5
330
1F
100
AcDbEntity
  8
0-0
  6
Continuous
 62
     3
370
     9
100
AcDbLine
 10
-326.0673894108952
 20
108.5675675675676
 30
0.0
 11
-326.0673894108952
 21
78.56756756756761
 31
0.0
  0
LINE
  5
C6
330
1F
100
AcDbEntity
  8
0-0
  6
Continuous
 62
     3
370
     9
100
AcDbLine
 10
-343.0672970333615
 20
110.567673141892
 30
0.0
 11
-328.0672970333615
 21
110.567673141892
 31
0.0
  0
LINE
  5
C7
330
1F
100
AcDbEntity
  8
0-0
  6
Continuous
 62
     3
370
     9
100
AcDbLine
 10
-345.0674026076858
 20
108.5675675675676
 30
0.0
 11
-345.0674026076858
 21
78.56756756756761
 31
0.0
  0
LINE
  5
C8
330
1F
100
AcDbEntity
  8
0-0
  6
Continuous
 62
     3
370
     9
100
AcDbLine
 10
-328.0672970333615
 20
126.5677259290541
 30
0.0
 11
-343.0672970333615
 21
126.5677259290541
 31
0.0
  0
LINE
  5
C9
330
1F
100
AcDbEntity
  8
0-0
  6
Continuous
 62
     3
370
     9
100
AcDbLine
 10
-326.0673894108952
 20
158.5676335515203
 30
0.0
 11
-326.0673894108952
 21
128.5676335515203
 31
0.0
  0
LINE
  5
CA
330
1F
100
AcDbEntity
  8
0-0
  6
Continuous
 62
     3
370
     9
100
AcDbLine
 10
-343.0672970333615
 20
160.5677391258446
 30
0.0
 11
-328.0672970333615
 21
160.5677391258446
 31
0.0
  0
LINE
  5
CB
330
1F
100
AcDbEntity
  8
0-0
  6
Continuous
 62
     3
370
     9
100
AcDbLine
 10
-345.0674026076858
 20
158.5676335515203
 30
0.0
 11
-345.0674026076858
 21
128.5676335515203
 31
0.0
  0
LINE
  5
CC
330
1F
100
AcDbEntity
  8
0-0
  6
Continuous
 62
     3
370
     9
100
AcDbLine
 10
-328.0672970333615
 20
176.5677919130068
 30
0.0
 11
-343.0672970333615
 21
176.5677919130068
 31
0.0
  0
LINE
  5
CD
330
1F
100
AcDbEntity
  8
0-0
  6
Continuous
 62
     3
370
     9
100
AcDbLine
 10
-326.0673894108952
 20
208.5678974873312
 30
0.0
 11
-326.0673894108952
 21
178.567699535473
 31
0.0
  0
LINE
  5
CE
330
1F
100
AcDbEntity
  8
0-0
  6
Continuous
 62
     3
370
     9
100
AcDbLine
 10
-343.0672970333615
 20
210.5678051097973
 30
0.0
 11
-328.0672970333615
 21
210.5678051097973
 31
0.0
  0
LINE
  5
CF
330
1F
100
AcDbEntity
  8
0-0
  6
Continuous
 62
     3
370
     9
100
AcDbLine
 10
-345.0674026076858
 20
208.5678974873312
 30
0.0
 11
-345.0674026076858
 21
178.567699535473
 31
0.0
  0
LINE
  5
D0
330
1F
100
AcDbEntity
  8
0-0
  6
Continuous
 62
     3
370
     9
100
AcDbLine
 10
-328.0672970333615
 20
226.5678578969595
 30
0.0
 11
-343.0672970333615
 21
226.5678578969595
 31
0.0
  0
LINE
  5
D1
330
1F
100
AcDbEntity
  8
0-0
  6
Continuous
 62
     3
370
     9
100
AcDbLine
 10
-326.0673894108952
 20
258.5679634712839
 30
0.0
 11
-326.0673894108952
 21
228.5677655194257
 31
0.0
  0
LINE
  5
D2
330
1F
100
AcDbEntity
  8
0-0
  6
Continuous
 62
     3
370
     9
100
AcDbLine
 10
-343.0672970333615
 20
260.56787109375
 30
0.0
 11
-328.0672970333615
 21
260.56787109375
 31
0.0
  0
LINE
  5
D3
330
1F
100
AcDbEntity
  8
0-0
  6
Continuous
 62
     3
370
     9
100
AcDbLine
 10
-345.0674026076858
 20
258.5679634712839
 30
0.0
 11
-345.0674026076858
 21
228.5677655194257
 31
0.0
  0
LINE
  5
D4
330
1F
100
AcDbEntity
  8
0-0
  6
Continuous
 62
     3
370
     9
100
AcDbLine
 10
287.0729518581081
 20
283.5675015836149
 30
0.0
 11
287.0729518581081
 21
-96.43236644847968
 31
0.0
  0
LINE
  5
D5
330
1F
100
AcDbEntity
  8
0-0
  6
Continuous
 62
     3
370
     9
100
AcDbLine
 10
287.0729518581081
 20
-96.43236644847968
 30
0.0
 11
294.0729254645271
 21
-95.43231366131755
 31
0.0
  0
LINE
  5
D6
330
1F
100
AcDbEntity
  8
0-0
  6
Continuous
 62
     3
370
     9
100
AcDbLine
 10
287.0729518581081
 20
283.5675015836149
 30
0.0
 11
294.0729254645271
 21
282.5674487964527
 31
0.0
  0
LINE
  5
D7
330
1F
100
AcDbEntity
  8
0-0
  6
Continuous
 62
     3
370
     9
100
AcDbLine
 10
294.0729254645271
 20
282.3259475295608
 30
0.0
 11
294.0729254645271
 21
282.5674487964527
 31
0.0
  0
LINE
  5
D8
330
1F
100
AcDbEntity
  8
0-0
  6
Continuous
 62
     3
370
     9
100
AcDbLine
 10
295.8168813344596
 20
280.3424699113176
 30
0.0
 11
320.2172191722973
 21
277.1924619932433
 31
0.0
  0
LINE
  5
D9
330
1F
100
AcDbEntity
  8
0-0
  6
Continuous
 62
     3
370
     9
100
AcDbLine
 10
294.0729254645271
 20
-95.19081239442562
 30
0.0
 11
294.0729254645271
 21
-95.43231366131755
 31
0.0
  0
LINE
  5
DA
330
1F
100
AcDbEntity
  8
0-0
  6
Continuous
 62
     3
370
     9
100
AcDbLine
 10
295.8168813344596
 20
-93.20723580025333
 30
0.0
 11
320.2172191722973
 21
-90.057227882179
 31
0.0
  0
LINE
  5
DB
330
1F
100
AcDbEntity
  8
0-0
  6
Continuous
 62
     3
370
     9
100
AcDbLine
 10
320.1970280827704
 20
-82.8228792757601
 30
0.0
 11
302.5767393369933
 21
-80.87038112331084
 31
0.0
  0
LINE
  5
DC
330
1F
100
AcDbEntity
  8
0-0
  6
Continuous
 62
     3
370
     9
100
AcDbLine
 10
321.0727671030406
 20
-89.06766654349661
 30
0.0
 11
321.0727671030406
 21
276.2029006545608
 31
0.0
  0
LINE
  5
DD
330
1F
100
AcDbEntity
  8
0-0
  6
Continuous
 62
     3
370
     9
100
AcDbLine
 10
302.5767393369933
 20
268.0057142103041
 30
0.0
 11
320.1970280827704
 21
269.9581133868244
 31
0.0
  0
LINE
  5
DE
330
1F
100
AcDbEntity
  8
0-0
  6
Continuous
 62
     3
370
     9
100
AcDbLine
 10
297.4202913851352
 20
-75.25607052364865
 30
0.0
 11
287.0729518581081
 21
-73.43154824746614
 31
0.0
  0
LINE
  5
DF
330
1F
100
AcDbEntity
  8
0-0
  6
Continuous
 62
     3
370
     9
100
AcDbLine
 10
299.0729914484798
 20
264.0363835515203
 30
0.0
 11
299.0729914484798
 21
-76.9012484163851
 31
0.0
  0
LINE
  5
E0
330
1F
100
AcDbEntity
  8
0-0
  6
Continuous
 62
     3
370
     9
100
AcDbLine
 10
297.4202913851352
 20
-75.25715925886823
 30
0.0
 11
287.0729518581081
 21
-73.43263698268584
 31
0.0
  0
LINE
  5
E1
330
1F
100
AcDbEntity
  8
0-0
  6
Continuous
 62
     3
370
     9
100
AcDbLine
 10
297.4202913851352
 20
-37.60820048564187
 30
0.0
 11
287.0729518581081
 21
-39.43272276182427
 31
0.0
  0
LINE
  5
E2
330
1F
100
AcDbEntity
  8
0-0
  6
Continuous
 62
     3
370
     9
100
AcDbLine
 10
297.4202913851352
 20
-25.25719225084458
 30
0.0
 11
287.0729518581081
 21
-23.43266997466208
 31
0.0
  0
LINE
  5
E3
330
1F
100
AcDbEntity
  8
0-0
  6
Continuous
 62
     3
370
     9
100
AcDbLine
 10
297.4202913851352
 20
-25.25837996199323
 30
0.0
 11
287.0729518581081
 21
-23.43385768581084
 31
0.0
  0
LINE
  5
E4
330
1F
100
AcDbEntity
  8
0-0
  6
Continuous
 62
     3
370
     9
100
AcDbLine
 10
297.4202913851352
 20
12.39067778716219
 30
0.0
 11
287.0729518581081
 21
10.5661555109798
 31
0.0
  0
LINE
  5
E5
330
1F
100
AcDbEntity
  8
0-0
  6
Continuous
 62
     3
370
     9
100
AcDbLine
 10
297.4202913851352
 20
24.74287373310813
 30
0.0
 11
287.0729518581081
 21
26.56739600929052
 31
0.0
  0
LINE
  5
E6
330
1F
100
AcDbEntity
  8
0-0
  6
Continuous
 62
     3
370
     9
100
AcDbLine
 10
297.4202913851352
 20
24.74178499788854
 30
0.0
 11
287.0729518581081
 21
26.56630727407094
 31
0.0
  0
LINE
  5
E7
330
1F
100
AcDbEntity
  8
0-0
  6
Continuous
 62
     3
370
     9
100
AcDbLine
 10
297.4202913851352
 20
62.3907437711149
 30
0.0
 11
287.0729518581081
 21
60.56622149493251
 31
0.0
  0
LINE
  5
E8
330
1F
100
AcDbEntity
  8
0-0
  6
Continuous
 62
     3
370
     9
100
AcDbLine
 10
297.4202913851352
 20
74.7430386929899
 30
0.0
 11
287.0729518581081
 21
76.56756096917229
 31
0.0
  0
LINE
  5
E9
330
1F
100
AcDbEntity
  8
0-0
  6
Continuous
 62
     3
370
     9
100
AcDbLine
 10
297.4202913851352
 20
74.74185098184125
 30
0.0
 11
287.0729518581081
 21
76.56637325802365
 31
0.0
  0
LINE
  5
EA
330
1F
100
AcDbEntity
  8
0-0
  6
Continuous
 62
     3
370
     9
100
AcDbLine
 10
297.4202913851352
 20
112.3908097550676
 30
0.0
 11
287.0729518581081
 21
110.5662874788852
 31
0.0
  0
LINE
  5
EB
330
1F
100
AcDbEntity
  8
0-0
  6
Continuous
 62
     3
370
     9
100
AcDbLine
 10
297.4202913851352
 20
124.7431046769426
 30
0.0
 11
287.0729518581081
 21
126.567626953125
 31
0.0
  0
LINE
  5
EC
330
1F
100
AcDbEntity
  8
0-0
  6
Continuous
 62
     3
370
     9
100
AcDbLine
 10
297.4202913851352
 20
124.742015941723
 30
0.0
 11
287.0729518581081
 21
126.5665382179054
 31
0.0
  0
LINE
  5
ED
330
1F
100
AcDbEntity
  8
0-0
  6
Continuous
 62
     3
370
     9
100
AcDbLine
 10
297.4202913851352
 20
162.3910736908784
 30
0.0
 11
287.0729518581081
 21
160.5665514146959
 31
0.0
  0
LINE
  5
EE
330
1F
100
AcDbEntity
  8
0-0
  6
Continuous
 62
     3
370
     9
100
AcDbLine
 10
297.4202913851352
 20
174.7432696368244
 30
0.0
 11
287.0729518581081
 21
176.5677919130068
 31
0.0
  0
LINE
  5
EF
330
1F
100
AcDbEntity
  8
0-0
  6
Continuous
 62
     3
370
     9
100
AcDbLine
 10
297.4202913851352
 20
174.7420819256757
 30
0.0
 11
287.0729518581081
 21
176.5666042018581
 31
0.0
  0
LINE
  5
F0
330
1F
100
AcDbEntity
  8
0-0
  6
Continuous
 62
     3
370
     9
100
AcDbLine
 10
297.4202913851352
 20
212.3911396748312
 30
0.0
 11
287.0729518581081
 21
210.5664194467906
 31
0.0
  0
LINE
  5
F1
330
1F
100
AcDbEntity
  8
0-0
  6
Continuous
 62
     3
370
     9
100
AcDbLine
 10
297.4202913851352
 20
224.7433356207771
 30
0.0
 11
287.0729518581081
 21
226.5676599451014
 31
0.0
  0
LINE
  5
F2
330
1F
100
AcDbEntity
  8
0-0
  6
Continuous
 62
     3
370
     9
100
AcDbLine
 10
297.4202913851352
 20
224.7421479096284
 30
0.0
 11
287.0729518581081
 21
226.5666701858108
 31
0.0
  0
LINE
  5
F3
330
1F
100
AcDbEntity
  8
0-0
  6
Continuous
 62
     3
370
     9
100
AcDbLine
 10
297.4202913851352
 20
262.3910077069257
 30
0.0
 11
287.0729518581081
 21
260.5666833826014
 31
0.0
  0
LINE
  5
F4
330
1F
100
AcDbEntity
  8
0-0
  6
Continuous
 62
     3
370
     9
100
AcDbLine
 10
-168.0680558488175
 20
-73.43273595861478
 30
0.0
 11
-153.0680558488175
 21
-73.43273595861478
 31
0.0
  0
LINE
  5
F5
330
1F
100
AcDbEntity
  8
0-0
  6
Continuous
 62
     3
370
     9
100
AcDbLine
 10
-170.0679634712837
 20
-41.43272936021958
 30
0.0
 11
-170.0679634712837
 21
-71.43282833614865
 31
0.0
  0
LINE
  5
F6
330
1F
100
AcDbEntity
  8
0-0
  6
Continuous
 62
     3
370
     9
100
AcDbLine
 10
-153.0680558488175
 20
-39.43272276182427
 30
0.0
 11
-168.0680558488175
 21
-39.43272276182427
 31
0.0
  0
LINE
  5
F7
330
1F
100
AcDbEntity
  8
0-0
  6
Continuous
 62
     3
370
     9
100
AcDbLine
 10
-151.0679007865286
 20
-41.43272936021958
 30
0.0
 11
-151.0679007865286
 21
-71.43282833614865
 31
0.0
  0
LINE
  5
F8
330
1F
100
AcDbEntity
  8
0-0
  6
Continuous
 62
     3
370
     9
100
AcDbLine
 10
-168.0680558488175
 20
-23.43257099873313
 30
0.0
 11
-153.0680558488175
 21
-23.43257099873313
 31
0.0
  0
LINE
  5
F9
330
1F
100
AcDbEntity
  8
0-0
  6
Continuous
 62
     3
370
     9
100
AcDbLine
 10
-170.0679634712837
 20
8.56743559966219
 30
0.0
 11
-170.0679634712837
 21
-21.43266337626687
 31
0.0
  0
LINE
  5
FA
330
1F
100
AcDbEntity
  8
0-0
  6
Continuous
 62
     3
370
     9
100
AcDbLine
 10
-153.0680558488175
 20
10.56744219805751
 30
0.0
 11
-168.0680558488175
 21
10.56744219805751
 31
0.0
  0
LINE
  5
FB
330
1F
100
AcDbEntity
  8
0-0
  6
Continuous
 62
     3
370
     9
100
AcDbLine
 10
-151.0679007865286
 20
8.56743559966219
 30
0.0
 11
-151.0679007865286
 21
-21.43266337626687
 31
0.0
  0
LINE
  5
FC
330
1F
100
AcDbEntity
  8
0-0
  6
Continuous
 62
     3
370
     9
100
AcDbLine
 10
-168.0680558488175
 20
26.56749498521958
 30
0.0
 11
-153.0680558488175
 21
26.56749498521958
 31
0.0
  0
LINE
  5
FD
330
1F
100
AcDbEntity
  8
0-0
  6
Continuous
 62
     3
370
     9
100
AcDbLine
 10
-170.0679634712837
 20
58.5675015836149
 30
0.0
 11
-170.0679634712837
 21
28.56740260768584
 31
0.0
  0
LINE
  5
FE
330
1F
100
AcDbEntity
  8
0-0
  6
Continuous
 62
     3
370
     9
100
AcDbLine
 10
-153.0680558488175
 20
60.56750818201022
 30
0.0
 11
-168.0680558488175
 21
60.56750818201022
 31
0.0
  0
LINE
  5
FF
330
1F
100
AcDbEntity
  8
0-0
  6
Continuous
 62
     3
370
     9
100
AcDbLine
 10
-151.0679007865286
 20
58.5675015836149
 30
0.0
 11
-151.0679007865286
 21
28.56740260768584
 31
0.0
  0
LINE
  5
100
330
1F
100
AcDbEntity
  8
0-0
  6
Continuous
 62
     3
370
     9
100
AcDbLine
 10
-168.0680558488175
 20
76.56765994510135
 30
0.0
 11
-153.0680558488175
 21
76.56765994510135
 31
0.0
  0
LINE
  5
101
330
1F
100
AcDbEntity
  8
0-0
  6
Continuous
 62
     3
370
     9
100
AcDbLine
 10
-170.0679634712837
 20
108.5675675675676
 30
0.0
 11
-170.0679634712837
 21
78.56756756756761
 31
0.0
  0
LINE
  5
102
330
1F
100
AcDbEntity
  8
0-0
  6
Continuous
 62
     3
370
     9
100
AcDbLine
 10
-153.0680558488175
 20
110.567673141892
 30
0.0
 11
-168.0680558488175
 21
110.567673141892
 31
0.0
  0
LINE
  5
103
330
1F
100
AcDbEntity
  8
0-0
  6
Continuous
 62
     3
370
     9
100
AcDbLine
 10
-151.0679007865286
 20
108.5675675675676
 30
0.0
 11
-151.0679007865286
 21
78.56756756756761
 31
0.0
  0
LINE
  5
104
330
1F
100
AcDbEntity
  8
0-0
  6
Continuous
 62
     3
370
     9
100
AcDbLine
 10
-168.0680558488175
 20
126.5677259290541
 30
0.0
 11
-153.0680558488175
 21
126.5677259290541
 31
0.0
  0
LINE
  5
105
330
1F
100
AcDbEntity
  8
0-0
  6
Continuous
 62
     3
370
     9
100
AcDbLine
 10
-170.0679634712837
 20
158.5676335515203
 30
0.0
 11
-170.0679634712837
 21
128.5676335515203
 31
0.0
  0
LINE
  5
106
330
1F
100
AcDbEntity
  8
0-0
  6
Continuous
 62
     3
370
     9
100
AcDbLine
 10
-153.0680558488175
 20
160.5677391258446
 30
0.0
 11
-168.0680558488175
 21
160.5677391258446
 31
0.0
  0
LINE
  5
107
330
1F
100
AcDbEntity
  8
0-0
  6
Continuous
 62
     3
370
     9
100
AcDbLine
 10
-151.0679007865286
 20
158.5676335515203
 30
0.0
 11
-151.0679007865286
 21
128.5676335515203
 31
0.0
  0
LINE
  5
108
330
1F
100
AcDbEntity
  8
0-0
  6
Continuous
 62
     3
370
     9
100
AcDbLine
 10
-168.0680558488175
 20
176.5677919130068
 30
0.0
 11
-153.0680558488175
 21
176.5677919130068
 31
0.0
  0
LINE
  5
109
330
1F
100
AcDbEntity
  8
0-0
  6
Continuous
 62
     3
370
     9
100
AcDbLine
 10
-170.0679634712837
 20
208.5678974873312
 30
0.0
 11
-170.0679634712837
 21
178.567699535473
 31
0.0
  0
LINE
  5
10A
330
1F
100
AcDbEntity
  8
0-0
  6
Continuous
 62
     3
370
     9
100
AcDbLine
 10
-153.0680558488175
 20
210.5678051097973
 30
0.0
 11
-168.0680558488175
 21
210.5678051097973
 31
0.0
  0
LINE
  5
10B
330
1F
100
AcDbEntity
  8
0-0
  6
Continuous
 62
     3
370
     9
100
AcDbLine
 10
-151.0679007865286
 20
208.5678974873312
 30
0.0
 11
-151.0679007865286
 21
178.567699535473
 31
0.0
  0
LINE
  5
10C
330
1F
100
AcDbEntity
  8
0-0
  6
Continuous
 62
     3
370
     9
100
AcDbLine
 10
-168.0680558488175
 20
226.5678578969595
 30
0.0
 11
-153.0680558488175
 21
226.5678578969595
 31
0.0
  0
LINE
  5
10D
330
1F
100
AcDbEntity
  8
0-0
  6
Continuous
 62
     3
370
     9
100
AcDbLine
 10
-170.0679634712837
 20
258.5679634712839
 30
0.0
 11
-170.0679634712837
 21
228.5677655194257
 31
0.0
  0
LINE
  5
10E
330
1F
100
AcDbEntity
  8
0-0
  6
Continuous
 62
     3
370
     9
100
AcDbLine
 10
-153.0680558488175
 20
260.56787109375
 30
0.0
 11
-168.0680558488175
 21
260.56787109375
 31
0.0
  0
LINE
  5
10F
330
1F
100
AcDbEntity
  8
0-0
  6
Continuous
 62
     3
370
     9
100
AcDbLine
 10
-151.0679007865286
 20
258.5679634712839
 30
0.0
 11
-151.0679007865286
 21
228.5677655194257
 31
0.0
  0
LINE
  5
110
330
1F
100
AcDbEntity
  8
0-0
  6
Continuous
 62
     3
370
     9
100
AcDbLine
 10
-203.0679238809121
 20
-73.43273595861478
 30
0.0
 11
-188.0679238809121
 21
-73.43273595861478
 31
0.0
  0
LINE
  5
111
330
1F
100
AcDbEntity
  8
0-0
  6
Continuous
 62
     3
370
     9
100
AcDbLine
 10
-205.0678315033783
 20
-41.43272936021958
 30
0.0
 11
-205.0678315033783
 21
-71.43282833614865
 31
0.0
  0
LINE
  5
112
330
1F
100
AcDbEntity
  8
0-0
  6
Continuous
 62
     3
370
     9
100
AcDbLine
 10
-188.0679238809121
 20
-39.43272276182427
 30
0.0
 11
-203.0679238809121
 21
-39.43272276182427
 31
0.0
  0
LINE
  5
113
330
1F
100
AcDbEntity
  8
0-0
  6
Continuous
 62
     3
370
     9
100
AcDbLine
 10
-186.0678183065878
 20
-41.43272936021958
 30
0.0
 11
-186.0678183065878
 21
-71.43282833614865
 31
0.0
  0
LINE
  5
114
330
1F
100
AcDbEntity
  8
0-0
  6
Continuous
 62
     3
370
     9
100
AcDbLine
 10
-203.0679238809121
 20
-23.43257099873313
 30
0.0
 11
-188.0679238809121
 21
-23.43257099873313
 31
0.0
  0
LINE
  5
115
330
1F
100
AcDbEntity
  8
0-0
  6
Continuous
 62
     3
370
     9
100
AcDbLine
 10
-205.0678315033783
 20
8.56743559966219
 30
0.0
 11
-205.0678315033783
 21
-21.43266337626687
 31
0.0
  0
LINE
  5
116
330
1F
100
AcDbEntity
  8
0-0
  6
Continuous
 62
     3
370
     9
100
AcDbLine
 10
-188.0679238809121
 20
10.56744219805751
 30
0.0
 11
-203.0679238809121
 21
10.56744219805751
 31
0.0
  0
LINE
  5
117
330
1F
100
AcDbEntity
  8
0-0
  6
Continuous
 62
     3
370
     9
100
AcDbLine
 10
-186.0678183065878
 20
8.56743559966219
 30
0.0
 11
-186.0678183065878
 21
-21.43266337626687
 31
0.0
  0
LINE
  5
118
330
1F
100
AcDbEntity
  8
0-0
  6
Continuous
 62
     3
370
     9
100
AcDbLine
 10
-203.0679238809121
 20
26.56749498521958
 30
0.0
 11
-188.0679238809121
 21
26.56749498521958
 31
0.0
  0
LINE
  5
119
330
1F
100
AcDbEntity
  8
0-0
  6
Continuous
 62
     3
370
     9
100
AcDbLine
 10
-205.0678315033783
 20
58.5675015836149
 30
0.0
 11
-205.0678315033783
 21
28.56740260768584
 31
0.0
  0
LINE
  5
11A
330
1F
100
AcDbEntity
  8
0-0
  6
Continuous
 62
     3
370
     9
100
AcDbLine
 10
-188.0679238809121
 20
60.56750818201022
 30
0.0
 11
-203.0679238809121
 21
60.56750818201022
 31
0.0
  0
LINE
  5
11B
330
1F
100
AcDbEntity
  8
0-0
  6
Continuous
 62
     3
370
     9
100
AcDbLine
 10
-186.0678183065878
 20
58.5675015836149
 30
0.0
 11
-186.0678183065878
 21
28.56740260768584
 31
0.0
  0
LINE
  5
11C
330
1F
100
AcDbEntity
  8
0-0
  6
Continuous
 62
     3
370
     9
100
AcDbLine
 10
-203.0679238809121
 20
76.56765994510135
 30
0.0
 11
-188.0679238809121
 21
76.56765994510135
 31
0.0
  0
LINE
  5
11D
330
1F
100
AcDbEntity
  8
0-0
  6
Continuous
 62
     3
370
     9
100
AcDbLine
 10
-205.0678315033783
 20
108.5675675675676
 30
0.0
 11
-205.0678315033783
 21
78.56756756756761
 31
0.0
  0
LINE
  5
11E
330
1F
100
AcDbEntity
  8
0-0
  6
Continuous
 62
     3
370
     9
100
AcDbLine
 10
-188.0679238809121
 20
110.567673141892
 30
0.0
 11
-203.0679238809121
 21
110.567673141892
 31
0.0
  0
LINE
  5
11F
330
1F
100
AcDbEntity
  8
0-0
  6
Continuous
 62
     3
370
     9
100
AcDbLine
 10
-186.0678183065878
 20
108.5675675675676
 30
0.0
 11
-186.0678183065878
 21
78.56756756756761
 31
0.0
  0
LINE
  5
120
330
1F
100
AcDbEntity
  8
0-0
  6
Continuous
 62
     3
370
     9
100
AcDbLine
 10
-203.0679238809121
 20
126.5677259290541
 30
0.0
 11
-188.0679238809121
 21
126.5677259290541
 31
0.0
  0
LINE
  5
121
330
1F
100
AcDbEntity
  8
0-0
  6
Continuous
 62
     3
370
     9
100
AcDbLine
 10
-205.0678315033783
 20
158.5676335515203
 30
0.0
 11
-205.0678315033783
 21
128.5676335515203
 31
0.0
  0
LINE
  5
122
330
1F
100
AcDbEntity
  8
0-0
  6
Continuous
 62
     3
370
     9
100
AcDbLine
 10
-188.0679238809121
 20
160.5677391258446
 30
0.0
 11
-203.0679238809121
 21
160.5677391258446
 31
0.0
  0
LINE
  5
123
330
1F
100
AcDbEntity
  8
0-0
  6
Continuous
 62
     3
370
     9
100
AcDbLine
 10
-186.0678183065878
 20
158.5676335515203
 30
0.0
 11
-186.0678183065878
 21
128.5676335515203
 31
0.0
  0
LINE
  5
124
330
1F
100
AcDbEntity
  8
0-0
  6
Continuous
 62
     3
370
     9
100
AcDbLine
 10
-203.0679238809121
 20
176.5677919130068
 30
0.0
 11
-188.0679238809121
 21
176.5677919130068
 31
0.0
  0
LINE
  5
125
330
1F
100
AcDbEntity
  8
0-0
  6
Continuous
 62
     3
370
     9
100
AcDbLine
 10
-205.0678315033783
 20
208.5678974873312
 30
0.0
 11
-205.0678315033783
 21
178.567699535473
 31
0.0
  0
LINE
  5
126
330
1F
100
AcDbEntity
  8
0-0
  6
Continuous
 62
     3
370
     9
100
AcDbLine
 10
-188.0679238809121
 20
210.5678051097973
 30
0.0
 11
-203.0679238809121
 21
210.5678051097973
 31
0.0
  0
LINE
  5
127
330
1F
100
AcDbEntity
  8
0-0
  6
Continuous
 62
     3
370
     9
100
AcDbLine
 10
-186.0678183065878
 20
208.5678974873312
 30
0.0
 11
-186.0678183065878
 21
178.567699535473
 31
0.0
  0
LINE
  5
128
330
1F
100
AcDbEntity
  8
0-0
  6
Continuous
 62
     3
370
     9
100
AcDbLine
 10
-203.0679238809121
 20
226.5678578969595
 30
0.0
 11
-188.0679238809121
 21
226.5678578969595
 31
0.0
  0
LINE
  5
129
330
1F
100
AcDbEntity
  8
0-0
  6
Continuous
 62
     3
370
     9
100
AcDbLine
 10
-205.0678315033783
 20
258.5679634712839
 30
0.0
 11
-205.0678315033783
 21
228.5677655194257
 31
0.0
  0
LINE
  5
12A
330
1F
100
AcDbEntity
  8
0-0
  6
Continuous
 62
     3
370
     9
100
AcDbLine
 10
-188.0679238809121
 20
260.56787109375
 30
0.0
 11
-203.0679238809121
 21
260.56787109375
 31
0.0
  0
LINE
  5
12B
330
1F
100
AcDbEntity
  8
0-0
  6
Continuous
 62
     3
370
     9
100
AcDbLine
 10
-186.0678183065878
 20
258.5679634712839
 30
0.0
 11
-186.0678183065878
 21
228.5677655194257
 31
0.0
  0
LINE
  5
12C
330
1F
100
AcDbEntity
  8
0-0
  6
Continuous
 62
     3
370
     9
100
AcDbLine
 10
-238.0677919130068
 20
-73.43273595861478
 30
0.0
 11
-223.0677919130068
 21
-73.43273595861478
 31
0.0
  0
LINE
  5
12D
330
1F
100
AcDbEntity
  8
0-0
  6
Continuous
 62
     3
370
     9
100
AcDbLine
 10
-240.0676995354729
 20
-41.43272936021958
 30
0.0
 11
-240.0676995354729
 21
-71.43282833614865
 31
0.0
  0
LINE
  5
12E
330
1F
100
AcDbEntity
  8
0-0
  6
Continuous
 62
     3
370
     9
100
AcDbLine
 10
-223.0677919130068
 20
-39.43272276182427
 30
0.0
 11
-238.0677919130068
 21
-39.43272276182427
 31
0.0
  0
LINE
  5
12F
330
1F
100
AcDbEntity
  8
0-0
  6
Continuous
 62
     3
370
     9
100
AcDbLine
 10
-221.0676863386824
 20
-41.43272936021958
 30
0.0
 11
-221.0676863386824
 21
-71.43282833614865
 31
0.0
  0
LINE
  5
130
330
1F
100
AcDbEntity
  8
0-0
  6
Continuous
 62
     3
370
     9
100
AcDbLine
 10
-238.0677919130068
 20
-23.43257099873313
 30
0.0
 11
-223.0677919130068
 21
-23.43257099873313
 31
0.0
  0
LINE
  5
131
330
1F
100
AcDbEntity
  8
0-0
  6
Continuous
 62
     3
370
     9
100
AcDbLine
 10
-240.0676995354729
 20
8.56743559966219
 30
0.0
 11
-240.0676995354729
 21
-21.43266337626687
 31
0.0
  0
LINE
  5
132
330
1F
100
AcDbEntity
  8
0-0
  6
Continuous
 62
     3
370
     9
100
AcDbLine
 10
-223.0677919130068
 20
10.56744219805751
 30
0.0
 11
-238.0677919130068
 21
10.56744219805751
 31
0.0
  0
LINE
  5
133
330
1F
100
AcDbEntity
  8
0-0
  6
Continuous
 62
     3
370
     9
100
AcDbLine
 10
-221.0676863386824
 20
8.56743559966219
 30
0.0
 11
-221.0676863386824
 21
-21.43266337626687
 31
0.0
  0
LINE
  5
134
330
1F
100
AcDbEntity
  8
0-0
  6
Continuous
 62
     3
370
     9
100
AcDbLine
 10
-238.0677919130068
 20
26.56749498521958
 30
0.0
 11
-223.0677919130068
 21
26.56749498521958
 31
0.0
  0
LINE
  5
135
330
1F
100
AcDbEntity
  8
0-0
  6
Continuous
 62
     3
370
     9
100
AcDbLine
 10
-240.0676995354729
 20
58.5675015836149
 30
0.0
 11
-240.0676995354729
 21
28.56740260768584
 31
0.0
  0
LINE
  5
136
330
1F
100
AcDbEntity
  8
0-0
  6
Continuous
 62
     3
370
     9
100
AcDbLine
 10
-223.0677919130068
 20
60.56750818201022
 30
0.0
 11
-238.0677919130068
 21
60.56750818201022
 31
0.0
  0
LINE
  5
137
330
1F
100
AcDbEntity
  8
0-0
  6
Continuous
 62
     3
370
     9
100
AcDbLine
 10
-221.0676863386824
 20
58.5675015836149
 30
0.0
 11
-221.0676863386824
 21
28.56740260768584
 31
0.0
  0
LINE
  5
138
330
1F
100
AcDbEntity
  8
0-0
  6
Continuous
 62
     3
370
     9
100
AcDbLine
 10
-238.0677919130068
 20
76.56765994510135
 30
0.0
 11
-223.0677919130068
 21
76.56765994510135
 31
0.0
  0
LINE
  5
139
330
1F
100
AcDbEntity
  8
0-0
  6
Continuous
 62
     3
370
     9
100
AcDbLine
 10
-240.0676995354729
 20
108.5675675675676
 30
0.0
 11
-240.0676995354729
 21
78.56756756756761
 31
0.0
  0
LINE
  5
13A
330
1F
100
AcDbEntity
  8
0-0
  6
Continuous
 62
     3
370
     9
100
AcDbLine
 10
-223.0677919130068
 20
110.567673141892
 30
0.0
 11
-238.0677919130068
 21
110.567673141892
 31
0.0
  0
LINE
  5
13B
330
1F
100
AcDbEntity
  8
0-0
  6
Continuous
 62
     3
370
     9
100
AcDbLine
 10
-221.0676863386824
 20
108.5675675675676
 30
0.0
 11
-221.0676863386824
 21
78.56756756756761
 31
0.0
  0
LINE
  5
13C
330
1F
100
AcDbEntity
  8
0-0
  6
Continuous
 62
     3
370
     9
100
AcDbLine
 10
-238.0677919130068
 20
126.5677259290541
 30
0.0
 11
-223.0677919130068
 21
126.5677259290541
 31
0.0
  0
LINE
  5
13D
330
1F
100
AcDbEntity
  8
0-0
  6
Continuous
 62
     3
370
     9
100
AcDbLine
 10
-240.0676995354729
 20
158.5676335515203
 30
0.0
 11
-240.0676995354729
 21
128.5676335515203
 31
0.0
  0
LINE
  5
13E
330
1F
100
AcDbEntity
  8
0-0
  6
Continuous
 62
     3
370
     9
100
AcDbLine
 10
-223.0677919130068
 20
160.5677391258446
 30
0.0
 11
-238.0677919130068
 21
160.5677391258446
 31
0.0
  0
LINE
  5
13F
330
1F
100
AcDbEntity
  8
0-0
  6
Continuous
 62
     3
370
     9
100
AcDbLine
 10
-221.0676863386824
 20
158.5676335515203
 30
0.0
 11
-221.0676863386824
 21
128.5676335515203
 31
0.0
  0
LINE
  5
140
330
1F
100
AcDbEntity
  8
0-0
  6
Continuous
 62
     3
370
     9
100
AcDbLine
 10
-238.0677919130068
 20
176.5677919130068
 30
0.0
 11
-223.0677919130068
 21
176.5677919130068
 31
0.0
  0
LINE
  5
141
330
1F
100
AcDbEntity
  8
0-0
  6
Continuous
 62
     3
370
     9
100
AcDbLine
 10
-240.0676995354729
 20
208.5678974873312
 30
0.0
 11
-240.0676995354729
 21
178.567699535473
 31
0.0
  0
LINE
  5
142
330
1F
100
AcDbEntity
  8
0-0
  6
Continuous
 62
     3
370
     9
100
AcDbLine
 10
-223.0677919130068
 20
210.5678051097973
 30
0.0
 11
-238.0677919130068
 21
210.5678051097973
 31
0.0
  0
LINE
  5
143
330
1F
100
AcDbEntity
  8
0-0
  6
Continuous
 62
     3
370
     9
100
AcDbLine
 10
-221.0676863386824
 20
208.5678974873312
 30
0.0
 11
-221.0676863386824
 21
178.567699535473
 31
0.0
  0
LINE
  5
144
330
1F
100
AcDbEntity
  8
0-0
  6
Continuous
 62
     3
370
     9
100
AcDbLine
 10
-238.0677919130068
 20
226.5678578969595
 30
0.0
 11
-223.0677919130068
 21
226.5678578969595
 31
0.0
  0
LINE
  5
145
330
1F
100
AcDbEntity
  8
0-0
  6
Continuous
 62
     3
370
     9
100
AcDbLine
 10
-240.0676995354729
 20
258.5679634712839
 30
0.0
 11
-240.0676995354729
 21
228.5677655194257
 31
0.0
  0
LINE
  5
146
330
1F
100
AcDbEntity
  8
0-0
  6
Continuous
 62
     3
370
     9
100
AcDbLine
 10
-223.0677919130068
 20
260.56787109375
 30
0.0
 11
-238.0677919130068
 21
260.56787109375
 31
0.0
  0
LINE
  5
147
330
1F
100
AcDbEntity
  8
0-0
  6
Continuous
 62
     3
370
     9
100
AcDbLine
 10
-221.0676863386824
 20
258.5679634712839
 30
0.0
 11
-221.0676863386824
 21
228.5677655194257
 31
0.0
  0
LINE
  5
148
330
1F
100
AcDbEntity
  8
0-0
  6
Continuous
 62
     3
370
     9
100
AcDbLine
 10
-273.0677589210304
 20
-73.43273595861478
 30
0.0
 11
-258.0677589210304
 21
-73.43273595861478
 31
0.0
  0
LINE
  5
149
330
1F
100
AcDbEntity
  8
0-0
  6
Continuous
 62
     3
370
     9
100
AcDbLine
 10
-275.0676665434966
 20
-41.43272936021958
 30
0.0
 11
-275.0676665434966
 21
-71.43282833614865
 31
0.0
  0
LINE
  5
14A
330
1F
100
AcDbEntity
  8
0-0
  6
Continuous
 62
     3
370
     9
100
AcDbLine
 10
-258.0677589210304
 20
-39.43272276182427
 30
0.0
 11
-273.0677589210304
 21
-39.43272276182427
 31
0.0
  0
LINE
  5
14B
330
1F
100
AcDbEntity
  8
0-0
  6
Continuous
 62
     3
370
     9
100
AcDbLine
 10
-256.067653346706
 20
-41.43272936021958
 30
0.0
 11
-256.067653346706
 21
-71.43282833614865
 31
0.0
  0
LINE
  5
14C
330
1F
100
AcDbEntity
  8
0-0
  6
Continuous
 62
     3
370
     9
100
AcDbLine
 10
-273.0677589210304
 20
-23.43257099873313
 30
0.0
 11
-258.0677589210304
 21
-23.43257099873313
 31
0.0
  0
LINE
  5
14D
330
1F
100
AcDbEntity
  8
0-0
  6
Continuous
 62
     3
370
     9
100
AcDbLine
 10
-275.0676665434966
 20
8.56743559966219
 30
0.0
 11
-275.0676665434966
 21
-21.43266337626687
 31
0.0
  0
LINE
  5
14E
330
1F
100
AcDbEntity
  8
0-0
  6
Continuous
 62
     3
370
     9
100
AcDbLine
 10
-258.0677589210304
 20
10.56744219805751
 30
0.0
 11
-273.0677589210304
 21
10.56744219805751
 31
0.0
  0
LINE
  5
14F
330
1F
100
AcDbEntity
  8
0-0
  6
Continuous
 62
     3
370
     9
100
AcDbLine
 10
-256.067653346706
 20
8.56743559966219
 30
0.0
 11
-256.067653346706
 21
-21.43266337626687
 31
0.0
  0
LINE
  5
150
330
1F
100
AcDbEntity
  8
0-0
  6
Continuous
 62
     3
370
     9
100
AcDbLine
 10
-273.0677589210304
 20
26.56749498521958
 30
0.0
 11
-258.0677589210304
 21
26.56749498521958
 31
0.0
  0
LINE
  5
151
330
1F
100
AcDbEntity
  8
0-0
  6
Continuous
 62
     3
370
     9
100
AcDbLine
 10
-275.0676665434966
 20
58.5675015836149
 30
0.0
 11
-275.0676665434966
 21
28.56740260768584
 31
0.0
  0
LINE
  5
152
330
1F
100
AcDbEntity
  8
0-0
  6
Continuous
 62
     3
370
     9
100
AcDbLine
 10
-258.0677589210304
 20
60.56750818201022
 30
0.0
 11
-273.0677589210304
 21
60.56750818201022
 31
0.0
  0
LINE
  5
153
330
1F
100
AcDbEntity
  8
0-0
  6
Continuous
 62
     3
370
     9
100
AcDbLine
 10
-256.067653346706
 20
58.5675015836149
 30
0.0
 11
-256.067653346706
 21
28.56740260768584
 31
0.0
  0
LINE
  5
154
330
1F
100
AcDbEntity
  8
0-0
  6
Continuous
 62
     3
370
     9
100
AcDbLine
 10
-273.0677589210304
 20
76.56765994510135
 30
0.0
 11
-258.0677589210304
 21
76.56765994510135
 31
0.0
  0
LINE
  5
155
330
1F
100
AcDbEntity
  8
0-0
  6
Continuous
 62
     3
370
     9
100
AcDbLine
 10
-275.0676665434966
 20
108.5675675675676
 30
0.0
 11
-275.0676665434966
 21
78.56756756756761
 31
0.0
  0
LINE
  5
156
330
1F
100
AcDbEntity
  8
0-0
  6
Continuous
 62
     3
370
     9
100
AcDbLine
 10
-258.0677589210304
 20
110.567673141892
 30
0.0
 11
-273.0677589210304
 21
110.567673141892
 31
0.0
  0
LINE
  5
157
330
1F
100
AcDbEntity
  8
0-0
  6
Continuous
 62
     3
370
     9
100
AcDbLine
 10
-256.067653346706
 20
108.5675675675676
 30
0.0
 11
-256.067653346706
 21
78.56756756756761
 31
0.0
  0
LINE
  5
158
330
1F
100
AcDbEntity
  8
0-0
  6
Continuous
 62
     3
370
     9
100
AcDbLine
 10
-273.0677589210304
 20
126.5677259290541
 30
0.0
 11
-258.0677589210304
 21
126.5677259290541
 31
0.0
  0
LINE
  5
159
330
1F
100
AcDbEntity
  8
0-0
  6
Continuous
 62
     3
370
     9
100
AcDbLine
 10
-275.0676665434966
 20
158.5676335515203
 30
0.0
 11
-275.0676665434966
 21
128.5676335515203
 31
0.0
  0
LINE
  5
15A
330
1F
100
AcDbEntity
  8
0-0
  6
Continuous
 62
     3
370
     9
100
AcDbLine
 10
-258.0677589210304
 20
160.5677391258446
 30
0.0
 11
-273.0677589210304
 21
160.5677391258446
 31
0.0
  0
LINE
  5
15B
330
1F
100
AcDbEntity
  8
0-0
  6
Continuous
 62
     3
370
     9
100
AcDbLine
 10
-256.067653346706
 20
158.5676335515203
 30
0.0
 11
-256.067653346706
 21
128.5676335515203
 31
0.0
  0
LINE
  5
15C
330
1F
100
AcDbEntity
  8
0-0
  6
Continuous
 62
     3
370
     9
100
AcDbLine
 10
-273.0677589210304
 20
176.5677919130068
 30
0.0
 11
-258.0677589210304
 21
176.5677919130068
 31
0.0
  0
LINE
  5
15D
330
1F
100
AcDbEntity
  8
0-0
  6
Continuous
 62
     3
370
     9
100
AcDbLine
 10
-275.0676665434966
 20
208.5678974873312
 30
0.0
 11
-275.0676665434966
 21
178.567699535473
 31
0.0
  0
LINE
  5
15E
330
1F
100
AcDbEntity
  8
0-0
  6
Continuous
 62
     3
370
     9
100
AcDbLine
 10
-258.0677589210304
 20
210.5678051097973
 30
0.0
 11
-273.0677589210304
 21
210.5678051097973
 31
0.0
  0
LINE
  5
15F
330
1F
100
AcDbEntity
  8
0-0
  6
Continuous
 62
     3
370
     9
100
AcDbLine
 10
-256.067653346706
 20
208.5678974873312
 30
0.0
 11
-256.067653346706
 21
178.567699535473
 31
0.0
  0
LINE
  5
160
330
1F
100
AcDbEntity
  8
0-0
  6
Continuous
 62
     3
370
     9
100
AcDbLine
 10
-273.0677589210304
 20
226.5678578969595
 30
0.0
 11
-258.0677589210304
 21
226.5678578969595
 31
0.0
  0
LINE
  5
161
330
1F
100
AcDbEntity
  8
0-0
  6
Continuous
 62
     3
370
     9
100
AcDbLine
 10
-275.0676665434966
 20
258.5679634712839
 30
0.0
 11
-275.0676665434966
 21
228.5677655194257
 31
0.0
  0
LINE
  5
162
330
1F
100
AcDbEntity
  8
0-0
  6
Continuous
 62
     3
370
     9
100
AcDbLine
 10
-258.0677589210304
 20
260.56787109375
 30
0.0
 11
-273.0677589210304
 21
260.56787109375
 31
0.0
  0
LINE
  5
163
330
1F
100
AcDbEntity
  8
0-0
  6
Continuous
 62
     3
370
     9
100
AcDbLine
 10
-256.067653346706
 20
258.5679634712839
 30
0.0
 11
-256.067653346706
 21
228.5677655194257
 31
0.0
  0
LINE
  5
164
330
1F
100
AcDbEntity
  8
0-0
  6
Continuous
 62
     3
370
     9
100
AcDbLine
 10
-308.067626953125
 20
-73.43273595861478
 30
0.0
 11
-293.067626953125
 21
-73.43273595861478
 31
0.0
  0
LINE
  5
165
330
1F
100
AcDbEntity
  8
0-0
  6
Continuous
 62
     3
370
     9
100
AcDbLine
 10
-310.0675345755911
 20
-41.43272936021958
 30
0.0
 11
-310.0675345755911
 21
-71.43282833614865
 31
0.0
  0
LINE
  5
166
330
1F
100
AcDbEntity
  8
0-0
  6
Continuous
 62
     3
370
     9
100
AcDbLine
 10
-293.067626953125
 20
-39.43272276182427
 30
0.0
 11
-308.067626953125
 21
-39.43272276182427
 31
0.0
  0
LINE
  5
167
330
1F
100
AcDbEntity
  8
0-0
  6
Continuous
 62
     3
370
     9
100
AcDbLine
 10
-291.0675213788006
 20
-41.43272936021958
 30
0.0
 11
-291.0675213788006
 21
-71.43282833614865
 31
0.0
  0
LINE
  5
168
330
1F
100
AcDbEntity
  8
0-0
  6
Continuous
 62
     3
370
     9
100
AcDbLine
 10
-308.067626953125
 20
-23.43257099873313
 30
0.0
 11
-293.067626953125
 21
-23.43257099873313
 31
0.0
  0
LINE
  5
169
330
1F
100
AcDbEntity
  8
0-0
  6
Continuous
 62
     3
370
     9
100
AcDbLine
 10
-310.0675345755911
 20
8.56743559966219
 30
0.0
 11
-310.0675345755911
 21
-21.43266337626687
 31
0.0
  0
LINE
  5
16A
330
1F
100
AcDbEntity
  8
0-0
  6
Continuous
 62
     3
370
     9
100
AcDbLine
 10
-293.067626953125
 20
10.56744219805751
 30
0.0
 11
-308.067626953125
 21
10.56744219805751
 31
0.0
  0
LINE
  5
16B
330
1F
100
AcDbEntity
  8
0-0
  6
Continuous
 62
     3
370
     9
100
AcDbLine
 10
-291.0675213788006
 20
8.56743559966219
 30
0.0
 11
-291.0675213788006
 21
-21.43266337626687
 31
0.0
  0
LINE
  5
16C
330
1F
100
AcDbEntity
  8
0-0
  6
Continuous
 62
     3
370
     9
100
AcDbLine
 10
-308.067626953125
 20
26.56749498521958
 30
0.0
 11
-293.067626953125
 21
26.56749498521958
 31
0.0
  0
LINE
  5
16D
330
1F
100
AcDbEntity
  8
0-0
  6
Continuous
 62
     3
370
     9
100
AcDbLine
 10
-310.0675345755911
 20
58.5675015836149
 30
0.0
 11
-310.0675345755911
 21
28.56740260768584
 31
0.0
  0
LINE
  5
16E
330
1F
100
AcDbEntity
  8
0-0
  6
Continuous
 62
     3
370
     9
100
AcDbLine
 10
-293.067626953125
 20
60.56750818201022
 30
0.0
 11
-308.067626953125
 21
60.56750818201022
 31
0.0
  0
LINE
  5
16F
330
1F
100
AcDbEntity
  8
0-0
  6
Continuous
 62
     3
370
     9
100
AcDbLine
 10
-291.0675213788006
 20
58.5675015836149
 30
0.0
 11
-291.0675213788006
 21
28.56740260768584
 31
0.0
  0
LINE
  5
170
330
1F
100
AcDbEntity
  8
0-0
  6
Continuous
 62
     3
370
     9
100
AcDbLine
 10
-308.067626953125
 20
76.56765994510135
 30
0.0
 11
-293.067626953125
 21
76.56765994510135
 31
0.0
  0
LINE
  5
171
330
1F
100
AcDbEntity
  8
0-0
  6
Continuous
 62
     3
370
     9
100
AcDbLine
 10
-310.0675345755911
 20
108.5675675675676
 30
0.0
 11
-310.0675345755911
 21
78.56756756756761
 31
0.0
  0
LINE
  5
172
330
1F
100
AcDbEntity
  8
0-0
  6
Continuous
 62
     3
370
     9
100
AcDbLine
 10
-293.067626953125
 20
110.567673141892
 30
0.0
 11
-308.067626953125
 21
110.567673141892
 31
0.0
  0
LINE
  5
173
330
1F
100
AcDbEntity
  8
0-0
  6
Continuous
 62
     3
370
     9
100
AcDbLine
 10
-291.0675213788006
 20
108.5675675675676
 30
0.0
 11
-291.0675213788006
 21
78.56756756756761
 31
0.0
  0
LINE
  5
174
330
1F
100
AcDbEntity
  8
0-0
  6
Continuous
 62
     3
370
     9
100
AcDbLine
 10
-308.067626953125
 20
126.5677259290541
 30
0.0
 11
-293.067626953125
 21
126.5677259290541
 31
0.0
  0
LINE
  5
175
330
1F
100
AcDbEntity
  8
0-0
  6
Continuous
 62
     3
370
     9
100
AcDbLine
 10
-310.0675345755911
 20
158.5676335515203
 30
0.0
 11
-310.0675345755911
 21
128.5676335515203
 31
0.0
  0
LINE
  5
176
330
1F
100
AcDbEntity
  8
0-0
  6
Continuous
 62
     3
370
     9
100
AcDbLine
 10
-293.067626953125
 20
160.5677391258446
 30
0.0
 11
-308.067626953125
 21
160.5677391258446
 31
0.0
  0
LINE
  5
177
330
1F
100
AcDbEntity
  8
0-0
  6
Continuous
 62
     3
370
     9
100
AcDbLine
 10
-291.0675213788006
 20
158.5676335515203
 30
0.0
 11
-291.0675213788006
 21
128.5676335515203
 31
0.0
  0
LINE
  5
178
330
1F
100
AcDbEntity
  8
0-0
  6
Continuous
 62
     3
370
     9
100
AcDbLine
 10
-308.067626953125
 20
176.5677919130068
 30
0.0
 11
-293.067626953125
 21
176.5677919130068
 31
0.0
  0
LINE
  5
179
330
1F
100
AcDbEntity
  8
0-0
  6
Continuous
 62
     3
370
     9
100
AcDbLine
 10
-310.0675345755911
 20
208.5678974873312
 30
0.0
 11
-310.0675345755911
 21
178.567699535473
 31
0.0
  0
LINE
  5
17A
330
1F
100
AcDbEntity
  8
0-0
  6
Continuous
 62
     3
370
     9
100
AcDbLine
 10
-293.067626953125
 20
210.5678051097973
 30
0.0
 11
-308.067626953125
 21
210.5678051097973
 31
0.0
  0
LINE
  5
17B
330
1F
100
AcDbEntity
  8
0-0
  6
Continuous
 62
     3
370
     9
100
AcDbLine
 10
-291.0675213788006
 20
208.5678974873312
 30
0.0
 11
-291.0675213788006
 21
178.567699535473
 31
0.0
  0
LINE
  5
17C
330
1F
100
AcDbEntity
  8
0-0
  6
Continuous
 62
     3
370
     9
100
AcDbLine
 10
-308.067626953125
 20
226.5678578969595
 30
0.0
 11
-293.067626953125
 21
226.5678578969595
 31
0.0
  0
LINE
  5
17D
330
1F
100
AcDbEntity
  8
0-0
  6
Continuous
 62
     3
370
     9
100
AcDbLine
 10
-310.0675345755911
 20
258.5679634712839
 30
0.0
 11
-310.0675345755911
 21
228.5677655194257
 31
0.0
  0
LINE
  5
17E
330
1F
100
AcDbEntity
  8
0-0
  6
Continuous
 62
     3
370
     9
100
AcDbLine
 10
-293.067626953125
 20
260.56787109375
 30
0.0
 11
-308.067626953125
 21
260.56787109375
 31
0.0
  0
LINE
  5
17F
330
1F
100
AcDbEntity
  8
0-0
  6
Continuous
 62
     3
370
     9
100
AcDbLine
 10
-291.0675213788006
 20
258.5679634712839
 30
0.0
 11
-291.0675213788006
 21
228.5677655194257
 31
0.0
  0
LINE
  5
180
330
1F
100
AcDbEntity
  8
0-1
  6
Continuous
 62
     2
370
     9
100
AcDbLine
 10
321.9085198479731
 20
-120.571704761402
 30
0.0
 11
327.0728858741554
 21
-121.4324984163851
 31
0.0
  0
LINE
  5
181
330
1F
100
AcDbEntity
  8
0-1
  6
Continuous
 62
     2
370
     9
100
AcDbLine
 10
321.9085198479731
 20
-82.29316010346281
 30
0.0
 11
327.0728858741554
 21
-81.43246542440875
 31
0.0
  0
LINE
  5
182
330
1F
100
AcDbEntity
  8
0-1
  6
Continuous
 62
     2
370
     9
100
AcDbLine
 10
288.0015440244933
 20
-104.9988320840371
 30
0.0
 11
319.286647487331
 21
-107.2335106102196
 31
0.0
  0
LINE
  5
183
330
1F
100
AcDbEntity
  8
0-1
  6
Continuous
 62
     2
370
     9
100
AcDbLine
 10
287.9995645059123
 20
-98.86430400126687
 30
0.0
 11
318.2929291596283
 21
-96.63685071790536
 31
0.0
  0
LINE
  5
184
330
1F
100
AcDbEntity
  8
0-1
  6
Continuous
 62
     2
370
     9
100
AcDbLine
 10
-130.5673630173142
 20
286.0676335515203
 30
0.0
 11
-505.5673630173142
 21
286.0676335515203
 31
0.0
  0
LINE
  5
185
330
1F
100
AcDbEntity
  8
0-1
  6
Continuous
 62
     2
370
     9
100
AcDbLine
 10
-130.5673630173142
 20
-98.9324984163851
 30
0.0
 11
-505.5673630173142
 21
-98.9324984163851
 31
0.0
  0
LINE
  5
186
330
1F
100
AcDbEntity
  8
0-1
  6
Continuous
 62
     2
370
     9
100
AcDbLine
 10
-124.5672937341639
 20
-104.9325182115709
 30
0.0
 11
-511.5673828125
 21
-104.9325182115709
 31
0.0
  0
LINE
  5
187
330
1F
100
AcDbEntity
  8
0-1
  6
Continuous
 62
     2
370
     9
100
AcDbLine
 10
-119.5673762141047
 20
-99.93245222761823
 30
0.0
 11
-119.5673762141047
 21
287.0676863386825
 31
0.0
  0
LINE
  5
188
330
1F
100
AcDbEntity
  8
0-1
  6
Continuous
 62
     2
370
     9
100
AcDbLine
 10
-117.0672937341639
 20
-102.4324852195946
 30
0.0
 11
-117.0672937341639
 21
289.5678183065879
 31
0.0
  0
LINE
  5
189
330
1F
100
AcDbEntity
  8
0-1
  6
Continuous
 62
     2
370
     9
100
AcDbLine
 10
-103.0673960092905
 20
-102.4324852195946
 30
0.0
 11
-103.0673960092905
 21
289.5676203547298
 31
0.0
  0
LINE
  5
18A
330
1F
100
AcDbEntity
  8
0-1
  6
Continuous
 62
     2
370
     9
100
AcDbLine
 10
-109.0673168285473
 20
-102.4324852195946
 30
0.0
 11
-109.0673168285473
 21
289.5676203547298
 31
0.0
  0
LINE
  5
18B
330
1F
100
AcDbEntity
  8
0-1
  6
Continuous
 62
     2
370
     9
100
AcDbLine
 10
-510.5673300253378
 20
-93.93243243243239
 30
0.0
 11
-510.5673300253378
 21
281.0677655194257
 31
0.0
  0
LINE
  5
18C
330
1F
100
AcDbEntity
  8
0-1
  6
Continuous
 62
     2
370
     9
100
AcDbLine
 10
-516.5673498205236
 20
-99.93245222761823
 30
0.0
 11
-516.5673498205236
 21
287.0676863386825
 31
0.0
  0
LINE
  5
18D
330
1F
100
AcDbEntity
  8
0-1
  6
Continuous
 62
     2
370
     9
100
AcDbLine
 10
-519.0673828125
 20
-102.4324852195946
 30
0.0
 11
-519.0673828125
 21
289.5678183065879
 31
0.0
  0
LINE
  5
18E
330
1F
100
AcDbEntity
  8
0-1
  6
Continuous
 62
     2
370
     9
100
AcDbLine
 10
-533.0673300253378
 20
-102.4324852195946
 30
0.0
 11
-533.0673300253378
 21
289.5676203547298
 31
0.0
  0
LINE
  5
18F
330
1F
100
AcDbEntity
  8
0-1
  6
Continuous
 62
     2
370
     9
100
AcDbLine
 10
-527.067409206081
 20
-102.4324852195946
 30
0.0
 11
-527.067409206081
 21
289.5676203547298
 31
0.0
  0
LINE
  5
190
330
1F
100
AcDbEntity
  8
0-1
  6
Continuous
 62
     2
370
     9
100
AcDbLine
 10
321.9085198479731
 20
307.7069388724663
 30
0.0
 11
327.0728858741554
 21
308.5676335515203
 31
0.0
  0
LINE
  5
191
330
1F
100
AcDbEntity
  8
0-1
  6
Continuous
 62
     2
370
     9
100
AcDbLine
 10
321.9085198479731
 20
269.428196262669
 30
0.0
 11
327.0728858741554
 21
268.5675015836149
 31
0.0
  0
LINE
  5
192
330
1F
100
AcDbEntity
  8
0-1
  6
Continuous
 62
     2
370
     9
100
AcDbLine
 10
288.0015440244933
 20
292.1340661951014
 30
0.0
 11
319.286647487331
 21
294.3685467694257
 31
0.0
  0
LINE
  5
193
330
1F
100
AcDbEntity
  8
0-1
  6
Continuous
 62
     2
370
     9
100
AcDbLine
 10
287.9995645059123
 20
285.9995381123312
 30
0.0
 11
318.2929291596283
 21
283.7721838048986
 31
0.0
  0
LINE
  5
194
330
1F
100
AcDbEntity
  8
0-1
  6
Continuous
 62
     2
370
     9
100
AcDbLine
 10
327.0728858741554
 20
308.5676335515203
 30
0.0
 11
327.0728858741554
 21
-121.4324984163851
 31
0.0
  0
LINE
  5
195
330
1F
100
AcDbEntity
  8
0-1
  6
Continuous
 62
     2
370
     9
100
AcDbLine
 10
321.0729650548988
 20
280.7799435177366
 30
0.0
 11
321.0729650548988
 21
-93.64490735853036
 31
0.0
  0
LINE
  5
196
330
1F
100
AcDbEntity
  8
0-1
  6
Continuous
 62
     2
370
     9
100
AcDbLine
 10
287.0729518581081
 20
291.1363888302366
 30
0.0
 11
287.0729518581081
 21
-104.0013526710304
 31
0.0
  0
LINE
  5
197
330
1F
100
AcDbEntity
  8
0-1
  6
Continuous
 62
     2
370
     9
100
AcDbLine
 10
-104.0674487964527
 20
-102.4324852195946
 30
0.0
 11
-104.0674487964527
 21
289.5676203547298
 31
0.0
  0
LINE
  5
198
330
1F
100
AcDbEntity
  8
0-1
  6
Continuous
 62
     2
370
     9
100
AcDbLine
 10
-532.0673762141048
 20
-102.4324852195946
 30
0.0
 11
-532.0673762141048
 21
289.5676203547298
 31
0.0
  0
LINE
  5
199
330
1F
100
AcDbEntity
  8
0-1
  6
Continuous
 62
     2
370
     9
100
AcDbLine
 10
322.0728198902027
 20
-110.2258498733108
 30
0.0
 11
322.0728198902027
 21
-114.4325248099662
 31
0.0
  0
LINE
  5
19A
330
1F
100
AcDbEntity
  8
0-1
  6
Continuous
 62
     2
370
     9
100
AcDbLine
 10
321.0729650548988
 20
-115.4324786211993
 30
0.0
 11
322.0728198902027
 21
-114.4325248099662
 31
0.0
  0
LINE
  5
19B
330
1F
100
AcDbEntity
  8
0-1
  6
Continuous
 62
     2
370
     9
100
AcDbLine
 10
322.0728198902027
 20
297.3611829603041
 30
0.0
 11
322.0728198902027
 21
301.5676599451014
 31
0.0
  0
LINE
  5
19C
330
1F
100
AcDbEntity
  8
0-1
  6
Continuous
 62
     2
370
     9
100
AcDbLine
 10
321.0729650548988
 20
302.5677127322635
 30
0.0
 11
322.0728198902027
 21
301.5676599451014
 31
0.0
  0
LINE
  5
19D
330
1F
100
AcDbEntity
  8
0-1
  6
Continuous
 62
     2
370
     9
100
AcDbLine
 10
-110.0673696157094
 20
-102.4324852195946
 30
0.0
 11
-110.0673696157094
 21
289.5676203547298
 31
0.0
  0
LINE
  5
19E
330
1F
100
AcDbEntity
  8
0-1
  6
Continuous
 62
     2
370
     9
100
AcDbLine
 10
-526.0674553948479
 20
-102.4324852195946
 30
0.0
 11
-526.0674553948479
 21
289.5676203547298
 31
0.0
  0
LINE
  5
19F
330
1F
100
AcDbEntity
  8
0-1
  6
Continuous
 62
     2
370
     9
100
AcDbLine
 10
321.0729650548988
 20
-119.5853106524493
 30
0.0
 11
321.0729650548988
 21
-107.9897856841216
 31
0.0
  0
LINE
  5
1A0
330
1F
100
AcDbEntity
  8
0-1
  6
Continuous
 62
     2
370
     9
100
AcDbLine
 10
321.0729650548988
 20
306.7203468116554
 30
0.0
 11
321.0729650548988
 21
295.1251187711149
 31
0.0
  0
LINE
  5
1A1
330
1F
100
AcDbEntity
  8
0-1
  6
Continuous
 62
     2
370
     9
100
AcDbLine
 10
-349.0674652924408
 20
-109.4325578019426
 30
0.0
 11
-349.0674652924408
 21
-112.4325182115709
 31
0.0
  0
LINE
  5
1A2
330
1F
100
AcDbEntity
  8
0-1
  6
Continuous
 62
     2
370
     9
100
AcDbLine
 10
-348.0674619932432
 20
-109.4325578019426
 30
0.0
 11
-348.0674619932432
 21
-113.4325709987331
 31
0.0
  0
LINE
  5
1A3
330
1F
100
AcDbEntity
  8
0-1
  6
Continuous
 62
     2
370
     9
100
AcDbLine
 10
-122.0672607421875
 20
-107.4325512035473
 30
0.0
 11
-514.0674158044764
 21
-107.4325512035473
 31
0.0
  0
LINE
  5
1A4
330
1F
100
AcDbEntity
  8
0-1
  6
Continuous
 62
     2
370
     9
100
AcDbLine
 10
-287.0674586940456
 20
-109.4325578019426
 30
0.0
 11
-287.0674586940456
 21
-112.4325182115709
 31
0.0
  0
LINE
  5
1A5
330
1F
100
AcDbEntity
  8
0-1
  6
Continuous
 62
     2
370
     9
100
AcDbLine
 10
-288.0674619932432
 20
-109.4325578019426
 30
0.0
 11
-288.0674619932432
 21
-113.4325709987331
 31
0.0
  0
LINE
  5
1A6
330
1F
100
AcDbEntity
  8
0-1
  6
Continuous
 62
     2
370
     9
100
AcDbLine
 10
-287.0674586940456
 20
296.5677919130068
 30
0.0
 11
-287.0674586940456
 21
299.5675543707771
 31
0.0
  0
LINE
  5
1A7
330
1F
100
AcDbEntity
  8
0-1
  6
Continuous
 62
     2
370
     9
100
AcDbLine
 10
-288.0674619932432
 20
296.5677919130068
 30
0.0
 11
-288.0674619932432
 21
300.5676071579393
 31
0.0
  0
LINE
  5
1A8
330
1F
100
AcDbEntity
  8
0-1
  6
Continuous
 62
     2
370
     9
100
AcDbLine
 10
-349.0674652924408
 20
296.5677919130068
 30
0.0
 11
-349.0674652924408
 21
299.5675543707771
 31
0.0
  0
LINE
  5
1A9
330
1F
100
AcDbEntity
  8
0-1
  6
Continuous
 62
     2
370
     9
100
AcDbLine
 10
-348.0674619932432
 20
296.5677919130068
 30
0.0
 11
-348.0674619932432
 21
300.5676071579393
 31
0.0
  0
LINE
  5
1AA
330
1F
100
AcDbEntity
  8
0-1
  6
Continuous
 62
     2
370
     9
100
AcDbLine
 10
-439.0673168285473
 20
317.5677127322635
 30
0.0
 11
-439.0673168285473
 21
311.0675675675676
 31
0.0
  0
LINE
  5
1AB
330
1F
100
AcDbEntity
  8
0-1
  6
Continuous
 62
     2
370
     9
100
AcDbLine
 10
-438.0674619932432
 20
318.5675675675676
 30
0.0
 11
-438.0674619932432
 21
311.0675675675676
 31
0.0
  0
LINE
  5
1AC
330
1F
100
AcDbEntity
  8
0-1
  6
Continuous
 62
     2
370
     9
100
AcDbLine
 10
-422.0675081820101
 20
317.5677127322635
 30
0.0
 11
-422.0675081820101
 21
311.0675675675676
 31
0.0
  0
LINE
  5
1AD
330
1F
100
AcDbEntity
  8
0-1
  6
Continuous
 62
     2
370
     9
100
AcDbLine
 10
-423.0674619932432
 20
318.5675675675676
 30
0.0
 11
-423.0674619932432
 21
311.0675675675676
 31
0.0
  0
LINE
  5
1AE
330
1F
100
AcDbEntity
  8
0-1
  6
Continuous
 62
     2
370
     9
100
AcDbLine
 10
-411.97265625
 20
319.5676203547298
 30
0.0
 11
-420.0675015836148
 21
319.5676203547298
 31
0.0
  0
LINE
  5
1AF
330
1F
100
AcDbEntity
  8
0-1
  6
Continuous
 62
     2
370
     9
100
AcDbLine
 10
-411.5042031777871
 20
320.5674751900339
 30
0.0
 11
-421.067455394848
 21
320.5674751900339
 31
0.0
  0
LINE
  5
1B0
330
1F
100
AcDbEntity
  8
0-1
  6
Continuous
 62
     2
370
     9
100
AcDbLine
 10
-449.1622677364865
 20
319.5676203547298
 30
0.0
 11
-441.0674224028716
 21
319.5676203547298
 31
0.0
  0
LINE
  5
1B1
330
1F
100
AcDbEntity
  8
0-1
  6
Continuous
 62
     2
370
     9
100
AcDbLine
 10
-449.6307208086993
 20
320.5674751900339
 30
0.0
 11
-440.0673696157094
 21
320.5674751900339
 31
0.0
  0
LINE
  5
1B2
330
1F
100
AcDbEntity
  8
0-1
  6
Continuous
 62
     2
370
     9
100
AcDbLine
 10
-401.1671571473817
 20
309.2873865076014
 30
0.0
 11
-409.967799831081
 21
319.8479201858108
 31
0.0
  0
LINE
  5
1B3
330
1F
100
AcDbEntity
  8
0-1
  6
Continuous
 62
     2
370
     9
100
AcDbLine
 10
-401.6356102195946
 20
308.2873337204393
 30
0.0
 11
-410.4362529032939
 21
318.8480653505068
 31
0.0
  0
LINE
  5
1B4
330
1F
100
AcDbEntity
  8
0-1
  6
Continuous
 62
     2
370
     9
100
AcDbLine
 10
-459.9678658150337
 20
309.2873865076014
 30
0.0
 11
-451.1671241554054
 21
319.8479201858108
 31
0.0
  0
LINE
  5
1B5
330
1F
100
AcDbEntity
  8
0-1
  6
Continuous
 62
     2
370
     9
100
AcDbLine
 10
-461.5041701858108
 20
308.5676335515203
 30
0.0
 11
-514.0673168285473
 21
308.5676335515203
 31
0.0
  0
LINE
  5
1B6
330
1F
100
AcDbEntity
  8
0-1
  6
Continuous
 62
     2
370
     9
100
AcDbLine
 10
-459.4993137668919
 20
308.2873337204393
 30
0.0
 11
-450.6986710831926
 21
318.8480653505068
 31
0.0
  0
LINE
  5
1B7
330
1F
100
AcDbEntity
  8
0-1
  6
Continuous
 62
     2
370
     9
100
AcDbLine
 10
-461.035816089527
 20
307.5675807643581
 30
0.0
 11
-514.0673168285473
 21
307.5675807643581
 31
0.0
  0
LINE
  5
1B8
330
1F
100
AcDbEntity
  8
0-1
  6
Continuous
 62
     2
370
     9
100
AcDbLine
 10
-461.5675147804054
 20
296.5677919130068
 30
0.0
 11
-461.5675147804054
 21
299.5675543707771
 31
0.0
  0
LINE
  5
1B9
330
1F
100
AcDbEntity
  8
0-1
  6
Continuous
 62
     2
370
     9
100
AcDbLine
 10
-460.5674619932432
 20
296.5677919130068
 30
0.0
 11
-460.5674619932432
 21
300.5676071579393
 31
0.0
  0
LINE
  5
1BA
330
1F
100
AcDbEntity
  8
0-1
  6
Continuous
 62
     2
370
     9
100
AcDbLine
 10
-463.5676203547297
 20
301.5676599451014
 30
0.0
 11
-514.0673168285473
 21
301.5676599451014
 31
0.0
  0
LINE
  5
1BB
330
1F
100
AcDbEntity
  8
0-1
  6
Continuous
 62
     2
370
     9
100
AcDbLine
 10
-462.5675675675676
 20
302.5677127322635
 30
0.0
 11
-514.0673168285473
 21
302.5677127322635
 31
0.0
  0
LINE
  5
1BC
330
1F
100
AcDbEntity
  8
0-1
  6
Continuous
 62
     2
370
     9
100
AcDbLine
 10
-399.5675081820101
 20
296.5677919130068
 30
0.0
 11
-399.5675081820101
 21
299.5675543707771
 31
0.0
  0
LINE
  5
1BD
330
1F
100
AcDbEntity
  8
0-1
  6
Continuous
 62
     2
370
     9
100
AcDbLine
 10
-400.5674619932432
 20
296.5677919130068
 30
0.0
 11
-400.5674619932432
 21
300.5676071579393
 31
0.0
  0
LINE
  5
1BE
330
1F
100
AcDbEntity
  8
0-1
  6
Continuous
 62
     2
370
     9
100
AcDbLine
 10
-350.0674685916385
 20
302.5677127322635
 30
0.0
 11
-398.567455394848
 21
302.5677127322635
 31
0.0
  0
LINE
  5
1BF
330
1F
100
AcDbEntity
  8
0-1
  6
Continuous
 62
     2
370
     9
100
AcDbLine
 10
-351.0674718908361
 20
301.5676599451014
 30
0.0
 11
-397.5674026076858
 21
301.5676599451014
 31
0.0
  0
LINE
  5
1C0
330
1F
100
AcDbEntity
  8
0-1
  6
Continuous
 62
     2
370
     9
100
AcDbLine
 10
-197.0675081820101
 20
317.5677127322635
 30
0.0
 11
-197.0675081820101
 21
311.0675675675676
 31
0.0
  0
LINE
  5
1C1
330
1F
100
AcDbEntity
  8
0-1
  6
Continuous
 62
     2
370
     9
100
AcDbLine
 10
-198.0674619932432
 20
318.5675675675676
 30
0.0
 11
-198.0674619932432
 21
311.0675675675676
 31
0.0
  0
LINE
  5
1C2
330
1F
100
AcDbEntity
  8
0-1
  6
Continuous
 62
     2
370
     9
100
AcDbLine
 10
-214.0674158044764
 20
317.5677127322635
 30
0.0
 11
-214.0674158044764
 21
311.0675675675676
 31
0.0
  0
LINE
  5
1C3
330
1F
100
AcDbEntity
  8
0-1
  6
Continuous
 62
     2
370
     9
100
AcDbLine
 10
-213.0674619932432
 20
318.5675675675676
 30
0.0
 11
-213.0674619932432
 21
311.0675675675676
 31
0.0
  0
LINE
  5
1C4
330
1F
100
AcDbEntity
  8
0-1
  6
Continuous
 62
     2
370
     9
100
AcDbLine
 10
-224.1622677364865
 20
319.5676203547298
 30
0.0
 11
-216.0674224028716
 21
319.5676203547298
 31
0.0
  0
LINE
  5
1C5
330
1F
100
AcDbEntity
  8
0-1
  6
Continuous
 62
     2
370
     9
100
AcDbLine
 10
-224.6307208086993
 20
320.5674751900339
 30
0.0
 11
-215.0674685916384
 21
320.5674751900339
 31
0.0
  0
LINE
  5
1C6
330
1F
100
AcDbEntity
  8
0-1
  6
Continuous
 62
     2
370
     9
100
AcDbLine
 10
-186.97265625
 20
319.5676203547298
 30
0.0
 11
-195.0675015836148
 21
319.5676203547298
 31
0.0
  0
LINE
  5
1C7
330
1F
100
AcDbEntity
  8
0-1
  6
Continuous
 62
     2
370
     9
100
AcDbLine
 10
-186.5042031777871
 20
320.5674751900339
 30
0.0
 11
-196.0674553948479
 21
320.5674751900339
 31
0.0
  0
LINE
  5
1C8
330
1F
100
AcDbEntity
  8
0-1
  6
Continuous
 62
     2
370
     9
100
AcDbLine
 10
-234.9677668391047
 20
309.2873865076014
 30
0.0
 11
-226.1671241554054
 21
319.8479201858108
 31
0.0
  0
LINE
  5
1C9
330
1F
100
AcDbEntity
  8
0-1
  6
Continuous
 62
     2
370
     9
100
AcDbLine
 10
-234.4993137668919
 20
308.2873337204393
 30
0.0
 11
-225.6986710831925
 21
318.8480653505068
 31
0.0
  0
LINE
  5
1CA
330
1F
100
AcDbEntity
  8
0-1
  6
Continuous
 62
     2
370
     9
100
AcDbLine
 10
-176.1671571473818
 20
309.2873865076014
 30
0.0
 11
-184.967799831081
 21
319.8479201858108
 31
0.0
  0
LINE
  5
1CB
330
1F
100
AcDbEntity
  8
0-1
  6
Continuous
 62
     2
370
     9
100
AcDbLine
 10
-176.6356102195946
 20
308.2873337204393
 30
0.0
 11
-185.4362529032938
 21
318.8480653505068
 31
0.0
  0
LINE
  5
1CC
330
1F
100
AcDbEntity
  8
0-1
  6
Continuous
 62
     2
370
     9
100
AcDbLine
 10
-174.5675081820101
 20
296.5677919130068
 30
0.0
 11
-174.5675081820101
 21
299.5675543707771
 31
0.0
  0
LINE
  5
1CD
330
1F
100
AcDbEntity
  8
0-1
  6
Continuous
 62
     2
370
     9
100
AcDbLine
 10
-175.5674619932432
 20
296.5677919130068
 30
0.0
 11
-175.5674619932432
 21
300.5676071579393
 31
0.0
  0
LINE
  5
1CE
330
1F
100
AcDbEntity
  8
0-1
  6
Continuous
 62
     2
370
     9
100
AcDbLine
 10
-236.5674158044764
 20
296.5677919130068
 30
0.0
 11
-236.5674158044764
 21
299.5675543707771
 31
0.0
  0
LINE
  5
1CF
330
1F
100
AcDbEntity
  8
0-1
  6
Continuous
 62
     2
370
     9
100
AcDbLine
 10
-235.5674619932432
 20
296.5677919130068
 30
0.0
 11
-235.5674619932432
 21
300.5676071579393
 31
0.0
  0
LINE
  5
1D0
330
1F
100
AcDbEntity
  8
0-1
  6
Continuous
 62
     2
370
     9
100
AcDbLine
 10
-439.0673168285473
 20
-130.4324786211993
 30
0.0
 11
-439.0673168285473
 21
-123.9324324324324
 31
0.0
  0
LINE
  5
1D1
330
1F
100
AcDbEntity
  8
0-1
  6
Continuous
 62
     2
370
     9
100
AcDbLine
 10
-438.0674619932432
 20
-131.4324324324324
 30
0.0
 11
-438.0674619932432
 21
-123.9324324324324
 31
0.0
  0
LINE
  5
1D2
330
1F
100
AcDbEntity
  8
0-1
  6
Continuous
 62
     2
370
     9
100
AcDbLine
 10
-422.0675081820101
 20
-130.4324786211993
 30
0.0
 11
-422.0675081820101
 21
-123.9324324324324
 31
0.0
  0
LINE
  5
1D3
330
1F
100
AcDbEntity
  8
0-1
  6
Continuous
 62
     2
370
     9
100
AcDbLine
 10
-423.0674619932432
 20
-131.4324324324324
 30
0.0
 11
-423.0674619932432
 21
-123.9324324324324
 31
0.0
  0
LINE
  5
1D4
330
1F
100
AcDbEntity
  8
0-1
  6
Continuous
 62
     2
370
     9
100
AcDbLine
 10
-411.97265625
 20
-132.4324852195946
 30
0.0
 11
-420.0675015836148
 21
-132.4324852195946
 31
0.0
  0
LINE
  5
1D5
330
1F
100
AcDbEntity
  8
0-1
  6
Continuous
 62
     2
370
     9
100
AcDbLine
 10
-411.5042031777871
 20
-133.4324390308277
 30
0.0
 11
-421.067455394848
 21
-133.4324390308277
 31
0.0
  0
LINE
  5
1D6
330
1F
100
AcDbEntity
  8
0-1
  6
Continuous
 62
     2
370
     9
100
AcDbLine
 10
-449.1622677364865
 20
-132.4324852195946
 30
0.0
 11
-441.0674224028716
 21
-132.4324852195946
 31
0.0
  0
LINE
  5
1D7
330
1F
100
AcDbEntity
  8
0-1
  6
Continuous
 62
     2
370
     9
100
AcDbLine
 10
-449.6307208086993
 20
-133.4324390308277
 30
0.0
 11
-440.0673696157094
 21
-133.4324390308277
 31
0.0
  0
LINE
  5
1D8
330
1F
100
AcDbEntity
  8
0-1
  6
Continuous
 62
     2
370
     9
100
AcDbLine
 10
-401.1671571473817
 20
-122.1521523965371
 30
0.0
 11
-409.967799831081
 21
-132.7127850506757
 31
0.0
  0
LINE
  5
1D9
330
1F
100
AcDbEntity
  8
0-1
  6
Continuous
 62
     2
370
     9
100
AcDbLine
 10
-401.6356102195946
 20
-121.152198585304
 30
0.0
 11
-410.4362529032939
 21
-131.7128312394426
 31
0.0
  0
LINE
  5
1DA
330
1F
100
AcDbEntity
  8
0-1
  6
Continuous
 62
     2
370
     9
100
AcDbLine
 10
-459.9678658150337
 20
-122.1521523965371
 30
0.0
 11
-451.1671241554054
 21
-132.7127850506757
 31
0.0
  0
LINE
  5
1DB
330
1F
100
AcDbEntity
  8
0-1
  6
Continuous
 62
     2
370
     9
100
AcDbLine
 10
-459.4993137668919
 20
-121.152198585304
 30
0.0
 11
-450.6986710831926
 21
-131.7128312394426
 31
0.0
  0
LINE
  5
1DC
330
1F
100
AcDbEntity
  8
0-1
  6
Continuous
 62
     2
370
     9
100
AcDbLine
 10
-461.5675147804054
 20
-109.4325578019426
 30
0.0
 11
-461.5675147804054
 21
-112.4325182115709
 31
0.0
  0
LINE
  5
1DD
330
1F
100
AcDbEntity
  8
0-1
  6
Continuous
 62
     2
370
     9
100
AcDbLine
 10
-460.5674619932432
 20
-109.4325578019426
 30
0.0
 11
-460.5674619932432
 21
-113.4325709987331
 31
0.0
  0
LINE
  5
1DE
330
1F
100
AcDbEntity
  8
0-1
  6
Continuous
 62
     2
370
     9
100
AcDbLine
 10
-399.5675081820101
 20
-109.4325578019426
 30
0.0
 11
-399.5675081820101
 21
-112.4325182115709
 31
0.0
  0
LINE
  5
1DF
330
1F
100
AcDbEntity
  8
0-1
  6
Continuous
 62
     2
370
     9
100
AcDbLine
 10
-400.5674619932432
 20
-109.4325578019426
 30
0.0
 11
-400.5674619932432
 21
-113.4325709987331
 31
0.0
  0
LINE
  5
1E0
330
1F
100
AcDbEntity
  8
0-1
  6
Continuous
 62
     2
370
     9
100
AcDbLine
 10
-197.0675081820101
 20
-130.4324786211993
 30
0.0
 11
-197.0675081820101
 21
-123.9324324324324
 31
0.0
  0
LINE
  5
1E1
330
1F
100
AcDbEntity
  8
0-1
  6
Continuous
 62
     2
370
     9
100
AcDbLine
 10
-198.0674619932432
 20
-131.4324324324324
 30
0.0
 11
-198.0674619932432
 21
-123.9324324324324
 31
0.0
  0
LINE
  5
1E2
330
1F
100
AcDbEntity
  8
0-1
  6
Continuous
 62
     2
370
     9
100
AcDbLine
 10
-214.0674158044764
 20
-130.4324786211993
 30
0.0
 11
-214.0674158044764
 21
-123.9324324324324
 31
0.0
  0
LINE
  5
1E3
330
1F
100
AcDbEntity
  8
0-1
  6
Continuous
 62
     2
370
     9
100
AcDbLine
 10
-213.0674619932432
 20
-131.4324324324324
 30
0.0
 11
-213.0674619932432
 21
-123.9324324324324
 31
0.0
  0
LINE
  5
1E4
330
1F
100
AcDbEntity
  8
0-1
  6
Continuous
 62
     2
370
     9
100
AcDbLine
 10
-224.1622677364865
 20
-132.4324852195946
 30
0.0
 11
-216.0674224028716
 21
-132.4324852195946
 31
0.0
  0
LINE
  5
1E5
330
1F
100
AcDbEntity
  8
0-1
  6
Continuous
 62
     2
370
     9
100
AcDbLine
 10
-224.6307208086993
 20
-133.4324390308277
 30
0.0
 11
-215.0674685916384
 21
-133.4324390308277
 31
0.0
  0
LINE
  5
1E6
330
1F
100
AcDbEntity
  8
0-1
  6
Continuous
 62
     2
370
     9
100
AcDbLine
 10
-186.97265625
 20
-132.4324852195946
 30
0.0
 11
-195.0675015836148
 21
-132.4324852195946
 31
0.0
  0
LINE
  5
1E7
330
1F
100
AcDbEntity
  8
0-1
  6
Continuous
 62
     2
370
     9
100
AcDbLine
 10
-186.5042031777871
 20
-133.4324390308277
 30
0.0
 11
-196.0674553948479
 21
-133.4324390308277
 31
0.0
  0
LINE
  5
1E8
330
1F
100
AcDbEntity
  8
0-1
  6
Continuous
 62
     2
370
     9
100
AcDbLine
 10
-234.9677668391047
 20
-122.1521523965371
 30
0.0
 11
-226.1671241554054
 21
-132.7127850506757
 31
0.0
  0
LINE
  5
1E9
330
1F
100
AcDbEntity
  8
0-1
  6
Continuous
 62
     2
370
     9
100
AcDbLine
 10
-234.4993137668919
 20
-121.152198585304
 30
0.0
 11
-225.6986710831925
 21
-131.7128312394426
 31
0.0
  0
LINE
  5
1EA
330
1F
100
AcDbEntity
  8
0-1
  6
Continuous
 62
     2
370
     9
100
AcDbLine
 10
-176.1671571473818
 20
-122.1521523965371
 30
0.0
 11
-184.967799831081
 21
-132.7127850506757
 31
0.0
  0
LINE
  5
1EB
330
1F
100
AcDbEntity
  8
0-1
  6
Continuous
 62
     2
370
     9
100
AcDbLine
 10
-176.6356102195946
 20
-121.152198585304
 30
0.0
 11
-185.4362529032938
 21
-131.7128312394426
 31
0.0
  0
LINE
  5
1EC
330
1F
100
AcDbEntity
  8
0-1
  6
Continuous
 62
     2
370
     9
100
AcDbLine
 10
-174.5675081820101
 20
-109.4325578019426
 30
0.0
 11
-174.5675081820101
 21
-112.4325182115709
 31
0.0
  0
LINE
  5
1ED
330
1F
100
AcDbEntity
  8
0-1
  6
Continuous
 62
     2
370
     9
100
AcDbLine
 10
-175.5674619932432
 20
-109.4325578019426
 30
0.0
 11
-175.5674619932432
 21
-113.4325709987331
 31
0.0
  0
LINE
  5
1EE
330
1F
100
AcDbEntity
  8
0-1
  6
Continuous
 62
     2
370
     9
100
AcDbLine
 10
-236.5674158044764
 20
-109.4325578019426
 30
0.0
 11
-236.5674158044764
 21
-112.4325182115709
 31
0.0
  0
LINE
  5
1EF
330
1F
100
AcDbEntity
  8
0-1
  6
Continuous
 62
     2
370
     9
100
AcDbLine
 10
-235.5674619932432
 20
-109.4325578019426
 30
0.0
 11
-235.5674619932432
 21
-113.4325709987331
 31
0.0
  0
LINE
  5
1F0
330
1F
100
AcDbEntity
  8
0-1
  6
Continuous
 62
     2
370
     9
100
AcDbLine
 10
-122.067409206081
 20
301.5676599451014
 30
0.0
 11
-172.5674026076857
 21
301.5676599451014
 31
0.0
  0
LINE
  5
1F1
330
1F
100
AcDbEntity
  8
0-1
  6
Continuous
 62
     2
370
     9
100
AcDbLine
 10
-122.067409206081
 20
302.5677127322635
 30
0.0
 11
-173.5674553948479
 21
302.5677127322635
 31
0.0
  0
LINE
  5
1F2
330
1F
100
AcDbEntity
  8
0-1
  6
Continuous
 62
     2
370
     9
100
AcDbLine
 10
-400.0992068728885
 20
307.5675807643581
 30
0.0
 11
-236.0357171135979
 21
307.5675807643581
 31
0.0
  0
LINE
  5
1F3
330
1F
100
AcDbEntity
  8
0-1
  6
Continuous
 62
     2
370
     9
100
AcDbLine
 10
-175.0992068728884
 20
307.5675807643581
 30
0.0
 11
-122.067409206081
 21
307.5675807643581
 31
0.0
  0
LINE
  5
1F4
330
1F
100
AcDbEntity
  8
0-1
  6
Continuous
 62
     2
370
     9
100
AcDbLine
 10
-399.6307538006757
 20
308.5676335515203
 30
0.0
 11
-236.5041701858107
 21
308.5676335515203
 31
0.0
  0
LINE
  5
1F5
330
1F
100
AcDbEntity
  8
0-1
  6
Continuous
 62
     2
370
     9
100
AcDbLine
 10
-174.6307538006756
 20
308.5676335515203
 30
0.0
 11
-122.067409206081
 21
308.5676335515203
 31
0.0
  0
LINE
  5
1F6
330
1F
100
AcDbEntity
  8
0-1
  6
Continuous
 62
     2
370
     9
100
AcDbLine
 10
-461.5041701858108
 20
-121.4324984163851
 30
0.0
 11
-514.0673168285473
 21
-121.4324984163851
 31
0.0
  0
LINE
  5
1F7
330
1F
100
AcDbEntity
  8
0-1
  6
Continuous
 62
     2
370
     9
100
AcDbLine
 10
-461.035816089527
 20
-120.432445629223
 30
0.0
 11
-514.0673168285473
 21
-120.432445629223
 31
0.0
  0
LINE
  5
1F8
330
1F
100
AcDbEntity
  8
0-1
  6
Continuous
 62
     2
370
     9
100
AcDbLine
 10
-350.0674685916385
 20
-115.4325775971283
 30
0.0
 11
-398.567455394848
 21
-115.4325775971283
 31
0.0
  0
LINE
  5
1F9
330
1F
100
AcDbEntity
  8
0-1
  6
Continuous
 62
     2
370
     9
100
AcDbLine
 10
-462.5675675675676
 20
-115.4325775971283
 30
0.0
 11
-514.0673168285473
 21
-115.4325775971283
 31
0.0
  0
LINE
  5
1FA
330
1F
100
AcDbEntity
  8
0-1
  6
Continuous
 62
     2
370
     9
100
AcDbLine
 10
-351.0674718908361
 20
-114.4325248099662
 30
0.0
 11
-397.5674026076858
 21
-114.4325248099662
 31
0.0
  0
LINE
  5
1FB
330
1F
100
AcDbEntity
  8
0-1
  6
Continuous
 62
     2
370
     9
100
AcDbLine
 10
-463.5676203547297
 20
-114.4325248099662
 30
0.0
 11
-514.0673168285473
 21
-114.4325248099662
 31
0.0
  0
LINE
  5
1FC
330
1F
100
AcDbEntity
  8
0-1
  6
Continuous
 62
     2
370
     9
100
AcDbLine
 10
-122.067409206081
 20
-121.4324984163851
 30
0.0
 11
-174.6307538006756
 21
-121.4324984163851
 31
0.0
  0
LINE
  5
1FD
330
1F
100
AcDbEntity
  8
0-1
  6
Continuous
 62
     2
370
     9
100
AcDbLine
 10
-236.5041701858107
 20
-121.4324984163851
 30
0.0
 11
-399.6307538006757
 21
-121.4324984163851
 31
0.0
  0
LINE
  5
1FE
330
1F
100
AcDbEntity
  8
0-1
  6
Continuous
 62
     2
370
     9
100
AcDbLine
 10
-122.067409206081
 20
-120.432445629223
 30
0.0
 11
-175.0992068728884
 21
-120.432445629223
 31
0.0
  0
LINE
  5
1FF
330
1F
100
AcDbEntity
  8
0-1
  6
Continuous
 62
     2
370
     9
100
AcDbLine
 10
-236.0357171135979
 20
-120.432445629223
 30
0.0
 11
-400.0992068728885
 21
-120.432445629223
 31
0.0
  0
LINE
  5
200
330
1F
100
AcDbEntity
  8
0-1
  6
Continuous
 62
     2
370
     9
100
AcDbLine
 10
-122.067409206081
 20
-115.4325775971283
 30
0.0
 11
-173.5674553948479
 21
-115.4325775971283
 31
0.0
  0
LINE
  5
201
330
1F
100
AcDbEntity
  8
0-1
  6
Continuous
 62
     2
370
     9
100
AcDbLine
 10
-237.5674685916384
 20
-115.4325775971283
 30
0.0
 11
-286.0674553948479
 21
-115.4325775971283
 31
0.0
  0
LINE
  5
202
330
1F
100
AcDbEntity
  8
0-1
  6
Continuous
 62
     2
370
     9
100
AcDbLine
 10
-122.067409206081
 20
-114.4325248099662
 30
0.0
 11
-172.5674026076857
 21
-114.4325248099662
 31
0.0
  0
LINE
  5
203
330
1F
100
AcDbEntity
  8
0-1
  6
Continuous
 62
     2
370
     9
100
AcDbLine
 10
-238.5675213788006
 20
-114.4325248099662
 30
0.0
 11
-285.0674520956503
 21
-114.4325248099662
 31
0.0
  0
LINE
  5
204
330
1F
100
AcDbEntity
  8
0-1
  6
Continuous
 62
     2
370
     9
100
AcDbLine
 10
-125.5673960092905
 20
-93.93243243243239
 30
0.0
 11
-125.5673960092905
 21
281.0677655194257
 31
0.0
  0
LINE
  5
205
330
1F
100
AcDbEntity
  8
0-4
  6
JWW_CENTER1
 62
     7
370
     9
100
AcDbLine
 10
-318.0674619932432
 20
-156.1522645692567
 30
0.0
 11
-318.0674619932432
 21
335.8647988809122
 31
0.0
  0
LINE
  5
206
330
1F
100
AcDbEntity
  8
0-4
  6
JWW_CENTER1
 62
     7
370
     9
100
AcDbLine
 10
-559.5537835198479
 20
93.56756756756761
 30
0.0
 11
-82.88382865287156
 21
93.56756756756761
 31
0.0
  0
LINE
  5
207
330
1F
100
AcDbEntity
  8
0-4
  6
Continuous
 62
     7
370
     9
100
AcDbLine
 10
321.0727671030406
 20
308.5676335515203
 30
0.0
 11
186.9223764780406
 21
308.5676335515203
 31
0.0
  0
LINE
  5
208
330
1F
100
AcDbEntity
  8
0-4
  6
Continuous
 62
     7
370
     9
100
AcDbLine
 10
188.1223606418919
 20
308.5676335515203
 30
0.0
 11
186.8170660895271
 21
298.6532147381757
 31
0.0
  0
LINE
  5
209
330
1F
100
AcDbEntity
  8
0-4
  6
Continuous
 62
     7
370
     9
100
AcDbLine
 10
188.1223606418919
 20
308.5676335515203
 30
0.0
 11
189.4276551942569
 21
298.6532147381757
 31
0.0
  0
LINE
  5
20A
330
1F
100
AcDbEntity
  8
0-4
  6
Continuous
 62
     7
370
     9
100
AcDbLine
 10
224.0579471072635
 20
303.1510768581081
 30
0.0
 11
224.0579471072635
 21
283.5675015836149
 31
0.0
  0
LINE
  5
20B
330
1F
100
AcDbEntity
  8
0-4
  6
Continuous
 62
     7
370
     9
100
AcDbLine
 10
281.0728330869933
 20
292.0675543707771
 30
0.0
 11
222.8577649915542
 21
292.0675543707771
 31
0.0
  0
LINE
  5
20C
330
1F
100
AcDbEntity
  8
0-4
  6
Continuous
 62
     7
370
     9
100
AcDbLine
 10
281.0728330869933
 20
283.5675015836149
 30
0.0
 11
222.8577649915542
 21
283.5675015836149
 31
0.0
  0
LINE
  5
20D
330
1F
100
AcDbEntity
  8
0-4
  6
Continuous
 62
     7
370
     9
100
AcDbLine
 10
224.0579471072635
 20
292.0675543707771
 30
0.0
 11
222.7528505067569
 21
301.9821711359798
 31
0.0
  0
LINE
  5
20E
330
1F
100
AcDbEntity
  8
0-4
  6
Continuous
 62
     7
370
     9
100
AcDbLine
 10
224.0579471072635
 20
292.0675543707771
 30
0.0
 11
225.3630437077704
 21
301.9821711359798
 31
0.0
  0
LINE
  5
20F
330
1F
100
AcDbEntity
  8
0-4
  6
Continuous
 62
     7
370
     9
100
AcDbLine
 10
224.0579471072635
 20
283.5675015836149
 30
0.0
 11
222.7528505067569
 21
273.6532807221284
 31
0.0
  0
LINE
  5
210
330
1F
100
AcDbEntity
  8
0-4
  6
Continuous
 62
     7
370
     9
100
AcDbLine
 10
224.0579471072635
 20
283.5675015836149
 30
0.0
 11
225.3630437077704
 21
273.6532807221284
 31
0.0
  0
LINE
  5
211
330
1F
100
AcDbEntity
  8
0-4
  6
Continuous
 62
     7
370
     9
100
AcDbLine
 10
333.0728066934123
 20
268.5675015836149
 30
0.0
 11
381.0947397592906
 21
268.5675015836149
 31
0.0
  0
LINE
  5
212
330
1F
100
AcDbEntity
  8
0-4
  6
Continuous
 62
     7
370
     9
100
AcDbLine
 10
379.8947555954392
 20
268.5675015836149
 30
0.0
 11
378.5894610430744
 21
258.6532807221284
 31
0.0
  0
LINE
  5
213
330
1F
100
AcDbEntity
  8
0-4
  6
Continuous
 62
     7
370
     9
100
AcDbLine
 10
379.8947555954392
 20
268.5675015836149
 30
0.0
 11
381.2000501478042
 21
258.6532807221284
 31
0.0
  0
LINE
  5
214
330
1F
100
AcDbEntity
  8
0-4
  6
Continuous
 62
     7
370
     9
100
AcDbLine
 10
253.9577834670608
 20
283.5675015836149
 30
0.0
 11
225.257931271115
 21
283.5675015836149
 31
0.0
  0
LINE
  5
215
330
1F
100
AcDbEntity
  8
0-4
  6
Continuous
 62
     7
370
     9
100
AcDbLine
 10
224.0579471072635
 20
283.5675015836149
 30
0.0
 11
222.7526525548988
 21
273.6532807221284
 31
0.0
  0
LINE
  5
216
330
1F
100
AcDbEntity
  8
0-4
  6
Continuous
 62
     7
370
     9
100
AcDbLine
 10
224.0579471072635
 20
283.5675015836149
 30
0.0
 11
225.3632416596283
 21
273.6532807221284
 31
0.0
  0
LINE
  5
217
330
1F
100
AcDbEntity
  8
0-4
  6
Continuous
 62
     7
370
     9
100
AcDbLine
 10
206.072239231419
 20
308.5676335515203
 30
0.0
 11
189.3223448057433
 21
308.5676335515203
 31
0.0
  0
LINE
  5
218
330
1F
100
AcDbEntity
  8
0-4
  6
Continuous
 62
     7
370
     9
100
AcDbLine
 10
188.1223606418919
 20
308.5676335515203
 30
0.0
 11
186.8170660895271
 21
298.6532147381757
 31
0.0
  0
LINE
  5
219
330
1F
100
AcDbEntity
  8
0-4
  6
Continuous
 62
     7
370
     9
100
AcDbLine
 10
188.1223606418919
 20
308.5676335515203
 30
0.0
 11
189.4276551942569
 21
298.6532147381757
 31
0.0
  0
LINE
  5
21A
330
1F
100
AcDbEntity
  8
0-4
  6
Continuous
 62
     7
370
     9
100
AcDbLine
 10
379.8947555954392
 20
268.5675015836149
 30
0.0
 11
378.5894610430744
 21
258.6532807221284
 31
0.0
  0
LINE
  5
21B
330
1F
100
AcDbEntity
  8
0-4
  6
Continuous
 62
     7
370
     9
100
AcDbLine
 10
379.8947555954392
 20
268.5675015836149
 30
0.0
 11
381.2000501478042
 21
258.6532807221284
 31
0.0
  0
LINE
  5
21C
330
1F
100
AcDbEntity
  8
0-4
  6
Continuous
 62
     7
370
     9
100
AcDbLine
 10
206.072239231419
 20
308.5676335515203
 30
0.0
 11
189.3223448057433
 21
308.5676335515203
 31
0.0
  0
LINE
  5
21D
330
1F
100
AcDbEntity
  8
0-4
  6
Continuous
 62
     7
370
     9
100
AcDbLine
 10
188.1223606418919
 20
308.5676335515203
 30
0.0
 11
186.8170660895271
 21
298.6532147381757
 31
0.0
  0
LINE
  5
21E
330
1F
100
AcDbEntity
  8
0-4
  6
Continuous
 62
     7
370
     9
100
AcDbLine
 10
188.1223606418919
 20
308.5676335515203
 30
0.0
 11
189.4276551942569
 21
298.6532147381757
 31
0.0
  0
LINE
  5
21F
330
1F
100
AcDbEntity
  8
0-4
  6
Continuous
 62
     7
370
     9
100
AcDbLine
 10
224.0579471072635
 20
283.5675015836149
 30
0.0
 11
222.7526525548988
 21
273.6532807221284
 31
0.0
  0
LINE
  5
220
330
1F
100
AcDbEntity
  8
0-4
  6
Continuous
 62
     7
370
     9
100
AcDbLine
 10
224.0579471072635
 20
283.5675015836149
 30
0.0
 11
225.3632416596283
 21
273.6532807221284
 31
0.0
  0
LINE
  5
221
330
1F
100
AcDbEntity
  8
0-4
  6
Continuous
 62
     7
370
     9
100
AcDbLine
 10
379.8947555954392
 20
268.5675015836149
 30
0.0
 11
378.5894610430744
 21
258.6532807221284
 31
0.0
  0
LINE
  5
222
330
1F
100
AcDbEntity
  8
0-4
  6
Continuous
 62
     7
370
     9
100
AcDbLine
 10
379.8947555954392
 20
268.5675015836149
 30
0.0
 11
381.2000501478042
 21
258.6532807221284
 31
0.0
  0
LINE
  5
223
330
1F
100
AcDbEntity
  8
0-4
  6
Continuous
 62
     7
370
     9
100
AcDbLine
 10
206.072239231419
 20
308.5676335515203
 30
0.0
 11
189.3223448057433
 21
308.5676335515203
 31
0.0
  0
LINE
  5
224
330
1F
100
AcDbEntity
  8
0-4
  6
Continuous
 62
     7
370
     9
100
AcDbLine
 10
188.1223606418919
 20
308.5676335515203
 30
0.0
 11
186.8170660895271
 21
298.6532147381757
 31
0.0
  0
LINE
  5
225
330
1F
100
AcDbEntity
  8
0-4
  6
Continuous
 62
     7
370
     9
100
AcDbLine
 10
188.1223606418919
 20
308.5676335515203
 30
0.0
 11
189.4276551942569
 21
298.6532147381757
 31
0.0
  0
LINE
  5
226
330
1F
100
AcDbEntity
  8
0-4
  6
Continuous
 62
     7
370
     9
100
AcDbLine
 10
224.0579471072635
 20
283.5675015836149
 30
0.0
 11
222.7526525548988
 21
273.6532807221284
 31
0.0
  0
LINE
  5
227
330
1F
100
AcDbEntity
  8
0-4
  6
Continuous
 62
     7
370
     9
100
AcDbLine
 10
224.0579471072635
 20
283.5675015836149
 30
0.0
 11
225.3632416596283
 21
273.6532807221284
 31
0.0
  0
LINE
  5
228
330
1F
100
AcDbEntity
  8
0-4
  6
Continuous
 62
     7
370
     9
100
AcDbLine
 10
379.8947555954392
 20
268.5675015836149
 30
0.0
 11
378.5894610430744
 21
258.6532807221284
 31
0.0
  0
LINE
  5
229
330
1F
100
AcDbEntity
  8
0-4
  6
Continuous
 62
     7
370
     9
100
AcDbLine
 10
379.8947555954392
 20
268.5675015836149
 30
0.0
 11
381.2000501478042
 21
258.6532807221284
 31
0.0
  0
LINE
  5
22A
330
1F
100
AcDbEntity
  8
0-4
  6
Continuous
 62
     7
370
     9
100
AcDbLine
 10
321.0727671030406
 20
-121.4324984163851
 30
0.0
 11
186.9223764780406
 21
-121.4324984163851
 31
0.0
  0
LINE
  5
22B
330
1F
100
AcDbEntity
  8
0-4
  6
Continuous
 62
     7
370
     9
100
AcDbLine
 10
188.1223606418919
 20
-121.4324984163851
 30
0.0
 11
186.8170660895271
 21
-111.5180796030405
 31
0.0
  0
LINE
  5
22C
330
1F
100
AcDbEntity
  8
0-4
  6
Continuous
 62
     7
370
     9
100
AcDbLine
 10
188.1223606418919
 20
-121.4324984163851
 30
0.0
 11
189.4276551942569
 21
-111.5180796030405
 31
0.0
  0
LINE
  5
22D
330
1F
100
AcDbEntity
  8
0-4
  6
Continuous
 62
     7
370
     9
100
AcDbLine
 10
224.0579471072635
 20
-116.015941722973
 30
0.0
 11
224.0579471072635
 21
-96.43246542440875
 31
0.0
  0
LINE
  5
22E
330
1F
100
AcDbEntity
  8
0-4
  6
Continuous
 62
     7
370
     9
100
AcDbLine
 10
281.0728330869933
 20
-104.9325182115709
 30
0.0
 11
222.8577649915542
 21
-104.9325182115709
 31
0.0
  0
LINE
  5
22F
330
1F
100
AcDbEntity
  8
0-4
  6
Continuous
 62
     7
370
     9
100
AcDbLine
 10
281.0728330869933
 20
-96.43246542440875
 30
0.0
 11
222.8577649915542
 21
-96.43246542440875
 31
0.0
  0
LINE
  5
230
330
1F
100
AcDbEntity
  8
0-4
  6
Continuous
 62
     7
370
     9
100
AcDbLine
 10
224.0579471072635
 20
-104.9325182115709
 30
0.0
 11
222.7528505067569
 21
-114.8469370249155
 31
0.0
  0
LINE
  5
231
330
1F
100
AcDbEntity
  8
0-4
  6
Continuous
 62
     7
370
     9
100
AcDbLine
 10
224.0579471072635
 20
-104.9325182115709
 30
0.0
 11
225.3630437077704
 21
-114.8469370249155
 31
0.0
  0
LINE
  5
232
330
1F
100
AcDbEntity
  8
0-4
  6
Continuous
 62
     7
370
     9
100
AcDbLine
 10
224.0579471072635
 20
-96.43246542440875
 30
0.0
 11
222.7528505067569
 21
-86.51804661106416
 31
0.0
  0
LINE
  5
233
330
1F
100
AcDbEntity
  8
0-4
  6
Continuous
 62
     7
370
     9
100
AcDbLine
 10
224.0579471072635
 20
-96.43246542440875
 30
0.0
 11
225.3630437077704
 21
-86.51804661106416
 31
0.0
  0
LINE
  5
234
330
1F
100
AcDbEntity
  8
0-4
  6
Continuous
 62
     7
370
     9
100
AcDbLine
 10
379.8947555954392
 20
-81.43246542440875
 30
0.0
 11
378.5894610430744
 21
-71.51804661106416
 31
0.0
  0
LINE
  5
235
330
1F
100
AcDbEntity
  8
0-4
  6
Continuous
 62
     7
370
     9
100
AcDbLine
 10
379.8947555954392
 20
-81.43246542440875
 30
0.0
 11
381.2000501478042
 21
-71.51804661106416
 31
0.0
  0
LINE
  5
236
330
1F
100
AcDbEntity
  8
0-4
  6
Continuous
 62
     7
370
     9
100
AcDbLine
 10
253.9577834670608
 20
-96.43246542440875
 30
0.0
 11
225.257931271115
 21
-96.43246542440875
 31
0.0
  0
LINE
  5
237
330
1F
100
AcDbEntity
  8
0-4
  6
Continuous
 62
     7
370
     9
100
AcDbLine
 10
224.0579471072635
 20
-96.43246542440875
 30
0.0
 11
222.7526525548988
 21
-86.51804661106416
 31
0.0
  0
LINE
  5
238
330
1F
100
AcDbEntity
  8
0-4
  6
Continuous
 62
     7
370
     9
100
AcDbLine
 10
224.0579471072635
 20
-96.43246542440875
 30
0.0
 11
225.3632416596283
 21
-86.51804661106416
 31
0.0
  0
LINE
  5
239
330
1F
100
AcDbEntity
  8
0-4
  6
Continuous
 62
     7
370
     9
100
AcDbLine
 10
206.072239231419
 20
-121.4324984163851
 30
0.0
 11
189.3223448057433
 21
-121.4324984163851
 31
0.0
  0
LINE
  5
23A
330
1F
100
AcDbEntity
  8
0-4
  6
Continuous
 62
     7
370
     9
100
AcDbLine
 10
188.1223606418919
 20
-121.4324984163851
 30
0.0
 11
186.8170660895271
 21
-111.5180796030405
 31
0.0
  0
LINE
  5
23B
330
1F
100
AcDbEntity
  8
0-4
  6
Continuous
 62
     7
370
     9
100
AcDbLine
 10
188.1223606418919
 20
-121.4324984163851
 30
0.0
 11
189.4276551942569
 21
-111.5180796030405
 31
0.0
  0
LINE
  5
23C
330
1F
100
AcDbEntity
  8
0-4
  6
Continuous
 62
     7
370
     9
100
AcDbLine
 10
379.8947555954392
 20
-81.43246542440875
 30
0.0
 11
378.5894610430744
 21
-71.51804661106416
 31
0.0
  0
LINE
  5
23D
330
1F
100
AcDbEntity
  8
0-4
  6
Continuous
 62
     7
370
     9
100
AcDbLine
 10
379.8947555954392
 20
-81.43246542440875
 30
0.0
 11
381.2000501478042
 21
-71.51804661106416
 31
0.0
  0
LINE
  5
23E
330
1F
100
AcDbEntity
  8
0-4
  6
Continuous
 62
     7
370
     9
100
AcDbLine
 10
206.072239231419
 20
-121.4324984163851
 30
0.0
 11
189.3223448057433
 21
-121.4324984163851
 31
0.0
  0
LINE
  5
23F
330
1F
100
AcDbEntity
  8
0-4
  6
Continuous
 62
     7
370
     9
100
AcDbLine
 10
188.1223606418919
 20
-121.4324984163851
 30
0.0
 11
186.8170660895271
 21
-111.5180796030405
 31
0.0
  0
LINE
  5
240
330
1F
100
AcDbEntity
  8
0-4
  6
Continuous
 62
     7
370
     9
100
AcDbLine
 10
188.1223606418919
 20
-121.4324984163851
 30
0.0
 11
189.4276551942569
 21
-111.5180796030405
 31
0.0
  0
LINE
  5
241
330
1F
100
AcDbEntity
  8
0-4
  6
Continuous
 62
     7
370
     9
100
AcDbLine
 10
224.0579471072635
 20
-96.43246542440875
 30
0.0
 11
222.7526525548988
 21
-86.51804661106416
 31
0.0
  0
LINE
  5
242
330
1F
100
AcDbEntity
  8
0-4
  6
Continuous
 62
     7
370
     9
100
AcDbLine
 10
224.0579471072635
 20
-96.43246542440875
 30
0.0
 11
225.3632416596283
 21
-86.51804661106416
 31
0.0
  0
LINE
  5
243
330
1F
100
AcDbEntity
  8
0-4
  6
Continuous
 62
     7
370
     9
100
AcDbLine
 10
379.8947555954392
 20
-81.43246542440875
 30
0.0
 11
378.5894610430744
 21
-71.51804661106416
 31
0.0
  0
LINE
  5
244
330
1F
100
AcDbEntity
  8
0-4
  6
Continuous
 62
     7
370
     9
100
AcDbLine
 10
379.8947555954392
 20
-81.43246542440875
 30
0.0
 11
381.2000501478042
 21
-71.51804661106416
 31
0.0
  0
LINE
  5
245
330
1F
100
AcDbEntity
  8
0-4
  6
Continuous
 62
     7
370
     9
100
AcDbLine
 10
206.072239231419
 20
-121.4324984163851
 30
0.0
 11
189.3223448057433
 21
-121.4324984163851
 31
0.0
  0
LINE
  5
246
330
1F
100
AcDbEntity
  8
0-4
  6
Continuous
 62
     7
370
     9
100
AcDbLine
 10
188.1223606418919
 20
-121.4324984163851
 30
0.0
 11
186.8170660895271
 21
-111.5180796030405
 31
0.0
  0
LINE
  5
247
330
1F
100
AcDbEntity
  8
0-4
  6
Continuous
 62
     7
370
     9
100
AcDbLine
 10
188.1223606418919
 20
-121.4324984163851
 30
0.0
 11
189.4276551942569
 21
-111.5180796030405
 31
0.0
  0
LINE
  5
248
330
1F
100
AcDbEntity
  8
0-4
  6
Continuous
 62
     7
370
     9
100
AcDbLine
 10
224.0579471072635
 20
-96.43246542440875
 30
0.0
 11
222.7526525548988
 21
-86.51804661106416
 31
0.0
  0
LINE
  5
249
330
1F
100
AcDbEntity
  8
0-4
  6
Continuous
 62
     7
370
     9
100
AcDbLine
 10
224.0579471072635
 20
-96.43246542440875
 30
0.0
 11
225.3632416596283
 21
-86.51804661106416
 31
0.0
  0
LINE
  5
24A
330
1F
100
AcDbEntity
  8
0-4
  6
Continuous
 62
     7
370
     9
100
AcDbLine
 10
379.8947555954392
 20
-81.43246542440875
 30
0.0
 11
378.5894610430744
 21
-71.51804661106416
 31
0.0
  0
LINE
  5
24B
330
1F
100
AcDbEntity
  8
0-4
  6
Continuous
 62
     7
370
     9
100
AcDbLine
 10
379.8947555954392
 20
-81.43246542440875
 30
0.0
 11
381.2000501478042
 21
-71.51804661106416
 31
0.0
  0
LINE
  5
24C
330
1F
100
AcDbEntity
  8
0-4
  6
Continuous
 62
     7
370
     9
100
AcDbLine
 10
379.8947555954392
 20
-81.43246542440875
 30
0.0
 11
379.8947555954392
 21
268.5675015836149
 31
0.0
  0
LINE
  5
24D
330
1F
100
AcDbEntity
  8
0-4
  6
Continuous
 62
     7
370
     9
100
AcDbLine
 10
379.8947555954392
 20
-81.43246542440875
 30
0.0
 11
378.5894610430744
 21
-71.5179476351351
 31
0.0
  0
LINE
  5
24E
330
1F
100
AcDbEntity
  8
0-4
  6
Continuous
 62
     7
370
     9
100
AcDbLine
 10
379.8947555954392
 20
-81.43246542440875
 30
0.0
 11
381.2000501478042
 21
-71.5179476351351
 31
0.0
  0
LINE
  5
24F
330
1F
100
AcDbEntity
  8
0-4
  6
Continuous
 62
     7
370
     9
100
AcDbLine
 10
379.8947555954392
 20
268.5675015836149
 30
0.0
 11
378.5894610430744
 21
258.6532807221284
 31
0.0
  0
LINE
  5
250
330
1F
100
AcDbEntity
  8
0-4
  6
Continuous
 62
     7
370
     9
100
AcDbLine
 10
379.8947555954392
 20
268.5675015836149
 30
0.0
 11
381.2000501478042
 21
258.6532807221284
 31
0.0
  0
LINE
  5
251
330
1F
100
AcDbEntity
  8
0-4
  6
Continuous
 62
     7
370
     9
100
AcDbLine
 10
188.1223606418919
 20
-121.4324984163851
 30
0.0
 11
188.1223606418919
 21
308.5676335515203
 31
0.0
  0
LINE
  5
252
330
1F
100
AcDbEntity
  8
0-4
  6
Continuous
 62
     7
370
     9
100
AcDbLine
 10
206.072239231419
 20
-121.4324984163851
 30
0.0
 11
189.3223448057433
 21
-121.4324984163851
 31
0.0
  0
LINE
  5
253
330
1F
100
AcDbEntity
  8
0-4
  6
Continuous
 62
     7
370
     9
100
AcDbLine
 10
206.072239231419
 20
308.5676335515203
 30
0.0
 11
189.3223448057433
 21
308.5676335515203
 31
0.0
  0
LINE
  5
254
330
1F
100
AcDbEntity
  8
0-4
  6
Continuous
 62
     7
370
     9
100
AcDbLine
 10
188.1223606418919
 20
-121.4324984163851
 30
0.0
 11
186.8170660895271
 21
-111.5179806271115
 31
0.0
  0
LINE
  5
255
330
1F
100
AcDbEntity
  8
0-4
  6
Continuous
 62
     7
370
     9
100
AcDbLine
 10
188.1223606418919
 20
-121.4324984163851
 30
0.0
 11
189.4276551942569
 21
-111.5179806271115
 31
0.0
  0
LINE
  5
256
330
1F
100
AcDbEntity
  8
0-4
  6
Continuous
 62
     7
370
     9
100
AcDbLine
 10
188.1223606418919
 20
308.5676335515203
 30
0.0
 11
186.8170660895271
 21
298.6532147381757
 31
0.0
  0
LINE
  5
257
330
1F
100
AcDbEntity
  8
0-4
  6
Continuous
 62
     7
370
     9
100
AcDbLine
 10
188.1223606418919
 20
308.5676335515203
 30
0.0
 11
189.4276551942569
 21
298.6532147381757
 31
0.0
  0
LINE
  5
258
330
1F
100
AcDbEntity
  8
0-4
  6
Continuous
 62
     7
370
     9
100
AcDbLine
 10
224.0579471072635
 20
-96.43246542440875
 30
0.0
 11
224.0579471072635
 21
283.5675015836149
 31
0.0
  0
LINE
  5
259
330
1F
100
AcDbEntity
  8
0-4
  6
Continuous
 62
     7
370
     9
100
AcDbLine
 10
253.9577834670608
 20
-96.43246542440875
 30
0.0
 11
225.257931271115
 21
-96.43246542440875
 31
0.0
  0
LINE
  5
25A
330
1F
100
AcDbEntity
  8
0-4
  6
Continuous
 62
     7
370
     9
100
AcDbLine
 10
253.9577834670608
 20
283.5675015836149
 30
0.0
 11
225.257931271115
 21
283.5675015836149
 31
0.0
  0
LINE
  5
25B
330
1F
100
AcDbEntity
  8
0-4
  6
Continuous
 62
     7
370
     9
100
AcDbLine
 10
224.0579471072635
 20
-96.43246542440875
 30
0.0
 11
222.7526525548988
 21
-86.5179476351351
 31
0.0
  0
LINE
  5
25C
330
1F
100
AcDbEntity
  8
0-4
  6
Continuous
 62
     7
370
     9
100
AcDbLine
 10
224.0579471072635
 20
-96.43246542440875
 30
0.0
 11
225.3632416596283
 21
-86.5179476351351
 31
0.0
  0
LINE
  5
25D
330
1F
100
AcDbEntity
  8
0-4
  6
Continuous
 62
     7
370
     9
100
AcDbLine
 10
224.0579471072635
 20
283.5675015836149
 30
0.0
 11
222.7526525548988
 21
273.6532807221284
 31
0.0
  0
LINE
  5
25E
330
1F
100
AcDbEntity
  8
0-4
  6
Continuous
 62
     7
370
     9
100
AcDbLine
 10
224.0579471072635
 20
283.5675015836149
 30
0.0
 11
225.3632416596283
 21
273.6532807221284
 31
0.0
  0
LINE
  5
25F
330
1F
100
AcDbEntity
  8
0-4
  6
Continuous
 62
     7
370
     9
100
AcDbLine
 10
333.0728066934123
 20
-81.43246542440875
 30
0.0
 11
381.0947397592906
 21
-81.43246542440875
 31
0.0
  0
LINE
  5
260
330
1F
100
AcDbEntity
  8
0-4
  6
JWW_CENTER1
 62
     7
370
     9
100
AcDbLine
 10
268.2582216005069
 20
93.56756756756761
 30
0.0
 11
334.8761481207771
 21
93.56756756756761
 31
0.0
  0
LINE
  5
261
330
1F
100
AcDbEntity
  8
0-4
  6
JWW_CENTER1
 62
     7
370
     9
100
AcDbLine
 10
-430.5674619932432
 20
-143.1354452597128
 30
0.0
 11
-430.5674619932432
 21
-101.3594871727196
 31
0.0
  0
LINE
  5
262
330
1F
100
AcDbEntity
  8
0-4
  6
JWW_CENTER1
 62
     7
370
     9
100
AcDbLine
 10
-413.1890704180743
 20
-123.9324324324324
 30
0.0
 11
-448.3237436655405
 21
-123.9324324324324
 31
0.0
  0
LINE
  5
263
330
1F
100
AcDbEntity
  8
0-4
  6
JWW_CENTER1
 62
     7
370
     9
100
AcDbLine
 10
-205.5674619932432
 20
-143.1354452597128
 30
0.0
 11
-205.5674619932432
 21
-101.3594871727196
 31
0.0
  0
LINE
  5
264
330
1F
100
AcDbEntity
  8
0-4
  6
JWW_CENTER1
 62
     7
370
     9
100
AcDbLine
 10
-188.1890704180743
 20
-123.9324324324324
 30
0.0
 11
-223.3237436655405
 21
-123.9324324324324
 31
0.0
  0
LINE
  5
265
330
1F
100
AcDbEntity
  8
0-4
  6
JWW_CENTER1
 62
     7
370
     9
100
AcDbLine
 10
-430.5674619932432
 20
330.2706793707771
 30
0.0
 11
-430.5674619932432
 21
288.4947212837839
 31
0.0
  0
LINE
  5
266
330
1F
100
AcDbEntity
  8
0-4
  6
JWW_CENTER1
 62
     7
370
     9
100
AcDbLine
 10
-413.1890704180743
 20
311.0675675675676
 30
0.0
 11
-448.3237436655405
 21
311.0675675675676
 31
0.0
  0
LINE
  5
267
330
1F
100
AcDbEntity
  8
0-4
  6
JWW_CENTER1
 62
     7
370
     9
100
AcDbLine
 10
-205.5674619932432
 20
330.2706793707771
 30
0.0
 11
-205.5674619932432
 21
288.4947212837839
 31
0.0
  0
LINE
  5
268
330
1F
100
AcDbEntity
  8
0-4
  6
JWW_CENTER1
 62
     7
370
     9
100
AcDbLine
 10
-188.1890704180743
 20
311.0675675675676
 30
0.0
 11
-223.3237436655405
 21
311.0675675675676
 31
0.0
  0
LINE
  5
269
330
1F
100
AcDbEntity
  8
0-4
  6
Continuous
 62
     7
370
     9
100
AcDbLine
 10
1.45751953125
 20
-123.9324324324324
 30
0.0
 11
1.45751953125
 21
311.0675675675676
 31
0.0
  0
LINE
  5
26A
330
1F
100
AcDbEntity
  8
0-4
  6
Continuous
 62
     7
370
     9
100
AcDbLine
 10
-182.1890506228884
 20
-123.9324324324324
 30
0.0
 11
2.657503695101354
 21
-123.9324324324324
 31
0.0
  0
LINE
  5
26B
330
1F
100
AcDbEntity
  8
0-4
  6
Continuous
 62
     7
370
     9
100
AcDbLine
 10
-191.0674883868243
 20
311.0675675675676
 30
0.0
 11
2.657503695101354
 21
311.0675675675676
 31
0.0
  0
LINE
  5
26C
330
1F
100
AcDbEntity
  8
0-4
  6
Continuous
 62
     7
370
     9
100
AcDbLine
 10
1.45751953125
 20
-123.9324324324324
 30
0.0
 11
0.152224978885215
 21
-114.0179146431587
 31
0.0
  0
LINE
  5
26D
330
1F
100
AcDbEntity
  8
0-4
  6
Continuous
 62
     7
370
     9
100
AcDbLine
 10
1.45751953125
 20
-123.9324324324324
 30
0.0
 11
2.762814083614899
 21
-114.0179146431587
 31
0.0
  0
LINE
  5
26E
330
1F
100
AcDbEntity
  8
0-4
  6
Continuous
 62
     7
370
     9
100
AcDbLine
 10
1.45751953125
 20
311.0675675675676
 30
0.0
 11
0.152224978885215
 21
301.153148754223
 31
0.0
  0
LINE
  5
26F
330
1F
100
AcDbEntity
  8
0-4
  6
Continuous
 62
     7
370
     9
100
AcDbLine
 10
1.45751953125
 20
311.0675675675676
 30
0.0
 11
2.762814083614899
 21
301.153148754223
 31
0.0
  0
LINE
  5
270
330
1F
100
AcDbEntity
  8
0-4
  6
Continuous
 62
     7
370
     9
100
AcDbLine
 10
-74.15830869932427
 20
147.0781118032095
 30
0.0
 11
-74.15830869932427
 21
176.5677919130068
 31
0.0
  0
LINE
  5
271
330
1F
100
AcDbEntity
  8
0-4
  6
Continuous
 62
     7
370
     9
100
AcDbLine
 10
-147.0680360536318
 20
160.5677391258446
 30
0.0
 11
-72.95832453547291
 21
160.5677391258446
 31
0.0
  0
LINE
  5
272
330
1F
100
AcDbEntity
  8
0-4
  6
Continuous
 62
     7
370
     9
100
AcDbLine
 10
-147.0680360536318
 20
176.5677919130068
 30
0.0
 11
-72.95832453547291
 21
176.5677919130068
 31
0.0
  0
LINE
  5
273
330
1F
100
AcDbEntity
  8
0-4
  6
Continuous
 62
     7
370
     9
100
AcDbLine
 10
-74.15830869932427
 20
160.5677391258446
 30
0.0
 11
-75.46360325168916
 21
150.6533203125
 31
0.0
  0
LINE
  5
274
330
1F
100
AcDbEntity
  8
0-4
  6
Continuous
 62
     7
370
     9
100
AcDbLine
 10
-74.15830869932427
 20
160.5677391258446
 30
0.0
 11
-72.85296465899489
 21
150.6533203125
 31
0.0
  0
LINE
  5
275
330
1F
100
AcDbEntity
  8
0-4
  6
Continuous
 62
     7
370
     9
100
AcDbLine
 10
-74.15830869932427
 20
176.5677919130068
 30
0.0
 11
-74.15830869932427
 21
210.5678051097973
 31
0.0
  0
LINE
  5
276
330
1F
100
AcDbEntity
  8
0-4
  6
Continuous
 62
     7
370
     9
100
AcDbLine
 10
-147.0680360536318
 20
210.5678051097973
 30
0.0
 11
-72.95832453547291
 21
210.5678051097973
 31
0.0
  0
LINE
  5
277
330
1F
100
AcDbEntity
  8
0-4
  6
Continuous
 62
     7
370
     9
100
AcDbLine
 10
-74.15830869932427
 20
176.5677919130068
 30
0.0
 11
-75.46360325168916
 21
186.4822107263514
 31
0.0
  0
LINE
  5
278
330
1F
100
AcDbEntity
  8
0-4
  6
Continuous
 62
     7
370
     9
100
AcDbLine
 10
-74.15830869932427
 20
176.5677919130068
 30
0.0
 11
-72.85296465899489
 21
186.4822107263514
 31
0.0
  0
LINE
  5
279
330
1F
100
AcDbEntity
  8
0-4
  6
Continuous
 62
     7
370
     9
100
AcDbLine
 10
-74.15830869932427
 20
210.5678051097973
 30
0.0
 11
-75.46360325168916
 21
200.6533862964527
 31
0.0
  0
LINE
  5
27A
330
1F
100
AcDbEntity
  8
0-4
  6
Continuous
 62
     7
370
     9
100
AcDbLine
 10
-74.15830869932427
 20
210.5678051097973
 30
0.0
 11
-72.85296465899489
 21
200.6533862964527
 31
0.0
  0
LINE
  5
27B
330
1F
100
AcDbEntity
  8
0-4
  6
Continuous
 62
     7
370
     9
100
AcDbLine
 10
260.5408704603042
 20
199.3389859586149
 30
0.0
 11
312.0962441934123
 21
199.3389859586149
 31
0.0
  0
LINE
  5
27C
330
1F
100
AcDbEntity
  8
0-4
  6
Continuous
 62
     7
370
     9
100
AcDbLine
 10
287.0729518581081
 20
199.3389859586149
 30
0.0
 11
277.1583350929054
 21
198.03369140625
 31
0.0
  0
LINE
  5
27D
330
1F
100
AcDbEntity
  8
0-4
  6
Continuous
 62
     7
370
     9
100
AcDbLine
 10
287.0729518581081
 20
199.3389859586149
 30
0.0
 11
277.1583350929054
 21
200.6442805109798
 31
0.0
  0
LINE
  5
27E
330
1F
100
AcDbEntity
  8
0-4
  6
Continuous
 62
     7
370
     9
100
AcDbLine
 10
299.0727934966217
 20
199.3389859586149
 30
0.0
 11
308.9872123099663
 21
198.03369140625
 31
0.0
  0
LINE
  5
27F
330
1F
100
AcDbEntity
  8
0-4
  6
Continuous
 62
     7
370
     9
100
AcDbLine
 10
299.0727934966217
 20
199.3389859586149
 30
0.0
 11
308.9872123099663
 21
200.6442805109798
 31
0.0
  0
LINE
  5
280
330
1F
100
AcDbEntity
  8
0-F
  6
Continuous
 62
     7
370
     9
100
AcDbLine
 10
287.0729518581081
 20
-173.2287795608108
 30
0.0
 11
321.0729650548988
 21
-173.2287795608108
 31
0.0
  0
LINE
  5
281
330
1F
100
AcDbEntity
  8
0-F
  6
Continuous
 62
     7
370
     9
100
AcDbLine
 10
287.0729518581081
 20
-173.2287795608108
 30
0.0
 11
298.9702544341217
 21
-171.6624854835304
 31
0.0
  0
LINE
  5
282
330
1F
100
AcDbEntity
  8
0-F
  6
Continuous
 62
     7
370
     9
100
AcDbLine
 10
287.0729518581081
 20
-173.2287795608108
 30
0.0
 11
298.9702544341217
 21
-174.7950736380912
 31
0.0
  0
LINE
  5
283
330
1F
100
AcDbEntity
  8
0-F
  6
Continuous
 62
     7
370
     9
100
AcDbLine
 10
321.0729650548988
 20
-173.2287795608108
 30
0.0
 11
309.1756624788852
 21
-171.6624854835304
 31
0.0
  0
LINE
  5
284
330
1F
100
AcDbEntity
  8
0-F
  6
Continuous
 62
     7
370
     9
100
AcDbLine
 10
321.0729650548988
 20
-173.2287795608108
 30
0.0
 11
309.1756624788852
 21
-174.7950736380912
 31
0.0
  0
LINE
  5
285
330
1F
100
AcDbEntity
  8
0-F
  6
Continuous
 62
     7
370
     9
100
AcDbLine
 10
287.0729518581081
 20
-212.893482105152
 30
0.0
 11
327.0728858741554
 21
-212.893482105152
 31
0.0
  0
LINE
  5
286
330
1F
100
AcDbEntity
  8
0-F
  6
Continuous
 62
     7
370
     9
100
AcDbLine
 10
287.0729518581081
 20
-112.932544605152
 30
0.0
 11
287.0729518581081
 21
-214.0934662690033
 31
0.0
  0
LINE
  5
287
330
1F
100
AcDbEntity
  8
0-F
  6
Continuous
 62
     7
370
     9
100
AcDbLine
 10
327.0728858741554
 20
-129.4325248099662
 30
0.0
 11
327.0728858741554
 21
-214.0934662690033
 31
0.0
  0
LINE
  5
288
330
1F
100
AcDbEntity
  8
0-F
  6
Continuous
 62
     7
370
     9
100
AcDbLine
 10
287.0729518581081
 20
-212.893482105152
 30
0.0
 11
298.9702544341217
 21
-211.3271880278716
 31
0.0
  0
LINE
  5
289
330
1F
100
AcDbEntity
  8
0-F
  6
Continuous
 62
     7
370
     9
100
AcDbLine
 10
287.0729518581081
 20
-212.893482105152
 30
0.0
 11
298.9702544341217
 21
-214.4597761824324
 31
0.0
  0
LINE
  5
28A
330
1F
100
AcDbEntity
  8
0-F
  6
Continuous
 62
     7
370
     9
100
AcDbLine
 10
327.0728858741554
 20
-212.893482105152
 30
0.0
 11
315.1755832981419
 21
-211.3271880278716
 31
0.0
  0
LINE
  5
28B
330
1F
100
AcDbEntity
  8
0-F
  6
Continuous
 62
     7
370
     9
100
AcDbLine
 10
327.0728858741554
 20
-212.893482105152
 30
0.0
 11
315.1755832981419
 21
-214.4597761824324
 31
0.0
  0
LINE
  5
28C
330
1F
100
AcDbEntity
  8
0-F
  6
Continuous
 62
     7
370
     9
100
AcDbLine
 10
321.0729650548988
 20
-122.8160829286317
 30
0.0
 11
321.0729650548988
 21
-174.4288627005912
 31
0.0
  0
LINE
  5
28D
330
1F
100
AcDbEntity
  8
0-F
  6
Continuous
 62
     7
370
     9
100
AcDbLine
 10
199.8310150971283
 20
392.8317805109798
 30
0.0
 11
287.0729518581081
 21
241.0502137880068
 31
0.0
  0
LINE
  5
28E
330
1F
100
AcDbEntity
  8
0-F
  6
Continuous
 62
     7
370
     9
100
AcDbLine
 10
379.7247149493244
 20
400.1698558910474
 30
0.0
 11
327.0728858741554
 21
308.5676335515203
 31
0.0
  0
LINE
  5
28F
330
1F
100
AcDbEntity
  8
0-F
  6
Continuous
 62
     7
370
     9
100
AcDbLine
 10
327.0728858741554
 20
308.5676335515203
 30
0.0
 11
331.6435942778717
 21
319.6630331503379
 31
0.0
  0
LINE
  5
290
330
1F
100
AcDbEntity
  8
0-F
  6
Continuous
 62
     7
370
     9
100
AcDbLine
 10
327.0728858741554
 20
308.5676335515203
 30
0.0
 11
334.3596917229731
 21
318.1017868454393
 31
0.0
  0
LINE
  5
291
330
1F
100
AcDbEntity
  8
0-F
  6
Continuous
 62
     7
370
     9
100
AcDbLine
 10
287.0729518581081
 20
241.0502137880068
 30
0.0
 11
279.7861460092906
 21
250.5845650337839
 31
0.0
  0
LINE
  5
292
330
1F
100
AcDbEntity
  8
0-F
  6
Continuous
 62
     7
370
     9
100
AcDbLine
 10
287.0729518581081
 20
241.0502137880068
 30
0.0
 11
282.5020455025337
 21
252.1458113386825
 31
0.0
  0
LINE
  5
293
330
1F
100
AcDbEntity
  8
0-4
  6
Continuous
 62
     7
370
     9
100
AcDbLine
 10
-34.8713477882178
 20
-121.4324984163851
 30
0.0
 11
-34.8713477882178
 21
308.5676335515203
 31
0.0
  0
LINE
  5
294
330
1F
100
AcDbEntity
  8
0-4
  6
Continuous
 62
     7
370
     9
100
AcDbLine
 10
-116.0673894108952
 20
-121.4324984163851
 30
0.0
 11
-33.67136362436656
 21
-121.4324984163851
 31
0.0
  0
LINE
  5
295
330
1F
100
AcDbEntity
  8
0-4
  6
Continuous
 62
     7
370
     9
100
AcDbLine
 10
-116.0673894108952
 20
308.5676335515203
 30
0.0
 11
-33.67136362436656
 21
308.5676335515203
 31
0.0
  0
LINE
  5
296
330
1F
100
AcDbEntity
  8
0-4
  6
Continuous
 62
     7
370
     9
100
AcDbLine
 10
-34.8713477882178
 20
-121.4324984163851
 30
0.0
 11
-36.1766423405827
 21
-111.5179806271115
 31
0.0
  0
LINE
  5
297
330
1F
100
AcDbEntity
  8
0-4
  6
Continuous
 62
     7
370
     9
100
AcDbLine
 10
-34.8713477882178
 20
-121.4324984163851
 30
0.0
 11
-33.56605323585302
 21
-111.5179806271115
 31
0.0
  0
LINE
  5
298
330
1F
100
AcDbEntity
  8
0-4
  6
Continuous
 62
     7
370
     9
100
AcDbLine
 10
-34.8713477882178
 20
308.5676335515203
 30
0.0
 11
-36.1766423405827
 21
298.6532147381757
 31
0.0
  0
LINE
  5
299
330
1F
100
AcDbEntity
  8
0-4
  6
Continuous
 62
     7
370
     9
100
AcDbLine
 10
-34.8713477882178
 20
308.5676335515203
 30
0.0
 11
-33.56605323585302
 21
298.6532147381757
 31
0.0
  0
LINE
  5
29A
330
1F
100
AcDbEntity
  8
0-4
  6
Continuous
 62
     7
370
     9
100
AcDbLine
 10
-430.5674619932432
 20
-208.9569124788851
 30
0.0
 11
-205.5674619932432
 21
-208.9569124788851
 31
0.0
  0
LINE
  5
29B
330
1F
100
AcDbEntity
  8
0-4
  6
Continuous
 62
     7
370
     9
100
AcDbLine
 10
-430.5674619932432
 20
-149.1354650548986
 30
0.0
 11
-430.5674619932432
 21
-210.1568966427365
 31
0.0
  0
LINE
  5
29C
330
1F
100
AcDbEntity
  8
0-4
  6
Continuous
 62
     7
370
     9
100
AcDbLine
 10
-205.5674619932432
 20
-149.1354650548986
 30
0.0
 11
-205.5674619932432
 21
-210.1568966427365
 31
0.0
  0
LINE
  5
29D
330
1F
100
AcDbEntity
  8
0-4
  6
Continuous
 62
     7
370
     9
100
AcDbLine
 10
-430.5674619932432
 20
-208.9569124788851
 30
0.0
 11
-420.6529936919341
 21
-207.6516179265203
 31
0.0
  0
LINE
  5
29E
330
1F
100
AcDbEntity
  8
0-4
  6
Continuous
 62
     7
370
     9
100
AcDbLine
 10
-430.5674619932432
 20
-208.9569124788851
 30
0.0
 11
-420.6529936919341
 21
-210.26220703125
 31
0.0
  0
LINE
  5
29F
330
1F
100
AcDbEntity
  8
0-4
  6
Continuous
 62
     7
370
     9
100
AcDbLine
 10
-205.5674619932432
 20
-208.9569124788851
 30
0.0
 11
-215.4819302945523
 21
-207.6516179265203
 31
0.0
  0
LINE
  5
2A0
330
1F
100
AcDbEntity
  8
0-4
  6
Continuous
 62
     7
370
     9
100
AcDbLine
 10
-205.5674619932432
 20
-208.9569124788851
 30
0.0
 11
-215.4819302945523
 21
-210.26220703125
 31
0.0
  0
LINE
  5
2A1
330
1F
100
AcDbEntity
  8
0-F
  6
Continuous
 62
     7
370
     9
100
AcDbLine
 10
-198.0674619932432
 20
326.5675939611486
 30
0.0
 11
-198.0674619932432
 21
359.7884686444257
 31
0.0
  0
LINE
  5
2A2
330
1F
100
AcDbEntity
  8
0-F
  6
Continuous
 62
     7
370
     9
100
AcDbLine
 10
-213.0674619932432
 20
326.5675939611486
 30
0.0
 11
-213.0674619932432
 21
359.7884686444257
 31
0.0
  0
LINE
  5
2A3
330
1F
100
AcDbEntity
  8
0-F
  6
Continuous
 62
     7
370
     9
100
AcDbLine
 10
-198.0674619932432
 20
358.5884844805744
 30
0.0
 11
-186.1701099292652
 21
360.1548775337839
 31
0.0
  0
LINE
  5
2A4
330
1F
100
AcDbEntity
  8
0-F
  6
Continuous
 62
     7
370
     9
100
AcDbLine
 10
-198.0674619932432
 20
358.5884844805744
 30
0.0
 11
-186.1701099292652
 21
357.022289379223
 31
0.0
  0
LINE
  5
2A5
330
1F
100
AcDbEntity
  8
0-F
  6
Continuous
 62
     7
370
     9
100
AcDbLine
 10
-213.0674619932432
 20
358.5884844805744
 30
0.0
 11
-224.9648140572212
 21
360.1548775337839
 31
0.0
  0
LINE
  5
2A6
330
1F
100
AcDbEntity
  8
0-F
  6
Continuous
 62
     7
370
     9
100
AcDbLine
 10
-213.0674619932432
 20
358.5884844805744
 30
0.0
 11
-224.9648140572212
 21
357.022289379223
 31
0.0
  0
LINE
  5
2A7
330
1F
100
AcDbEntity
  8
0-F
  6
Continuous
 62
     7
370
     9
100
AcDbLine
 10
-182.544324720228
 20
358.5884844805744
 30
0.0
 11
-229.3644920555321
 21
358.5884844805744
 31
0.0
  0
LINE
  5
2A8
330
1F
100
AcDbEntity
  8
0-F
  6
Continuous
 62
     7
370
     9
100
AcDbLine
 10
-232.6306977143158
 20
320.5674751900339
 30
0.0
 11
-256.0946737753378
 21
320.5674751900339
 31
0.0
  0
LINE
  5
2A9
330
1F
100
AcDbEntity
  8
0-F
  6
Continuous
 62
     7
370
     9
100
AcDbLine
 10
-254.8946896114865
 20
320.5674751900339
 30
0.0
 11
-256.4609836887669
 21
332.4649757179054
 31
0.0
  0
LINE
  5
2AA
330
1F
100
AcDbEntity
  8
0-F
  6
Continuous
 62
     7
370
     9
100
AcDbLine
 10
-254.8946896114865
 20
320.5674751900339
 30
0.0
 11
-253.328395534206
 21
332.4649757179054
 31
0.0
  0
LINE
  5
2AB
330
1F
100
AcDbEntity
  8
0-F
  6
Continuous
 62
     7
370
     9
100
AcDbLine
 10
-254.8946896114865
 20
303.5675675675676
 30
0.0
 11
-256.4609836887669
 21
291.6702649915541
 31
0.0
  0
LINE
  5
2AC
330
1F
100
AcDbEntity
  8
0-F
  6
Continuous
 62
     7
370
     9
100
AcDbLine
 10
-254.8946896114865
 20
303.5675675675676
 30
0.0
 11
-253.328395534206
 21
291.6702649915541
 31
0.0
  0
LINE
  5
2AD
330
1F
100
AcDbEntity
  8
0-F
  6
Continuous
 62
     7
370
     9
100
AcDbLine
 10
-254.8946896114865
 20
350.5009633657095
 30
0.0
 11
-254.8946896114865
 21
287.9075960726352
 31
0.0
  0
LINE
  5
2AE
330
1F
100
AcDbEntity
  8
0-F
  6
Continuous
 62
     7
370
     9
100
AcDbLine
 10
-213.5674883868243
 20
303.5675675675676
 30
0.0
 11
-256.0946737753378
 21
303.5675675675676
 31
0.0
  0
LINE
  5
2AF
330
1F
100
AcDbEntity
  8
0-4
  6
Continuous
 62
     7
370
     9
100
AcDbLine
 10
-275.0677655194256
 20
-77.43284813133448
 30
0.0
 11
-275.0677655194256
 21
-178.7361961570946
 31
0.0
  0
LINE
  5
2B0
330
1F
100
AcDbEntity
  8
0-4
  6
Continuous
 62
     7
370
     9
100
AcDbLine
 10
-256.067653346706
 20
-77.43284813133448
 30
0.0
 11
-256.067653346706
 21
-178.7361961570946
 31
0.0
  0
LINE
  5
2B1
330
1F
100
AcDbEntity
  8
0-4
  6
Continuous
 62
     7
370
     9
100
AcDbLine
 10
-240.067798511402
 20
-77.43284813133448
 30
0.0
 11
-240.067798511402
 21
-178.7361961570946
 31
0.0
  0
LINE
  5
2B2
330
1F
100
AcDbEntity
  8
0-4
  6
Continuous
 62
     7
370
     9
100
AcDbLine
 10
-240.067798511402
 20
-177.5362119932432
 30
0.0
 11
-230.1533302100929
 21
-176.2310164168074
 31
0.0
  0
LINE
  5
2B3
330
1F
100
AcDbEntity
  8
0-4
  6
Continuous
 62
     7
370
     9
100
AcDbLine
 10
-275.0677655194256
 20
-177.5362119932432
 30
0.0
 11
-284.9822338207348
 21
-176.2310164168074
 31
0.0
  0
LINE
  5
2B4
330
1F
100
AcDbEntity
  8
0-4
  6
Continuous
 62
     7
370
     9
100
AcDbLine
 10
-275.0677655194256
 20
-177.5362119932432
 30
0.0
 11
-284.9822338207348
 21
-178.8415065456081
 31
0.0
  0
LINE
  5
2B5
330
1F
100
AcDbEntity
  8
0-4
  6
Continuous
 62
     7
370
     9
100
AcDbLine
 10
-240.067798511402
 20
-177.5362119932432
 30
0.0
 11
-230.1533302100929
 21
-178.8415065456081
 31
0.0
  0
LINE
  5
2B6
330
1F
100
AcDbEntity
  8
0-1
  6
Continuous
 62
     2
370
     9
100
AcDbLine
 10
-237.5674685916384
 20
302.5677127322635
 30
0.0
 11
-249.0548128695101
 21
302.5677127322635
 31
0.0
  0
LINE
  5
2B7
330
1F
100
AcDbEntity
  8
0-1
  6
Continuous
 62
     2
370
     9
100
AcDbLine
 10
-259.3613248258023
 20
302.5677127322635
 30
0.0
 11
-286.0674553948479
 21
302.5677127322635
 31
0.0
  0
LINE
  5
2B8
330
1F
100
AcDbEntity
  8
0-1
  6
Continuous
 62
     2
370
     9
100
AcDbLine
 10
-238.5675213788006
 20
301.5676599451014
 30
0.0
 11
-249.0548128695101
 21
301.5676599451014
 31
0.0
  0
LINE
  5
2B9
330
1F
100
AcDbEntity
  8
0-1
  6
Continuous
 62
     2
370
     9
100
AcDbLine
 10
-259.3613248258023
 20
301.5676599451014
 30
0.0
 11
-285.0674520956503
 21
301.5676599451014
 31
0.0
  0
LINE
  5
2BA
330
1F
100
AcDbEntity
  8
0-1
  6
Continuous
 62
     2
370
     9
100
AcDbLine
 10
-122.0672607421875
 20
294.5676863386825
 30
0.0
 11
-249.0548128695101
 21
294.5676863386825
 31
0.0
  0
LINE
  5
2BB
330
1F
100
AcDbEntity
  8
0-1
  6
Continuous
 62
     2
370
     9
100
AcDbLine
 10
-259.3613248258023
 20
294.5676863386825
 30
0.0
 11
-514.0674158044764
 21
294.5676863386825
 31
0.0
  0
LINE
  5
2BC
330
1F
100
AcDbEntity
  8
0-1
  6
Continuous
 62
     2
370
     9
100
AcDbLine
 10
-124.5672937341639
 20
292.0675543707771
 30
0.0
 11
-249.0548128695101
 21
292.0675543707771
 31
0.0
  0
LINE
  5
2BD
330
1F
100
AcDbEntity
  8
0-1
  6
Continuous
 62
     2
370
     9
100
AcDbLine
 10
-259.3613248258023
 20
292.0675543707771
 30
0.0
 11
-511.5673828125
 21
292.0675543707771
 31
0.0
  0
LINE
  5
2BE
330
1F
100
AcDbEntity
  8
0-4
  6
Continuous
 62
     7
370
     9
100
AcDbLine
 10
-302.6555241765202
 20
-177.5362119932432
 30
0.0
 11
-256.067653346706
 21
-177.5362119932432
 31
0.0
  0
LINE
  5
2BF
330
1F
100
AcDbEntity
  8
0-4
  6
Continuous
 62
     7
370
     9
100
AcDbLine
 10
-256.067653346706
 20
-177.5362119932432
 30
0.0
 11
-213.5071130701014
 21
-177.5362119932432
 31
0.0
  0
ARC
  5
2C0
330
1F
100
AcDbEntity
  8
0-0
  6
Continuous
 62
     3
370
     9
100
AcDbCircle
 10
-503.0675279771959
 20
-91.4324984163851
 30
0.0
 40
5.000000257749815
100
AcDbArc
 50
180.0
 51
270.0
  0
ARC
  5
2C1
330
1F
100
AcDbEntity
  8
0-0
  6
Continuous
 62
     3
370
     9
100
AcDbCircle
 10
-503.0675279771959
 20
278.5676335515203
 30
0.0
 40
5.000000257749815
100
AcDbArc
 50
90.0
 51
180.0
  0
ARC
  5
2C2
330
1F
100
AcDbEntity
  8
0-0
  6
Continuous
 62
     3
370
     9
100
AcDbCircle
 10
-133.0673960092905
 20
278.5676335515203
 30
0.0
 40
5.000000257749815
100
AcDbArc
 50
0.0
 51
90.0
  0
ARC
  5
2C3
330
1F
100
AcDbEntity
  8
0-0
  6
Continuous
 62
     3
370
     9
100
AcDbCircle
 10
-483.0668681376689
 20
-71.43282833614865
 30
0.0
 40
2.000000025774982
100
AcDbArc
 50
180.0
 51
270.0
  0
ARC
  5
2C4
330
1F
100
AcDbEntity
  8
0-0
  6
Continuous
 62
     3
370
     9
100
AcDbCircle
 10
-468.0668681376689
 20
-71.43282833614865
 30
0.0
 40
2.000000025774982
100
AcDbArc
 50
270.0
 51
0.0
  0
ARC
  5
2C5
330
1F
100
AcDbEntity
  8
0-0
  6
Continuous
 62
     3
370
     9
100
AcDbCircle
 10
-468.0668681376689
 20
-41.43272936021958
 30
0.0
 40
2.000000025774982
100
AcDbArc
 50
0.0
 51
90.0
  0
ARC
  5
2C6
330
1F
100
AcDbEntity
  8
0-0
  6
Continuous
 62
     3
370
     9
100
AcDbCircle
 10
-483.0668681376689
 20
-41.43272936021958
 30
0.0
 40
2.000000025774982
100
AcDbArc
 50
90.0
 51
180.0
  0
ARC
  5
2C7
330
1F
100
AcDbEntity
  8
0-0
  6
Continuous
 62
     3
370
     9
100
AcDbCircle
 10
-133.0673960092905
 20
-91.4324984163851
 30
0.0
 40
5.000000257749815
100
AcDbArc
 50
270.0
 51
0.0
  0
ARC
  5
2C8
330
1F
100
AcDbEntity
  8
0-0
  6
Continuous
 62
     3
370
     9
100
AcDbCircle
 10
-483.0668681376689
 20
-21.43266337626687
 30
0.0
 40
2.000000025774982
100
AcDbArc
 50
180.0
 51
270.0
  0
ARC
  5
2C9
330
1F
100
AcDbEntity
  8
0-0
  6
Continuous
 62
     3
370
     9
100
AcDbCircle
 10
-468.0668681376689
 20
-21.43266337626687
 30
0.0
 40
2.000000025774982
100
AcDbArc
 50
270.0
 51
0.0
  0
ARC
  5
2CA
330
1F
100
AcDbEntity
  8
0-0
  6
Continuous
 62
     3
370
     9
100
AcDbCircle
 10
-468.0668681376689
 20
8.56743559966219
 30
0.0
 40
2.000000025774982
100
AcDbArc
 50
0.0
 51
90.0
  0
ARC
  5
2CB
330
1F
100
AcDbEntity
  8
0-0
  6
Continuous
 62
     3
370
     9
100
AcDbCircle
 10
-483.0668681376689
 20
8.56743559966219
 30
0.0
 40
2.000000025774982
100
AcDbArc
 50
90.0
 51
180.0
  0
ARC
  5
2CC
330
1F
100
AcDbEntity
  8
0-0
  6
Continuous
 62
     3
370
     9
100
AcDbCircle
 10
-483.0668681376689
 20
28.56740260768584
 30
0.0
 40
2.000000025774982
100
AcDbArc
 50
180.0
 51
270.0
  0
ARC
  5
2CD
330
1F
100
AcDbEntity
  8
0-0
  6
Continuous
 62
     3
370
     9
100
AcDbCircle
 10
-468.0668681376689
 20
28.56740260768584
 30
0.0
 40
2.000000025774982
100
AcDbArc
 50
270.0
 51
0.0
  0
ARC
  5
2CE
330
1F
100
AcDbEntity
  8
0-0
  6
Continuous
 62
     3
370
     9
100
AcDbCircle
 10
-468.0668681376689
 20
58.5675015836149
 30
0.0
 40
2.000000025774982
100
AcDbArc
 50
0.0
 51
90.0
  0
ARC
  5
2CF
330
1F
100
AcDbEntity
  8
0-0
  6
Continuous
 62
     3
370
     9
100
AcDbCircle
 10
-483.0668681376689
 20
58.5675015836149
 30
0.0
 40
2.000000025774982
100
AcDbArc
 50
90.0
 51
180.0
  0
ARC
  5
2D0
330
1F
100
AcDbEntity
  8
0-0
  6
Continuous
 62
     3
370
     9
100
AcDbCircle
 10
-483.0668681376689
 20
78.56756756756761
 30
0.0
 40
2.000000025774982
100
AcDbArc
 50
180.0
 51
270.0
  0
ARC
  5
2D1
330
1F
100
AcDbEntity
  8
0-0
  6
Continuous
 62
     3
370
     9
100
AcDbCircle
 10
-468.0668681376689
 20
78.56756756756761
 30
0.0
 40
2.000000025774982
100
AcDbArc
 50
270.0
 51
0.0
  0
ARC
  5
2D2
330
1F
100
AcDbEntity
  8
0-0
  6
Continuous
 62
     3
370
     9
100
AcDbCircle
 10
-468.0668681376689
 20
108.5675675675676
 30
0.0
 40
2.000000025774982
100
AcDbArc
 50
0.0
 51
90.0
  0
ARC
  5
2D3
330
1F
100
AcDbEntity
  8
0-0
  6
Continuous
 62
     3
370
     9
100
AcDbCircle
 10
-483.0668681376689
 20
108.5675675675676
 30
0.0
 40
2.000000025774982
100
AcDbArc
 50
90.0
 51
180.0
  0
ARC
  5
2D4
330
1F
100
AcDbEntity
  8
0-0
  6
Continuous
 62
     3
370
     9
100
AcDbCircle
 10
-483.0668681376689
 20
128.5676335515203
 30
0.0
 40
2.000000025774982
100
AcDbArc
 50
180.0
 51
270.0
  0
ARC
  5
2D5
330
1F
100
AcDbEntity
  8
0-0
  6
Continuous
 62
     3
370
     9
100
AcDbCircle
 10
-468.0668681376689
 20
128.5676335515203
 30
0.0
 40
2.000000025774982
100
AcDbArc
 50
270.0
 51
0.0
  0
ARC
  5
2D6
330
1F
100
AcDbEntity
  8
0-0
  6
Continuous
 62
     3
370
     9
100
AcDbCircle
 10
-468.0668681376689
 20
158.5676335515203
 30
0.0
 40
2.000000025774982
100
AcDbArc
 50
0.0
 51
90.0
  0
ARC
  5
2D7
330
1F
100
AcDbEntity
  8
0-0
  6
Continuous
 62
     3
370
     9
100
AcDbCircle
 10
-483.0668681376689
 20
158.5676335515203
 30
0.0
 40
2.000000025774982
100
AcDbArc
 50
90.0
 51
180.0
  0
ARC
  5
2D8
330
1F
100
AcDbEntity
  8
0-0
  6
Continuous
 62
     3
370
     9
100
AcDbCircle
 10
-483.0668681376689
 20
178.567699535473
 30
0.0
 40
2.000000025774982
100
AcDbArc
 50
180.0
 51
270.0
  0
ARC
  5
2D9
330
1F
100
AcDbEntity
  8
0-0
  6
Continuous
 62
     3
370
     9
100
AcDbCircle
 10
-468.0668681376689
 20
178.567699535473
 30
0.0
 40
2.000000025774982
100
AcDbArc
 50
270.0
 51
0.0
  0
ARC
  5
2DA
330
1F
100
AcDbEntity
  8
0-0
  6
Continuous
 62
     3
370
     9
100
AcDbCircle
 10
-468.0668681376689
 20
208.5678974873312
 30
0.0
 40
2.000000025774982
100
AcDbArc
 50
0.0
 51
90.0
  0
ARC
  5
2DB
330
1F
100
AcDbEntity
  8
0-0
  6
Continuous
 62
     3
370
     9
100
AcDbCircle
 10
-483.0668681376689
 20
208.5678974873312
 30
0.0
 40
2.000000025774982
100
AcDbArc
 50
90.0
 51
180.0
  0
ARC
  5
2DC
330
1F
100
AcDbEntity
  8
0-0
  6
Continuous
 62
     3
370
     9
100
AcDbCircle
 10
-483.0668681376689
 20
228.5677655194257
 30
0.0
 40
2.000000025774982
100
AcDbArc
 50
180.0
 51
270.0
  0
ARC
  5
2DD
330
1F
100
AcDbEntity
  8
0-0
  6
Continuous
 62
     3
370
     9
100
AcDbCircle
 10
-468.0668681376689
 20
228.5677655194257
 30
0.0
 40
2.000000025774982
100
AcDbArc
 50
270.0
 51
0.0
  0
ARC
  5
2DE
330
1F
100
AcDbEntity
  8
0-0
  6
Continuous
 62
     3
370
     9
100
AcDbCircle
 10
-468.0668681376689
 20
258.5679634712839
 30
0.0
 40
2.000000025774982
100
AcDbArc
 50
0.0
 51
90.0
  0
ARC
  5
2DF
330
1F
100
AcDbEntity
  8
0-0
  6
Continuous
 62
     3
370
     9
100
AcDbCircle
 10
-483.0668681376689
 20
258.5679634712839
 30
0.0
 40
2.000000025774982
100
AcDbArc
 50
90.0
 51
180.0
  0
ARC
  5
2E0
330
1F
100
AcDbEntity
  8
0-0
  6
Continuous
 62
     3
370
     9
100
AcDbCircle
 10
-448.0670001055743
 20
-71.43282833614865
 30
0.0
 40
2.000000025774982
100
AcDbArc
 50
180.0
 51
270.0
  0
ARC
  5
2E1
330
1F
100
AcDbEntity
  8
0-0
  6
Continuous
 62
     3
370
     9
100
AcDbCircle
 10
-433.0670001055743
 20
-71.43282833614865
 30
0.0
 40
2.000000025774982
100
AcDbArc
 50
270.0
 51
0.0
  0
ARC
  5
2E2
330
1F
100
AcDbEntity
  8
0-0
  6
Continuous
 62
     3
370
     9
100
AcDbCircle
 10
-433.0670001055743
 20
-41.43272936021958
 30
0.0
 40
2.000000025774982
100
AcDbArc
 50
0.0
 51
90.0
  0
ARC
  5
2E3
330
1F
100
AcDbEntity
  8
0-0
  6
Continuous
 62
     3
370
     9
100
AcDbCircle
 10
-448.0670001055743
 20
-41.43272936021958
 30
0.0
 40
2.000000025774982
100
AcDbArc
 50
90.0
 51
180.0
  0
ARC
  5
2E4
330
1F
100
AcDbEntity
  8
0-0
  6
Continuous
 62
     3
370
     9
100
AcDbCircle
 10
-448.0670001055743
 20
-21.43266337626687
 30
0.0
 40
2.000000025774982
100
AcDbArc
 50
180.0
 51
270.0
  0
ARC
  5
2E5
330
1F
100
AcDbEntity
  8
0-0
  6
Continuous
 62
     3
370
     9
100
AcDbCircle
 10
-433.0670001055743
 20
-21.43266337626687
 30
0.0
 40
2.000000025774982
100
AcDbArc
 50
270.0
 51
0.0
  0
ARC
  5
2E6
330
1F
100
AcDbEntity
  8
0-0
  6
Continuous
 62
     3
370
     9
100
AcDbCircle
 10
-433.0670001055743
 20
8.56743559966219
 30
0.0
 40
2.000000025774982
100
AcDbArc
 50
0.0
 51
90.0
  0
ARC
  5
2E7
330
1F
100
AcDbEntity
  8
0-0
  6
Continuous
 62
     3
370
     9
100
AcDbCircle
 10
-448.0670001055743
 20
8.56743559966219
 30
0.0
 40
2.000000025774982
100
AcDbArc
 50
90.0
 51
180.0
  0
ARC
  5
2E8
330
1F
100
AcDbEntity
  8
0-0
  6
Continuous
 62
     3
370
     9
100
AcDbCircle
 10
-448.0670001055743
 20
28.56740260768584
 30
0.0
 40
2.000000025774982
100
AcDbArc
 50
180.0
 51
270.0
  0
ARC
  5
2E9
330
1F
100
AcDbEntity
  8
0-0
  6
Continuous
 62
     3
370
     9
100
AcDbCircle
 10
-433.0670001055743
 20
28.56740260768584
 30
0.0
 40
2.000000025774982
100
AcDbArc
 50
270.0
 51
0.0
  0
ARC
  5
2EA
330
1F
100
AcDbEntity
  8
0-0
  6
Continuous
 62
     3
370
     9
100
AcDbCircle
 10
-433.0670001055743
 20
58.5675015836149
 30
0.0
 40
2.000000025774982
100
AcDbArc
 50
0.0
 51
90.0
  0
ARC
  5
2EB
330
1F
100
AcDbEntity
  8
0-0
  6
Continuous
 62
     3
370
     9
100
AcDbCircle
 10
-448.0670001055743
 20
58.5675015836149
 30
0.0
 40
2.000000025774982
100
AcDbArc
 50
90.0
 51
180.0
  0
ARC
  5
2EC
330
1F
100
AcDbEntity
  8
0-0
  6
Continuous
 62
     3
370
     9
100
AcDbCircle
 10
-448.0670001055743
 20
78.56756756756761
 30
0.0
 40
2.000000025774982
100
AcDbArc
 50
180.0
 51
270.0
  0
ARC
  5
2ED
330
1F
100
AcDbEntity
  8
0-0
  6
Continuous
 62
     3
370
     9
100
AcDbCircle
 10
-433.0670001055743
 20
78.56756756756761
 30
0.0
 40
2.000000025774982
100
AcDbArc
 50
270.0
 51
0.0
  0
ARC
  5
2EE
330
1F
100
AcDbEntity
  8
0-0
  6
Continuous
 62
     3
370
     9
100
AcDbCircle
 10
-433.0670001055743
 20
108.5675675675676
 30
0.0
 40
2.000000025774982
100
AcDbArc
 50
0.0
 51
90.0
  0
ARC
  5
2EF
330
1F
100
AcDbEntity
  8
0-0
  6
Continuous
 62
     3
370
     9
100
AcDbCircle
 10
-448.0670001055743
 20
108.5675675675676
 30
0.0
 40
2.000000025774982
100
AcDbArc
 50
90.0
 51
180.0
  0
ARC
  5
2F0
330
1F
100
AcDbEntity
  8
0-0
  6
Continuous
 62
     3
370
     9
100
AcDbCircle
 10
-448.0670001055743
 20
128.5676335515203
 30
0.0
 40
2.000000025774982
100
AcDbArc
 50
180.0
 51
270.0
  0
ARC
  5
2F1
330
1F
100
AcDbEntity
  8
0-0
  6
Continuous
 62
     3
370
     9
100
AcDbCircle
 10
-433.0670001055743
 20
128.5676335515203
 30
0.0
 40
2.000000025774982
100
AcDbArc
 50
270.0
 51
0.0
  0
ARC
  5
2F2
330
1F
100
AcDbEntity
  8
0-0
  6
Continuous
 62
     3
370
     9
100
AcDbCircle
 10
-433.0670001055743
 20
158.5676335515203
 30
0.0
 40
2.000000025774982
100
AcDbArc
 50
0.0
 51
90.0
  0
ARC
  5
2F3
330
1F
100
AcDbEntity
  8
0-0
  6
Continuous
 62
     3
370
     9
100
AcDbCircle
 10
-448.0670001055743
 20
158.5676335515203
 30
0.0
 40
2.000000025774982
100
AcDbArc
 50
90.0
 51
180.0
  0
ARC
  5
2F4
330
1F
100
AcDbEntity
  8
0-0
  6
Continuous
 62
     3
370
     9
100
AcDbCircle
 10
-448.0670001055743
 20
178.567699535473
 30
0.0
 40
2.000000025774982
100
AcDbArc
 50
180.0
 51
270.0
  0
ARC
  5
2F5
330
1F
100
AcDbEntity
  8
0-0
  6
Continuous
 62
     3
370
     9
100
AcDbCircle
 10
-433.0670001055743
 20
178.567699535473
 30
0.0
 40
2.000000025774982
100
AcDbArc
 50
270.0
 51
0.0
  0
ARC
  5
2F6
330
1F
100
AcDbEntity
  8
0-0
  6
Continuous
 62
     3
370
     9
100
AcDbCircle
 10
-433.0670001055743
 20
208.5678974873312
 30
0.0
 40
2.000000025774982
100
AcDbArc
 50
0.0
 51
90.0
  0
ARC
  5
2F7
330
1F
100
AcDbEntity
  8
0-0
  6
Continuous
 62
     3
370
     9
100
AcDbCircle
 10
-448.0670001055743
 20
208.5678974873312
 30
0.0
 40
2.000000025774982
100
AcDbArc
 50
90.0
 51
180.0
  0
ARC
  5
2F8
330
1F
100
AcDbEntity
  8
0-0
  6
Continuous
 62
     3
370
     9
100
AcDbCircle
 10
-448.0670001055743
 20
228.5677655194257
 30
0.0
 40
2.000000025774982
100
AcDbArc
 50
180.0
 51
270.0
  0
ARC
  5
2F9
330
1F
100
AcDbEntity
  8
0-0
  6
Continuous
 62
     3
370
     9
100
AcDbCircle
 10
-433.0670001055743
 20
228.5677655194257
 30
0.0
 40
2.000000025774982
100
AcDbArc
 50
270.0
 51
0.0
  0
ARC
  5
2FA
330
1F
100
AcDbEntity
  8
0-0
  6
Continuous
 62
     3
370
     9
100
AcDbCircle
 10
-433.0670001055743
 20
258.5679634712839
 30
0.0
 40
2.000000025774982
100
AcDbArc
 50
0.0
 51
90.0
  0
ARC
  5
2FB
330
1F
100
AcDbEntity
  8
0-0
  6
Continuous
 62
     3
370
     9
100
AcDbCircle
 10
-448.0670001055743
 20
258.5679634712839
 30
0.0
 40
2.000000025774982
100
AcDbArc
 50
90.0
 51
180.0
  0
ARC
  5
2FC
330
1F
100
AcDbEntity
  8
0-0
  6
Continuous
 62
     3
370
     9
100
AcDbCircle
 10
-413.0671320734797
 20
-71.43282833614865
 30
0.0
 40
2.000000025774982
100
AcDbArc
 50
180.0
 51
270.0
  0
ARC
  5
2FD
330
1F
100
AcDbEntity
  8
0-0
  6
Continuous
 62
     3
370
     9
100
AcDbCircle
 10
-398.0671320734797
 20
-71.43282833614865
 30
0.0
 40
2.000000025774982
100
AcDbArc
 50
270.0
 51
0.0
  0
ARC
  5
2FE
330
1F
100
AcDbEntity
  8
0-0
  6
Continuous
 62
     3
370
     9
100
AcDbCircle
 10
-398.0671320734797
 20
-41.43272936021958
 30
0.0
 40
2.000000025774982
100
AcDbArc
 50
0.0
 51
90.0
  0
ARC
  5
2FF
330
1F
100
AcDbEntity
  8
0-0
  6
Continuous
 62
     3
370
     9
100
AcDbCircle
 10
-413.0671320734797
 20
-41.43272936021958
 30
0.0
 40
2.000000025774982
100
AcDbArc
 50
90.0
 51
180.0
  0
ARC
  5
300
330
1F
100
AcDbEntity
  8
0-0
  6
Continuous
 62
     3
370
     9
100
AcDbCircle
 10
-413.0671320734797
 20
-21.43266337626687
 30
0.0
 40
2.000000025774982
100
AcDbArc
 50
180.0
 51
270.0
  0
ARC
  5
301
330
1F
100
AcDbEntity
  8
0-0
  6
Continuous
 62
     3
370
     9
100
AcDbCircle
 10
-398.0671320734797
 20
-21.43266337626687
 30
0.0
 40
2.000000025774982
100
AcDbArc
 50
270.0
 51
0.0
  0
ARC
  5
302
330
1F
100
AcDbEntity
  8
0-0
  6
Continuous
 62
     3
370
     9
100
AcDbCircle
 10
-398.0671320734797
 20
8.56743559966219
 30
0.0
 40
2.000000025774982
100
AcDbArc
 50
0.0
 51
90.0
  0
ARC
  5
303
330
1F
100
AcDbEntity
  8
0-0
  6
Continuous
 62
     3
370
     9
100
AcDbCircle
 10
-413.0671320734797
 20
8.56743559966219
 30
0.0
 40
2.000000025774982
100
AcDbArc
 50
90.0
 51
180.0
  0
ARC
  5
304
330
1F
100
AcDbEntity
  8
0-0
  6
Continuous
 62
     3
370
     9
100
AcDbCircle
 10
-413.0671320734797
 20
28.56740260768584
 30
0.0
 40
2.000000025774982
100
AcDbArc
 50
180.0
 51
270.0
  0
ARC
  5
305
330
1F
100
AcDbEntity
  8
0-0
  6
Continuous
 62
     3
370
     9
100
AcDbCircle
 10
-398.0671320734797
 20
28.56740260768584
 30
0.0
 40
2.000000025774982
100
AcDbArc
 50
270.0
 51
0.0
  0
ARC
  5
306
330
1F
100
AcDbEntity
  8
0-0
  6
Continuous
 62
     3
370
     9
100
AcDbCircle
 10
-398.0671320734797
 20
58.5675015836149
 30
0.0
 40
2.000000025774982
100
AcDbArc
 50
0.0
 51
90.0
  0
ARC
  5
307
330
1F
100
AcDbEntity
  8
0-0
  6
Continuous
 62
     3
370
     9
100
AcDbCircle
 10
-413.0671320734797
 20
58.5675015836149
 30
0.0
 40
2.000000025774982
100
AcDbArc
 50
90.0
 51
180.0
  0
ARC
  5
308
330
1F
100
AcDbEntity
  8
0-0
  6
Continuous
 62
     3
370
     9
100
AcDbCircle
 10
-413.0671320734797
 20
78.56756756756761
 30
0.0
 40
2.000000025774982
100
AcDbArc
 50
180.0
 51
270.0
  0
ARC
  5
309
330
1F
100
AcDbEntity
  8
0-0
  6
Continuous
 62
     3
370
     9
100
AcDbCircle
 10
-398.0671320734797
 20
78.56756756756761
 30
0.0
 40
2.000000025774982
100
AcDbArc
 50
270.0
 51
0.0
  0
ARC
  5
30A
330
1F
100
AcDbEntity
  8
0-0
  6
Continuous
 62
     3
370
     9
100
AcDbCircle
 10
-398.0671320734797
 20
108.5675675675676
 30
0.0
 40
2.000000025774982
100
AcDbArc
 50
0.0
 51
90.0
  0
ARC
  5
30B
330
1F
100
AcDbEntity
  8
0-0
  6
Continuous
 62
     3
370
     9
100
AcDbCircle
 10
-413.0671320734797
 20
108.5675675675676
 30
0.0
 40
2.000000025774982
100
AcDbArc
 50
90.0
 51
180.0
  0
ARC
  5
30C
330
1F
100
AcDbEntity
  8
0-0
  6
Continuous
 62
     3
370
     9
100
AcDbCircle
 10
-413.0671320734797
 20
128.5676335515203
 30
0.0
 40
2.000000025774982
100
AcDbArc
 50
180.0
 51
270.0
  0
ARC
  5
30D
330
1F
100
AcDbEntity
  8
0-0
  6
Continuous
 62
     3
370
     9
100
AcDbCircle
 10
-398.0671320734797
 20
128.5676335515203
 30
0.0
 40
2.000000025774982
100
AcDbArc
 50
270.0
 51
0.0
  0
ARC
  5
30E
330
1F
100
AcDbEntity
  8
0-0
  6
Continuous
 62
     3
370
     9
100
AcDbCircle
 10
-398.0671320734797
 20
158.5676335515203
 30
0.0
 40
2.000000025774982
100
AcDbArc
 50
0.0
 51
90.0
  0
ARC
  5
30F
330
1F
100
AcDbEntity
  8
0-0
  6
Continuous
 62
     3
370
     9
100
AcDbCircle
 10
-413.0671320734797
 20
158.5676335515203
 30
0.0
 40
2.000000025774982
100
AcDbArc
 50
90.0
 51
180.0
  0
ARC
  5
310
330
1F
100
AcDbEntity
  8
0-0
  6
Continuous
 62
     3
370
     9
100
AcDbCircle
 10
-413.0671320734797
 20
178.567699535473
 30
0.0
 40
2.000000025774982
100
AcDbArc
 50
180.0
 51
270.0
  0
ARC
  5
311
330
1F
100
AcDbEntity
  8
0-0
  6
Continuous
 62
     3
370
     9
100
AcDbCircle
 10
-398.0671320734797
 20
178.567699535473
 30
0.0
 40
2.000000025774982
100
AcDbArc
 50
270.0
 51
0.0
  0
ARC
  5
312
330
1F
100
AcDbEntity
  8
0-0
  6
Continuous
 62
     3
370
     9
100
AcDbCircle
 10
-398.0671320734797
 20
208.5678974873312
 30
0.0
 40
2.000000025774982
100
AcDbArc
 50
0.0
 51
90.0
  0
ARC
  5
313
330
1F
100
AcDbEntity
  8
0-0
  6
Continuous
 62
     3
370
     9
100
AcDbCircle
 10
-413.0671320734797
 20
208.5678974873312
 30
0.0
 40
2.000000025774982
100
AcDbArc
 50
90.0
 51
180.0
  0
ARC
  5
314
330
1F
100
AcDbEntity
  8
0-0
  6
Continuous
 62
     3
370
     9
100
AcDbCircle
 10
-413.0671320734797
 20
228.5677655194257
 30
0.0
 40
2.000000025774982
100
AcDbArc
 50
180.0
 51
270.0
  0
ARC
  5
315
330
1F
100
AcDbEntity
  8
0-0
  6
Continuous
 62
     3
370
     9
100
AcDbCircle
 10
-398.0671320734797
 20
228.5677655194257
 30
0.0
 40
2.000000025774982
100
AcDbArc
 50
270.0
 51
0.0
  0
ARC
  5
316
330
1F
100
AcDbEntity
  8
0-0
  6
Continuous
 62
     3
370
     9
100
AcDbCircle
 10
-398.0671320734797
 20
258.5679634712839
 30
0.0
 40
2.000000025774982
100
AcDbArc
 50
0.0
 51
90.0
  0
ARC
  5
317
330
1F
100
AcDbEntity
  8
0-0
  6
Continuous
 62
     3
370
     9
100
AcDbCircle
 10
-413.0671320734797
 20
258.5679634712839
 30
0.0
 40
2.000000025774982
100
AcDbArc
 50
90.0
 51
180.0
  0
ARC
  5
318
330
1F
100
AcDbEntity
  8
0-0
  6
Continuous
 62
     3
370
     9
100
AcDbCircle
 10
-378.067165065456
 20
-71.43282833614865
 30
0.0
 40
2.000000025774982
100
AcDbArc
 50
180.0
 51
270.0
  0
ARC
  5
319
330
1F
100
AcDbEntity
  8
0-0
  6
Continuous
 62
     3
370
     9
100
AcDbCircle
 10
-363.067165065456
 20
-71.43282833614865
 30
0.0
 40
2.000000025774982
100
AcDbArc
 50
270.0
 51
0.0
  0
ARC
  5
31A
330
1F
100
AcDbEntity
  8
0-0
  6
Continuous
 62
     3
370
     9
100
AcDbCircle
 10
-363.067165065456
 20
-41.43272936021958
 30
0.0
 40
2.000000025774982
100
AcDbArc
 50
0.0
 51
90.0
  0
ARC
  5
31B
330
1F
100
AcDbEntity
  8
0-0
  6
Continuous
 62
     3
370
     9
100
AcDbCircle
 10
-378.067165065456
 20
-41.43272936021958
 30
0.0
 40
2.000000025774982
100
AcDbArc
 50
90.0
 51
180.0
  0
ARC
  5
31C
330
1F
100
AcDbEntity
  8
0-0
  6
Continuous
 62
     3
370
     9
100
AcDbCircle
 10
-378.067165065456
 20
-21.43266337626687
 30
0.0
 40
2.000000025774982
100
AcDbArc
 50
180.0
 51
270.0
  0
ARC
  5
31D
330
1F
100
AcDbEntity
  8
0-0
  6
Continuous
 62
     3
370
     9
100
AcDbCircle
 10
-363.067165065456
 20
-21.43266337626687
 30
0.0
 40
2.000000025774982
100
AcDbArc
 50
270.0
 51
0.0
  0
ARC
  5
31E
330
1F
100
AcDbEntity
  8
0-0
  6
Continuous
 62
     3
370
     9
100
AcDbCircle
 10
-363.067165065456
 20
8.56743559966219
 30
0.0
 40
2.000000025774982
100
AcDbArc
 50
0.0
 51
90.0
  0
ARC
  5
31F
330
1F
100
AcDbEntity
  8
0-0
  6
Continuous
 62
     3
370
     9
100
AcDbCircle
 10
-378.067165065456
 20
8.56743559966219
 30
0.0
 40
2.000000025774982
100
AcDbArc
 50
90.0
 51
180.0
  0
ARC
  5
320
330
1F
100
AcDbEntity
  8
0-0
  6
Continuous
 62
     3
370
     9
100
AcDbCircle
 10
-378.067165065456
 20
28.56740260768584
 30
0.0
 40
2.000000025774982
100
AcDbArc
 50
180.0
 51
270.0
  0
ARC
  5
321
330
1F
100
AcDbEntity
  8
0-0
  6
Continuous
 62
     3
370
     9
100
AcDbCircle
 10
-363.067165065456
 20
28.56740260768584
 30
0.0
 40
2.000000025774982
100
AcDbArc
 50
270.0
 51
0.0
  0
ARC
  5
322
330
1F
100
AcDbEntity
  8
0-0
  6
Continuous
 62
     3
370
     9
100
AcDbCircle
 10
-363.067165065456
 20
58.5675015836149
 30
0.0
 40
2.000000025774982
100
AcDbArc
 50
0.0
 51
90.0
  0
ARC
  5
323
330
1F
100
AcDbEntity
  8
0-0
  6
Continuous
 62
     3
370
     9
100
AcDbCircle
 10
-378.067165065456
 20
58.5675015836149
 30
0.0
 40
2.000000025774982
100
AcDbArc
 50
90.0
 51
180.0
  0
ARC
  5
324
330
1F
100
AcDbEntity
  8
0-0
  6
Continuous
 62
     3
370
     9
100
AcDbCircle
 10
-378.067165065456
 20
78.56756756756761
 30
0.0
 40
2.000000025774982
100
AcDbArc
 50
180.0
 51
270.0
  0
ARC
  5
325
330
1F
100
AcDbEntity
  8
0-0
  6
Continuous
 62
     3
370
     9
100
AcDbCircle
 10
-363.067165065456
 20
78.56756756756761
 30
0.0
 40
2.000000025774982
100
AcDbArc
 50
270.0
 51
0.0
  0
ARC
  5
326
330
1F
100
AcDbEntity
  8
0-0
  6
Continuous
 62
     3
370
     9
100
AcDbCircle
 10
-363.067165065456
 20
108.5675675675676
 30
0.0
 40
2.000000025774982
100
AcDbArc
 50
0.0
 51
90.0
  0
ARC
  5
327
330
1F
100
AcDbEntity
  8
0-0
  6
Continuous
 62
     3
370
     9
100
AcDbCircle
 10
-378.067165065456
 20
108.5675675675676
 30
0.0
 40
2.000000025774982
100
AcDbArc
 50
90.0
 51
180.0
  0
ARC
  5
328
330
1F
100
AcDbEntity
  8
0-0
  6
Continuous
 62
     3
370
     9
100
AcDbCircle
 10
-378.067165065456
 20
128.5676335515203
 30
0.0
 40
2.000000025774982
100
AcDbArc
 50
180.0
 51
270.0
  0
ARC
  5
329
330
1F
100
AcDbEntity
  8
0-0
  6
Continuous
 62
     3
370
     9
100
AcDbCircle
 10
-363.067165065456
 20
128.5676335515203
 30
0.0
 40
2.000000025774982
100
AcDbArc
 50
270.0
 51
0.0
  0
ARC
  5
32A
330
1F
100
AcDbEntity
  8
0-0
  6
Continuous
 62
     3
370
     9
100
AcDbCircle
 10
-363.067165065456
 20
158.5676335515203
 30
0.0
 40
2.000000025774982
100
AcDbArc
 50
0.0
 51
90.0
  0
ARC
  5
32B
330
1F
100
AcDbEntity
  8
0-0
  6
Continuous
 62
     3
370
     9
100
AcDbCircle
 10
-378.067165065456
 20
158.5676335515203
 30
0.0
 40
2.000000025774982
100
AcDbArc
 50
90.0
 51
180.0
  0
ARC
  5
32C
330
1F
100
AcDbEntity
  8
0-0
  6
Continuous
 62
     3
370
     9
100
AcDbCircle
 10
-378.067165065456
 20
178.567699535473
 30
0.0
 40
2.000000025774982
100
AcDbArc
 50
180.0
 51
270.0
  0
ARC
  5
32D
330
1F
100
AcDbEntity
  8
0-0
  6
Continuous
 62
     3
370
     9
100
AcDbCircle
 10
-363.067165065456
 20
178.567699535473
 30
0.0
 40
2.000000025774982
100
AcDbArc
 50
270.0
 51
0.0
  0
ARC
  5
32E
330
1F
100
AcDbEntity
  8
0-0
  6
Continuous
 62
     3
370
     9
100
AcDbCircle
 10
-363.067165065456
 20
208.5678974873312
 30
0.0
 40
2.000000025774982
100
AcDbArc
 50
0.0
 51
90.0
  0
ARC
  5
32F
330
1F
100
AcDbEntity
  8
0-0
  6
Continuous
 62
     3
370
     9
100
AcDbCircle
 10
-378.067165065456
 20
208.5678974873312
 30
0.0
 40
2.000000025774982
100
AcDbArc
 50
90.0
 51
180.0
  0
ARC
  5
330
330
1F
100
AcDbEntity
  8
0-0
  6
Continuous
 62
     3
370
     9
100
AcDbCircle
 10
-378.067165065456
 20
228.5677655194257
 30
0.0
 40
2.000000025774982
100
AcDbArc
 50
180.0
 51
270.0
  0
ARC
  5
331
330
1F
100
AcDbEntity
  8
0-0
  6
Continuous
 62
     3
370
     9
100
AcDbCircle
 10
-363.067165065456
 20
228.5677655194257
 30
0.0
 40
2.000000025774982
100
AcDbArc
 50
270.0
 51
0.0
  0
ARC
  5
332
330
1F
100
AcDbEntity
  8
0-0
  6
Continuous
 62
     3
370
     9
100
AcDbCircle
 10
-363.067165065456
 20
258.5679634712839
 30
0.0
 40
2.000000025774982
100
AcDbArc
 50
0.0
 51
90.0
  0
ARC
  5
333
330
1F
100
AcDbEntity
  8
0-0
  6
Continuous
 62
     3
370
     9
100
AcDbCircle
 10
-378.067165065456
 20
258.5679634712839
 30
0.0
 40
2.000000025774982
100
AcDbArc
 50
90.0
 51
180.0
  0
ARC
  5
334
330
1F
100
AcDbEntity
  8
0-0
  6
Continuous
 62
     3
370
     9
100
AcDbCircle
 10
-343.0672970333615
 20
-71.43282833614865
 30
0.0
 40
2.000000025774982
100
AcDbArc
 50
180.0
 51
270.0
  0
ARC
  5
335
330
1F
100
AcDbEntity
  8
0-0
  6
Continuous
 62
     3
370
     9
100
AcDbCircle
 10
-328.0672970333615
 20
-71.43282833614865
 30
0.0
 40
2.000000025774982
100
AcDbArc
 50
270.0
 51
0.0
  0
ARC
  5
336
330
1F
100
AcDbEntity
  8
0-0
  6
Continuous
 62
     3
370
     9
100
AcDbCircle
 10
-328.0672970333615
 20
-41.43272936021958
 30
0.0
 40
2.000000025774982
100
AcDbArc
 50
0.0
 51
90.0
  0
ARC
  5
337
330
1F
100
AcDbEntity
  8
0-0
  6
Continuous
 62
     3
370
     9
100
AcDbCircle
 10
-343.0672970333615
 20
-41.43272936021958
 30
0.0
 40
2.000000025774982
100
AcDbArc
 50
90.0
 51
180.0
  0
ARC
  5
338
330
1F
100
AcDbEntity
  8
0-0
  6
Continuous
 62
     3
370
     9
100
AcDbCircle
 10
-343.0672970333615
 20
-21.43266337626687
 30
0.0
 40
2.000000025774982
100
AcDbArc
 50
180.0
 51
270.0
  0
ARC
  5
339
330
1F
100
AcDbEntity
  8
0-0
  6
Continuous
 62
     3
370
     9
100
AcDbCircle
 10
-328.0672970333615
 20
-21.43266337626687
 30
0.0
 40
2.000000025774982
100
AcDbArc
 50
270.0
 51
0.0
  0
ARC
  5
33A
330
1F
100
AcDbEntity
  8
0-0
  6
Continuous
 62
     3
370
     9
100
AcDbCircle
 10
-328.0672970333615
 20
8.56743559966219
 30
0.0
 40
2.000000025774982
100
AcDbArc
 50
0.0
 51
90.0
  0
ARC
  5
33B
330
1F
100
AcDbEntity
  8
0-0
  6
Continuous
 62
     3
370
     9
100
AcDbCircle
 10
-343.0672970333615
 20
8.56743559966219
 30
0.0
 40
2.000000025774982
100
AcDbArc
 50
90.0
 51
180.0
  0
ARC
  5
33C
330
1F
100
AcDbEntity
  8
0-0
  6
Continuous
 62
     3
370
     9
100
AcDbCircle
 10
-343.0672970333615
 20
28.56740260768584
 30
0.0
 40
2.000000025774982
100
AcDbArc
 50
180.0
 51
270.0
  0
ARC
  5
33D
330
1F
100
AcDbEntity
  8
0-0
  6
Continuous
 62
     3
370
     9
100
AcDbCircle
 10
-328.0672970333615
 20
28.56740260768584
 30
0.0
 40
2.000000025774982
100
AcDbArc
 50
270.0
 51
0.0
  0
ARC
  5
33E
330
1F
100
AcDbEntity
  8
0-0
  6
Continuous
 62
     3
370
     9
100
AcDbCircle
 10
-328.0672970333615
 20
58.5675015836149
 30
0.0
 40
2.000000025774982
100
AcDbArc
 50
0.0
 51
90.0
  0
ARC
  5
33F
330
1F
100
AcDbEntity
  8
0-0
  6
Continuous
 62
     3
370
     9
100
AcDbCircle
 10
-343.0672970333615
 20
58.5675015836149
 30
0.0
 40
2.000000025774982
100
AcDbArc
 50
90.0
 51
180.0
  0
ARC
  5
340
330
1F
100
AcDbEntity
  8
0-0
  6
Continuous
 62
     3
370
     9
100
AcDbCircle
 10
-343.0672970333615
 20
78.56756756756761
 30
0.0
 40
2.000000025774982
100
AcDbArc
 50
180.0
 51
270.0
  0
ARC
  5
341
330
1F
100
AcDbEntity
  8
0-0
  6
Continuous
 62
     3
370
     9
100
AcDbCircle
 10
-328.0672970333615
 20
78.56756756756761
 30
0.0
 40
2.000000025774982
100
AcDbArc
 50
270.0
 51
0.0
  0
ARC
  5
342
330
1F
100
AcDbEntity
  8
0-0
  6
Continuous
 62
     3
370
     9
100
AcDbCircle
 10
-328.0672970333615
 20
108.5675675675676
 30
0.0
 40
2.000000025774982
100
AcDbArc
 50
0.0
 51
90.0
  0
ARC
  5
343
330
1F
100
AcDbEntity
  8
0-0
  6
Continuous
 62
     3
370
     9
100
AcDbCircle
 10
-343.0672970333615
 20
108.5675675675676
 30
0.0
 40
2.000000025774982
100
AcDbArc
 50
90.0
 51
180.0
  0
ARC
  5
344
330
1F
100
AcDbEntity
  8
0-0
  6
Continuous
 62
     3
370
     9
100
AcDbCircle
 10
-343.0672970333615
 20
128.5676335515203
 30
0.0
 40
2.000000025774982
100
AcDbArc
 50
180.0
 51
270.0
  0
ARC
  5
345
330
1F
100
AcDbEntity
  8
0-0
  6
Continuous
 62
     3
370
     9
100
AcDbCircle
 10
-328.0672970333615
 20
128.5676335515203
 30
0.0
 40
2.000000025774982
100
AcDbArc
 50
270.0
 51
0.0
  0
ARC
  5
346
330
1F
100
AcDbEntity
  8
0-0
  6
Continuous
 62
     3
370
     9
100
AcDbCircle
 10
-328.0672970333615
 20
158.5676335515203
 30
0.0
 40
2.000000025774982
100
AcDbArc
 50
0.0
 51
90.0
  0
ARC
  5
347
330
1F
100
AcDbEntity
  8
0-0
  6
Continuous
 62
     3
370
     9
100
AcDbCircle
 10
-343.0672970333615
 20
158.5676335515203
 30
0.0
 40
2.000000025774982
100
AcDbArc
 50
90.0
 51
180.0
  0
ARC
  5
348
330
1F
100
AcDbEntity
  8
0-0
  6
Continuous
 62
     3
370
     9
100
AcDbCircle
 10
-343.0672970333615
 20
178.567699535473
 30
0.0
 40
2.000000025774982
100
AcDbArc
 50
180.0
 51
270.0
  0
ARC
  5
349
330
1F
100
AcDbEntity
  8
0-0
  6
Continuous
 62
     3
370
     9
100
AcDbCircle
 10
-328.0672970333615
 20
178.567699535473
 30
0.0
 40
2.000000025774982
100
AcDbArc
 50
270.0
 51
0.0
  0
ARC
  5
34A
330
1F
100
AcDbEntity
  8
0-0
  6
Continuous
 62
     3
370
     9
100
AcDbCircle
 10
-328.0672970333615
 20
208.5678974873312
 30
0.0
 40
2.000000025774982
100
AcDbArc
 50
0.0
 51
90.0
  0
ARC
  5
34B
330
1F
100
AcDbEntity
  8
0-0
  6
Continuous
 62
     3
370
     9
100
AcDbCircle
 10
-343.0672970333615
 20
208.5678974873312
 30
0.0
 40
2.000000025774982
100
AcDbArc
 50
90.0
 51
180.0
  0
ARC
  5
34C
330
1F
100
AcDbEntity
  8
0-0
  6
Continuous
 62
     3
370
     9
100
AcDbCircle
 10
-343.0672970333615
 20
228.5677655194257
 30
0.0
 40
2.000000025774982
100
AcDbArc
 50
180.0
 51
270.0
  0
ARC
  5
34D
330
1F
100
AcDbEntity
  8
0-0
  6
Continuous
 62
     3
370
     9
100
AcDbCircle
 10
-328.0672970333615
 20
228.5677655194257
 30
0.0
 40
2.000000025774982
100
AcDbArc
 50
270.0
 51
0.0
  0
ARC
  5
34E
330
1F
100
AcDbEntity
  8
0-0
  6
Continuous
 62
     3
370
     9
100
AcDbCircle
 10
-328.0672970333615
 20
258.5679634712839
 30
0.0
 40
2.000000025774982
100
AcDbArc
 50
0.0
 51
90.0
  0
ARC
  5
34F
330
1F
100
AcDbEntity
  8
0-0
  6
Continuous
 62
     3
370
     9
100
AcDbCircle
 10
-343.0672970333615
 20
258.5679634712839
 30
0.0
 40
2.000000025774982
100
AcDbArc
 50
90.0
 51
180.0
  0
ARC
  5
350
330
1F
100
AcDbEntity
  8
0-0
  6
Continuous
 62
     3
370
     9
100
AcDbCircle
 10
320.0729122677365
 20
276.2029006545608
 30
0.0
 40
1.000000012887491
100
AcDbArc
 50
0.0
 51
81.70309448242188
  0
ARC
  5
351
330
1F
100
AcDbEntity
  8
0-0
  6
Continuous
 62
     3
370
     9
100
AcDbCircle
 10
320.0729122677365
 20
-89.06766654349661
 30
0.0
 40
1.000000012887491
100
AcDbArc
 50
278.2969055175781
 51
0.0
  0
ARC
  5
352
330
1F
100
AcDbEntity
  8
0-0
  6
Continuous
 62
     3
370
     9
100
AcDbCircle
 10
296.0730310388515
 20
282.3259475295608
 30
0.0
 40
2.000000025774982
100
AcDbArc
 50
180.0
 51
262.6446228027344
  0
ARC
  5
353
330
1F
100
AcDbEntity
  8
0-0
  6
Continuous
 62
     3
370
     9
100
AcDbCircle
 10
296.0730310388515
 20
-95.19081239442562
 30
0.0
 40
2.000000025774982
100
AcDbArc
 50
97.35546875
 51
180.0
  0
ARC
  5
354
330
1F
100
AcDbEntity
  8
0-0
  6
Continuous
 62
     3
370
     9
100
AcDbCircle
 10
303.0730046452704
 20
-76.90134739231416
 30
0.0
 40
4.000000051549963
100
AcDbArc
 50
179.9992980957031
 51
262.8745422363281
  0
ARC
  5
355
330
1F
100
AcDbEntity
  8
0-0
  6
Continuous
 62
     3
370
     9
100
AcDbCircle
 10
320.0729122677365
 20
-83.81511296452697
 30
0.0
 40
1.000000012887491
100
AcDbArc
 50
0.0
 51
82.87603759765625
  0
ARC
  5
356
330
1F
100
AcDbEntity
  8
0-0
  6
Continuous
 62
     3
370
     9
100
AcDbCircle
 10
320.0729122677365
 20
270.9504460515203
 30
0.0
 40
1.000000012887491
100
AcDbArc
 50
277.1243133544922
 51
0.0000000000000127
  0
ARC
  5
357
330
1F
100
AcDbEntity
  8
0-0
  6
Continuous
 62
     3
370
     9
100
AcDbCircle
 10
303.0730046452704
 20
264.0363835515203
 30
0.0
 40
4.000000051549963
100
AcDbArc
 50
97.12536621093751
 51
180.0
  0
ARC
  5
358
330
1F
100
AcDbEntity
  8
0-0
  6
Continuous
 62
     3
370
     9
100
AcDbCircle
 10
297.0728858741554
 20
-77.2255925358952
 30
0.0
 40
2.000000025774982
100
AcDbArc
 50
0.0
 51
79.99974060058594
  0
ARC
  5
359
330
1F
100
AcDbEntity
  8
0-0
  6
Continuous
 62
     3
370
     9
100
AcDbCircle
 10
297.0728858741554
 20
-77.22668127111478
 30
0.0
 40
2.000000025774982
100
AcDbArc
 50
0.0
 51
79.99974060058594
  0
ARC
  5
35A
330
1F
100
AcDbEntity
  8
0-0
  6
Continuous
 62
     3
370
     9
100
AcDbCircle
 10
297.0728858741554
 20
-35.63857949746614
 30
0.0
 40
2.000000025774982
100
AcDbArc
 50
280.0002593994141
 51
0.0000000000000127
  0
ARC
  5
35B
330
1F
100
AcDbEntity
  8
0-0
  6
Continuous
 62
     3
370
     9
100
AcDbCircle
 10
297.0728858741554
 20
-27.22671426309114
 30
0.0
 40
2.000000025774982
100
AcDbArc
 50
0.0
 51
79.99974060058594
  0
ARC
  5
35C
330
1F
100
AcDbEntity
  8
0-0
  6
Continuous
 62
     3
370
     9
100
AcDbCircle
 10
297.0728858741554
 20
-27.22790197423978
 30
0.0
 40
2.000000025774982
100
AcDbArc
 50
0.0
 51
79.99974060058594
  0
ARC
  5
35D
330
1F
100
AcDbEntity
  8
0-0
  6
Continuous
 62
     3
370
     9
100
AcDbCircle
 10
297.0728858741554
 20
14.36029877533792
 30
0.0
 40
2.000000025774982
100
AcDbArc
 50
280.0002593994141
 51
0.0000000000000127
  0
ARC
  5
35E
330
1F
100
AcDbEntity
  8
0-0
  6
Continuous
 62
     3
370
     9
100
AcDbCircle
 10
297.0728858741554
 20
22.77335172086157
 30
0.0
 40
2.000000025774982
100
AcDbArc
 50
0.0
 51
79.99974060058594
  0
ARC
  5
35F
330
1F
100
AcDbEntity
  8
0-0
  6
Continuous
 62
     3
370
     9
100
AcDbCircle
 10
297.0728858741554
 20
22.77226298564187
 30
0.0
 40
2.000000025774982
100
AcDbArc
 50
0.0
 51
79.99974060058594
  0
ARC
  5
360
330
1F
100
AcDbEntity
  8
0-0
  6
Continuous
 62
     3
370
     9
100
AcDbCircle
 10
297.0728858741554
 20
64.36036475929063
 30
0.0
 40
2.000000025774982
100
AcDbArc
 50
280.0002593994141
 51
0.0000000000000127
  0
ARC
  5
361
330
1F
100
AcDbEntity
  8
0-0
  6
Continuous
 62
     3
370
     9
100
AcDbCircle
 10
297.0728858741554
 20
72.77351668074323
 30
0.0
 40
2.000000025774982
100
AcDbArc
 50
0.0
 51
79.99974060058594
  0
ARC
  5
362
330
1F
100
AcDbEntity
  8
0-0
  6
Continuous
 62
     3
370
     9
100
AcDbCircle
 10
297.0728858741554
 20
72.77232896959458
 30
0.0
 40
2.000000025774982
100
AcDbArc
 50
0.0
 51
79.99974060058594
  0
ARC
  5
363
330
1F
100
AcDbEntity
  8
0-0
  6
Continuous
 62
     3
370
     9
100
AcDbCircle
 10
297.0728858741554
 20
114.3605297191723
 30
0.0
 40
2.000000025774982
100
AcDbArc
 50
280.0002593994141
 51
0.0000000000000127
  0
ARC
  5
364
330
1F
100
AcDbEntity
  8
0-0
  6
Continuous
 62
     3
370
     9
100
AcDbCircle
 10
297.0728858741554
 20
122.7735826646959
 30
0.0
 40
2.000000025774982
100
AcDbArc
 50
0.0
 51
79.99974060058594
  0
ARC
  5
365
330
1F
100
AcDbEntity
  8
0-0
  6
Continuous
 62
     3
370
     9
100
AcDbCircle
 10
297.0728858741554
 20
122.7723949535473
 30
0.0
 40
2.000000025774982
100
AcDbArc
 50
0.0
 51
79.99974060058594
  0
ARC
  5
366
330
1F
100
AcDbEntity
  8
0-0
  6
Continuous
 62
     3
370
     9
100
AcDbCircle
 10
297.0728858741554
 20
164.3606946790541
 30
0.0
 40
2.000000025774982
100
AcDbArc
 50
280.0002593994141
 51
0.0000000000000127
  0
ARC
  5
367
330
1F
100
AcDbEntity
  8
0-0
  6
Continuous
 62
     3
370
     9
100
AcDbCircle
 10
297.0728858741554
 20
172.7736486486486
 30
0.0
 40
2.000000025774982
100
AcDbArc
 50
0.0
 51
79.99974060058594
  0
ARC
  5
368
330
1F
100
AcDbEntity
  8
0-0
  6
Continuous
 62
     3
370
     9
100
AcDbCircle
 10
297.0728858741554
 20
172.7724609375
 30
0.0
 40
2.000000025774982
100
AcDbArc
 50
0.0
 51
79.99974060058594
  0
ARC
  5
369
330
1F
100
AcDbEntity
  8
0-0
  6
Continuous
 62
     3
370
     9
100
AcDbCircle
 10
297.0728858741554
 20
214.3607606630068
 30
0.0
 40
2.000000025774982
100
AcDbArc
 50
280.0002593994141
 51
0.0000000000000127
  0
ARC
  5
36A
330
1F
100
AcDbEntity
  8
0-0
  6
Continuous
 62
     3
370
     9
100
AcDbCircle
 10
297.0728858741554
 20
222.7737146326014
 30
0.0
 40
2.000000025774982
100
AcDbArc
 50
0.0
 51
79.99974060058594
  0
ARC
  5
36B
330
1F
100
AcDbEntity
  8
0-0
  6
Continuous
 62
     3
370
     9
100
AcDbCircle
 10
297.0728858741554
 20
222.7725269214527
 30
0.0
 40
2.000000025774982
100
AcDbArc
 50
0.0
 51
79.99974060058594
  0
ARC
  5
36C
330
1F
100
AcDbEntity
  8
0-0
  6
Continuous
 62
     3
370
     9
100
AcDbCircle
 10
297.0728858741554
 20
264.3606286951014
 30
0.0
 40
2.000000025774982
100
AcDbArc
 50
280.0002593994141
 51
0.0000000000000127
  0
ARC
  5
36D
330
1F
100
AcDbEntity
  8
0-0
  6
Continuous
 62
     3
370
     9
100
AcDbCircle
 10
-153.0680558488175
 20
-71.43282833614865
 30
0.0
 40
2.000000025774982
100
AcDbArc
 50
270.0
 51
0.0
  0
ARC
  5
36E
330
1F
100
AcDbEntity
  8
0-0
  6
Continuous
 62
     3
370
     9
100
AcDbCircle
 10
-168.0680558488175
 20
-71.43282833614865
 30
0.0
 40
2.000000025774982
100
AcDbArc
 50
180.0
 51
270.0
  0
ARC
  5
36F
330
1F
100
AcDbEntity
  8
0-0
  6
Continuous
 62
     3
370
     9
100
AcDbCircle
 10
-168.0680558488175
 20
-41.43272936021958
 30
0.0
 40
2.000000025774982
100
AcDbArc
 50
90.0
 51
180.0
  0
ARC
  5
370
330
1F
100
AcDbEntity
  8
0-0
  6
Continuous
 62
     3
370
     9
100
AcDbCircle
 10
-153.0680558488175
 20
-41.43272936021958
 30
0.0
 40
2.000000025774982
100
AcDbArc
 50
0.0
 51
90.0
  0
ARC
  5
371
330
1F
100
AcDbEntity
  8
0-0
  6
Continuous
 62
     3
370
     9
100
AcDbCircle
 10
-153.0680558488175
 20
-21.43266337626687
 30
0.0
 40
2.000000025774982
100
AcDbArc
 50
270.0
 51
0.0
  0
ARC
  5
372
330
1F
100
AcDbEntity
  8
0-0
  6
Continuous
 62
     3
370
     9
100
AcDbCircle
 10
-168.0680558488175
 20
-21.43266337626687
 30
0.0
 40
2.000000025774982
100
AcDbArc
 50
180.0
 51
270.0
  0
ARC
  5
373
330
1F
100
AcDbEntity
  8
0-0
  6
Continuous
 62
     3
370
     9
100
AcDbCircle
 10
-168.0680558488175
 20
8.56743559966219
 30
0.0
 40
2.000000025774982
100
AcDbArc
 50
90.0
 51
180.0
  0
ARC
  5
374
330
1F
100
AcDbEntity
  8
0-0
  6
Continuous
 62
     3
370
     9
100
AcDbCircle
 10
-153.0680558488175
 20
8.56743559966219
 30
0.0
 40
2.000000025774982
100
AcDbArc
 50
0.0
 51
90.0
  0
ARC
  5
375
330
1F
100
AcDbEntity
  8
0-0
  6
Continuous
 62
     3
370
     9
100
AcDbCircle
 10
-153.0680558488175
 20
28.56740260768584
 30
0.0
 40
2.000000025774982
100
AcDbArc
 50
270.0
 51
0.0
  0
ARC
  5
376
330
1F
100
AcDbEntity
  8
0-0
  6
Continuous
 62
     3
370
     9
100
AcDbCircle
 10
-168.0680558488175
 20
28.56740260768584
 30
0.0
 40
2.000000025774982
100
AcDbArc
 50
180.0
 51
270.0
  0
ARC
  5
377
330
1F
100
AcDbEntity
  8
0-0
  6
Continuous
 62
     3
370
     9
100
AcDbCircle
 10
-168.0680558488175
 20
58.5675015836149
 30
0.0
 40
2.000000025774982
100
AcDbArc
 50
90.0
 51
180.0
  0
ARC
  5
378
330
1F
100
AcDbEntity
  8
0-0
  6
Continuous
 62
     3
370
     9
100
AcDbCircle
 10
-153.0680558488175
 20
58.5675015836149
 30
0.0
 40
2.000000025774982
100
AcDbArc
 50
0.0
 51
90.0
  0
ARC
  5
379
330
1F
100
AcDbEntity
  8
0-0
  6
Continuous
 62
     3
370
     9
100
AcDbCircle
 10
-153.0680558488175
 20
78.56756756756761
 30
0.0
 40
2.000000025774982
100
AcDbArc
 50
270.0
 51
0.0
  0
ARC
  5
37A
330
1F
100
AcDbEntity
  8
0-0
  6
Continuous
 62
     3
370
     9
100
AcDbCircle
 10
-168.0680558488175
 20
78.56756756756761
 30
0.0
 40
2.000000025774982
100
AcDbArc
 50
180.0
 51
270.0
  0
ARC
  5
37B
330
1F
100
AcDbEntity
  8
0-0
  6
Continuous
 62
     3
370
     9
100
AcDbCircle
 10
-168.0680558488175
 20
108.5675675675676
 30
0.0
 40
2.000000025774982
100
AcDbArc
 50
90.0
 51
180.0
  0
ARC
  5
37C
330
1F
100
AcDbEntity
  8
0-0
  6
Continuous
 62
     3
370
     9
100
AcDbCircle
 10
-153.0680558488175
 20
108.5675675675676
 30
0.0
 40
2.000000025774982
100
AcDbArc
 50
0.0
 51
90.0
  0
ARC
  5
37D
330
1F
100
AcDbEntity
  8
0-0
  6
Continuous
 62
     3
370
     9
100
AcDbCircle
 10
-153.0680558488175
 20
128.5676335515203
 30
0.0
 40
2.000000025774982
100
AcDbArc
 50
270.0
 51
0.0
  0
ARC
  5
37E
330
1F
100
AcDbEntity
  8
0-0
  6
Continuous
 62
     3
370
     9
100
AcDbCircle
 10
-168.0680558488175
 20
128.5676335515203
 30
0.0
 40
2.000000025774982
100
AcDbArc
 50
180.0
 51
270.0
  0
ARC
  5
37F
330
1F
100
AcDbEntity
  8
0-0
  6
Continuous
 62
     3
370
     9
100
AcDbCircle
 10
-168.0680558488175
 20
158.5676335515203
 30
0.0
 40
2.000000025774982
100
AcDbArc
 50
90.0
 51
180.0
  0
ARC
  5
380
330
1F
100
AcDbEntity
  8
0-0
  6
Continuous
 62
     3
370
     9
100
AcDbCircle
 10
-153.0680558488175
 20
158.5676335515203
 30
0.0
 40
2.000000025774982
100
AcDbArc
 50
0.0
 51
90.0
  0
ARC
  5
381
330
1F
100
AcDbEntity
  8
0-0
  6
Continuous
 62
     3
370
     9
100
AcDbCircle
 10
-153.0680558488175
 20
178.567699535473
 30
0.0
 40
2.000000025774982
100
AcDbArc
 50
270.0
 51
0.0
  0
ARC
  5
382
330
1F
100
AcDbEntity
  8
0-0
  6
Continuous
 62
     3
370
     9
100
AcDbCircle
 10
-168.0680558488175
 20
178.567699535473
 30
0.0
 40
2.000000025774982
100
AcDbArc
 50
180.0
 51
270.0
  0
ARC
  5
383
330
1F
100
AcDbEntity
  8
0-0
  6
Continuous
 62
     3
370
     9
100
AcDbCircle
 10
-168.0680558488175
 20
208.5678974873312
 30
0.0
 40
2.000000025774982
100
AcDbArc
 50
90.0
 51
180.0
  0
ARC
  5
384
330
1F
100
AcDbEntity
  8
0-0
  6
Continuous
 62
     3
370
     9
100
AcDbCircle
 10
-153.0680558488175
 20
208.5678974873312
 30
0.0
 40
2.000000025774982
100
AcDbArc
 50
0.0
 51
90.0
  0
ARC
  5
385
330
1F
100
AcDbEntity
  8
0-0
  6
Continuous
 62
     3
370
     9
100
AcDbCircle
 10
-153.0680558488175
 20
228.5677655194257
 30
0.0
 40
2.000000025774982
100
AcDbArc
 50
270.0
 51
0.0
  0
ARC
  5
386
330
1F
100
AcDbEntity
  8
0-0
  6
Continuous
 62
     3
370
     9
100
AcDbCircle
 10
-168.0680558488175
 20
228.5677655194257
 30
0.0
 40
2.000000025774982
100
AcDbArc
 50
180.0
 51
270.0
  0
ARC
  5
387
330
1F
100
AcDbEntity
  8
0-0
  6
Continuous
 62
     3
370
     9
100
AcDbCircle
 10
-168.0680558488175
 20
258.5679634712839
 30
0.0
 40
2.000000025774982
100
AcDbArc
 50
90.0
 51
180.0
  0
ARC
  5
388
330
1F
100
AcDbEntity
  8
0-0
  6
Continuous
 62
     3
370
     9
100
AcDbCircle
 10
-153.0680558488175
 20
258.5679634712839
 30
0.0
 40
2.000000025774982
100
AcDbArc
 50
0.0
 51
90.0
  0
ARC
  5
389
330
1F
100
AcDbEntity
  8
0-0
  6
Continuous
 62
     3
370
     9
100
AcDbCircle
 10
-188.0679238809121
 20
-71.43282833614865
 30
0.0
 40
2.000000025774982
100
AcDbArc
 50
270.0
 51
0.0
  0
ARC
  5
38A
330
1F
100
AcDbEntity
  8
0-0
  6
Continuous
 62
     3
370
     9
100
AcDbCircle
 10
-203.0679238809121
 20
-71.43282833614865
 30
0.0
 40
2.000000025774982
100
AcDbArc
 50
180.0
 51
270.0
  0
ARC
  5
38B
330
1F
100
AcDbEntity
  8
0-0
  6
Continuous
 62
     3
370
     9
100
AcDbCircle
 10
-203.0679238809121
 20
-41.43272936021958
 30
0.0
 40
2.000000025774982
100
AcDbArc
 50
90.0
 51
180.0
  0
ARC
  5
38C
330
1F
100
AcDbEntity
  8
0-0
  6
Continuous
 62
     3
370
     9
100
AcDbCircle
 10
-188.0679238809121
 20
-41.43272936021958
 30
0.0
 40
2.000000025774982
100
AcDbArc
 50
0.0
 51
90.0
  0
ARC
  5
38D
330
1F
100
AcDbEntity
  8
0-0
  6
Continuous
 62
     3
370
     9
100
AcDbCircle
 10
-188.0679238809121
 20
-21.43266337626687
 30
0.0
 40
2.000000025774982
100
AcDbArc
 50
270.0
 51
0.0
  0
ARC
  5
38E
330
1F
100
AcDbEntity
  8
0-0
  6
Continuous
 62
     3
370
     9
100
AcDbCircle
 10
-203.0679238809121
 20
-21.43266337626687
 30
0.0
 40
2.000000025774982
100
AcDbArc
 50
180.0
 51
270.0
  0
ARC
  5
38F
330
1F
100
AcDbEntity
  8
0-0
  6
Continuous
 62
     3
370
     9
100
AcDbCircle
 10
-203.0679238809121
 20
8.56743559966219
 30
0.0
 40
2.000000025774982
100
AcDbArc
 50
90.0
 51
180.0
  0
ARC
  5
390
330
1F
100
AcDbEntity
  8
0-0
  6
Continuous
 62
     3
370
     9
100
AcDbCircle
 10
-188.0679238809121
 20
8.56743559966219
 30
0.0
 40
2.000000025774982
100
AcDbArc
 50
0.0
 51
90.0
  0
ARC
  5
391
330
1F
100
AcDbEntity
  8
0-0
  6
Continuous
 62
     3
370
     9
100
AcDbCircle
 10
-188.0679238809121
 20
28.56740260768584
 30
0.0
 40
2.000000025774982
100
AcDbArc
 50
270.0
 51
0.0
  0
ARC
  5
392
330
1F
100
AcDbEntity
  8
0-0
  6
Continuous
 62
     3
370
     9
100
AcDbCircle
 10
-203.0679238809121
 20
28.56740260768584
 30
0.0
 40
2.000000025774982
100
AcDbArc
 50
180.0
 51
270.0
  0
ARC
  5
393
330
1F
100
AcDbEntity
  8
0-0
  6
Continuous
 62
     3
370
     9
100
AcDbCircle
 10
-203.0679238809121
 20
58.5675015836149
 30
0.0
 40
2.000000025774982
100
AcDbArc
 50
90.0
 51
180.0
  0
ARC
  5
394
330
1F
100
AcDbEntity
  8
0-0
  6
Continuous
 62
     3
370
     9
100
AcDbCircle
 10
-188.0679238809121
 20
58.5675015836149
 30
0.0
 40
2.000000025774982
100
AcDbArc
 50
0.0
 51
90.0
  0
ARC
  5
395
330
1F
100
AcDbEntity
  8
0-0
  6
Continuous
 62
     3
370
     9
100
AcDbCircle
 10
-188.0679238809121
 20
78.56756756756761
 30
0.0
 40
2.000000025774982
100
AcDbArc
 50
270.0
 51
0.0
  0
ARC
  5
396
330
1F
100
AcDbEntity
  8
0-0
  6
Continuous
 62
     3
370
     9
100
AcDbCircle
 10
-203.0679238809121
 20
78.56756756756761
 30
0.0
 40
2.000000025774982
100
AcDbArc
 50
180.0
 51
270.0
  0
ARC
  5
397
330
1F
100
AcDbEntity
  8
0-0
  6
Continuous
 62
     3
370
     9
100
AcDbCircle
 10
-203.0679238809121
 20
108.5675675675676
 30
0.0
 40
2.000000025774982
100
AcDbArc
 50
90.0
 51
180.0
  0
ARC
  5
398
330
1F
100
AcDbEntity
  8
0-0
  6
Continuous
 62
     3
370
     9
100
AcDbCircle
 10
-188.0679238809121
 20
108.5675675675676
 30
0.0
 40
2.000000025774982
100
AcDbArc
 50
0.0
 51
90.0
  0
ARC
  5
399
330
1F
100
AcDbEntity
  8
0-0
  6
Continuous
 62
     3
370
     9
100
AcDbCircle
 10
-188.0679238809121
 20
128.5676335515203
 30
0.0
 40
2.000000025774982
100
AcDbArc
 50
270.0
 51
0.0
  0
ARC
  5
39A
330
1F
100
AcDbEntity
  8
0-0
  6
Continuous
 62
     3
370
     9
100
AcDbCircle
 10
-203.0679238809121
 20
128.5676335515203
 30
0.0
 40
2.000000025774982
100
AcDbArc
 50
180.0
 51
270.0
  0
ARC
  5
39B
330
1F
100
AcDbEntity
  8
0-0
  6
Continuous
 62
     3
370
     9
100
AcDbCircle
 10
-203.0679238809121
 20
158.5676335515203
 30
0.0
 40
2.000000025774982
100
AcDbArc
 50
90.0
 51
180.0
  0
ARC
  5
39C
330
1F
100
AcDbEntity
  8
0-0
  6
Continuous
 62
     3
370
     9
100
AcDbCircle
 10
-188.0679238809121
 20
158.5676335515203
 30
0.0
 40
2.000000025774982
100
AcDbArc
 50
0.0
 51
90.0
  0
ARC
  5
39D
330
1F
100
AcDbEntity
  8
0-0
  6
Continuous
 62
     3
370
     9
100
AcDbCircle
 10
-188.0679238809121
 20
178.567699535473
 30
0.0
 40
2.000000025774982
100
AcDbArc
 50
270.0
 51
0.0
  0
ARC
  5
39E
330
1F
100
AcDbEntity
  8
0-0
  6
Continuous
 62
     3
370
     9
100
AcDbCircle
 10
-203.0679238809121
 20
178.567699535473
 30
0.0
 40
2.000000025774982
100
AcDbArc
 50
180.0
 51
270.0
  0
ARC
  5
39F
330
1F
100
AcDbEntity
  8
0-0
  6
Continuous
 62
     3
370
     9
100
AcDbCircle
 10
-203.0679238809121
 20
208.5678974873312
 30
0.0
 40
2.000000025774982
100
AcDbArc
 50
90.0
 51
180.0
  0
ARC
  5
3A0
330
1F
100
AcDbEntity
  8
0-0
  6
Continuous
 62
     3
370
     9
100
AcDbCircle
 10
-188.0679238809121
 20
208.5678974873312
 30
0.0
 40
2.000000025774982
100
AcDbArc
 50
0.0
 51
90.0
  0
ARC
  5
3A1
330
1F
100
AcDbEntity
  8
0-0
  6
Continuous
 62
     3
370
     9
100
AcDbCircle
 10
-188.0679238809121
 20
228.5677655194257
 30
0.0
 40
2.000000025774982
100
AcDbArc
 50
270.0
 51
0.0
  0
ARC
  5
3A2
330
1F
100
AcDbEntity
  8
0-0
  6
Continuous
 62
     3
370
     9
100
AcDbCircle
 10
-203.0679238809121
 20
228.5677655194257
 30
0.0
 40
2.000000025774982
100
AcDbArc
 50
180.0
 51
270.0
  0
ARC
  5
3A3
330
1F
100
AcDbEntity
  8
0-0
  6
Continuous
 62
     3
370
     9
100
AcDbCircle
 10
-203.0679238809121
 20
258.5679634712839
 30
0.0
 40
2.000000025774982
100
AcDbArc
 50
90.0
 51
180.0
  0
ARC
  5
3A4
330
1F
100
AcDbEntity
  8
0-0
  6
Continuous
 62
     3
370
     9
100
AcDbCircle
 10
-188.0679238809121
 20
258.5679634712839
 30
0.0
 40
2.000000025774982
100
AcDbArc
 50
0.0
 51
90.0
  0
ARC
  5
3A5
330
1F
100
AcDbEntity
  8
0-0
  6
Continuous
 62
     3
370
     9
100
AcDbCircle
 10
-223.0677919130068
 20
-71.43282833614865
 30
0.0
 40
2.000000025774982
100
AcDbArc
 50
270.0
 51
0.0
  0
ARC
  5
3A6
330
1F
100
AcDbEntity
  8
0-0
  6
Continuous
 62
     3
370
     9
100
AcDbCircle
 10
-238.0677919130068
 20
-71.43282833614865
 30
0.0
 40
2.000000025774982
100
AcDbArc
 50
180.0
 51
270.0
  0
ARC
  5
3A7
330
1F
100
AcDbEntity
  8
0-0
  6
Continuous
 62
     3
370
     9
100
AcDbCircle
 10
-238.0677919130068
 20
-41.43272936021958
 30
0.0
 40
2.000000025774982
100
AcDbArc
 50
90.0
 51
180.0
  0
ARC
  5
3A8
330
1F
100
AcDbEntity
  8
0-0
  6
Continuous
 62
     3
370
     9
100
AcDbCircle
 10
-223.0677919130068
 20
-41.43272936021958
 30
0.0
 40
2.000000025774982
100
AcDbArc
 50
0.0
 51
90.0
  0
ARC
  5
3A9
330
1F
100
AcDbEntity
  8
0-0
  6
Continuous
 62
     3
370
     9
100
AcDbCircle
 10
-223.0677919130068
 20
-21.43266337626687
 30
0.0
 40
2.000000025774982
100
AcDbArc
 50
270.0
 51
0.0
  0
ARC
  5
3AA
330
1F
100
AcDbEntity
  8
0-0
  6
Continuous
 62
     3
370
     9
100
AcDbCircle
 10
-238.0677919130068
 20
-21.43266337626687
 30
0.0
 40
2.000000025774982
100
AcDbArc
 50
180.0
 51
270.0
  0
ARC
  5
3AB
330
1F
100
AcDbEntity
  8
0-0
  6
Continuous
 62
     3
370
     9
100
AcDbCircle
 10
-238.0677919130068
 20
8.56743559966219
 30
0.0
 40
2.000000025774982
100
AcDbArc
 50
90.0
 51
180.0
  0
ARC
  5
3AC
330
1F
100
AcDbEntity
  8
0-0
  6
Continuous
 62
     3
370
     9
100
AcDbCircle
 10
-223.0677919130068
 20
8.56743559966219
 30
0.0
 40
2.000000025774982
100
AcDbArc
 50
0.0
 51
90.0
  0
ARC
  5
3AD
330
1F
100
AcDbEntity
  8
0-0
  6
Continuous
 62
     3
370
     9
100
AcDbCircle
 10
-223.0677919130068
 20
28.56740260768584
 30
0.0
 40
2.000000025774982
100
AcDbArc
 50
270.0
 51
0.0
  0
ARC
  5
3AE
330
1F
100
AcDbEntity
  8
0-0
  6
Continuous
 62
     3
370
     9
100
AcDbCircle
 10
-238.0677919130068
 20
28.56740260768584
 30
0.0
 40
2.000000025774982
100
AcDbArc
 50
180.0
 51
270.0
  0
ARC
  5
3AF
330
1F
100
AcDbEntity
  8
0-0
  6
Continuous
 62
     3
370
     9
100
AcDbCircle
 10
-238.0677919130068
 20
58.5675015836149
 30
0.0
 40
2.000000025774982
100
AcDbArc
 50
90.0
 51
180.0
  0
ARC
  5
3B0
330
1F
100
AcDbEntity
  8
0-0
  6
Continuous
 62
     3
370
     9
100
AcDbCircle
 10
-223.0677919130068
 20
58.5675015836149
 30
0.0
 40
2.000000025774982
100
AcDbArc
 50
0.0
 51
90.0
  0
ARC
  5
3B1
330
1F
100
AcDbEntity
  8
0-0
  6
Continuous
 62
     3
370
     9
100
AcDbCircle
 10
-223.0677919130068
 20
78.56756756756761
 30
0.0
 40
2.000000025774982
100
AcDbArc
 50
270.0
 51
0.0
  0
ARC
  5
3B2
330
1F
100
AcDbEntity
  8
0-0
  6
Continuous
 62
     3
370
     9
100
AcDbCircle
 10
-238.0677919130068
 20
78.56756756756761
 30
0.0
 40
2.000000025774982
100
AcDbArc
 50
180.0
 51
270.0
  0
ARC
  5
3B3
330
1F
100
AcDbEntity
  8
0-0
  6
Continuous
 62
     3
370
     9
100
AcDbCircle
 10
-238.0677919130068
 20
108.5675675675676
 30
0.0
 40
2.000000025774982
100
AcDbArc
 50
90.0
 51
180.0
  0
ARC
  5
3B4
330
1F
100
AcDbEntity
  8
0-0
  6
Continuous
 62
     3
370
     9
100
AcDbCircle
 10
-223.0677919130068
 20
108.5675675675676
 30
0.0
 40
2.000000025774982
100
AcDbArc
 50
0.0
 51
90.0
  0
ARC
  5
3B5
330
1F
100
AcDbEntity
  8
0-0
  6
Continuous
 62
     3
370
     9
100
AcDbCircle
 10
-223.0677919130068
 20
128.5676335515203
 30
0.0
 40
2.000000025774982
100
AcDbArc
 50
270.0
 51
0.0
  0
ARC
  5
3B6
330
1F
100
AcDbEntity
  8
0-0
  6
Continuous
 62
     3
370
     9
100
AcDbCircle
 10
-238.0677919130068
 20
128.5676335515203
 30
0.0
 40
2.000000025774982
100
AcDbArc
 50
180.0
 51
270.0
  0
ARC
  5
3B7
330
1F
100
AcDbEntity
  8
0-0
  6
Continuous
 62
     3
370
     9
100
AcDbCircle
 10
-238.0677919130068
 20
158.5676335515203
 30
0.0
 40
2.000000025774982
100
AcDbArc
 50
90.0
 51
180.0
  0
ARC
  5
3B8
330
1F
100
AcDbEntity
  8
0-0
  6
Continuous
 62
     3
370
     9
100
AcDbCircle
 10
-223.0677919130068
 20
158.5676335515203
 30
0.0
 40
2.000000025774982
100
AcDbArc
 50
0.0
 51
90.0
  0
ARC
  5
3B9
330
1F
100
AcDbEntity
  8
0-0
  6
Continuous
 62
     3
370
     9
100
AcDbCircle
 10
-223.0677919130068
 20
178.567699535473
 30
0.0
 40
2.000000025774982
100
AcDbArc
 50
270.0
 51
0.0
  0
ARC
  5
3BA
330
1F
100
AcDbEntity
  8
0-0
  6
Continuous
 62
     3
370
     9
100
AcDbCircle
 10
-238.0677919130068
 20
178.567699535473
 30
0.0
 40
2.000000025774982
100
AcDbArc
 50
180.0
 51
270.0
  0
ARC
  5
3BB
330
1F
100
AcDbEntity
  8
0-0
  6
Continuous
 62
     3
370
     9
100
AcDbCircle
 10
-238.0677919130068
 20
208.5678974873312
 30
0.0
 40
2.000000025774982
100
AcDbArc
 50
90.0
 51
180.0
  0
ARC
  5
3BC
330
1F
100
AcDbEntity
  8
0-0
  6
Continuous
 62
     3
370
     9
100
AcDbCircle
 10
-223.0677919130068
 20
208.5678974873312
 30
0.0
 40
2.000000025774982
100
AcDbArc
 50
0.0
 51
90.0
  0
ARC
  5
3BD
330
1F
100
AcDbEntity
  8
0-0
  6
Continuous
 62
     3
370
     9
100
AcDbCircle
 10
-223.0677919130068
 20
228.5677655194257
 30
0.0
 40
2.000000025774982
100
AcDbArc
 50
270.0
 51
0.0
  0
ARC
  5
3BE
330
1F
100
AcDbEntity
  8
0-0
  6
Continuous
 62
     3
370
     9
100
AcDbCircle
 10
-238.0677919130068
 20
228.5677655194257
 30
0.0
 40
2.000000025774982
100
AcDbArc
 50
180.0
 51
270.0
  0
ARC
  5
3BF
330
1F
100
AcDbEntity
  8
0-0
  6
Continuous
 62
     3
370
     9
100
AcDbCircle
 10
-238.0677919130068
 20
258.5679634712839
 30
0.0
 40
2.000000025774982
100
AcDbArc
 50
90.0
 51
180.0
  0
ARC
  5
3C0
330
1F
100
AcDbEntity
  8
0-0
  6
Continuous
 62
     3
370
     9
100
AcDbCircle
 10
-223.0677919130068
 20
258.5679634712839
 30
0.0
 40
2.000000025774982
100
AcDbArc
 50
0.0
 51
90.0
  0
ARC
  5
3C1
330
1F
100
AcDbEntity
  8
0-0
  6
Continuous
 62
     3
370
     9
100
AcDbCircle
 10
-258.0677589210304
 20
-71.43282833614865
 30
0.0
 40
2.000000025774982
100
AcDbArc
 50
270.0
 51
0.0
  0
ARC
  5
3C2
330
1F
100
AcDbEntity
  8
0-0
  6
Continuous
 62
     3
370
     9
100
AcDbCircle
 10
-273.0677589210304
 20
-71.43282833614865
 30
0.0
 40
2.000000025774982
100
AcDbArc
 50
180.0
 51
270.0
  0
ARC
  5
3C3
330
1F
100
AcDbEntity
  8
0-0
  6
Continuous
 62
     3
370
     9
100
AcDbCircle
 10
-273.0677589210304
 20
-41.43272936021958
 30
0.0
 40
2.000000025774982
100
AcDbArc
 50
90.0
 51
180.0
  0
ARC
  5
3C4
330
1F
100
AcDbEntity
  8
0-0
  6
Continuous
 62
     3
370
     9
100
AcDbCircle
 10
-258.0677589210304
 20
-41.43272936021958
 30
0.0
 40
2.000000025774982
100
AcDbArc
 50
0.0
 51
90.0
  0
ARC
  5
3C5
330
1F
100
AcDbEntity
  8
0-0
  6
Continuous
 62
     3
370
     9
100
AcDbCircle
 10
-258.0677589210304
 20
-21.43266337626687
 30
0.0
 40
2.000000025774982
100
AcDbArc
 50
270.0
 51
0.0
  0
ARC
  5
3C6
330
1F
100
AcDbEntity
  8
0-0
  6
Continuous
 62
     3
370
     9
100
AcDbCircle
 10
-273.0677589210304
 20
-21.43266337626687
 30
0.0
 40
2.000000025774982
100
AcDbArc
 50
180.0
 51
270.0
  0
ARC
  5
3C7
330
1F
100
AcDbEntity
  8
0-0
  6
Continuous
 62
     3
370
     9
100
AcDbCircle
 10
-273.0677589210304
 20
8.56743559966219
 30
0.0
 40
2.000000025774982
100
AcDbArc
 50
90.0
 51
180.0
  0
ARC
  5
3C8
330
1F
100
AcDbEntity
  8
0-0
  6
Continuous
 62
     3
370
     9
100
AcDbCircle
 10
-258.0677589210304
 20
8.56743559966219
 30
0.0
 40
2.000000025774982
100
AcDbArc
 50
0.0
 51
90.0
  0
ARC
  5
3C9
330
1F
100
AcDbEntity
  8
0-0
  6
Continuous
 62
     3
370
     9
100
AcDbCircle
 10
-258.0677589210304
 20
28.56740260768584
 30
0.0
 40
2.000000025774982
100
AcDbArc
 50
270.0
 51
0.0
  0
ARC
  5
3CA
330
1F
100
AcDbEntity
  8
0-0
  6
Continuous
 62
     3
370
     9
100
AcDbCircle
 10
-273.0677589210304
 20
28.56740260768584
 30
0.0
 40
2.000000025774982
100
AcDbArc
 50
180.0
 51
270.0
  0
ARC
  5
3CB
330
1F
100
AcDbEntity
  8
0-0
  6
Continuous
 62
     3
370
     9
100
AcDbCircle
 10
-273.0677589210304
 20
58.5675015836149
 30
0.0
 40
2.000000025774982
100
AcDbArc
 50
90.0
 51
180.0
  0
ARC
  5
3CC
330
1F
100
AcDbEntity
  8
0-0
  6
Continuous
 62
     3
370
     9
100
AcDbCircle
 10
-258.0677589210304
 20
58.5675015836149
 30
0.0
 40
2.000000025774982
100
AcDbArc
 50
0.0
 51
90.0
  0
ARC
  5
3CD
330
1F
100
AcDbEntity
  8
0-0
  6
Continuous
 62
     3
370
     9
100
AcDbCircle
 10
-258.0677589210304
 20
78.56756756756761
 30
0.0
 40
2.000000025774982
100
AcDbArc
 50
270.0
 51
0.0
  0
ARC
  5
3CE
330
1F
100
AcDbEntity
  8
0-0
  6
Continuous
 62
     3
370
     9
100
AcDbCircle
 10
-273.0677589210304
 20
78.56756756756761
 30
0.0
 40
2.000000025774982
100
AcDbArc
 50
180.0
 51
270.0
  0
ARC
  5
3CF
330
1F
100
AcDbEntity
  8
0-0
  6
Continuous
 62
     3
370
     9
100
AcDbCircle
 10
-273.0677589210304
 20
108.5675675675676
 30
0.0
 40
2.000000025774982
100
AcDbArc
 50
90.0
 51
180.0
  0
ARC
  5
3D0
330
1F
100
AcDbEntity
  8
0-0
  6
Continuous
 62
     3
370
     9
100
AcDbCircle
 10
-258.0677589210304
 20
108.5675675675676
 30
0.0
 40
2.000000025774982
100
AcDbArc
 50
0.0
 51
90.0
  0
ARC
  5
3D1
330
1F
100
AcDbEntity
  8
0-0
  6
Continuous
 62
     3
370
     9
100
AcDbCircle
 10
-258.0677589210304
 20
128.5676335515203
 30
0.0
 40
2.000000025774982
100
AcDbArc
 50
270.0
 51
0.0
  0
ARC
  5
3D2
330
1F
100
AcDbEntity
  8
0-0
  6
Continuous
 62
     3
370
     9
100
AcDbCircle
 10
-273.0677589210304
 20
128.5676335515203
 30
0.0
 40
2.000000025774982
100
AcDbArc
 50
180.0
 51
270.0
  0
ARC
  5
3D3
330
1F
100
AcDbEntity
  8
0-0
  6
Continuous
 62
     3
370
     9
100
AcDbCircle
 10
-273.0677589210304
 20
158.5676335515203
 30
0.0
 40
2.000000025774982
100
AcDbArc
 50
90.0
 51
180.0
  0
ARC
  5
3D4
330
1F
100
AcDbEntity
  8
0-0
  6
Continuous
 62
     3
370
     9
100
AcDbCircle
 10
-258.0677589210304
 20
158.5676335515203
 30
0.0
 40
2.000000025774982
100
AcDbArc
 50
0.0
 51
90.0
  0
ARC
  5
3D5
330
1F
100
AcDbEntity
  8
0-0
  6
Continuous
 62
     3
370
     9
100
AcDbCircle
 10
-258.0677589210304
 20
178.567699535473
 30
0.0
 40
2.000000025774982
100
AcDbArc
 50
270.0
 51
0.0
  0
ARC
  5
3D6
330
1F
100
AcDbEntity
  8
0-0
  6
Continuous
 62
     3
370
     9
100
AcDbCircle
 10
-273.0677589210304
 20
178.567699535473
 30
0.0
 40
2.000000025774982
100
AcDbArc
 50
180.0
 51
270.0
  0
ARC
  5
3D7
330
1F
100
AcDbEntity
  8
0-0
  6
Continuous
 62
     3
370
     9
100
AcDbCircle
 10
-273.0677589210304
 20
208.5678974873312
 30
0.0
 40
2.000000025774982
100
AcDbArc
 50
90.0
 51
180.0
  0
ARC
  5
3D8
330
1F
100
AcDbEntity
  8
0-0
  6
Continuous
 62
     3
370
     9
100
AcDbCircle
 10
-258.0677589210304
 20
208.5678974873312
 30
0.0
 40
2.000000025774982
100
AcDbArc
 50
0.0
 51
90.0
  0
ARC
  5
3D9
330
1F
100
AcDbEntity
  8
0-0
  6
Continuous
 62
     3
370
     9
100
AcDbCircle
 10
-258.0677589210304
 20
228.5677655194257
 30
0.0
 40
2.000000025774982
100
AcDbArc
 50
270.0
 51
0.0
  0
ARC
  5
3DA
330
1F
100
AcDbEntity
  8
0-0
  6
Continuous
 62
     3
370
     9
100
AcDbCircle
 10
-273.0677589210304
 20
228.5677655194257
 30
0.0
 40
2.000000025774982
100
AcDbArc
 50
180.0
 51
270.0
  0
ARC
  5
3DB
330
1F
100
AcDbEntity
  8
0-0
  6
Continuous
 62
     3
370
     9
100
AcDbCircle
 10
-273.0677589210304
 20
258.5679634712839
 30
0.0
 40
2.000000025774982
100
AcDbArc
 50
90.0
 51
180.0
  0
ARC
  5
3DC
330
1F
100
AcDbEntity
  8
0-0
  6
Continuous
 62
     3
370
     9
100
AcDbCircle
 10
-258.0677589210304
 20
258.5679634712839
 30
0.0
 40
2.000000025774982
100
AcDbArc
 50
0.0
 51
90.0
  0
ARC
  5
3DD
330
1F
100
AcDbEntity
  8
0-0
  6
Continuous
 62
     3
370
     9
100
AcDbCircle
 10
-293.067626953125
 20
-71.43282833614865
 30
0.0
 40
2.000000025774982
100
AcDbArc
 50
270.0
 51
0.0
  0
ARC
  5
3DE
330
1F
100
AcDbEntity
  8
0-0
  6
Continuous
 62
     3
370
     9
100
AcDbCircle
 10
-308.067626953125
 20
-71.43282833614865
 30
0.0
 40
2.000000025774982
100
AcDbArc
 50
180.0
 51
270.0
  0
ARC
  5
3DF
330
1F
100
AcDbEntity
  8
0-0
  6
Continuous
 62
     3
370
     9
100
AcDbCircle
 10
-308.067626953125
 20
-41.43272936021958
 30
0.0
 40
2.000000025774982
100
AcDbArc
 50
90.0
 51
180.0
  0
ARC
  5
3E0
330
1F
100
AcDbEntity
  8
0-0
  6
Continuous
 62
     3
370
     9
100
AcDbCircle
 10
-293.067626953125
 20
-41.43272936021958
 30
0.0
 40
2.000000025774982
100
AcDbArc
 50
0.0
 51
90.0
  0
ARC
  5
3E1
330
1F
100
AcDbEntity
  8
0-0
  6
Continuous
 62
     3
370
     9
100
AcDbCircle
 10
-293.067626953125
 20
-21.43266337626687
 30
0.0
 40
2.000000025774982
100
AcDbArc
 50
270.0
 51
0.0
  0
ARC
  5
3E2
330
1F
100
AcDbEntity
  8
0-0
  6
Continuous
 62
     3
370
     9
100
AcDbCircle
 10
-308.067626953125
 20
-21.43266337626687
 30
0.0
 40
2.000000025774982
100
AcDbArc
 50
180.0
 51
270.0
  0
ARC
  5
3E3
330
1F
100
AcDbEntity
  8
0-0
  6
Continuous
 62
     3
370
     9
100
AcDbCircle
 10
-308.067626953125
 20
8.56743559966219
 30
0.0
 40
2.000000025774982
100
AcDbArc
 50
90.0
 51
180.0
  0
ARC
  5
3E4
330
1F
100
AcDbEntity
  8
0-0
  6
Continuous
 62
     3
370
     9
100
AcDbCircle
 10
-293.067626953125
 20
8.56743559966219
 30
0.0
 40
2.000000025774982
100
AcDbArc
 50
0.0
 51
90.0
  0
ARC
  5
3E5
330
1F
100
AcDbEntity
  8
0-0
  6
Continuous
 62
     3
370
     9
100
AcDbCircle
 10
-293.067626953125
 20
28.56740260768584
 30
0.0
 40
2.000000025774982
100
AcDbArc
 50
270.0
 51
0.0
  0
ARC
  5
3E6
330
1F
100
AcDbEntity
  8
0-0
  6
Continuous
 62
     3
370
     9
100
AcDbCircle
 10
-308.067626953125
 20
28.56740260768584
 30
0.0
 40
2.000000025774982
100
AcDbArc
 50
180.0
 51
270.0
  0
ARC
  5
3E7
330
1F
100
AcDbEntity
  8
0-0
  6
Continuous
 62
     3
370
     9
100
AcDbCircle
 10
-308.067626953125
 20
58.5675015836149
 30
0.0
 40
2.000000025774982
100
AcDbArc
 50
90.0
 51
180.0
  0
ARC
  5
3E8
330
1F
100
AcDbEntity
  8
0-0
  6
Continuous
 62
     3
370
     9
100
AcDbCircle
 10
-293.067626953125
 20
58.5675015836149
 30
0.0
 40
2.000000025774982
100
AcDbArc
 50
0.0
 51
90.0
  0
ARC
  5
3E9
330
1F
100
AcDbEntity
  8
0-0
  6
Continuous
 62
     3
370
     9
100
AcDbCircle
 10
-293.067626953125
 20
78.56756756756761
 30
0.0
 40
2.000000025774982
100
AcDbArc
 50
270.0
 51
0.0
  0
ARC
  5
3EA
330
1F
100
AcDbEntity
  8
0-0
  6
Continuous
 62
     3
370
     9
100
AcDbCircle
 10
-308.067626953125
 20
78.56756756756761
 30
0.0
 40
2.000000025774982
100
AcDbArc
 50
180.0
 51
270.0
  0
ARC
  5
3EB
330
1F
100
AcDbEntity
  8
0-0
  6
Continuous
 62
     3
370
     9
100
AcDbCircle
 10
-308.067626953125
 20
108.5675675675676
 30
0.0
 40
2.000000025774982
100
AcDbArc
 50
90.0
 51
180.0
  0
ARC
  5
3EC
330
1F
100
AcDbEntity
  8
0-0
  6
Continuous
 62
     3
370
     9
100
AcDbCircle
 10
-293.067626953125
 20
108.5675675675676
 30
0.0
 40
2.000000025774982
100
AcDbArc
 50
0.0
 51
90.0
  0
ARC
  5
3ED
330
1F
100
AcDbEntity
  8
0-0
  6
Continuous
 62
     3
370
     9
100
AcDbCircle
 10
-293.067626953125
 20
128.5676335515203
 30
0.0
 40
2.000000025774982
100
AcDbArc
 50
270.0
 51
0.0
  0
ARC
  5
3EE
330
1F
100
AcDbEntity
  8
0-0
  6
Continuous
 62
     3
370
     9
100
AcDbCircle
 10
-308.067626953125
 20
128.5676335515203
 30
0.0
 40
2.000000025774982
100
AcDbArc
 50
180.0
 51
270.0
  0
ARC
  5
3EF
330
1F
100
AcDbEntity
  8
0-0
  6
Continuous
 62
     3
370
     9
100
AcDbCircle
 10
-308.067626953125
 20
158.5676335515203
 30
0.0
 40
2.000000025774982
100
AcDbArc
 50
90.0
 51
180.0
  0
ARC
  5
3F0
330
1F
100
AcDbEntity
  8
0-0
  6
Continuous
 62
     3
370
     9
100
AcDbCircle
 10
-293.067626953125
 20
158.5676335515203
 30
0.0
 40
2.000000025774982
100
AcDbArc
 50
0.0
 51
90.0
  0
ARC
  5
3F1
330
1F
100
AcDbEntity
  8
0-0
  6
Continuous
 62
     3
370
     9
100
AcDbCircle
 10
-293.067626953125
 20
178.567699535473
 30
0.0
 40
2.000000025774982
100
AcDbArc
 50
270.0
 51
0.0
  0
ARC
  5
3F2
330
1F
100
AcDbEntity
  8
0-0
  6
Continuous
 62
     3
370
     9
100
AcDbCircle
 10
-308.067626953125
 20
178.567699535473
 30
0.0
 40
2.000000025774982
100
AcDbArc
 50
180.0
 51
270.0
  0
ARC
  5
3F3
330
1F
100
AcDbEntity
  8
0-0
  6
Continuous
 62
     3
370
     9
100
AcDbCircle
 10
-308.067626953125
 20
208.5678974873312
 30
0.0
 40
2.000000025774982
100
AcDbArc
 50
90.0
 51
180.0
  0
ARC
  5
3F4
330
1F
100
AcDbEntity
  8
0-0
  6
Continuous
 62
     3
370
     9
100
AcDbCircle
 10
-293.067626953125
 20
208.5678974873312
 30
0.0
 40
2.000000025774982
100
AcDbArc
 50
0.0
 51
90.0
  0
ARC
  5
3F5
330
1F
100
AcDbEntity
  8
0-0
  6
Continuous
 62
     3
370
     9
100
AcDbCircle
 10
-293.067626953125
 20
228.5677655194257
 30
0.0
 40
2.000000025774982
100
AcDbArc
 50
270.0
 51
0.0
  0
ARC
  5
3F6
330
1F
100
AcDbEntity
  8
0-0
  6
Continuous
 62
     3
370
     9
100
AcDbCircle
 10
-308.067626953125
 20
228.5677655194257
 30
0.0
 40
2.000000025774982
100
AcDbArc
 50
180.0
 51
270.0
  0
ARC
  5
3F7
330
1F
100
AcDbEntity
  8
0-0
  6
Continuous
 62
     3
370
     9
100
AcDbCircle
 10
-308.067626953125
 20
258.5679634712839
 30
0.0
 40
2.000000025774982
100
AcDbArc
 50
90.0
 51
180.0
  0
ARC
  5
3F8
330
1F
100
AcDbEntity
  8
0-0
  6
Continuous
 62
     3
370
     9
100
AcDbCircle
 10
-293.067626953125
 20
258.5679634712839
 30
0.0
 40
2.000000025774982
100
AcDbArc
 50
0.0
 51
90.0
  0
ARC
  5
3F9
330
1F
100
AcDbEntity
  8
0-1
  6
Continuous
 62
     2
370
     9
100
AcDbCircle
 10
318.0728066934123
 20
-93.64490735853036
 30
0.0
 40
3.000000038662472
100
AcDbArc
 50
274.2053985595703
 51
0.0
  0
ARC
  5
3FA
330
1F
100
AcDbEntity
  8
0-1
  6
Continuous
 62
     2
370
     9
100
AcDbCircle
 10
319.0728594805744
 20
-110.2258498733108
 30
0.0
 40
3.000000038662472
100
AcDbArc
 50
0.0
 51
85.91398620605469
  0
ARC
  5
3FB
330
1F
100
AcDbEntity
  8
0-1
  6
Continuous
 62
     2
370
     9
100
AcDbCircle
 10
322.0728198902027
 20
-119.5853106524493
 30
0.0
 40
1.000000012887491
100
AcDbArc
 50
180.0
 51
260.5376739501953
  0
ARC
  5
3FC
330
1F
100
AcDbEntity
  8
0-1
  6
Continuous
 62
     2
370
     9
100
AcDbCircle
 10
322.0728198902027
 20
-83.27955421241552
 30
0.0
 40
1.000000012887491
100
AcDbArc
 50
99.46232604980469
 51
180.0
  0
ARC
  5
3FD
330
1F
100
AcDbEntity
  8
0-1
  6
Continuous
 62
     2
370
     9
100
AcDbCircle
 10
288.0728066934123
 20
-104.0013526710304
 30
0.0
 40
1.000000012887491
100
AcDbArc
 50
180.0
 51
265.91357421875
  0
ARC
  5
3FE
330
1F
100
AcDbEntity
  8
0-1
  6
Continuous
 62
     2
370
     9
100
AcDbCircle
 10
288.0728066934123
 20
-99.86168443834458
 30
0.0
 40
1.000000012887491
100
AcDbArc
 50
94.205810546875
 51
180.0
  0
ARC
  5
3FF
330
1F
100
AcDbEntity
  8
0-1
  6
Continuous
 62
     2
370
     9
100
AcDbCircle
 10
-130.5673630173142
 20
-93.93243243243239
 30
0.0
 40
5.000000257749815
100
AcDbArc
 50
270.0
 51
0.0
  0
ARC
  5
400
330
1F
100
AcDbEntity
  8
0-1
  6
Continuous
 62
     2
370
     9
100
AcDbCircle
 10
-124.5672937341639
 20
-99.93245222761823
 30
0.0
 40
5.000000257749815
100
AcDbArc
 50
270.0
 51
0.0
  0
ARC
  5
401
330
1F
100
AcDbEntity
  8
0-1
  6
Continuous
 62
     2
370
     9
100
AcDbCircle
 10
-122.0672607421875
 20
-102.4324852195946
 30
0.0
 40
5.000000257749815
100
AcDbArc
 50
270.0
 51
0.0
  0
ARC
  5
402
330
1F
100
AcDbEntity
  8
0-1
  6
Continuous
 62
     2
370
     9
100
AcDbCircle
 10
-122.067409206081
 20
-102.4324852195946
 30
0.0
 40
19.00000082479941
100
AcDbArc
 50
270.0
 51
0.0
  0
ARC
  5
403
330
1F
100
AcDbEntity
  8
0-1
  6
Continuous
 62
     2
370
     9
100
AcDbCircle
 10
-122.067409206081
 20
-102.4324852195946
 30
0.0
 40
13.00009237753378
100
AcDbArc
 50
270.0
 51
0.0
  0
ARC
  5
404
330
1F
100
AcDbEntity
  8
0-1
  6
Continuous
 62
     2
370
     9
100
AcDbCircle
 10
-130.5673630173142
 20
281.0677655194257
 30
0.0
 40
5.000000257749815
100
AcDbArc
 50
0.0
 51
90.0
  0
ARC
  5
405
330
1F
100
AcDbEntity
  8
0-1
  6
Continuous
 62
     2
370
     9
100
AcDbCircle
 10
-124.5672937341639
 20
287.0676863386825
 30
0.0
 40
5.000000257749815
100
AcDbArc
 50
0.0
 51
90.0
  0
ARC
  5
406
330
1F
100
AcDbEntity
  8
0-1
  6
Continuous
 62
     2
370
     9
100
AcDbCircle
 10
-122.0672607421875
 20
289.5678183065879
 30
0.0
 40
5.000000257749815
100
AcDbArc
 50
0.0
 51
90.0
  0
ARC
  5
407
330
1F
100
AcDbEntity
  8
0-1
  6
Continuous
 62
     2
370
     9
100
AcDbCircle
 10
-122.067409206081
 20
289.5676203547298
 30
0.0
 40
19.00000082479941
100
AcDbArc
 50
0.0
 51
90.0
  0
ARC
  5
408
330
1F
100
AcDbEntity
  8
0-1
  6
Continuous
 62
     2
370
     9
100
AcDbCircle
 10
-122.067409206081
 20
289.5676203547298
 30
0.0
 40
13.00009237753378
100
AcDbArc
 50
0.0
 51
90.0
  0
ARC
  5
409
330
1F
100
AcDbEntity
  8
0-1
  6
Continuous
 62
     2
370
     9
100
AcDbCircle
 10
-505.5673630173142
 20
-93.93243243243239
 30
0.0
 40
5.000000257749815
100
AcDbArc
 50
180.0
 51
270.0
  0
ARC
  5
40A
330
1F
100
AcDbEntity
  8
0-1
  6
Continuous
 62
     2
370
     9
100
AcDbCircle
 10
-511.5673828125
 20
-99.93245222761823
 30
0.0
 40
5.000000257749815
100
AcDbArc
 50
180.0
 51
270.0
  0
ARC
  5
40B
330
1F
100
AcDbEntity
  8
0-1
  6
Continuous
 62
     2
370
     9
100
AcDbCircle
 10
-514.0674158044764
 20
-102.4324852195946
 30
0.0
 40
5.000000257749815
100
AcDbArc
 50
180.0
 51
270.0
  0
ARC
  5
40C
330
1F
100
AcDbEntity
  8
0-1
  6
Continuous
 62
     2
370
     9
100
AcDbCircle
 10
-514.0673168285473
 20
-102.4324852195946
 30
0.0
 40
19.00000082479941
100
AcDbArc
 50
180.0
 51
270.0
  0
ARC
  5
40D
330
1F
100
AcDbEntity
  8
0-1
  6
Continuous
 62
     2
370
     9
100
AcDbCircle
 10
-514.0673168285473
 20
-102.4324852195946
 30
0.0
 40
13.00009237753378
100
AcDbArc
 50
180.0
 51
270.0
  0
ARC
  5
40E
330
1F
100
AcDbEntity
  8
0-1
  6
Continuous
 62
     2
370
     9
100
AcDbCircle
 10
-505.5673630173142
 20
281.0677655194257
 30
0.0
 40
5.000000257749815
100
AcDbArc
 50
90.0
 51
180.0
  0
ARC
  5
40F
330
1F
100
AcDbEntity
  8
0-1
  6
Continuous
 62
     2
370
     9
100
AcDbCircle
 10
-511.5673828125
 20
287.0676863386825
 30
0.0
 40
5.000000257749815
100
AcDbArc
 50
90.0
 51
180.0
  0
ARC
  5
410
330
1F
100
AcDbEntity
  8
0-1
  6
Continuous
 62
     2
370
     9
100
AcDbCircle
 10
-514.0674158044764
 20
289.5678183065879
 30
0.0
 40
5.000000257749815
100
AcDbArc
 50
90.0
 51
180.0
  0
ARC
  5
411
330
1F
100
AcDbEntity
  8
0-1
  6
Continuous
 62
     2
370
     9
100
AcDbCircle
 10
-514.0673168285473
 20
289.5676203547298
 30
0.0
 40
19.00000082479941
100
AcDbArc
 50
90.0
 51
180.0
  0
ARC
  5
412
330
1F
100
AcDbEntity
  8
0-1
  6
Continuous
 62
     2
370
     9
100
AcDbCircle
 10
-514.0673168285473
 20
289.5676203547298
 30
0.0
 40
13.00009237753378
100
AcDbArc
 50
90.0
 51
180.0
  0
ARC
  5
413
330
1F
100
AcDbEntity
  8
0-1
  6
Continuous
 62
     2
370
     9
100
AcDbCircle
 10
318.0728066934123
 20
280.7799435177366
 30
0.0
 40
3.000000038662472
100
AcDbArc
 50
0.0
 51
85.79458618164062
  0
ARC
  5
414
330
1F
100
AcDbEntity
  8
0-1
  6
Continuous
 62
     2
370
     9
100
AcDbCircle
 10
319.0728594805744
 20
297.3611829603041
 30
0.0
 40
3.000000038662472
100
AcDbArc
 50
274.0860137939453
 51
0.0
  0
ARC
  5
415
330
1F
100
AcDbEntity
  8
0-1
  6
Continuous
 62
     2
370
     9
100
AcDbCircle
 10
322.0728198902027
 20
306.7203468116554
 30
0.0
 40
1.000000012887491
100
AcDbArc
 50
99.46232604980463
 51
179.9999999999999
  0
ARC
  5
416
330
1F
100
AcDbEntity
  8
0-1
  6
Continuous
 62
     2
370
     9
100
AcDbCircle
 10
322.0728198902027
 20
270.4147883234798
 30
0.0
 40
1.000000012887491
100
AcDbArc
 50
180.0
 51
260.5376739501953
  0
ARC
  5
417
330
1F
100
AcDbEntity
  8
0-1
  6
Continuous
 62
     2
370
     9
100
AcDbCircle
 10
288.0728066934123
 20
291.1363888302366
 30
0.0
 40
1.000000012887491
100
AcDbArc
 50
94.08642578125
 51
180.0
  0
ARC
  5
418
330
1F
100
AcDbEntity
  8
0-1
  6
Continuous
 62
     2
370
     9
100
AcDbCircle
 10
288.0728066934123
 20
286.9968195734798
 30
0.0
 40
1.000000012887491
100
AcDbArc
 50
180.0
 51
265.794189453125
  0
ARC
  5
419
330
1F
100
AcDbEntity
  8
0-1
  6
Continuous
 62
     2
370
     9
100
AcDbCircle
 10
-122.067409206081
 20
-102.4324852195946
 30
0.0
 40
18.00000061859956
100
AcDbArc
 50
270.0
 51
0.0
  0
ARC
  5
41A
330
1F
100
AcDbEntity
  8
0-1
  6
Continuous
 62
     2
370
     9
100
AcDbCircle
 10
-122.067409206081
 20
289.5676203547298
 30
0.0
 40
18.00000061859956
100
AcDbArc
 50
0.0
 51
90.0
  0
ARC
  5
41B
330
1F
100
AcDbEntity
  8
0-1
  6
Continuous
 62
     2
370
     9
100
AcDbCircle
 10
-514.0673168285473
 20
289.5676203547298
 30
0.0
 40
18.00000061859956
100
AcDbArc
 50
90.0
 51
180.0
  0
ARC
  5
41C
330
1F
100
AcDbEntity
  8
0-1
  6
Continuous
 62
     2
370
     9
100
AcDbCircle
 10
-514.0673168285473
 20
-102.4324852195946
 30
0.0
 40
18.00000061859956
100
AcDbArc
 50
180.0
 51
270.0
  0
ARC
  5
41D
330
1F
100
AcDbEntity
  8
0-1
  6
Continuous
 62
     2
370
     9
100
AcDbCircle
 10
-122.067409206081
 20
-102.4324852195946
 30
0.0
 40
12.00009294458338
100
AcDbArc
 50
270.0
 51
0.0
  0
ARC
  5
41E
330
1F
100
AcDbEntity
  8
0-1
  6
Continuous
 62
     2
370
     9
100
AcDbCircle
 10
-122.067409206081
 20
289.5676203547298
 30
0.0
 40
12.00009294458338
100
AcDbArc
 50
0.0
 51
90.0
  0
ARC
  5
41F
330
1F
100
AcDbEntity
  8
0-1
  6
Continuous
 62
     2
370
     9
100
AcDbCircle
 10
-514.0673168285473
 20
289.5676203547298
 30
0.0
 40
12.00009294458338
100
AcDbArc
 50
90.0
 51
180.0
  0
ARC
  5
420
330
1F
100
AcDbEntity
  8
0-1
  6
Continuous
 62
     2
370
     9
100
AcDbCircle
 10
-514.0673168285473
 20
-102.4324852195946
 30
0.0
 40
12.00009294458338
100
AcDbArc
 50
180.0
 51
270.0
  0
ARC
  5
421
330
1F
100
AcDbEntity
  8
0-1
  6
Continuous
 62
     2
370
     9
100
AcDbCircle
 10
-350.0674685916385
 20
-113.4325709987331
 30
0.0
 40
2.000000025774982
100
AcDbArc
 50
270.0
 51
0.0
  0
ARC
  5
422
330
1F
100
AcDbEntity
  8
0-1
  6
Continuous
 62
     2
370
     9
100
AcDbCircle
 10
-351.0674718908361
 20
-112.4325182115709
 30
0.0
 40
2.000000025774982
100
AcDbArc
 50
270.0
 51
0.0
  0
ARC
  5
423
330
1F
100
AcDbEntity
  8
0-1
  6
Continuous
 62
     2
370
     9
100
AcDbCircle
 10
-351.0674718908361
 20
-109.4325578019426
 30
0.0
 40
2.000000025774982
100
AcDbArc
 50
0.0
 51
90.0
  0
ARC
  5
424
330
1F
100
AcDbEntity
  8
0-1
  6
Continuous
 62
     2
370
     9
100
AcDbCircle
 10
-350.0674685916385
 20
-109.4325578019426
 30
0.0
 40
2.000000025774982
100
AcDbArc
 50
0.0
 51
90.0
  0
ARC
  5
425
330
1F
100
AcDbEntity
  8
0-1
  6
Continuous
 62
     2
370
     9
100
AcDbCircle
 10
-286.0674553948479
 20
-113.4325709987331
 30
0.0
 40
2.000000025774982
100
AcDbArc
 50
180.0
 51
270.0
  0
ARC
  5
426
330
1F
100
AcDbEntity
  8
0-1
  6
Continuous
 62
     2
370
     9
100
AcDbCircle
 10
-285.0674520956503
 20
-112.4325182115709
 30
0.0
 40
2.000000025774982
100
AcDbArc
 50
180.0
 51
270.0
  0
ARC
  5
427
330
1F
100
AcDbEntity
  8
0-1
  6
Continuous
 62
     2
370
     9
100
AcDbCircle
 10
-285.0674520956503
 20
-109.4325578019426
 30
0.0
 40
2.000000025774982
100
AcDbArc
 50
90.0
 51
180.0
  0
ARC
  5
428
330
1F
100
AcDbEntity
  8
0-1
  6
Continuous
 62
     2
370
     9
100
AcDbCircle
 10
-286.0674553948479
 20
-109.4325578019426
 30
0.0
 40
2.000000025774982
100
AcDbArc
 50
90.0
 51
180.0
  0
ARC
  5
429
330
1F
100
AcDbEntity
  8
0-1
  6
Continuous
 62
     2
370
     9
100
AcDbCircle
 10
-286.0674553948479
 20
300.5676071579393
 30
0.0
 40
2.000000025774982
100
AcDbArc
 50
90.0
 51
180.0
  0
ARC
  5
42A
330
1F
100
AcDbEntity
  8
0-1
  6
Continuous
 62
     2
370
     9
100
AcDbCircle
 10
-285.0674520956503
 20
299.5675543707771
 30
0.0
 40
2.000000025774982
100
AcDbArc
 50
90.0
 51
180.0
  0
ARC
  5
42B
330
1F
100
AcDbEntity
  8
0-1
  6
Continuous
 62
     2
370
     9
100
AcDbCircle
 10
-285.0674520956503
 20
296.5677919130068
 30
0.0
 40
2.000000025774982
100
AcDbArc
 50
180.0
 51
270.0
  0
ARC
  5
42C
330
1F
100
AcDbEntity
  8
0-1
  6
Continuous
 62
     2
370
     9
100
AcDbCircle
 10
-286.0674553948479
 20
296.5677919130068
 30
0.0
 40
2.000000025774982
100
AcDbArc
 50
180.0
 51
270.0
  0
ARC
  5
42D
330
1F
100
AcDbEntity
  8
0-1
  6
Continuous
 62
     2
370
     9
100
AcDbCircle
 10
-350.0674685916385
 20
300.5676071579393
 30
0.0
 40
2.000000025774982
100
AcDbArc
 50
0.0
 51
90.0
  0
ARC
  5
42E
330
1F
100
AcDbEntity
  8
0-1
  6
Continuous
 62
     2
370
     9
100
AcDbCircle
 10
-351.0674718908361
 20
299.5675543707771
 30
0.0
 40
2.000000025774982
100
AcDbArc
 50
0.0
 51
90.0
  0
ARC
  5
42F
330
1F
100
AcDbEntity
  8
0-1
  6
Continuous
 62
     2
370
     9
100
AcDbCircle
 10
-351.0674718908361
 20
296.5677919130068
 30
0.0
 40
2.000000025774982
100
AcDbArc
 50
270.0
 51
0.0
  0
ARC
  5
430
330
1F
100
AcDbEntity
  8
0-1
  6
Continuous
 62
     2
370
     9
100
AcDbCircle
 10
-350.0674685916385
 20
296.5677919130068
 30
0.0
 40
2.000000025774982
100
AcDbArc
 50
270.0
 51
0.0
  0
ARC
  5
431
330
1F
100
AcDbEntity
  8
0-1
  6
Continuous
 62
     2
370
     9
100
AcDbCircle
 10
-430.5674619932432
 20
311.0675675675676
 30
0.0
 40
7.5
100
AcDbArc
 50
180.0
 51
0.0
  0
ARC
  5
432
330
1F
100
AcDbEntity
  8
0-1
  6
Continuous
 62
     2
370
     9
100
AcDbCircle
 10
-430.5674619932432
 20
311.0675675675676
 30
0.0
 40
8.500000206199852
100
AcDbArc
 50
180.0
 51
0.0
  0
ARC
  5
433
330
1F
100
AcDbEntity
  8
0-1
  6
Continuous
 62
     2
370
     9
100
AcDbCircle
 10
-441.0674224028716
 20
317.5677127322635
 30
0.0
 40
2.000000025774982
100
AcDbArc
 50
0.0
 51
90.0
  0
ARC
  5
434
330
1F
100
AcDbEntity
  8
0-1
  6
Continuous
 62
     2
370
     9
100
AcDbCircle
 10
-440.0673696157094
 20
318.5675675675676
 30
0.0
 40
2.000000025774982
100
AcDbArc
 50
0.0
 51
90.0
  0
ARC
  5
435
330
1F
100
AcDbEntity
  8
0-1
  6
Continuous
 62
     2
370
     9
100
AcDbCircle
 10
-420.0675015836148
 20
317.5677127322635
 30
0.0
 40
2.000000025774982
100
AcDbArc
 50
90.0
 51
180.0
  0
ARC
  5
436
330
1F
100
AcDbEntity
  8
0-1
  6
Continuous
 62
     2
370
     9
100
AcDbCircle
 10
-421.067455394848
 20
318.5675675675676
 30
0.0
 40
2.000000025774982
100
AcDbArc
 50
90.0
 51
180.0
  0
ARC
  5
437
330
1F
100
AcDbEntity
  8
0-1
  6
Continuous
 62
     2
370
     9
100
AcDbCircle
 10
-411.97265625
 20
317.5677127322635
 30
0.0
 40
2.000000025774982
100
AcDbArc
 50
39.80593872070309
 51
89.99999999999996
  0
ARC
  5
438
330
1F
100
AcDbEntity
  8
0-1
  6
Continuous
 62
     2
370
     9
100
AcDbCircle
 10
-411.5042031777871
 20
318.5675675675676
 30
0.0
 40
2.000000025774982
100
AcDbArc
 50
39.80593872070309
 51
89.99999999999996
  0
ARC
  5
439
330
1F
100
AcDbEntity
  8
0-1
  6
Continuous
 62
     2
370
     9
100
AcDbCircle
 10
-449.1622677364865
 20
317.5677127322635
 30
0.0
 40
2.000000025774982
100
AcDbArc
 50
90.0
 51
140.1940612792968
  0
ARC
  5
43A
330
1F
100
AcDbEntity
  8
0-1
  6
Continuous
 62
     2
370
     9
100
AcDbCircle
 10
-449.6307208086993
 20
318.5675675675676
 30
0.0
 40
2.000000025774982
100
AcDbArc
 50
90.0
 51
140.1940612792968
  0
ARC
  5
43B
330
1F
100
AcDbEntity
  8
0-1
  6
Continuous
 62
     2
370
     9
100
AcDbCircle
 10
-399.6307538006757
 20
310.5677391258447
 30
0.0
 40
2.000000025774982
100
AcDbArc
 50
219.8059387207031
 51
270.0
  0
ARC
  5
43C
330
1F
100
AcDbEntity
  8
0-1
  6
Continuous
 62
     2
370
     9
100
AcDbCircle
 10
-400.0992068728885
 20
309.5676863386825
 30
0.0
 40
2.000000025774982
100
AcDbArc
 50
219.8059387207031
 51
270.0
  0
ARC
  5
43D
330
1F
100
AcDbEntity
  8
0-1
  6
Continuous
 62
     2
370
     9
100
AcDbCircle
 10
-461.5041701858108
 20
310.5677391258447
 30
0.0
 40
2.000000025774982
100
AcDbArc
 50
270.0
 51
320.1940612792969
  0
ARC
  5
43E
330
1F
100
AcDbEntity
  8
0-1
  6
Continuous
 62
     2
370
     9
100
AcDbCircle
 10
-461.035816089527
 20
309.5676863386825
 30
0.0
 40
2.000000025774982
100
AcDbArc
 50
270.0
 51
320.1940612792969
  0
ARC
  5
43F
330
1F
100
AcDbEntity
  8
0-1
  6
Continuous
 62
     2
370
     9
100
AcDbCircle
 10
-462.5675675675676
 20
300.5676071579393
 30
0.0
 40
2.000000025774982
100
AcDbArc
 50
0.0
 51
90.0
  0
ARC
  5
440
330
1F
100
AcDbEntity
  8
0-1
  6
Continuous
 62
     2
370
     9
100
AcDbCircle
 10
-463.5676203547297
 20
299.5675543707771
 30
0.0
 40
2.000000025774982
100
AcDbArc
 50
0.0
 51
90.0
  0
ARC
  5
441
330
1F
100
AcDbEntity
  8
0-1
  6
Continuous
 62
     2
370
     9
100
AcDbCircle
 10
-463.5676203547297
 20
296.5677919130068
 30
0.0
 40
2.000000025774982
100
AcDbArc
 50
270.0
 51
0.0
  0
ARC
  5
442
330
1F
100
AcDbEntity
  8
0-1
  6
Continuous
 62
     2
370
     9
100
AcDbCircle
 10
-462.5675675675676
 20
296.5677919130068
 30
0.0
 40
2.000000025774982
100
AcDbArc
 50
270.0
 51
0.0
  0
ARC
  5
443
330
1F
100
AcDbEntity
  8
0-1
  6
Continuous
 62
     2
370
     9
100
AcDbCircle
 10
-398.567455394848
 20
300.5676071579393
 30
0.0
 40
2.000000025774982
100
AcDbArc
 50
90.0
 51
180.0
  0
ARC
  5
444
330
1F
100
AcDbEntity
  8
0-1
  6
Continuous
 62
     2
370
     9
100
AcDbCircle
 10
-397.5674026076858
 20
299.5675543707771
 30
0.0
 40
2.000000025774982
100
AcDbArc
 50
90.0
 51
180.0
  0
ARC
  5
445
330
1F
100
AcDbEntity
  8
0-1
  6
Continuous
 62
     2
370
     9
100
AcDbCircle
 10
-397.5674026076858
 20
296.5677919130068
 30
0.0
 40
2.000000025774982
100
AcDbArc
 50
180.0
 51
270.0
  0
ARC
  5
446
330
1F
100
AcDbEntity
  8
0-1
  6
Continuous
 62
     2
370
     9
100
AcDbCircle
 10
-398.567455394848
 20
296.5677919130068
 30
0.0
 40
2.000000025774982
100
AcDbArc
 50
180.0
 51
270.0
  0
ARC
  5
447
330
1F
100
AcDbEntity
  8
0-1
  6
Continuous
 62
     2
370
     9
100
AcDbCircle
 10
-205.5674619932432
 20
311.0675675675676
 30
0.0
 40
7.5
100
AcDbArc
 50
180.0
 51
0.0
  0
ARC
  5
448
330
1F
100
AcDbEntity
  8
0-1
  6
Continuous
 62
     2
370
     9
100
AcDbCircle
 10
-205.5674619932432
 20
311.0675675675676
 30
0.0
 40
8.500000206199852
100
AcDbArc
 50
180.0
 51
0.0
  0
ARC
  5
449
330
1F
100
AcDbEntity
  8
0-1
  6
Continuous
 62
     2
370
     9
100
AcDbCircle
 10
-195.0675015836148
 20
317.5677127322635
 30
0.0
 40
2.000000025774982
100
AcDbArc
 50
90.0
 51
180.0
  0
ARC
  5
44A
330
1F
100
AcDbEntity
  8
0-1
  6
Continuous
 62
     2
370
     9
100
AcDbCircle
 10
-196.0674553948479
 20
318.5675675675676
 30
0.0
 40
2.000000025774982
100
AcDbArc
 50
90.0
 51
180.0
  0
ARC
  5
44B
330
1F
100
AcDbEntity
  8
0-1
  6
Continuous
 62
     2
370
     9
100
AcDbCircle
 10
-216.0674224028716
 20
317.5677127322635
 30
0.0
 40
2.000000025774982
100
AcDbArc
 50
0.0
 51
90.0
  0
ARC
  5
44C
330
1F
100
AcDbEntity
  8
0-1
  6
Continuous
 62
     2
370
     9
100
AcDbCircle
 10
-215.0674685916384
 20
318.5675675675676
 30
0.0
 40
2.000000025774982
100
AcDbArc
 50
0.0
 51
90.0
  0
ARC
  5
44D
330
1F
100
AcDbEntity
  8
0-1
  6
Continuous
 62
     2
370
     9
100
AcDbCircle
 10
-224.1622677364865
 20
317.5677127322635
 30
0.0
 40
2.000000025774982
100
AcDbArc
 50
90.0
 51
140.1940612792968
  0
ARC
  5
44E
330
1F
100
AcDbEntity
  8
0-1
  6
Continuous
 62
     2
370
     9
100
AcDbCircle
 10
-224.6307208086993
 20
318.5675675675676
 30
0.0
 40
2.000000025774982
100
AcDbArc
 50
90.0
 51
140.1940612792968
  0
ARC
  5
44F
330
1F
100
AcDbEntity
  8
0-1
  6
Continuous
 62
     2
370
     9
100
AcDbCircle
 10
-186.97265625
 20
317.5677127322635
 30
0.0
 40
2.000000025774982
100
AcDbArc
 50
39.80593872070309
 51
89.99999999999996
  0
ARC
  5
450
330
1F
100
AcDbEntity
  8
0-1
  6
Continuous
 62
     2
370
     9
100
AcDbCircle
 10
-186.5042031777871
 20
318.5675675675676
 30
0.0
 40
2.000000025774982
100
AcDbArc
 50
39.80593872070309
 51
89.99999999999996
  0
ARC
  5
451
330
1F
100
AcDbEntity
  8
0-1
  6
Continuous
 62
     2
370
     9
100
AcDbCircle
 10
-236.5041701858107
 20
310.5677391258447
 30
0.0
 40
2.000000025774982
100
AcDbArc
 50
270.0
 51
320.1940612792969
  0
ARC
  5
452
330
1F
100
AcDbEntity
  8
0-1
  6
Continuous
 62
     2
370
     9
100
AcDbCircle
 10
-236.0357171135979
 20
309.5676863386825
 30
0.0
 40
2.000000025774982
100
AcDbArc
 50
270.0
 51
320.1940612792969
  0
ARC
  5
453
330
1F
100
AcDbEntity
  8
0-1
  6
Continuous
 62
     2
370
     9
100
AcDbCircle
 10
-174.6307538006756
 20
310.5677391258447
 30
0.0
 40
2.000000025774982
100
AcDbArc
 50
219.8059387207031
 51
270.0
  0
ARC
  5
454
330
1F
100
AcDbEntity
  8
0-1
  6
Continuous
 62
     2
370
     9
100
AcDbCircle
 10
-175.0992068728884
 20
309.5676863386825
 30
0.0
 40
2.000000025774982
100
AcDbArc
 50
219.8059387207031
 51
270.0
  0
ARC
  5
455
330
1F
100
AcDbEntity
  8
0-1
  6
Continuous
 62
     2
370
     9
100
AcDbCircle
 10
-173.5674553948479
 20
300.5676071579393
 30
0.0
 40
2.000000025774982
100
AcDbArc
 50
90.0
 51
180.0
  0
ARC
  5
456
330
1F
100
AcDbEntity
  8
0-1
  6
Continuous
 62
     2
370
     9
100
AcDbCircle
 10
-172.5674026076857
 20
299.5675543707771
 30
0.0
 40
2.000000025774982
100
AcDbArc
 50
90.0
 51
180.0
  0
ARC
  5
457
330
1F
100
AcDbEntity
  8
0-1
  6
Continuous
 62
     2
370
     9
100
AcDbCircle
 10
-172.5674026076857
 20
296.5677919130068
 30
0.0
 40
2.000000025774982
100
AcDbArc
 50
180.0
 51
270.0
  0
ARC
  5
458
330
1F
100
AcDbEntity
  8
0-1
  6
Continuous
 62
     2
370
     9
100
AcDbCircle
 10
-173.5674553948479
 20
296.5677919130068
 30
0.0
 40
2.000000025774982
100
AcDbArc
 50
180.0
 51
270.0
  0
ARC
  5
459
330
1F
100
AcDbEntity
  8
0-1
  6
Continuous
 62
     2
370
     9
100
AcDbCircle
 10
-237.5674685916384
 20
300.5676071579393
 30
0.0
 40
2.000000025774982
100
AcDbArc
 50
0.0
 51
90.0
  0
ARC
  5
45A
330
1F
100
AcDbEntity
  8
0-1
  6
Continuous
 62
     2
370
     9
100
AcDbCircle
 10
-238.5675213788006
 20
299.5675543707771
 30
0.0
 40
2.000000025774982
100
AcDbArc
 50
0.0
 51
90.0
  0
ARC
  5
45B
330
1F
100
AcDbEntity
  8
0-1
  6
Continuous
 62
     2
370
     9
100
AcDbCircle
 10
-238.5675213788006
 20
296.5677919130068
 30
0.0
 40
2.000000025774982
100
AcDbArc
 50
270.0
 51
0.0
  0
ARC
  5
45C
330
1F
100
AcDbEntity
  8
0-1
  6
Continuous
 62
     2
370
     9
100
AcDbCircle
 10
-237.5674685916384
 20
296.5677919130068
 30
0.0
 40
2.000000025774982
100
AcDbArc
 50
270.0
 51
0.0
  0
ARC
  5
45D
330
1F
100
AcDbEntity
  8
0-1
  6
Continuous
 62
     2
370
     9
100
AcDbCircle
 10
-430.5674619932432
 20
-123.9324324324324
 30
0.0
 40
7.5
100
AcDbArc
 50
0.0
 51
180.0
  0
ARC
  5
45E
330
1F
100
AcDbEntity
  8
0-1
  6
Continuous
 62
     2
370
     9
100
AcDbCircle
 10
-430.5674619932432
 20
-123.9324324324324
 30
0.0
 40
8.500000206199852
100
AcDbArc
 50
0.0
 51
180.0
  0
ARC
  5
45F
330
1F
100
AcDbEntity
  8
0-1
  6
Continuous
 62
     2
370
     9
100
AcDbCircle
 10
-441.0674224028716
 20
-130.4324786211993
 30
0.0
 40
2.000000025774982
100
AcDbArc
 50
270.0
 51
0.0
  0
ARC
  5
460
330
1F
100
AcDbEntity
  8
0-1
  6
Continuous
 62
     2
370
     9
100
AcDbCircle
 10
-440.0673696157094
 20
-131.4324324324324
 30
0.0
 40
2.000000025774982
100
AcDbArc
 50
270.0
 51
0.0
  0
ARC
  5
461
330
1F
100
AcDbEntity
  8
0-1
  6
Continuous
 62
     2
370
     9
100
AcDbCircle
 10
-420.0675015836148
 20
-130.4324786211993
 30
0.0
 40
2.000000025774982
100
AcDbArc
 50
180.0
 51
270.0
  0
ARC
  5
462
330
1F
100
AcDbEntity
  8
0-1
  6
Continuous
 62
     2
370
     9
100
AcDbCircle
 10
-421.067455394848
 20
-131.4324324324324
 30
0.0
 40
2.000000025774982
100
AcDbArc
 50
180.0
 51
270.0
  0
ARC
  5
463
330
1F
100
AcDbEntity
  8
0-1
  6
Continuous
 62
     2
370
     9
100
AcDbCircle
 10
-411.97265625
 20
-130.4324786211993
 30
0.0
 40
2.000000025774982
100
AcDbArc
 50
270.0
 51
320.1940612792969
  0
ARC
  5
464
330
1F
100
AcDbEntity
  8
0-1
  6
Continuous
 62
     2
370
     9
100
AcDbCircle
 10
-411.5042031777871
 20
-131.4324324324324
 30
0.0
 40
2.000000025774982
100
AcDbArc
 50
270.0
 51
320.1940612792969
  0
ARC
  5
465
330
1F
100
AcDbEntity
  8
0-1
  6
Continuous
 62
     2
370
     9
100
AcDbCircle
 10
-449.1622677364865
 20
-130.4324786211993
 30
0.0
 40
2.000000025774982
100
AcDbArc
 50
219.8059387207031
 51
269.9999999999999
  0
ARC
  5
466
330
1F
100
AcDbEntity
  8
0-1
  6
Continuous
 62
     2
370
     9
100
AcDbCircle
 10
-449.6307208086993
 20
-131.4324324324324
 30
0.0
 40
2.000000025774982
100
AcDbArc
 50
219.8059387207031
 51
269.9999999999999
  0
ARC
  5
467
330
1F
100
AcDbEntity
  8
0-1
  6
Continuous
 62
     2
370
     9
100
AcDbCircle
 10
-399.6307538006757
 20
-123.4325050147804
 30
0.0
 40
2.000000025774982
100
AcDbArc
 50
90.0
 51
140.1940612792968
  0
ARC
  5
468
330
1F
100
AcDbEntity
  8
0-1
  6
Continuous
 62
     2
370
     9
100
AcDbCircle
 10
-400.0992068728885
 20
-122.4325512035473
 30
0.0
 40
2.000000025774982
100
AcDbArc
 50
90.0
 51
140.1940612792968
  0
ARC
  5
469
330
1F
100
AcDbEntity
  8
0-1
  6
Continuous
 62
     2
370
     9
100
AcDbCircle
 10
-461.5041701858108
 20
-123.4325050147804
 30
0.0
 40
2.000000025774982
100
AcDbArc
 50
39.80593872070312
 51
89.99999999999999
  0
ARC
  5
46A
330
1F
100
AcDbEntity
  8
0-1
  6
Continuous
 62
     2
370
     9
100
AcDbCircle
 10
-461.035816089527
 20
-122.4325512035473
 30
0.0
 40
2.000000025774982
100
AcDbArc
 50
39.80593872070312
 51
89.99999999999999
  0
ARC
  5
46B
330
1F
100
AcDbEntity
  8
0-1
  6
Continuous
 62
     2
370
     9
100
AcDbCircle
 10
-462.5675675675676
 20
-113.4325709987331
 30
0.0
 40
2.000000025774982
100
AcDbArc
 50
270.0
 51
0.0
  0
ARC
  5
46C
330
1F
100
AcDbEntity
  8
0-1
  6
Continuous
 62
     2
370
     9
100
AcDbCircle
 10
-463.5676203547297
 20
-112.4325182115709
 30
0.0
 40
2.000000025774982
100
AcDbArc
 50
270.0
 51
0.0
  0
ARC
  5
46D
330
1F
100
AcDbEntity
  8
0-1
  6
Continuous
 62
     2
370
     9
100
AcDbCircle
 10
-463.5676203547297
 20
-109.4325578019426
 30
0.0
 40
2.000000025774982
100
AcDbArc
 50
0.0
 51
90.0
  0
ARC
  5
46E
330
1F
100
AcDbEntity
  8
0-1
  6
Continuous
 62
     2
370
     9
100
AcDbCircle
 10
-462.5675675675676
 20
-109.4325578019426
 30
0.0
 40
2.000000025774982
100
AcDbArc
 50
0.0
 51
90.0
  0
ARC
  5
46F
330
1F
100
AcDbEntity
  8
0-1
  6
Continuous
 62
     2
370
     9
100
AcDbCircle
 10
-398.567455394848
 20
-113.4325709987331
 30
0.0
 40
2.000000025774982
100
AcDbArc
 50
180.0
 51
270.0
  0
ARC
  5
470
330
1F
100
AcDbEntity
  8
0-1
  6
Continuous
 62
     2
370
     9
100
AcDbCircle
 10
-397.5674026076858
 20
-112.4325182115709
 30
0.0
 40
2.000000025774982
100
AcDbArc
 50
180.0
 51
270.0
  0
ARC
  5
471
330
1F
100
AcDbEntity
  8
0-1
  6
Continuous
 62
     2
370
     9
100
AcDbCircle
 10
-397.5674026076858
 20
-109.4325578019426
 30
0.0
 40
2.000000025774982
100
AcDbArc
 50
90.0
 51
180.0
  0
ARC
  5
472
330
1F
100
AcDbEntity
  8
0-1
  6
Continuous
 62
     2
370
     9
100
AcDbCircle
 10
-398.567455394848
 20
-109.4325578019426
 30
0.0
 40
2.000000025774982
100
AcDbArc
 50
90.0
 51
180.0
  0
ARC
  5
473
330
1F
100
AcDbEntity
  8
0-1
  6
Continuous
 62
     2
370
     9
100
AcDbCircle
 10
-205.5674619932432
 20
-123.9324324324324
 30
0.0
 40
7.5
100
AcDbArc
 50
0.0
 51
180.0
  0
ARC
  5
474
330
1F
100
AcDbEntity
  8
0-1
  6
Continuous
 62
     2
370
     9
100
AcDbCircle
 10
-205.5674619932432
 20
-123.9324324324324
 30
0.0
 40
8.500000206199852
100
AcDbArc
 50
0.0
 51
180.0
  0
ARC
  5
475
330
1F
100
AcDbEntity
  8
0-1
  6
Continuous
 62
     2
370
     9
100
AcDbCircle
 10
-195.0675015836148
 20
-130.4324786211993
 30
0.0
 40
2.000000025774982
100
AcDbArc
 50
180.0
 51
270.0
  0
ARC
  5
476
330
1F
100
AcDbEntity
  8
0-1
  6
Continuous
 62
     2
370
     9
100
AcDbCircle
 10
-196.0674553948479
 20
-131.4324324324324
 30
0.0
 40
2.000000025774982
100
AcDbArc
 50
180.0
 51
270.0
  0
ARC
  5
477
330
1F
100
AcDbEntity
  8
0-1
  6
Continuous
 62
     2
370
     9
100
AcDbCircle
 10
-216.0674224028716
 20
-130.4324786211993
 30
0.0
 40
2.000000025774982
100
AcDbArc
 50
270.0
 51
0.0
  0
ARC
  5
478
330
1F
100
AcDbEntity
  8
0-1
  6
Continuous
 62
     2
370
     9
100
AcDbCircle
 10
-215.0674685916384
 20
-131.4324324324324
 30
0.0
 40
2.000000025774982
100
AcDbArc
 50
270.0
 51
0.0
  0
ARC
  5
479
330
1F
100
AcDbEntity
  8
0-1
  6
Continuous
 62
     2
370
     9
100
AcDbCircle
 10
-224.1622677364865
 20
-130.4324786211993
 30
0.0
 40
2.000000025774982
100
AcDbArc
 50
219.8059387207031
 51
269.9999999999999
  0
ARC
  5
47A
330
1F
100
AcDbEntity
  8
0-1
  6
Continuous
 62
     2
370
     9
100
AcDbCircle
 10
-224.6307208086993
 20
-131.4324324324324
 30
0.0
 40
2.000000025774982
100
AcDbArc
 50
219.8059387207031
 51
269.9999999999999
  0
ARC
  5
47B
330
1F
100
AcDbEntity
  8
0-1
  6
Continuous
 62
     2
370
     9
100
AcDbCircle
 10
-186.97265625
 20
-130.4324786211993
 30
0.0
 40
2.000000025774982
100
AcDbArc
 50
270.0
 51
320.1940612792969
  0
ARC
  5
47C
330
1F
100
AcDbEntity
  8
0-1
  6
Continuous
 62
     2
370
     9
100
AcDbCircle
 10
-186.5042031777871
 20
-131.4324324324324
 30
0.0
 40
2.000000025774982
100
AcDbArc
 50
270.0
 51
320.1940612792969
  0
ARC
  5
47D
330
1F
100
AcDbEntity
  8
0-1
  6
Continuous
 62
     2
370
     9
100
AcDbCircle
 10
-236.5041701858107
 20
-123.4325050147804
 30
0.0
 40
2.000000025774982
100
AcDbArc
 50
39.80593872070312
 51
89.99999999999999
  0
ARC
  5
47E
330
1F
100
AcDbEntity
  8
0-1
  6
Continuous
 62
     2
370
     9
100
AcDbCircle
 10
-236.0357171135979
 20
-122.4325512035473
 30
0.0
 40
2.000000025774982
100
AcDbArc
 50
39.80593872070312
 51
89.99999999999999
  0
ARC
  5
47F
330
1F
100
AcDbEntity
  8
0-1
  6
Continuous
 62
     2
370
     9
100
AcDbCircle
 10
-174.6307538006756
 20
-123.4325050147804
 30
0.0
 40
2.000000025774982
100
AcDbArc
 50
90.0
 51
140.1940612792968
  0
ARC
  5
480
330
1F
100
AcDbEntity
  8
0-1
  6
Continuous
 62
     2
370
     9
100
AcDbCircle
 10
-175.0992068728884
 20
-122.4325512035473
 30
0.0
 40
2.000000025774982
100
AcDbArc
 50
90.0
 51
140.1940612792968
  0
ARC
  5
481
330
1F
100
AcDbEntity
  8
0-1
  6
Continuous
 62
     2
370
     9
100
AcDbCircle
 10
-173.5674553948479
 20
-113.4325709987331
 30
0.0
 40
2.000000025774982
100
AcDbArc
 50
180.0
 51
270.0
  0
ARC
  5
482
330
1F
100
AcDbEntity
  8
0-1
  6
Continuous
 62
     2
370
     9
100
AcDbCircle
 10
-172.5674026076857
 20
-112.4325182115709
 30
0.0
 40
2.000000025774982
100
AcDbArc
 50
180.0
 51
270.0
  0
ARC
  5
483
330
1F
100
AcDbEntity
  8
0-1
  6
Continuous
 62
     2
370
     9
100
AcDbCircle
 10
-172.5674026076857
 20
-109.4325578019426
 30
0.0
 40
2.000000025774982
100
AcDbArc
 50
90.0
 51
180.0
  0
ARC
  5
484
330
1F
100
AcDbEntity
  8
0-1
  6
Continuous
 62
     2
370
     9
100
AcDbCircle
 10
-173.5674553948479
 20
-109.4325578019426
 30
0.0
 40
2.000000025774982
100
AcDbArc
 50
90.0
 51
180.0
  0
ARC
  5
485
330
1F
100
AcDbEntity
  8
0-1
  6
Continuous
 62
     2
370
     9
100
AcDbCircle
 10
-237.5674685916384
 20
-113.4325709987331
 30
0.0
 40
2.000000025774982
100
AcDbArc
 50
270.0
 51
0.0
  0
ARC
  5
486
330
1F
100
AcDbEntity
  8
0-1
  6
Continuous
 62
     2
370
     9
100
AcDbCircle
 10
-238.5675213788006
 20
-112.4325182115709
 30
0.0
 40
2.000000025774982
100
AcDbArc
 50
270.0
 51
0.0
  0
ARC
  5
487
330
1F
100
AcDbEntity
  8
0-1
  6
Continuous
 62
     2
370
     9
100
AcDbCircle
 10
-238.5675213788006
 20
-109.4325578019426
 30
0.0
 40
2.000000025774982
100
AcDbArc
 50
0.0
 51
90.0
  0
ARC
  5
488
330
1F
100
AcDbEntity
  8
0-1
  6
Continuous
 62
     2
370
     9
100
AcDbCircle
 10
-237.5674685916384
 20
-109.4325578019426
 30
0.0
 40
2.000000025774982
100
AcDbArc
 50
0.0
 51
90.0
  0
TEXT
  5
489
330
1F
100
AcDbEntity
  8
F-E
  6
Continuous
 62
     2
370
     9
100
AcDbText
 10
349.3663297086149
 20
-345.2950748785895
 30
0.0
 40
12.192
  1
仕様
 41
1.0625
  7
ＭＳ ゴシック
100
AcDbText
  0
TEXT
  5
48A
330
1F
100
AcDbEntity
  8
F-E
  6
Continuous
 62
     2
370
     9
100
AcDbText
 10
349.3663079478773
 20
-369.2951540593464
 30
0.0
 40
12.192
  1
適応荷重：Ｔ－２
 50
0.0000499199311839
 41
1.109375
  7
ＭＳ ゴシック
100
AcDbText
  0
TEXT
  5
48B
330
1F
100
AcDbEntity
  8
F-E
  6
Continuous
 62
     2
370
     9
100
AcDbText
 10
349.3663495038007
 20
-417.29510209697
 30
0.0
 40
12.192
  1
接触圧子：φ１５０ｍｍ
 41
1.113636363636364
  7
ＭＳ ゴシック
100
AcDbText
  0
TEXT
  5
48C
330
1F
100
AcDbEntity
  8
F-E
  6
Continuous
 62
     2
370
     9
100
AcDbText
 10
349.3663000158361
 20
-393.2951218921559
 30
0.0
 40
12.192
  1
破壊荷重：２０ｋＮ（２，０４１ｋｇｆ）以上
 41
1.119047619047619
  7
ＭＳ ゴシック
100
AcDbText
  0
TEXT
  5
48D
330
1F
100
AcDbEntity
  8
0-5
  6
Continuous
 62
     4
370
     9
100
AcDbText
 10
-345.5674372492609
 20
-117.583335620777
 30
0.0
 40
7.620000000000001
  1
Ｋ
 41
0.9999999999999998
  7
ＭＳ ゴシック
100
AcDbText
  0
TEXT
  5
48E
330
1F
100
AcDbEntity
  8
0-5
  6
Continuous
 62
     4
370
     9
100
AcDbText
 10
-336.5674570444468
 20
-117.583335620777
 30
0.0
 40
7.620000000000001
  1
Ａ
 41
0.9999999999999998
  7
ＭＳ ゴシック
100
AcDbText
  0
TEXT
  5
48F
330
1F
100
AcDbEntity
  8
0-5
  6
Continuous
 62
     4
370
     9
100
AcDbText
 10
-327.5674273516681
 20
-117.583335620777
 30
0.0
 40
7.620000000000001
  1
Ｎ
 41
0.9999999999999998
  7
ＭＳ ゴシック
100
AcDbText
  0
TEXT
  5
490
330
1F
100
AcDbEntity
  8
0-5
  6
Continuous
 62
     4
370
     9
100
AcDbText
 10
-318.5675461227829
 20
-117.583335620777
 30
0.0
 40
7.620000000000001
  1
Ｅ
 41
0.9999999999999998
  7
ＭＳ ゴシック
100
AcDbText
  0
TEXT
  5
491
330
1F
100
AcDbEntity
  8
0-5
  6
Continuous
 62
     4
370
     9
100
AcDbText
 10
-309.5675164300042
 20
-117.583335620777
 30
0.0
 40
7.620000000000001
  1
Ｓ
 41
0.9999999999999998
  7
ＭＳ ゴシック
100
AcDbText
  0
TEXT
  5
492
330
1F
100
AcDbEntity
  8
0-5
  6
Continuous
 62
     4
370
     9
100
AcDbText
 10
-300.5674867372255
 20
-117.583335620777
 30
0.0
 40
7.620000000000001
  1
Ｏ
 41
0.9999999999999998
  7
ＭＳ ゴシック
100
AcDbText
  0
TEXT
  5
493
330
1F
100
AcDbEntity
  8
0-5
  6
Continuous
 62
     4
370
     9
100
AcDbText
 10
-289.5674833147617
 20
304.7184711930261
 30
0.0
 40
7.620000000000001
  1
Ｇ
 50
180.0000050089563
 41
0.999999999999998
  7
ＭＳ ゴシック
100
AcDbText
  0
TEXT
  5
494
330
1F
100
AcDbEntity
  8
0-5
  6
Continuous
 62
     4
370
     9
100
AcDbText
 10
-298.5674635195759
 20
304.7184711930261
 30
0.0
 40
7.620000000000001
  1
Ｃ
 50
180.0000050089563
 41
0.999999999999998
  7
ＭＳ ゴシック
100
AcDbText
  0
TEXT
  5
495
330
1F
100
AcDbEntity
  8
0-5
  6
Continuous
 62
     4
370
     9
100
AcDbText
 10
-307.5675427003191
 20
304.7184711930261
 30
0.0
 40
7.620000000000001
  1
Ｄ
 50
180.0000050089563
 41
0.999999999999998
  7
ＭＳ ゴシック
100
AcDbText
  0
TEXT
  5
496
330
1F
100
AcDbEntity
  8
0-5
  6
Continuous
 62
     4
370
     9
100
AcDbText
 10
-327.5674602203782
 20
304.7184711930261
 30
0.0
 40
7.620000000000001
  1
５
 50
180.0000050089563
 41
0.999999999999998
  7
ＭＳ ゴシック
100
AcDbText
  0
TEXT
  5
497
330
1F
100
AcDbEntity
  8
0-4
  6
Continuous
 62
     2
370
     9
100
AcDbText
 10
219.4017813959508
 20
274.8176268545122
 30
0.0
 40
12.192
  1
8.5
 50
90.00000250447816
 41
1.083333333333334
  7
ＭＳ ゴシック
100
AcDbText
  0
TEXT
  5
498
330
1F
100
AcDbEntity
  8
0-4
  6
Continuous
 62
     2
370
     9
100
AcDbText
 10
219.4017813959508
 20
-113.6824919166027
 30
0.0
 40
12.192
  1
8.5
 50
90.00000250447816
 41
1.083333333333333
  7
ＭＳ ゴシック
100
AcDbText
  0
TEXT
  5
499
330
1F
100
AcDbEntity
  8
0-4
  6
Continuous
 62
     2
370
     9
100
AcDbText
 10
-3.198448228204637
 20
80.56756746895472
 30
0.0
 40
12.192
  1
435
 50
90.00000250447816
 41
1.083333333333333
  7
ＭＳ ゴシック
100
AcDbText
  0
TEXT
  5
49A
330
1F
100
AcDbEntity
  8
0-4
  6
Continuous
 62
     2
370
     9
100
AcDbText
 10
-78.81422716751568
 20
160.0679138847064
 30
0.0
 40
12.192
  1
16
 50
90.00000250447816
 41
1.062499999999999
  7
ＭＳ ゴシック
100
AcDbText
  0
TEXT
  5
49B
330
1F
100
AcDbEntity
  8
0-4
  6
Continuous
 62
     2
370
     9
100
AcDbText
 10
-78.81422716751568
 20
185.0678479007537
 30
0.0
 40
12.192
  1
34
 50
90.00000250447816
 41
1.062499999999999
  7
ＭＳ ゴシック
100
AcDbText
  0
TEXT
  5
49C
330
1F
100
AcDbEntity
  8
0-4
  6
Continuous
 62
     2
370
     9
100
AcDbText
 10
265.129991686022
 20
203.9949542863176
 30
0.0
 40
12.192
  1
12
 41
1.0625
  7
ＭＳ ゴシック
100
AcDbText
  0
TEXT
  5
49D
330
1F
100
AcDbEntity
  8
0-4
  6
Continuous
 62
     2
370
     9
100
AcDbText
 10
183.4663928824372
 20
80.56756746895472
 30
0.0
 40
12.192
  1
430
 50
90.00000250447816
 41
1.083333333333333
  7
ＭＳ ゴシック
100
AcDbText
  0
TEXT
  5
49E
330
1F
100
AcDbEntity
  8
0-4
  6
Continuous
 62
     2
370
     9
100
AcDbText
 10
219.4019793478089
 20
80.56756746895472
 30
0.0
 40
12.192
  1
380
 50
90.00000250447816
 41
1.083333333333333
  7
ＭＳ ゴシック
100
AcDbText
  0
TEXT
  5
49F
330
1F
100
AcDbEntity
  8
0-4
  6
Continuous
 62
     2
370
     9
100
AcDbText
 10
375.2387878359846
 20
80.56756746895472
 30
0.0
 40
12.192
  1
350
 50
90.00000250447816
 41
1.083333333333333
  7
ＭＳ ゴシック
100
AcDbText
  0
TEXT
  5
4A0
330
1F
100
AcDbEntity
  8
0-F
  6
Continuous
 62
     2
370
     9
100
AcDbText
 10
295.573007944468
 20
-168.9727729624155
 30
0.0
 40
12.192
  1
34
 41
1.0625
  7
ＭＳ ゴシック
100
AcDbText
  0
TEXT
  5
4A1
330
1F
100
AcDbEntity
  8
0-F
  6
Continuous
 62
     2
370
     9
100
AcDbText
 10
298.5729683540964
 20
-208.6374755067567
 30
0.0
 40
12.192
  1
40
 41
1.0625
  7
ＭＳ ゴシック
100
AcDbText
  0
TEXT
  5
4A2
330
1F
100
AcDbEntity
  8
0-4
  6
Continuous
 62
     2
370
     9
100
AcDbText
 10
-39.52731554767244
 20
80.56756746895472
 30
0.0
 40
12.192
  1
430
 50
90.00000250447816
 41
1.083333333333333
  7
ＭＳ ゴシック
100
AcDbText
  0
TEXT
  5
4A3
330
1F
100
AcDbEntity
  8
0-4
  6
Continuous
 62
     2
370
     9
100
AcDbText
 10
-331.0674705812188
 20
-204.3009441512249
 30
0.0
 40
12.192
  1
225
 50
0.0002181117696755
 41
1.083333333333334
  7
ＭＳ ゴシック
100
AcDbText
  0
TEXT
  5
4A4
330
1F
100
AcDbEntity
  8
0-F
  6
Continuous
 62
     2
370
     9
100
AcDbText
 10
-214.0674619932432
 20
362.8445900548986
 30
0.0
 40
12.192
  1
15
 41
1.0625
  7
ＭＳ ゴシック
100
AcDbText
  0
TEXT
  5
4A5
330
1F
100
AcDbEntity
  8
0-F
  6
Continuous
 62
     2
370
     9
100
AcDbText
 10
-259.1506958383349
 20
332.9622339860578
 30
0.0
 40
12.192
  1
17
 50
90.00000250447816
 41
1.062500000000001
  7
ＭＳ ゴシック
100
AcDbText
  0
TEXT
  5
4A6
330
1F
100
AcDbEntity
  8
0-4
  6
Continuous
 62
     2
370
     9
100
AcDbText
 10
-303.3134633657094
 20
-172.8802436655405
 30
0.0
 40
12.192
  1
19
 41
1.0625
  7
ＭＳ ゴシック
100
AcDbText
  0
TEXT
  5
4A7
330
1F
100
AcDbEntity
  8
0-4
  6
Continuous
 62
     2
370
     9
100
AcDbText
 10
-232.2579015783361
 20
-172.8802436655405
 30
0.0
 40
12.192
  1
16
 41
1.0625
  7
ＭＳ ゴシック
100
AcDbText
  0
TEXT
  5
4A8
330
1F
100
AcDbEntity
  8
F-E
  6
Continuous
 62
     2
370
     9
100
AcDbText
 10
349.3663099134291
 20
-441.2950823017842
 30
0.0
 40
12.192
  1
標準質量：１８.３ｋｇ
 41
1.113095238095238
  7
ＭＳ ゴシック
100
AcDbText
  0
TEXT
  5
4A9
330
1F
100
AcDbEntity
  8
F-5
  6
Continuous
 62
     3
370
     9
100
AcDbText
 10
-321.9548207875844
 20
-540.8444655167864
 30
0.0
 40
12.192
  1
格子型　集水桝　受枠付　鋳鉄製みぞ蓋　　ＧＣＤ－２－３５０
 41
0.9956896551724138
  7
ＭＳ ゴシック
100
AcDbText
  0
TEXT
  5
4AA
330
1F
100
AcDbEntity
  8
0-5
  6
Continuous
 62
     4
370
     9
100
AcDbText
 10
-318.5674800155641
 20
304.7184711930261
 30
0.0
 40
7.620000000000001
  1
３
 50
180.0000050089563
 41
0.999999999999998
  7
ＭＳ ゴシック
100
AcDbText
  0
TEXT
  5
4AB
330
1F
100
AcDbEntity
  8
0-5
  6
Continuous
 62
     4
370
     9
100
AcDbText
 10
-336.5675394011215
 20
304.7184711930261
 30
0.0
 40
7.620000000000001
  1
０
 50
180.0000050089563
 41
0.999999999999998
  7
ＭＳ ゴシック
100
AcDbText
  0
LWPOLYLINE
  5
4AC
330
1F
100
AcDbEntity
  8
0-4
  6
Continuous
 62
     7
370
     9
100
AcDbPolyline
 90
        4
 70
     1
 43
0.4
 10
-255.867653346706
 20
-177.5362119932432
 42
0.4142135623731
 10
-256.067653346706
 20
-177.3362119932432
 42
0.4142135623731
 10
-256.267653346706
 20
-177.5362119932432
 42
0.4142135623731
 10
-256.067653346706
 20
-177.7362119932432
 42
0.4142135623731
  0
TEXT
  5
4AD
330
1F
100
AcDbEntity
  8
0-F
  6
Continuous
 62
     7
370
     9
100
AcDbText
 10
102.9158152991511
 20
397.5099430166567
 30
0.0
 40
9.144
  1
蓋：ＦＣ２００
 41
1.142857142857143
  7
ＭＳ ゴシック
100
AcDbText
  0
TEXT
  5
4AE
330
1F
100
AcDbEntity
  8
0-F
  6
Continuous
 62
     7
370
     9
100
AcDbText
 10
117.659455327006
 20
379.9104623574264
 30
0.0
 40
9.144
  1
樹脂系塗装
 41
1.133333333333333
  7
ＭＳ ゴシック
100
AcDbText
  0
TEXT
  5
4AF
330
1F
100
AcDbEntity
  8
0-F
  6
Continuous
 62
     7
370
     9
100
AcDbText
 10
381.0392637190125
 20
405.9082954784619
 30
0.0
 40
9.144
  1
受枠：ＦＣ２００
 41
1.145833333333333
  7
ＭＳ ゴシック
100
AcDbText
  0
TEXT
  5
4B0
330
1F
100
AcDbEntity
  8
0-F
  6
Continuous
 62
     7
370
     9
100
AcDbText
 10
404.4985940276364
 20
386.5410692980489
 30
0.0
 40
9.144
  1
樹脂系塗装
 41
1.133333333333333
  7
ＭＳ ゴシック
100
AcDbText
  0
LINE
  5
4B1
330
1F
100
AcDbEntity
  8
0-F
  6
Continuous
 62
     7
370
     9
100
AcDbLine
 10
488.6074490658478
 20
400.1698558910474
 30
0.0
 11
379.7247149493244
 21
400.1698558910474
 31
0.0
  0
LINE
  5
4B2
330
1F
100
AcDbEntity
  8
0-F
  6
Continuous
 62
     7
370
     9
100
AcDbLine
 10
99.70202800821798
 20
392.8317805109798
 30
0.0
 11
199.8310150971283
 21
392.8317805109798
 31
0.0
  0
ENDSEC
  0
SECTION
  2
OBJECTS
  0
DICTIONARY
  5
C
330
0
100
AcDbDictionary
281
     1
  3
ACAD_GROUP
350
D
  3
ACAD_LAYOUT
350
1A
  3
ACAD_MLEADERSTYLE
350
4B4
  3
ACAD_MLINESTYLE
350
17
  3
ACAD_PLOTSETTINGS
350
19
  3
ACAD_PLOTSTYLENAME
350
E
  3
ACAD_TABLESTYLE
350
4B3
  3
ACAD_VISUALSTYLE
350
2A
  0
DICTIONARY
  5
D
102
{ACAD_REACTORS
330
C
102
}
330
C
100
AcDbDictionary
281
     1
  0
DICTIONARY
  5
1A
102
{ACAD_REACTORS
330
C
102
}
330
C
100
AcDbDictionary
281
     1
  3
Layout1
350
1E
  3
Layout2
350
26
  3
Model
350
22
  0
DICTIONARY
  5
4B4
102
{ACAD_REACTORS
330
C
102
}
330
C
100
AcDbDictionary
281
     1
  0
DICTIONARY
  5
17
102
{ACAD_REACTORS
330
C
102
}
330
C
100
AcDbDictionary
281
     1
  3
Standard
350
18
  0
DICTIONARY
  5
19
102
{ACAD_REACTORS
330
C
102
}
330
C
100
AcDbDictionary
281
     1
  0
ACDBDICTIONARYWDFLT
  5
E
102
{ACAD_REACTORS
330
C
102
}
330
C
100
AcDbDictionary
281
     1
  3
Normal
350
F
100
AcDbDictionaryWithDefault
340
F
  0
DICTIONARY
  5
4B3
102
{ACAD_REACTORS
330
C
102
}
330
C
100
AcDbDictionary
281
     1
  0
DICTIONARY
  5
2A
102
{ACAD_REACTORS
330
C
102
}
330
C
100
AcDbDictionary
281
     1
  3
2dWireframe
350
2F
  3
3D Hidden
350
31
  3
3dWireframe
350
30
  3
Basic
350
32
  3
Brighten
350
36
  3
ColorChange
350
3A
  3
Conceptual
350
34
  3
Dim
350
35
  3
Facepattern
350
39
  3
Flat
350
2B
  3
FlatWithEdges
350
2C
  3
Gouraud
350
2D
  3
GouraudWithEdges
350
2E
  3
Linepattern
350
38
  3
Realistic
350
33
  3
Thicken
350
37
  0
LAYOUT
  5
1E
102
{ACAD_REACTORS
330
1A
102
}
330
1A
100
AcDbPlotSettings
  1

  2
none_device
  4

  6

 40
0.0
 41
0.0
 42
0.0
 43
0.0
 44
0.0
 45
0.0
 46
0.0
 47
0.0
 48
0.0
 49
0.0
140
0.0
141
0.0
142
1.0
143
1.0
 70
   688
 72
     0
 73
     0
 74
     5
  7

 75
    16
 76
     0
 77
     5
 78
   300
147
1.0
148
0.0
149
0.0
100
AcDbLayout
  1
Layout1
 70
     1
 71
     1
 10
0.0
 20
0.0
 11
420.0
 21
297.0
 12
0.0
 22
0.0
 32
0.0
 14
1.000000000000000E+20
 24
1.000000000000000E+20
 34
1.000000000000000E+20
 15
-1.000000000000000E+20
 25
-1.000000000000000E+20
 35
-1.000000000000000E+20
146
0.0
 13
0.0
 23
0.0
 33
0.0
 16
1.0
 26
0.0
 36
0.0
 17
0.0
 27
1.0
 37
0.0
 76
     0
330
1B
  0
LAYOUT
  5
26
102
{ACAD_REACTORS
330
1A
102
}
330
1A
100
AcDbPlotSettings
  1

  2
none_device
  4

  6

 40
0.0
 41
0.0
 42
0.0
 43
0.0
 44
0.0
 45
0.0
 46
0.0
 47
0.0
 48
0.0
 49
0.0
140
0.0
141
0.0
142
1.0
143
1.0
 70
   688
 72
     0
 73
     0
 74
     5
  7

 75
    16
 76
     0
 77
     5
 78
   300
147
1.0
148
0.0
149
0.0
100
AcDbLayout
  1
Layout2
 70
     1
 71
     2
 10
0.0
 20
0.0
 11
0.0
 21
0.0
 12
0.0
 22
0.0
 32
0.0
 14
0.0
 24
0.0
 34
0.0
 15
0.0
 25
0.0
 35
0.0
146
0.0
 13
0.0
 23
0.0
 33
0.0
 16
1.0
 26
0.0
 36
0.0
 17
0.0
 27
1.0
 37
0.0
 76
     0
330
23
  0
LAYOUT
  5
22
102
{ACAD_REACTORS
330
1A
102
}
330
1A
100
AcDbPlotSettings
  1

  2
none_device
  4

  6

 40
0.0
 41
0.0
 42
0.0
 43
0.0
 44
0.0
 45
0.0
 46
0.0
 47
0.0
 48
0.0
 49
0.0
140
0.0
141
0.0
142
1.0
143
1.0
 70
  1712
 72
     0
 73
     0
 74
     0
  7

 75
     0
 76
     0
 77
     5
 78
   300
147
1.0
148
0.0
149
0.0
100
AcDbLayout
  1
Model
 70
     1
 71
     0
 10
-840.0
 20
-594.0
 11
840.0
 21
594.0
 12
0.0
 22
0.0
 32
0.0
 14
-840.0
 24
-594.0
 34
0.0
 15
840.0
 25
594.0
 35
0.0
146
0.0
 13
0.0
 23
0.0
 33
0.0
 16
1.0
 26
0.0
 36
0.0
 17
0.0
 27
1.0
 37
0.0
 76
     0
330
1F
331
29
  0
MLINESTYLE
  5
18
102
{ACAD_REACTORS
330
17
102
}
330
17
100
AcDbMlineStyle
  2
Standard
 70
     0
  3

 62
   256
 51
90.0
 52
90.0
 71
     2
 49
0.5
 62
   256
  6
BYLAYER
 49
-0.5
 62
   256
  6
BYLAYER
  0
ACDBPLACEHOLDER
  5
F
102
{ACAD_REACTORS
330
E
102
}
330
E
  0
VISUALSTYLE
  5
2F
102
{ACAD_REACTORS
330
2A
102
}
330
2A
100
AcDbVisualStyle
  2
2dWireframe
 70
     4
 71
     0
 72
     2
 73
     0
 90
        0
 40
-0.6
 41
-30.0
 62
     5
 63
     7
421
 16777215
 74
     1
 91
        4
 64
     7
 65
   257
 75
     1
175
     1
 42
1.0
 92
        0
 66
   257
 43
1.0
 76
     1
 77
     6
 78
     2
 67
     7
 79
     5
170
     0
171
     0
290
     0
174
     0
 93
        1
 44
0.0
173
     0
291
     0
 45
0.0
1001
ACAD
1000
AcDbSavedByObjectVersion
1070
     0
  0
VISUALSTYLE
  5
31
102
{ACAD_REACTORS
330
2A
102
}
330
2A
100
AcDbVisualStyle
  2
3D Hidden
 70
     6
 71
     1
 72
     2
 73
     2
 90
        0
 40
-0.6
 41
-30.0
 62
     5
 63
     7
421
 16777215
 74
     2
 91
        2
 64
     7
 65
   257
 75
     2
175
     1
 42
40.0
 92
        0
 66
   257
 43
1.0
 76
     1
 77
     6
 78
     2
 67
     7
 79
     3
170
     0
171
     0
290
     0
174
     0
 93
        1
 44
0.0
173
     0
291
     0
 45
0.0
1001
ACAD
1000
AcDbSavedByObjectVersion
1070
     0
  0
VISUALSTYLE
  5
30
102
{ACAD_REACTORS
330
2A
102
}
330
2A
100
AcDbVisualStyle
  2
3dWireframe
 70
     5
 71
     0
 72
     2
 73
     0
 90
        0
 40
-0.6
 41
-30.0
 62
     5
 63
     7
421
 16777215
 74
     1
 91
        4
 64
     7
 65
   257
 75
     1
175
     1
 42
1.0
 92
        0
 66
   257
 43
1.0
 76
     1
 77
     6
 78
     2
 67
     7
 79
     5
170
     0
171
     0
290
     0
174
     0
 93
        1
 44
0.0
173
     0
291
     0
 45
0.0
1001
ACAD
1000
AcDbSavedByObjectVersion
1070
     0
  0
VISUALSTYLE
  5
32
102
{ACAD_REACTORS
330
2A
102
}
330
2A
100
AcDbVisualStyle
  2
Basic
 70
     7
 71
     1
 72
     0
 73
     1
 90
        0
 40
-0.6
 41
-30.0
 62
     5
 63
     7
421
 16777215
 74
     0
 91
        4
 64
     7
 65
   257
 75
     1
175
     1
 42
1.0
 92
        8
 66
     7
 43
1.0
 76
     1
 77
     6
 78
     2
 67
     7
 79
     5
170
     0
171
     0
290
     0
174
     0
 93
        1
 44
0.0
173
     0
291
     1
 45
0.0
1001
ACAD
1000
AcDbSavedByObjectVersion
1070
     0
  0
VISUALSTYLE
  5
36
102
{ACAD_REACTORS
330
2A
102
}
330
2A
100
AcDbVisualStyle
  2
Brighten
 70
    12
 71
     2
 72
     2
 73
     0
 90
        0
 40
-0.6
 41
-30.0
 62
     5
 63
     7
421
 16777215
 74
     1
 91
        4
 64
     7
 65
   257
 75
     1
175
     1
 42
1.0
 92
        8
 66
     7
 43
1.0
 76
     1
 77
     6
 78
     2
 67
     7
 79
     5
170
     0
171
     0
290
     0
174
     0
 93
        1
 44
50.0
173
     0
291
     1
 45
0.0
1001
ACAD
1000
AcDbSavedByObjectVersion
1070
     0
  0
VISUALSTYLE
  5
3A
102
{ACAD_REACTORS
330
2A
102
}
330
2A
100
AcDbVisualStyle
  2
ColorChange
 70
    16
 71
     2
 72
     2
 73
     3
 90
        0
 40
-0.6
 41
-30.0
 62
     5
 63
     8
421
  8421504
 74
     1
 91
        4
 64
     7
 65
   257
 75
     1
175
     1
 42
1.0
 92
        8
 66
     8
424
  8421504
 43
1.0
 76
     1
 77
     6
 78
     2
 67
     7
 79
     5
170
     0
171
     0
290
     0
174
     0
 93
        1
 44
0.0
173
     0
291
     1
 45
0.0
1001
ACAD
1000
AcDbSavedByObjectVersion
1070
     0
  0
VISUALSTYLE
  5
34
102
{ACAD_REACTORS
330
2A
102
}
330
2A
100
AcDbVisualStyle
  2
Conceptual
 70
     9
 71
     3
 72
     2
 73
     0
 90
        0
 40
-0.6
 41
-30.0
 62
     5
 63
     7
421
 16777215
 74
     2
 91
        2
 64
     7
 65
   257
 75
     1
175
     1
 42
40.0
 92
        8
 66
     7
 43
1.0
 76
     1
 77
     6
 78
     2
 67
     7
 79
     3
170
     0
171
     0
290
     0
174
     0
 93
        1
 44
0.0
173
     0
291
     0
 45
0.0
1001
ACAD
1000
AcDbSavedByObjectVersion
1070
     0
  0
VISUALSTYLE
  5
35
102
{ACAD_REACTORS
330
2A
102
}
330
2A
100
AcDbVisualStyle
  2
Dim
 70
    11
 71
     2
 72
     2
 73
     0
 90
        0
 40
-0.6
 41
-30.0
 62
     5
 63
     7
421
 16777215
 74
     1
 91
        4
 64
     7
 65
   257
 75
     1
175
     1
 42
1.0
 92
        8
 66
     7
 43
1.0
 76
     1
 77
     6
 78
     2
 67
     7
 79
     5
170
     0
171
     0
290
     0
174
     0
 93
        1
 44
-50.0
173
     0
291
     1
 45
0.0
1001
ACAD
1000
AcDbSavedByObjectVersion
1070
     0
  0
VISUALSTYLE
  5
39
102
{ACAD_REACTORS
330
2A
102
}
330
2A
100
AcDbVisualStyle
  2
Facepattern
 70
    15
 71
     2
 72
     2
 73
     0
 90
        0
 40
-0.6
 41
-30.0
 62
     5
 63
     7
421
 16777215
 74
     1
 91
        4
 64
     7
 65
   257
 75
     1
175
     1
 42
1.0
 92
        8
 66
     7
 43
1.0
 76
     1
 77
     6
 78
     2
 67
     7
 79
     5
170
     0
171
     0
290
     0
174
     0
 93
        1
 44
0.0
173
     0
291
     1
 45
0.0
1001
ACAD
1000
AcDbSavedByObjectVersion
1070
     0
  0
VISUALSTYLE
  5
2B
102
{ACAD_REACTORS
330
2A
102
}
330
2A
100
AcDbVisualStyle
  2
Flat
 70
     0
 71
     2
 72
     1
 73
     1
 90
        2
 40
-0.6
 41
30.0
 62
     5
 63
     7
421
 16777215
 74
     0
 91
        4
 64
     7
 65
   257
 75
     1
175
     1
 42
1.0
 92
        8
 66
     7
 43
1.0
 76
     1
 77
     6
 78
     2
 67
     7
 79
     5
170
     0
171
     0
290
     0
174
     0
 93
       13
 44
0.0
173
     0
291
     1
 45
0.0
1001
ACAD
1000
AcDbSavedByObjectVersion
1070
     0
  0
VISUALSTYLE
  5
2C
102
{ACAD_REACTORS
330
2A
102
}
330
2A
100
AcDbVisualStyle
  2
FlatWithEdges
 70
     1
 71
     2
 72
     1
 73
     1
 90
        2
 40
-0.6
 41
30.0
 62
     5
 63
     7
421
 16777215
 74
     1
 91
        4
 64
     7
 65
   257
 75
     1
175
     1
 42
1.0
 92
        0
 66
   257
 43
1.0
 76
     1
 77
     6
 78
     2
 67
     7
 79
     5
170
     0
171
     0
290
     0
174
     0
 93
       13
 44
0.0
173
     0
291
     1
 45
0.0
1001
ACAD
1000
AcDbSavedByObjectVersion
1070
     0
  0
VISUALSTYLE
  5
2D
102
{ACAD_REACTORS
330
2A
102
}
330
2A
100
AcDbVisualStyle
  2
Gouraud
 70
     2
 71
     2
 72
     2
 73
     1
 90
        2
 40
-0.6
 41
30.0
 62
     5
 63
     7
421
 16777215
 74
     0
 91
        4
 64
     7
 65
   257
 75
     1
175
     1
 42
1.0
 92
        0
 66
     7
 43
1.0
 76
     1
 77
     6
 78
     2
 67
     7
 79
     5
170
     0
171
     0
290
     0
174
     0
 93
       13
 44
0.0
173
     0
291
     1
 45
0.0
1001
ACAD
1000
AcDbSavedByObjectVersion
1070
     0
  0
VISUALSTYLE
  5
2E
102
{ACAD_REACTORS
330
2A
102
}
330
2A
100
AcDbVisualStyle
  2
GouraudWithEdges
 70
     3
 71
     2
 72
     2
 73
     1
 90
        2
 40
-0.6
 41
30.0
 62
     5
 63
     7
421
 16777215
 74
     1
 91
        4
 64
     7
 65
   257
 75
     1
175
     1
 42
1.0
 92
        0
 66
   257
 43
1.0
 76
     1
 77
     6
 78
     2
 67
     7
 79
     5
170
     0
171
     0
290
     0
174
     0
 93
       13
 44
0.0
173
     0
291
     1
 45
0.0
1001
ACAD
1000
AcDbSavedByObjectVersion
1070
     0
  0
VISUALSTYLE
  5
38
102
{ACAD_REACTORS
330
2A
102
}
330
2A
100
AcDbVisualStyle
  2
Linepattern
 70
    14
 71
     2
 72
     2
 73
     0
 90
        0
 40
-0.6
 41
-30.0
 62
     5
 63
     7
421
 16777215
 74
     1
 91
        4
 64
     7
 65
   257
 75
     7
175
     7
 42
1.0
 92
        8
 66
     7
 43
1.0
 76
     1
 77
     6
 78
     2
 67
     7
 79
     5
170
     0
171
     0
290
     0
174
     0
 93
        1
 44
0.0
173
     0
291
     1
 45
0.0
1001
ACAD
1000
AcDbSavedByObjectVersion
1070
     0
  0
VISUALSTYLE
  5
33
102
{ACAD_REACTORS
330
2A
102
}
330
2A
100
AcDbVisualStyle
  2
Realistic
 70
     8
 71
     2
 72
     2
 73
     0
 90
        0
 40
-0.6
 41
-30.0
 62
     5
 63
     7
421
 16777215
 74
     1
 91
        0
 64
     7
 65
   257
 75
     1
175
     1
 42
1.0
 92
        8
 66
     8
424
  7895160
 43
1.0
 76
     1
 77
     6
 78
     2
 67
     7
 79
     5
170
     0
171
     0
290
     0
174
     0
 93
       13
 44
0.0
173
     0
291
     0
 45
0.0
1001
ACAD
1000
AcDbSavedByObjectVersion
1070
     0
  0
VISUALSTYLE
  5
37
102
{ACAD_REACTORS
330
2A
102
}
330
2A
100
AcDbVisualStyle
  2
Thicken
 70
    13
 71
     2
 72
     2
 73
     0
 90
        0
 40
-0.6
 41
-30.0
 62
     5
 63
     7
421
 16777215
 74
     1
 91
        4
 64
     7
 65
   257
 75
     1
175
     1
 42
1.0
 92
       12
 66
     7
 43
1.0
 76
     1
 77
     6
 78
     2
 67
     7
 79
     5
170
     0
171
     0
290
     0
174
     0
 93
        1
 44
0.0
173
     0
291
     1
 45
0.0
1001
ACAD
1000
AcDbSavedByObjectVersion
1070
     0
  0
ENDSEC
  0
EOF
