  0
SECTION
  2
HEADER
  9
$ACADVER
  1
AC1018
  9
$ACADMAINTVER
 70
     0
  9
$DWGCODEPAGE
  3
ANSI_932
  9
$INSBASE
 10
0.0
 20
0.0
 30
0.0
  9
$EXTMIN
 10
-1050.0
 20
-742.5
 30
0.0
  9
$EXTMAX
 10
1050.0
 20
742.5
 30
0.0
  9
$LIMMIN
 10
-1050.0
 20
-742.5
  9
$LIMMAX
 10
1050.0
 20
742.5
  9
$ORTHOMODE
 70
     0
  9
$REGENMODE
 70
     1
  9
$FILLMODE
 70
     1
  9
$QTEXTMODE
 70
     0
  9
$MIRRTEXT
 70
     1
  9
$LTSCALE
 40
5.0
  9
$ATTMODE
 70
     1
  9
$TEXTSIZE
 40
2.5
  9
$TRACEWID
 40
1.0
  9
$TEXTSTYLE
  7
Standard
  9
$CLAYER
  8
0
  9
$CELTYPE
  6
ByLayer
  9
$CECOLOR
 62
   256
  9
$CELTSCALE
 40
1.0
  9
$DISPSILH
 70
     0
  9
$DIMSCALE
 40
1.0
  9
$DIMASZ
 40
2.5
  9
$DIMEXO
 40
0.625
  9
$DIMDLI
 40
3.75
  9
$DIMRND
 40
0.0
  9
$DIMDLE
 40
0.0
  9
$DIMEXE
 40
1.25
  9
$DIMTP
 40
0.0
  9
$DIMTM
 40
0.0
  9
$DIMTXT
 40
2.5
  9
$DIMCEN
 40
2.5
  9
$DIMTSZ
 40
0.0
  9
$DIMTOL
 70
     0
  9
$DIMLIM
 70
     0
  9
$DIMTIH
 70
     0
  9
$DIMTOH
 70
     0
  9
$DIMSE1
 70
     0
  9
$DIMSE2
 70
     0
  9
$DIMTAD
 70
     1
  9
$DIMZIN
 70
     8
  9
$DIMBLK
  1

  9
$DIMASO
 70
     1
  9
$DIMSHO
 70
     1
  9
$DIMPOST
  1

  9
$DIMAPOST
  1

  9
$DIMALT
 70
     0
  9
$DIMALTD
 70
     3
  9
$DIMALTF
 40
0.03937007874016
  9
$DIMLFAC
 40
1.0
  9
$DIMTOFL
 70
     1
  9
$DIMTVP
 40
0.0
  9
$DIMTIX
 70
     0
  9
$DIMSOXD
 70
     0
  9
$DIMSAH
 70
     0
  9
$DIMBLK1
  1

  9
$DIMBLK2
  1

  9
$DIMSTYLE
  2
ISO-25
  9
$DIMCLRD
 70
     0
  9
$DIMCLRE
 70
     0
  9
$DIMCLRT
 70
     0
  9
$DIMTFAC
 40
1.0
  9
$DIMGAP
 40
0.625
  9
$DIMJUST
 70
     0
  9
$DIMSD1
 70
     0
  9
$DIMSD2
 70
     0
  9
$DIMTOLJ
 70
     0
  9
$DIMTZIN
 70
     8
  9
$DIMALTZ
 70
     0
  9
$DIMALTTZ
 70
     0
  9
$DIMUPT
 70
     0
  9
$DIMDEC
 70
     2
  9
$DIMTDEC
 70
     2
  9
$DIMALTU
 70
     2
  9
$DIMALTTD
 70
     3
  9
$DIMTXSTY
  7
Standard
  9
$DIMAUNIT
 70
     0
  9
$DIMADEC
 70
     0
  9
$DIMALTRND
 40
0.0
  9
$DIMAZIN
 70
     0
  9
$DIMDSEP
 70
    44
  9
$DIMATFIT
 70
     3
  9
$DIMFRAC
 70
     0
  9
$DIMLDRBLK
  1

  9
$DIMLUNIT
 70
     2
  9
$DIMLWD
 70
    -2
  9
$DIMLWE
 70
    -2
  9
$DIMTMOVE
 70
     0
  9
$LUNITS
 70
     2
  9
$LUPREC
 70
     4
  9
$SKETCHINC
 40
1.0
  9
$FILLETRAD
 40
10.0
  9
$AUNITS
 70
     0
  9
$AUPREC
 70
     0
  9
$MENU
  1
.
  9
$ELEVATION
 40
0.0
  9
$PELEVATION
 40
0.0
  9
$THICKNESS
 40
0.0
  9
$LIMCHECK
 70
     0
  9
$CHAMFERA
 40
10.0
  9
$CHAMFERB
 40
10.0
  9
$CHAMFERC
 40
20.0
  9
$CHAMFERD
 40
0.0
  9
$SKPOLY
 70
     0
  9
$TDCREATE
 40
2457590.728219896
  9
$TDUCREATE
 40
2457590.353219896
  9
$TDUPDATE
 40
2457590.728219907
  9
$TDUUPDATE
 40
2457590.353219907
  9
$TDINDWG
 40
0.0000000116
  9
$TDUSRTIMER
 40
0.0000000116
  9
$USRTIMER
 70
     1
  9
$ANGBASE
 50
0.0
  9
$ANGDIR
 70
     0
  9
$PDMODE
 70
     0
  9
$PDSIZE
 40
0.0
  9
$PLINEWID
 40
0.0
  9
$SPLFRAME
 70
     0
  9
$SPLINETYPE
 70
     6
  9
$SPLINESEGS
 70
     8
  9
$HANDSEED
  5
4A8
  9
$SURFTAB1
 70
     6
  9
$SURFTAB2
 70
     6
  9
$SURFTYPE
 70
     6
  9
$SURFU
 70
     6
  9
$SURFV
 70
     6
  9
$UCSBASE
  2

  9
$UCSNAME
  2

  9
$UCSORG
 10
0.0
 20
0.0
 30
0.0
  9
$UCSXDIR
 10
1.0
 20
0.0
 30
0.0
  9
$UCSYDIR
 10
0.0
 20
1.0
 30
0.0
  9
$UCSORTHOREF
  2

  9
$UCSORTHOVIEW
 70
     0
  9
$UCSORGTOP
 10
0.0
 20
0.0
 30
0.0
  9
$UCSORGBOTTOM
 10
0.0
 20
0.0
 30
0.0
  9
$UCSORGLEFT
 10
0.0
 20
0.0
 30
0.0
  9
$UCSORGRIGHT
 10
0.0
 20
0.0
 30
0.0
  9
$UCSORGFRONT
 10
0.0
 20
0.0
 30
0.0
  9
$UCSORGBACK
 10
0.0
 20
0.0
 30
0.0
  9
$PUCSBASE
  2

  9
$PUCSNAME
  2

  9
$PUCSORG
 10
0.0
 20
0.0
 30
0.0
  9
$PUCSXDIR
 10
1.0
 20
0.0
 30
0.0
  9
$PUCSYDIR
 10
0.0
 20
1.0
 30
0.0
  9
$PUCSORTHOREF
  2

  9
$PUCSORTHOVIEW
 70
     0
  9
$PUCSORGTOP
 10
0.0
 20
0.0
 30
0.0
  9
$PUCSORGBOTTOM
 10
0.0
 20
0.0
 30
0.0
  9
$PUCSORGLEFT
 10
0.0
 20
0.0
 30
0.0
  9
$PUCSORGRIGHT
 10
0.0
 20
0.0
 30
0.0
  9
$PUCSORGFRONT
 10
0.0
 20
0.0
 30
0.0
  9
$PUCSORGBACK
 10
0.0
 20
0.0
 30
0.0
  9
$USERI1
 70
     0
  9
$USERI2
 70
     0
  9
$USERI3
 70
     0
  9
$USERI4
 70
     0
  9
$USERI5
 70
     0
  9
$USERR1
 40
0.0
  9
$USERR2
 40
0.0
  9
$USERR3
 40
0.0
  9
$USERR4
 40
0.0
  9
$USERR5
 40
0.0
  9
$WORLDVIEW
 70
     1
  9
$SHADEDGE
 70
     3
  9
$SHADEDIF
 70
    70
  9
$TILEMODE
 70
     1
  9
$MAXACTVP
 70
    64
  9
$PINSBASE
 10
0.0
 20
0.0
 30
0.0
  9
$PLIMCHECK
 70
     0
  9
$PEXTMIN
 10
1.000000000000000E+20
 20
1.000000000000000E+20
 30
1.000000000000000E+20
  9
$PEXTMAX
 10
-1.000000000000000E+20
 20
-1.000000000000000E+20
 30
-1.000000000000000E+20
  9
$PLIMMIN
 10
0.0
 20
0.0
  9
$PLIMMAX
 10
420.0
 20
297.0
  9
$UNITMODE
 70
     0
  9
$VISRETAIN
 70
     1
  9
$PLINEGEN
 70
     0
  9
$PSLTSCALE
 70
     1
  9
$TREEDEPTH
 70
  3020
  9
$CMLSTYLE
  2
Standard
  9
$CMLJUST
 70
     0
  9
$CMLSCALE
 40
20.0
  9
$PROXYGRAPHICS
 70
     1
  9
$MEASUREMENT
 70
     1
  9
$CELWEIGHT
370
    -1
  9
$ENDCAPS
280
     0
  9
$JOINSTYLE
280
     0
  9
$LWDISPLAY
290
     0
  9
$INSUNITS
 70
     4
  9
$HYPERLINKBASE
  1

  9
$STYLESHEET
  1

  9
$XEDIT
290
     1
  9
$CEPSNTYPE
380
     0
  9
$PSTYLEMODE
290
     1
  9
$FINGERPRINTGUID
  2
{B4C4645E-F7C7-4F4F-B241-70151A2396D1}
  9
$VERSIONGUID
  2
{FAEB1C32-E019-11D5-929B-00C0DF256EC4}
  9
$EXTNAMES
290
     1
  9
$PSVPSCALE
 40
0.0
  9
$OLESTARTUP
290
     0
  9
$SORTENTS
280
   127
  9
$INDEXCTL
280
     0
  9
$HIDETEXT
280
     1
  9
$XCLIPFRAME
290
     0
  9
$HALOGAP
280
     0
  9
$OBSCOLOR
 70
   257
  9
$OBSLTYPE
280
     0
  9
$INTERSECTIONDISPLAY
280
     0
  9
$INTERSECTIONCOLOR
 70
   257
  9
$DIMASSOC
280
     2
  9
$PROJECTNAME
  1

  0
ENDSEC
  0
SECTION
  2
CLASSES
  0
CLASS
  1
ACDBDICTIONARYWDFLT
  2
AcDbDictionaryWithDefault
  3
ObjectDBX Classes
 90
        0
 91
        4
280
     0
281
     0
  0
CLASS
  1
VISUALSTYLE
  2
AcDbVisualStyle
  3
ObjectDBX Classes
 90
     4095
 91
        4
280
     0
281
     0
  0
ENDSEC
  0
SECTION
  2
TABLES
  0
TABLE
  2
VPORT
  5
8
330
0
100
AcDbSymbolTable
 70
     1
  0
VPORT
  5
29
330
8
100
AcDbSymbolTableRecord
100
AcDbViewportTableRecord
  2
*Active
 70
     0
 10
0.0
 20
0.0
 11
1.0
 21
1.0
 12
0.0
 22
0.0
 13
0.0
 23
0.0
 14
10.0
 24
10.0
 15
10.0
 25
10.0
 16
0.0
 26
0.0
 36
1.0
 17
0.0
 27
0.0
 37
0.0
 40
1633.5
 41
1.414141414141414
 42
50.0
 43
0.0
 44
0.0
 50
0.0
 51
0.0
 71
     0
 72
 10000
 73
     1
 74
     3
 75
     0
 76
     0
 77
     0
 78
     0
281
     0
 65
     1
110
0.0
120
0.0
130
0.0
111
1.0
121
0.0
131
0.0
112
0.0
122
1.0
132
0.0
 79
     0
146
0.0
  0
ENDTAB
  0
TABLE
  2
LTYPE
  5
5
330
0
100
AcDbSymbolTable
 70
     3
  0
LTYPE
  5
14
330
5
100
AcDbSymbolTableRecord
100
AcDbLinetypeTableRecord
  2
ByBlock
 70
     0
  3

 72
    65
 73
     0
 40
0.0
  0
LTYPE
  5
15
330
5
100
AcDbSymbolTableRecord
100
AcDbLinetypeTableRecord
  2
ByLayer
 70
     0
  3

 72
    65
 73
     0
 40
0.0
  0
LTYPE
  5
16
330
5
100
AcDbSymbolTableRecord
100
AcDbLinetypeTableRecord
  2
Continuous
 70
     0
  3
Solid line
 72
    65
 73
     0
 40
0.0
  0
LTYPE
  5
3C
330
5
100
AcDbSymbolTableRecord
100
AcDbLinetypeTableRecord
  2
JWW_CENTER2
 70
     0
  3
-------------  --  -------------
 72
    65
 73
     4
 40
13.54666666666667
 49
11.00666666666667
 74
     0
 49
-0.8466666666666667
 74
     0
 49
0.8466666666666667
 74
     0
 49
-0.8466666666666667
 74
     0
  0
LTYPE
  5
3D
330
5
100
AcDbSymbolTableRecord
100
AcDbLinetypeTableRecord
  2
JWW_PHANTOM2
 70
     0
  3
------------  -  -  ------------
 72
    65
 73
     6
 40
13.54666666666667
 49
10.16
 74
     0
 49
-0.8466666666666667
 74
     0
 49
0.4233333333333333
 74
     0
 49
-0.8466666666666667
 74
     0
 49
0.4233333333333333
 74
     0
 49
-0.8466666666666667
 74
     0
  0
ENDTAB
  0
TABLE
  2
LAYER
  5
2
330
0
100
AcDbSymbolTable
 70
     8
  0
LAYER
  5
10
330
2
100
AcDbSymbolTableRecord
100
AcDbLayerTableRecord
  2
0
 70
     0
 62
     7
  6
Continuous
370
    -3
390
F
  0
LAYER
  5
3E
330
2
100
AcDbSymbolTableRecord
100
AcDbLayerTableRecord
  2
建具
 70
     0
 62
     7
  6
Continuous
370
    -3
390
F
  0
LAYER
  5
3F
330
2
100
AcDbSymbolTableRecord
100
AcDbLayerTableRecord
  2
0-A
 70
     0
 62
     7
  6
Continuous
370
    -3
390
F
  0
LAYER
  5
40
330
2
100
AcDbSymbolTableRecord
100
AcDbLayerTableRecord
  2
寸法
 70
     0
 62
     7
  6
Continuous
370
    -3
390
F
  0
LAYER
  5
41
330
2
100
AcDbSymbolTableRecord
100
AcDbLayerTableRecord
  2
その他
 70
     0
 62
     7
  6
Continuous
370
    -3
390
F
  0
LAYER
  5
42
330
2
100
AcDbSymbolTableRecord
100
AcDbLayerTableRecord
  2
F-3ﾚｲﾔ
 70
     0
 62
     7
  6
Continuous
370
    -3
390
F
  0
LAYER
  5
43
330
2
100
AcDbSymbolTableRecord
100
AcDbLayerTableRecord
  2
通り芯
 70
     0
 62
     7
  6
Continuous
370
    -3
390
F
  0
LAYER
  5
44
330
2
100
AcDbSymbolTableRecord
100
AcDbLayerTableRecord
  2
仕上
 70
     0
 62
     7
  6
Continuous
370
    -3
390
F
  0
ENDTAB
  0
TABLE
  2
STYLE
  5
3
330
0
100
AcDbSymbolTable
 70
     2
  0
STYLE
  5
11
330
3
100
AcDbSymbolTableRecord
100
AcDbTextStyleTableRecord
  2
Standard
 70
     0
 40
0.0
 41
1.0
 50
0.0
 71
     0
 42
2.5
  3
txt
  4

1001
ACAD
1000

1071
        0
  0
STYLE
  5
3B
330
3
100
AcDbSymbolTableRecord
100
AcDbTextStyleTableRecord
  2
ＭＳ ゴシック
 70
     0
 40
1.0
 41
1.0
 50
0.0
 71
     0
 42
10.0
  3

  4

1001
ACAD
1000
MS Gothic
1071
    32817
  0
ENDTAB
  0
TABLE
  2
VIEW
  5
6
330
0
100
AcDbSymbolTable
 70
     0
  0
ENDTAB
  0
TABLE
  2
UCS
  5
7
330
0
100
AcDbSymbolTable
 70
     0
  0
ENDTAB
  0
TABLE
  2
APPID
  5
9
330
0
100
AcDbSymbolTable
 70
     1
  0
APPID
  5
12
330
9
100
AcDbSymbolTableRecord
100
AcDbRegAppTableRecord
  2
ACAD
 70
     0
  0
ENDTAB
  0
TABLE
  2
DIMSTYLE
  5
A
330
0
100
AcDbSymbolTable
 70
     1
100
AcDbDimStyleTable
  0
DIMSTYLE
105
27
330
A
100
AcDbSymbolTableRecord
100
AcDbDimStyleTableRecord
  2
ISO-25
 70
     0
 41
2.5
 42
0.625
 43
3.75
 44
1.25
 73
     0
 74
     0
 77
     1
 78
     8
140
2.5
141
2.5
143
0.03937007874016
147
0.625
171
     3
172
     1
271
     2
272
     2
274
     3
278
    44
283
     0
284
     8
340
11
  0
ENDTAB
  0
TABLE
  2
BLOCK_RECORD
  5
1
330
0
100
AcDbSymbolTable
 70
     1
  0
BLOCK_RECORD
  5
1F
330
1
100
AcDbSymbolTableRecord
100
AcDbBlockTableRecord
  2
*Model_Space
340
22
  0
BLOCK_RECORD
  5
1B
330
1
100
AcDbSymbolTableRecord
100
AcDbBlockTableRecord
  2
*Paper_Space
340
1E
  0
BLOCK_RECORD
  5
23
330
1
100
AcDbSymbolTableRecord
100
AcDbBlockTableRecord
  2
*Paper_Space0
340
26
  0
ENDTAB
  0
ENDSEC
  0
SECTION
  2
BLOCKS
  0
BLOCK
  5
20
330
1F
100
AcDbEntity
  8
0
100
AcDbBlockBegin
  2
*Model_Space
 70
     0
 10
0.0
 20
0.0
 30
0.0
  3
*Model_Space
  1

  0
ENDBLK
  5
21
330
1F
100
AcDbEntity
  8
0
100
AcDbBlockEnd
  0
BLOCK
  5
1C
330
1B
100
AcDbEntity
 67
     1
  8
0
100
AcDbBlockBegin
  2
*Paper_Space
 70
     0
 10
0.0
 20
0.0
 30
0.0
  3
*Paper_Space
  1

  0
ENDBLK
  5
1D
330
1B
100
AcDbEntity
 67
     1
  8
0
100
AcDbBlockEnd
  0
BLOCK
  5
24
330
23
100
AcDbEntity
  8
0
100
AcDbBlockBegin
  2
*Paper_Space0
 70
     0
 10
0.0
 20
0.0
 30
0.0
  3
*Paper_Space0
  1

  0
ENDBLK
  5
25
330
23
100
AcDbEntity
  8
0
100
AcDbBlockEnd
  0
ENDSEC
  0
SECTION
  2
ENTITIES
  0
LINE
  5
45
330
1F
100
AcDbEntity
  8
建具
  6
Continuous
 62
     4
370
     9
100
AcDbLine
 10
-876.4221714641199
 20
64.57170486368713
 30
0.0
 11
-376.4221611541269
 21
64.57170486368713
 31
0.0
  0
LINE
  5
46
330
1F
100
AcDbEntity
  8
建具
  6
Continuous
 62
     4
370
     9
100
AcDbLine
 10
-876.4221714641199
 20
70.57174940285523
 30
0.0
 11
-376.4221611541269
 21
70.57174940285523
 31
0.0
  0
LINE
  5
47
330
1F
100
AcDbEntity
  8
建具
  6
Continuous
 62
     4
370
     9
100
AcDbLine
 10
-876.4221714641199
 20
124.5717790956339
 30
0.0
 11
-876.4221714641199
 21
64.57170486368713
 31
0.0
  0
LINE
  5
48
330
1F
100
AcDbEntity
  8
建具
  6
Continuous
 62
     4
370
     9
100
AcDbLine
 10
-876.4221714641199
 20
374.5717378556635
 30
0.0
 11
-876.4221714641199
 21
434.5716883676989
 31
0.0
  0
LINE
  5
49
330
1F
100
AcDbEntity
  8
建具
  6
Continuous
 62
     4
370
     9
100
AcDbLine
 10
-876.4221714641199
 20
374.5717378556635
 30
0.0
 11
-873.9221632161255
 21
374.5717378556635
 31
0.0
  0
LINE
  5
4A
330
1F
100
AcDbEntity
  8
建具
  6
Continuous
 62
     4
370
     9
100
AcDbLine
 10
-876.4221714641199
 20
428.5716438285309
 30
0.0
 11
-376.4221611541269
 21
428.5716438285309
 31
0.0
  0
LINE
  5
4B
330
1F
100
AcDbEntity
  8
建具
  6
Continuous
 62
     4
370
     9
100
AcDbLine
 10
-876.4221714641199
 20
434.5716883676989
 30
0.0
 11
-376.4221611541269
 21
434.5716883676989
 31
0.0
  0
LINE
  5
4C
330
1F
100
AcDbEntity
  8
建具
  6
Continuous
 62
     4
370
     9
100
AcDbLine
 10
-876.4221714641199
 20
124.5717790956339
 30
0.0
 11
-873.9221632161255
 21
124.5717790956339
 31
0.0
  0
LINE
  5
4D
330
1F
100
AcDbEntity
  8
建具
  6
Continuous
 62
     4
370
     9
100
AcDbLine
 10
291.0776903819797
 20
64.57170486368713
 30
0.0
 11
-376.4221611541269
 21
64.57170486368713
 31
0.0
  0
LINE
  5
4E
330
1F
100
AcDbEntity
  8
建具
  6
Continuous
 62
     4
370
     9
100
AcDbLine
 10
291.0776903819797
 20
70.57174940285523
 30
0.0
 11
-376.4221611541269
 21
70.57174940285523
 31
0.0
  0
LINE
  5
4F
330
1F
100
AcDbEntity
  8
建具
  6
Continuous
 62
     4
370
     9
100
AcDbLine
 10
291.0776903819797
 20
428.5716438285309
 30
0.0
 11
-376.4221611541269
 21
428.5716438285309
 31
0.0
  0
LINE
  5
50
330
1F
100
AcDbEntity
  8
建具
  6
Continuous
 62
     4
370
     9
100
AcDbLine
 10
291.0776903819797
 20
434.5716883676989
 30
0.0
 11
-376.4221611541269
 21
434.5716883676989
 31
0.0
  0
LINE
  5
51
330
1F
100
AcDbEntity
  8
建具
  6
Continuous
 62
     4
370
     9
100
AcDbLine
 10
-726.1721799183135
 20
374.5717378556635
 30
0.0
 11
-702.6721858981091
 21
374.5717378556635
 31
0.0
  0
LINE
  5
52
330
1F
100
AcDbEntity
  8
建具
  6
Continuous
 62
     4
370
     9
100
AcDbLine
 10
-690.6721896097065
 20
374.5717378556635
 30
0.0
 11
-667.1721801245133
 21
374.5717378556635
 31
0.0
  0
LINE
  5
53
330
1F
100
AcDbEntity
  8
建具
  6
Continuous
 62
     4
370
     9
100
AcDbLine
 10
-655.1721838361107
 20
374.5717378556635
 30
0.0
 11
-631.6722052808952
 21
374.5717378556635
 31
0.0
  0
LINE
  5
54
330
1F
100
AcDbEntity
  8
建具
  6
Continuous
 62
     4
370
     9
100
AcDbLine
 10
-605.1722044560959
 20
374.5717378556635
 30
0.0
 11
-581.6721949709026
 21
374.5717378556635
 31
0.0
  0
LINE
  5
55
330
1F
100
AcDbEntity
  8
建具
  6
Continuous
 62
     4
370
     9
100
AcDbLine
 10
-569.6721986825
 20
374.5717378556635
 30
0.0
 11
-546.1722201272847
 21
374.5717378556635
 31
0.0
  0
LINE
  5
56
330
1F
100
AcDbEntity
  8
建具
  6
Continuous
 62
     4
370
     9
100
AcDbLine
 10
-534.1721929089042
 20
374.5717378556635
 30
0.0
 11
-510.6722143536887
 21
374.5717378556635
 31
0.0
  0
LINE
  5
57
330
1F
100
AcDbEntity
  8
建具
  6
Continuous
 62
     4
370
     9
100
AcDbLine
 10
-484.1721825989115
 20
374.5717378556635
 30
0.0
 11
-460.6722040436961
 21
374.5717378556635
 31
0.0
  0
LINE
  5
58
330
1F
100
AcDbEntity
  8
建具
  6
Continuous
 62
     4
370
     9
100
AcDbLine
 10
-847.17217084552
 20
374.5717378556635
 30
0.0
 11
-823.6721768253155
 21
374.5717378556635
 31
0.0
  0
LINE
  5
59
330
1F
100
AcDbEntity
  8
建具
  6
Continuous
 62
     4
370
     9
100
AcDbLine
 10
-448.6722077552935
 20
374.5717378556635
 30
0.0
 11
-425.1721982701002
 21
374.5717378556635
 31
0.0
  0
LINE
  5
5A
330
1F
100
AcDbEntity
  8
建具
  6
Continuous
 62
     4
370
     9
100
AcDbLine
 10
-413.1721710517198
 20
374.5717378556635
 30
0.0
 11
-389.6721924965044
 21
374.5717378556635
 31
0.0
  0
LINE
  5
5B
330
1F
100
AcDbEntity
  8
建具
  6
Continuous
 62
     4
370
     9
100
AcDbLine
 10
-339.6722131164896
 20
374.5717378556635
 30
0.0
 11
-363.1721298117493
 21
374.5717378556635
 31
0.0
  0
LINE
  5
5C
330
1F
100
AcDbEntity
  8
建具
  6
Continuous
 62
     4
370
     9
100
AcDbLine
 10
-304.172145482938
 20
374.5717378556635
 30
0.0
 11
-327.6721858981091
 21
374.5717378556635
 31
0.0
  0
LINE
  5
5D
330
1F
100
AcDbEntity
  8
建具
  6
Continuous
 62
     4
370
     9
100
AcDbLine
 10
-268.672201569298
 20
374.5717378556635
 30
0.0
 11
-292.1721801245133
 21
374.5717378556635
 31
0.0
  0
LINE
  5
5E
330
1F
100
AcDbEntity
  8
建具
  6
Continuous
 62
     4
370
     9
100
AcDbLine
 10
-218.6721603293275
 20
374.5717378556635
 30
0.0
 11
-242.1722007444985
 21
374.5717378556635
 31
0.0
  0
LINE
  5
5F
330
1F
100
AcDbEntity
  8
建具
  6
Continuous
 62
     4
370
     9
100
AcDbLine
 10
-183.1722164156873
 20
374.5717378556635
 30
0.0
 11
-206.6721949709026
 21
374.5717378556635
 31
0.0
  0
LINE
  5
60
330
1F
100
AcDbEntity
  8
建具
  6
Continuous
 62
     4
370
     9
100
AcDbLine
 10
-147.6721487821357
 20
374.5717378556635
 30
0.0
 11
-171.1721891973068
 21
374.5717378556635
 31
0.0
  0
LINE
  5
61
330
1F
100
AcDbEntity
  8
建具
  6
Continuous
 62
     4
370
     9
100
AcDbLine
 10
-97.67216940212101
 20
374.5717378556635
 30
0.0
 11
-121.172209817292
 21
374.5717378556635
 31
0.0
  0
LINE
  5
62
330
1F
100
AcDbEntity
  8
建具
  6
Continuous
 62
     4
370
     9
100
AcDbLine
 10
-62.17222548848078
 20
374.5717378556635
 30
0.0
 11
-85.67220404369614
 21
374.5717378556635
 31
0.0
  0
LINE
  5
63
330
1F
100
AcDbEntity
  8
建具
  6
Continuous
 62
     4
370
     9
100
AcDbLine
 10
-26.67221971488495
 20
374.5717378556635
 30
0.0
 11
-50.17219827010031
 21
374.5717378556635
 31
0.0
  0
LINE
  5
64
330
1F
100
AcDbEntity
  8
建具
  6
Continuous
 62
     4
370
     9
100
AcDbLine
 10
94.3278949322329
 20
374.5717378556635
 30
0.0
 11
70.8277926571062
 21
374.5717378556635
 31
0.0
  0
LINE
  5
65
330
1F
100
AcDbEntity
  8
建具
  6
Continuous
 62
     4
370
     9
100
AcDbLine
 10
-847.17217084552
 20
124.5717790956339
 30
0.0
 11
-823.6721768253155
 21
124.5717790956339
 31
0.0
  0
LINE
  5
66
330
1F
100
AcDbEntity
  8
建具
  6
Continuous
 62
     4
370
     9
100
AcDbLine
 10
-726.1721799183135
 20
124.5717790956339
 30
0.0
 11
-702.6721858981091
 21
124.5717790956339
 31
0.0
  0
LINE
  5
67
330
1F
100
AcDbEntity
  8
建具
  6
Continuous
 62
     4
370
     9
100
AcDbLine
 10
-690.6721896097065
 20
124.5717790956339
 30
0.0
 11
-667.1721801245133
 21
124.5717790956339
 31
0.0
  0
LINE
  5
68
330
1F
100
AcDbEntity
  8
建具
  6
Continuous
 62
     4
370
     9
100
AcDbLine
 10
-655.1721838361107
 20
124.5717790956339
 30
0.0
 11
-631.6722052808952
 21
124.5717790956339
 31
0.0
  0
LINE
  5
69
330
1F
100
AcDbEntity
  8
建具
  6
Continuous
 62
     4
370
     9
100
AcDbLine
 10
-605.1722044560959
 20
124.5717790956339
 30
0.0
 11
-581.6721949709026
 21
124.5717790956339
 31
0.0
  0
LINE
  5
6A
330
1F
100
AcDbEntity
  8
建具
  6
Continuous
 62
     4
370
     9
100
AcDbLine
 10
-569.6721986825
 20
124.5717790956339
 30
0.0
 11
-546.1722201272847
 21
124.5717790956339
 31
0.0
  0
LINE
  5
6B
330
1F
100
AcDbEntity
  8
建具
  6
Continuous
 62
     4
370
     9
100
AcDbLine
 10
-534.1721929089042
 20
124.5717790956339
 30
0.0
 11
-510.6722143536887
 21
124.5717790956339
 31
0.0
  0
LINE
  5
6C
330
1F
100
AcDbEntity
  8
建具
  6
Continuous
 62
     4
370
     9
100
AcDbLine
 10
-484.1721825989115
 20
124.5717790956339
 30
0.0
 11
-460.6722040436961
 21
124.5717790956339
 31
0.0
  0
LINE
  5
6D
330
1F
100
AcDbEntity
  8
建具
  6
Continuous
 62
     4
370
     9
100
AcDbLine
 10
-448.6722077552935
 20
124.5717790956339
 30
0.0
 11
-425.1721982701002
 21
124.5717790956339
 31
0.0
  0
LINE
  5
6E
330
1F
100
AcDbEntity
  8
建具
  6
Continuous
 62
     4
370
     9
100
AcDbLine
 10
-413.1721710517198
 20
124.5717790956339
 30
0.0
 11
-389.6721924965044
 21
124.5717790956339
 31
0.0
  0
LINE
  5
6F
330
1F
100
AcDbEntity
  8
建具
  6
Continuous
 62
     4
370
     9
100
AcDbLine
 10
-339.6722131164896
 20
124.5717790956339
 30
0.0
 11
-363.1721298117493
 21
124.5717790956339
 31
0.0
  0
LINE
  5
70
330
1F
100
AcDbEntity
  8
建具
  6
Continuous
 62
     4
370
     9
100
AcDbLine
 10
-304.172145482938
 20
124.5717790956339
 30
0.0
 11
-327.6721858981091
 21
124.5717790956339
 31
0.0
  0
LINE
  5
71
330
1F
100
AcDbEntity
  8
建具
  6
Continuous
 62
     4
370
     9
100
AcDbLine
 10
-268.672201569298
 20
124.5717790956339
 30
0.0
 11
-292.1721801245133
 21
124.5717790956339
 31
0.0
  0
LINE
  5
72
330
1F
100
AcDbEntity
  8
建具
  6
Continuous
 62
     4
370
     9
100
AcDbLine
 10
-218.6721603293275
 20
124.5717790956339
 30
0.0
 11
-242.1722007444985
 21
124.5717790956339
 31
0.0
  0
LINE
  5
73
330
1F
100
AcDbEntity
  8
建具
  6
Continuous
 62
     4
370
     9
100
AcDbLine
 10
-183.1722164156873
 20
124.5717790956339
 30
0.0
 11
-206.6721949709026
 21
124.5717790956339
 31
0.0
  0
LINE
  5
74
330
1F
100
AcDbEntity
  8
建具
  6
Continuous
 62
     4
370
     9
100
AcDbLine
 10
-147.6721487821357
 20
124.5717790956339
 30
0.0
 11
-171.1721891973068
 21
124.5717790956339
 31
0.0
  0
LINE
  5
75
330
1F
100
AcDbEntity
  8
建具
  6
Continuous
 62
     4
370
     9
100
AcDbLine
 10
-97.67216940212101
 20
124.5717790956339
 30
0.0
 11
-121.172209817292
 21
124.5717790956339
 31
0.0
  0
LINE
  5
76
330
1F
100
AcDbEntity
  8
建具
  6
Continuous
 62
     4
370
     9
100
AcDbLine
 10
-62.17222548848078
 20
124.5717790956339
 30
0.0
 11
-85.67220404369614
 21
124.5717790956339
 31
0.0
  0
LINE
  5
77
330
1F
100
AcDbEntity
  8
建具
  6
Continuous
 62
     4
370
     9
100
AcDbLine
 10
-26.67221971488495
 20
124.5717790956339
 30
0.0
 11
-50.17219827010031
 21
124.5717790956339
 31
0.0
  0
LINE
  5
78
330
1F
100
AcDbEntity
  8
建具
  6
Continuous
 62
     4
370
     9
100
AcDbLine
 10
94.3278949322329
 20
124.5717790956339
 30
0.0
 11
70.8277926571062
 21
124.5717790956339
 31
0.0
  0
LINE
  5
79
330
1F
100
AcDbEntity
  8
0-A
  6
Continuous
 62
     2
370
     9
100
AcDbLine
 10
-782.9221784749145
 20
467.5716240333451
 30
0.0
 11
-769.9221696083212
 21
467.5716240333451
 31
0.0
  0
LINE
  5
7A
330
1F
100
AcDbEntity
  8
0-A
  6
Continuous
 62
     2
370
     9
100
AcDbLine
 10
-769.9221696083212
 20
441.0716850685013
 30
0.0
 11
-769.9221696083212
 21
467.5716240333451
 31
0.0
  0
LINE
  5
7B
330
1F
100
AcDbEntity
  8
0-A
  6
Continuous
 62
     2
370
     9
100
AcDbLine
 10
-782.9221784749145
 20
441.0716850685013
 30
0.0
 11
-782.9221784749145
 21
467.5716240333451
 31
0.0
  0
LINE
  5
7C
330
1F
100
AcDbEntity
  8
0-A
  6
Continuous
 62
     2
370
     9
100
AcDbLine
 10
-422.9221661029234
 20
441.0716850685013
 30
0.0
 11
-422.9221661029234
 21
467.5716240333451
 31
0.0
  0
LINE
  5
7D
330
1F
100
AcDbEntity
  8
0-A
  6
Continuous
 62
     2
370
     9
100
AcDbLine
 10
-409.9221727013186
 20
441.0716850685013
 30
0.0
 11
-409.9221727013186
 21
467.5716240333451
 31
0.0
  0
LINE
  5
7E
330
1F
100
AcDbEntity
  8
0-A
  6
Continuous
 62
     2
370
     9
100
AcDbLine
 10
-422.9221661029234
 20
467.5716240333451
 30
0.0
 11
-409.9221727013186
 21
467.5716240333451
 31
0.0
  0
LINE
  5
7F
330
1F
100
AcDbEntity
  8
0-A
  6
Continuous
 62
     2
370
     9
100
AcDbLine
 10
-62.92215373093221
 20
467.5716240333451
 30
0.0
 11
-49.92216032932738
 21
467.5716240333451
 31
0.0
  0
LINE
  5
80
330
1F
100
AcDbEntity
  8
0-A
  6
Continuous
 62
     2
370
     9
100
AcDbLine
 10
-49.92216032932738
 20
441.0716850685013
 30
0.0
 11
-49.92216032932738
 21
467.5716240333451
 31
0.0
  0
LINE
  5
81
330
1F
100
AcDbEntity
  8
0-A
  6
Continuous
 62
     2
370
     9
100
AcDbLine
 10
-62.92215373093221
 20
441.0716850685013
 30
0.0
 11
-62.92215373093221
 21
467.5716240333451
 31
0.0
  0
LINE
  5
82
330
1F
100
AcDbEntity
  8
0-A
  6
Continuous
 62
     2
370
     9
100
AcDbLine
 10
-62.92215373093221
 20
58.0717081628848
 30
0.0
 11
-62.92215373093221
 21
31.57170733808531
 31
0.0
  0
LINE
  5
83
330
1F
100
AcDbEntity
  8
0-A
  6
Continuous
 62
     2
370
     9
100
AcDbLine
 10
-49.92216032932738
 20
58.0717081628848
 30
0.0
 11
-49.92216032932738
 21
31.57170733808531
 31
0.0
  0
LINE
  5
84
330
1F
100
AcDbEntity
  8
0-A
  6
Continuous
 62
     2
370
     9
100
AcDbLine
 10
-62.92215373093221
 20
31.57170733808531
 30
0.0
 11
-49.92216032932738
 21
31.57170733808531
 31
0.0
  0
LINE
  5
85
330
1F
100
AcDbEntity
  8
0-A
  6
Continuous
 62
     2
370
     9
100
AcDbLine
 10
-422.9221661029234
 20
31.57170733808531
 30
0.0
 11
-409.9221727013186
 21
31.57170733808531
 31
0.0
  0
LINE
  5
86
330
1F
100
AcDbEntity
  8
0-A
  6
Continuous
 62
     2
370
     9
100
AcDbLine
 10
-409.9221727013186
 20
58.0717081628848
 30
0.0
 11
-409.9221727013186
 21
31.57170733808531
 31
0.0
  0
LINE
  5
87
330
1F
100
AcDbEntity
  8
0-A
  6
Continuous
 62
     2
370
     9
100
AcDbLine
 10
-422.9221661029234
 20
58.0717081628848
 30
0.0
 11
-422.9221661029234
 21
31.57170733808531
 31
0.0
  0
LINE
  5
88
330
1F
100
AcDbEntity
  8
0-A
  6
Continuous
 62
     2
370
     9
100
AcDbLine
 10
-782.9221784749145
 20
58.0717081628848
 30
0.0
 11
-782.9221784749145
 21
31.57170733808531
 31
0.0
  0
LINE
  5
89
330
1F
100
AcDbEntity
  8
0-A
  6
Continuous
 62
     2
370
     9
100
AcDbLine
 10
-769.9221696083212
 20
58.0717081628848
 30
0.0
 11
-769.9221696083212
 21
31.57170733808531
 31
0.0
  0
LINE
  5
8A
330
1F
100
AcDbEntity
  8
0-A
  6
Continuous
 62
     2
370
     9
100
AcDbLine
 10
-782.9221784749145
 20
31.57170733808531
 30
0.0
 11
-769.9221696083212
 21
31.57170733808531
 31
0.0
  0
CIRCLE
  5
8B
330
1F
100
AcDbEntity
  8
0-A
  6
Continuous
 62
     2
370
     9
100
AcDbCircle
 10
-416.422169402121
 20
441.0716850685013
 30
0.0
 40
6.499999600487786
  0
CIRCLE
  5
8C
330
1F
100
AcDbEntity
  8
0-A
  6
Continuous
 62
     2
370
     9
100
AcDbCircle
 10
-776.4221663091232
 20
441.0716850685013
 30
0.0
 40
6.499999600487786
  0
CIRCLE
  5
8D
330
1F
100
AcDbEntity
  8
0-A
  6
Continuous
 62
     2
370
     9
100
AcDbCircle
 10
-56.42215703012987
 20
441.0716850685013
 30
0.0
 40
6.499999600487786
  0
ARC
  5
8E
330
1F
100
AcDbEntity
  8
0-A
  6
Continuous
 62
     2
370
     9
100
AcDbCircle
 10
-56.42215703012987
 20
58.0717081628848
 30
0.0
 40
6.499999600487786
100
AcDbArc
 50
1.403289794921875
 51
0.0
  0
ARC
  5
8F
330
1F
100
AcDbEntity
  8
0-A
  6
Continuous
 62
     2
370
     9
100
AcDbCircle
 10
-776.4221663091232
 20
58.0717081628848
 30
0.0
 40
6.499999600487786
100
AcDbArc
 50
1.403289794921875
 51
0.0
  0
ARC
  5
90
330
1F
100
AcDbEntity
  8
0-A
  6
Continuous
 62
     2
370
     9
100
AcDbCircle
 10
-416.422169402121
 20
58.0717081628848
 30
0.0
 40
6.499999600487786
100
AcDbArc
 50
1.403289794921875
 51
0.0
  0
LINE
  5
91
330
1F
100
AcDbEntity
  8
0-A
  6
Continuous
 62
     2
370
     9
100
AcDbLine
 10
621.5521314979004
 20
51.57177332203805
 30
0.0
 11
665.5521281987026
 21
51.57177332203805
 31
0.0
  0
LINE
  5
92
330
1F
100
AcDbEntity
  8
0-A
  6
Continuous
 62
     2
370
     9
100
AcDbLine
 10
621.5521314979004
 20
64.57170486368713
 30
0.0
 11
621.5521314979004
 21
51.57177332203805
 31
0.0
  0
ARC
  5
93
330
1F
100
AcDbEntity
  8
0-A
  6
Continuous
 62
     2
370
     9
100
AcDbCircle
 10
665.5521281987026
 20
45.57172878286995
 30
0.0
 40
18.9999973451769
100
AcDbArc
 50
1.403289794921875
 51
90.0
  0
LINE
  5
94
330
1F
100
AcDbEntity
  8
0-A
  6
Continuous
 62
     2
370
     9
100
AcDbLine
 10
671.5521727378706
 20
45.57172878286995
 30
0.0
 11
671.5521727378706
 21
31.57170733808531
 31
0.0
  0
ARC
  5
95
330
1F
100
AcDbEntity
  8
0-A
  6
Continuous
 62
     2
370
     9
100
AcDbCircle
 10
665.5521281987026
 20
45.57172878286995
 30
0.0
 40
5.999999594044042
100
AcDbArc
 50
1.403289794921875
 51
90.0
  0
LINE
  5
96
330
1F
100
AcDbEntity
  8
0-A
  6
Continuous
 62
     2
370
     9
100
AcDbLine
 10
671.5521727378706
 20
31.57170733808531
 30
0.0
 11
684.5521661394755
 21
31.57170733808531
 31
0.0
  0
LINE
  5
97
330
1F
100
AcDbEntity
  8
0-A
  6
Continuous
 62
     2
370
     9
100
AcDbLine
 10
684.5521661394755
 20
45.57172878286995
 30
0.0
 11
684.5521661394755
 21
31.57170733808531
 31
0.0
  0
LINE
  5
98
330
1F
100
AcDbEntity
  8
0-A
  6
Continuous
 62
     2
370
     9
100
AcDbLine
 10
621.5521314979004
 20
447.5716817693036
 30
0.0
 11
665.5521281987026
 21
447.5716817693036
 31
0.0
  0
ARC
  5
99
330
1F
100
AcDbEntity
  8
0-A
  6
Continuous
 62
     2
370
     9
100
AcDbCircle
 10
665.5521281987026
 20
453.5717263084717
 30
0.0
 40
5.999999594044042
100
AcDbArc
 50
270.0
 51
0.0
  0
LINE
  5
9A
330
1F
100
AcDbEntity
  8
0-A
  6
Continuous
 62
     2
370
     9
100
AcDbLine
 10
671.5521727378706
 20
453.5717263084717
 30
0.0
 11
671.5521727378706
 21
467.5716240333451
 31
0.0
  0
LINE
  5
9B
330
1F
100
AcDbEntity
  8
0-A
  6
Continuous
 62
     2
370
     9
100
AcDbLine
 10
671.5521727378706
 20
467.5716240333451
 30
0.0
 11
684.5521661394755
 21
467.5716240333451
 31
0.0
  0
LINE
  5
9C
330
1F
100
AcDbEntity
  8
0-A
  6
Continuous
 62
     2
370
     9
100
AcDbLine
 10
684.5521661394755
 20
453.5717263084717
 30
0.0
 11
684.5521661394755
 21
467.5716240333451
 31
0.0
  0
ARC
  5
9D
330
1F
100
AcDbEntity
  8
0-A
  6
Continuous
 62
     2
370
     9
100
AcDbCircle
 10
665.5521281987026
 20
453.5717263084717
 30
0.0
 40
18.9999973451769
100
AcDbArc
 50
270.0
 51
0.0
  0
LINE
  5
9E
330
1F
100
AcDbEntity
  8
0-A
  6
Continuous
 62
     2
370
     9
100
AcDbLine
 10
621.5521314979004
 20
434.5716883676989
 30
0.0
 11
621.5521314979004
 21
447.5716817693036
 31
0.0
  0
LINE
  5
9F
330
1F
100
AcDbEntity
  8
建具
  6
Continuous
 62
     4
370
     9
100
AcDbLine
 10
651.552106753918
 20
124.5717790956339
 30
0.0
 11
651.552106753918
 21
103.071732906867
 31
0.0
  0
LINE
  5
A0
330
1F
100
AcDbEntity
  8
建具
  6
Continuous
 62
     4
370
     9
100
AcDbLine
 10
291.0776903819797
 20
374.5717378556635
 30
0.0
 11
121.0778718378496
 21
374.5717378556635
 31
0.0
  0
LINE
  5
A1
330
1F
100
AcDbEntity
  8
建具
  6
Continuous
 62
     4
370
     9
100
AcDbLine
 10
291.0776903819797
 20
124.5717790956339
 30
0.0
 11
121.0778718378496
 21
124.5717790956339
 31
0.0
  0
TEXT
  5
A2
330
1F
100
AcDbEntity
  8
寸法
  6
Continuous
 62
     7
370
     9
100
AcDbText
 10
505.4181157641912
 20
-446.695999695986
 30
0.0
 40
11.43
  1
仕様
 41
1.083333333333333
  7
ＭＳ ゴシック
100
AcDbText
  0
TEXT
  5
A3
330
1F
100
AcDbEntity
  8
寸法
  6
Continuous
 62
     7
370
     9
100
AcDbText
 10
505.4181322601797
 20
-472.9459935099903
 30
0.0
 40
11.43
  1
適用荷重：Ｔ－２０
 41
1.148148148148149
  7
ＭＳ ゴシック
100
AcDbText
  0
TEXT
  5
A4
330
1F
100
AcDbEntity
  8
寸法
  6
Continuous
 62
     7
370
     9
100
AcDbText
 10
505.4181528801646
 20
-525.4459966029881
 30
0.0
 40
11.43
  1
接触圧子：２００×５００ｍｍ
 41
1.154761904761905
  7
ＭＳ ゴシック
100
AcDbText
  0
TEXT
  5
A5
330
1F
100
AcDbEntity
  8
寸法
  6
Continuous
 62
     7
370
     9
100
AcDbText
 10
504.1163417291991
 20
-499.1959873239948
 30
0.0
 40
11.43
  1
破壊荷重：４４０ｋＮ｛４４，８００ｋＮ｝以上
 41
1.159090909090909
  7
ＭＳ ゴシック
100
AcDbText
  0
LINE
  5
A6
330
1F
100
AcDbEntity
  8
その他
  6
Continuous
 62
     7
370
     9
100
AcDbLine
 10
-876.4221714641199
 20
503.5921760070212
 30
0.0
 11
-776.4221663091232
 21
503.5921760070212
 31
0.0
  0
LINE
  5
A7
330
1F
100
AcDbEntity
  8
その他
  6
Continuous
 62
     7
370
     9
100
AcDbLine
 10
-876.4221714641199
 20
503.5921760070212
 30
0.0
 11
-864.0291106969471
 21
505.2237534097719
 31
0.0
  0
LINE
  5
A8
330
1F
100
AcDbEntity
  8
その他
  6
Continuous
 62
     7
370
     9
100
AcDbLine
 10
-876.4221714641199
 20
503.5921760070212
 30
0.0
 11
-864.0291106969471
 21
501.9605986042706
 31
0.0
  0
LINE
  5
A9
330
1F
100
AcDbEntity
  8
その他
  6
Continuous
 62
     7
370
     9
100
AcDbLine
 10
-776.4221663091232
 20
503.5921760070212
 30
0.0
 11
-788.8152270762959
 21
505.2237534097719
 31
0.0
  0
LINE
  5
AA
330
1F
100
AcDbEntity
  8
その他
  6
Continuous
 62
     7
370
     9
100
AcDbLine
 10
-776.4221663091232
 20
503.5921760070212
 30
0.0
 11
-788.8152270762959
 21
501.9605986042706
 31
0.0
  0
LINE
  5
AB
330
1F
100
AcDbEntity
  8
その他
  6
Continuous
 62
     7
370
     9
100
AcDbLine
 10
-876.4221714641199
 20
505.0921760070212
 30
0.0
 11
-876.4221714641199
 21
444.5716883676989
 31
0.0
  0
LINE
  5
AC
330
1F
100
AcDbEntity
  8
その他
  6
Continuous
 62
     7
370
     9
100
AcDbLine
 10
-776.4221663091232
 20
505.0921760070212
 30
0.0
 11
-776.4221663091232
 21
483.2445531269894
 31
0.0
  0
TEXT
  5
AD
330
1F
100
AcDbEntity
  8
その他
  6
Continuous
 62
     2
370
   211
100
AcDbText
 10
-842.6721688866214
 20
509.4121760070212
 30
0.0
 40
15.24
  1
100
 41
1.083333333333333
  7
ＭＳ ゴシック
100
AcDbText
  0
LINE
  5
AE
330
1F
100
AcDbEntity
  8
その他
  6
Continuous
 62
     7
370
     9
100
AcDbLine
 10
-776.4221663091232
 20
503.5921760070212
 30
0.0
 11
-416.422169402121
 21
503.5921760070212
 31
0.0
  0
LINE
  5
AF
330
1F
100
AcDbEntity
  8
その他
  6
Continuous
 62
     7
370
     9
100
AcDbLine
 10
-776.4221663091232
 20
503.5921760070212
 30
0.0
 11
-764.0291055419505
 21
505.2237534097719
 31
0.0
  0
LINE
  5
B0
330
1F
100
AcDbEntity
  8
その他
  6
Continuous
 62
     7
370
     9
100
AcDbLine
 10
-776.4221663091232
 20
503.5921760070212
 30
0.0
 11
-764.0291055419505
 21
501.9605986042706
 31
0.0
  0
LINE
  5
B1
330
1F
100
AcDbEntity
  8
その他
  6
Continuous
 62
     7
370
     9
100
AcDbLine
 10
-416.422169402121
 20
503.5921760070212
 30
0.0
 11
-428.8152301692936
 21
505.2237534097719
 31
0.0
  0
LINE
  5
B2
330
1F
100
AcDbEntity
  8
その他
  6
Continuous
 62
     7
370
     9
100
AcDbLine
 10
-416.422169402121
 20
503.5921760070212
 30
0.0
 11
-428.8152301692936
 21
501.9605986042706
 31
0.0
  0
LINE
  5
B3
330
1F
100
AcDbEntity
  8
その他
  6
Continuous
 62
     7
370
     9
100
AcDbLine
 10
-416.422169402121
 20
505.0921760070212
 30
0.0
 11
-416.422169402121
 21
483.2445531269894
 31
0.0
  0
TEXT
  5
B4
330
1F
100
AcDbEntity
  8
その他
  6
Continuous
 62
     2
370
   211
100
AcDbText
 10
-612.6721678556221
 20
509.4121760070212
 30
0.0
 40
15.24
  1
360
 41
1.083333333333333
  7
ＭＳ ゴシック
100
AcDbText
  0
LINE
  5
B5
330
1F
100
AcDbEntity
  8
その他
  6
Continuous
 62
     7
370
     9
100
AcDbLine
 10
-416.422169402121
 20
503.5921760070212
 30
0.0
 11
-56.42215703012987
 21
503.5921760070212
 31
0.0
  0
LINE
  5
B6
330
1F
100
AcDbEntity
  8
その他
  6
Continuous
 62
     7
370
     9
100
AcDbLine
 10
-416.422169402121
 20
503.5921760070212
 30
0.0
 11
-404.0291086349483
 21
505.2237534097719
 31
0.0
  0
LINE
  5
B7
330
1F
100
AcDbEntity
  8
その他
  6
Continuous
 62
     7
370
     9
100
AcDbLine
 10
-416.422169402121
 20
503.5921760070212
 30
0.0
 11
-404.0291086349483
 21
501.9605986042706
 31
0.0
  0
LINE
  5
B8
330
1F
100
AcDbEntity
  8
その他
  6
Continuous
 62
     7
370
     9
100
AcDbLine
 10
-56.42215703012987
 20
503.5921760070212
 30
0.0
 11
-68.8152177973025
 21
505.2237534097719
 31
0.0
  0
LINE
  5
B9
330
1F
100
AcDbEntity
  8
その他
  6
Continuous
 62
     7
370
     9
100
AcDbLine
 10
-56.42215703012987
 20
503.5921760070212
 30
0.0
 11
-68.8152177973025
 21
501.9605986042706
 31
0.0
  0
LINE
  5
BA
330
1F
100
AcDbEntity
  8
その他
  6
Continuous
 62
     7
370
     9
100
AcDbLine
 10
-416.422169402121
 20
505.0921760070212
 30
0.0
 11
-416.422169402121
 21
483.2445531269894
 31
0.0
  0
LINE
  5
BB
330
1F
100
AcDbEntity
  8
その他
  6
Continuous
 62
     7
370
     9
100
AcDbLine
 10
-56.42215703012987
 20
505.0921760070212
 30
0.0
 11
-56.42215703012987
 21
483.2445531269894
 31
0.0
  0
TEXT
  5
BC
330
1F
100
AcDbEntity
  8
その他
  6
Continuous
 62
     2
370
   211
100
AcDbText
 10
-252.6721632161254
 20
509.4121760070212
 30
0.0
 40
15.24
  1
360
 41
1.083333333333333
  7
ＭＳ ゴシック
100
AcDbText
  0
LINE
  5
BD
330
1F
100
AcDbEntity
  8
その他
  6
Continuous
 62
     7
370
     9
100
AcDbLine
 10
-56.42215703012987
 20
503.5921760070212
 30
0.0
 11
291.0776903819796
 21
503.5921760070212
 31
0.0
  0
LINE
  5
BE
330
1F
100
AcDbEntity
  8
その他
  6
Continuous
 62
     7
370
     9
100
AcDbLine
 10
-56.42215703012987
 20
503.5921760070212
 30
0.0
 11
-44.02909626295724
 21
505.2237534097719
 31
0.0
  0
LINE
  5
BF
330
1F
100
AcDbEntity
  8
その他
  6
Continuous
 62
     7
370
     9
100
AcDbLine
 10
-56.42215703012987
 20
503.5921760070212
 30
0.0
 11
-44.02909626295724
 21
501.9605986042706
 31
0.0
  0
LWPOLYLINE
  5
C0
330
1F
100
AcDbEntity
  8
その他
  6
Continuous
 62
     7
370
     9
100
AcDbPolyline
 90
        4
 70
     1
 43
0.5
 10
-241.9222121015997
 20
8.568526508607594
 42
0.4142135623731
 10
-242.1722121015997
 20
8.818526508607595
 42
0.4142135623731
 10
-242.4222121015997
 20
8.568526508607594
 42
0.4142135623731
 10
-242.1722121015997
 20
8.318526508607594
 42
0.4142135623731
  0
LINE
  5
C1
330
1F
100
AcDbEntity
  8
その他
  6
Continuous
 62
     7
370
     9
100
AcDbLine
 10
-268.672201569298
 20
7.068526508607595
 30
0.0
 11
-268.672201569298
 21
81.57171971007648
 31
0.0
  0
LINE
  5
C2
330
1F
100
AcDbEntity
  8
その他
  6
Continuous
 62
     7
370
     9
100
AcDbLine
 10
-242.1722121015997
 20
7.068526508607595
 30
0.0
 11
-242.1722121015997
 21
81.57171971007648
 31
0.0
  0
LINE
  5
C3
330
1F
100
AcDbEntity
  8
その他
  6
Continuous
 62
     7
370
     9
100
AcDbLine
 10
-242.1722121015997
 20
8.568526508607594
 30
0.0
 11
-218.6722108321819
 21
8.568526508607594
 31
0.0
  0
LWPOLYLINE
  5
C4
330
1F
100
AcDbEntity
  8
その他
  6
Continuous
 62
     7
370
     9
100
AcDbPolyline
 90
        4
 70
     1
 43
0.5
 10
-218.4222108321819
 20
8.568526508607594
 42
0.4142135623731
 10
-218.6722108321819
 20
8.818526508607595
 42
0.4142135623731
 10
-218.9222108321819
 20
8.568526508607594
 42
0.4142135623731
 10
-218.6722108321819
 20
8.318526508607594
 42
0.4142135623731
  0
LINE
  5
C5
330
1F
100
AcDbEntity
  8
その他
  6
Continuous
 62
     7
370
     9
100
AcDbLine
 10
-218.6722108321819
 20
7.068526508607595
 30
0.0
 11
-218.6722108321819
 21
81.57171971007648
 31
0.0
  0
LINE
  5
C6
330
1F
100
AcDbEntity
  8
その他
  6
Continuous
 62
     7
370
     9
100
AcDbLine
 10
-206.6721949709026
 20
7.068526508607595
 30
0.0
 11
-206.6721949709026
 21
81.57171971007648
 31
0.0
  0
LINE
  5
C7
330
1F
100
AcDbEntity
  8
その他
  6
Continuous
 62
     7
370
     9
100
AcDbLine
 10
-319.8430405681098
 20
8.568526508607594
 30
0.0
 11
-242.1722121015997
 21
8.568526508607594
 31
0.0
  0
TEXT
  5
C8
330
1F
100
AcDbEntity
  8
その他
  6
Continuous
 62
     2
370
   211
100
AcDbText
 10
-315.8119210601707
 20
14.60593442082144
 30
0.0
 40
15.24
  1
26.5
 41
1.09375
  7
ＭＳ ゴシック
100
AcDbText
  0
TEXT
  5
C9
330
1F
100
AcDbEntity
  8
その他
  6
Continuous
 62
     2
370
   211
100
AcDbText
 10
-253.9544520310099
 20
-12.88627403658335
 30
0.0
 40
15.24
  1
23.5
 41
1.09375
  7
ＭＳ ゴシック
100
AcDbText
  0
TEXT
  5
CA
330
1F
100
AcDbEntity
  8
その他
  6
Continuous
 62
     2
370
   211
100
AcDbText
 10
-201.4661393449027
 20
14.07723810433288
 30
0.0
 40
15.24
  1
12
 41
1.0625
  7
ＭＳ ゴシック
100
AcDbText
  0
LINE
  5
CB
330
1F
100
AcDbEntity
  8
その他
  6
Continuous
 62
     7
370
     9
100
AcDbLine
 10
-218.6722108321819
 20
8.568526508607594
 30
0.0
 11
-168.6358940523835
 21
8.568526508607594
 31
0.0
  0
LINE
  5
CC
330
1F
100
AcDbEntity
  8
その他
  6
Continuous
 62
     7
370
     9
100
AcDbLine
 10
-876.4221714641199
 20
-89.75294870594871
 30
0.0
 11
-876.4221714641199
 21
54.57170486368714
 31
0.0
  0
LINE
  5
CD
330
1F
100
AcDbEntity
  8
その他
  6
Continuous
 62
     7
370
     9
100
AcDbLine
 10
-873.9221632161255
 20
-89.75294870594871
 30
0.0
 11
-873.9221632161255
 21
64.57173785566343
 31
0.0
  0
LINE
  5
CE
330
1F
100
AcDbEntity
  8
その他
  6
Continuous
 62
     7
370
     9
100
AcDbLine
 10
-873.9221632161255
 20
-88.25294870594871
 30
0.0
 11
121.0778718378496
 21
-88.25294870594871
 31
0.0
  0
LINE
  5
CF
330
1F
100
AcDbEntity
  8
その他
  6
Continuous
 62
     7
370
     9
100
AcDbLine
 10
-873.9221632161255
 20
-88.25294870594871
 30
0.0
 11
-861.5291024489528
 21
-86.62137130319806
 31
0.0
  0
LINE
  5
D0
330
1F
100
AcDbEntity
  8
その他
  6
Continuous
 62
     7
370
     9
100
AcDbLine
 10
-873.9221632161255
 20
-88.25294870594871
 30
0.0
 11
-861.5291024489528
 21
-89.88452610869935
 31
0.0
  0
LINE
  5
D1
330
1F
100
AcDbEntity
  8
その他
  6
Continuous
 62
     7
370
     9
100
AcDbLine
 10
121.0778718378496
 20
-88.25294870594871
 30
0.0
 11
108.6848110706769
 21
-86.62137130319806
 31
0.0
  0
LINE
  5
D2
330
1F
100
AcDbEntity
  8
その他
  6
Continuous
 62
     7
370
     9
100
AcDbLine
 10
121.0778718378496
 20
-88.25294870594871
 30
0.0
 11
108.6848110706769
 21
-89.88452610869935
 31
0.0
  0
LINE
  5
D3
330
1F
100
AcDbEntity
  8
その他
  6
Continuous
 62
     7
370
     9
100
AcDbLine
 10
121.0778718378496
 20
-89.75294870594871
 30
0.0
 11
121.0778718378496
 21
64.57173785566343
 31
0.0
  0
TEXT
  5
D4
330
1F
100
AcDbEntity
  8
その他
  6
Continuous
 62
     2
370
   211
100
AcDbText
 10
-392.672145689138
 20
-82.43294870594869
 30
0.0
 40
15.24
  1
995
 41
1.083333333333333
  7
ＭＳ ゴシック
100
AcDbText
  0
LINE
  5
D5
330
1F
100
AcDbEntity
  8
その他
  6
Continuous
 62
     7
370
     9
100
AcDbLine
 10
121.0778718378496
 20
-88.25294870594871
 30
0.0
 11
126.0778883338377
 21
-88.25294870594871
 31
0.0
  0
LINE
  5
D6
330
1F
100
AcDbEntity
  8
その他
  6
Continuous
 62
     7
370
     9
100
AcDbLine
 10
126.0778883338377
 20
-89.75294870594871
 30
0.0
 11
126.0778883338377
 21
64.57173785566343
 31
0.0
  0
LINE
  5
D7
330
1F
100
AcDbEntity
  8
その他
  6
Continuous
 62
     7
370
     9
100
AcDbLine
 10
126.0778883338377
 20
-88.25294870594871
 30
0.0
 11
291.0776903819797
 21
-88.25294870594871
 31
0.0
  0
LINE
  5
D8
330
1F
100
AcDbEntity
  8
その他
  6
Continuous
 62
     7
370
     9
100
AcDbLine
 10
126.0778883338377
 20
-88.25294870594871
 30
0.0
 11
138.4709491010103
 21
-86.62137130319806
 31
0.0
  0
LINE
  5
D9
330
1F
100
AcDbEntity
  8
その他
  6
Continuous
 62
     7
370
     9
100
AcDbLine
 10
126.0778883338377
 20
-88.25294870594871
 30
0.0
 11
138.4709491010103
 21
-89.88452610869935
 31
0.0
  0
TEXT
  5
DA
330
1F
100
AcDbEntity
  8
その他
  6
Continuous
 62
     2
370
   211
100
AcDbText
 10
252.4626374914271
 20
-82.43294870594869
 30
0.0
 40
15.24
  1
995
 41
1.083333333333333
  7
ＭＳ ゴシック
100
AcDbText
  0
TEXT
  5
DB
330
1F
100
AcDbEntity
  8
その他
  6
Continuous
 62
     2
370
   211
100
AcDbText
 10
105.4100217902751
 20
-82.43294870594869
 30
0.0
 40
15.24
  1
5
 41
0.9999999999999998
  7
ＭＳ ゴシック
100
AcDbText
  0
LINE
  5
DC
330
1F
100
AcDbEntity
  8
その他
  6
Continuous
 62
     7
370
     9
100
AcDbLine
 10
-876.4221714641199
 20
-88.25294870594871
 30
0.0
 11
-888.8152322312925
 21
-86.62137130319806
 31
0.0
  0
LINE
  5
DD
330
1F
100
AcDbEntity
  8
その他
  6
Continuous
 62
     7
370
     9
100
AcDbLine
 10
-876.4221714641199
 20
-88.25294870594871
 30
0.0
 11
-888.8152322312925
 21
-89.88452610869935
 31
0.0
  0
LINE
  5
DE
330
1F
100
AcDbEntity
  8
その他
  6
Continuous
 62
     7
370
     9
100
AcDbLine
 10
-911.620387309776
 20
-88.25294870594871
 30
0.0
 11
-873.9221632161255
 21
-88.25294870594871
 31
0.0
  0
TEXT
  5
DF
330
1F
100
AcDbEntity
  8
その他
  6
Continuous
 62
     2
370
   211
100
AcDbText
 10
-912.9369223690783
 20
-82.43294870594869
 30
0.0
 40
15.24
  1
2.5
 41
1.083333333333333
  7
ＭＳ ゴシック
100
AcDbText
  0
TEXT
  5
E0
330
1F
100
AcDbEntity
  8
その他
  6
Continuous
 62
     2
370
   211
100
AcDbText
 10
143.5074421168688
 20
509.4121760070212
 30
0.0
 40
15.24
  1
360
 41
1.083333333333334
  7
ＭＳ ゴシック
100
AcDbText
  0
LINE
  5
E1
330
1F
100
AcDbEntity
  8
その他
  6
Continuous
 62
     7
370
     9
100
AcDbLine
 10
-876.4221714641199
 20
576.51598676957
 30
0.0
 11
291.0776903819797
 21
576.51598676957
 31
0.0
  0
LINE
  5
E2
330
1F
100
AcDbEntity
  8
その他
  6
Continuous
 62
     7
370
     9
100
AcDbLine
 10
-876.4221714641199
 20
576.51598676957
 30
0.0
 11
-864.0291106969471
 21
578.1475641723207
 31
0.0
  0
LINE
  5
E3
330
1F
100
AcDbEntity
  8
その他
  6
Continuous
 62
     7
370
     9
100
AcDbLine
 10
-876.4221714641199
 20
576.51598676957
 30
0.0
 11
-864.0291106969471
 21
574.8844093668193
 31
0.0
  0
LINE
  5
E4
330
1F
100
AcDbEntity
  8
その他
  6
Continuous
 62
     7
370
     9
100
AcDbLine
 10
-876.4221714641199
 20
578.01598676957
 30
0.0
 11
-876.4221714641199
 21
444.5716883676989
 31
0.0
  0
TEXT
  5
E5
330
1F
100
AcDbEntity
  8
その他
  6
Continuous
 62
     2
370
   211
100
AcDbText
 10
63.79203417861078
 20
582.33598676957
 30
0.0
 40
15.24
  1
2000
 41
1.09375
  7
ＭＳ ゴシック
100
AcDbText
  0
LINE
  5
E6
330
1F
100
AcDbEntity
  8
その他
  6
Continuous
 62
     7
370
     9
100
AcDbLine
 10
168.708817682244
 20
203.0716803097954
 30
0.0
 11
168.708817682244
 21
296.0717129215909
 31
0.0
  0
LINE
  5
E7
330
1F
100
AcDbEntity
  8
その他
  6
Continuous
 62
     7
370
     9
100
AcDbLine
 10
168.708817682244
 20
203.0716803097954
 30
0.0
 11
167.0772402794933
 21
215.464741076968
 31
0.0
  0
LINE
  5
E8
330
1F
100
AcDbEntity
  8
その他
  6
Continuous
 62
     7
370
     9
100
AcDbLine
 10
168.708817682244
 20
203.0716803097954
 30
0.0
 11
170.3403950849946
 21
215.464741076968
 31
0.0
  0
LINE
  5
E9
330
1F
100
AcDbEntity
  8
その他
  6
Continuous
 62
     7
370
     9
100
AcDbLine
 10
168.708817682244
 20
296.0717129215909
 30
0.0
 11
167.0772402794933
 21
283.6786521544182
 31
0.0
  0
LINE
  5
EA
330
1F
100
AcDbEntity
  8
その他
  6
Continuous
 62
     7
370
     9
100
AcDbLine
 10
168.708817682244
 20
296.0717129215909
 30
0.0
 11
170.3403950849946
 21
283.6786521544182
 31
0.0
  0
LINE
  5
EB
330
1F
100
AcDbEntity
  8
その他
  6
Continuous
 62
     7
370
     9
100
AcDbLine
 10
170.208817682244
 20
203.0716803097954
 30
0.0
 11
100.3277827595134
 21
203.0716803097954
 31
0.0
  0
LINE
  5
EC
330
1F
100
AcDbEntity
  8
その他
  6
Continuous
 62
     7
370
     9
100
AcDbLine
 10
170.208817682244
 20
296.0717129215909
 30
0.0
 11
100.3277827595134
 21
296.0717129215909
 31
0.0
  0
TEXT
  5
ED
330
1F
100
AcDbEntity
  8
その他
  6
Continuous
 62
     2
370
   211
100
AcDbText
 10
162.888817682244
 20
238.9466966156931
 30
0.0
 40
15.24
  1
93
 50
90.0
 41
1.0625
  7
ＭＳ ゴシック
100
AcDbText
  0
LINE
  5
EE
330
1F
100
AcDbEntity
  8
その他
  6
Continuous
 62
     7
370
     9
100
AcDbLine
 10
170.208817682244
 20
308.0717792857244
 30
0.0
 11
100.3277827595134
 21
308.0717792857244
 31
0.0
  0
LINE
  5
EF
330
1F
100
AcDbEntity
  8
その他
  6
Continuous
 62
     7
370
     9
100
AcDbLine
 10
230.2381303770325
 20
103.0717329068669
 30
0.0
 11
230.2381303770325
 21
396.071660324519
 31
0.0
  0
LINE
  5
F0
330
1F
100
AcDbEntity
  8
その他
  6
Continuous
 62
     7
370
     9
100
AcDbLine
 10
230.2381303770325
 20
103.0717329068669
 30
0.0
 11
228.6065529742819
 21
115.4647936740396
 31
0.0
  0
LINE
  5
F1
330
1F
100
AcDbEntity
  8
その他
  6
Continuous
 62
     7
370
     9
100
AcDbLine
 10
230.2381303770325
 20
103.0717329068669
 30
0.0
 11
231.8697077797832
 21
115.4647936740396
 31
0.0
  0
LINE
  5
F2
330
1F
100
AcDbEntity
  8
その他
  6
Continuous
 62
     7
370
     9
100
AcDbLine
 10
230.2381303770325
 20
396.071660324519
 30
0.0
 11
228.6065529742819
 21
383.6785995573464
 31
0.0
  0
LINE
  5
F3
330
1F
100
AcDbEntity
  8
その他
  6
Continuous
 62
     7
370
     9
100
AcDbLine
 10
230.2381303770325
 20
396.071660324519
 30
0.0
 11
231.8697077797832
 21
383.6785995573464
 31
0.0
  0
LINE
  5
F4
330
1F
100
AcDbEntity
  8
その他
  6
Continuous
 62
     7
370
     9
100
AcDbLine
 10
231.7381303770325
 20
103.0717329068669
 30
0.0
 11
68.82782729868147
 21
103.071732906867
 31
0.0
  0
LINE
  5
F5
330
1F
100
AcDbEntity
  8
その他
  6
Continuous
 62
     7
370
     9
100
AcDbLine
 10
231.7381303770325
 20
396.071660324519
 30
0.0
 11
68.82782729868147
 21
396.071660324519
 31
0.0
  0
TEXT
  5
F6
330
1F
100
AcDbEntity
  8
その他
  6
Continuous
 62
     2
370
   211
100
AcDbText
 10
224.4181303770325
 20
233.321696615693
 30
0.0
 40
15.24
  1
293
 50
90.0
 41
1.083333333333333
  7
ＭＳ ゴシック
100
AcDbText
  0
TEXT
  5
F7
330
1F
100
AcDbEntity
  8
その他
  6
Continuous
 62
     2
370
   211
100
AcDbText
 10
162.888817682244
 20
311.5880585385758
 30
0.0
 40
15.24
  1
12
 50
90.0
 41
1.0625
  7
ＭＳ ゴシック
100
AcDbText
  0
LINE
  5
F8
330
1F
100
AcDbEntity
  8
その他
  6
Continuous
 62
     7
370
     9
100
AcDbLine
 10
168.708817682244
 20
296.0717129215909
 30
0.0
 11
168.708817682244
 21
336.7281625412203
 31
0.0
  0
LINE
  5
F9
330
1F
100
AcDbEntity
  8
その他
  6
Continuous
 62
     7
370
     9
100
AcDbLine
 10
168.708817682244
 20
308.0717792857244
 30
0.0
 11
170.3403950849946
 21
320.464840052897
 31
0.0
  0
LINE
  5
FA
330
1F
100
AcDbEntity
  8
その他
  6
Continuous
 62
     7
370
     9
100
AcDbLine
 10
168.708817682244
 20
308.0717792857244
 30
0.0
 11
167.0772402794933
 21
320.464840052897
 31
0.0
  0
LINE
  5
FB
330
1F
100
AcDbEntity
  8
建具
  6
Continuous
 62
     4
370
     9
100
AcDbLine
 10
595.552144694691
 20
66.07174940285523
 30
0.0
 11
595.552144694691
 21
64.57170486368713
 31
0.0
  0
ARC
  5
FC
330
1F
100
AcDbEntity
  8
建具
  6
Continuous
 62
     4
370
     9
100
AcDbCircle
 10
600.052144694691
 20
66.07174940285523
 30
0.0
 40
4.5
100
AcDbArc
 50
90.0
 51
180.0
  0
LINE
  5
FD
330
1F
100
AcDbEntity
  8
建具
  6
Continuous
 62
     4
370
     9
100
AcDbLine
 10
650.0520622147501
 20
124.5717790956339
 30
0.0
 11
651.552106753918
 21
124.5717790956339
 31
0.0
  0
ARC
  5
FE
330
1F
100
AcDbEntity
  8
建具
  6
Continuous
 62
     4
370
     9
100
AcDbCircle
 10
650.0520622147501
 20
120.0717790956339
 30
0.0
 40
4.5
100
AcDbArc
 50
90.0
 51
180.0
  0
LINE
  5
FF
330
1F
100
AcDbEntity
  8
建具
  6
Continuous
 62
     4
370
     9
100
AcDbLine
 10
595.552144694691
 20
433.0716438285309
 30
0.0
 11
595.552144694691
 21
434.5716883676989
 31
0.0
  0
ARC
  5
100
330
1F
100
AcDbEntity
  8
建具
  6
Continuous
 62
     4
370
     9
100
AcDbCircle
 10
600.052144694691
 20
433.0716438285309
 30
0.0
 40
4.5
100
AcDbArc
 50
180.0
 51
270.0
  0
LINE
  5
101
330
1F
100
AcDbEntity
  8
建具
  6
Continuous
 62
     4
370
     9
100
AcDbLine
 10
650.0520622147501
 20
374.5717378556635
 30
0.0
 11
651.552106753918
 21
374.5717378556635
 31
0.0
  0
ARC
  5
102
330
1F
100
AcDbEntity
  8
建具
  6
Continuous
 62
     4
370
     9
100
AcDbCircle
 10
650.0520622147501
 20
379.0717378556635
 30
0.0
 40
4.5
100
AcDbArc
 50
180.0
 51
270.0
  0
LINE
  5
103
330
1F
100
AcDbEntity
  8
建具
  6
Continuous
 62
     4
370
     9
100
AcDbLine
 10
639.0520622147501
 20
428.5716438285309
 30
0.0
 11
600.052144694691
 21
428.5716438285309
 31
0.0
  0
LINE
  5
104
330
1F
100
AcDbEntity
  8
建具
  6
Continuous
 62
     4
370
     9
100
AcDbLine
 10
645.5520622147501
 20
422.0716438285309
 30
0.0
 11
645.5520622147501
 21
374.5717378556635
 31
0.0
  0
ARC
  5
105
330
1F
100
AcDbEntity
  8
建具
  6
Continuous
 62
     4
370
     9
100
AcDbCircle
 10
639.0520622147501
 20
422.0716438285309
 30
0.0
 40
6.5
100
AcDbArc
 50
0.0
 51
90.00000000000001
  0
LINE
  5
106
330
1F
100
AcDbEntity
  8
建具
  6
Continuous
 62
     4
370
     9
100
AcDbLine
 10
639.0520622147501
 20
70.57174940285523
 30
0.0
 11
600.052144694691
 21
70.57174940285523
 31
0.0
  0
LINE
  5
107
330
1F
100
AcDbEntity
  8
建具
  6
Continuous
 62
     4
370
     9
100
AcDbLine
 10
645.5520622147501
 20
77.07174940285525
 30
0.0
 11
645.5520622147501
 21
120.0717790956339
 31
0.0
  0
ARC
  5
108
330
1F
100
AcDbEntity
  8
建具
  6
Continuous
 62
     4
370
     9
100
AcDbCircle
 10
639.0520622147501
 20
77.07174940285525
 30
0.0
 40
6.5
100
AcDbArc
 50
270.0
 51
0.0
  0
LINE
  5
109
330
1F
100
AcDbEntity
  8
その他
  6
Continuous
 62
     7
370
     9
100
AcDbLine
 10
595.552144694691
 20
-2.01998454713558
 30
0.0
 11
645.5520622147501
 21
-2.01998454713558
 31
0.0
  0
LINE
  5
10A
330
1F
100
AcDbEntity
  8
その他
  6
Continuous
 62
     7
370
     9
100
AcDbLine
 10
595.552144694691
 20
-2.01998454713558
 30
0.0
 11
607.9452054618637
 21
-0.3884071443849357
 31
0.0
  0
LINE
  5
10B
330
1F
100
AcDbEntity
  8
その他
  6
Continuous
 62
     7
370
     9
100
AcDbLine
 10
595.552144694691
 20
-2.01998454713558
 30
0.0
 11
607.9452054618637
 21
-3.651561949886225
 31
0.0
  0
LINE
  5
10C
330
1F
100
AcDbEntity
  8
その他
  6
Continuous
 62
     7
370
     9
100
AcDbLine
 10
645.5520622147501
 20
-2.01998454713558
 30
0.0
 11
633.1590014475775
 21
-0.3884071443849357
 31
0.0
  0
LINE
  5
10D
330
1F
100
AcDbEntity
  8
その他
  6
Continuous
 62
     7
370
     9
100
AcDbLine
 10
645.5520622147501
 20
-2.01998454713558
 30
0.0
 11
633.1590014475775
 21
-3.651561949886225
 31
0.0
  0
LINE
  5
10E
330
1F
100
AcDbEntity
  8
その他
  6
Continuous
 62
     7
370
     9
100
AcDbLine
 10
595.552144694691
 20
-3.51998454713558
 30
0.0
 11
595.552144694691
 21
54.57170486368714
 31
0.0
  0
LINE
  5
10F
330
1F
100
AcDbEntity
  8
その他
  6
Continuous
 62
     7
370
     9
100
AcDbLine
 10
645.5520622147501
 20
-3.51998454713558
 30
0.0
 11
645.5520622147501
 21
67.07174940285525
 31
0.0
  0
TEXT
  5
110
330
1F
100
AcDbEntity
  8
その他
  6
Continuous
 62
     2
370
   211
100
AcDbText
 10
609.9271034547205
 20
3.80001545286442
 30
0.0
 40
15.24
  1
50
 41
1.0625
  7
ＭＳ ゴシック
100
AcDbText
  0
LINE
  5
111
330
1F
100
AcDbEntity
  8
その他
  6
Continuous
 62
     7
370
     9
100
AcDbLine
 10
595.552144694691
 20
-36.7170476347568
 30
0.0
 11
651.552106753918
 21
-36.7170476347568
 31
0.0
  0
LINE
  5
112
330
1F
100
AcDbEntity
  8
その他
  6
Continuous
 62
     7
370
     9
100
AcDbLine
 10
595.552144694691
 20
-36.7170476347568
 30
0.0
 11
607.9452054618637
 21
-35.08547023200616
 31
0.0
  0
LINE
  5
113
330
1F
100
AcDbEntity
  8
その他
  6
Continuous
 62
     7
370
     9
100
AcDbLine
 10
595.552144694691
 20
-36.7170476347568
 30
0.0
 11
607.9452054618637
 21
-38.34862503750745
 31
0.0
  0
LINE
  5
114
330
1F
100
AcDbEntity
  8
その他
  6
Continuous
 62
     7
370
     9
100
AcDbLine
 10
651.552106753918
 20
-36.7170476347568
 30
0.0
 11
639.1590459867454
 21
-35.08547023200616
 31
0.0
  0
LINE
  5
115
330
1F
100
AcDbEntity
  8
その他
  6
Continuous
 62
     7
370
     9
100
AcDbLine
 10
651.552106753918
 20
-36.7170476347568
 30
0.0
 11
639.1590459867454
 21
-38.34862503750745
 31
0.0
  0
LINE
  5
116
330
1F
100
AcDbEntity
  8
その他
  6
Continuous
 62
     7
370
     9
100
AcDbLine
 10
595.552144694691
 20
-38.2170476347568
 30
0.0
 11
595.552144694691
 21
44.57170486368715
 31
0.0
  0
LINE
  5
117
330
1F
100
AcDbEntity
  8
その他
  6
Continuous
 62
     7
370
     9
100
AcDbLine
 10
651.552106753918
 20
-38.2170476347568
 30
0.0
 11
651.552106753918
 21
54.57170486368715
 31
0.0
  0
TEXT
  5
118
330
1F
100
AcDbEntity
  8
その他
  6
Continuous
 62
     2
370
   211
100
AcDbText
 10
612.9271257243045
 20
-30.8970476347568
 30
0.0
 40
15.24
  1
56
 41
1.0625
  7
ＭＳ ゴシック
100
AcDbText
  0
LINE
  5
119
330
1F
100
AcDbEntity
  8
その他
  6
Continuous
 62
     7
370
     9
100
AcDbLine
 10
651.552106753918
 20
-36.7170476347568
 30
0.0
 11
684.5521661394755
 21
-36.7170476347568
 31
0.0
  0
LINE
  5
11A
330
1F
100
AcDbEntity
  8
その他
  6
Continuous
 62
     7
370
     9
100
AcDbLine
 10
651.552106753918
 20
-36.7170476347568
 30
0.0
 11
663.9451675210908
 21
-35.08547023200616
 31
0.0
  0
LINE
  5
11B
330
1F
100
AcDbEntity
  8
その他
  6
Continuous
 62
     7
370
     9
100
AcDbLine
 10
651.552106753918
 20
-36.7170476347568
 30
0.0
 11
663.9451675210908
 21
-38.34862503750745
 31
0.0
  0
LINE
  5
11C
330
1F
100
AcDbEntity
  8
その他
  6
Continuous
 62
     7
370
     9
100
AcDbLine
 10
684.5521661394755
 20
-36.7170476347568
 30
0.0
 11
672.1591053723029
 21
-35.08547023200616
 31
0.0
  0
LINE
  5
11D
330
1F
100
AcDbEntity
  8
その他
  6
Continuous
 62
     7
370
     9
100
AcDbLine
 10
684.5521661394755
 20
-36.7170476347568
 30
0.0
 11
672.1591053723029
 21
-38.34862503750745
 31
0.0
  0
LINE
  5
11E
330
1F
100
AcDbEntity
  8
その他
  6
Continuous
 62
     7
370
     9
100
AcDbLine
 10
684.5521661394755
 20
-38.2170476347568
 30
0.0
 11
684.5521661394755
 21
21.57170733808531
 31
0.0
  0
TEXT
  5
11F
330
1F
100
AcDbEntity
  8
その他
  6
Continuous
 62
     2
370
   211
100
AcDbText
 10
657.4271364466967
 20
-30.8970476347568
 30
0.0
 40
15.24
  1
33
 41
1.0625
  7
ＭＳ ゴシック
100
AcDbText
  0
LINE
  5
120
330
1F
100
AcDbEntity
  8
その他
  6
Continuous
 62
     7
370
     9
100
AcDbLine
 10
754.6647683372544
 20
31.57170733808531
 30
0.0
 11
754.6647683372544
 21
64.57170486368713
 31
0.0
  0
LINE
  5
121
330
1F
100
AcDbEntity
  8
その他
  6
Continuous
 62
     7
370
     9
100
AcDbLine
 10
754.6647683372544
 20
31.57170733808531
 30
0.0
 11
753.0331909345036
 21
43.96476810525794
 31
0.0
  0
LINE
  5
122
330
1F
100
AcDbEntity
  8
その他
  6
Continuous
 62
     7
370
     9
100
AcDbLine
 10
754.6647683372544
 20
31.57170733808531
 30
0.0
 11
756.2963457400051
 21
43.96476810525794
 31
0.0
  0
LINE
  5
123
330
1F
100
AcDbEntity
  8
その他
  6
Continuous
 62
     7
370
     9
100
AcDbLine
 10
754.6647683372544
 20
64.57170486368713
 30
0.0
 11
753.0331909345036
 21
52.1786440965145
 31
0.0
  0
LINE
  5
124
330
1F
100
AcDbEntity
  8
その他
  6
Continuous
 62
     7
370
     9
100
AcDbLine
 10
754.6647683372544
 20
64.57170486368713
 30
0.0
 11
756.2963457400051
 21
52.1786440965145
 31
0.0
  0
LINE
  5
125
330
1F
100
AcDbEntity
  8
その他
  6
Continuous
 62
     7
370
     9
100
AcDbLine
 10
756.1647683372544
 20
31.57170733808531
 30
0.0
 11
694.5521661394755
 21
31.57170733808531
 31
0.0
  0
LINE
  5
126
330
1F
100
AcDbEntity
  8
その他
  6
Continuous
 62
     7
370
     9
100
AcDbLine
 10
756.1647683372544
 20
64.57170486368713
 30
0.0
 11
661.552106753918
 21
64.57170486368713
 31
0.0
  0
TEXT
  5
127
330
1F
100
AcDbEntity
  8
その他
  6
Continuous
 62
     2
370
   211
100
AcDbText
 10
748.8447683372543
 20
37.44670610088622
 30
0.0
 40
15.24
  1
33
 50
90.0
 41
1.0625
  7
ＭＳ ゴシック
100
AcDbText
  0
LINE
  5
128
330
1F
100
AcDbEntity
  8
その他
  6
Continuous
 62
     7
370
     9
100
AcDbLine
 10
754.6647683372544
 20
64.57170486368713
 30
0.0
 11
754.6647683372544
 21
124.5717790956339
 31
0.0
  0
LINE
  5
129
330
1F
100
AcDbEntity
  8
その他
  6
Continuous
 62
     7
370
     9
100
AcDbLine
 10
754.6647683372544
 20
64.57170486368713
 30
0.0
 11
753.0331909345036
 21
76.96476563085976
 31
0.0
  0
LINE
  5
12A
330
1F
100
AcDbEntity
  8
その他
  6
Continuous
 62
     7
370
     9
100
AcDbLine
 10
754.6647683372544
 20
64.57170486368713
 30
0.0
 11
756.2963457400051
 21
76.96476563085976
 31
0.0
  0
LINE
  5
12B
330
1F
100
AcDbEntity
  8
その他
  6
Continuous
 62
     7
370
     9
100
AcDbLine
 10
754.6647683372544
 20
124.5717790956339
 30
0.0
 11
753.0331909345036
 21
112.1787183284613
 31
0.0
  0
LINE
  5
12C
330
1F
100
AcDbEntity
  8
その他
  6
Continuous
 62
     7
370
     9
100
AcDbLine
 10
754.6647683372544
 20
124.5717790956339
 30
0.0
 11
756.2963457400051
 21
112.1787183284613
 31
0.0
  0
LINE
  5
12D
330
1F
100
AcDbEntity
  8
その他
  6
Continuous
 62
     7
370
     9
100
AcDbLine
 10
756.1647683372544
 20
124.5717790956339
 30
0.0
 11
661.552106753918
 21
124.5717790956339
 31
0.0
  0
TEXT
  5
12E
330
1F
100
AcDbEntity
  8
その他
  6
Continuous
 62
     2
370
   211
100
AcDbText
 10
748.8447683372543
 20
83.94674197966052
 30
0.0
 40
15.24
  1
60
 50
90.0
 41
1.0625
  7
ＭＳ ゴシック
100
AcDbText
  0
LINE
  5
12F
330
1F
100
AcDbEntity
  8
その他
  6
Continuous
 62
     7
370
     9
100
AcDbLine
 10
754.6647683372544
 20
124.5717790956339
 30
0.0
 11
754.6647683372544
 21
374.5717378556635
 31
0.0
  0
LINE
  5
130
330
1F
100
AcDbEntity
  8
その他
  6
Continuous
 62
     7
370
     9
100
AcDbLine
 10
754.6647683372544
 20
124.5717790956339
 30
0.0
 11
753.0331909345036
 21
136.9648398628065
 31
0.0
  0
LINE
  5
131
330
1F
100
AcDbEntity
  8
その他
  6
Continuous
 62
     7
370
     9
100
AcDbLine
 10
754.6647683372544
 20
124.5717790956339
 30
0.0
 11
756.2963457400051
 21
136.9648398628065
 31
0.0
  0
LINE
  5
132
330
1F
100
AcDbEntity
  8
その他
  6
Continuous
 62
     7
370
     9
100
AcDbLine
 10
754.6647683372544
 20
374.5717378556635
 30
0.0
 11
753.0331909345036
 21
362.1786770884909
 31
0.0
  0
LINE
  5
133
330
1F
100
AcDbEntity
  8
その他
  6
Continuous
 62
     7
370
     9
100
AcDbLine
 10
754.6647683372544
 20
374.5717378556635
 30
0.0
 11
756.2963457400051
 21
362.1786770884909
 31
0.0
  0
LINE
  5
134
330
1F
100
AcDbEntity
  8
その他
  6
Continuous
 62
     7
370
     9
100
AcDbLine
 10
756.1647683372544
 20
374.5717378556635
 30
0.0
 11
661.552106753918
 21
374.5717378556635
 31
0.0
  0
TEXT
  5
135
330
1F
100
AcDbEntity
  8
その他
  6
Continuous
 62
     2
370
   211
100
AcDbText
 10
748.8447683372543
 20
233.3217584756487
 30
0.0
 40
15.24
  1
250
 50
90.0
 41
1.083333333333333
  7
ＭＳ ゴシック
100
AcDbText
  0
LINE
  5
136
330
1F
100
AcDbEntity
  8
その他
  6
Continuous
 62
     7
370
     9
100
AcDbLine
 10
754.6647683372544
 20
374.5717378556635
 30
0.0
 11
754.6647683372544
 21
434.5716883676989
 31
0.0
  0
LINE
  5
137
330
1F
100
AcDbEntity
  8
その他
  6
Continuous
 62
     7
370
     9
100
AcDbLine
 10
754.6647683372544
 20
374.5717378556635
 30
0.0
 11
753.0331909345036
 21
386.9647986228361
 31
0.0
  0
LINE
  5
138
330
1F
100
AcDbEntity
  8
その他
  6
Continuous
 62
     7
370
     9
100
AcDbLine
 10
754.6647683372544
 20
374.5717378556635
 30
0.0
 11
756.2963457400051
 21
386.9647986228361
 31
0.0
  0
LINE
  5
139
330
1F
100
AcDbEntity
  8
その他
  6
Continuous
 62
     7
370
     9
100
AcDbLine
 10
754.6647683372544
 20
434.5716883676989
 30
0.0
 11
753.0331909345036
 21
422.1786276005263
 31
0.0
  0
LINE
  5
13A
330
1F
100
AcDbEntity
  8
その他
  6
Continuous
 62
     7
370
     9
100
AcDbLine
 10
754.6647683372544
 20
434.5716883676989
 30
0.0
 11
756.2963457400051
 21
422.1786276005263
 31
0.0
  0
LINE
  5
13B
330
1F
100
AcDbEntity
  8
その他
  6
Continuous
 62
     7
370
     9
100
AcDbLine
 10
756.1647683372544
 20
434.5716883676989
 30
0.0
 11
661.552106753918
 21
434.5716883676989
 31
0.0
  0
TEXT
  5
13C
330
1F
100
AcDbEntity
  8
その他
  6
Continuous
 62
     2
370
   211
100
AcDbText
 10
748.8447683372543
 20
393.9467131116812
 30
0.0
 40
15.24
  1
60
 50
90.0
 41
1.0625
  7
ＭＳ ゴシック
100
AcDbText
  0
LINE
  5
13D
330
1F
100
AcDbEntity
  8
その他
  6
Continuous
 62
     7
370
     9
100
AcDbLine
 10
754.6647683372544
 20
434.5716883676989
 30
0.0
 11
754.6647683372544
 21
467.5716240333451
 31
0.0
  0
LINE
  5
13E
330
1F
100
AcDbEntity
  8
その他
  6
Continuous
 62
     7
370
     9
100
AcDbLine
 10
754.6647683372544
 20
434.5716883676989
 30
0.0
 11
753.0331909345036
 21
446.9647491348716
 31
0.0
  0
LINE
  5
13F
330
1F
100
AcDbEntity
  8
その他
  6
Continuous
 62
     7
370
     9
100
AcDbLine
 10
754.6647683372544
 20
434.5716883676989
 30
0.0
 11
756.2963457400051
 21
446.9647491348716
 31
0.0
  0
LINE
  5
140
330
1F
100
AcDbEntity
  8
その他
  6
Continuous
 62
     7
370
     9
100
AcDbLine
 10
754.6647683372544
 20
467.5716240333451
 30
0.0
 11
753.0331909345036
 21
455.1785632661724
 31
0.0
  0
LINE
  5
141
330
1F
100
AcDbEntity
  8
その他
  6
Continuous
 62
     7
370
     9
100
AcDbLine
 10
754.6647683372544
 20
467.5716240333451
 30
0.0
 11
756.2963457400051
 21
455.1785632661724
 31
0.0
  0
LINE
  5
142
330
1F
100
AcDbEntity
  8
その他
  6
Continuous
 62
     7
370
     9
100
AcDbLine
 10
756.1647683372544
 20
467.5716240333451
 30
0.0
 11
694.5521661394755
 21
467.5716240333451
 31
0.0
  0
TEXT
  5
143
330
1F
100
AcDbEntity
  8
その他
  6
Continuous
 62
     2
370
   211
100
AcDbText
 10
748.8447683372543
 20
440.446656200522
 30
0.0
 40
15.24
  1
33
 50
90.0
 41
1.0625
  7
ＭＳ ゴシック
100
AcDbText
  0
LWPOLYLINE
  5
144
330
1F
100
AcDbEntity
  8
その他
  6
Continuous
 62
     7
370
     9
100
AcDbPolyline
 90
        4
 70
     1
 43
0.5
 10
507.9588958147043
 20
70.57174940285525
 42
0.4142135623731
 10
507.7088958147044
 20
70.82174940285525
 42
0.4142135623731
 10
507.4588958147044
 20
70.57174940285525
 42
0.4142135623731
 10
507.7088958147044
 20
70.32174940285525
 42
0.4142135623731
  0
LINE
  5
145
330
1F
100
AcDbEntity
  8
その他
  6
Continuous
 62
     7
370
     9
100
AcDbLine
 10
506.2088958147044
 20
64.57170486368715
 30
0.0
 11
585.552144694691
 21
64.57170486368713
 31
0.0
  0
LINE
  5
146
330
1F
100
AcDbEntity
  8
その他
  6
Continuous
 62
     7
370
     9
100
AcDbLine
 10
506.2088958147044
 20
70.57174940285525
 30
0.0
 11
590.052144694691
 21
70.57174940285523
 31
0.0
  0
LINE
  5
147
330
1F
100
AcDbEntity
  8
その他
  6
Continuous
 62
     7
370
     9
100
AcDbLine
 10
507.7088958147044
 20
70.57174940285525
 30
0.0
 11
507.7088958147044
 21
74.57173785566346
 31
0.0
  0
LINE
  5
148
330
1F
100
AcDbEntity
  8
その他
  6
Continuous
 62
     7
370
     9
100
AcDbLine
 10
506.2088958147044
 20
74.57173785566346
 30
0.0
 11
585.552144694691
 21
74.57173785566346
 31
0.0
  0
LINE
  5
149
330
1F
100
AcDbEntity
  8
その他
  6
Continuous
 62
     7
370
     9
100
AcDbLine
 10
507.7088958147044
 20
74.57173785566346
 30
0.0
 11
507.7088958147044
 21
424.5716553757225
 31
0.0
  0
LINE
  5
14A
330
1F
100
AcDbEntity
  8
その他
  6
Continuous
 62
     7
370
     9
100
AcDbLine
 10
507.7088958147044
 20
74.57173785566346
 30
0.0
 11
506.0773184119537
 21
86.9647986228361
 31
0.0
  0
LINE
  5
14B
330
1F
100
AcDbEntity
  8
その他
  6
Continuous
 62
     7
370
     9
100
AcDbLine
 10
507.7088958147044
 20
74.57173785566346
 30
0.0
 11
509.340473217455
 21
86.9647986228361
 31
0.0
  0
LINE
  5
14C
330
1F
100
AcDbEntity
  8
その他
  6
Continuous
 62
     7
370
     9
100
AcDbLine
 10
507.7088958147044
 20
424.5716553757225
 30
0.0
 11
506.0773184119537
 21
412.1785946085499
 31
0.0
  0
LINE
  5
14D
330
1F
100
AcDbEntity
  8
その他
  6
Continuous
 62
     7
370
     9
100
AcDbLine
 10
507.7088958147044
 20
424.5716553757225
 30
0.0
 11
509.340473217455
 21
412.1785946085499
 31
0.0
  0
LINE
  5
14E
330
1F
100
AcDbEntity
  8
その他
  6
Continuous
 62
     7
370
     9
100
AcDbLine
 10
506.2088958147044
 20
424.5716553757225
 30
0.0
 11
585.552144694691
 21
424.5716553757225
 31
0.0
  0
TEXT
  5
14F
330
1F
100
AcDbEntity
  8
その他
  6
Continuous
 62
     2
370
   211
100
AcDbText
 10
501.8888958147044
 20
233.321696615693
 30
0.0
 40
15.24
  1
350
 50
90.0
 41
1.083333333333333
  7
ＭＳ ゴシック
100
AcDbText
  0
LWPOLYLINE
  5
150
330
1F
100
AcDbEntity
  8
その他
  6
Continuous
 62
     7
370
     9
100
AcDbPolyline
 90
        4
 70
     1
 43
0.5
 10
507.9588958147043
 20
428.5716438285309
 42
0.4142135623731
 10
507.7088958147044
 20
428.8216438285309
 42
0.4142135623731
 10
507.4588958147044
 20
428.5716438285309
 42
0.4142135623731
 10
507.7088958147044
 20
428.3216438285309
 42
0.4142135623731
  0
LINE
  5
151
330
1F
100
AcDbEntity
  8
その他
  6
Continuous
 62
     7
370
     9
100
AcDbLine
 10
506.2088958147044
 20
428.5716438285309
 30
0.0
 11
590.052144694691
 21
428.5716438285309
 31
0.0
  0
LINE
  5
152
330
1F
100
AcDbEntity
  8
その他
  6
Continuous
 62
     7
370
     9
100
AcDbLine
 10
507.7088958147044
 20
428.5716438285309
 30
0.0
 11
507.7088958147044
 21
434.5716883676989
 31
0.0
  0
LINE
  5
153
330
1F
100
AcDbEntity
  8
その他
  6
Continuous
 62
     7
370
     9
100
AcDbLine
 10
506.2088958147044
 20
434.5716883676989
 30
0.0
 11
585.552144694691
 21
434.5716883676989
 31
0.0
  0
LINE
  5
154
330
1F
100
AcDbEntity
  8
その他
  6
Continuous
 62
     7
370
     9
100
AcDbLine
 10
507.7088958147044
 20
424.5716553757225
 30
0.0
 11
507.7088958147044
 21
468.5056921514064
 31
0.0
  0
LINE
  5
155
330
1F
100
AcDbEntity
  8
その他
  6
Continuous
 62
     7
370
     9
100
AcDbLine
 10
507.7088958147044
 20
434.5716883676989
 30
0.0
 11
509.340473217455
 21
446.9647491348716
 31
0.0
  0
LINE
  5
156
330
1F
100
AcDbEntity
  8
その他
  6
Continuous
 62
     7
370
     9
100
AcDbLine
 10
507.7088958147044
 20
434.5716883676989
 30
0.0
 11
506.0773184119537
 21
446.9647491348716
 31
0.0
  0
TEXT
  5
157
330
1F
100
AcDbEntity
  8
その他
  6
Continuous
 62
     2
370
   211
100
AcDbText
 10
501.8888958147044
 20
411.7382293926661
 30
0.0
 40
15.24
  1
4
 50
90.0
 41
0.9999999999999998
  7
ＭＳ ゴシック
100
AcDbText
  0
TEXT
  5
158
330
1F
100
AcDbEntity
  8
その他
  6
Continuous
 62
     2
370
   211
100
AcDbText
 10
501.8888958147044
 20
437.5359683089819
 30
0.0
 40
15.24
  1
6
 50
90.0
 41
0.9999999999999998
  7
ＭＳ ゴシック
100
AcDbText
  0
TEXT
  5
159
330
1F
100
AcDbEntity
  8
その他
  6
Continuous
 62
     2
370
   211
100
AcDbText
 10
501.8888958147044
 20
75.41653282865552
 30
0.0
 40
15.24
  1
4
 50
90.0
 41
0.9999999999999998
  7
ＭＳ ゴシック
100
AcDbText
  0
TEXT
  5
15A
330
1F
100
AcDbEntity
  8
その他
  6
Continuous
 62
     2
370
   211
100
AcDbText
 10
501.8888958147044
 20
50.91419319553083
 30
0.0
 40
15.24
  1
6
 50
90.0
 41
0.9999999999999998
  7
ＭＳ ゴシック
100
AcDbText
  0
LINE
  5
15B
330
1F
100
AcDbEntity
  8
その他
  6
Continuous
 62
     7
370
     9
100
AcDbLine
 10
507.7088958147044
 20
46.63578098931281
 30
0.0
 11
507.7088958147044
 21
70.57174940285525
 31
0.0
  0
LINE
  5
15C
330
1F
100
AcDbEntity
  8
その他
  6
Continuous
 62
     7
370
     9
100
AcDbLine
 10
507.7088958147044
 20
64.57170486368715
 30
0.0
 11
506.0773184119537
 21
52.17864409651452
 31
0.0
  0
LINE
  5
15D
330
1F
100
AcDbEntity
  8
その他
  6
Continuous
 62
     7
370
     9
100
AcDbLine
 10
507.7088958147044
 20
64.57170486368715
 30
0.0
 11
509.340473217455
 21
52.17864409651452
 31
0.0
  0
LINE
  5
15E
330
1F
100
AcDbEntity
  8
その他
  6
Continuous
 62
     7
370
     9
100
AcDbLine
 10
449.8111798869684
 20
64.57170486368715
 30
0.0
 11
449.8111798869684
 21
434.5716883676989
 31
0.0
  0
LINE
  5
15F
330
1F
100
AcDbEntity
  8
その他
  6
Continuous
 62
     7
370
     9
100
AcDbLine
 10
449.8111798869684
 20
64.57170486368715
 30
0.0
 11
448.1796024842177
 21
76.96476563085977
 31
0.0
  0
LINE
  5
160
330
1F
100
AcDbEntity
  8
その他
  6
Continuous
 62
     7
370
     9
100
AcDbLine
 10
449.8111798869684
 20
64.57170486368715
 30
0.0
 11
451.4427572897191
 21
76.96476563085977
 31
0.0
  0
LINE
  5
161
330
1F
100
AcDbEntity
  8
その他
  6
Continuous
 62
     7
370
     9
100
AcDbLine
 10
449.8111798869684
 20
434.5716883676989
 30
0.0
 11
448.1796024842177
 21
422.1786276005263
 31
0.0
  0
LINE
  5
162
330
1F
100
AcDbEntity
  8
その他
  6
Continuous
 62
     7
370
     9
100
AcDbLine
 10
449.8111798869684
 20
434.5716883676989
 30
0.0
 11
451.4427572897191
 21
422.1786276005263
 31
0.0
  0
LINE
  5
163
330
1F
100
AcDbEntity
  8
その他
  6
Continuous
 62
     7
370
     9
100
AcDbLine
 10
448.3111798869684
 20
64.57170486368715
 30
0.0
 11
575.552144694691
 21
64.57170486368713
 31
0.0
  0
LINE
  5
164
330
1F
100
AcDbEntity
  8
その他
  6
Continuous
 62
     7
370
     9
100
AcDbLine
 10
448.3111798869684
 20
434.5716883676989
 30
0.0
 11
575.552144694691
 21
434.5716883676989
 31
0.0
  0
TEXT
  5
165
330
1F
100
AcDbEntity
  8
その他
  6
Continuous
 62
     2
370
   211
100
AcDbText
 10
443.9911798869684
 20
233.321696615693
 30
0.0
 40
15.24
  1
370
 50
90.0
 41
1.083333333333333
  7
ＭＳ ゴシック
100
AcDbText
  0
LINE
  5
166
330
1F
100
AcDbEntity
  8
寸法
  6
Continuous
 62
     7
370
     9
100
AcDbLine
 10
595.5945806242732
 20
411.4964765297813
 30
0.0
 11
586.5797292861185
 21
423.4853070961876
 31
0.0
  0
LINE
  5
167
330
1F
100
AcDbEntity
  8
寸法
  6
Continuous
 62
     7
370
     9
100
AcDbLine
 10
595.5945806242732
 20
411.4964765297813
 30
0.0
 11
589.9898212017649
 21
425.410017756555
 31
0.0
  0
LINE
  5
168
330
1F
100
AcDbEntity
  8
寸法
  6
Continuous
 62
     7
370
     9
100
AcDbLine
 10
612.0553177820798
 20
434.5716883676989
 30
0.0
 11
603.0404664439257
 21
446.5605807940609
 31
0.0
  0
LINE
  5
169
330
1F
100
AcDbEntity
  8
寸法
  6
Continuous
 62
     7
370
     9
100
AcDbLine
 10
612.0553177820798
 20
434.5716883676989
 30
0.0
 11
606.4505583595715
 21
448.4851677345171
 31
0.0
  0
TEXT
  5
16A
330
1F
100
AcDbEntity
  8
寸法
  6
Continuous
 62
     7
370
     9
100
AcDbText
 10
389.2705782232339
 20
521.7060875819891
 30
0.0
 40
11.43
  1
蓋：ＦＣＤ５００
 50
359.9999484463209
 41
1.145833333333333
  7
ＭＳ ゴシック
100
AcDbText
  0
TEXT
  5
16B
330
1F
100
AcDbEntity
  8
寸法
  6
Continuous
 62
     7
370
     9
100
AcDbText
 10
404.232048532711
 20
493.5716848687113
 30
0.0
 40
11.43
  1
樹脂系塗装
 41
1.133333333333333
  7
ＭＳ ゴシック
100
AcDbText
  0
TEXT
  5
16C
330
1F
100
AcDbEntity
  8
寸法
  6
Continuous
 62
     7
370
     9
100
AcDbText
 10
396.837024324172
 20
590.3782492016098
 30
0.0
 40
11.43
  1
枠：ＳＳ４００
 41
1.142857142857143
  7
ＭＳ ゴシック
100
AcDbText
  0
TEXT
  5
16D
330
1F
100
AcDbEntity
  8
寸法
  6
Continuous
 62
     7
370
     9
100
AcDbText
 10
418.2949393044777
 20
562.2438464883496
 30
0.0
 40
11.43
  1
樹脂系塗装
 41
1.133333333333333
  7
ＭＳ ゴシック
100
AcDbText
  0
LINE
  5
16E
330
1F
100
AcDbEntity
  8
寸法
  6
Continuous
 62
     7
370
     9
100
AcDbLine
 10
392.4439653411165
 20
581.6152834868716
 30
0.0
 11
529.0614118642765
 21
581.6152834868716
 31
0.0
  0
LINE
  5
16F
330
1F
100
AcDbEntity
  8
寸法
  6
Continuous
 62
     7
370
     9
100
AcDbLine
 10
612.0553177820798
 20
434.5716883676989
 30
0.0
 11
529.0614118642765
 21
581.6152834868716
 31
0.0
  0
LINE
  5
170
330
1F
100
AcDbEntity
  8
寸法
  6
Continuous
 62
     7
370
     9
100
AcDbLine
 10
381.7920994607408
 20
512.9431218672332
 30
0.0
 11
538.3363874208338
 21
512.9431218672332
 31
0.0
  0
LINE
  5
171
330
1F
100
AcDbEntity
  8
寸法
  6
Continuous
 62
     7
370
     9
100
AcDbLine
 10
595.5945806242732
 20
411.4964765297813
 30
0.0
 11
538.3363874208338
 21
512.9431218672332
 31
0.0
  0
LINE
  5
172
330
1F
100
AcDbEntity
  8
寸法
  6
Continuous
 62
     7
370
     9
100
AcDbLine
 10
678.0519460431537
 20
467.5713765935224
 30
0.0
 11
683.6567054656621
 21
481.4849178202961
 31
0.0
  0
LINE
  5
173
330
1F
100
AcDbEntity
  8
寸法
  6
Continuous
 62
     7
370
     9
100
AcDbLine
 10
678.0519460431537
 20
467.5713765935224
 30
0.0
 11
687.0669211012199
 21
479.56033087984
 31
0.0
  0
TEXT
  5
174
330
1F
100
AcDbEntity
  8
寸法
  6
Continuous
 62
     7
370
     9
100
AcDbText
 10
717.1317721339886
 20
541.5547775174769
 30
0.0
 40
11.43
  1
アンカー：ＳＳ４００
 41
1.15
  7
ＭＳ ゴシック
100
AcDbText
  0
TEXT
  5
175
330
1F
100
AcDbEntity
  8
寸法
  6
Continuous
 62
     7
370
     9
100
AcDbText
 10
758.8148215120549
 20
513.4203748042166
 30
0.0
 40
11.43
  1
樹脂系塗装
 41
1.133333333333333
  7
ＭＳ ゴシック
100
AcDbText
  0
LINE
  5
176
330
1F
100
AcDbEntity
  8
寸法
  6
Continuous
 62
     7
370
     9
100
AcDbLine
 10
678.0519460431537
 20
467.5713765935224
 30
0.0
 11
714.8635214102909
 21
532.7918118027387
 31
0.0
  0
LINE
  5
177
330
1F
100
AcDbEntity
  8
寸法
  6
Continuous
 62
     7
370
     9
100
AcDbLine
 10
714.8635214102909
 20
532.7918118027387
 30
0.0
 11
889.7803081308115
 21
532.7918118027387
 31
0.0
  0
TEXT
  5
178
330
1F
100
AcDbEntity
  8
寸法
  6
Continuous
 62
     7
370
     9
100
AcDbText
 10
768.5070416095423
 20
-19.88263949072653
 30
0.0
 40
11.43
  1
ボルト：Ｓ２０Ｃ
 41
1.145833333333333
  7
ＭＳ ゴシック
100
AcDbText
  0
LINE
  5
179
330
1F
100
AcDbEntity
  8
寸法
  6
Continuous
 62
     7
370
     9
100
AcDbLine
 10
737.5991803619897
 20
-28.64560520546467
 30
0.0
 11
941.791296194426
 21
-28.64560520546467
 31
0.0
  0
LINE
  5
17A
330
1F
100
AcDbEntity
  8
寸法
  6
Continuous
 62
     7
370
     9
100
AcDbLine
 10
661.5521397458942
 20
103.071732906867
 30
0.0
 11
737.5991803619897
 21
-28.64560520546467
 31
0.0
  0
LINE
  5
17B
330
1F
100
AcDbEntity
  8
寸法
  6
Continuous
 62
     7
370
     9
100
AcDbLine
 10
661.5521397458942
 20
103.071732906867
 30
0.0
 11
669.1616576085037
 21
93.15481615322655
 31
0.0
  0
LINE
  5
17C
330
1F
100
AcDbEntity
  8
寸法
  6
Continuous
 62
     7
370
     9
100
AcDbLine
 10
661.5521397458942
 20
103.071732906867
 30
0.0
 11
666.335682650458
 21
91.52323875047591
 31
0.0
  0
LINE
  5
17D
330
1F
100
AcDbEntity
  8
寸法
  6
Continuous
 62
     7
370
     9
100
AcDbLine
 10
515.3936477673852
 20
-142.3886102938523
 30
0.0
 11
616.0821078338972
 21
91.53839990726689
 31
0.0
  0
LINE
  5
17E
330
1F
100
AcDbEntity
  8
寸法
  6
Continuous
 62
     7
370
     9
100
AcDbLine
 10
616.0821078338972
 20
91.53839990726689
 30
0.0
 11
608.404050137529
 21
78.65241440394124
 31
0.0
  0
LINE
  5
17F
330
1F
100
AcDbEntity
  8
寸法
  6
Continuous
 62
     7
370
     9
100
AcDbLine
 10
616.0821078338972
 20
91.53839990726689
 30
0.0
 11
612.0008353993535
 21
77.10430715362457
 31
0.0
  0
LINE
  5
180
330
1F
100
AcDbEntity
  8
その他
  6
Continuous
 62
     7
370
     9
100
AcDbLine
 10
-206.6721949709026
 20
8.568526508607594
 30
0.0
 11
-194.27913420373
 21
10.20010391135824
 31
0.0
  0
LINE
  5
181
330
1F
100
AcDbEntity
  8
その他
  6
Continuous
 62
     7
370
     9
100
AcDbLine
 10
-206.6721949709026
 20
8.568526508607594
 30
0.0
 11
-194.27913420373
 21
6.93694910585695
 31
0.0
  0
LINE
  5
182
330
1F
100
AcDbEntity
  8
その他
  6
Continuous
 62
     7
370
     9
100
AcDbLine
 10
-268.672201569298
 20
8.568526508607594
 30
0.0
 11
-281.0652623364706
 21
6.93694910585695
 31
0.0
  0
LINE
  5
183
330
1F
100
AcDbEntity
  8
その他
  6
Continuous
 62
     7
370
     9
100
AcDbLine
 10
-268.672201569298
 20
8.568526508607594
 30
0.0
 11
-281.0652623364706
 21
10.20010391135824
 31
0.0
  0
LINE
  5
184
330
1F
100
AcDbEntity
  8
0-A
  6
Continuous
 62
     2
370
     9
100
AcDbLine
 10
651.552106753918
 20
64.57170486368713
 30
0.0
 11
665.5521281987026
 21
64.57170486368713
 31
0.0
  0
LINE
  5
185
330
1F
100
AcDbEntity
  8
建具
  6
Continuous
 62
     4
370
     9
100
AcDbLine
 10
595.552144694691
 20
64.57170486368713
 30
0.0
 11
651.552106753918
 21
64.57170486368713
 31
0.0
  0
LINE
  5
186
330
1F
100
AcDbEntity
  8
建具
  6
Continuous
 62
     4
370
     9
100
AcDbLine
 10
651.552106753918
 20
103.071732906867
 30
0.0
 11
651.552106753918
 21
64.57170486368713
 31
0.0
  0
LINE
  5
187
330
1F
100
AcDbEntity
  8
0-A
  6
Continuous
 62
     2
370
     9
100
AcDbLine
 10
651.552106753918
 20
434.5716883676989
 30
0.0
 11
665.5521281987026
 21
434.5716883676989
 31
0.0
  0
LINE
  5
188
330
1F
100
AcDbEntity
  8
建具
  6
Continuous
 62
     4
370
     9
100
AcDbLine
 10
595.552144694691
 20
434.5716883676989
 30
0.0
 11
651.552106753918
 21
434.5716883676989
 31
0.0
  0
LINE
  5
189
330
1F
100
AcDbEntity
  8
建具
  6
Continuous
 62
     4
370
     9
100
AcDbLine
 10
651.552106753918
 20
374.5717378556635
 30
0.0
 11
651.552106753918
 21
434.5716883676989
 31
0.0
  0
TEXT
  5
18A
330
1F
100
AcDbEntity
  8
F-3ﾚｲﾔ
  6
Continuous
 62
     7
370
     9
100
AcDbText
 10
-385.7662624035281
 20
-672.1986714443219
 30
0.0
 40
11.43
  1
騒音防止型　鋳鉄製みぞ蓋　　　ＧＣＨ－Ｂ　１３５５０＋ＧＬ－２
 41
1.161290322580645
  7
ＭＳ ゴシック
100
AcDbText
  0
LINE
  5
18B
330
1F
100
AcDbEntity
  8
0-A
  6
JWW_CENTER2
 62
     2
370
     9
100
AcDbLine
 10
-56.42215703012987
 20
421.0867129137293
 30
0.0
 11
-56.42215703012987
 21
473.2445531269894
 31
0.0
  0
LINE
  5
18C
330
1F
100
AcDbEntity
  8
0-A
  6
JWW_CENTER2
 62
     2
370
     9
100
AcDbLine
 10
-68.31999160176203
 20
441.0716850685013
 30
0.0
 11
-44.59787394577596
 21
441.0716850685013
 31
0.0
  0
LINE
  5
18D
330
1F
100
AcDbEntity
  8
0-A
  6
JWW_CENTER2
 62
     2
370
     9
100
AcDbLine
 10
-428.3200039737532
 20
441.0716850685013
 30
0.0
 11
-404.5978863177672
 21
441.0716850685013
 31
0.0
  0
LINE
  5
18E
330
1F
100
AcDbEntity
  8
0-A
  6
JWW_CENTER2
 62
     2
370
     9
100
AcDbLine
 10
-416.422169402121
 20
421.0867129137293
 30
0.0
 11
-416.422169402121
 21
473.2445531269894
 31
0.0
  0
LINE
  5
18F
330
1F
100
AcDbEntity
  8
0-A
  6
JWW_CENTER2
 62
     2
370
     9
100
AcDbLine
 10
-788.3199854157667
 20
441.0716850685013
 30
0.0
 11
-764.5978058998251
 21
441.0716850685013
 31
0.0
  0
LINE
  5
190
330
1F
100
AcDbEntity
  8
0-A
  6
JWW_CENTER2
 62
     2
370
     9
100
AcDbLine
 10
-776.4221663091232
 20
421.0867129137293
 30
0.0
 11
-776.4221663091232
 21
473.2445531269894
 31
0.0
  0
LINE
  5
191
330
1F
100
AcDbEntity
  8
0-A
  6
JWW_CENTER2
 62
     2
370
     9
100
AcDbLine
 10
-788.3199854157667
 20
58.0717081628848
 30
0.0
 11
-764.5978058998251
 21
58.0717081628848
 31
0.0
  0
LINE
  5
192
330
1F
100
AcDbEntity
  8
0-A
  6
JWW_CENTER2
 62
     2
370
     9
100
AcDbLine
 10
-776.4221663091232
 20
78.05668031765669
 30
0.0
 11
-776.4221663091232
 21
25.89896382430783
 31
0.0
  0
LINE
  5
193
330
1F
100
AcDbEntity
  8
0-A
  6
JWW_CENTER2
 62
     2
370
     9
100
AcDbLine
 10
-428.3200039737532
 20
58.0717081628848
 30
0.0
 11
-404.5978863177672
 21
58.0717081628848
 31
0.0
  0
LINE
  5
194
330
1F
100
AcDbEntity
  8
0-A
  6
JWW_CENTER2
 62
     2
370
     9
100
AcDbLine
 10
-416.422169402121
 20
78.05668031765669
 30
0.0
 11
-416.422169402121
 21
25.89896382430783
 31
0.0
  0
LINE
  5
195
330
1F
100
AcDbEntity
  8
0-A
  6
JWW_CENTER2
 62
     2
370
     9
100
AcDbLine
 10
-68.31999160176203
 20
58.0717081628848
 30
0.0
 11
-44.59787394577596
 21
58.0717081628848
 31
0.0
  0
LINE
  5
196
330
1F
100
AcDbEntity
  8
0-A
  6
JWW_CENTER2
 62
     2
370
     9
100
AcDbLine
 10
-56.42215703012987
 20
78.05668031765669
 30
0.0
 11
-56.42215703012987
 21
25.89896382430783
 31
0.0
  0
LINE
  5
197
330
1F
100
AcDbEntity
  8
0-A
  6
JWW_CENTER2
 62
     2
370
     9
100
AcDbLine
 10
614.3990173852525
 20
441.0716850685013
 30
0.0
 11
665.5521281987026
 21
441.0716850685013
 31
0.0
  0
ARC
  5
198
330
1F
100
AcDbEntity
  8
0-A
  6
JWW_CENTER2
 62
     2
370
     9
100
AcDbCircle
 10
665.5521281987026
 20
453.5717263084717
 30
0.0
 40
12.49999967781273
100
AcDbArc
 50
270.0
 51
359.9999847412109
  0
LINE
  5
199
330
1F
100
AcDbEntity
  8
0-A
  6
JWW_CENTER2
 62
     2
370
     9
100
AcDbLine
 10
678.0520457187617
 20
453.5717263084717
 30
0.0
 11
678.0520457187617
 21
472.3104677965418
 31
0.0
  0
LINE
  5
19A
330
1F
100
AcDbEntity
  8
0-A
  6
JWW_CENTER2
 62
     2
370
     9
100
AcDbLine
 10
678.0520457187617
 20
45.57172878286995
 30
0.0
 11
678.0520457187617
 21
26.8329872947999
 31
0.0
  0
LINE
  5
19B
330
1F
100
AcDbEntity
  8
0-A
  6
JWW_CENTER2
 62
     2
370
     9
100
AcDbLine
 10
614.3990173852525
 20
58.0717081628848
 30
0.0
 11
665.5521281987026
 21
58.0717081628848
 31
0.0
  0
ARC
  5
19C
330
1F
100
AcDbEntity
  8
0-A
  6
JWW_CENTER2
 62
     2
370
     9
100
AcDbCircle
 10
665.5521281987026
 20
45.57172878286995
 30
0.0
 40
12.49999967781273
100
AcDbArc
 50
2.134414672851562
 51
89.99998474121094
  0
LINE
  5
19D
330
1F
100
AcDbEntity
  8
通り芯
  6
JWW_CENTER2
 62
     3
370
     9
100
AcDbLine
 10
569.3887238886307
 20
249.571696615693
 30
0.0
 11
660.0620571339857
 21
249.571696615693
 31
0.0
  0
LINE
  5
19E
330
1F
100
AcDbEntity
  8
通り芯
  6
Continuous
 62
     2
370
     9
100
AcDbLine
 10
291.0776903819797
 20
34.75978387287203
 30
0.0
 11
291.0776903819797
 21
199.5717172356783
 31
0.0
  0
LINE
  5
19F
330
1F
100
AcDbEntity
  8
通り芯
  6
JWW_PHANTOM2
 62
     3
370
     9
100
AcDbLine
 10
126.0778883338377
 20
424.5716553757225
 30
0.0
 11
291.0776903819797
 21
424.5716553757225
 31
0.0
  0
LINE
  5
1A0
330
1F
100
AcDbEntity
  8
通り芯
  6
JWW_PHANTOM2
 62
     3
370
     9
100
AcDbLine
 10
126.0778883338377
 20
74.57173785566346
 30
0.0
 11
291.0776903819797
 21
74.57173785566346
 31
0.0
  0
LINE
  5
1A1
330
1F
100
AcDbEntity
  8
通り芯
  6
Continuous
 62
     2
370
     9
100
AcDbLine
 10
262.2102471941629
 20
199.5717172356783
 30
0.0
 11
319.945381009619
 21
299.5716759957079
 31
0.0
  0
LINE
  5
1A2
330
1F
100
AcDbEntity
  8
通り芯
  6
Continuous
 62
     2
370
     9
100
AcDbLine
 10
291.0776903819797
 20
299.5716759957079
 30
0.0
 11
319.945381009619
 21
299.5716759957079
 31
0.0
  0
LINE
  5
1A3
330
1F
100
AcDbEntity
  8
通り芯
  6
Continuous
 62
     2
370
     9
100
AcDbLine
 10
262.2102471941629
 20
199.5717172356783
 30
0.0
 11
291.0776903819797
 21
199.5717172356783
 31
0.0
  0
LINE
  5
1A4
330
1F
100
AcDbEntity
  8
通り芯
  6
Continuous
 62
     2
370
     9
100
AcDbLine
 10
291.0776903819797
 20
299.5716759957079
 30
0.0
 11
291.0776903819797
 21
459.2622236295233
 31
0.0
  0
LINE
  5
1A5
330
1F
100
AcDbEntity
  8
通り芯
  6
Continuous
 62
     3
370
     9
100
AcDbLine
 10
-873.9221632161255
 20
249.571696615693
 30
0.0
 11
-873.9221632161255
 21
424.5716553757225
 31
0.0
  0
LINE
  5
1A6
330
1F
100
AcDbEntity
  8
通り芯
  6
Continuous
 62
     3
370
     9
100
AcDbLine
 10
-409.1721825989115
 20
296.0717015644895
 30
0.0
 11
-393.6721809493127
 21
296.0717015644895
 31
0.0
  0
LINE
  5
1A7
330
1F
100
AcDbEntity
  8
通り芯
  6
Continuous
 62
     3
370
     9
100
AcDbLine
 10
-409.1721825989115
 20
308.07172878287
 30
0.0
 11
-393.6721809493127
 21
308.07172878287
 31
0.0
  0
LINE
  5
1A8
330
1F
100
AcDbEntity
  8
通り芯
  6
Continuous
 62
     3
370
     9
100
AcDbLine
 10
-389.6721924965044
 20
249.571696615693
 30
0.0
 11
-389.6721924965044
 21
292.0717131116813
 31
0.0
  0
LINE
  5
1A9
330
1F
100
AcDbEntity
  8
通り芯
  6
Continuous
 62
     3
370
     9
100
AcDbLine
 10
-413.1721710517198
 20
249.571696615693
 30
0.0
 11
-413.1721710517198
 21
292.0717131116813
 31
0.0
  0
LINE
  5
1AA
330
1F
100
AcDbEntity
  8
通り芯
  6
Continuous
 62
     3
370
     9
100
AcDbLine
 10
-413.1721710517198
 20
312.0717790956339
 30
0.0
 11
-413.1721710517198
 21
407.5716735213097
 31
0.0
  0
LINE
  5
1AB
330
1F
100
AcDbEntity
  8
通り芯
  6
Continuous
 62
     3
370
     9
100
AcDbLine
 10
-389.6721924965044
 20
312.0717790956339
 30
0.0
 11
-389.6721924965044
 21
407.5716735213097
 31
0.0
  0
LINE
  5
1AC
330
1F
100
AcDbEntity
  8
通り芯
  6
Continuous
 62
     3
370
     9
100
AcDbLine
 10
-425.1721982701002
 20
312.0717790956339
 30
0.0
 11
-425.1721982701002
 21
407.5716735213097
 31
0.0
  0
LINE
  5
1AD
330
1F
100
AcDbEntity
  8
通り芯
  6
Continuous
 62
     3
370
     9
100
AcDbLine
 10
-448.6722077552935
 20
312.0717790956339
 30
0.0
 11
-448.6722077552935
 21
407.5716735213097
 31
0.0
  0
LINE
  5
1AE
330
1F
100
AcDbEntity
  8
通り芯
  6
Continuous
 62
     3
370
     9
100
AcDbLine
 10
-448.6722077552935
 20
249.571696615693
 30
0.0
 11
-448.6722077552935
 21
292.0717131116813
 31
0.0
  0
LINE
  5
1AF
330
1F
100
AcDbEntity
  8
通り芯
  6
Continuous
 62
     3
370
     9
100
AcDbLine
 10
-425.1721982701002
 20
249.571696615693
 30
0.0
 11
-425.1721982701002
 21
292.0717131116813
 31
0.0
  0
LINE
  5
1B0
330
1F
100
AcDbEntity
  8
通り芯
  6
Continuous
 62
     3
370
     9
100
AcDbLine
 10
-444.6722193024852
 20
308.07172878287
 30
0.0
 11
-429.1721867229086
 21
308.07172878287
 31
0.0
  0
LINE
  5
1B1
330
1F
100
AcDbEntity
  8
通り芯
  6
Continuous
 62
     3
370
     9
100
AcDbLine
 10
-444.6722193024852
 20
296.0717015644895
 30
0.0
 11
-429.1721867229086
 21
296.0717015644895
 31
0.0
  0
LINE
  5
1B2
330
1F
100
AcDbEntity
  8
通り芯
  6
Continuous
 62
     3
370
     9
100
AcDbLine
 10
-480.172225076081
 20
296.0717015644895
 30
0.0
 11
-464.6722234264823
 21
296.0717015644895
 31
0.0
  0
LINE
  5
1B3
330
1F
100
AcDbEntity
  8
通り芯
  6
Continuous
 62
     3
370
     9
100
AcDbLine
 10
-480.172225076081
 20
308.07172878287
 30
0.0
 11
-464.6722234264823
 21
308.07172878287
 31
0.0
  0
LINE
  5
1B4
330
1F
100
AcDbEntity
  8
通り芯
  6
Continuous
 62
     3
370
     9
100
AcDbLine
 10
-460.6722040436961
 20
249.571696615693
 30
0.0
 11
-460.6722040436961
 21
292.0717131116813
 31
0.0
  0
LINE
  5
1B5
330
1F
100
AcDbEntity
  8
通り芯
  6
Continuous
 62
     3
370
     9
100
AcDbLine
 10
-484.1721825989115
 20
249.571696615693
 30
0.0
 11
-484.1721825989115
 21
292.0717131116813
 31
0.0
  0
LINE
  5
1B6
330
1F
100
AcDbEntity
  8
通り芯
  6
Continuous
 62
     3
370
     9
100
AcDbLine
 10
-484.1721825989115
 20
312.0717790956339
 30
0.0
 11
-484.1721825989115
 21
407.5716735213097
 31
0.0
  0
LINE
  5
1B7
330
1F
100
AcDbEntity
  8
通り芯
  6
Continuous
 62
     3
370
     9
100
AcDbLine
 10
-460.6722040436961
 20
312.0717790956339
 30
0.0
 11
-460.6722040436961
 21
407.5716735213097
 31
0.0
  0
LINE
  5
1B8
330
1F
100
AcDbEntity
  8
通り芯
  6
Continuous
 62
     3
370
     9
100
AcDbLine
 10
-510.6722143536887
 20
312.0717790956339
 30
0.0
 11
-510.6722143536887
 21
407.5716735213097
 31
0.0
  0
LINE
  5
1B9
330
1F
100
AcDbEntity
  8
通り芯
  6
Continuous
 62
     3
370
     9
100
AcDbLine
 10
-534.1721929089042
 20
312.0717790956339
 30
0.0
 11
-534.1721929089042
 21
407.5716735213097
 31
0.0
  0
LINE
  5
1BA
330
1F
100
AcDbEntity
  8
通り芯
  6
Continuous
 62
     3
370
     9
100
AcDbLine
 10
-534.1721929089042
 20
249.571696615693
 30
0.0
 11
-534.1721929089042
 21
292.0717131116813
 31
0.0
  0
LINE
  5
1BB
330
1F
100
AcDbEntity
  8
通り芯
  6
Continuous
 62
     3
370
     9
100
AcDbLine
 10
-510.6722143536887
 20
249.571696615693
 30
0.0
 11
-510.6722143536887
 21
292.0717131116813
 31
0.0
  0
LINE
  5
1BC
330
1F
100
AcDbEntity
  8
通り芯
  6
Continuous
 62
     3
370
     9
100
AcDbLine
 10
-530.1722044560959
 20
308.07172878287
 30
0.0
 11
-514.672202806497
 21
308.07172878287
 31
0.0
  0
LINE
  5
1BD
330
1F
100
AcDbEntity
  8
通り芯
  6
Continuous
 62
     3
370
     9
100
AcDbLine
 10
-530.1722044560959
 20
296.0717015644895
 30
0.0
 11
-514.672202806497
 21
296.0717015644895
 31
0.0
  0
LINE
  5
1BE
330
1F
100
AcDbEntity
  8
通り芯
  6
Continuous
 62
     3
370
     9
100
AcDbLine
 10
-565.6721792997139
 20
296.0717015644895
 30
0.0
 11
-550.1722085800928
 21
296.0717015644895
 31
0.0
  0
LINE
  5
1BF
330
1F
100
AcDbEntity
  8
通り芯
  6
Continuous
 62
     3
370
     9
100
AcDbLine
 10
-565.6721792997139
 20
308.07172878287
 30
0.0
 11
-550.1722085800928
 21
308.07172878287
 31
0.0
  0
LINE
  5
1C0
330
1F
100
AcDbEntity
  8
通り芯
  6
Continuous
 62
     3
370
     9
100
AcDbLine
 10
-546.1722201272847
 20
249.571696615693
 30
0.0
 11
-546.1722201272847
 21
292.0717131116813
 31
0.0
  0
LINE
  5
1C1
330
1F
100
AcDbEntity
  8
通り芯
  6
Continuous
 62
     3
370
     9
100
AcDbLine
 10
-569.6721986825
 20
249.571696615693
 30
0.0
 11
-569.6721986825
 21
292.0717131116813
 31
0.0
  0
LINE
  5
1C2
330
1F
100
AcDbEntity
  8
通り芯
  6
Continuous
 62
     3
370
     9
100
AcDbLine
 10
-569.6721986825
 20
312.0717790956339
 30
0.0
 11
-569.6721986825
 21
407.5716735213097
 31
0.0
  0
LINE
  5
1C3
330
1F
100
AcDbEntity
  8
通り芯
  6
Continuous
 62
     3
370
     9
100
AcDbLine
 10
-546.1722201272847
 20
312.0717790956339
 30
0.0
 11
-546.1722201272847
 21
407.5716735213097
 31
0.0
  0
LINE
  5
1C4
330
1F
100
AcDbEntity
  8
通り芯
  6
Continuous
 62
     3
370
     9
100
AcDbLine
 10
-581.6721949709026
 20
312.0717790956339
 30
0.0
 11
-581.6721949709026
 21
407.5716735213097
 31
0.0
  0
LINE
  5
1C5
330
1F
100
AcDbEntity
  8
通り芯
  6
Continuous
 62
     3
370
     9
100
AcDbLine
 10
-605.1722044560959
 20
312.0717790956339
 30
0.0
 11
-605.1722044560959
 21
407.5716735213097
 31
0.0
  0
LINE
  5
1C6
330
1F
100
AcDbEntity
  8
通り芯
  6
Continuous
 62
     3
370
     9
100
AcDbLine
 10
-605.1722044560959
 20
249.571696615693
 30
0.0
 11
-605.1722044560959
 21
292.0717131116813
 31
0.0
  0
LINE
  5
1C7
330
1F
100
AcDbEntity
  8
通り芯
  6
Continuous
 62
     3
370
     9
100
AcDbLine
 10
-581.6721949709026
 20
249.571696615693
 30
0.0
 11
-581.6721949709026
 21
292.0717131116813
 31
0.0
  0
LINE
  5
1C8
330
1F
100
AcDbEntity
  8
通り芯
  6
Continuous
 62
     3
370
     9
100
AcDbLine
 10
-601.1721850733097
 20
308.07172878287
 30
0.0
 11
-585.672183423711
 21
308.07172878287
 31
0.0
  0
LINE
  5
1C9
330
1F
100
AcDbEntity
  8
通り芯
  6
Continuous
 62
     3
370
     9
100
AcDbLine
 10
-601.1721850733097
 20
296.0717015644895
 30
0.0
 11
-585.672183423711
 21
296.0717015644895
 31
0.0
  0
LINE
  5
1CA
330
1F
100
AcDbEntity
  8
通り芯
  6
Continuous
 62
     3
370
     9
100
AcDbLine
 10
-651.1721953833023
 20
296.0717015644895
 30
0.0
 11
-635.6721937337036
 21
296.0717015644895
 31
0.0
  0
LINE
  5
1CB
330
1F
100
AcDbEntity
  8
通り芯
  6
Continuous
 62
     3
370
     9
100
AcDbLine
 10
-651.1721953833023
 20
308.07172878287
 30
0.0
 11
-635.6721937337036
 21
308.07172878287
 31
0.0
  0
LINE
  5
1CC
330
1F
100
AcDbEntity
  8
通り芯
  6
Continuous
 62
     3
370
     9
100
AcDbLine
 10
-631.6722052808952
 20
249.571696615693
 30
0.0
 11
-631.6722052808952
 21
292.0717131116813
 31
0.0
  0
LINE
  5
1CD
330
1F
100
AcDbEntity
  8
通り芯
  6
Continuous
 62
     3
370
     9
100
AcDbLine
 10
-655.1721838361107
 20
249.571696615693
 30
0.0
 11
-655.1721838361107
 21
292.0717131116813
 31
0.0
  0
LINE
  5
1CE
330
1F
100
AcDbEntity
  8
通り芯
  6
Continuous
 62
     3
370
     9
100
AcDbLine
 10
-655.1721838361107
 20
312.0717790956339
 30
0.0
 11
-655.1721838361107
 21
407.5716735213097
 31
0.0
  0
LINE
  5
1CF
330
1F
100
AcDbEntity
  8
通り芯
  6
Continuous
 62
     3
370
     9
100
AcDbLine
 10
-631.6722052808952
 20
312.0717790956339
 30
0.0
 11
-631.6722052808952
 21
407.5716735213097
 31
0.0
  0
LINE
  5
1D0
330
1F
100
AcDbEntity
  8
通り芯
  6
Continuous
 62
     3
370
     9
100
AcDbLine
 10
-667.1721801245133
 20
312.0717790956339
 30
0.0
 11
-667.1721801245133
 21
407.5716735213097
 31
0.0
  0
LINE
  5
1D1
330
1F
100
AcDbEntity
  8
通り芯
  6
Continuous
 62
     3
370
     9
100
AcDbLine
 10
-690.6721896097065
 20
312.0717790956339
 30
0.0
 11
-690.6721896097065
 21
407.5716735213097
 31
0.0
  0
LINE
  5
1D2
330
1F
100
AcDbEntity
  8
通り芯
  6
Continuous
 62
     3
370
     9
100
AcDbLine
 10
-690.6721896097065
 20
249.571696615693
 30
0.0
 11
-690.6721896097065
 21
292.0717131116813
 31
0.0
  0
LINE
  5
1D3
330
1F
100
AcDbEntity
  8
通り芯
  6
Continuous
 62
     3
370
     9
100
AcDbLine
 10
-667.1721801245133
 20
249.571696615693
 30
0.0
 11
-667.1721801245133
 21
292.0717131116813
 31
0.0
  0
LINE
  5
1D4
330
1F
100
AcDbEntity
  8
通り芯
  6
Continuous
 62
     3
370
     9
100
AcDbLine
 10
-686.6722011568982
 20
308.07172878287
 30
0.0
 11
-671.1721995072994
 21
308.07172878287
 31
0.0
  0
LINE
  5
1D5
330
1F
100
AcDbEntity
  8
通り芯
  6
Continuous
 62
     3
370
     9
100
AcDbLine
 10
-686.6722011568982
 20
296.0717015644895
 30
0.0
 11
-671.1721995072994
 21
296.0717015644895
 31
0.0
  0
LINE
  5
1D6
330
1F
100
AcDbEntity
  8
通り芯
  6
Continuous
 62
     3
370
     9
100
AcDbLine
 10
-722.1721760005162
 20
296.0717015644895
 30
0.0
 11
-706.6721743509174
 21
296.0717015644895
 31
0.0
  0
LINE
  5
1D7
330
1F
100
AcDbEntity
  8
通り芯
  6
Continuous
 62
     3
370
     9
100
AcDbLine
 10
-722.1721760005162
 20
308.07172878287
 30
0.0
 11
-706.6721743509174
 21
308.07172878287
 31
0.0
  0
LINE
  5
1D8
330
1F
100
AcDbEntity
  8
通り芯
  6
Continuous
 62
     3
370
     9
100
AcDbLine
 10
-702.6721858981091
 20
249.571696615693
 30
0.0
 11
-702.6721858981091
 21
292.0717131116813
 31
0.0
  0
LINE
  5
1D9
330
1F
100
AcDbEntity
  8
通り芯
  6
Continuous
 62
     3
370
     9
100
AcDbLine
 10
-726.1721799183135
 20
249.571696615693
 30
0.0
 11
-726.1721799183135
 21
292.0717131116813
 31
0.0
  0
LINE
  5
1DA
330
1F
100
AcDbEntity
  8
通り芯
  6
Continuous
 62
     3
370
     9
100
AcDbLine
 10
-726.1721799183135
 20
312.0717790956339
 30
0.0
 11
-726.1721799183135
 21
407.5716735213097
 31
0.0
  0
LINE
  5
1DB
330
1F
100
AcDbEntity
  8
通り芯
  6
Continuous
 62
     3
370
     9
100
AcDbLine
 10
-702.6721858981091
 20
312.0717790956339
 30
0.0
 11
-702.6721858981091
 21
407.5716735213097
 31
0.0
  0
LINE
  5
1DC
330
1F
100
AcDbEntity
  8
通り芯
  6
Continuous
 62
     3
370
     9
100
AcDbLine
 10
-752.6721807431127
 20
312.0717790956339
 30
0.0
 11
-752.6721807431127
 21
351.0716974404925
 31
0.0
  0
LINE
  5
1DD
330
1F
100
AcDbEntity
  8
通り芯
  6
Continuous
 62
     3
370
     9
100
AcDbLine
 10
-776.1721747633171
 20
312.0717790956339
 30
0.0
 11
-776.1721747633171
 21
351.0716974404925
 31
0.0
  0
LINE
  5
1DE
330
1F
100
AcDbEntity
  8
通り芯
  6
Continuous
 62
     3
370
     9
100
AcDbLine
 10
-776.1721747633171
 20
249.571696615693
 30
0.0
 11
-776.1721747633171
 21
292.0717131116813
 31
0.0
  0
LINE
  5
1DF
330
1F
100
AcDbEntity
  8
通り芯
  6
Continuous
 62
     3
370
     9
100
AcDbLine
 10
-752.6721807431127
 20
249.571696615693
 30
0.0
 11
-752.6721807431127
 21
292.0717131116813
 31
0.0
  0
LINE
  5
1E0
330
1F
100
AcDbEntity
  8
通り芯
  6
Continuous
 62
     3
370
     9
100
AcDbLine
 10
-772.17217084552
 20
308.07172878287
 30
0.0
 11
-756.6721846609101
 21
308.07172878287
 31
0.0
  0
LINE
  5
1E1
330
1F
100
AcDbEntity
  8
通り芯
  6
Continuous
 62
     3
370
     9
100
AcDbLine
 10
-772.17217084552
 20
296.0717015644895
 30
0.0
 11
-756.6721846609101
 21
296.0717015644895
 31
0.0
  0
LINE
  5
1E2
330
1F
100
AcDbEntity
  8
通り芯
  6
Continuous
 62
     3
370
     9
100
AcDbLine
 10
-807.6721766191158
 20
296.0717015644895
 30
0.0
 11
-792.1721749695168
 21
296.0717015644895
 31
0.0
  0
LINE
  5
1E3
330
1F
100
AcDbEntity
  8
通り芯
  6
Continuous
 62
     3
370
     9
100
AcDbLine
 10
-807.6721766191158
 20
308.07172878287
 30
0.0
 11
-792.1721749695168
 21
308.07172878287
 31
0.0
  0
LINE
  5
1E4
330
1F
100
AcDbEntity
  8
通り芯
  6
Continuous
 62
     3
370
     9
100
AcDbLine
 10
-788.1721710517197
 20
249.571696615693
 30
0.0
 11
-788.1721710517197
 21
292.0717131116813
 31
0.0
  0
LINE
  5
1E5
330
1F
100
AcDbEntity
  8
通り芯
  6
Continuous
 62
     3
370
     9
100
AcDbLine
 10
-811.6721650719242
 20
249.571696615693
 30
0.0
 11
-811.6721650719242
 21
292.0717131116813
 31
0.0
  0
LINE
  5
1E6
330
1F
100
AcDbEntity
  8
通り芯
  6
Continuous
 62
     3
370
     9
100
AcDbLine
 10
-811.6721650719242
 20
312.0717790956339
 30
0.0
 11
-811.6721650719242
 21
351.0716974404925
 31
0.0
  0
LINE
  5
1E7
330
1F
100
AcDbEntity
  8
通り芯
  6
Continuous
 62
     3
370
     9
100
AcDbLine
 10
-788.1721710517197
 20
312.0717790956339
 30
0.0
 11
-788.1721710517197
 21
351.0716974404925
 31
0.0
  0
LINE
  5
1E8
330
1F
100
AcDbEntity
  8
通り芯
  6
Continuous
 62
     3
370
     9
100
AcDbLine
 10
-823.6721768253155
 20
312.0717790956339
 30
0.0
 11
-823.6721768253155
 21
407.5716735213097
 31
0.0
  0
LINE
  5
1E9
330
1F
100
AcDbEntity
  8
通り芯
  6
Continuous
 62
     3
370
     9
100
AcDbLine
 10
-847.17217084552
 20
312.0717790956339
 30
0.0
 11
-847.17217084552
 21
407.5716735213097
 31
0.0
  0
LINE
  5
1EA
330
1F
100
AcDbEntity
  8
通り芯
  6
Continuous
 62
     3
370
     9
100
AcDbLine
 10
-847.17217084552
 20
249.571696615693
 30
0.0
 11
-847.17217084552
 21
292.0717131116813
 31
0.0
  0
LINE
  5
1EB
330
1F
100
AcDbEntity
  8
通り芯
  6
Continuous
 62
     3
370
     9
100
AcDbLine
 10
-823.6721768253155
 20
249.571696615693
 30
0.0
 11
-823.6721768253155
 21
292.0717131116813
 31
0.0
  0
LINE
  5
1EC
330
1F
100
AcDbEntity
  8
通り芯
  6
Continuous
 62
     3
370
     9
100
AcDbLine
 10
-843.1721669277226
 20
308.07172878287
 30
0.0
 11
-827.6721730106183
 21
308.07172878287
 31
0.0
  0
LINE
  5
1ED
330
1F
100
AcDbEntity
  8
通り芯
  6
Continuous
 62
     3
370
     9
100
AcDbLine
 10
-843.1721669277226
 20
296.0717015644895
 30
0.0
 11
-827.6721730106183
 21
296.0717015644895
 31
0.0
  0
LINE
  5
1EE
330
1F
100
AcDbEntity
  8
通り芯
  6
Continuous
 62
     3
370
     9
100
AcDbLine
 10
-807.6721766191158
 20
355.0716858933007
 30
0.0
 11
-792.1721749695168
 21
355.0716858933007
 31
0.0
  0
LINE
  5
1EF
330
1F
100
AcDbEntity
  8
通り芯
  6
Continuous
 62
     3
370
     9
100
AcDbLine
 10
-772.17217084552
 20
355.0716858933007
 30
0.0
 11
-756.6721846609101
 21
355.0716858933007
 31
0.0
  0
LINE
  5
1F0
330
1F
100
AcDbEntity
  8
通り芯
  6
Continuous
 62
     3
370
     9
100
AcDbLine
 10
19.3278330722773
 20
355.0716858933007
 30
0.0
 11
3.827831422678472
 21
355.0716858933007
 31
0.0
  0
LINE
  5
1F1
330
1F
100
AcDbEntity
  8
通り芯
  6
Continuous
 62
     3
370
     9
100
AcDbLine
 10
54.82777698591754
 20
355.0716858933007
 30
0.0
 11
39.32777533631871
 21
355.0716858933007
 31
0.0
  0
LINE
  5
1F2
330
1F
100
AcDbEntity
  8
通り芯
  6
Continuous
 62
     3
370
     9
100
AcDbLine
 10
90.32778275951337
 20
296.0717015644895
 30
0.0
 11
74.82778110991454
 21
296.0717015644895
 31
0.0
  0
LINE
  5
1F3
330
1F
100
AcDbEntity
  8
通り芯
  6
Continuous
 62
     3
370
     9
100
AcDbLine
 10
90.32778275951337
 20
308.07172878287
 30
0.0
 11
74.82778110991454
 21
308.07172878287
 31
0.0
  0
LINE
  5
1F4
330
1F
100
AcDbEntity
  8
通り芯
  6
Continuous
 62
     3
370
     9
100
AcDbLine
 10
70.8277926571062
 20
249.571696615693
 30
0.0
 11
70.8277926571062
 21
292.0717131116813
 31
0.0
  0
LINE
  5
1F5
330
1F
100
AcDbEntity
  8
通り芯
  6
Continuous
 62
     3
370
     9
100
AcDbLine
 10
94.3278949322329
 20
249.571696615693
 30
0.0
 11
94.3278949322329
 21
292.0717131116813
 31
0.0
  0
LINE
  5
1F6
330
1F
100
AcDbEntity
  8
通り芯
  6
Continuous
 62
     3
370
     9
100
AcDbLine
 10
94.3278949322329
 20
312.0717790956339
 30
0.0
 11
94.3278949322329
 21
407.5716735213097
 31
0.0
  0
LINE
  5
1F7
330
1F
100
AcDbEntity
  8
通り芯
  6
Continuous
 62
     3
370
     9
100
AcDbLine
 10
70.8277926571062
 20
312.0717790956339
 30
0.0
 11
70.8277926571062
 21
407.5716735213097
 31
0.0
  0
LINE
  5
1F8
330
1F
100
AcDbEntity
  8
通り芯
  6
Continuous
 62
     3
370
     9
100
AcDbLine
 10
35.32778688351037
 20
312.0717790956339
 30
0.0
 11
35.32778688351037
 21
351.0716974404925
 31
0.0
  0
LINE
  5
1F9
330
1F
100
AcDbEntity
  8
通り芯
  6
Continuous
 62
     3
370
     9
100
AcDbLine
 10
58.82782729868147
 20
312.0717790956339
 30
0.0
 11
58.82782729868147
 21
351.0716974404925
 31
0.0
  0
LINE
  5
1FA
330
1F
100
AcDbEntity
  8
通り芯
  6
Continuous
 62
     3
370
     9
100
AcDbLine
 10
58.82782729868147
 20
249.571696615693
 30
0.0
 11
58.82782729868147
 21
292.0717131116813
 31
0.0
  0
LINE
  5
1FB
330
1F
100
AcDbEntity
  8
通り芯
  6
Continuous
 62
     3
370
     9
100
AcDbLine
 10
35.32778688351037
 20
249.571696615693
 30
0.0
 11
35.32778688351037
 21
292.0717131116813
 31
0.0
  0
LINE
  5
1FC
330
1F
100
AcDbEntity
  8
通り芯
  6
Continuous
 62
     3
370
     9
100
AcDbLine
 10
54.82777698591754
 20
308.07172878287
 30
0.0
 11
39.32777533631871
 21
308.07172878287
 31
0.0
  0
LINE
  5
1FD
330
1F
100
AcDbEntity
  8
通り芯
  6
Continuous
 62
     3
370
     9
100
AcDbLine
 10
54.82777698591754
 20
296.0717015644895
 30
0.0
 11
39.32777533631871
 21
296.0717015644895
 31
0.0
  0
LINE
  5
1FE
330
1F
100
AcDbEntity
  8
通り芯
  6
Continuous
 62
     3
370
     9
100
AcDbLine
 10
19.3278330722773
 20
296.0717015644895
 30
0.0
 11
3.827831422678472
 21
296.0717015644895
 31
0.0
  0
LINE
  5
1FF
330
1F
100
AcDbEntity
  8
通り芯
  6
Continuous
 62
     3
370
     9
100
AcDbLine
 10
19.3278330722773
 20
308.07172878287
 30
0.0
 11
3.827831422678472
 21
308.07172878287
 31
0.0
  0
LINE
  5
200
330
1F
100
AcDbEntity
  8
通り芯
  6
Continuous
 62
     3
370
     9
100
AcDbLine
 10
-0.1721570301298669
 20
249.571696615693
 30
0.0
 11
-0.1721570301298669
 21
292.0717131116813
 31
0.0
  0
LINE
  5
201
330
1F
100
AcDbEntity
  8
通り芯
  6
Continuous
 62
     3
370
     9
100
AcDbLine
 10
23.3277596651299
 20
249.571696615693
 30
0.0
 11
23.3277596651299
 21
292.0717131116813
 31
0.0
  0
LINE
  5
202
330
1F
100
AcDbEntity
  8
通り芯
  6
Continuous
 62
     3
370
     9
100
AcDbLine
 10
23.3277596651299
 20
312.0717790956339
 30
0.0
 11
23.3277596651299
 21
351.0716974404925
 31
0.0
  0
LINE
  5
203
330
1F
100
AcDbEntity
  8
通り芯
  6
Continuous
 62
     3
370
     9
100
AcDbLine
 10
-0.1721570301298669
 20
312.0717790956339
 30
0.0
 11
-0.1721570301298669
 21
351.0716974404925
 31
0.0
  0
LINE
  5
204
330
1F
100
AcDbEntity
  8
通り芯
  6
Continuous
 62
     3
370
     9
100
AcDbLine
 10
-50.17219827010031
 20
312.0717790956339
 30
0.0
 11
-50.17219827010031
 21
407.5716735213097
 31
0.0
  0
LINE
  5
205
330
1F
100
AcDbEntity
  8
通り芯
  6
Continuous
 62
     3
370
     9
100
AcDbLine
 10
-26.67221971488495
 20
312.0717790956339
 30
0.0
 11
-26.67221971488495
 21
407.5716735213097
 31
0.0
  0
LINE
  5
206
330
1F
100
AcDbEntity
  8
通り芯
  6
Continuous
 62
     3
370
     9
100
AcDbLine
 10
-26.67221971488495
 20
249.571696615693
 30
0.0
 11
-26.67221971488495
 21
292.0717131116813
 31
0.0
  0
LINE
  5
207
330
1F
100
AcDbEntity
  8
通り芯
  6
Continuous
 62
     3
370
     9
100
AcDbLine
 10
-50.17219827010031
 20
249.571696615693
 30
0.0
 11
-50.17219827010031
 21
292.0717131116813
 31
0.0
  0
LINE
  5
208
330
1F
100
AcDbEntity
  8
通り芯
  6
Continuous
 62
     3
370
     9
100
AcDbLine
 10
-30.67214630773755
 20
308.07172878287
 30
0.0
 11
-46.17214795733638
 21
308.07172878287
 31
0.0
  0
LINE
  5
209
330
1F
100
AcDbEntity
  8
通り芯
  6
Continuous
 62
     3
370
     9
100
AcDbLine
 10
-30.67214630773755
 20
296.0717015644895
 30
0.0
 11
-46.17214795733638
 21
296.0717015644895
 31
0.0
  0
LINE
  5
20A
330
1F
100
AcDbEntity
  8
通り芯
  6
Continuous
 62
     3
370
     9
100
AcDbLine
 10
-66.17221394128897
 20
296.0717015644895
 30
0.0
 11
-81.6722155908878
 21
296.0717015644895
 31
0.0
  0
LINE
  5
20B
330
1F
100
AcDbEntity
  8
通り芯
  6
Continuous
 62
     3
370
     9
100
AcDbLine
 10
-66.17221394128897
 20
308.07172878287
 30
0.0
 11
-81.6722155908878
 21
308.07172878287
 31
0.0
  0
LINE
  5
20C
330
1F
100
AcDbEntity
  8
通り芯
  6
Continuous
 62
     3
370
     9
100
AcDbLine
 10
-85.67220404369614
 20
249.571696615693
 30
0.0
 11
-85.67220404369614
 21
292.0717131116813
 31
0.0
  0
LINE
  5
20D
330
1F
100
AcDbEntity
  8
通り芯
  6
Continuous
 62
     3
370
     9
100
AcDbLine
 10
-62.17222548848078
 20
249.571696615693
 30
0.0
 11
-62.17222548848078
 21
292.0717131116813
 31
0.0
  0
LINE
  5
20E
330
1F
100
AcDbEntity
  8
通り芯
  6
Continuous
 62
     3
370
     9
100
AcDbLine
 10
-62.17222548848078
 20
312.0717790956339
 30
0.0
 11
-62.17222548848078
 21
407.5716735213097
 31
0.0
  0
LINE
  5
20F
330
1F
100
AcDbEntity
  8
通り芯
  6
Continuous
 62
     3
370
     9
100
AcDbLine
 10
-85.67220404369614
 20
312.0717790956339
 30
0.0
 11
-85.67220404369614
 21
407.5716735213097
 31
0.0
  0
LINE
  5
210
330
1F
100
AcDbEntity
  8
通り芯
  6
Continuous
 62
     3
370
     9
100
AcDbLine
 10
-121.172209817292
 20
312.0717790956339
 30
0.0
 11
-121.172209817292
 21
407.5716735213097
 31
0.0
  0
LINE
  5
211
330
1F
100
AcDbEntity
  8
通り芯
  6
Continuous
 62
     3
370
     9
100
AcDbLine
 10
-97.67216940212101
 20
312.0717790956339
 30
0.0
 11
-97.67216940212101
 21
407.5716735213097
 31
0.0
  0
LINE
  5
212
330
1F
100
AcDbEntity
  8
通り芯
  6
Continuous
 62
     3
370
     9
100
AcDbLine
 10
-97.67216940212101
 20
249.571696615693
 30
0.0
 11
-97.67216940212101
 21
292.0717131116813
 31
0.0
  0
LINE
  5
213
330
1F
100
AcDbEntity
  8
通り芯
  6
Continuous
 62
     3
370
     9
100
AcDbLine
 10
-121.172209817292
 20
249.571696615693
 30
0.0
 11
-121.172209817292
 21
292.0717131116813
 31
0.0
  0
LINE
  5
214
330
1F
100
AcDbEntity
  8
通り芯
  6
Continuous
 62
     3
370
     9
100
AcDbLine
 10
-101.6721578549292
 20
308.07172878287
 30
0.0
 11
-117.172159504528
 21
308.07172878287
 31
0.0
  0
LINE
  5
215
330
1F
100
AcDbEntity
  8
通り芯
  6
Continuous
 62
     3
370
     9
100
AcDbLine
 10
-101.6721578549292
 20
296.0717015644895
 30
0.0
 11
-117.172159504528
 21
296.0717015644895
 31
0.0
  0
LINE
  5
216
330
1F
100
AcDbEntity
  8
通り芯
  6
Continuous
 62
     3
370
     9
100
AcDbLine
 10
-151.6721990948997
 20
296.0717015644895
 30
0.0
 11
-167.1722007444985
 21
296.0717015644895
 31
0.0
  0
LINE
  5
217
330
1F
100
AcDbEntity
  8
通り芯
  6
Continuous
 62
     3
370
     9
100
AcDbLine
 10
-151.6721990948997
 20
308.07172878287
 30
0.0
 11
-167.1722007444985
 21
308.07172878287
 31
0.0
  0
LINE
  5
218
330
1F
100
AcDbEntity
  8
通り芯
  6
Continuous
 62
     3
370
     9
100
AcDbLine
 10
-171.1721891973068
 20
249.571696615693
 30
0.0
 11
-171.1721891973068
 21
292.0717131116813
 31
0.0
  0
LINE
  5
219
330
1F
100
AcDbEntity
  8
通り芯
  6
Continuous
 62
     3
370
     9
100
AcDbLine
 10
-147.6721487821357
 20
249.571696615693
 30
0.0
 11
-147.6721487821357
 21
292.0717131116813
 31
0.0
  0
LINE
  5
21A
330
1F
100
AcDbEntity
  8
通り芯
  6
Continuous
 62
     3
370
     9
100
AcDbLine
 10
-147.6721487821357
 20
312.0717790956339
 30
0.0
 11
-147.6721487821357
 21
407.5716735213097
 31
0.0
  0
LINE
  5
21B
330
1F
100
AcDbEntity
  8
通り芯
  6
Continuous
 62
     3
370
     9
100
AcDbLine
 10
-171.1721891973068
 20
312.0717790956339
 30
0.0
 11
-171.1721891973068
 21
407.5716735213097
 31
0.0
  0
LINE
  5
21C
330
1F
100
AcDbEntity
  8
通り芯
  6
Continuous
 62
     3
370
     9
100
AcDbLine
 10
-206.6721949709026
 20
312.0717790956339
 30
0.0
 11
-206.6721949709026
 21
407.5716735213097
 31
0.0
  0
LINE
  5
21D
330
1F
100
AcDbEntity
  8
通り芯
  6
Continuous
 62
     3
370
     9
100
AcDbLine
 10
-183.1722164156873
 20
312.0717790956339
 30
0.0
 11
-183.1722164156873
 21
407.5716735213097
 31
0.0
  0
LINE
  5
21E
330
1F
100
AcDbEntity
  8
通り芯
  6
Continuous
 62
     3
370
     9
100
AcDbLine
 10
-183.1722164156873
 20
249.571696615693
 30
0.0
 11
-183.1722164156873
 21
292.0717131116813
 31
0.0
  0
LINE
  5
21F
330
1F
100
AcDbEntity
  8
通り芯
  6
Continuous
 62
     3
370
     9
100
AcDbLine
 10
-206.6721949709026
 20
249.571696615693
 30
0.0
 11
-206.6721949709026
 21
292.0717131116813
 31
0.0
  0
LINE
  5
220
330
1F
100
AcDbEntity
  8
通り芯
  6
Continuous
 62
     3
370
     9
100
AcDbLine
 10
-187.1722048684955
 20
308.07172878287
 30
0.0
 11
-202.6721446581387
 21
308.07172878287
 31
0.0
  0
LINE
  5
221
330
1F
100
AcDbEntity
  8
通り芯
  6
Continuous
 62
     3
370
     9
100
AcDbLine
 10
-187.1722048684955
 20
296.0717015644895
 30
0.0
 11
-202.6721446581387
 21
296.0717015644895
 31
0.0
  0
LINE
  5
222
330
1F
100
AcDbEntity
  8
通り芯
  6
Continuous
 62
     3
370
     9
100
AcDbLine
 10
-222.6722106420914
 20
296.0717015644895
 30
0.0
 11
-238.1722122916901
 21
296.0717015644895
 31
0.0
  0
LINE
  5
223
330
1F
100
AcDbEntity
  8
通り芯
  6
Continuous
 62
     3
370
     9
100
AcDbLine
 10
-222.6722106420914
 20
308.07172878287
 30
0.0
 11
-238.1722122916901
 21
308.07172878287
 31
0.0
  0
LINE
  5
224
330
1F
100
AcDbEntity
  8
通り芯
  6
Continuous
 62
     3
370
     9
100
AcDbLine
 10
-242.1722007444985
 20
249.571696615693
 30
0.0
 11
-242.1722007444985
 21
292.0717131116813
 31
0.0
  0
LINE
  5
225
330
1F
100
AcDbEntity
  8
通り芯
  6
Continuous
 62
     3
370
     9
100
AcDbLine
 10
-218.6721603293275
 20
249.571696615693
 30
0.0
 11
-218.6721603293275
 21
292.0717131116813
 31
0.0
  0
LINE
  5
226
330
1F
100
AcDbEntity
  8
通り芯
  6
Continuous
 62
     3
370
     9
100
AcDbLine
 10
-218.6721603293275
 20
312.0717790956339
 30
0.0
 11
-218.6721603293275
 21
407.5716735213097
 31
0.0
  0
LINE
  5
227
330
1F
100
AcDbEntity
  8
通り芯
  6
Continuous
 62
     3
370
     9
100
AcDbLine
 10
-242.1722007444985
 20
312.0717790956339
 30
0.0
 11
-242.1722007444985
 21
407.5716735213097
 31
0.0
  0
LINE
  5
228
330
1F
100
AcDbEntity
  8
通り芯
  6
Continuous
 62
     3
370
     9
100
AcDbLine
 10
-292.1721801245133
 20
312.0717790956339
 30
0.0
 11
-292.1721801245133
 21
407.5716735213097
 31
0.0
  0
LINE
  5
229
330
1F
100
AcDbEntity
  8
通り芯
  6
Continuous
 62
     3
370
     9
100
AcDbLine
 10
-268.672201569298
 20
312.0717790956339
 30
0.0
 11
-268.672201569298
 21
407.5716735213097
 31
0.0
  0
LINE
  5
22A
330
1F
100
AcDbEntity
  8
通り芯
  6
Continuous
 62
     3
370
     9
100
AcDbLine
 10
-268.672201569298
 20
249.571696615693
 30
0.0
 11
-268.672201569298
 21
292.0717131116813
 31
0.0
  0
LINE
  5
22B
330
1F
100
AcDbEntity
  8
通り芯
  6
Continuous
 62
     3
370
     9
100
AcDbLine
 10
-292.1721801245133
 20
249.571696615693
 30
0.0
 11
-292.1721801245133
 21
292.0717131116813
 31
0.0
  0
LINE
  5
22C
330
1F
100
AcDbEntity
  8
通り芯
  6
Continuous
 62
     3
370
     9
100
AcDbLine
 10
-272.6721900221062
 20
308.07172878287
 30
0.0
 11
-288.172191671705
 21
308.07172878287
 31
0.0
  0
LINE
  5
22D
330
1F
100
AcDbEntity
  8
通り芯
  6
Continuous
 62
     3
370
     9
100
AcDbLine
 10
-272.6721900221062
 20
296.0717015644895
 30
0.0
 11
-288.172191671705
 21
296.0717015644895
 31
0.0
  0
LINE
  5
22E
330
1F
100
AcDbEntity
  8
通り芯
  6
Continuous
 62
     3
370
     9
100
AcDbLine
 10
-308.172195795702
 20
296.0717015644895
 30
0.0
 11
-323.6721974453008
 21
296.0717015644895
 31
0.0
  0
LINE
  5
22F
330
1F
100
AcDbEntity
  8
通り芯
  6
Continuous
 62
     3
370
     9
100
AcDbLine
 10
-308.172195795702
 20
308.07172878287
 30
0.0
 11
-323.6721974453008
 21
308.07172878287
 31
0.0
  0
LINE
  5
230
330
1F
100
AcDbEntity
  8
通り芯
  6
Continuous
 62
     3
370
     9
100
AcDbLine
 10
-327.6721858981091
 20
249.571696615693
 30
0.0
 11
-327.6721858981091
 21
292.0717131116813
 31
0.0
  0
LINE
  5
231
330
1F
100
AcDbEntity
  8
通り芯
  6
Continuous
 62
     3
370
     9
100
AcDbLine
 10
-304.172145482938
 20
249.571696615693
 30
0.0
 11
-304.172145482938
 21
292.0717131116813
 31
0.0
  0
LINE
  5
232
330
1F
100
AcDbEntity
  8
通り芯
  6
Continuous
 62
     3
370
     9
100
AcDbLine
 10
-304.172145482938
 20
312.0717790956339
 30
0.0
 11
-304.172145482938
 21
407.5716735213097
 31
0.0
  0
LINE
  5
233
330
1F
100
AcDbEntity
  8
通り芯
  6
Continuous
 62
     3
370
     9
100
AcDbLine
 10
-327.6721858981091
 20
312.0717790956339
 30
0.0
 11
-327.6721858981091
 21
407.5716735213097
 31
0.0
  0
LINE
  5
234
330
1F
100
AcDbEntity
  8
通り芯
  6
Continuous
 62
     3
370
     9
100
AcDbLine
 10
-363.1721298117493
 20
312.0717790956339
 30
0.0
 11
-363.1721298117493
 21
407.5716735213097
 31
0.0
  0
LINE
  5
235
330
1F
100
AcDbEntity
  8
通り芯
  6
Continuous
 62
     3
370
     9
100
AcDbLine
 10
-339.6722131164896
 20
312.0717790956339
 30
0.0
 11
-339.6722131164896
 21
407.5716735213097
 31
0.0
  0
LINE
  5
236
330
1F
100
AcDbEntity
  8
通り芯
  6
Continuous
 62
     3
370
     9
100
AcDbLine
 10
-339.6722131164896
 20
249.571696615693
 30
0.0
 11
-339.6722131164896
 21
292.0717131116813
 31
0.0
  0
LINE
  5
237
330
1F
100
AcDbEntity
  8
通り芯
  6
Continuous
 62
     3
370
     9
100
AcDbLine
 10
-363.1721298117493
 20
249.571696615693
 30
0.0
 11
-363.1721298117493
 21
292.0717131116813
 31
0.0
  0
LINE
  5
238
330
1F
100
AcDbEntity
  8
通り芯
  6
Continuous
 62
     3
370
     9
100
AcDbLine
 10
-343.6722015692979
 20
308.07172878287
 30
0.0
 11
-359.1722032188967
 21
308.07172878287
 31
0.0
  0
LINE
  5
239
330
1F
100
AcDbEntity
  8
通り芯
  6
Continuous
 62
     3
370
     9
100
AcDbLine
 10
-343.6722015692979
 20
296.0717015644895
 30
0.0
 11
-359.1722032188967
 21
296.0717015644895
 31
0.0
  0
LINE
  5
23A
330
1F
100
AcDbEntity
  8
通り芯
  6
Continuous
 62
     3
370
     9
100
AcDbLine
 10
121.0778718378496
 20
249.571696615693
 30
0.0
 11
121.0778718378496
 21
424.5716553757225
 31
0.0
  0
LINE
  5
23B
330
1F
100
AcDbEntity
  8
通り芯
  6
Continuous
 62
     3
370
     9
100
AcDbLine
 10
-772.17217084552
 20
144.0717073380853
 30
0.0
 11
-756.6721846609101
 21
144.0717073380853
 31
0.0
  0
LINE
  5
23C
330
1F
100
AcDbEntity
  8
通り芯
  6
Continuous
 62
     3
370
     9
100
AcDbLine
 10
-807.6721766191158
 20
144.0717073380853
 30
0.0
 11
-792.1721749695168
 21
144.0717073380853
 31
0.0
  0
LINE
  5
23D
330
1F
100
AcDbEntity
  8
通り芯
  6
Continuous
 62
     3
370
     9
100
AcDbLine
 10
-843.1721669277226
 20
203.0716916668967
 30
0.0
 11
-827.6721730106183
 21
203.0716916668967
 31
0.0
  0
LINE
  5
23E
330
1F
100
AcDbEntity
  8
通り芯
  6
Continuous
 62
     3
370
     9
100
AcDbLine
 10
-843.1721669277226
 20
191.0717263084718
 30
0.0
 11
-827.6721730106183
 21
191.0717263084718
 31
0.0
  0
LINE
  5
23F
330
1F
100
AcDbEntity
  8
通り芯
  6
Continuous
 62
     3
370
     9
100
AcDbLine
 10
-823.6721768253155
 20
249.571696615693
 30
0.0
 11
-823.6721768253155
 21
207.0716801197049
 31
0.0
  0
LINE
  5
240
330
1F
100
AcDbEntity
  8
通り芯
  6
Continuous
 62
     3
370
     9
100
AcDbLine
 10
-847.17217084552
 20
249.571696615693
 30
0.0
 11
-847.17217084552
 21
207.0716801197049
 31
0.0
  0
LINE
  5
241
330
1F
100
AcDbEntity
  8
通り芯
  6
Continuous
 62
     3
370
     9
100
AcDbLine
 10
-847.17217084552
 20
187.0717378556634
 30
0.0
 11
-847.17217084552
 21
91.57171971007648
 31
0.0
  0
LINE
  5
242
330
1F
100
AcDbEntity
  8
通り芯
  6
Continuous
 62
     3
370
     9
100
AcDbLine
 10
-823.6721768253155
 20
187.0717378556634
 30
0.0
 11
-823.6721768253155
 21
91.57171971007648
 31
0.0
  0
LINE
  5
243
330
1F
100
AcDbEntity
  8
通り芯
  6
Continuous
 62
     3
370
     9
100
AcDbLine
 10
-788.1721710517197
 20
187.0717378556634
 30
0.0
 11
-788.1721710517197
 21
148.0716957908937
 31
0.0
  0
LINE
  5
244
330
1F
100
AcDbEntity
  8
通り芯
  6
Continuous
 62
     3
370
     9
100
AcDbLine
 10
-811.6721650719242
 20
187.0717378556634
 30
0.0
 11
-811.6721650719242
 21
148.0716957908937
 31
0.0
  0
LINE
  5
245
330
1F
100
AcDbEntity
  8
通り芯
  6
Continuous
 62
     3
370
     9
100
AcDbLine
 10
-811.6721650719242
 20
249.571696615693
 30
0.0
 11
-811.6721650719242
 21
207.0716801197049
 31
0.0
  0
LINE
  5
246
330
1F
100
AcDbEntity
  8
通り芯
  6
Continuous
 62
     3
370
     9
100
AcDbLine
 10
-788.1721710517197
 20
249.571696615693
 30
0.0
 11
-788.1721710517197
 21
207.0716801197049
 31
0.0
  0
LINE
  5
247
330
1F
100
AcDbEntity
  8
通り芯
  6
Continuous
 62
     3
370
     9
100
AcDbLine
 10
-807.6721766191158
 20
191.0717263084718
 30
0.0
 11
-792.1721749695168
 21
191.0717263084718
 31
0.0
  0
LINE
  5
248
330
1F
100
AcDbEntity
  8
通り芯
  6
Continuous
 62
     3
370
     9
100
AcDbLine
 10
-807.6721766191158
 20
203.0716916668967
 30
0.0
 11
-792.1721749695168
 21
203.0716916668967
 31
0.0
  0
LINE
  5
249
330
1F
100
AcDbEntity
  8
通り芯
  6
Continuous
 62
     3
370
     9
100
AcDbLine
 10
-772.17217084552
 20
203.0716916668967
 30
0.0
 11
-756.6721846609101
 21
203.0716916668967
 31
0.0
  0
LINE
  5
24A
330
1F
100
AcDbEntity
  8
通り芯
  6
Continuous
 62
     3
370
     9
100
AcDbLine
 10
-772.17217084552
 20
191.0717263084718
 30
0.0
 11
-756.6721846609101
 21
191.0717263084718
 31
0.0
  0
LINE
  5
24B
330
1F
100
AcDbEntity
  8
通り芯
  6
Continuous
 62
     3
370
     9
100
AcDbLine
 10
-752.6721807431127
 20
249.571696615693
 30
0.0
 11
-752.6721807431127
 21
207.0716801197049
 31
0.0
  0
LINE
  5
24C
330
1F
100
AcDbEntity
  8
通り芯
  6
Continuous
 62
     3
370
     9
100
AcDbLine
 10
-776.1721747633171
 20
249.571696615693
 30
0.0
 11
-776.1721747633171
 21
207.0716801197049
 31
0.0
  0
LINE
  5
24D
330
1F
100
AcDbEntity
  8
通り芯
  6
Continuous
 62
     3
370
     9
100
AcDbLine
 10
-776.1721747633171
 20
187.0717378556634
 30
0.0
 11
-776.1721747633171
 21
148.0716957908937
 31
0.0
  0
LINE
  5
24E
330
1F
100
AcDbEntity
  8
通り芯
  6
Continuous
 62
     3
370
     9
100
AcDbLine
 10
-752.6721807431127
 20
187.0717378556634
 30
0.0
 11
-752.6721807431127
 21
148.0716957908937
 31
0.0
  0
LINE
  5
24F
330
1F
100
AcDbEntity
  8
通り芯
  6
Continuous
 62
     3
370
     9
100
AcDbLine
 10
-702.6721858981091
 20
187.0717378556634
 30
0.0
 11
-702.6721858981091
 21
91.57171971007648
 31
0.0
  0
LINE
  5
250
330
1F
100
AcDbEntity
  8
通り芯
  6
Continuous
 62
     3
370
     9
100
AcDbLine
 10
-726.1721799183135
 20
187.0717378556634
 30
0.0
 11
-726.1721799183135
 21
91.57171971007648
 31
0.0
  0
LINE
  5
251
330
1F
100
AcDbEntity
  8
通り芯
  6
Continuous
 62
     3
370
     9
100
AcDbLine
 10
-726.1721799183135
 20
249.571696615693
 30
0.0
 11
-726.1721799183135
 21
207.0716801197049
 31
0.0
  0
LINE
  5
252
330
1F
100
AcDbEntity
  8
通り芯
  6
Continuous
 62
     3
370
     9
100
AcDbLine
 10
-702.6721858981091
 20
249.571696615693
 30
0.0
 11
-702.6721858981091
 21
207.0716801197049
 31
0.0
  0
LINE
  5
253
330
1F
100
AcDbEntity
  8
通り芯
  6
Continuous
 62
     3
370
     9
100
AcDbLine
 10
-722.1721760005162
 20
191.0717263084718
 30
0.0
 11
-706.6721743509174
 21
191.0717263084718
 31
0.0
  0
LINE
  5
254
330
1F
100
AcDbEntity
  8
通り芯
  6
Continuous
 62
     3
370
     9
100
AcDbLine
 10
-722.1721760005162
 20
203.0716916668967
 30
0.0
 11
-706.6721743509174
 21
203.0716916668967
 31
0.0
  0
LINE
  5
255
330
1F
100
AcDbEntity
  8
通り芯
  6
Continuous
 62
     3
370
     9
100
AcDbLine
 10
-686.6722011568982
 20
203.0716916668967
 30
0.0
 11
-671.1721995072994
 21
203.0716916668967
 31
0.0
  0
LINE
  5
256
330
1F
100
AcDbEntity
  8
通り芯
  6
Continuous
 62
     3
370
     9
100
AcDbLine
 10
-686.6722011568982
 20
191.0717263084718
 30
0.0
 11
-671.1721995072994
 21
191.0717263084718
 31
0.0
  0
LINE
  5
257
330
1F
100
AcDbEntity
  8
通り芯
  6
Continuous
 62
     3
370
     9
100
AcDbLine
 10
-667.1721801245133
 20
249.571696615693
 30
0.0
 11
-667.1721801245133
 21
207.0716801197049
 31
0.0
  0
LINE
  5
258
330
1F
100
AcDbEntity
  8
通り芯
  6
Continuous
 62
     3
370
     9
100
AcDbLine
 10
-690.6721896097065
 20
249.571696615693
 30
0.0
 11
-690.6721896097065
 21
207.0716801197049
 31
0.0
  0
LINE
  5
259
330
1F
100
AcDbEntity
  8
通り芯
  6
Continuous
 62
     3
370
     9
100
AcDbLine
 10
-690.6721896097065
 20
187.0717378556634
 30
0.0
 11
-690.6721896097065
 21
91.57171971007648
 31
0.0
  0
LINE
  5
25A
330
1F
100
AcDbEntity
  8
通り芯
  6
Continuous
 62
     3
370
     9
100
AcDbLine
 10
-667.1721801245133
 20
187.0717378556634
 30
0.0
 11
-667.1721801245133
 21
91.57171971007648
 31
0.0
  0
LINE
  5
25B
330
1F
100
AcDbEntity
  8
通り芯
  6
Continuous
 62
     3
370
     9
100
AcDbLine
 10
-631.6722052808952
 20
187.0717378556634
 30
0.0
 11
-631.6722052808952
 21
91.57171971007648
 31
0.0
  0
LINE
  5
25C
330
1F
100
AcDbEntity
  8
通り芯
  6
Continuous
 62
     3
370
     9
100
AcDbLine
 10
-655.1721838361107
 20
187.0717378556634
 30
0.0
 11
-655.1721838361107
 21
91.57171971007648
 31
0.0
  0
LINE
  5
25D
330
1F
100
AcDbEntity
  8
通り芯
  6
Continuous
 62
     3
370
     9
100
AcDbLine
 10
-655.1721838361107
 20
249.571696615693
 30
0.0
 11
-655.1721838361107
 21
207.0716801197049
 31
0.0
  0
LINE
  5
25E
330
1F
100
AcDbEntity
  8
通り芯
  6
Continuous
 62
     3
370
     9
100
AcDbLine
 10
-631.6722052808952
 20
249.571696615693
 30
0.0
 11
-631.6722052808952
 21
207.0716801197049
 31
0.0
  0
LINE
  5
25F
330
1F
100
AcDbEntity
  8
通り芯
  6
Continuous
 62
     3
370
     9
100
AcDbLine
 10
-651.1721953833023
 20
191.0717263084718
 30
0.0
 11
-635.6721937337036
 21
191.0717263084718
 31
0.0
  0
LINE
  5
260
330
1F
100
AcDbEntity
  8
通り芯
  6
Continuous
 62
     3
370
     9
100
AcDbLine
 10
-651.1721953833023
 20
203.0716916668967
 30
0.0
 11
-635.6721937337036
 21
203.0716916668967
 31
0.0
  0
LINE
  5
261
330
1F
100
AcDbEntity
  8
通り芯
  6
Continuous
 62
     3
370
     9
100
AcDbLine
 10
-601.1721850733097
 20
203.0716916668967
 30
0.0
 11
-585.672183423711
 21
203.0716916668967
 31
0.0
  0
LINE
  5
262
330
1F
100
AcDbEntity
  8
通り芯
  6
Continuous
 62
     3
370
     9
100
AcDbLine
 10
-601.1721850733097
 20
191.0717263084718
 30
0.0
 11
-585.672183423711
 21
191.0717263084718
 31
0.0
  0
LINE
  5
263
330
1F
100
AcDbEntity
  8
通り芯
  6
Continuous
 62
     3
370
     9
100
AcDbLine
 10
-581.6721949709026
 20
249.571696615693
 30
0.0
 11
-581.6721949709026
 21
207.0716801197049
 31
0.0
  0
LINE
  5
264
330
1F
100
AcDbEntity
  8
通り芯
  6
Continuous
 62
     3
370
     9
100
AcDbLine
 10
-605.1722044560959
 20
249.571696615693
 30
0.0
 11
-605.1722044560959
 21
207.0716801197049
 31
0.0
  0
LINE
  5
265
330
1F
100
AcDbEntity
  8
通り芯
  6
Continuous
 62
     3
370
     9
100
AcDbLine
 10
-605.1722044560959
 20
187.0717378556634
 30
0.0
 11
-605.1722044560959
 21
91.57171971007648
 31
0.0
  0
LINE
  5
266
330
1F
100
AcDbEntity
  8
通り芯
  6
Continuous
 62
     3
370
     9
100
AcDbLine
 10
-581.6721949709026
 20
187.0717378556634
 30
0.0
 11
-581.6721949709026
 21
91.57171971007648
 31
0.0
  0
LINE
  5
267
330
1F
100
AcDbEntity
  8
通り芯
  6
Continuous
 62
     3
370
     9
100
AcDbLine
 10
-546.1722201272847
 20
187.0717378556634
 30
0.0
 11
-546.1722201272847
 21
91.57171971007648
 31
0.0
  0
LINE
  5
268
330
1F
100
AcDbEntity
  8
通り芯
  6
Continuous
 62
     3
370
     9
100
AcDbLine
 10
-569.6721986825
 20
187.0717378556634
 30
0.0
 11
-569.6721986825
 21
91.57171971007648
 31
0.0
  0
LINE
  5
269
330
1F
100
AcDbEntity
  8
通り芯
  6
Continuous
 62
     3
370
     9
100
AcDbLine
 10
-569.6721986825
 20
249.571696615693
 30
0.0
 11
-569.6721986825
 21
207.0716801197049
 31
0.0
  0
LINE
  5
26A
330
1F
100
AcDbEntity
  8
通り芯
  6
Continuous
 62
     3
370
     9
100
AcDbLine
 10
-546.1722201272847
 20
249.571696615693
 30
0.0
 11
-546.1722201272847
 21
207.0716801197049
 31
0.0
  0
LINE
  5
26B
330
1F
100
AcDbEntity
  8
通り芯
  6
Continuous
 62
     3
370
     9
100
AcDbLine
 10
-565.6721792997139
 20
191.0717263084718
 30
0.0
 11
-550.1722085800928
 21
191.0717263084718
 31
0.0
  0
LINE
  5
26C
330
1F
100
AcDbEntity
  8
通り芯
  6
Continuous
 62
     3
370
     9
100
AcDbLine
 10
-565.6721792997139
 20
203.0716916668967
 30
0.0
 11
-550.1722085800928
 21
203.0716916668967
 31
0.0
  0
LINE
  5
26D
330
1F
100
AcDbEntity
  8
通り芯
  6
Continuous
 62
     3
370
     9
100
AcDbLine
 10
-530.1722044560959
 20
203.0716916668967
 30
0.0
 11
-514.672202806497
 21
203.0716916668967
 31
0.0
  0
LINE
  5
26E
330
1F
100
AcDbEntity
  8
通り芯
  6
Continuous
 62
     3
370
     9
100
AcDbLine
 10
-530.1722044560959
 20
191.0717263084718
 30
0.0
 11
-514.672202806497
 21
191.0717263084718
 31
0.0
  0
LINE
  5
26F
330
1F
100
AcDbEntity
  8
通り芯
  6
Continuous
 62
     3
370
     9
100
AcDbLine
 10
-510.6722143536887
 20
249.571696615693
 30
0.0
 11
-510.6722143536887
 21
207.0716801197049
 31
0.0
  0
LINE
  5
270
330
1F
100
AcDbEntity
  8
通り芯
  6
Continuous
 62
     3
370
     9
100
AcDbLine
 10
-534.1721929089042
 20
249.571696615693
 30
0.0
 11
-534.1721929089042
 21
207.0716801197049
 31
0.0
  0
LINE
  5
271
330
1F
100
AcDbEntity
  8
通り芯
  6
Continuous
 62
     3
370
     9
100
AcDbLine
 10
-534.1721929089042
 20
187.0717378556634
 30
0.0
 11
-534.1721929089042
 21
91.57171971007648
 31
0.0
  0
LINE
  5
272
330
1F
100
AcDbEntity
  8
通り芯
  6
Continuous
 62
     3
370
     9
100
AcDbLine
 10
-510.6722143536887
 20
187.0717378556634
 30
0.0
 11
-510.6722143536887
 21
91.57171971007648
 31
0.0
  0
LINE
  5
273
330
1F
100
AcDbEntity
  8
通り芯
  6
Continuous
 62
     3
370
     9
100
AcDbLine
 10
-460.6722040436961
 20
187.0717378556634
 30
0.0
 11
-460.6722040436961
 21
91.57171971007648
 31
0.0
  0
LINE
  5
274
330
1F
100
AcDbEntity
  8
通り芯
  6
Continuous
 62
     3
370
     9
100
AcDbLine
 10
-484.1721825989115
 20
187.0717378556634
 30
0.0
 11
-484.1721825989115
 21
91.57171971007648
 31
0.0
  0
LINE
  5
275
330
1F
100
AcDbEntity
  8
通り芯
  6
Continuous
 62
     3
370
     9
100
AcDbLine
 10
-484.1721825989115
 20
249.571696615693
 30
0.0
 11
-484.1721825989115
 21
207.0716801197049
 31
0.0
  0
LINE
  5
276
330
1F
100
AcDbEntity
  8
通り芯
  6
Continuous
 62
     3
370
     9
100
AcDbLine
 10
-460.6722040436961
 20
249.571696615693
 30
0.0
 11
-460.6722040436961
 21
207.0716801197049
 31
0.0
  0
LINE
  5
277
330
1F
100
AcDbEntity
  8
通り芯
  6
Continuous
 62
     3
370
     9
100
AcDbLine
 10
-480.172225076081
 20
191.0717263084718
 30
0.0
 11
-464.6722234264823
 21
191.0717263084718
 31
0.0
  0
LINE
  5
278
330
1F
100
AcDbEntity
  8
通り芯
  6
Continuous
 62
     3
370
     9
100
AcDbLine
 10
-480.172225076081
 20
203.0716916668967
 30
0.0
 11
-464.6722234264823
 21
203.0716916668967
 31
0.0
  0
LINE
  5
279
330
1F
100
AcDbEntity
  8
通り芯
  6
Continuous
 62
     3
370
     9
100
AcDbLine
 10
-444.6722193024852
 20
203.0716916668967
 30
0.0
 11
-429.1721867229086
 21
203.0716916668967
 31
0.0
  0
LINE
  5
27A
330
1F
100
AcDbEntity
  8
通り芯
  6
Continuous
 62
     3
370
     9
100
AcDbLine
 10
-444.6722193024852
 20
191.0717263084718
 30
0.0
 11
-429.1721867229086
 21
191.0717263084718
 31
0.0
  0
LINE
  5
27B
330
1F
100
AcDbEntity
  8
通り芯
  6
Continuous
 62
     3
370
     9
100
AcDbLine
 10
-425.1721982701002
 20
249.571696615693
 30
0.0
 11
-425.1721982701002
 21
207.0716801197049
 31
0.0
  0
LINE
  5
27C
330
1F
100
AcDbEntity
  8
通り芯
  6
Continuous
 62
     3
370
     9
100
AcDbLine
 10
-448.6722077552935
 20
249.571696615693
 30
0.0
 11
-448.6722077552935
 21
207.0716801197049
 31
0.0
  0
LINE
  5
27D
330
1F
100
AcDbEntity
  8
通り芯
  6
Continuous
 62
     3
370
     9
100
AcDbLine
 10
-448.6722077552935
 20
187.0717378556634
 30
0.0
 11
-448.6722077552935
 21
91.57171971007648
 31
0.0
  0
LINE
  5
27E
330
1F
100
AcDbEntity
  8
通り芯
  6
Continuous
 62
     3
370
     9
100
AcDbLine
 10
-425.1721982701002
 20
187.0717378556634
 30
0.0
 11
-425.1721982701002
 21
91.57171971007648
 31
0.0
  0
LINE
  5
27F
330
1F
100
AcDbEntity
  8
通り芯
  6
Continuous
 62
     3
370
     9
100
AcDbLine
 10
-389.6721924965044
 20
187.0717378556634
 30
0.0
 11
-389.6721924965044
 21
91.57171971007648
 31
0.0
  0
LINE
  5
280
330
1F
100
AcDbEntity
  8
通り芯
  6
Continuous
 62
     3
370
     9
100
AcDbLine
 10
-413.1721710517198
 20
187.0717378556634
 30
0.0
 11
-413.1721710517198
 21
91.57171971007648
 31
0.0
  0
LINE
  5
281
330
1F
100
AcDbEntity
  8
通り芯
  6
Continuous
 62
     3
370
     9
100
AcDbLine
 10
-413.1721710517198
 20
249.571696615693
 30
0.0
 11
-413.1721710517198
 21
207.0716801197049
 31
0.0
  0
LINE
  5
282
330
1F
100
AcDbEntity
  8
通り芯
  6
Continuous
 62
     3
370
     9
100
AcDbLine
 10
-389.6721924965044
 20
249.571696615693
 30
0.0
 11
-389.6721924965044
 21
207.0716801197049
 31
0.0
  0
LINE
  5
283
330
1F
100
AcDbEntity
  8
通り芯
  6
Continuous
 62
     3
370
     9
100
AcDbLine
 10
-409.1721825989115
 20
191.0717263084718
 30
0.0
 11
-393.6721809493127
 21
191.0717263084718
 31
0.0
  0
LINE
  5
284
330
1F
100
AcDbEntity
  8
通り芯
  6
Continuous
 62
     3
370
     9
100
AcDbLine
 10
-409.1721825989115
 20
203.0716916668967
 30
0.0
 11
-393.6721809493127
 21
203.0716916668967
 31
0.0
  0
LINE
  5
285
330
1F
100
AcDbEntity
  8
通り芯
  6
Continuous
 62
     3
370
     9
100
AcDbLine
 10
-873.9221632161255
 20
249.571696615693
 30
0.0
 11
-873.9221632161255
 21
74.57173785566346
 31
0.0
  0
LINE
  5
286
330
1F
100
AcDbEntity
  8
通り芯
  6
Continuous
 62
     3
370
     9
100
AcDbLine
 10
121.0778718378496
 20
249.571696615693
 30
0.0
 11
121.0778718378496
 21
74.57173785566346
 31
0.0
  0
LINE
  5
287
330
1F
100
AcDbEntity
  8
通り芯
  6
Continuous
 62
     3
370
     9
100
AcDbLine
 10
-343.6722015692979
 20
203.0716916668967
 30
0.0
 11
-359.1722032188967
 21
203.0716916668967
 31
0.0
  0
LINE
  5
288
330
1F
100
AcDbEntity
  8
通り芯
  6
Continuous
 62
     3
370
     9
100
AcDbLine
 10
-343.6722015692979
 20
191.0717263084718
 30
0.0
 11
-359.1722032188967
 21
191.0717263084718
 31
0.0
  0
LINE
  5
289
330
1F
100
AcDbEntity
  8
通り芯
  6
Continuous
 62
     3
370
     9
100
AcDbLine
 10
-363.1721298117493
 20
249.571696615693
 30
0.0
 11
-363.1721298117493
 21
207.0716801197049
 31
0.0
  0
LINE
  5
28A
330
1F
100
AcDbEntity
  8
通り芯
  6
Continuous
 62
     3
370
     9
100
AcDbLine
 10
-339.6722131164896
 20
249.571696615693
 30
0.0
 11
-339.6722131164896
 21
207.0716801197049
 31
0.0
  0
LINE
  5
28B
330
1F
100
AcDbEntity
  8
通り芯
  6
Continuous
 62
     3
370
     9
100
AcDbLine
 10
-339.6722131164896
 20
187.0717378556634
 30
0.0
 11
-339.6722131164896
 21
91.57171971007648
 31
0.0
  0
LINE
  5
28C
330
1F
100
AcDbEntity
  8
通り芯
  6
Continuous
 62
     3
370
     9
100
AcDbLine
 10
-363.1721298117493
 20
187.0717378556634
 30
0.0
 11
-363.1721298117493
 21
91.57171971007648
 31
0.0
  0
LINE
  5
28D
330
1F
100
AcDbEntity
  8
通り芯
  6
Continuous
 62
     3
370
     9
100
AcDbLine
 10
-327.6721858981091
 20
187.0717378556634
 30
0.0
 11
-327.6721858981091
 21
91.57171971007648
 31
0.0
  0
LINE
  5
28E
330
1F
100
AcDbEntity
  8
通り芯
  6
Continuous
 62
     3
370
     9
100
AcDbLine
 10
-304.172145482938
 20
187.0717378556634
 30
0.0
 11
-304.172145482938
 21
91.57171971007648
 31
0.0
  0
LINE
  5
28F
330
1F
100
AcDbEntity
  8
通り芯
  6
Continuous
 62
     3
370
     9
100
AcDbLine
 10
-304.172145482938
 20
249.571696615693
 30
0.0
 11
-304.172145482938
 21
207.0716801197049
 31
0.0
  0
LINE
  5
290
330
1F
100
AcDbEntity
  8
通り芯
  6
Continuous
 62
     3
370
     9
100
AcDbLine
 10
-327.6721858981091
 20
249.571696615693
 30
0.0
 11
-327.6721858981091
 21
207.0716801197049
 31
0.0
  0
LINE
  5
291
330
1F
100
AcDbEntity
  8
通り芯
  6
Continuous
 62
     3
370
     9
100
AcDbLine
 10
-308.172195795702
 20
191.0717263084718
 30
0.0
 11
-323.6721974453008
 21
191.0717263084718
 31
0.0
  0
LINE
  5
292
330
1F
100
AcDbEntity
  8
通り芯
  6
Continuous
 62
     3
370
     9
100
AcDbLine
 10
-308.172195795702
 20
203.0716916668967
 30
0.0
 11
-323.6721974453008
 21
203.0716916668967
 31
0.0
  0
LINE
  5
293
330
1F
100
AcDbEntity
  8
通り芯
  6
Continuous
 62
     3
370
     9
100
AcDbLine
 10
-272.6721900221062
 20
203.0716916668967
 30
0.0
 11
-288.172191671705
 21
203.0716916668967
 31
0.0
  0
LINE
  5
294
330
1F
100
AcDbEntity
  8
通り芯
  6
Continuous
 62
     3
370
     9
100
AcDbLine
 10
-272.6721900221062
 20
191.0717263084718
 30
0.0
 11
-288.172191671705
 21
191.0717263084718
 31
0.0
  0
LINE
  5
295
330
1F
100
AcDbEntity
  8
通り芯
  6
Continuous
 62
     3
370
     9
100
AcDbLine
 10
-292.1721801245133
 20
249.571696615693
 30
0.0
 11
-292.1721801245133
 21
207.0716801197049
 31
0.0
  0
LINE
  5
296
330
1F
100
AcDbEntity
  8
通り芯
  6
Continuous
 62
     3
370
     9
100
AcDbLine
 10
-268.672201569298
 20
249.571696615693
 30
0.0
 11
-268.672201569298
 21
207.0716801197049
 31
0.0
  0
LINE
  5
297
330
1F
100
AcDbEntity
  8
通り芯
  6
Continuous
 62
     3
370
     9
100
AcDbLine
 10
-268.672201569298
 20
187.0717378556634
 30
0.0
 11
-268.672201569298
 21
91.57171971007648
 31
0.0
  0
LINE
  5
298
330
1F
100
AcDbEntity
  8
通り芯
  6
Continuous
 62
     3
370
     9
100
AcDbLine
 10
-292.1721801245133
 20
187.0717378556634
 30
0.0
 11
-292.1721801245133
 21
91.57171971007648
 31
0.0
  0
LINE
  5
299
330
1F
100
AcDbEntity
  8
通り芯
  6
Continuous
 62
     3
370
     9
100
AcDbLine
 10
-242.1722007444985
 20
187.0717378556634
 30
0.0
 11
-242.1722007444985
 21
91.57171971007648
 31
0.0
  0
LINE
  5
29A
330
1F
100
AcDbEntity
  8
通り芯
  6
Continuous
 62
     3
370
     9
100
AcDbLine
 10
-218.6721603293275
 20
187.0717378556634
 30
0.0
 11
-218.6721603293275
 21
91.57171971007648
 31
0.0
  0
LINE
  5
29B
330
1F
100
AcDbEntity
  8
通り芯
  6
Continuous
 62
     3
370
     9
100
AcDbLine
 10
-218.6721603293275
 20
249.571696615693
 30
0.0
 11
-218.6721603293275
 21
207.0716801197049
 31
0.0
  0
LINE
  5
29C
330
1F
100
AcDbEntity
  8
通り芯
  6
Continuous
 62
     3
370
     9
100
AcDbLine
 10
-242.1722007444985
 20
249.571696615693
 30
0.0
 11
-242.1722007444985
 21
207.0716801197049
 31
0.0
  0
LINE
  5
29D
330
1F
100
AcDbEntity
  8
通り芯
  6
Continuous
 62
     3
370
     9
100
AcDbLine
 10
-222.6722106420914
 20
191.0717263084718
 30
0.0
 11
-238.1722122916901
 21
191.0717263084718
 31
0.0
  0
LINE
  5
29E
330
1F
100
AcDbEntity
  8
通り芯
  6
Continuous
 62
     3
370
     9
100
AcDbLine
 10
-222.6722106420914
 20
203.0716916668967
 30
0.0
 11
-238.1722122916901
 21
203.0716916668967
 31
0.0
  0
LINE
  5
29F
330
1F
100
AcDbEntity
  8
通り芯
  6
Continuous
 62
     3
370
     9
100
AcDbLine
 10
-187.1722048684955
 20
203.0716916668967
 30
0.0
 11
-202.6721446581387
 21
203.0716916668967
 31
0.0
  0
LINE
  5
2A0
330
1F
100
AcDbEntity
  8
通り芯
  6
Continuous
 62
     3
370
     9
100
AcDbLine
 10
-187.1722048684955
 20
191.0717263084718
 30
0.0
 11
-202.6721446581387
 21
191.0717263084718
 31
0.0
  0
LINE
  5
2A1
330
1F
100
AcDbEntity
  8
通り芯
  6
Continuous
 62
     3
370
     9
100
AcDbLine
 10
-206.6721949709026
 20
249.571696615693
 30
0.0
 11
-206.6721949709026
 21
207.0716801197049
 31
0.0
  0
LINE
  5
2A2
330
1F
100
AcDbEntity
  8
通り芯
  6
Continuous
 62
     3
370
     9
100
AcDbLine
 10
-183.1722164156873
 20
249.571696615693
 30
0.0
 11
-183.1722164156873
 21
207.0716801197049
 31
0.0
  0
LINE
  5
2A3
330
1F
100
AcDbEntity
  8
通り芯
  6
Continuous
 62
     3
370
     9
100
AcDbLine
 10
-183.1722164156873
 20
187.0717378556634
 30
0.0
 11
-183.1722164156873
 21
91.57171971007648
 31
0.0
  0
LINE
  5
2A4
330
1F
100
AcDbEntity
  8
通り芯
  6
Continuous
 62
     3
370
     9
100
AcDbLine
 10
-206.6721949709026
 20
187.0717378556634
 30
0.0
 11
-206.6721949709026
 21
91.57171971007648
 31
0.0
  0
LINE
  5
2A5
330
1F
100
AcDbEntity
  8
通り芯
  6
Continuous
 62
     3
370
     9
100
AcDbLine
 10
-171.1721891973068
 20
187.0717378556634
 30
0.0
 11
-171.1721891973068
 21
91.57171971007648
 31
0.0
  0
LINE
  5
2A6
330
1F
100
AcDbEntity
  8
通り芯
  6
Continuous
 62
     3
370
     9
100
AcDbLine
 10
-147.6721487821357
 20
187.0717378556634
 30
0.0
 11
-147.6721487821357
 21
91.57171971007648
 31
0.0
  0
LINE
  5
2A7
330
1F
100
AcDbEntity
  8
通り芯
  6
Continuous
 62
     3
370
     9
100
AcDbLine
 10
-147.6721487821357
 20
249.571696615693
 30
0.0
 11
-147.6721487821357
 21
207.0716801197049
 31
0.0
  0
LINE
  5
2A8
330
1F
100
AcDbEntity
  8
通り芯
  6
Continuous
 62
     3
370
     9
100
AcDbLine
 10
-171.1721891973068
 20
249.571696615693
 30
0.0
 11
-171.1721891973068
 21
207.0716801197049
 31
0.0
  0
LINE
  5
2A9
330
1F
100
AcDbEntity
  8
通り芯
  6
Continuous
 62
     3
370
     9
100
AcDbLine
 10
-151.6721990948997
 20
191.0717263084718
 30
0.0
 11
-167.1722007444985
 21
191.0717263084718
 31
0.0
  0
LINE
  5
2AA
330
1F
100
AcDbEntity
  8
通り芯
  6
Continuous
 62
     3
370
     9
100
AcDbLine
 10
-151.6721990948997
 20
203.0716916668967
 30
0.0
 11
-167.1722007444985
 21
203.0716916668967
 31
0.0
  0
LINE
  5
2AB
330
1F
100
AcDbEntity
  8
通り芯
  6
Continuous
 62
     3
370
     9
100
AcDbLine
 10
-101.6721578549292
 20
203.0716916668967
 30
0.0
 11
-117.172159504528
 21
203.0716916668967
 31
0.0
  0
LINE
  5
2AC
330
1F
100
AcDbEntity
  8
通り芯
  6
Continuous
 62
     3
370
     9
100
AcDbLine
 10
-101.6721578549292
 20
191.0717263084718
 30
0.0
 11
-117.172159504528
 21
191.0717263084718
 31
0.0
  0
LINE
  5
2AD
330
1F
100
AcDbEntity
  8
通り芯
  6
Continuous
 62
     3
370
     9
100
AcDbLine
 10
-121.172209817292
 20
249.571696615693
 30
0.0
 11
-121.172209817292
 21
207.0716801197049
 31
0.0
  0
LINE
  5
2AE
330
1F
100
AcDbEntity
  8
通り芯
  6
Continuous
 62
     3
370
     9
100
AcDbLine
 10
-97.67216940212101
 20
249.571696615693
 30
0.0
 11
-97.67216940212101
 21
207.0716801197049
 31
0.0
  0
LINE
  5
2AF
330
1F
100
AcDbEntity
  8
通り芯
  6
Continuous
 62
     3
370
     9
100
AcDbLine
 10
-97.67216940212101
 20
187.0717378556634
 30
0.0
 11
-97.67216940212101
 21
91.57171971007648
 31
0.0
  0
LINE
  5
2B0
330
1F
100
AcDbEntity
  8
通り芯
  6
Continuous
 62
     3
370
     9
100
AcDbLine
 10
-121.172209817292
 20
187.0717378556634
 30
0.0
 11
-121.172209817292
 21
91.57171971007648
 31
0.0
  0
LINE
  5
2B1
330
1F
100
AcDbEntity
  8
通り芯
  6
Continuous
 62
     3
370
     9
100
AcDbLine
 10
-85.67220404369614
 20
187.0717378556634
 30
0.0
 11
-85.67220404369614
 21
91.57171971007648
 31
0.0
  0
LINE
  5
2B2
330
1F
100
AcDbEntity
  8
通り芯
  6
Continuous
 62
     3
370
     9
100
AcDbLine
 10
-62.17222548848078
 20
187.0717378556634
 30
0.0
 11
-62.17222548848078
 21
91.57171971007648
 31
0.0
  0
LINE
  5
2B3
330
1F
100
AcDbEntity
  8
通り芯
  6
Continuous
 62
     3
370
     9
100
AcDbLine
 10
-62.17222548848078
 20
249.571696615693
 30
0.0
 11
-62.17222548848078
 21
207.0716801197049
 31
0.0
  0
LINE
  5
2B4
330
1F
100
AcDbEntity
  8
通り芯
  6
Continuous
 62
     3
370
     9
100
AcDbLine
 10
-85.67220404369614
 20
249.571696615693
 30
0.0
 11
-85.67220404369614
 21
207.0716801197049
 31
0.0
  0
LINE
  5
2B5
330
1F
100
AcDbEntity
  8
通り芯
  6
Continuous
 62
     3
370
     9
100
AcDbLine
 10
-66.17221394128897
 20
191.0717263084718
 30
0.0
 11
-81.6722155908878
 21
191.0717263084718
 31
0.0
  0
LINE
  5
2B6
330
1F
100
AcDbEntity
  8
通り芯
  6
Continuous
 62
     3
370
     9
100
AcDbLine
 10
-66.17221394128897
 20
203.0716916668967
 30
0.0
 11
-81.6722155908878
 21
203.0716916668967
 31
0.0
  0
LINE
  5
2B7
330
1F
100
AcDbEntity
  8
通り芯
  6
Continuous
 62
     3
370
     9
100
AcDbLine
 10
-30.67214630773755
 20
203.0716916668967
 30
0.0
 11
-46.17214795733638
 21
203.0716916668967
 31
0.0
  0
LINE
  5
2B8
330
1F
100
AcDbEntity
  8
通り芯
  6
Continuous
 62
     3
370
     9
100
AcDbLine
 10
-30.67214630773755
 20
191.0717263084718
 30
0.0
 11
-46.17214795733638
 21
191.0717263084718
 31
0.0
  0
LINE
  5
2B9
330
1F
100
AcDbEntity
  8
通り芯
  6
Continuous
 62
     3
370
     9
100
AcDbLine
 10
-50.17219827010031
 20
249.571696615693
 30
0.0
 11
-50.17219827010031
 21
207.0716801197049
 31
0.0
  0
LINE
  5
2BA
330
1F
100
AcDbEntity
  8
通り芯
  6
Continuous
 62
     3
370
     9
100
AcDbLine
 10
-26.67221971488495
 20
249.571696615693
 30
0.0
 11
-26.67221971488495
 21
207.0716801197049
 31
0.0
  0
LINE
  5
2BB
330
1F
100
AcDbEntity
  8
通り芯
  6
Continuous
 62
     3
370
     9
100
AcDbLine
 10
-26.67221971488495
 20
187.0717378556634
 30
0.0
 11
-26.67221971488495
 21
91.57171971007648
 31
0.0
  0
LINE
  5
2BC
330
1F
100
AcDbEntity
  8
通り芯
  6
Continuous
 62
     3
370
     9
100
AcDbLine
 10
-50.17219827010031
 20
187.0717378556634
 30
0.0
 11
-50.17219827010031
 21
91.57171971007648
 31
0.0
  0
LINE
  5
2BD
330
1F
100
AcDbEntity
  8
通り芯
  6
Continuous
 62
     3
370
     9
100
AcDbLine
 10
-0.1721570301298669
 20
187.0717378556634
 30
0.0
 11
-0.1721570301298669
 21
148.0716957908937
 31
0.0
  0
LINE
  5
2BE
330
1F
100
AcDbEntity
  8
通り芯
  6
Continuous
 62
     3
370
     9
100
AcDbLine
 10
23.3277596651299
 20
187.0717378556634
 30
0.0
 11
23.3277596651299
 21
148.0716957908937
 31
0.0
  0
LINE
  5
2BF
330
1F
100
AcDbEntity
  8
通り芯
  6
Continuous
 62
     3
370
     9
100
AcDbLine
 10
23.3277596651299
 20
249.571696615693
 30
0.0
 11
23.3277596651299
 21
207.0716801197049
 31
0.0
  0
LINE
  5
2C0
330
1F
100
AcDbEntity
  8
通り芯
  6
Continuous
 62
     3
370
     9
100
AcDbLine
 10
-0.1721570301298669
 20
249.571696615693
 30
0.0
 11
-0.1721570301298669
 21
207.0716801197049
 31
0.0
  0
LINE
  5
2C1
330
1F
100
AcDbEntity
  8
通り芯
  6
Continuous
 62
     3
370
     9
100
AcDbLine
 10
19.3278330722773
 20
191.0717263084718
 30
0.0
 11
3.827831422678472
 21
191.0717263084718
 31
0.0
  0
LINE
  5
2C2
330
1F
100
AcDbEntity
  8
通り芯
  6
Continuous
 62
     3
370
     9
100
AcDbLine
 10
19.3278330722773
 20
203.0716916668967
 30
0.0
 11
3.827831422678472
 21
203.0716916668967
 31
0.0
  0
LINE
  5
2C3
330
1F
100
AcDbEntity
  8
通り芯
  6
Continuous
 62
     3
370
     9
100
AcDbLine
 10
54.82777698591754
 20
203.0716916668967
 30
0.0
 11
39.32777533631871
 21
203.0716916668967
 31
0.0
  0
LINE
  5
2C4
330
1F
100
AcDbEntity
  8
通り芯
  6
Continuous
 62
     3
370
     9
100
AcDbLine
 10
54.82777698591754
 20
191.0717263084718
 30
0.0
 11
39.32777533631871
 21
191.0717263084718
 31
0.0
  0
LINE
  5
2C5
330
1F
100
AcDbEntity
  8
通り芯
  6
Continuous
 62
     3
370
     9
100
AcDbLine
 10
35.32778688351037
 20
249.571696615693
 30
0.0
 11
35.32778688351037
 21
207.0716801197049
 31
0.0
  0
LINE
  5
2C6
330
1F
100
AcDbEntity
  8
通り芯
  6
Continuous
 62
     3
370
     9
100
AcDbLine
 10
58.82782729868147
 20
249.571696615693
 30
0.0
 11
58.82782729868147
 21
207.0716801197049
 31
0.0
  0
LINE
  5
2C7
330
1F
100
AcDbEntity
  8
通り芯
  6
Continuous
 62
     3
370
     9
100
AcDbLine
 10
58.82782729868147
 20
187.0717378556634
 30
0.0
 11
58.82782729868147
 21
148.0716957908937
 31
0.0
  0
LINE
  5
2C8
330
1F
100
AcDbEntity
  8
通り芯
  6
Continuous
 62
     3
370
     9
100
AcDbLine
 10
35.32778688351037
 20
187.0717378556634
 30
0.0
 11
35.32778688351037
 21
148.0716957908937
 31
0.0
  0
LINE
  5
2C9
330
1F
100
AcDbEntity
  8
通り芯
  6
Continuous
 62
     3
370
     9
100
AcDbLine
 10
70.8277926571062
 20
187.0717378556634
 30
0.0
 11
70.8277926571062
 21
91.57171971007648
 31
0.0
  0
LINE
  5
2CA
330
1F
100
AcDbEntity
  8
通り芯
  6
Continuous
 62
     3
370
     9
100
AcDbLine
 10
94.3278949322329
 20
187.0717378556634
 30
0.0
 11
94.3278949322329
 21
91.57171971007648
 31
0.0
  0
LINE
  5
2CB
330
1F
100
AcDbEntity
  8
通り芯
  6
Continuous
 62
     3
370
     9
100
AcDbLine
 10
94.3278949322329
 20
249.571696615693
 30
0.0
 11
94.3278949322329
 21
207.0716801197049
 31
0.0
  0
LINE
  5
2CC
330
1F
100
AcDbEntity
  8
通り芯
  6
Continuous
 62
     3
370
     9
100
AcDbLine
 10
70.8277926571062
 20
249.571696615693
 30
0.0
 11
70.8277926571062
 21
207.0716801197049
 31
0.0
  0
LINE
  5
2CD
330
1F
100
AcDbEntity
  8
通り芯
  6
Continuous
 62
     3
370
     9
100
AcDbLine
 10
90.32778275951337
 20
191.0717263084718
 30
0.0
 11
74.82778110991454
 21
191.0717263084718
 31
0.0
  0
LINE
  5
2CE
330
1F
100
AcDbEntity
  8
通り芯
  6
Continuous
 62
     3
370
     9
100
AcDbLine
 10
90.32778275951337
 20
203.0716916668967
 30
0.0
 11
74.82778110991454
 21
203.0716916668967
 31
0.0
  0
LINE
  5
2CF
330
1F
100
AcDbEntity
  8
通り芯
  6
Continuous
 62
     3
370
     9
100
AcDbLine
 10
54.82777698591754
 20
144.0717073380853
 30
0.0
 11
39.32777533631871
 21
144.0717073380853
 31
0.0
  0
LINE
  5
2D0
330
1F
100
AcDbEntity
  8
通り芯
  6
Continuous
 62
     3
370
     9
100
AcDbLine
 10
19.3278330722773
 20
144.0717073380853
 30
0.0
 11
3.827831422678472
 21
144.0717073380853
 31
0.0
  0
LINE
  5
2D1
330
1F
100
AcDbEntity
  8
通り芯
  6
JWW_PHANTOM2
 62
     3
370
     9
100
AcDbLine
 10
126.0778883338377
 20
74.57173785566346
 30
0.0
 11
126.0778883338377
 21
424.5716553757225
 31
0.0
  0
ARC
  5
2D2
330
1F
100
AcDbEntity
  8
通り芯
  6
Continuous
 62
     3
370
     9
100
AcDbCircle
 10
-393.6721809493127
 20
312.0717790956339
 30
0.0
 40
3.999999809909511
100
AcDbArc
 50
270.0
 51
0.0
  0
ARC
  5
2D3
330
1F
100
AcDbEntity
  8
通り芯
  6
Continuous
 62
     3
370
     9
100
AcDbCircle
 10
-409.1721825989115
 20
312.0717790956339
 30
0.0
 40
3.999999809909511
100
AcDbArc
 50
180.0
 51
270.0
  0
ARC
  5
2D4
330
1F
100
AcDbEntity
  8
通り芯
  6
Continuous
 62
     3
370
     9
100
AcDbCircle
 10
-409.1721825989115
 20
292.0717131116813
 30
0.0
 40
3.999999809909511
100
AcDbArc
 50
90.0
 51
180.0
  0
ARC
  5
2D5
330
1F
100
AcDbEntity
  8
通り芯
  6
Continuous
 62
     3
370
     9
100
AcDbCircle
 10
-393.6721809493127
 20
292.0717131116813
 30
0.0
 40
3.999999809909511
100
AcDbArc
 50
0.0
 51
90.0
  0
ARC
  5
2D6
330
1F
100
AcDbEntity
  8
通り芯
  6
Continuous
 62
     3
370
     9
100
AcDbCircle
 10
-429.1721867229086
 20
292.0717131116813
 30
0.0
 40
3.999999809909511
100
AcDbArc
 50
0.0
 51
90.0
  0
ARC
  5
2D7
330
1F
100
AcDbEntity
  8
通り芯
  6
Continuous
 62
     3
370
     9
100
AcDbCircle
 10
-444.6722193024852
 20
292.0717131116813
 30
0.0
 40
3.999999809909511
100
AcDbArc
 50
90.0
 51
180.0
  0
ARC
  5
2D8
330
1F
100
AcDbEntity
  8
通り芯
  6
Continuous
 62
     3
370
     9
100
AcDbCircle
 10
-444.6722193024852
 20
312.0717790956339
 30
0.0
 40
3.999999809909511
100
AcDbArc
 50
180.0
 51
270.0
  0
ARC
  5
2D9
330
1F
100
AcDbEntity
  8
通り芯
  6
Continuous
 62
     3
370
     9
100
AcDbCircle
 10
-429.1721867229086
 20
312.0717790956339
 30
0.0
 40
3.999999809909511
100
AcDbArc
 50
270.0
 51
0.0
  0
ARC
  5
2DA
330
1F
100
AcDbEntity
  8
通り芯
  6
Continuous
 62
     3
370
     9
100
AcDbCircle
 10
-464.6722234264823
 20
312.0717790956339
 30
0.0
 40
3.999999809909511
100
AcDbArc
 50
270.0
 51
0.0
  0
ARC
  5
2DB
330
1F
100
AcDbEntity
  8
通り芯
  6
Continuous
 62
     3
370
     9
100
AcDbCircle
 10
-480.172225076081
 20
312.0717790956339
 30
0.0
 40
3.999999809909511
100
AcDbArc
 50
180.0
 51
270.0
  0
ARC
  5
2DC
330
1F
100
AcDbEntity
  8
通り芯
  6
Continuous
 62
     3
370
     9
100
AcDbCircle
 10
-480.172225076081
 20
292.0717131116813
 30
0.0
 40
3.999999809909511
100
AcDbArc
 50
90.0
 51
180.0
  0
ARC
  5
2DD
330
1F
100
AcDbEntity
  8
通り芯
  6
Continuous
 62
     3
370
     9
100
AcDbCircle
 10
-464.6722234264823
 20
292.0717131116813
 30
0.0
 40
3.999999809909511
100
AcDbArc
 50
0.0
 51
90.0
  0
ARC
  5
2DE
330
1F
100
AcDbEntity
  8
通り芯
  6
Continuous
 62
     3
370
     9
100
AcDbCircle
 10
-514.672202806497
 20
292.0717131116813
 30
0.0
 40
3.999999809909511
100
AcDbArc
 50
0.0
 51
90.0
  0
ARC
  5
2DF
330
1F
100
AcDbEntity
  8
通り芯
  6
Continuous
 62
     3
370
     9
100
AcDbCircle
 10
-530.1722044560959
 20
292.0717131116813
 30
0.0
 40
3.999999809909511
100
AcDbArc
 50
90.0
 51
180.0
  0
ARC
  5
2E0
330
1F
100
AcDbEntity
  8
通り芯
  6
Continuous
 62
     3
370
     9
100
AcDbCircle
 10
-530.1722044560959
 20
312.0717790956339
 30
0.0
 40
3.999999809909511
100
AcDbArc
 50
180.0
 51
270.0
  0
ARC
  5
2E1
330
1F
100
AcDbEntity
  8
通り芯
  6
Continuous
 62
     3
370
     9
100
AcDbCircle
 10
-514.672202806497
 20
312.0717790956339
 30
0.0
 40
3.999999809909511
100
AcDbArc
 50
270.0
 51
0.0
  0
ARC
  5
2E2
330
1F
100
AcDbEntity
  8
通り芯
  6
Continuous
 62
     3
370
     9
100
AcDbCircle
 10
-550.1722085800928
 20
312.0717790956339
 30
0.0
 40
3.999999809909511
100
AcDbArc
 50
270.0
 51
0.0
  0
ARC
  5
2E3
330
1F
100
AcDbEntity
  8
通り芯
  6
Continuous
 62
     3
370
     9
100
AcDbCircle
 10
-565.6721792997139
 20
312.0717790956339
 30
0.0
 40
3.999999809909511
100
AcDbArc
 50
180.0
 51
270.0
  0
ARC
  5
2E4
330
1F
100
AcDbEntity
  8
通り芯
  6
Continuous
 62
     3
370
     9
100
AcDbCircle
 10
-565.6721792997139
 20
292.0717131116813
 30
0.0
 40
3.999999809909511
100
AcDbArc
 50
90.0
 51
180.0
  0
ARC
  5
2E5
330
1F
100
AcDbEntity
  8
通り芯
  6
Continuous
 62
     3
370
     9
100
AcDbCircle
 10
-550.1722085800928
 20
292.0717131116813
 30
0.0
 40
3.999999809909511
100
AcDbArc
 50
0.0
 51
90.0
  0
ARC
  5
2E6
330
1F
100
AcDbEntity
  8
通り芯
  6
Continuous
 62
     3
370
     9
100
AcDbCircle
 10
-585.672183423711
 20
292.0717131116813
 30
0.0
 40
3.999999809909511
100
AcDbArc
 50
0.0
 51
90.0
  0
ARC
  5
2E7
330
1F
100
AcDbEntity
  8
通り芯
  6
Continuous
 62
     3
370
     9
100
AcDbCircle
 10
-601.1721850733097
 20
292.0717131116813
 30
0.0
 40
3.999999809909511
100
AcDbArc
 50
90.0
 51
180.0
  0
ARC
  5
2E8
330
1F
100
AcDbEntity
  8
通り芯
  6
Continuous
 62
     3
370
     9
100
AcDbCircle
 10
-601.1721850733097
 20
312.0717790956339
 30
0.0
 40
3.999999809909511
100
AcDbArc
 50
180.0
 51
270.0
  0
ARC
  5
2E9
330
1F
100
AcDbEntity
  8
通り芯
  6
Continuous
 62
     3
370
     9
100
AcDbCircle
 10
-585.672183423711
 20
312.0717790956339
 30
0.0
 40
3.999999809909511
100
AcDbArc
 50
270.0
 51
0.0
  0
ARC
  5
2EA
330
1F
100
AcDbEntity
  8
通り芯
  6
Continuous
 62
     3
370
     9
100
AcDbCircle
 10
-635.6721937337036
 20
312.0717790956339
 30
0.0
 40
3.999999809909511
100
AcDbArc
 50
270.0
 51
0.0
  0
ARC
  5
2EB
330
1F
100
AcDbEntity
  8
通り芯
  6
Continuous
 62
     3
370
     9
100
AcDbCircle
 10
-651.1721953833023
 20
312.0717790956339
 30
0.0
 40
3.999999809909511
100
AcDbArc
 50
180.0
 51
270.0
  0
ARC
  5
2EC
330
1F
100
AcDbEntity
  8
通り芯
  6
Continuous
 62
     3
370
     9
100
AcDbCircle
 10
-651.1721953833023
 20
292.0717131116813
 30
0.0
 40
3.999999809909511
100
AcDbArc
 50
90.0
 51
180.0
  0
ARC
  5
2ED
330
1F
100
AcDbEntity
  8
通り芯
  6
Continuous
 62
     3
370
     9
100
AcDbCircle
 10
-635.6721937337036
 20
292.0717131116813
 30
0.0
 40
3.999999809909511
100
AcDbArc
 50
0.0
 51
90.0
  0
ARC
  5
2EE
330
1F
100
AcDbEntity
  8
通り芯
  6
Continuous
 62
     3
370
     9
100
AcDbCircle
 10
-671.1721995072994
 20
292.0717131116813
 30
0.0
 40
3.999999809909511
100
AcDbArc
 50
0.0
 51
90.0
  0
ARC
  5
2EF
330
1F
100
AcDbEntity
  8
通り芯
  6
Continuous
 62
     3
370
     9
100
AcDbCircle
 10
-686.6722011568982
 20
292.0717131116813
 30
0.0
 40
3.999999809909511
100
AcDbArc
 50
90.0
 51
180.0
  0
ARC
  5
2F0
330
1F
100
AcDbEntity
  8
通り芯
  6
Continuous
 62
     3
370
     9
100
AcDbCircle
 10
-686.6722011568982
 20
312.0717790956339
 30
0.0
 40
3.999999809909511
100
AcDbArc
 50
180.0
 51
270.0
  0
ARC
  5
2F1
330
1F
100
AcDbEntity
  8
通り芯
  6
Continuous
 62
     3
370
     9
100
AcDbCircle
 10
-671.1721995072994
 20
312.0717790956339
 30
0.0
 40
3.999999809909511
100
AcDbArc
 50
270.0
 51
0.0
  0
ARC
  5
2F2
330
1F
100
AcDbEntity
  8
通り芯
  6
Continuous
 62
     3
370
     9
100
AcDbCircle
 10
-706.6721743509174
 20
312.0717790956339
 30
0.0
 40
3.999999809909511
100
AcDbArc
 50
270.0
 51
0.0
  0
ARC
  5
2F3
330
1F
100
AcDbEntity
  8
通り芯
  6
Continuous
 62
     3
370
     9
100
AcDbCircle
 10
-722.1721760005162
 20
312.0717790956339
 30
0.0
 40
3.999999809909511
100
AcDbArc
 50
180.0
 51
270.0
  0
ARC
  5
2F4
330
1F
100
AcDbEntity
  8
通り芯
  6
Continuous
 62
     3
370
     9
100
AcDbCircle
 10
-722.1721760005162
 20
292.0717131116813
 30
0.0
 40
3.999999809909511
100
AcDbArc
 50
90.0
 51
180.0
  0
ARC
  5
2F5
330
1F
100
AcDbEntity
  8
通り芯
  6
Continuous
 62
     3
370
     9
100
AcDbCircle
 10
-706.6721743509174
 20
292.0717131116813
 30
0.0
 40
3.999999809909511
100
AcDbArc
 50
0.0
 51
90.0
  0
ARC
  5
2F6
330
1F
100
AcDbEntity
  8
通り芯
  6
Continuous
 62
     3
370
     9
100
AcDbCircle
 10
-756.6721846609101
 20
292.0717131116813
 30
0.0
 40
3.999999809909511
100
AcDbArc
 50
0.0
 51
90.0
  0
ARC
  5
2F7
330
1F
100
AcDbEntity
  8
通り芯
  6
Continuous
 62
     3
370
     9
100
AcDbCircle
 10
-772.17217084552
 20
292.0717131116813
 30
0.0
 40
3.999999809909511
100
AcDbArc
 50
90.0
 51
180.0
  0
ARC
  5
2F8
330
1F
100
AcDbEntity
  8
通り芯
  6
Continuous
 62
     3
370
     9
100
AcDbCircle
 10
-772.17217084552
 20
312.0717790956339
 30
0.0
 40
3.999999809909511
100
AcDbArc
 50
180.0
 51
270.0
  0
ARC
  5
2F9
330
1F
100
AcDbEntity
  8
通り芯
  6
Continuous
 62
     3
370
     9
100
AcDbCircle
 10
-756.6721846609101
 20
312.0717790956339
 30
0.0
 40
3.999999809909511
100
AcDbArc
 50
270.0
 51
0.0
  0
ARC
  5
2FA
330
1F
100
AcDbEntity
  8
通り芯
  6
Continuous
 62
     3
370
     9
100
AcDbCircle
 10
-792.1721749695168
 20
312.0717790956339
 30
0.0
 40
3.999999809909511
100
AcDbArc
 50
270.0
 51
0.0
  0
ARC
  5
2FB
330
1F
100
AcDbEntity
  8
通り芯
  6
Continuous
 62
     3
370
     9
100
AcDbCircle
 10
-807.6721766191158
 20
312.0717790956339
 30
0.0
 40
3.999999809909511
100
AcDbArc
 50
180.0
 51
270.0
  0
ARC
  5
2FC
330
1F
100
AcDbEntity
  8
通り芯
  6
Continuous
 62
     3
370
     9
100
AcDbCircle
 10
-807.6721766191158
 20
292.0717131116813
 30
0.0
 40
3.999999809909511
100
AcDbArc
 50
90.0
 51
180.0
  0
ARC
  5
2FD
330
1F
100
AcDbEntity
  8
通り芯
  6
Continuous
 62
     3
370
     9
100
AcDbCircle
 10
-792.1721749695168
 20
292.0717131116813
 30
0.0
 40
3.999999809909511
100
AcDbArc
 50
0.0
 51
90.0
  0
ARC
  5
2FE
330
1F
100
AcDbEntity
  8
通り芯
  6
Continuous
 62
     3
370
     9
100
AcDbCircle
 10
-827.6721730106183
 20
292.0717131116813
 30
0.0
 40
3.999999809909511
100
AcDbArc
 50
0.0
 51
90.0
  0
ARC
  5
2FF
330
1F
100
AcDbEntity
  8
通り芯
  6
Continuous
 62
     3
370
     9
100
AcDbCircle
 10
-843.1721669277226
 20
292.0717131116813
 30
0.0
 40
3.999999809909511
100
AcDbArc
 50
90.0
 51
180.0
  0
ARC
  5
300
330
1F
100
AcDbEntity
  8
通り芯
  6
Continuous
 62
     3
370
     9
100
AcDbCircle
 10
-843.1721669277226
 20
312.0717790956339
 30
0.0
 40
3.999999809909511
100
AcDbArc
 50
180.0
 51
270.0
  0
ARC
  5
301
330
1F
100
AcDbEntity
  8
通り芯
  6
Continuous
 62
     3
370
     9
100
AcDbCircle
 10
-827.6721730106183
 20
312.0717790956339
 30
0.0
 40
3.999999809909511
100
AcDbArc
 50
270.0
 51
0.0
  0
ARC
  5
302
330
1F
100
AcDbEntity
  8
通り芯
  6
Continuous
 62
     3
370
     9
100
AcDbCircle
 10
-807.6721766191158
 20
351.0716974404925
 30
0.0
 40
3.999999809909511
100
AcDbArc
 50
89.99998474121092
 51
180.0
  0
ARC
  5
303
330
1F
100
AcDbEntity
  8
通り芯
  6
Continuous
 62
     3
370
     9
100
AcDbCircle
 10
-792.1721749695168
 20
351.0716974404925
 30
0.0
 40
3.999999809909511
100
AcDbArc
 50
0.0
 51
90.0
  0
ARC
  5
304
330
1F
100
AcDbEntity
  8
通り芯
  6
Continuous
 62
     3
370
     9
100
AcDbCircle
 10
-772.17217084552
 20
351.0716974404925
 30
0.0
 40
3.999999809909511
100
AcDbArc
 50
90.0
 51
180.0
  0
ARC
  5
305
330
1F
100
AcDbEntity
  8
通り芯
  6
Continuous
 62
     3
370
     9
100
AcDbCircle
 10
-756.6721846609101
 20
351.0716974404925
 30
0.0
 40
3.999999809909511
100
AcDbArc
 50
0.0
 51
90.0
  0
ARC
  5
306
330
1F
100
AcDbEntity
  8
通り芯
  6
Continuous
 62
     3
370
     9
100
AcDbCircle
 10
3.827831422678472
 20
351.0716974404925
 30
0.0
 40
3.999999809909511
100
AcDbArc
 50
90.0
 51
180.0
  0
ARC
  5
307
330
1F
100
AcDbEntity
  8
通り芯
  6
Continuous
 62
     3
370
     9
100
AcDbCircle
 10
19.3278330722773
 20
351.0716974404925
 30
0.0
 40
3.999999809909511
100
AcDbArc
 50
7.016464233398438
 51
90.0
  0
ARC
  5
308
330
1F
100
AcDbEntity
  8
通り芯
  6
Continuous
 62
     3
370
     9
100
AcDbCircle
 10
39.32777533631871
 20
351.0716974404925
 30
0.0
 40
3.999999809909511
100
AcDbArc
 50
90.0
 51
180.0
  0
ARC
  5
309
330
1F
100
AcDbEntity
  8
通り芯
  6
Continuous
 62
     3
370
     9
100
AcDbCircle
 10
54.82777698591754
 20
351.0716974404925
 30
0.0
 40
3.999999809909511
100
AcDbArc
 50
7.016464233398438
 51
90.0
  0
ARC
  5
30A
330
1F
100
AcDbEntity
  8
通り芯
  6
Continuous
 62
     3
370
     9
100
AcDbCircle
 10
74.82778110991454
 20
312.0717790956339
 30
0.0
 40
3.999999809909511
100
AcDbArc
 50
180.0
 51
270.0
  0
ARC
  5
30B
330
1F
100
AcDbEntity
  8
通り芯
  6
Continuous
 62
     3
370
     9
100
AcDbCircle
 10
90.32778275951337
 20
312.0717790956339
 30
0.0
 40
3.999999809909511
100
AcDbArc
 50
270.0
 51
0.0
  0
ARC
  5
30C
330
1F
100
AcDbEntity
  8
通り芯
  6
Continuous
 62
     3
370
     9
100
AcDbCircle
 10
90.32778275951337
 20
292.0717131116813
 30
0.0
 40
3.999999809909511
100
AcDbArc
 50
7.016464233398438
 51
90.0
  0
ARC
  5
30D
330
1F
100
AcDbEntity
  8
通り芯
  6
Continuous
 62
     3
370
     9
100
AcDbCircle
 10
74.82778110991454
 20
292.0717131116813
 30
0.0
 40
3.999999809909511
100
AcDbArc
 50
90.0
 51
180.0
  0
ARC
  5
30E
330
1F
100
AcDbEntity
  8
通り芯
  6
Continuous
 62
     3
370
     9
100
AcDbCircle
 10
39.32777533631871
 20
292.0717131116813
 30
0.0
 40
3.999999809909511
100
AcDbArc
 50
90.0
 51
180.0
  0
ARC
  5
30F
330
1F
100
AcDbEntity
  8
通り芯
  6
Continuous
 62
     3
370
     9
100
AcDbCircle
 10
54.82777698591754
 20
292.0717131116813
 30
0.0
 40
3.999999809909511
100
AcDbArc
 50
7.016464233398438
 51
90.0
  0
ARC
  5
310
330
1F
100
AcDbEntity
  8
通り芯
  6
Continuous
 62
     3
370
     9
100
AcDbCircle
 10
54.82777698591754
 20
312.0717790956339
 30
0.0
 40
3.999999809909511
100
AcDbArc
 50
270.0
 51
0.0
  0
ARC
  5
311
330
1F
100
AcDbEntity
  8
通り芯
  6
Continuous
 62
     3
370
     9
100
AcDbCircle
 10
39.32777533631871
 20
312.0717790956339
 30
0.0
 40
3.999999809909511
100
AcDbArc
 50
180.0
 51
270.0
  0
ARC
  5
312
330
1F
100
AcDbEntity
  8
通り芯
  6
Continuous
 62
     3
370
     9
100
AcDbCircle
 10
3.827831422678472
 20
312.0717790956339
 30
0.0
 40
3.999999809909511
100
AcDbArc
 50
180.0
 51
270.0
  0
ARC
  5
313
330
1F
100
AcDbEntity
  8
通り芯
  6
Continuous
 62
     3
370
     9
100
AcDbCircle
 10
19.3278330722773
 20
312.0717790956339
 30
0.0
 40
3.999999809909511
100
AcDbArc
 50
270.0
 51
0.0
  0
ARC
  5
314
330
1F
100
AcDbEntity
  8
通り芯
  6
Continuous
 62
     3
370
     9
100
AcDbCircle
 10
19.3278330722773
 20
292.0717131116813
 30
0.0
 40
3.999999809909511
100
AcDbArc
 50
7.016464233398438
 51
90.0
  0
ARC
  5
315
330
1F
100
AcDbEntity
  8
通り芯
  6
Continuous
 62
     3
370
     9
100
AcDbCircle
 10
3.827831422678472
 20
292.0717131116813
 30
0.0
 40
3.999999809909511
100
AcDbArc
 50
90.0
 51
180.0
  0
ARC
  5
316
330
1F
100
AcDbEntity
  8
通り芯
  6
Continuous
 62
     3
370
     9
100
AcDbCircle
 10
-46.17214795733638
 20
292.0717131116813
 30
0.0
 40
3.999999809909511
100
AcDbArc
 50
90.0
 51
180.0
  0
ARC
  5
317
330
1F
100
AcDbEntity
  8
通り芯
  6
Continuous
 62
     3
370
     9
100
AcDbCircle
 10
-30.67214630773755
 20
292.0717131116813
 30
0.0
 40
3.999999809909511
100
AcDbArc
 50
7.016464233398438
 51
90.0
  0
ARC
  5
318
330
1F
100
AcDbEntity
  8
通り芯
  6
Continuous
 62
     3
370
     9
100
AcDbCircle
 10
-30.67214630773755
 20
312.0717790956339
 30
0.0
 40
3.999999809909511
100
AcDbArc
 50
270.0
 51
0.0
  0
ARC
  5
319
330
1F
100
AcDbEntity
  8
通り芯
  6
Continuous
 62
     3
370
     9
100
AcDbCircle
 10
-46.17214795733638
 20
312.0717790956339
 30
0.0
 40
3.999999809909511
100
AcDbArc
 50
180.0
 51
270.0
  0
ARC
  5
31A
330
1F
100
AcDbEntity
  8
通り芯
  6
Continuous
 62
     3
370
     9
100
AcDbCircle
 10
-81.6722155908878
 20
312.0717790956339
 30
0.0
 40
3.999999809909511
100
AcDbArc
 50
180.0
 51
270.0
  0
ARC
  5
31B
330
1F
100
AcDbEntity
  8
通り芯
  6
Continuous
 62
     3
370
     9
100
AcDbCircle
 10
-66.17221394128897
 20
312.0717790956339
 30
0.0
 40
3.999999809909511
100
AcDbArc
 50
270.0
 51
0.0
  0
ARC
  5
31C
330
1F
100
AcDbEntity
  8
通り芯
  6
Continuous
 62
     3
370
     9
100
AcDbCircle
 10
-66.17221394128897
 20
292.0717131116813
 30
0.0
 40
3.999999809909511
100
AcDbArc
 50
7.016464233398438
 51
90.0
  0
ARC
  5
31D
330
1F
100
AcDbEntity
  8
通り芯
  6
Continuous
 62
     3
370
     9
100
AcDbCircle
 10
-81.6722155908878
 20
292.0717131116813
 30
0.0
 40
3.999999809909511
100
AcDbArc
 50
90.0
 51
180.0
  0
ARC
  5
31E
330
1F
100
AcDbEntity
  8
通り芯
  6
Continuous
 62
     3
370
     9
100
AcDbCircle
 10
-117.172159504528
 20
292.0717131116813
 30
0.0
 40
3.999999809909511
100
AcDbArc
 50
90.0
 51
180.0
  0
ARC
  5
31F
330
1F
100
AcDbEntity
  8
通り芯
  6
Continuous
 62
     3
370
     9
100
AcDbCircle
 10
-101.6721578549292
 20
292.0717131116813
 30
0.0
 40
3.999999809909511
100
AcDbArc
 50
7.016464233398438
 51
90.0
  0
ARC
  5
320
330
1F
100
AcDbEntity
  8
通り芯
  6
Continuous
 62
     3
370
     9
100
AcDbCircle
 10
-101.6721578549292
 20
312.0717790956339
 30
0.0
 40
3.999999809909511
100
AcDbArc
 50
270.0
 51
0.0
  0
ARC
  5
321
330
1F
100
AcDbEntity
  8
通り芯
  6
Continuous
 62
     3
370
     9
100
AcDbCircle
 10
-117.172159504528
 20
312.0717790956339
 30
0.0
 40
3.999999809909511
100
AcDbArc
 50
180.0
 51
270.0
  0
ARC
  5
322
330
1F
100
AcDbEntity
  8
通り芯
  6
Continuous
 62
     3
370
     9
100
AcDbCircle
 10
-167.1722007444985
 20
312.0717790956339
 30
0.0
 40
3.999999809909511
100
AcDbArc
 50
180.0
 51
270.0
  0
ARC
  5
323
330
1F
100
AcDbEntity
  8
通り芯
  6
Continuous
 62
     3
370
     9
100
AcDbCircle
 10
-151.6721990948997
 20
312.0717790956339
 30
0.0
 40
3.999999809909511
100
AcDbArc
 50
270.0
 51
0.0
  0
ARC
  5
324
330
1F
100
AcDbEntity
  8
通り芯
  6
Continuous
 62
     3
370
     9
100
AcDbCircle
 10
-151.6721990948997
 20
292.0717131116813
 30
0.0
 40
3.999999809909511
100
AcDbArc
 50
7.016464233398438
 51
90.0
  0
ARC
  5
325
330
1F
100
AcDbEntity
  8
通り芯
  6
Continuous
 62
     3
370
     9
100
AcDbCircle
 10
-167.1722007444985
 20
292.0717131116813
 30
0.0
 40
3.999999809909511
100
AcDbArc
 50
90.0
 51
180.0
  0
ARC
  5
326
330
1F
100
AcDbEntity
  8
通り芯
  6
Continuous
 62
     3
370
     9
100
AcDbCircle
 10
-202.6721446581387
 20
292.0717131116813
 30
0.0
 40
3.999999809909511
100
AcDbArc
 50
90.0
 51
180.0
  0
ARC
  5
327
330
1F
100
AcDbEntity
  8
通り芯
  6
Continuous
 62
     3
370
     9
100
AcDbCircle
 10
-187.1722048684955
 20
292.0717131116813
 30
0.0
 40
3.999999809909511
100
AcDbArc
 50
7.016464233398438
 51
90.0
  0
ARC
  5
328
330
1F
100
AcDbEntity
  8
通り芯
  6
Continuous
 62
     3
370
     9
100
AcDbCircle
 10
-187.1722048684955
 20
312.0717790956339
 30
0.0
 40
3.999999809909511
100
AcDbArc
 50
270.0
 51
0.0
  0
ARC
  5
329
330
1F
100
AcDbEntity
  8
通り芯
  6
Continuous
 62
     3
370
     9
100
AcDbCircle
 10
-202.6721446581387
 20
312.0717790956339
 30
0.0
 40
3.999999809909511
100
AcDbArc
 50
180.0
 51
270.0
  0
ARC
  5
32A
330
1F
100
AcDbEntity
  8
通り芯
  6
Continuous
 62
     3
370
     9
100
AcDbCircle
 10
-238.1722122916901
 20
312.0717790956339
 30
0.0
 40
3.999999809909511
100
AcDbArc
 50
180.0
 51
270.0
  0
ARC
  5
32B
330
1F
100
AcDbEntity
  8
通り芯
  6
Continuous
 62
     3
370
     9
100
AcDbCircle
 10
-222.6722106420914
 20
312.0717790956339
 30
0.0
 40
3.999999809909511
100
AcDbArc
 50
270.0
 51
0.0
  0
ARC
  5
32C
330
1F
100
AcDbEntity
  8
通り芯
  6
Continuous
 62
     3
370
     9
100
AcDbCircle
 10
-222.6722106420914
 20
292.0717131116813
 30
0.0
 40
3.999999809909511
100
AcDbArc
 50
7.016464233398438
 51
90.0
  0
ARC
  5
32D
330
1F
100
AcDbEntity
  8
通り芯
  6
Continuous
 62
     3
370
     9
100
AcDbCircle
 10
-238.1722122916901
 20
292.0717131116813
 30
0.0
 40
3.999999809909511
100
AcDbArc
 50
90.0
 51
180.0
  0
ARC
  5
32E
330
1F
100
AcDbEntity
  8
通り芯
  6
Continuous
 62
     3
370
     9
100
AcDbCircle
 10
-288.172191671705
 20
292.0717131116813
 30
0.0
 40
3.999999809909511
100
AcDbArc
 50
90.0
 51
180.0
  0
ARC
  5
32F
330
1F
100
AcDbEntity
  8
通り芯
  6
Continuous
 62
     3
370
     9
100
AcDbCircle
 10
-272.6721900221062
 20
292.0717131116813
 30
0.0
 40
3.999999809909511
100
AcDbArc
 50
7.016464233398438
 51
90.0
  0
ARC
  5
330
330
1F
100
AcDbEntity
  8
通り芯
  6
Continuous
 62
     3
370
     9
100
AcDbCircle
 10
-272.6721900221062
 20
312.0717790956339
 30
0.0
 40
3.999999809909511
100
AcDbArc
 50
270.0
 51
0.0
  0
ARC
  5
331
330
1F
100
AcDbEntity
  8
通り芯
  6
Continuous
 62
     3
370
     9
100
AcDbCircle
 10
-288.172191671705
 20
312.0717790956339
 30
0.0
 40
3.999999809909511
100
AcDbArc
 50
180.0
 51
270.0
  0
ARC
  5
332
330
1F
100
AcDbEntity
  8
通り芯
  6
Continuous
 62
     3
370
     9
100
AcDbCircle
 10
-323.6721974453008
 20
312.0717790956339
 30
0.0
 40
3.999999809909511
100
AcDbArc
 50
180.0
 51
270.0
  0
ARC
  5
333
330
1F
100
AcDbEntity
  8
通り芯
  6
Continuous
 62
     3
370
     9
100
AcDbCircle
 10
-308.172195795702
 20
312.0717790956339
 30
0.0
 40
3.999999809909511
100
AcDbArc
 50
270.0
 51
0.0
  0
ARC
  5
334
330
1F
100
AcDbEntity
  8
通り芯
  6
Continuous
 62
     3
370
     9
100
AcDbCircle
 10
-308.172195795702
 20
292.0717131116813
 30
0.0
 40
3.999999809909511
100
AcDbArc
 50
7.016464233398438
 51
90.0
  0
ARC
  5
335
330
1F
100
AcDbEntity
  8
通り芯
  6
Continuous
 62
     3
370
     9
100
AcDbCircle
 10
-323.6721974453008
 20
292.0717131116813
 30
0.0
 40
3.999999809909511
100
AcDbArc
 50
90.0
 51
180.0
  0
ARC
  5
336
330
1F
100
AcDbEntity
  8
通り芯
  6
Continuous
 62
     3
370
     9
100
AcDbCircle
 10
-359.1722032188967
 20
292.0717131116813
 30
0.0
 40
3.999999809909511
100
AcDbArc
 50
90.0
 51
180.0
  0
ARC
  5
337
330
1F
100
AcDbEntity
  8
通り芯
  6
Continuous
 62
     3
370
     9
100
AcDbCircle
 10
-343.6722015692979
 20
292.0717131116813
 30
0.0
 40
3.999999809909511
100
AcDbArc
 50
7.016464233398438
 51
90.0
  0
ARC
  5
338
330
1F
100
AcDbEntity
  8
通り芯
  6
Continuous
 62
     3
370
     9
100
AcDbCircle
 10
-343.6722015692979
 20
312.0717790956339
 30
0.0
 40
3.999999809909511
100
AcDbArc
 50
270.0
 51
0.0
  0
ARC
  5
339
330
1F
100
AcDbEntity
  8
通り芯
  6
Continuous
 62
     3
370
     9
100
AcDbCircle
 10
-359.1722032188967
 20
312.0717790956339
 30
0.0
 40
3.999999809909511
100
AcDbArc
 50
180.0
 51
270.0
  0
ARC
  5
33A
330
1F
100
AcDbEntity
  8
通り芯
  6
Continuous
 62
     3
370
     9
100
AcDbCircle
 10
-756.6721846609101
 20
148.0716957908937
 30
0.0
 40
3.999999809909511
100
AcDbArc
 50
270.0
 51
0.0
  0
ARC
  5
33B
330
1F
100
AcDbEntity
  8
通り芯
  6
Continuous
 62
     3
370
     9
100
AcDbCircle
 10
-772.17217084552
 20
148.0716957908937
 30
0.0
 40
3.999999809909511
100
AcDbArc
 50
180.0
 51
270.0
  0
ARC
  5
33C
330
1F
100
AcDbEntity
  8
通り芯
  6
Continuous
 62
     3
370
     9
100
AcDbCircle
 10
-792.1721749695168
 20
148.0716957908937
 30
0.0
 40
3.999999809909511
100
AcDbArc
 50
270.0
 51
0.0
  0
ARC
  5
33D
330
1F
100
AcDbEntity
  8
通り芯
  6
Continuous
 62
     3
370
     9
100
AcDbCircle
 10
-807.6721766191158
 20
148.0716957908937
 30
0.0
 40
3.999999809909511
100
AcDbArc
 50
180.0
 51
270.0
  0
ARC
  5
33E
330
1F
100
AcDbEntity
  8
通り芯
  6
Continuous
 62
     3
370
     9
100
AcDbCircle
 10
-827.6721730106183
 20
187.0717378556634
 30
0.0
 40
3.999999809909511
100
AcDbArc
 50
1.403289794921875
 51
90.0
  0
ARC
  5
33F
330
1F
100
AcDbEntity
  8
通り芯
  6
Continuous
 62
     3
370
     9
100
AcDbCircle
 10
-843.1721669277226
 20
187.0717378556634
 30
0.0
 40
3.999999809909511
100
AcDbArc
 50
90.0
 51
180.0
  0
ARC
  5
340
330
1F
100
AcDbEntity
  8
通り芯
  6
Continuous
 62
     3
370
     9
100
AcDbCircle
 10
-843.1721669277226
 20
207.0716801197049
 30
0.0
 40
3.999999809909511
100
AcDbArc
 50
180.0
 51
270.0
  0
ARC
  5
341
330
1F
100
AcDbEntity
  8
通り芯
  6
Continuous
 62
     3
370
     9
100
AcDbCircle
 10
-827.6721730106183
 20
207.0716801197049
 30
0.0
 40
3.999999809909511
100
AcDbArc
 50
270.0
 51
0.0
  0
ARC
  5
342
330
1F
100
AcDbEntity
  8
通り芯
  6
Continuous
 62
     3
370
     9
100
AcDbCircle
 10
-792.1721749695168
 20
207.0716801197049
 30
0.0
 40
3.999999809909511
100
AcDbArc
 50
270.0
 51
0.0
  0
ARC
  5
343
330
1F
100
AcDbEntity
  8
通り芯
  6
Continuous
 62
     3
370
     9
100
AcDbCircle
 10
-807.6721766191158
 20
207.0716801197049
 30
0.0
 40
3.999999809909511
100
AcDbArc
 50
180.0
 51
270.0
  0
ARC
  5
344
330
1F
100
AcDbEntity
  8
通り芯
  6
Continuous
 62
     3
370
     9
100
AcDbCircle
 10
-807.6721766191158
 20
187.0717378556634
 30
0.0
 40
3.999999809909511
100
AcDbArc
 50
90.0
 51
180.0
  0
ARC
  5
345
330
1F
100
AcDbEntity
  8
通り芯
  6
Continuous
 62
     3
370
     9
100
AcDbCircle
 10
-792.1721749695168
 20
187.0717378556634
 30
0.0
 40
3.999999809909511
100
AcDbArc
 50
1.403289794921875
 51
90.0
  0
ARC
  5
346
330
1F
100
AcDbEntity
  8
通り芯
  6
Continuous
 62
     3
370
     9
100
AcDbCircle
 10
-756.6721846609101
 20
187.0717378556634
 30
0.0
 40
3.999999809909511
100
AcDbArc
 50
1.403289794921875
 51
90.0
  0
ARC
  5
347
330
1F
100
AcDbEntity
  8
通り芯
  6
Continuous
 62
     3
370
     9
100
AcDbCircle
 10
-772.17217084552
 20
187.0717378556634
 30
0.0
 40
3.999999809909511
100
AcDbArc
 50
90.0
 51
180.0
  0
ARC
  5
348
330
1F
100
AcDbEntity
  8
通り芯
  6
Continuous
 62
     3
370
     9
100
AcDbCircle
 10
-772.17217084552
 20
207.0716801197049
 30
0.0
 40
3.999999809909511
100
AcDbArc
 50
180.0
 51
270.0
  0
ARC
  5
349
330
1F
100
AcDbEntity
  8
通り芯
  6
Continuous
 62
     3
370
     9
100
AcDbCircle
 10
-756.6721846609101
 20
207.0716801197049
 30
0.0
 40
3.999999809909511
100
AcDbArc
 50
270.0
 51
0.0
  0
ARC
  5
34A
330
1F
100
AcDbEntity
  8
通り芯
  6
Continuous
 62
     3
370
     9
100
AcDbCircle
 10
-706.6721743509174
 20
207.0716801197049
 30
0.0
 40
3.999999809909511
100
AcDbArc
 50
270.0
 51
0.0
  0
ARC
  5
34B
330
1F
100
AcDbEntity
  8
通り芯
  6
Continuous
 62
     3
370
     9
100
AcDbCircle
 10
-722.1721760005162
 20
207.0716801197049
 30
0.0
 40
3.999999809909511
100
AcDbArc
 50
180.0
 51
270.0
  0
ARC
  5
34C
330
1F
100
AcDbEntity
  8
通り芯
  6
Continuous
 62
     3
370
     9
100
AcDbCircle
 10
-722.1721760005162
 20
187.0717378556634
 30
0.0
 40
3.999999809909511
100
AcDbArc
 50
90.0
 51
180.0
  0
ARC
  5
34D
330
1F
100
AcDbEntity
  8
通り芯
  6
Continuous
 62
     3
370
     9
100
AcDbCircle
 10
-706.6721743509174
 20
187.0717378556634
 30
0.0
 40
3.999999809909511
100
AcDbArc
 50
1.403289794921875
 51
90.0
  0
ARC
  5
34E
330
1F
100
AcDbEntity
  8
通り芯
  6
Continuous
 62
     3
370
     9
100
AcDbCircle
 10
-671.1721995072994
 20
187.0717378556634
 30
0.0
 40
3.999999809909511
100
AcDbArc
 50
1.403289794921875
 51
90.0
  0
ARC
  5
34F
330
1F
100
AcDbEntity
  8
通り芯
  6
Continuous
 62
     3
370
     9
100
AcDbCircle
 10
-686.6722011568982
 20
187.0717378556634
 30
0.0
 40
3.999999809909511
100
AcDbArc
 50
90.0
 51
180.0
  0
ARC
  5
350
330
1F
100
AcDbEntity
  8
通り芯
  6
Continuous
 62
     3
370
     9
100
AcDbCircle
 10
-686.6722011568982
 20
207.0716801197049
 30
0.0
 40
3.999999809909511
100
AcDbArc
 50
180.0
 51
270.0
  0
ARC
  5
351
330
1F
100
AcDbEntity
  8
通り芯
  6
Continuous
 62
     3
370
     9
100
AcDbCircle
 10
-671.1721995072994
 20
207.0716801197049
 30
0.0
 40
3.999999809909511
100
AcDbArc
 50
270.0
 51
0.0
  0
ARC
  5
352
330
1F
100
AcDbEntity
  8
通り芯
  6
Continuous
 62
     3
370
     9
100
AcDbCircle
 10
-635.6721937337036
 20
207.0716801197049
 30
0.0
 40
3.999999809909511
100
AcDbArc
 50
270.0
 51
0.0
  0
ARC
  5
353
330
1F
100
AcDbEntity
  8
通り芯
  6
Continuous
 62
     3
370
     9
100
AcDbCircle
 10
-651.1721953833023
 20
207.0716801197049
 30
0.0
 40
3.999999809909511
100
AcDbArc
 50
180.0
 51
270.0
  0
ARC
  5
354
330
1F
100
AcDbEntity
  8
通り芯
  6
Continuous
 62
     3
370
     9
100
AcDbCircle
 10
-651.1721953833023
 20
187.0717378556634
 30
0.0
 40
3.999999809909511
100
AcDbArc
 50
90.0
 51
180.0
  0
ARC
  5
355
330
1F
100
AcDbEntity
  8
通り芯
  6
Continuous
 62
     3
370
     9
100
AcDbCircle
 10
-635.6721937337036
 20
187.0717378556634
 30
0.0
 40
3.999999809909511
100
AcDbArc
 50
1.403289794921875
 51
90.0
  0
ARC
  5
356
330
1F
100
AcDbEntity
  8
通り芯
  6
Continuous
 62
     3
370
     9
100
AcDbCircle
 10
-585.672183423711
 20
187.0717378556634
 30
0.0
 40
3.999999809909511
100
AcDbArc
 50
1.403289794921875
 51
90.0
  0
ARC
  5
357
330
1F
100
AcDbEntity
  8
通り芯
  6
Continuous
 62
     3
370
     9
100
AcDbCircle
 10
-601.1721850733097
 20
187.0717378556634
 30
0.0
 40
3.999999809909511
100
AcDbArc
 50
90.0
 51
180.0
  0
ARC
  5
358
330
1F
100
AcDbEntity
  8
通り芯
  6
Continuous
 62
     3
370
     9
100
AcDbCircle
 10
-601.1721850733097
 20
207.0716801197049
 30
0.0
 40
3.999999809909511
100
AcDbArc
 50
180.0
 51
270.0
  0
ARC
  5
359
330
1F
100
AcDbEntity
  8
通り芯
  6
Continuous
 62
     3
370
     9
100
AcDbCircle
 10
-585.672183423711
 20
207.0716801197049
 30
0.0
 40
3.999999809909511
100
AcDbArc
 50
270.0
 51
0.0
  0
ARC
  5
35A
330
1F
100
AcDbEntity
  8
通り芯
  6
Continuous
 62
     3
370
     9
100
AcDbCircle
 10
-550.1722085800928
 20
207.0716801197049
 30
0.0
 40
3.999999809909511
100
AcDbArc
 50
270.0
 51
0.0
  0
ARC
  5
35B
330
1F
100
AcDbEntity
  8
通り芯
  6
Continuous
 62
     3
370
     9
100
AcDbCircle
 10
-565.6721792997139
 20
207.0716801197049
 30
0.0
 40
3.999999809909511
100
AcDbArc
 50
180.0
 51
270.0
  0
ARC
  5
35C
330
1F
100
AcDbEntity
  8
通り芯
  6
Continuous
 62
     3
370
     9
100
AcDbCircle
 10
-565.6721792997139
 20
187.0717378556634
 30
0.0
 40
3.999999809909511
100
AcDbArc
 50
90.0
 51
180.0
  0
ARC
  5
35D
330
1F
100
AcDbEntity
  8
通り芯
  6
Continuous
 62
     3
370
     9
100
AcDbCircle
 10
-550.1722085800928
 20
187.0717378556634
 30
0.0
 40
3.999999809909511
100
AcDbArc
 50
1.403289794921875
 51
90.0
  0
ARC
  5
35E
330
1F
100
AcDbEntity
  8
通り芯
  6
Continuous
 62
     3
370
     9
100
AcDbCircle
 10
-514.672202806497
 20
187.0717378556634
 30
0.0
 40
3.999999809909511
100
AcDbArc
 50
1.403289794921875
 51
90.0
  0
ARC
  5
35F
330
1F
100
AcDbEntity
  8
通り芯
  6
Continuous
 62
     3
370
     9
100
AcDbCircle
 10
-530.1722044560959
 20
187.0717378556634
 30
0.0
 40
3.999999809909511
100
AcDbArc
 50
90.0
 51
180.0
  0
ARC
  5
360
330
1F
100
AcDbEntity
  8
通り芯
  6
Continuous
 62
     3
370
     9
100
AcDbCircle
 10
-530.1722044560959
 20
207.0716801197049
 30
0.0
 40
3.999999809909511
100
AcDbArc
 50
180.0
 51
270.0
  0
ARC
  5
361
330
1F
100
AcDbEntity
  8
通り芯
  6
Continuous
 62
     3
370
     9
100
AcDbCircle
 10
-514.672202806497
 20
207.0716801197049
 30
0.0
 40
3.999999809909511
100
AcDbArc
 50
270.0
 51
0.0
  0
ARC
  5
362
330
1F
100
AcDbEntity
  8
通り芯
  6
Continuous
 62
     3
370
     9
100
AcDbCircle
 10
-464.6722234264823
 20
207.0716801197049
 30
0.0
 40
3.999999809909511
100
AcDbArc
 50
270.0
 51
0.0
  0
ARC
  5
363
330
1F
100
AcDbEntity
  8
通り芯
  6
Continuous
 62
     3
370
     9
100
AcDbCircle
 10
-480.172225076081
 20
207.0716801197049
 30
0.0
 40
3.999999809909511
100
AcDbArc
 50
180.0
 51
270.0
  0
ARC
  5
364
330
1F
100
AcDbEntity
  8
通り芯
  6
Continuous
 62
     3
370
     9
100
AcDbCircle
 10
-480.172225076081
 20
187.0717378556634
 30
0.0
 40
3.999999809909511
100
AcDbArc
 50
90.0
 51
180.0
  0
ARC
  5
365
330
1F
100
AcDbEntity
  8
通り芯
  6
Continuous
 62
     3
370
     9
100
AcDbCircle
 10
-464.6722234264823
 20
187.0717378556634
 30
0.0
 40
3.999999809909511
100
AcDbArc
 50
1.403289794921875
 51
90.0
  0
ARC
  5
366
330
1F
100
AcDbEntity
  8
通り芯
  6
Continuous
 62
     3
370
     9
100
AcDbCircle
 10
-429.1721867229086
 20
187.0717378556634
 30
0.0
 40
3.999999809909511
100
AcDbArc
 50
1.403289794921875
 51
90.0
  0
ARC
  5
367
330
1F
100
AcDbEntity
  8
通り芯
  6
Continuous
 62
     3
370
     9
100
AcDbCircle
 10
-444.6722193024852
 20
187.0717378556634
 30
0.0
 40
3.999999809909511
100
AcDbArc
 50
90.0
 51
180.0
  0
ARC
  5
368
330
1F
100
AcDbEntity
  8
通り芯
  6
Continuous
 62
     3
370
     9
100
AcDbCircle
 10
-444.6722193024852
 20
207.0716801197049
 30
0.0
 40
3.999999809909511
100
AcDbArc
 50
180.0
 51
270.0
  0
ARC
  5
369
330
1F
100
AcDbEntity
  8
通り芯
  6
Continuous
 62
     3
370
     9
100
AcDbCircle
 10
-429.1721867229086
 20
207.0716801197049
 30
0.0
 40
3.999999809909511
100
AcDbArc
 50
270.0
 51
0.0
  0
ARC
  5
36A
330
1F
100
AcDbEntity
  8
通り芯
  6
Continuous
 62
     3
370
     9
100
AcDbCircle
 10
-393.6721809493127
 20
207.0716801197049
 30
0.0
 40
3.999999809909511
100
AcDbArc
 50
270.0
 51
0.0
  0
ARC
  5
36B
330
1F
100
AcDbEntity
  8
通り芯
  6
Continuous
 62
     3
370
     9
100
AcDbCircle
 10
-409.1721825989115
 20
207.0716801197049
 30
0.0
 40
3.999999809909511
100
AcDbArc
 50
180.0
 51
270.0
  0
ARC
  5
36C
330
1F
100
AcDbEntity
  8
通り芯
  6
Continuous
 62
     3
370
     9
100
AcDbCircle
 10
-409.1721825989115
 20
187.0717378556634
 30
0.0
 40
3.999999809909511
100
AcDbArc
 50
90.0
 51
180.0
  0
ARC
  5
36D
330
1F
100
AcDbEntity
  8
通り芯
  6
Continuous
 62
     3
370
     9
100
AcDbCircle
 10
-393.6721809493127
 20
187.0717378556634
 30
0.0
 40
3.999999809909511
100
AcDbArc
 50
1.403289794921875
 51
90.0
  0
ARC
  5
36E
330
1F
100
AcDbEntity
  8
通り芯
  6
Continuous
 62
     3
370
     9
100
AcDbCircle
 10
-359.1722032188967
 20
187.0717378556634
 30
0.0
 40
3.999999809909511
100
AcDbArc
 50
90.0
 51
180.0
  0
ARC
  5
36F
330
1F
100
AcDbEntity
  8
通り芯
  6
Continuous
 62
     3
370
     9
100
AcDbCircle
 10
-343.6722015692979
 20
187.0717378556634
 30
0.0
 40
3.999999809909511
100
AcDbArc
 50
7.016464233398438
 51
90.0
  0
ARC
  5
370
330
1F
100
AcDbEntity
  8
通り芯
  6
Continuous
 62
     3
370
     9
100
AcDbCircle
 10
-343.6722015692979
 20
207.0716801197049
 30
0.0
 40
3.999999809909511
100
AcDbArc
 50
270.0
 51
0.0
  0
ARC
  5
371
330
1F
100
AcDbEntity
  8
通り芯
  6
Continuous
 62
     3
370
     9
100
AcDbCircle
 10
-359.1722032188967
 20
207.0716801197049
 30
0.0
 40
3.999999809909511
100
AcDbArc
 50
180.0
 51
270.0
  0
ARC
  5
372
330
1F
100
AcDbEntity
  8
通り芯
  6
Continuous
 62
     3
370
     9
100
AcDbCircle
 10
-323.6721974453008
 20
207.0716801197049
 30
0.0
 40
3.999999809909511
100
AcDbArc
 50
180.0
 51
270.0
  0
ARC
  5
373
330
1F
100
AcDbEntity
  8
通り芯
  6
Continuous
 62
     3
370
     9
100
AcDbCircle
 10
-308.172195795702
 20
207.0716801197049
 30
0.0
 40
3.999999809909511
100
AcDbArc
 50
270.0
 51
0.0
  0
ARC
  5
374
330
1F
100
AcDbEntity
  8
通り芯
  6
Continuous
 62
     3
370
     9
100
AcDbCircle
 10
-308.172195795702
 20
187.0717378556634
 30
0.0
 40
3.999999809909511
100
AcDbArc
 50
7.016464233398438
 51
90.0
  0
ARC
  5
375
330
1F
100
AcDbEntity
  8
通り芯
  6
Continuous
 62
     3
370
     9
100
AcDbCircle
 10
-323.6721974453008
 20
187.0717378556634
 30
0.0
 40
3.999999809909511
100
AcDbArc
 50
90.0
 51
180.0
  0
ARC
  5
376
330
1F
100
AcDbEntity
  8
通り芯
  6
Continuous
 62
     3
370
     9
100
AcDbCircle
 10
-288.172191671705
 20
187.0717378556634
 30
0.0
 40
3.999999809909511
100
AcDbArc
 50
90.0
 51
180.0
  0
ARC
  5
377
330
1F
100
AcDbEntity
  8
通り芯
  6
Continuous
 62
     3
370
     9
100
AcDbCircle
 10
-272.6721900221062
 20
187.0717378556634
 30
0.0
 40
3.999999809909511
100
AcDbArc
 50
7.016464233398438
 51
90.0
  0
ARC
  5
378
330
1F
100
AcDbEntity
  8
通り芯
  6
Continuous
 62
     3
370
     9
100
AcDbCircle
 10
-272.6721900221062
 20
207.0716801197049
 30
0.0
 40
3.999999809909511
100
AcDbArc
 50
270.0
 51
0.0
  0
ARC
  5
379
330
1F
100
AcDbEntity
  8
通り芯
  6
Continuous
 62
     3
370
     9
100
AcDbCircle
 10
-288.172191671705
 20
207.0716801197049
 30
0.0
 40
3.999999809909511
100
AcDbArc
 50
180.0
 51
270.0
  0
ARC
  5
37A
330
1F
100
AcDbEntity
  8
通り芯
  6
Continuous
 62
     3
370
     9
100
AcDbCircle
 10
-238.1722122916901
 20
207.0716801197049
 30
0.0
 40
3.999999809909511
100
AcDbArc
 50
180.0
 51
270.0
  0
ARC
  5
37B
330
1F
100
AcDbEntity
  8
通り芯
  6
Continuous
 62
     3
370
     9
100
AcDbCircle
 10
-222.6722106420914
 20
207.0716801197049
 30
0.0
 40
3.999999809909511
100
AcDbArc
 50
270.0
 51
0.0
  0
ARC
  5
37C
330
1F
100
AcDbEntity
  8
通り芯
  6
Continuous
 62
     3
370
     9
100
AcDbCircle
 10
-222.6722106420914
 20
187.0717378556634
 30
0.0
 40
3.999999809909511
100
AcDbArc
 50
7.016464233398438
 51
90.0
  0
ARC
  5
37D
330
1F
100
AcDbEntity
  8
通り芯
  6
Continuous
 62
     3
370
     9
100
AcDbCircle
 10
-238.1722122916901
 20
187.0717378556634
 30
0.0
 40
3.999999809909511
100
AcDbArc
 50
90.0
 51
180.0
  0
ARC
  5
37E
330
1F
100
AcDbEntity
  8
通り芯
  6
Continuous
 62
     3
370
     9
100
AcDbCircle
 10
-202.6721446581387
 20
187.0717378556634
 30
0.0
 40
3.999999809909511
100
AcDbArc
 50
90.0
 51
180.0
  0
ARC
  5
37F
330
1F
100
AcDbEntity
  8
通り芯
  6
Continuous
 62
     3
370
     9
100
AcDbCircle
 10
-187.1722048684955
 20
187.0717378556634
 30
0.0
 40
3.999999809909511
100
AcDbArc
 50
7.016464233398438
 51
90.0
  0
ARC
  5
380
330
1F
100
AcDbEntity
  8
通り芯
  6
Continuous
 62
     3
370
     9
100
AcDbCircle
 10
-187.1722048684955
 20
207.0716801197049
 30
0.0
 40
3.999999809909511
100
AcDbArc
 50
270.0
 51
0.0
  0
ARC
  5
381
330
1F
100
AcDbEntity
  8
通り芯
  6
Continuous
 62
     3
370
     9
100
AcDbCircle
 10
-202.6721446581387
 20
207.0716801197049
 30
0.0
 40
3.999999809909511
100
AcDbArc
 50
180.0
 51
270.0
  0
ARC
  5
382
330
1F
100
AcDbEntity
  8
通り芯
  6
Continuous
 62
     3
370
     9
100
AcDbCircle
 10
-167.1722007444985
 20
207.0716801197049
 30
0.0
 40
3.999999809909511
100
AcDbArc
 50
180.0
 51
270.0
  0
ARC
  5
383
330
1F
100
AcDbEntity
  8
通り芯
  6
Continuous
 62
     3
370
     9
100
AcDbCircle
 10
-151.6721990948997
 20
207.0716801197049
 30
0.0
 40
3.999999809909511
100
AcDbArc
 50
270.0
 51
0.0
  0
ARC
  5
384
330
1F
100
AcDbEntity
  8
通り芯
  6
Continuous
 62
     3
370
     9
100
AcDbCircle
 10
-151.6721990948997
 20
187.0717378556634
 30
0.0
 40
3.999999809909511
100
AcDbArc
 50
7.016464233398438
 51
90.0
  0
ARC
  5
385
330
1F
100
AcDbEntity
  8
通り芯
  6
Continuous
 62
     3
370
     9
100
AcDbCircle
 10
-167.1722007444985
 20
187.0717378556634
 30
0.0
 40
3.999999809909511
100
AcDbArc
 50
90.0
 51
180.0
  0
ARC
  5
386
330
1F
100
AcDbEntity
  8
通り芯
  6
Continuous
 62
     3
370
     9
100
AcDbCircle
 10
-117.172159504528
 20
187.0717378556634
 30
0.0
 40
3.999999809909511
100
AcDbArc
 50
90.0
 51
180.0
  0
ARC
  5
387
330
1F
100
AcDbEntity
  8
通り芯
  6
Continuous
 62
     3
370
     9
100
AcDbCircle
 10
-101.6721578549292
 20
187.0717378556634
 30
0.0
 40
3.999999809909511
100
AcDbArc
 50
7.016464233398438
 51
90.0
  0
ARC
  5
388
330
1F
100
AcDbEntity
  8
通り芯
  6
Continuous
 62
     3
370
     9
100
AcDbCircle
 10
-101.6721578549292
 20
207.0716801197049
 30
0.0
 40
3.999999809909511
100
AcDbArc
 50
270.0
 51
0.0
  0
ARC
  5
389
330
1F
100
AcDbEntity
  8
通り芯
  6
Continuous
 62
     3
370
     9
100
AcDbCircle
 10
-117.172159504528
 20
207.0716801197049
 30
0.0
 40
3.999999809909511
100
AcDbArc
 50
180.0
 51
270.0
  0
ARC
  5
38A
330
1F
100
AcDbEntity
  8
通り芯
  6
Continuous
 62
     3
370
     9
100
AcDbCircle
 10
-81.6722155908878
 20
207.0716801197049
 30
0.0
 40
3.999999809909511
100
AcDbArc
 50
180.0
 51
270.0
  0
ARC
  5
38B
330
1F
100
AcDbEntity
  8
通り芯
  6
Continuous
 62
     3
370
     9
100
AcDbCircle
 10
-66.17221394128897
 20
207.0716801197049
 30
0.0
 40
3.999999809909511
100
AcDbArc
 50
270.0
 51
0.0
  0
ARC
  5
38C
330
1F
100
AcDbEntity
  8
通り芯
  6
Continuous
 62
     3
370
     9
100
AcDbCircle
 10
-66.17221394128897
 20
187.0717378556634
 30
0.0
 40
3.999999809909511
100
AcDbArc
 50
7.016464233398438
 51
90.0
  0
ARC
  5
38D
330
1F
100
AcDbEntity
  8
通り芯
  6
Continuous
 62
     3
370
     9
100
AcDbCircle
 10
-81.6722155908878
 20
187.0717378556634
 30
0.0
 40
3.999999809909511
100
AcDbArc
 50
90.0
 51
180.0
  0
ARC
  5
38E
330
1F
100
AcDbEntity
  8
通り芯
  6
Continuous
 62
     3
370
     9
100
AcDbCircle
 10
-46.17214795733638
 20
187.0717378556634
 30
0.0
 40
3.999999809909511
100
AcDbArc
 50
90.0
 51
180.0
  0
ARC
  5
38F
330
1F
100
AcDbEntity
  8
通り芯
  6
Continuous
 62
     3
370
     9
100
AcDbCircle
 10
-30.67214630773755
 20
187.0717378556634
 30
0.0
 40
3.999999809909511
100
AcDbArc
 50
7.016464233398438
 51
90.0
  0
ARC
  5
390
330
1F
100
AcDbEntity
  8
通り芯
  6
Continuous
 62
     3
370
     9
100
AcDbCircle
 10
-30.67214630773755
 20
207.0716801197049
 30
0.0
 40
3.999999809909511
100
AcDbArc
 50
270.0
 51
0.0
  0
ARC
  5
391
330
1F
100
AcDbEntity
  8
通り芯
  6
Continuous
 62
     3
370
     9
100
AcDbCircle
 10
-46.17214795733638
 20
207.0716801197049
 30
0.0
 40
3.999999809909511
100
AcDbArc
 50
180.0
 51
270.0
  0
ARC
  5
392
330
1F
100
AcDbEntity
  8
通り芯
  6
Continuous
 62
     3
370
     9
100
AcDbCircle
 10
3.827831422678472
 20
207.0716801197049
 30
0.0
 40
3.999999809909511
100
AcDbArc
 50
180.0
 51
270.0
  0
ARC
  5
393
330
1F
100
AcDbEntity
  8
通り芯
  6
Continuous
 62
     3
370
     9
100
AcDbCircle
 10
19.3278330722773
 20
207.0716801197049
 30
0.0
 40
3.999999809909511
100
AcDbArc
 50
270.0
 51
0.0
  0
ARC
  5
394
330
1F
100
AcDbEntity
  8
通り芯
  6
Continuous
 62
     3
370
     9
100
AcDbCircle
 10
19.3278330722773
 20
187.0717378556634
 30
0.0
 40
3.999999809909511
100
AcDbArc
 50
7.016464233398438
 51
90.0
  0
ARC
  5
395
330
1F
100
AcDbEntity
  8
通り芯
  6
Continuous
 62
     3
370
     9
100
AcDbCircle
 10
3.827831422678472
 20
187.0717378556634
 30
0.0
 40
3.999999809909511
100
AcDbArc
 50
90.0
 51
180.0
  0
ARC
  5
396
330
1F
100
AcDbEntity
  8
通り芯
  6
Continuous
 62
     3
370
     9
100
AcDbCircle
 10
39.32777533631871
 20
187.0717378556634
 30
0.0
 40
3.999999809909511
100
AcDbArc
 50
90.0
 51
180.0
  0
ARC
  5
397
330
1F
100
AcDbEntity
  8
通り芯
  6
Continuous
 62
     3
370
     9
100
AcDbCircle
 10
54.82777698591754
 20
187.0717378556634
 30
0.0
 40
3.999999809909511
100
AcDbArc
 50
7.016464233398438
 51
90.0
  0
ARC
  5
398
330
1F
100
AcDbEntity
  8
通り芯
  6
Continuous
 62
     3
370
     9
100
AcDbCircle
 10
54.82777698591754
 20
207.0716801197049
 30
0.0
 40
3.999999809909511
100
AcDbArc
 50
270.0
 51
0.0
  0
ARC
  5
399
330
1F
100
AcDbEntity
  8
通り芯
  6
Continuous
 62
     3
370
     9
100
AcDbCircle
 10
39.32777533631871
 20
207.0716801197049
 30
0.0
 40
3.999999809909511
100
AcDbArc
 50
180.0
 51
270.0
  0
ARC
  5
39A
330
1F
100
AcDbEntity
  8
通り芯
  6
Continuous
 62
     3
370
     9
100
AcDbCircle
 10
74.82778110991454
 20
207.0716801197049
 30
0.0
 40
3.999999809909511
100
AcDbArc
 50
180.0
 51
270.0
  0
ARC
  5
39B
330
1F
100
AcDbEntity
  8
通り芯
  6
Continuous
 62
     3
370
     9
100
AcDbCircle
 10
90.32778275951337
 20
207.0716801197049
 30
0.0
 40
3.999999809909511
100
AcDbArc
 50
270.0
 51
0.0
  0
ARC
  5
39C
330
1F
100
AcDbEntity
  8
通り芯
  6
Continuous
 62
     3
370
     9
100
AcDbCircle
 10
90.32778275951337
 20
187.0717378556634
 30
0.0
 40
3.999999809909511
100
AcDbArc
 50
7.016464233398438
 51
90.0
  0
ARC
  5
39D
330
1F
100
AcDbEntity
  8
通り芯
  6
Continuous
 62
     3
370
     9
100
AcDbCircle
 10
74.82778110991454
 20
187.0717378556634
 30
0.0
 40
3.999999809909511
100
AcDbArc
 50
90.0
 51
180.0
  0
ARC
  5
39E
330
1F
100
AcDbEntity
  8
通り芯
  6
Continuous
 62
     3
370
     9
100
AcDbCircle
 10
54.82777698591754
 20
148.0716957908937
 30
0.0
 40
3.999999809909511
100
AcDbArc
 50
270.0
 51
0.0
  0
ARC
  5
39F
330
1F
100
AcDbEntity
  8
通り芯
  6
Continuous
 62
     3
370
     9
100
AcDbCircle
 10
39.32777533631871
 20
148.0716957908937
 30
0.0
 40
3.999999809909511
100
AcDbArc
 50
180.0
 51
270.0
  0
ARC
  5
3A0
330
1F
100
AcDbEntity
  8
通り芯
  6
Continuous
 62
     3
370
     9
100
AcDbCircle
 10
19.3278330722773
 20
148.0716957908937
 30
0.0
 40
3.999999809909511
100
AcDbArc
 50
270.0
 51
0.0
  0
ARC
  5
3A1
330
1F
100
AcDbEntity
  8
通り芯
  6
Continuous
 62
     3
370
     9
100
AcDbCircle
 10
3.827831422678472
 20
148.0716957908937
 30
0.0
 40
3.999999809909511
100
AcDbArc
 50
180.0
 51
270.0
  0
ARC
  5
3A2
330
1F
100
AcDbEntity
  8
通り芯
  6
Continuous
 62
     3
370
     9
100
AcDbCircle
 10
-843.1721669277226
 20
407.5716735213097
 30
0.0
 40
3.999999809909511
100
AcDbArc
 50
90.0
 51
180.0
  0
LINE
  5
3A3
330
1F
100
AcDbEntity
  8
通り芯
  6
Continuous
 62
     3
370
     9
100
AcDbLine
 10
-843.1721669277226
 20
411.5716619741178
 30
0.0
 11
-827.6721730106183
 21
411.5716619741178
 31
0.0
  0
ARC
  5
3A4
330
1F
100
AcDbEntity
  8
通り芯
  6
Continuous
 62
     3
370
     9
100
AcDbCircle
 10
-827.6721730106183
 20
407.5716735213097
 30
0.0
 40
3.999999809909511
100
AcDbArc
 50
0.0
 51
90.0
  0
ARC
  5
3A5
330
1F
100
AcDbEntity
  8
通り芯
  6
Continuous
 62
     3
370
     9
100
AcDbCircle
 10
-722.1721760005162
 20
407.5716735213097
 30
0.0
 40
3.999999809909511
100
AcDbArc
 50
90.0
 51
180.0
  0
LINE
  5
3A6
330
1F
100
AcDbEntity
  8
通り芯
  6
Continuous
 62
     3
370
     9
100
AcDbLine
 10
-722.1721760005162
 20
411.5716619741178
 30
0.0
 11
-706.6721743509174
 21
411.5716619741178
 31
0.0
  0
ARC
  5
3A7
330
1F
100
AcDbEntity
  8
通り芯
  6
Continuous
 62
     3
370
     9
100
AcDbCircle
 10
-706.6721743509174
 20
407.5716735213097
 30
0.0
 40
3.999999809909511
100
AcDbArc
 50
0.0
 51
90.0
  0
ARC
  5
3A8
330
1F
100
AcDbEntity
  8
通り芯
  6
Continuous
 62
     3
370
     9
100
AcDbCircle
 10
-686.6722011568982
 20
407.5716735213097
 30
0.0
 40
3.999999809909511
100
AcDbArc
 50
90.0
 51
180.0
  0
LINE
  5
3A9
330
1F
100
AcDbEntity
  8
通り芯
  6
Continuous
 62
     3
370
     9
100
AcDbLine
 10
-686.6722011568982
 20
411.5716619741178
 30
0.0
 11
-671.1721995072994
 21
411.5716619741178
 31
0.0
  0
ARC
  5
3AA
330
1F
100
AcDbEntity
  8
通り芯
  6
Continuous
 62
     3
370
     9
100
AcDbCircle
 10
-671.1721995072994
 20
407.5716735213097
 30
0.0
 40
3.999999809909511
100
AcDbArc
 50
0.0
 51
90.0
  0
ARC
  5
3AB
330
1F
100
AcDbEntity
  8
通り芯
  6
Continuous
 62
     3
370
     9
100
AcDbCircle
 10
-651.1721953833023
 20
407.5716735213097
 30
0.0
 40
3.999999809909511
100
AcDbArc
 50
90.0
 51
180.0
  0
LINE
  5
3AC
330
1F
100
AcDbEntity
  8
通り芯
  6
Continuous
 62
     3
370
     9
100
AcDbLine
 10
-651.1721953833023
 20
411.5716619741178
 30
0.0
 11
-635.6721937337036
 21
411.5716619741178
 31
0.0
  0
ARC
  5
3AD
330
1F
100
AcDbEntity
  8
通り芯
  6
Continuous
 62
     3
370
     9
100
AcDbCircle
 10
-635.6721937337036
 20
407.5716735213097
 30
0.0
 40
3.999999809909511
100
AcDbArc
 50
0.0
 51
90.0
  0
ARC
  5
3AE
330
1F
100
AcDbEntity
  8
通り芯
  6
Continuous
 62
     3
370
     9
100
AcDbCircle
 10
-601.1721850733097
 20
407.5716735213097
 30
0.0
 40
3.999999809909511
100
AcDbArc
 50
90.0
 51
180.0
  0
LINE
  5
3AF
330
1F
100
AcDbEntity
  8
通り芯
  6
Continuous
 62
     3
370
     9
100
AcDbLine
 10
-601.1721850733097
 20
411.5716619741178
 30
0.0
 11
-585.672183423711
 21
411.5716619741178
 31
0.0
  0
ARC
  5
3B0
330
1F
100
AcDbEntity
  8
通り芯
  6
Continuous
 62
     3
370
     9
100
AcDbCircle
 10
-585.672183423711
 20
407.5716735213097
 30
0.0
 40
3.999999809909511
100
AcDbArc
 50
0.0
 51
90.0
  0
ARC
  5
3B1
330
1F
100
AcDbEntity
  8
通り芯
  6
Continuous
 62
     3
370
     9
100
AcDbCircle
 10
-565.6721792997139
 20
407.5716735213097
 30
0.0
 40
3.999999809909511
100
AcDbArc
 50
90.0
 51
180.0
  0
LINE
  5
3B2
330
1F
100
AcDbEntity
  8
通り芯
  6
Continuous
 62
     3
370
     9
100
AcDbLine
 10
-565.6721792997139
 20
411.5716619741178
 30
0.0
 11
-550.1722085800928
 21
411.5716619741178
 31
0.0
  0
ARC
  5
3B3
330
1F
100
AcDbEntity
  8
通り芯
  6
Continuous
 62
     3
370
     9
100
AcDbCircle
 10
-550.1722085800928
 20
407.5716735213097
 30
0.0
 40
3.999999809909511
100
AcDbArc
 50
0.0
 51
90.0
  0
ARC
  5
3B4
330
1F
100
AcDbEntity
  8
通り芯
  6
Continuous
 62
     3
370
     9
100
AcDbCircle
 10
-530.1722044560959
 20
407.5716735213097
 30
0.0
 40
3.999999809909511
100
AcDbArc
 50
90.0
 51
180.0
  0
LINE
  5
3B5
330
1F
100
AcDbEntity
  8
通り芯
  6
Continuous
 62
     3
370
     9
100
AcDbLine
 10
-530.1722044560959
 20
411.5716619741178
 30
0.0
 11
-514.672202806497
 21
411.5716619741178
 31
0.0
  0
ARC
  5
3B6
330
1F
100
AcDbEntity
  8
通り芯
  6
Continuous
 62
     3
370
     9
100
AcDbCircle
 10
-514.672202806497
 20
407.5716735213097
 30
0.0
 40
3.999999809909511
100
AcDbArc
 50
0.0
 51
90.0
  0
ARC
  5
3B7
330
1F
100
AcDbEntity
  8
通り芯
  6
Continuous
 62
     3
370
     9
100
AcDbCircle
 10
-480.172225076081
 20
407.5716735213097
 30
0.0
 40
3.999999809909511
100
AcDbArc
 50
90.0
 51
180.0
  0
LINE
  5
3B8
330
1F
100
AcDbEntity
  8
通り芯
  6
Continuous
 62
     3
370
     9
100
AcDbLine
 10
-480.172225076081
 20
411.5716619741178
 30
0.0
 11
-464.6722234264823
 21
411.5716619741178
 31
0.0
  0
ARC
  5
3B9
330
1F
100
AcDbEntity
  8
通り芯
  6
Continuous
 62
     3
370
     9
100
AcDbCircle
 10
-464.6722234264823
 20
407.5716735213097
 30
0.0
 40
3.999999809909511
100
AcDbArc
 50
0.0
 51
90.0
  0
ARC
  5
3BA
330
1F
100
AcDbEntity
  8
通り芯
  6
Continuous
 62
     3
370
     9
100
AcDbCircle
 10
-444.6722193024852
 20
407.5716735213097
 30
0.0
 40
3.999999809909511
100
AcDbArc
 50
90.0
 51
180.0
  0
LINE
  5
3BB
330
1F
100
AcDbEntity
  8
通り芯
  6
Continuous
 62
     3
370
     9
100
AcDbLine
 10
-444.6722193024852
 20
411.5716619741178
 30
0.0
 11
-429.1721867229086
 21
411.5716619741178
 31
0.0
  0
ARC
  5
3BC
330
1F
100
AcDbEntity
  8
通り芯
  6
Continuous
 62
     3
370
     9
100
AcDbCircle
 10
-429.1721867229086
 20
407.5716735213097
 30
0.0
 40
3.999999809909511
100
AcDbArc
 50
0.0
 51
90.0
  0
ARC
  5
3BD
330
1F
100
AcDbEntity
  8
通り芯
  6
Continuous
 62
     3
370
     9
100
AcDbCircle
 10
-409.1721825989115
 20
407.5716735213097
 30
0.0
 40
3.999999809909511
100
AcDbArc
 50
90.0
 51
180.0
  0
LINE
  5
3BE
330
1F
100
AcDbEntity
  8
通り芯
  6
Continuous
 62
     3
370
     9
100
AcDbLine
 10
-409.1721825989115
 20
411.5716619741178
 30
0.0
 11
-393.6721809493127
 21
411.5716619741178
 31
0.0
  0
ARC
  5
3BF
330
1F
100
AcDbEntity
  8
通り芯
  6
Continuous
 62
     3
370
     9
100
AcDbCircle
 10
-393.6721809493127
 20
407.5716735213097
 30
0.0
 40
3.999999809909511
100
AcDbArc
 50
0.0
 51
90.0
  0
LINE
  5
3C0
330
1F
100
AcDbEntity
  8
通り芯
  6
Continuous
 62
     3
370
     9
100
AcDbLine
 10
-343.6722015692979
 20
411.5716619741178
 30
0.0
 11
-359.1722032188967
 21
411.5716619741178
 31
0.0
  0
ARC
  5
3C1
330
1F
100
AcDbEntity
  8
通り芯
  6
Continuous
 62
     3
370
     9
100
AcDbCircle
 10
-359.1722032188967
 20
407.5716735213097
 30
0.0
 40
3.999999809909511
100
AcDbArc
 50
90.0
 51
180.0
  0
ARC
  5
3C2
330
1F
100
AcDbEntity
  8
通り芯
  6
Continuous
 62
     3
370
     9
100
AcDbCircle
 10
-343.6722015692979
 20
407.5716735213097
 30
0.0
 40
3.999999809909511
100
AcDbArc
 50
7.016464233398438
 51
90.0
  0
ARC
  5
3C3
330
1F
100
AcDbEntity
  8
通り芯
  6
Continuous
 62
     3
370
     9
100
AcDbCircle
 10
-323.6721974453008
 20
407.5716735213097
 30
0.0
 40
3.999999809909511
100
AcDbArc
 50
90.0
 51
180.0
  0
LINE
  5
3C4
330
1F
100
AcDbEntity
  8
通り芯
  6
Continuous
 62
     3
370
     9
100
AcDbLine
 10
-308.172195795702
 20
411.5716619741178
 30
0.0
 11
-323.6721974453008
 21
411.5716619741178
 31
0.0
  0
ARC
  5
3C5
330
1F
100
AcDbEntity
  8
通り芯
  6
Continuous
 62
     3
370
     9
100
AcDbCircle
 10
-308.172195795702
 20
407.5716735213097
 30
0.0
 40
3.999999809909511
100
AcDbArc
 50
7.016464233398438
 51
90.0
  0
LINE
  5
3C6
330
1F
100
AcDbEntity
  8
通り芯
  6
Continuous
 62
     3
370
     9
100
AcDbLine
 10
-272.6721900221062
 20
411.5716619741178
 30
0.0
 11
-288.172191671705
 21
411.5716619741178
 31
0.0
  0
ARC
  5
3C7
330
1F
100
AcDbEntity
  8
通り芯
  6
Continuous
 62
     3
370
     9
100
AcDbCircle
 10
-288.172191671705
 20
407.5716735213097
 30
0.0
 40
3.999999809909511
100
AcDbArc
 50
90.0
 51
180.0
  0
ARC
  5
3C8
330
1F
100
AcDbEntity
  8
通り芯
  6
Continuous
 62
     3
370
     9
100
AcDbCircle
 10
-272.6721900221062
 20
407.5716735213097
 30
0.0
 40
3.999999809909511
100
AcDbArc
 50
7.016464233398438
 51
90.0
  0
ARC
  5
3C9
330
1F
100
AcDbEntity
  8
通り芯
  6
Continuous
 62
     3
370
     9
100
AcDbCircle
 10
-238.1722122916901
 20
407.5716735213097
 30
0.0
 40
3.999999809909511
100
AcDbArc
 50
90.0
 51
180.0
  0
LINE
  5
3CA
330
1F
100
AcDbEntity
  8
通り芯
  6
Continuous
 62
     3
370
     9
100
AcDbLine
 10
-222.6722106420914
 20
411.5716619741178
 30
0.0
 11
-238.1722122916901
 21
411.5716619741178
 31
0.0
  0
ARC
  5
3CB
330
1F
100
AcDbEntity
  8
通り芯
  6
Continuous
 62
     3
370
     9
100
AcDbCircle
 10
-222.6722106420914
 20
407.5716735213097
 30
0.0
 40
3.999999809909511
100
AcDbArc
 50
7.016464233398438
 51
90.0
  0
ARC
  5
3CC
330
1F
100
AcDbEntity
  8
通り芯
  6
Continuous
 62
     3
370
     9
100
AcDbCircle
 10
-202.6721446581387
 20
407.5716735213097
 30
0.0
 40
3.999999809909511
100
AcDbArc
 50
90.0
 51
180.0
  0
LINE
  5
3CD
330
1F
100
AcDbEntity
  8
通り芯
  6
Continuous
 62
     3
370
     9
100
AcDbLine
 10
-187.1722048684955
 20
411.5716619741178
 30
0.0
 11
-202.6721446581387
 21
411.5716619741178
 31
0.0
  0
ARC
  5
3CE
330
1F
100
AcDbEntity
  8
通り芯
  6
Continuous
 62
     3
370
     9
100
AcDbCircle
 10
-187.1722048684955
 20
407.5716735213097
 30
0.0
 40
3.999999809909511
100
AcDbArc
 50
7.016464233398438
 51
90.0
  0
ARC
  5
3CF
330
1F
100
AcDbEntity
  8
通り芯
  6
Continuous
 62
     3
370
     9
100
AcDbCircle
 10
-167.1722007444985
 20
407.5716735213097
 30
0.0
 40
3.999999809909511
100
AcDbArc
 50
90.0
 51
180.0
  0
LINE
  5
3D0
330
1F
100
AcDbEntity
  8
通り芯
  6
Continuous
 62
     3
370
     9
100
AcDbLine
 10
-151.6721990948997
 20
411.5716619741178
 30
0.0
 11
-167.1722007444985
 21
411.5716619741178
 31
0.0
  0
ARC
  5
3D1
330
1F
100
AcDbEntity
  8
通り芯
  6
Continuous
 62
     3
370
     9
100
AcDbCircle
 10
-151.6721990948997
 20
407.5716735213097
 30
0.0
 40
3.999999809909511
100
AcDbArc
 50
7.016464233398438
 51
90.0
  0
ARC
  5
3D2
330
1F
100
AcDbEntity
  8
通り芯
  6
Continuous
 62
     3
370
     9
100
AcDbCircle
 10
-117.172159504528
 20
407.5716735213097
 30
0.0
 40
3.999999809909511
100
AcDbArc
 50
90.0
 51
180.0
  0
LINE
  5
3D3
330
1F
100
AcDbEntity
  8
通り芯
  6
Continuous
 62
     3
370
     9
100
AcDbLine
 10
-101.6721578549292
 20
411.5716619741178
 30
0.0
 11
-117.172159504528
 21
411.5716619741178
 31
0.0
  0
ARC
  5
3D4
330
1F
100
AcDbEntity
  8
通り芯
  6
Continuous
 62
     3
370
     9
100
AcDbCircle
 10
-101.6721578549292
 20
407.5716735213097
 30
0.0
 40
3.999999809909511
100
AcDbArc
 50
7.016464233398438
 51
90.0
  0
ARC
  5
3D5
330
1F
100
AcDbEntity
  8
通り芯
  6
Continuous
 62
     3
370
     9
100
AcDbCircle
 10
-81.6722155908878
 20
407.5716735213097
 30
0.0
 40
3.999999809909511
100
AcDbArc
 50
90.0
 51
180.0
  0
LINE
  5
3D6
330
1F
100
AcDbEntity
  8
通り芯
  6
Continuous
 62
     3
370
     9
100
AcDbLine
 10
-66.17221394128897
 20
411.5716619741178
 30
0.0
 11
-81.6722155908878
 21
411.5716619741178
 31
0.0
  0
ARC
  5
3D7
330
1F
100
AcDbEntity
  8
通り芯
  6
Continuous
 62
     3
370
     9
100
AcDbCircle
 10
-66.17221394128897
 20
407.5716735213097
 30
0.0
 40
3.999999809909511
100
AcDbArc
 50
7.016464233398438
 51
90.0
  0
ARC
  5
3D8
330
1F
100
AcDbEntity
  8
通り芯
  6
Continuous
 62
     3
370
     9
100
AcDbCircle
 10
-46.17214795733638
 20
407.5716735213097
 30
0.0
 40
3.999999809909511
100
AcDbArc
 50
90.0
 51
180.0
  0
LINE
  5
3D9
330
1F
100
AcDbEntity
  8
通り芯
  6
Continuous
 62
     3
370
     9
100
AcDbLine
 10
-30.67214630773755
 20
411.5716619741178
 30
0.0
 11
-46.17214795733638
 21
411.5716619741178
 31
0.0
  0
ARC
  5
3DA
330
1F
100
AcDbEntity
  8
通り芯
  6
Continuous
 62
     3
370
     9
100
AcDbCircle
 10
-30.67214630773755
 20
407.5716735213097
 30
0.0
 40
3.999999809909511
100
AcDbArc
 50
7.016464233398438
 51
90.0
  0
LINE
  5
3DB
330
1F
100
AcDbEntity
  8
通り芯
  6
Continuous
 62
     3
370
     9
100
AcDbLine
 10
-873.9221632161255
 20
424.5716553757225
 30
0.0
 11
-376.4221611541269
 21
424.5716553757225
 31
0.0
  0
LINE
  5
3DC
330
1F
100
AcDbEntity
  8
通り芯
  6
Continuous
 62
     3
370
     9
100
AcDbLine
 10
90.32778275951337
 20
411.5716619741178
 30
0.0
 11
74.82778110991454
 21
411.5716619741178
 31
0.0
  0
LINE
  5
3DD
330
1F
100
AcDbEntity
  8
通り芯
  6
Continuous
 62
     3
370
     9
100
AcDbLine
 10
121.0778718378496
 20
424.5716553757225
 30
0.0
 11
-376.4221611541269
 21
424.5716553757225
 31
0.0
  0
LINE
  5
3DE
330
1F
100
AcDbEntity
  8
通り芯
  6
Continuous
 62
     3
370
     9
100
AcDbLine
 10
-843.1721669277226
 20
87.57173125726828
 30
0.0
 11
-827.6721730106183
 21
87.57173125726828
 31
0.0
  0
LINE
  5
3DF
330
1F
100
AcDbEntity
  8
通り芯
  6
Continuous
 62
     3
370
     9
100
AcDbLine
 10
-722.1721760005162
 20
87.57173125726828
 30
0.0
 11
-706.6721743509174
 21
87.57173125726828
 31
0.0
  0
LINE
  5
3E0
330
1F
100
AcDbEntity
  8
通り芯
  6
Continuous
 62
     3
370
     9
100
AcDbLine
 10
-686.6722011568982
 20
87.57173125726828
 30
0.0
 11
-671.1721995072994
 21
87.57173125726828
 31
0.0
  0
LINE
  5
3E1
330
1F
100
AcDbEntity
  8
通り芯
  6
Continuous
 62
     3
370
     9
100
AcDbLine
 10
-651.1721953833023
 20
87.57173125726828
 30
0.0
 11
-635.6721937337036
 21
87.57173125726828
 31
0.0
  0
LINE
  5
3E2
330
1F
100
AcDbEntity
  8
通り芯
  6
Continuous
 62
     3
370
     9
100
AcDbLine
 10
-601.1721850733097
 20
87.57173125726828
 30
0.0
 11
-585.672183423711
 21
87.57173125726828
 31
0.0
  0
LINE
  5
3E3
330
1F
100
AcDbEntity
  8
通り芯
  6
Continuous
 62
     3
370
     9
100
AcDbLine
 10
-565.6721792997139
 20
87.57173125726828
 30
0.0
 11
-550.1722085800928
 21
87.57173125726828
 31
0.0
  0
LINE
  5
3E4
330
1F
100
AcDbEntity
  8
通り芯
  6
Continuous
 62
     3
370
     9
100
AcDbLine
 10
-530.1722044560959
 20
87.57173125726828
 30
0.0
 11
-514.672202806497
 21
87.57173125726828
 31
0.0
  0
LINE
  5
3E5
330
1F
100
AcDbEntity
  8
通り芯
  6
Continuous
 62
     3
370
     9
100
AcDbLine
 10
-480.172225076081
 20
87.57173125726828
 30
0.0
 11
-464.6722234264823
 21
87.57173125726828
 31
0.0
  0
LINE
  5
3E6
330
1F
100
AcDbEntity
  8
通り芯
  6
Continuous
 62
     3
370
     9
100
AcDbLine
 10
-444.6722193024852
 20
87.57173125726828
 30
0.0
 11
-429.1721867229086
 21
87.57173125726828
 31
0.0
  0
LINE
  5
3E7
330
1F
100
AcDbEntity
  8
通り芯
  6
Continuous
 62
     3
370
     9
100
AcDbLine
 10
-409.1721825989115
 20
87.57173125726828
 30
0.0
 11
-393.6721809493127
 21
87.57173125726828
 31
0.0
  0
LINE
  5
3E8
330
1F
100
AcDbEntity
  8
通り芯
  6
Continuous
 62
     3
370
     9
100
AcDbLine
 10
-343.6722015692979
 20
87.57173125726828
 30
0.0
 11
-359.1722032188967
 21
87.57173125726828
 31
0.0
  0
LINE
  5
3E9
330
1F
100
AcDbEntity
  8
通り芯
  6
Continuous
 62
     3
370
     9
100
AcDbLine
 10
-308.172195795702
 20
87.57173125726828
 30
0.0
 11
-323.6721974453008
 21
87.57173125726828
 31
0.0
  0
LINE
  5
3EA
330
1F
100
AcDbEntity
  8
通り芯
  6
Continuous
 62
     3
370
     9
100
AcDbLine
 10
-272.6721900221062
 20
87.57173125726828
 30
0.0
 11
-288.172191671705
 21
87.57173125726828
 31
0.0
  0
LINE
  5
3EB
330
1F
100
AcDbEntity
  8
通り芯
  6
Continuous
 62
     3
370
     9
100
AcDbLine
 10
-222.6722106420914
 20
87.57173125726828
 30
0.0
 11
-238.1722122916901
 21
87.57173125726828
 31
0.0
  0
LINE
  5
3EC
330
1F
100
AcDbEntity
  8
通り芯
  6
Continuous
 62
     3
370
     9
100
AcDbLine
 10
-187.1722048684955
 20
87.57173125726828
 30
0.0
 11
-202.6721446581387
 21
87.57173125726828
 31
0.0
  0
LINE
  5
3ED
330
1F
100
AcDbEntity
  8
通り芯
  6
Continuous
 62
     3
370
     9
100
AcDbLine
 10
-151.6721990948997
 20
87.57173125726828
 30
0.0
 11
-167.1722007444985
 21
87.57173125726828
 31
0.0
  0
LINE
  5
3EE
330
1F
100
AcDbEntity
  8
通り芯
  6
Continuous
 62
     3
370
     9
100
AcDbLine
 10
-101.6721578549292
 20
87.57173125726828
 30
0.0
 11
-117.172159504528
 21
87.57173125726828
 31
0.0
  0
LINE
  5
3EF
330
1F
100
AcDbEntity
  8
通り芯
  6
Continuous
 62
     3
370
     9
100
AcDbLine
 10
-66.17221394128897
 20
87.57173125726828
 30
0.0
 11
-81.6722155908878
 21
87.57173125726828
 31
0.0
  0
LINE
  5
3F0
330
1F
100
AcDbEntity
  8
通り芯
  6
Continuous
 62
     3
370
     9
100
AcDbLine
 10
-30.67214630773755
 20
87.57173125726828
 30
0.0
 11
-46.17214795733638
 21
87.57173125726828
 31
0.0
  0
LINE
  5
3F1
330
1F
100
AcDbEntity
  8
通り芯
  6
Continuous
 62
     3
370
     9
100
AcDbLine
 10
90.32778275951337
 20
87.57173125726828
 30
0.0
 11
74.82778110991454
 21
87.57173125726828
 31
0.0
  0
ARC
  5
3F2
330
1F
100
AcDbEntity
  8
通り芯
  6
Continuous
 62
     3
370
     9
100
AcDbCircle
 10
90.32778275951337
 20
407.5716735213097
 30
0.0
 40
3.999999809909511
100
AcDbArc
 50
7.016464233398438
 51
90.0
  0
ARC
  5
3F3
330
1F
100
AcDbEntity
  8
通り芯
  6
Continuous
 62
     3
370
     9
100
AcDbCircle
 10
74.82778110991454
 20
407.5716735213097
 30
0.0
 40
3.999999809909511
100
AcDbArc
 50
90.0
 51
180.0
  0
ARC
  5
3F4
330
1F
100
AcDbEntity
  8
通り芯
  6
Continuous
 62
     3
370
     9
100
AcDbCircle
 10
-843.1721669277226
 20
91.57171971007648
 30
0.0
 40
3.999999809909511
100
AcDbArc
 50
180.0
 51
270.0
  0
ARC
  5
3F5
330
1F
100
AcDbEntity
  8
通り芯
  6
Continuous
 62
     3
370
     9
100
AcDbCircle
 10
-827.6721730106183
 20
91.57171971007648
 30
0.0
 40
3.999999809909511
100
AcDbArc
 50
270.0
 51
0.0
  0
ARC
  5
3F6
330
1F
100
AcDbEntity
  8
通り芯
  6
Continuous
 62
     3
370
     9
100
AcDbCircle
 10
-706.6721743509174
 20
91.57171971007648
 30
0.0
 40
3.999999809909511
100
AcDbArc
 50
270.0
 51
0.0
  0
ARC
  5
3F7
330
1F
100
AcDbEntity
  8
通り芯
  6
Continuous
 62
     3
370
     9
100
AcDbCircle
 10
-722.1721760005162
 20
91.57171971007648
 30
0.0
 40
3.999999809909511
100
AcDbArc
 50
180.0
 51
270.0
  0
ARC
  5
3F8
330
1F
100
AcDbEntity
  8
通り芯
  6
Continuous
 62
     3
370
     9
100
AcDbCircle
 10
-686.6722011568982
 20
91.57171971007648
 30
0.0
 40
3.999999809909511
100
AcDbArc
 50
180.0
 51
270.0
  0
ARC
  5
3F9
330
1F
100
AcDbEntity
  8
通り芯
  6
Continuous
 62
     3
370
     9
100
AcDbCircle
 10
-671.1721995072994
 20
91.57171971007648
 30
0.0
 40
3.999999809909511
100
AcDbArc
 50
270.0
 51
0.0
  0
ARC
  5
3FA
330
1F
100
AcDbEntity
  8
通り芯
  6
Continuous
 62
     3
370
     9
100
AcDbCircle
 10
-635.6721937337036
 20
91.57171971007648
 30
0.0
 40
3.999999809909511
100
AcDbArc
 50
270.0
 51
0.0
  0
ARC
  5
3FB
330
1F
100
AcDbEntity
  8
通り芯
  6
Continuous
 62
     3
370
     9
100
AcDbCircle
 10
-651.1721953833023
 20
91.57171971007648
 30
0.0
 40
3.999999809909511
100
AcDbArc
 50
180.0
 51
270.0
  0
ARC
  5
3FC
330
1F
100
AcDbEntity
  8
通り芯
  6
Continuous
 62
     3
370
     9
100
AcDbCircle
 10
-601.1721850733097
 20
91.57171971007648
 30
0.0
 40
3.999999809909511
100
AcDbArc
 50
180.0
 51
270.0
  0
ARC
  5
3FD
330
1F
100
AcDbEntity
  8
通り芯
  6
Continuous
 62
     3
370
     9
100
AcDbCircle
 10
-585.672183423711
 20
91.57171971007648
 30
0.0
 40
3.999999809909511
100
AcDbArc
 50
270.0
 51
0.0
  0
ARC
  5
3FE
330
1F
100
AcDbEntity
  8
通り芯
  6
Continuous
 62
     3
370
     9
100
AcDbCircle
 10
-550.1722085800928
 20
91.57171971007648
 30
0.0
 40
3.999999809909511
100
AcDbArc
 50
270.0
 51
0.0
  0
ARC
  5
3FF
330
1F
100
AcDbEntity
  8
通り芯
  6
Continuous
 62
     3
370
     9
100
AcDbCircle
 10
-565.6721792997139
 20
91.57171971007648
 30
0.0
 40
3.999999809909511
100
AcDbArc
 50
180.0
 51
270.0
  0
ARC
  5
400
330
1F
100
AcDbEntity
  8
通り芯
  6
Continuous
 62
     3
370
     9
100
AcDbCircle
 10
-530.1722044560959
 20
91.57171971007648
 30
0.0
 40
3.999999809909511
100
AcDbArc
 50
180.0
 51
270.0
  0
ARC
  5
401
330
1F
100
AcDbEntity
  8
通り芯
  6
Continuous
 62
     3
370
     9
100
AcDbCircle
 10
-514.672202806497
 20
91.57171971007648
 30
0.0
 40
3.999999809909511
100
AcDbArc
 50
270.0
 51
0.0
  0
ARC
  5
402
330
1F
100
AcDbEntity
  8
通り芯
  6
Continuous
 62
     3
370
     9
100
AcDbCircle
 10
-464.6722234264823
 20
91.57171971007648
 30
0.0
 40
3.999999809909511
100
AcDbArc
 50
270.0
 51
0.0
  0
ARC
  5
403
330
1F
100
AcDbEntity
  8
通り芯
  6
Continuous
 62
     3
370
     9
100
AcDbCircle
 10
-480.172225076081
 20
91.57171971007648
 30
0.0
 40
3.999999809909511
100
AcDbArc
 50
180.0
 51
270.0
  0
ARC
  5
404
330
1F
100
AcDbEntity
  8
通り芯
  6
Continuous
 62
     3
370
     9
100
AcDbCircle
 10
-444.6722193024852
 20
91.57171971007648
 30
0.0
 40
3.999999809909511
100
AcDbArc
 50
180.0
 51
270.0
  0
ARC
  5
405
330
1F
100
AcDbEntity
  8
通り芯
  6
Continuous
 62
     3
370
     9
100
AcDbCircle
 10
-429.1721867229086
 20
91.57171971007648
 30
0.0
 40
3.999999809909511
100
AcDbArc
 50
270.0
 51
0.0
  0
ARC
  5
406
330
1F
100
AcDbEntity
  8
通り芯
  6
Continuous
 62
     3
370
     9
100
AcDbCircle
 10
-393.6721809493127
 20
91.57171971007648
 30
0.0
 40
3.999999809909511
100
AcDbArc
 50
270.0
 51
0.0
  0
ARC
  5
407
330
1F
100
AcDbEntity
  8
通り芯
  6
Continuous
 62
     3
370
     9
100
AcDbCircle
 10
-409.1721825989115
 20
91.57171971007648
 30
0.0
 40
3.999999809909511
100
AcDbArc
 50
180.0
 51
270.0
  0
ARC
  5
408
330
1F
100
AcDbEntity
  8
通り芯
  6
Continuous
 62
     3
370
     9
100
AcDbCircle
 10
-343.6722015692979
 20
91.57171971007648
 30
0.0
 40
3.999999809909511
100
AcDbArc
 50
270.0
 51
0.0
  0
ARC
  5
409
330
1F
100
AcDbEntity
  8
通り芯
  6
Continuous
 62
     3
370
     9
100
AcDbCircle
 10
-359.1722032188967
 20
91.57171971007648
 30
0.0
 40
3.999999809909511
100
AcDbArc
 50
180.0
 51
270.0
  0
ARC
  5
40A
330
1F
100
AcDbEntity
  8
通り芯
  6
Continuous
 62
     3
370
     9
100
AcDbCircle
 10
-323.6721974453008
 20
91.57171971007648
 30
0.0
 40
3.999999809909511
100
AcDbArc
 50
180.0
 51
270.0
  0
ARC
  5
40B
330
1F
100
AcDbEntity
  8
通り芯
  6
Continuous
 62
     3
370
     9
100
AcDbCircle
 10
-308.172195795702
 20
91.57171971007648
 30
0.0
 40
3.999999809909511
100
AcDbArc
 50
270.0
 51
0.0
  0
ARC
  5
40C
330
1F
100
AcDbEntity
  8
通り芯
  6
Continuous
 62
     3
370
     9
100
AcDbCircle
 10
-272.6721900221062
 20
91.57171971007648
 30
0.0
 40
3.999999809909511
100
AcDbArc
 50
270.0
 51
0.0
  0
ARC
  5
40D
330
1F
100
AcDbEntity
  8
通り芯
  6
Continuous
 62
     3
370
     9
100
AcDbCircle
 10
-288.172191671705
 20
91.57171971007648
 30
0.0
 40
3.999999809909511
100
AcDbArc
 50
180.0
 51
270.0
  0
ARC
  5
40E
330
1F
100
AcDbEntity
  8
通り芯
  6
Continuous
 62
     3
370
     9
100
AcDbCircle
 10
-238.1722122916901
 20
91.57171971007648
 30
0.0
 40
3.999999809909511
100
AcDbArc
 50
180.0
 51
270.0
  0
ARC
  5
40F
330
1F
100
AcDbEntity
  8
通り芯
  6
Continuous
 62
     3
370
     9
100
AcDbCircle
 10
-222.6722106420914
 20
91.57171971007648
 30
0.0
 40
3.999999809909511
100
AcDbArc
 50
270.0
 51
0.0
  0
ARC
  5
410
330
1F
100
AcDbEntity
  8
通り芯
  6
Continuous
 62
     3
370
     9
100
AcDbCircle
 10
-187.1722048684955
 20
91.57171971007648
 30
0.0
 40
3.999999809909511
100
AcDbArc
 50
270.0
 51
0.0
  0
ARC
  5
411
330
1F
100
AcDbEntity
  8
通り芯
  6
Continuous
 62
     3
370
     9
100
AcDbCircle
 10
-202.6721446581387
 20
91.57171971007648
 30
0.0
 40
3.999999809909511
100
AcDbArc
 50
180.0
 51
270.0
  0
ARC
  5
412
330
1F
100
AcDbEntity
  8
通り芯
  6
Continuous
 62
     3
370
     9
100
AcDbCircle
 10
-167.1722007444985
 20
91.57171971007648
 30
0.0
 40
3.999999809909511
100
AcDbArc
 50
180.0
 51
270.0
  0
ARC
  5
413
330
1F
100
AcDbEntity
  8
通り芯
  6
Continuous
 62
     3
370
     9
100
AcDbCircle
 10
-151.6721990948997
 20
91.57171971007648
 30
0.0
 40
3.999999809909511
100
AcDbArc
 50
270.0
 51
0.0
  0
ARC
  5
414
330
1F
100
AcDbEntity
  8
通り芯
  6
Continuous
 62
     3
370
     9
100
AcDbCircle
 10
-101.6721578549292
 20
91.57171971007648
 30
0.0
 40
3.999999809909511
100
AcDbArc
 50
270.0
 51
0.0
  0
ARC
  5
415
330
1F
100
AcDbEntity
  8
通り芯
  6
Continuous
 62
     3
370
     9
100
AcDbCircle
 10
-117.172159504528
 20
91.57171971007648
 30
0.0
 40
3.999999809909511
100
AcDbArc
 50
180.0
 51
270.0
  0
ARC
  5
416
330
1F
100
AcDbEntity
  8
通り芯
  6
Continuous
 62
     3
370
     9
100
AcDbCircle
 10
-81.6722155908878
 20
91.57171971007648
 30
0.0
 40
3.999999809909511
100
AcDbArc
 50
180.0
 51
270.0
  0
ARC
  5
417
330
1F
100
AcDbEntity
  8
通り芯
  6
Continuous
 62
     3
370
     9
100
AcDbCircle
 10
-66.17221394128897
 20
91.57171971007648
 30
0.0
 40
3.999999809909511
100
AcDbArc
 50
270.0
 51
0.0
  0
ARC
  5
418
330
1F
100
AcDbEntity
  8
通り芯
  6
Continuous
 62
     3
370
     9
100
AcDbCircle
 10
-30.67214630773755
 20
91.57171971007648
 30
0.0
 40
3.999999809909511
100
AcDbArc
 50
270.0
 51
0.0
  0
ARC
  5
419
330
1F
100
AcDbEntity
  8
通り芯
  6
Continuous
 62
     3
370
     9
100
AcDbCircle
 10
-46.17214795733638
 20
91.57171971007648
 30
0.0
 40
3.999999809909511
100
AcDbArc
 50
180.0
 51
270.0
  0
ARC
  5
41A
330
1F
100
AcDbEntity
  8
通り芯
  6
Continuous
 62
     3
370
     9
100
AcDbCircle
 10
74.82778110991454
 20
91.57171971007648
 30
0.0
 40
3.999999809909511
100
AcDbArc
 50
180.0
 51
270.0
  0
ARC
  5
41B
330
1F
100
AcDbEntity
  8
通り芯
  6
Continuous
 62
     3
370
     9
100
AcDbCircle
 10
90.32778275951337
 20
91.57171971007648
 30
0.0
 40
3.999999809909511
100
AcDbArc
 50
270.0
 51
0.0
  0
LINE
  5
41C
330
1F
100
AcDbEntity
  8
通り芯
  6
Continuous
 62
     3
370
     9
100
AcDbLine
 10
121.0778718378496
 20
74.57173785566346
 30
0.0
 11
-376.4221611541269
 21
74.57173785566346
 31
0.0
  0
LINE
  5
41D
330
1F
100
AcDbEntity
  8
通り芯
  6
Continuous
 62
     3
370
     9
100
AcDbLine
 10
595.552144694691
 20
249.571696615693
 30
0.0
 11
595.552144694691
 21
424.5716553757225
 31
0.0
  0
LINE
  5
41E
330
1F
100
AcDbEntity
  8
通り芯
  6
Continuous
 62
     3
370
     9
100
AcDbLine
 10
645.5520622147501
 20
124.5717790956339
 30
0.0
 11
635.5521529426849
 21
125.5717452788581
 31
0.0
  0
LINE
  5
41F
330
1F
100
AcDbEntity
  8
通り芯
  6
Continuous
 62
     3
370
     9
100
AcDbLine
 10
610.5521941826552
 20
297.5717436292595
 30
0.0
 11
610.5521941826552
 21
306.5717485780558
 31
0.0
  0
LINE
  5
420
330
1F
100
AcDbEntity
  8
通り芯
  6
Continuous
 62
     3
370
     9
100
AcDbLine
 10
620.5521034547203
 20
249.571696615693
 30
0.0
 11
620.5521034547203
 21
410.2462505641728
 31
0.0
  0
LINE
  5
421
330
1F
100
AcDbEntity
  8
通り芯
  6
Continuous
 62
     3
370
     9
100
AcDbLine
 10
633.552096856325
 20
249.571696615693
 30
0.0
 11
633.552096856325
 21
141.2216954609739
 31
0.0
  0
LINE
  5
422
330
1F
100
AcDbEntity
  8
通り芯
  6
Continuous
 62
     3
370
     9
100
AcDbLine
 10
610.5521941826552
 20
192.5717683732416
 30
0.0
 11
595.552144694691
 21
191.0717263084718
 31
0.0
  0
LINE
  5
423
330
1F
100
AcDbEntity
  8
通り芯
  6
Continuous
 62
     3
370
     9
100
AcDbLine
 10
595.552144694691
 20
203.0716916668967
 30
0.0
 11
610.5521941826552
 21
201.5717733220381
 31
0.0
  0
LINE
  5
424
330
1F
100
AcDbEntity
  8
通り芯
  6
Continuous
 62
     3
370
     9
100
AcDbLine
 10
645.5520622147501
 20
414.5716223837462
 30
0.0
 11
633.552096856325
 21
413.8516962197893
 31
0.0
  0
LINE
  5
425
330
1F
100
AcDbEntity
  8
通り芯
  6
Continuous
 62
     3
370
     9
100
AcDbLine
 10
595.552144694691
 20
424.5716553757225
 30
0.0
 11
645.5520622147501
 21
421.5716949660941
 31
0.0
  0
LINE
  5
426
330
1F
100
AcDbEntity
  8
通り芯
  6
Continuous
 62
     3
370
     9
100
AcDbLine
 10
595.552144694691
 20
74.57173785566346
 30
0.0
 11
645.5520622147501
 21
77.57169826529184
 31
0.0
  0
LINE
  5
427
330
1F
100
AcDbEntity
  8
通り芯
  6
Continuous
 62
     3
370
     9
100
AcDbLine
 10
595.552144694691
 20
296.0717015644895
 30
0.0
 11
610.5521941826552
 21
297.5717436292595
 31
0.0
  0
LINE
  5
428
330
1F
100
AcDbEntity
  8
通り芯
  6
Continuous
 62
     3
370
     9
100
AcDbLine
 10
610.5521941826552
 20
306.5717485780558
 30
0.0
 11
595.552144694691
 21
308.07172878287
 31
0.0
  0
LINE
  5
429
330
1F
100
AcDbEntity
  8
通り芯
  6
Continuous
 62
     3
370
     9
100
AcDbLine
 10
635.5521529426849
 20
82.87173554622518
 30
0.0
 11
595.552144694691
 21
82.07176259964575
 31
0.0
  0
LINE
  5
42A
330
1F
100
AcDbEntity
  8
通り芯
  6
Continuous
 62
     3
370
     9
100
AcDbLine
 10
610.5521941826552
 20
201.5717733220381
 30
0.0
 11
610.5521941826552
 21
192.5717683732416
 31
0.0
  0
LINE
  5
42B
330
1F
100
AcDbEntity
  8
通り芯
  6
Continuous
 62
     3
370
     9
100
AcDbLine
 10
633.552096856325
 20
249.571696615693
 30
0.0
 11
633.552096856325
 21
362.3913888665377
 31
0.0
  0
LINE
  5
42C
330
1F
100
AcDbEntity
  8
通り芯
  6
Continuous
 62
     3
370
     9
100
AcDbLine
 10
623.3724225531156
 20
413.2410147375258
 30
0.0
 11
595.552144694691
 21
411.5716619741178
 31
0.0
  0
LINE
  5
42D
330
1F
100
AcDbEntity
  8
通り芯
  6
Continuous
 62
     3
370
     9
100
AcDbLine
 10
630.3723714155525
 20
413.6609201165376
 30
0.0
 11
623.3724225531156
 21
413.2410147375258
 31
0.0
  0
LINE
  5
42E
330
1F
100
AcDbEntity
  8
通り芯
  6
Continuous
 62
     3
370
     9
100
AcDbLine
 10
633.552096856325
 20
413.8516962197893
 30
0.0
 11
630.3723714155525
 21
413.6609201165376
 31
0.0
  0
LINE
  5
42F
330
1F
100
AcDbEntity
  8
通り芯
  6
Continuous
 62
     3
370
     9
100
AcDbLine
 10
595.552144694691
 20
249.571696615693
 30
0.0
 11
595.552144694691
 21
74.57173785566346
 31
0.0
  0
LINE
  5
430
330
1F
100
AcDbEntity
  8
通り芯
  6
Continuous
 62
     3
370
     9
100
AcDbLine
 10
635.5521529426849
 20
141.0717469284569
 30
0.0
 11
635.5521529426849
 21
82.87173554622518
 31
0.0
  0
LINE
  5
431
330
1F
100
AcDbEntity
  8
通り芯
  6
Continuous
 62
     3
370
     9
100
AcDbLine
 10
645.5520622147501
 20
374.5717378556635
 30
0.0
 11
639.0800262139052
 21
371.3356579952856
 31
0.0
  0
LINE
  5
432
330
1F
100
AcDbEntity
  8
通り芯
  6
Continuous
 62
     3
370
     9
100
AcDbLine
 10
635.5521529426849
 20
141.0717469284569
 30
0.0
 11
595.552144694691
 21
144.0717073380853
 31
0.0
  0
LINE
  5
433
330
1F
100
AcDbEntity
  8
通り芯
  6
Continuous
 62
     3
370
     9
100
AcDbLine
 10
605.5521776866672
 20
136.0717304324688
 30
0.0
 11
635.5521529426849
 21
136.0717304324688
 31
0.0
  0
LINE
  5
434
330
1F
100
AcDbEntity
  8
通り芯
  6
Continuous
 62
     3
370
     9
100
AcDbLine
 10
595.552144694691
 20
124.0717032140883
 30
0.0
 11
605.5521776866672
 21
125.0717312572683
 31
0.0
  0
LINE
  5
435
330
1F
100
AcDbEntity
  8
通り芯
  6
Continuous
 62
     3
370
     9
100
AcDbLine
 10
605.5521776866672
 20
125.0717312572683
 30
0.0
 11
605.5521776866672
 21
136.0717304324688
 31
0.0
  0
LINE
  5
436
330
1F
100
AcDbEntity
  8
通り芯
  6
Continuous
 62
     3
370
     9
100
AcDbLine
 10
645.5520622147501
 20
95.07175600125044
 30
0.0
 11
645.5520622147501
 21
77.57169826529184
 31
0.0
  0
LINE
  5
437
330
1F
100
AcDbEntity
  8
通り芯
  6
Continuous
 62
     3
370
     9
100
AcDbLine
 10
620.5521034547203
 20
249.571696615693
 30
0.0
 11
620.5521034547203
 21
142.1967320820676
 31
0.0
  0
ARC
  5
438
330
1F
100
AcDbEntity
  8
通り芯
  6
Continuous
 62
     3
370
     9
100
AcDbCircle
 10
623.5521875842601
 20
410.2462505641728
 30
0.0
 40
2.999999797022021
100
AcDbArc
 50
93.43362426757814
 51
180.0
  0
ARC
  5
439
330
1F
100
AcDbEntity
  8
通り芯
  6
Continuous
 62
     3
370
     9
100
AcDbCircle
 10
643.5521298483015
 20
362.3913888665377
 30
0.0
 40
9.9999991623131
100
AcDbArc
 50
116.5650482177734
 51
180.0
  0
LINE
  5
43A
330
1F
100
AcDbEntity
  8
通り芯
  6
Continuous
 62
     3
370
     9
100
AcDbLine
 10
640.2036344798169
 20
64.57170486368713
 30
0.0
 11
640.3433803029156
 21
64.57170486368713
 31
0.0
  0
LINE
  5
43B
330
1F
100
AcDbEntity
  8
通り芯
  6
Continuous
 62
     3
370
     9
100
AcDbLine
 10
-811.6721650719242
 20
417.0716306317404
 30
0.0
 11
-752.6721807431127
 21
417.0716306317404
 31
0.0
  0
LINE
  5
43C
330
1F
100
AcDbEntity
  8
通り芯
  6
Continuous
 62
     3
370
     9
100
AcDbLine
 10
-811.6721650719242
 20
375.0716900172978
 30
0.0
 11
-752.6721807431127
 21
375.0716900172978
 31
0.0
  0
LINE
  5
43D
330
1F
100
AcDbEntity
  8
通り芯
  6
Continuous
 62
     3
370
     9
100
AcDbLine
 10
-752.6721807431127
 20
375.0716900172978
 30
0.0
 11
-752.6721807431127
 21
417.0716306317404
 31
0.0
  0
LINE
  5
43E
330
1F
100
AcDbEntity
  8
通り芯
  6
Continuous
 62
     3
370
     9
100
AcDbLine
 10
-811.6721650719242
 20
375.0716900172978
 30
0.0
 11
-811.6721650719242
 21
417.0716306317404
 31
0.0
  0
LINE
  5
43F
330
1F
100
AcDbEntity
  8
通り芯
  6
Continuous
 62
     3
370
     9
100
AcDbLine
 10
58.82782729868147
 20
375.0716900172978
 30
0.0
 11
58.82782729868147
 21
417.0716306317404
 31
0.0
  0
LINE
  5
440
330
1F
100
AcDbEntity
  8
通り芯
  6
Continuous
 62
     3
370
     9
100
AcDbLine
 10
-0.1721570301298669
 20
375.0716900172978
 30
0.0
 11
-0.1721570301298669
 21
417.0716306317404
 31
0.0
  0
LINE
  5
441
330
1F
100
AcDbEntity
  8
通り芯
  6
Continuous
 62
     3
370
     9
100
AcDbLine
 10
58.82782729868147
 20
375.0716900172978
 30
0.0
 11
-0.1721570301298669
 21
375.0716900172978
 31
0.0
  0
LINE
  5
442
330
1F
100
AcDbEntity
  8
通り芯
  6
Continuous
 62
     3
370
     9
100
AcDbLine
 10
58.82782729868147
 20
417.0716306317404
 30
0.0
 11
-0.1721570301298669
 21
417.0716306317404
 31
0.0
  0
LINE
  5
443
330
1F
100
AcDbEntity
  8
通り芯
  6
Continuous
 62
     3
370
     9
100
AcDbLine
 10
58.82782729868147
 20
124.0717032140883
 30
0.0
 11
-0.1721570301298669
 21
124.0717032140883
 31
0.0
  0
LINE
  5
444
330
1F
100
AcDbEntity
  8
通り芯
  6
Continuous
 62
     3
370
     9
100
AcDbLine
 10
-0.1721570301298669
 20
124.0717032140883
 30
0.0
 11
-0.1721570301298669
 21
82.07176259964575
 31
0.0
  0
LINE
  5
445
330
1F
100
AcDbEntity
  8
通り芯
  6
Continuous
 62
     3
370
     9
100
AcDbLine
 10
58.82782729868147
 20
124.0717032140883
 30
0.0
 11
58.82782729868147
 21
82.07176259964575
 31
0.0
  0
LINE
  5
446
330
1F
100
AcDbEntity
  8
通り芯
  6
Continuous
 62
     3
370
     9
100
AcDbLine
 10
58.82782729868147
 20
82.07176259964575
 30
0.0
 11
-0.1721570301298669
 21
82.07176259964575
 31
0.0
  0
LINE
  5
447
330
1F
100
AcDbEntity
  8
通り芯
  6
Continuous
 62
     3
370
     9
100
AcDbLine
 10
-811.6721650719242
 20
124.0717032140883
 30
0.0
 11
-811.6721650719242
 21
82.07176259964575
 31
0.0
  0
LINE
  5
448
330
1F
100
AcDbEntity
  8
通り芯
  6
Continuous
 62
     3
370
     9
100
AcDbLine
 10
-752.6721807431127
 20
124.0717032140883
 30
0.0
 11
-752.6721807431127
 21
82.07176259964575
 31
0.0
  0
LINE
  5
449
330
1F
100
AcDbEntity
  8
通り芯
  6
Continuous
 62
     3
370
     9
100
AcDbLine
 10
-811.6721650719242
 20
124.0717032140883
 30
0.0
 11
-752.6721807431127
 21
124.0717032140883
 31
0.0
  0
LINE
  5
44A
330
1F
100
AcDbEntity
  8
通り芯
  6
Continuous
 62
     3
370
     9
100
AcDbLine
 10
-811.6721650719242
 20
82.07176259964575
 30
0.0
 11
-752.6721807431127
 21
82.07176259964575
 31
0.0
  0
LINE
  5
44B
330
1F
100
AcDbEntity
  8
通り芯
  6
Continuous
 62
     3
370
     9
100
AcDbLine
 10
-873.9221632161255
 20
74.57173785566346
 30
0.0
 11
-376.4221611541269
 21
74.57173785566346
 31
0.0
  0
LINE
  5
44C
330
1F
100
AcDbEntity
  8
通り芯
  6
Continuous
 62
     3
370
     9
100
AcDbLine
 10
645.5520622147501
 20
124.5717790956339
 30
0.0
 11
645.5520622147501
 21
111.0717098124836
 31
0.0
  0
LINE
  5
44D
330
1F
100
AcDbEntity
  8
仕上
  6
JWW_CENTER2
 62
     6
370
     9
100
AcDbLine
 10
-817.8751721256085
 20
103.071732906867
 30
0.0
 11
-746.5732530648243
 21
103.071732906867
 31
0.0
  0
LINE
  5
44E
330
1F
100
AcDbEntity
  8
仕上
  6
JWW_CENTER2
 62
     6
370
     9
100
AcDbLine
 10
-782.1721729075184
 20
130.1850133320676
 30
0.0
 11
-782.1721729075184
 21
78.08624937646164
 31
0.0
  0
LINE
  5
44F
330
1F
100
AcDbEntity
  8
仕上
  6
Continuous
 62
     6
370
     9
100
AcDbLine
 10
-770.1777285501362
 20
389.1467475882965
 30
0.0
 11
-770.1777285501362
 21
402.9966967806529
 31
0.0
  0
LINE
  5
450
330
1F
100
AcDbEntity
  8
仕上
  6
Continuous
 62
     6
370
     9
100
AcDbLine
 10
-770.1777285501362
 20
402.9966967806529
 30
0.0
 11
-782.1721729075184
 21
409.9217332367867
 31
0.0
  0
LINE
  5
451
330
1F
100
AcDbEntity
  8
仕上
  6
Continuous
 62
     6
370
     9
100
AcDbLine
 10
-782.1721729075184
 20
409.9217332367867
 30
0.0
 11
-794.1666327298899
 21
402.9966967806529
 31
0.0
  0
LINE
  5
452
330
1F
100
AcDbEntity
  8
仕上
  6
Continuous
 62
     6
370
     9
100
AcDbLine
 10
-794.1666327298899
 20
402.9966967806529
 30
0.0
 11
-794.1666327298899
 21
389.1467475882965
 31
0.0
  0
LINE
  5
453
330
1F
100
AcDbEntity
  8
仕上
  6
Continuous
 62
     6
370
     9
100
AcDbLine
 10
-794.1666327298899
 20
389.1467475882965
 30
0.0
 11
-782.1721729075184
 21
382.2217111321627
 31
0.0
  0
LINE
  5
454
330
1F
100
AcDbEntity
  8
仕上
  6
Continuous
 62
     6
370
     9
100
AcDbLine
 10
-782.1721729075184
 20
382.2217111321627
 30
0.0
 11
-770.1777285501362
 21
389.1467475882965
 31
0.0
  0
CIRCLE
  5
455
330
1F
100
AcDbEntity
  8
仕上
  6
Continuous
 62
     6
370
     9
100
AcDbCircle
 10
-782.1721729075184
 20
396.071660324519
 30
0.0
 40
14.99999922675056
  0
CIRCLE
  5
456
330
1F
100
AcDbEntity
  8
仕上
  6
Continuous
 62
     6
370
     9
100
AcDbCircle
 10
-782.1721729075184
 20
396.071660324519
 30
0.0
 40
11.99999918808808
  0
LINE
  5
457
330
1F
100
AcDbEntity
  8
仕上
  6
JWW_CENTER2
 62
     6
370
     9
100
AcDbLine
 10
-782.1721729075184
 20
368.9585036192299
 30
0.0
 11
-782.1721729075184
 21
421.0572675748358
 31
0.0
  0
LINE
  5
458
330
1F
100
AcDbEntity
  8
仕上
  6
JWW_CENTER2
 62
     6
370
     9
100
AcDbLine
 10
-817.8751721256085
 20
396.071660324519
 30
0.0
 11
-746.5732530648243
 21
396.071660324519
 31
0.0
  0
LINE
  5
459
330
1F
100
AcDbEntity
  8
仕上
  6
Continuous
 62
     6
370
     9
100
AcDbLine
 10
29.327804204298
 20
382.2217111321627
 30
0.0
 11
17.33334438192678
 21
389.1467475882965
 31
0.0
  0
LINE
  5
45A
330
1F
100
AcDbEntity
  8
仕上
  6
Continuous
 62
     6
370
     9
100
AcDbLine
 10
41.3222021667135
 20
389.1467475882965
 30
0.0
 11
29.327804204298
 21
382.2217111321627
 31
0.0
  0
LINE
  5
45B
330
1F
100
AcDbEntity
  8
仕上
  6
Continuous
 62
     6
370
     9
100
AcDbLine
 10
41.3222021667135
 20
402.9966967806529
 30
0.0
 11
41.3222021667135
 21
389.1467475882965
 31
0.0
  0
LINE
  5
45C
330
1F
100
AcDbEntity
  8
仕上
  6
Continuous
 62
     6
370
     9
100
AcDbLine
 10
29.327804204298
 20
409.9217332367867
 30
0.0
 11
41.3222021667135
 21
402.9966967806529
 31
0.0
  0
LINE
  5
45D
330
1F
100
AcDbEntity
  8
仕上
  6
Continuous
 62
     6
370
     9
100
AcDbLine
 10
17.33334438192678
 20
402.9966967806529
 30
0.0
 11
29.327804204298
 21
409.9217332367867
 31
0.0
  0
LINE
  5
45E
330
1F
100
AcDbEntity
  8
仕上
  6
Continuous
 62
     6
370
     9
100
AcDbLine
 10
17.33334438192678
 20
389.1467475882965
 30
0.0
 11
17.33334438192678
 21
402.9966967806529
 31
0.0
  0
CIRCLE
  5
45F
330
1F
100
AcDbEntity
  8
仕上
  6
Continuous
 62
     6
370
     9
100
AcDbCircle
 10
29.327804204298
 20
396.071660324519
 30
0.0
 40
11.99999918808808
  0
CIRCLE
  5
460
330
1F
100
AcDbEntity
  8
仕上
  6
Continuous
 62
     6
370
     9
100
AcDbCircle
 10
29.327804204298
 20
396.071660324519
 30
0.0
 40
14.99999922675056
  0
LINE
  5
461
330
1F
100
AcDbEntity
  8
仕上
  6
JWW_CENTER2
 62
     6
370
     9
100
AcDbLine
 10
65.03077249241038
 20
396.071660324519
 30
0.0
 11
-6.271115638396267
 21
396.071660324519
 31
0.0
  0
LINE
  5
462
330
1F
100
AcDbEntity
  8
仕上
  6
JWW_CENTER2
 62
     6
370
     9
100
AcDbLine
 10
29.327804204298
 20
368.9585036192299
 30
0.0
 11
29.327804204298
 21
421.0572675748358
 31
0.0
  0
LINE
  5
463
330
1F
100
AcDbEntity
  8
仕上
  6
Continuous
 62
     6
370
     9
100
AcDbLine
 10
17.33334438192678
 20
109.9967075030452
 30
0.0
 11
17.33334438192678
 21
96.14675831068885
 31
0.0
  0
LINE
  5
464
330
1F
100
AcDbEntity
  8
仕上
  6
Continuous
 62
     6
370
     9
100
AcDbLine
 10
41.3222021667135
 20
96.14675831068885
 30
0.0
 11
41.3222021667135
 21
109.9967075030452
 31
0.0
  0
LINE
  5
465
330
1F
100
AcDbEntity
  8
仕上
  6
Continuous
 62
     6
370
     9
100
AcDbLine
 10
41.3222021667135
 20
109.9967075030452
 30
0.0
 11
29.327804204298
 21
116.9217439591791
 31
0.0
  0
LINE
  5
466
330
1F
100
AcDbEntity
  8
仕上
  6
Continuous
 62
     6
370
     9
100
AcDbLine
 10
29.327804204298
 20
116.9217439591791
 30
0.0
 11
17.33334438192678
 21
109.9967075030452
 31
0.0
  0
CIRCLE
  5
467
330
1F
100
AcDbEntity
  8
仕上
  6
Continuous
 62
     6
370
     9
100
AcDbCircle
 10
29.327804204298
 20
103.071732906867
 30
0.0
 40
14.99999922675056
  0
CIRCLE
  5
468
330
1F
100
AcDbEntity
  8
仕上
  6
Continuous
 62
     6
370
     9
100
AcDbCircle
 10
29.327804204298
 20
103.071732906867
 30
0.0
 40
11.99999918808808
  0
LINE
  5
469
330
1F
100
AcDbEntity
  8
仕上
  6
Continuous
 62
     6
370
     9
100
AcDbLine
 10
17.33334438192678
 20
96.14675831068885
 30
0.0
 11
29.327804204298
 21
89.22165999459926
 31
0.0
  0
LINE
  5
46A
330
1F
100
AcDbEntity
  8
仕上
  6
Continuous
 62
     6
370
     9
100
AcDbLine
 10
29.327804204298
 20
89.22165999459926
 30
0.0
 11
41.3222021667135
 21
96.14675831068885
 31
0.0
  0
LINE
  5
46B
330
1F
100
AcDbEntity
  8
仕上
  6
JWW_CENTER2
 62
     6
370
     9
100
AcDbLine
 10
65.03077249241038
 20
103.071732906867
 30
0.0
 11
-6.271115638396267
 21
103.071732906867
 31
0.0
  0
LINE
  5
46C
330
1F
100
AcDbEntity
  8
仕上
  6
JWW_CENTER2
 62
     6
370
     9
100
AcDbLine
 10
29.327804204298
 20
130.1850133320676
 30
0.0
 11
29.327804204298
 21
78.08624937646164
 31
0.0
  0
LINE
  5
46D
330
1F
100
AcDbEntity
  8
仕上
  6
Continuous
 62
     6
370
     9
100
AcDbLine
 10
-794.1666327298899
 20
96.14675831068885
 30
0.0
 11
-794.1666327298899
 21
109.9967075030452
 31
0.0
  0
LINE
  5
46E
330
1F
100
AcDbEntity
  8
仕上
  6
Continuous
 62
     6
370
     9
100
AcDbLine
 10
-782.1721729075184
 20
89.22165999459926
 30
0.0
 11
-794.1666327298899
 21
96.14675831068885
 31
0.0
  0
LINE
  5
46F
330
1F
100
AcDbEntity
  8
仕上
  6
Continuous
 62
     6
370
     9
100
AcDbLine
 10
-770.1777285501362
 20
96.14675831068885
 30
0.0
 11
-782.1721729075184
 21
89.22165999459926
 31
0.0
  0
LINE
  5
470
330
1F
100
AcDbEntity
  8
仕上
  6
Continuous
 62
     6
370
     9
100
AcDbLine
 10
-770.1777285501362
 20
109.9967075030452
 30
0.0
 11
-770.1777285501362
 21
96.14675831068885
 31
0.0
  0
LINE
  5
471
330
1F
100
AcDbEntity
  8
仕上
  6
Continuous
 62
     6
370
     9
100
AcDbLine
 10
-782.1721729075184
 20
116.9217439591791
 30
0.0
 11
-770.1777285501362
 21
109.9967075030452
 31
0.0
  0
LINE
  5
472
330
1F
100
AcDbEntity
  8
仕上
  6
Continuous
 62
     6
370
     9
100
AcDbLine
 10
-794.1666327298899
 20
109.9967075030452
 30
0.0
 11
-782.1721729075184
 21
116.9217439591791
 31
0.0
  0
ARC
  5
473
330
1F
100
AcDbEntity
  8
仕上
  6
Continuous
 62
     6
370
     9
100
AcDbCircle
 10
-782.1721729075184
 20
103.071732906867
 30
0.0
 40
11.99999918808808
100
AcDbArc
 50
1.403289794921875
 51
0.0
  0
ARC
  5
474
330
1F
100
AcDbEntity
  8
仕上
  6
Continuous
 62
     6
370
     9
100
AcDbCircle
 10
-782.1721729075184
 20
103.071732906867
 30
0.0
 40
14.99999922675056
100
AcDbArc
 50
1.403289794921875
 51
0.0
  0
LINE
  5
475
330
1F
100
AcDbEntity
  8
仕上
  6
JWW_CENTER2
 62
     6
370
     9
100
AcDbLine
 10
598.9035933723724
 20
103.071732906867
 30
0.0
 11
667.9488303207467
 21
103.071732906867
 31
0.0
  0
LINE
  5
476
330
1F
100
AcDbEntity
  8
仕上
  6
JWW_CENTER2
 62
     6
370
     9
100
AcDbLine
 10
641.3846807219289
 20
396.071660324519
 30
0.0
 11
667.9488303207467
 21
396.071660324519
 31
0.0
  0
LINE
  5
477
330
1F
100
AcDbEntity
  8
仕上
  6
Continuous
 62
     6
370
     9
100
AcDbLine
 10
635.5521529426849
 20
113.0717658988434
 30
0.0
 11
645.5520622147501
 21
113.0717658988434
 31
0.0
  0
LINE
  5
478
330
1F
100
AcDbEntity
  8
仕上
  6
Continuous
 62
     6
370
     9
100
AcDbLine
 10
635.5521529426849
 20
93.07169991489067
 30
0.0
 11
645.5520622147501
 21
93.07169991489067
 31
0.0
  0
LINE
  5
479
330
1F
100
AcDbEntity
  8
仕上
  6
Continuous
 62
     6
370
     9
100
AcDbLine
 10
632.5520688131452
 20
118.0717823948315
 30
0.0
 11
632.5520688131452
 21
88.07174527885812
 31
0.0
  0
LINE
  5
47A
330
1F
100
AcDbEntity
  8
仕上
  6
Continuous
 62
     6
370
     9
100
AcDbLine
 10
632.5520688131452
 20
118.0717823948315
 30
0.0
 11
635.5521529426849
 21
118.0717823948315
 31
0.0
  0
LINE
  5
47B
330
1F
100
AcDbEntity
  8
仕上
  6
Continuous
 62
     6
370
     9
100
AcDbLine
 10
632.5520688131452
 20
88.07174527885812
 30
0.0
 11
635.5521529426849
 21
88.07174527885812
 31
0.0
  0
LINE
  5
47C
330
1F
100
AcDbEntity
  8
仕上
  6
Continuous
 62
     6
370
     9
100
AcDbLine
 10
661.5521397458942
 20
114.0717320820676
 30
0.0
 11
661.5521397458942
 21
92.07173373166646
 31
0.0
  0
LINE
  5
47D
330
1F
100
AcDbEntity
  8
仕上
  6
Continuous
 62
     6
370
     9
100
AcDbLine
 10
651.552106753918
 20
116.9217439591791
 30
0.0
 11
659.9067886452821
 21
116.9217439591791
 31
0.0
  0
LINE
  5
47E
330
1F
100
AcDbEntity
  8
仕上
  6
Continuous
 62
     6
370
     9
100
AcDbLine
 10
651.552106753918
 20
89.22165999459926
 30
0.0
 11
659.9067886452821
 21
89.22165999459926
 31
0.0
  0
LINE
  5
47F
330
1F
100
AcDbEntity
  8
仕上
  6
Continuous
 62
     6
370
     9
100
AcDbLine
 10
635.5521529426849
 20
111.0717098124836
 30
0.0
 11
659.8200609874484
 21
111.0717098124836
 31
0.0
  0
LINE
  5
480
330
1F
100
AcDbEntity
  8
仕上
  6
Continuous
 62
     6
370
     9
100
AcDbLine
 10
635.5521529426849
 20
95.07175600125044
 30
0.0
 11
659.8200609874484
 21
95.07175600125044
 31
0.0
  0
LINE
  5
481
330
1F
100
AcDbEntity
  8
仕上
  6
Continuous
 62
     6
370
     9
100
AcDbLine
 10
616.0822267787278
 20
115.0717601252476
 30
0.0
 11
616.0822267787278
 21
91.07176754844224
 31
0.0
  0
LINE
  5
482
330
1F
100
AcDbEntity
  8
仕上
  6
Continuous
 62
     6
370
     9
100
AcDbLine
 10
661.5521397458942
 20
114.0717320820676
 30
0.0
 11
659.9067886452821
 21
116.9217439591791
 31
0.0
  0
LINE
  5
483
330
1F
100
AcDbEntity
  8
仕上
  6
Continuous
 62
     6
370
     9
100
AcDbLine
 10
661.5521397458942
 20
92.07173373166646
 30
0.0
 11
659.9067886452821
 21
89.22165999459926
 31
0.0
  0
LINE
  5
484
330
1F
100
AcDbEntity
  8
仕上
  6
Continuous
 62
     6
370
     9
100
AcDbLine
 10
616.0822267787278
 20
115.0717601252476
 30
0.0
 11
619.5520754115403
 21
115.0717601252476
 31
0.0
  0
LINE
  5
485
330
1F
100
AcDbEntity
  8
仕上
  6
Continuous
 62
     6
370
     9
100
AcDbLine
 10
616.0822267787278
 20
91.07176754844224
 30
0.0
 11
619.5520754115403
 21
91.07176754844224
 31
0.0
  0
LINE
  5
486
330
1F
100
AcDbEntity
  8
仕上
  6
Continuous
 62
     6
370
     9
100
AcDbLine
 10
619.5520754115403
 20
92.07173373166646
 30
0.0
 11
621.1976739519755
 21
89.22165999459926
 31
0.0
  0
LINE
  5
487
330
1F
100
AcDbEntity
  8
仕上
  6
Continuous
 62
     6
370
     9
100
AcDbLine
 10
619.5520754115403
 20
114.0717320820676
 30
0.0
 11
621.1976739519755
 21
116.9217439591791
 31
0.0
  0
LINE
  5
488
330
1F
100
AcDbEntity
  8
仕上
  6
Continuous
 62
     6
370
     9
100
AcDbLine
 10
632.5520688131452
 20
95.07175600125044
 30
0.0
 11
621.2841541699864
 21
95.07175600125044
 31
0.0
  0
LINE
  5
489
330
1F
100
AcDbEntity
  8
仕上
  6
Continuous
 62
     6
370
     9
100
AcDbLine
 10
632.5520688131452
 20
111.0717098124836
 30
0.0
 11
621.2841541699864
 21
111.0717098124836
 31
0.0
  0
LINE
  5
48A
330
1F
100
AcDbEntity
  8
仕上
  6
Continuous
 62
     6
370
     9
100
AcDbLine
 10
632.5520688131452
 20
89.22165999459926
 30
0.0
 11
621.1976739519755
 21
89.22165999459926
 31
0.0
  0
LINE
  5
48B
330
1F
100
AcDbEntity
  8
仕上
  6
Continuous
 62
     6
370
     9
100
AcDbLine
 10
632.5520688131452
 20
116.9217439591791
 30
0.0
 11
621.1976739519755
 21
116.9217439591791
 31
0.0
  0
LINE
  5
48C
330
1F
100
AcDbEntity
  8
仕上
  6
Continuous
 62
     6
370
     9
100
AcDbLine
 10
619.5520754115403
 20
115.0717601252476
 30
0.0
 11
619.5520754115403
 21
91.07176754844224
 31
0.0
  0
LINE
  5
48D
330
1F
100
AcDbEntity
  8
仕上
  6
Continuous
 62
     6
370
     9
100
AcDbLine
 10
635.5521529426849
 20
110.0717436292593
 30
0.0
 11
651.552106753918
 21
110.0717436292593
 31
0.0
  0
LINE
  5
48E
330
1F
100
AcDbEntity
  8
仕上
  6
Continuous
 62
     6
370
     9
100
AcDbLine
 10
635.5521529426849
 20
96.0717221844748
 30
0.0
 11
651.552106753918
 21
96.0717221844748
 31
0.0
  0
LINE
  5
48F
330
1F
100
AcDbEntity
  8
仕上
  6
Continuous
 62
     6
370
     9
100
AcDbLine
 10
661.5521397458942
 20
407.0715976397639
 30
0.0
 11
659.9067886452821
 21
409.9217332367867
 31
0.0
  0
LINE
  5
490
330
1F
100
AcDbEntity
  8
仕上
  6
Continuous
 62
     6
370
     9
100
AcDbLine
 10
661.5521397458942
 20
385.0717230092741
 30
0.0
 11
659.9067886452821
 21
382.2217111321627
 31
0.0
  0
LINE
  5
491
330
1F
100
AcDbEntity
  8
仕上
  6
Continuous
 62
     6
370
     9
100
AcDbLine
 10
651.552106753918
 20
404.0716372301355
 30
0.0
 11
659.8200609874484
 21
404.0716372301355
 31
0.0
  0
LINE
  5
492
330
1F
100
AcDbEntity
  8
仕上
  6
Continuous
 62
     6
370
     9
100
AcDbLine
 10
651.552106753918
 20
388.0716834189025
 30
0.0
 11
659.8200609874484
 21
388.0716834189025
 31
0.0
  0
LINE
  5
493
330
1F
100
AcDbEntity
  8
仕上
  6
Continuous
 62
     6
370
     9
100
AcDbLine
 10
651.552106753918
 20
409.9217332367867
 30
0.0
 11
659.9067886452821
 21
409.9217332367867
 31
0.0
  0
LINE
  5
494
330
1F
100
AcDbEntity
  8
仕上
  6
Continuous
 62
     6
370
     9
100
AcDbLine
 10
651.552106753918
 20
382.2217111321627
 30
0.0
 11
659.9067886452821
 21
382.2217111321627
 31
0.0
  0
LINE
  5
495
330
1F
100
AcDbEntity
  8
仕上
  6
Continuous
 62
     6
370
     9
100
AcDbLine
 10
661.5521397458942
 20
385.0717230092741
 30
0.0
 11
661.5521397458942
 21
407.0715976397639
 31
0.0
  0
ARC
  5
496
330
1F
100
AcDbEntity
  8
仕上
  6
Continuous
 62
     6
370
     9
100
AcDbCircle
 10
616.0854434964223
 20
103.071732906867
 30
0.0
 40
11.53333348196906
100
AcDbArc
 50
90.01655578613281
 51
269.9834289550781
  0
ARC
  5
497
330
1F
100
AcDbEntity
  8
仕上
  6
Continuous
 62
     6
370
     9
100
AcDbCircle
 10
658.1745861669248
 20
92.12171657583872
 30
0.0
 40
3.377868919759184
100
AcDbArc
 50
359.1518554687501
 51
60.84812927246097
  0
ARC
  5
498
330
1F
100
AcDbEntity
  8
仕上
  6
Continuous
 62
     6
370
     9
100
AcDbCircle
 10
642.2108822897078
 20
103.071732906867
 30
0.0
 40
19.34123232557967
100
AcDbArc
 50
335.5672912597657
 51
24.43269348144536
  0
ARC
  5
499
330
1F
100
AcDbEntity
  8
仕上
  6
Continuous
 62
     6
370
     9
100
AcDbCircle
 10
658.1745861669248
 20
114.0217492378953
 30
0.0
 40
3.377868919759184
100
AcDbArc
 50
299.15185546875
 51
0.8481292724609363
  0
ARC
  5
49A
330
1F
100
AcDbEntity
  8
仕上
  6
Continuous
 62
     6
370
     9
100
AcDbCircle
 10
622.9297527104213
 20
114.0217492378953
 30
0.0
 40
3.377868919759184
100
AcDbArc
 50
179.15185546875
 51
240.848129272461
  0
ARC
  5
49B
330
1F
100
AcDbEntity
  8
仕上
  6
Continuous
 62
     6
370
     9
100
AcDbCircle
 10
638.8934565876385
 20
103.071732906867
 30
0.0
 40
19.34123232557967
100
AcDbArc
 50
155.5672912597656
 51
204.4326934814453
  0
ARC
  5
49C
330
1F
100
AcDbEntity
  8
仕上
  6
Continuous
 62
     6
370
     9
100
AcDbCircle
 10
622.9297527104213
 20
92.12171657583872
 30
0.0
 40
3.377868919759184
100
AcDbArc
 50
119.15185546875
 51
180.8481292724609
  0
ARC
  5
49D
330
1F
100
AcDbEntity
  8
仕上
  6
Continuous
 62
     6
370
     9
100
AcDbCircle
 10
658.1745861669248
 20
385.1217058534464
 30
0.0
 40
3.377868919759184
100
AcDbArc
 50
359.1518554687501
 51
60.84812927246097
  0
ARC
  5
49E
330
1F
100
AcDbEntity
  8
仕上
  6
Continuous
 62
     6
370
     9
100
AcDbCircle
 10
642.2108822897078
 20
396.071660324519
 30
0.0
 40
19.34123232557967
100
AcDbArc
 50
335.5672912597657
 51
24.43269348144536
  0
ARC
  5
49F
330
1F
100
AcDbEntity
  8
仕上
  6
Continuous
 62
     6
370
     9
100
AcDbCircle
 10
658.1745861669248
 20
407.021738515503
 30
0.0
 40
3.377868919759184
100
AcDbArc
 50
299.15185546875
 51
0.8481292724609363
  0
TEXT
  5
4A0
330
1F
100
AcDbEntity
  8
寸法
  6
Continuous
 62
     7
370
     9
100
AcDbText
 10
214.8844042404113
 20
-133.6257682990254
 30
0.0
 40
11.43
  1
Ｕナット：Ｓ２０Ｃ，電気亜鉛めっき
 41
1.156862745098039
  7
ＭＳ ゴシック
100
AcDbText
  0
TEXT
  5
4A1
330
1F
100
AcDbEntity
  8
寸法
  6
Continuous
 62
     7
370
     9
100
AcDbText
 10
214.8844042404113
 20
-161.7601091523299
 30
0.0
 40
11.43
  1
　　座金：ＳＰＣＣ，電気亜鉛めっき
 41
1.156862745098039
  7
ＭＳ ゴシック
100
AcDbText
  0
LINE
  5
4A2
330
1F
100
AcDbEntity
  8
寸法
  6
Continuous
 62
     7
370
     9
100
AcDbLine
 10
212.6448825683858
 20
-142.3886102938523
 30
0.0
 11
515.3936477673852
 21
-142.3886102938523
 31
0.0
  0
TEXT
  5
4A3
330
1F
100
AcDbEntity
  8
寸法
  6
Continuous
 62
     7
370
     9
100
AcDbText
 10
842.7956264130248
 20
-65.59358531402822
 30
0.0
 40
11.43
  1
Ｍ１６×３５
 41
1.138888888888889
  7
ＭＳ ゴシック
100
AcDbText
  0
TEXT
  5
4A4
330
1F
100
AcDbEntity
  8
寸法
  6
Continuous
 62
     7
370
     9
100
AcDbText
 10
737.1900561478832
 20
-48.01704220398668
 30
0.0
 40
11.43
  1
電気亜鉛めっき，
 41
1.145833333333333
  7
ＭＳ ゴシック
100
AcDbText
  0
TEXT
  5
4A5
330
1F
100
AcDbEntity
  8
寸法
  6
Continuous
 62
     7
370
     9
100
AcDbText
 10
505.4181281361823
 20
-551.6959904169925
 30
0.0
 40
11.43
  1
標準質量：３０．０ｋｇ
 41
1.151515151515152
  7
ＭＳ ゴシック
100
AcDbText
  0
ENDSEC
  0
SECTION
  2
OBJECTS
  0
DICTIONARY
  5
C
330
0
100
AcDbDictionary
281
     1
  3
ACAD_GROUP
350
D
  3
ACAD_LAYOUT
350
1A
  3
ACAD_MLEADERSTYLE
350
4A7
  3
ACAD_MLINESTYLE
350
17
  3
ACAD_PLOTSETTINGS
350
19
  3
ACAD_PLOTSTYLENAME
350
E
  3
ACAD_TABLESTYLE
350
4A6
  3
ACAD_VISUALSTYLE
350
2A
  0
DICTIONARY
  5
D
102
{ACAD_REACTORS
330
C
102
}
330
C
100
AcDbDictionary
281
     1
  0
DICTIONARY
  5
1A
102
{ACAD_REACTORS
330
C
102
}
330
C
100
AcDbDictionary
281
     1
  3
Layout1
350
1E
  3
Layout2
350
26
  3
Model
350
22
  0
DICTIONARY
  5
4A7
102
{ACAD_REACTORS
330
C
102
}
330
C
100
AcDbDictionary
281
     1
  0
DICTIONARY
  5
17
102
{ACAD_REACTORS
330
C
102
}
330
C
100
AcDbDictionary
281
     1
  3
Standard
350
18
  0
DICTIONARY
  5
19
102
{ACAD_REACTORS
330
C
102
}
330
C
100
AcDbDictionary
281
     1
  0
ACDBDICTIONARYWDFLT
  5
E
102
{ACAD_REACTORS
330
C
102
}
330
C
100
AcDbDictionary
281
     1
  3
Normal
350
F
100
AcDbDictionaryWithDefault
340
F
  0
DICTIONARY
  5
4A6
102
{ACAD_REACTORS
330
C
102
}
330
C
100
AcDbDictionary
281
     1
  0
DICTIONARY
  5
2A
102
{ACAD_REACTORS
330
C
102
}
330
C
100
AcDbDictionary
281
     1
  3
2dWireframe
350
2F
  3
3D Hidden
350
31
  3
3dWireframe
350
30
  3
Basic
350
32
  3
Brighten
350
36
  3
ColorChange
350
3A
  3
Conceptual
350
34
  3
Dim
350
35
  3
Facepattern
350
39
  3
Flat
350
2B
  3
FlatWithEdges
350
2C
  3
Gouraud
350
2D
  3
GouraudWithEdges
350
2E
  3
Linepattern
350
38
  3
Realistic
350
33
  3
Thicken
350
37
  0
LAYOUT
  5
1E
102
{ACAD_REACTORS
330
1A
102
}
330
1A
100
AcDbPlotSettings
  1

  2
none_device
  4

  6

 40
0.0
 41
0.0
 42
0.0
 43
0.0
 44
0.0
 45
0.0
 46
0.0
 47
0.0
 48
0.0
 49
0.0
140
0.0
141
0.0
142
1.0
143
1.0
 70
   688
 72
     0
 73
     0
 74
     5
  7

 75
    16
 76
     0
 77
     5
 78
   300
147
1.0
148
0.0
149
0.0
100
AcDbLayout
  1
Layout1
 70
     1
 71
     1
 10
0.0
 20
0.0
 11
420.0
 21
297.0
 12
0.0
 22
0.0
 32
0.0
 14
1.000000000000000E+20
 24
1.000000000000000E+20
 34
1.000000000000000E+20
 15
-1.000000000000000E+20
 25
-1.000000000000000E+20
 35
-1.000000000000000E+20
146
0.0
 13
0.0
 23
0.0
 33
0.0
 16
1.0
 26
0.0
 36
0.0
 17
0.0
 27
1.0
 37
0.0
 76
     0
330
1B
  0
LAYOUT
  5
26
102
{ACAD_REACTORS
330
1A
102
}
330
1A
100
AcDbPlotSettings
  1

  2
none_device
  4

  6

 40
0.0
 41
0.0
 42
0.0
 43
0.0
 44
0.0
 45
0.0
 46
0.0
 47
0.0
 48
0.0
 49
0.0
140
0.0
141
0.0
142
1.0
143
1.0
 70
   688
 72
     0
 73
     0
 74
     5
  7

 75
    16
 76
     0
 77
     5
 78
   300
147
1.0
148
0.0
149
0.0
100
AcDbLayout
  1
Layout2
 70
     1
 71
     2
 10
0.0
 20
0.0
 11
0.0
 21
0.0
 12
0.0
 22
0.0
 32
0.0
 14
0.0
 24
0.0
 34
0.0
 15
0.0
 25
0.0
 35
0.0
146
0.0
 13
0.0
 23
0.0
 33
0.0
 16
1.0
 26
0.0
 36
0.0
 17
0.0
 27
1.0
 37
0.0
 76
     0
330
23
  0
LAYOUT
  5
22
102
{ACAD_REACTORS
330
1A
102
}
330
1A
100
AcDbPlotSettings
  1

  2
none_device
  4

  6

 40
0.0
 41
0.0
 42
0.0
 43
0.0
 44
0.0
 45
0.0
 46
0.0
 47
0.0
 48
0.0
 49
0.0
140
0.0
141
0.0
142
1.0
143
1.0
 70
  1712
 72
     0
 73
     0
 74
     0
  7

 75
     0
 76
     0
 77
     5
 78
   300
147
1.0
148
0.0
149
0.0
100
AcDbLayout
  1
Model
 70
     1
 71
     0
 10
-1050.0
 20
-742.5
 11
1050.0
 21
742.5
 12
0.0
 22
0.0
 32
0.0
 14
-1050.0
 24
-742.5
 34
0.0
 15
1050.0
 25
742.5
 35
0.0
146
0.0
 13
0.0
 23
0.0
 33
0.0
 16
1.0
 26
0.0
 36
0.0
 17
0.0
 27
1.0
 37
0.0
 76
     0
330
1F
331
29
  0
MLINESTYLE
  5
18
102
{ACAD_REACTORS
330
17
102
}
330
17
100
AcDbMlineStyle
  2
Standard
 70
     0
  3

 62
   256
 51
90.0
 52
90.0
 71
     2
 49
0.5
 62
   256
  6
BYLAYER
 49
-0.5
 62
   256
  6
BYLAYER
  0
ACDBPLACEHOLDER
  5
F
102
{ACAD_REACTORS
330
E
102
}
330
E
  0
VISUALSTYLE
  5
2F
102
{ACAD_REACTORS
330
2A
102
}
330
2A
100
AcDbVisualStyle
  2
2dWireframe
 70
     4
 71
     0
 72
     2
 73
     0
 90
        0
 40
-0.6
 41
-30.0
 62
     5
 63
     7
421
 16777215
 74
     1
 91
        4
 64
     7
 65
   257
 75
     1
175
     1
 42
1.0
 92
        0
 66
   257
 43
1.0
 76
     1
 77
     6
 78
     2
 67
     7
 79
     5
170
     0
171
     0
290
     0
174
     0
 93
        1
 44
0.0
173
     0
291
     0
 45
0.0
1001
ACAD
1000
AcDbSavedByObjectVersion
1070
     0
  0
VISUALSTYLE
  5
31
102
{ACAD_REACTORS
330
2A
102
}
330
2A
100
AcDbVisualStyle
  2
3D Hidden
 70
     6
 71
     1
 72
     2
 73
     2
 90
        0
 40
-0.6
 41
-30.0
 62
     5
 63
     7
421
 16777215
 74
     2
 91
        2
 64
     7
 65
   257
 75
     2
175
     1
 42
40.0
 92
        0
 66
   257
 43
1.0
 76
     1
 77
     6
 78
     2
 67
     7
 79
     3
170
     0
171
     0
290
     0
174
     0
 93
        1
 44
0.0
173
     0
291
     0
 45
0.0
1001
ACAD
1000
AcDbSavedByObjectVersion
1070
     0
  0
VISUALSTYLE
  5
30
102
{ACAD_REACTORS
330
2A
102
}
330
2A
100
AcDbVisualStyle
  2
3dWireframe
 70
     5
 71
     0
 72
     2
 73
     0
 90
        0
 40
-0.6
 41
-30.0
 62
     5
 63
     7
421
 16777215
 74
     1
 91
        4
 64
     7
 65
   257
 75
     1
175
     1
 42
1.0
 92
        0
 66
   257
 43
1.0
 76
     1
 77
     6
 78
     2
 67
     7
 79
     5
170
     0
171
     0
290
     0
174
     0
 93
        1
 44
0.0
173
     0
291
     0
 45
0.0
1001
ACAD
1000
AcDbSavedByObjectVersion
1070
     0
  0
VISUALSTYLE
  5
32
102
{ACAD_REACTORS
330
2A
102
}
330
2A
100
AcDbVisualStyle
  2
Basic
 70
     7
 71
     1
 72
     0
 73
     1
 90
        0
 40
-0.6
 41
-30.0
 62
     5
 63
     7
421
 16777215
 74
     0
 91
        4
 64
     7
 65
   257
 75
     1
175
     1
 42
1.0
 92
        8
 66
     7
 43
1.0
 76
     1
 77
     6
 78
     2
 67
     7
 79
     5
170
     0
171
     0
290
     0
174
     0
 93
        1
 44
0.0
173
     0
291
     1
 45
0.0
1001
ACAD
1000
AcDbSavedByObjectVersion
1070
     0
  0
VISUALSTYLE
  5
36
102
{ACAD_REACTORS
330
2A
102
}
330
2A
100
AcDbVisualStyle
  2
Brighten
 70
    12
 71
     2
 72
     2
 73
     0
 90
        0
 40
-0.6
 41
-30.0
 62
     5
 63
     7
421
 16777215
 74
     1
 91
        4
 64
     7
 65
   257
 75
     1
175
     1
 42
1.0
 92
        8
 66
     7
 43
1.0
 76
     1
 77
     6
 78
     2
 67
     7
 79
     5
170
     0
171
     0
290
     0
174
     0
 93
        1
 44
50.0
173
     0
291
     1
 45
0.0
1001
ACAD
1000
AcDbSavedByObjectVersion
1070
     0
  0
VISUALSTYLE
  5
3A
102
{ACAD_REACTORS
330
2A
102
}
330
2A
100
AcDbVisualStyle
  2
ColorChange
 70
    16
 71
     2
 72
     2
 73
     3
 90
        0
 40
-0.6
 41
-30.0
 62
     5
 63
     8
421
  8421504
 74
     1
 91
        4
 64
     7
 65
   257
 75
     1
175
     1
 42
1.0
 92
        8
 66
     8
424
  8421504
 43
1.0
 76
     1
 77
     6
 78
     2
 67
     7
 79
     5
170
     0
171
     0
290
     0
174
     0
 93
        1
 44
0.0
173
     0
291
     1
 45
0.0
1001
ACAD
1000
AcDbSavedByObjectVersion
1070
     0
  0
VISUALSTYLE
  5
34
102
{ACAD_REACTORS
330
2A
102
}
330
2A
100
AcDbVisualStyle
  2
Conceptual
 70
     9
 71
     3
 72
     2
 73
     0
 90
        0
 40
-0.6
 41
-30.0
 62
     5
 63
     7
421
 16777215
 74
     2
 91
        2
 64
     7
 65
   257
 75
     1
175
     1
 42
40.0
 92
        8
 66
     7
 43
1.0
 76
     1
 77
     6
 78
     2
 67
     7
 79
     3
170
     0
171
     0
290
     0
174
     0
 93
        1
 44
0.0
173
     0
291
     0
 45
0.0
1001
ACAD
1000
AcDbSavedByObjectVersion
1070
     0
  0
VISUALSTYLE
  5
35
102
{ACAD_REACTORS
330
2A
102
}
330
2A
100
AcDbVisualStyle
  2
Dim
 70
    11
 71
     2
 72
     2
 73
     0
 90
        0
 40
-0.6
 41
-30.0
 62
     5
 63
     7
421
 16777215
 74
     1
 91
        4
 64
     7
 65
   257
 75
     1
175
     1
 42
1.0
 92
        8
 66
     7
 43
1.0
 76
     1
 77
     6
 78
     2
 67
     7
 79
     5
170
     0
171
     0
290
     0
174
     0
 93
        1
 44
-50.0
173
     0
291
     1
 45
0.0
1001
ACAD
1000
AcDbSavedByObjectVersion
1070
     0
  0
VISUALSTYLE
  5
39
102
{ACAD_REACTORS
330
2A
102
}
330
2A
100
AcDbVisualStyle
  2
Facepattern
 70
    15
 71
     2
 72
     2
 73
     0
 90
        0
 40
-0.6
 41
-30.0
 62
     5
 63
     7
421
 16777215
 74
     1
 91
        4
 64
     7
 65
   257
 75
     1
175
     1
 42
1.0
 92
        8
 66
     7
 43
1.0
 76
     1
 77
     6
 78
     2
 67
     7
 79
     5
170
     0
171
     0
290
     0
174
     0
 93
        1
 44
0.0
173
     0
291
     1
 45
0.0
1001
ACAD
1000
AcDbSavedByObjectVersion
1070
     0
  0
VISUALSTYLE
  5
2B
102
{ACAD_REACTORS
330
2A
102
}
330
2A
100
AcDbVisualStyle
  2
Flat
 70
     0
 71
     2
 72
     1
 73
     1
 90
        2
 40
-0.6
 41
30.0
 62
     5
 63
     7
421
 16777215
 74
     0
 91
        4
 64
     7
 65
   257
 75
     1
175
     1
 42
1.0
 92
        8
 66
     7
 43
1.0
 76
     1
 77
     6
 78
     2
 67
     7
 79
     5
170
     0
171
     0
290
     0
174
     0
 93
       13
 44
0.0
173
     0
291
     1
 45
0.0
1001
ACAD
1000
AcDbSavedByObjectVersion
1070
     0
  0
VISUALSTYLE
  5
2C
102
{ACAD_REACTORS
330
2A
102
}
330
2A
100
AcDbVisualStyle
  2
FlatWithEdges
 70
     1
 71
     2
 72
     1
 73
     1
 90
        2
 40
-0.6
 41
30.0
 62
     5
 63
     7
421
 16777215
 74
     1
 91
        4
 64
     7
 65
   257
 75
     1
175
     1
 42
1.0
 92
        0
 66
   257
 43
1.0
 76
     1
 77
     6
 78
     2
 67
     7
 79
     5
170
     0
171
     0
290
     0
174
     0
 93
       13
 44
0.0
173
     0
291
     1
 45
0.0
1001
ACAD
1000
AcDbSavedByObjectVersion
1070
     0
  0
VISUALSTYLE
  5
2D
102
{ACAD_REACTORS
330
2A
102
}
330
2A
100
AcDbVisualStyle
  2
Gouraud
 70
     2
 71
     2
 72
     2
 73
     1
 90
        2
 40
-0.6
 41
30.0
 62
     5
 63
     7
421
 16777215
 74
     0
 91
        4
 64
     7
 65
   257
 75
     1
175
     1
 42
1.0
 92
        0
 66
     7
 43
1.0
 76
     1
 77
     6
 78
     2
 67
     7
 79
     5
170
     0
171
     0
290
     0
174
     0
 93
       13
 44
0.0
173
     0
291
     1
 45
0.0
1001
ACAD
1000
AcDbSavedByObjectVersion
1070
     0
  0
VISUALSTYLE
  5
2E
102
{ACAD_REACTORS
330
2A
102
}
330
2A
100
AcDbVisualStyle
  2
GouraudWithEdges
 70
     3
 71
     2
 72
     2
 73
     1
 90
        2
 40
-0.6
 41
30.0
 62
     5
 63
     7
421
 16777215
 74
     1
 91
        4
 64
     7
 65
   257
 75
     1
175
     1
 42
1.0
 92
        0
 66
   257
 43
1.0
 76
     1
 77
     6
 78
     2
 67
     7
 79
     5
170
     0
171
     0
290
     0
174
     0
 93
       13
 44
0.0
173
     0
291
     1
 45
0.0
1001
ACAD
1000
AcDbSavedByObjectVersion
1070
     0
  0
VISUALSTYLE
  5
38
102
{ACAD_REACTORS
330
2A
102
}
330
2A
100
AcDbVisualStyle
  2
Linepattern
 70
    14
 71
     2
 72
     2
 73
     0
 90
        0
 40
-0.6
 41
-30.0
 62
     5
 63
     7
421
 16777215
 74
     1
 91
        4
 64
     7
 65
   257
 75
     7
175
     7
 42
1.0
 92
        8
 66
     7
 43
1.0
 76
     1
 77
     6
 78
     2
 67
     7
 79
     5
170
     0
171
     0
290
     0
174
     0
 93
        1
 44
0.0
173
     0
291
     1
 45
0.0
1001
ACAD
1000
AcDbSavedByObjectVersion
1070
     0
  0
VISUALSTYLE
  5
33
102
{ACAD_REACTORS
330
2A
102
}
330
2A
100
AcDbVisualStyle
  2
Realistic
 70
     8
 71
     2
 72
     2
 73
     0
 90
        0
 40
-0.6
 41
-30.0
 62
     5
 63
     7
421
 16777215
 74
     1
 91
        0
 64
     7
 65
   257
 75
     1
175
     1
 42
1.0
 92
        8
 66
     8
424
  7895160
 43
1.0
 76
     1
 77
     6
 78
     2
 67
     7
 79
     5
170
     0
171
     0
290
     0
174
     0
 93
       13
 44
0.0
173
     0
291
     0
 45
0.0
1001
ACAD
1000
AcDbSavedByObjectVersion
1070
     0
  0
VISUALSTYLE
  5
37
102
{ACAD_REACTORS
330
2A
102
}
330
2A
100
AcDbVisualStyle
  2
Thicken
 70
    13
 71
     2
 72
     2
 73
     0
 90
        0
 40
-0.6
 41
-30.0
 62
     5
 63
     7
421
 16777215
 74
     1
 91
        4
 64
     7
 65
   257
 75
     1
175
     1
 42
1.0
 92
       12
 66
     7
 43
1.0
 76
     1
 77
     6
 78
     2
 67
     7
 79
     5
170
     0
171
     0
290
     0
174
     0
 93
        1
 44
0.0
173
     0
291
     1
 45
0.0
1001
ACAD
1000
AcDbSavedByObjectVersion
1070
     0
  0
ENDSEC
  0
EOF
