  0
SECTION
  2
HEADER
  9
$ACADVER
  1
AC1018
  9
$ACADMAINTVER
 70
     0
  9
$DWGCODEPAGE
  3
ANSI_932
  9
$INSBASE
 10
0.0
 20
0.0
 30
0.0
  9
$EXTMIN
 10
-1050.0
 20
-742.5
 30
0.0
  9
$EXTMAX
 10
1050.0
 20
742.5
 30
0.0
  9
$LIMMIN
 10
-1050.0
 20
-742.5
  9
$LIMMAX
 10
1050.0
 20
742.5
  9
$ORTHOMODE
 70
     0
  9
$REGENMODE
 70
     1
  9
$FILLMODE
 70
     1
  9
$QTEXTMODE
 70
     0
  9
$MIRRTEXT
 70
     1
  9
$LTSCALE
 40
5.0
  9
$ATTMODE
 70
     1
  9
$TEXTSIZE
 40
2.5
  9
$TRACEWID
 40
1.0
  9
$TEXTSTYLE
  7
Standard
  9
$CLAYER
  8
0
  9
$CELTYPE
  6
ByLayer
  9
$CECOLOR
 62
   256
  9
$CELTSCALE
 40
1.0
  9
$DISPSILH
 70
     0
  9
$DIMSCALE
 40
1.0
  9
$DIMASZ
 40
2.5
  9
$DIMEXO
 40
0.625
  9
$DIMDLI
 40
3.75
  9
$DIMRND
 40
0.0
  9
$DIMDLE
 40
0.0
  9
$DIMEXE
 40
1.25
  9
$DIMTP
 40
0.0
  9
$DIMTM
 40
0.0
  9
$DIMTXT
 40
2.5
  9
$DIMCEN
 40
2.5
  9
$DIMTSZ
 40
0.0
  9
$DIMTOL
 70
     0
  9
$DIMLIM
 70
     0
  9
$DIMTIH
 70
     0
  9
$DIMTOH
 70
     0
  9
$DIMSE1
 70
     0
  9
$DIMSE2
 70
     0
  9
$DIMTAD
 70
     1
  9
$DIMZIN
 70
     8
  9
$DIMBLK
  1

  9
$DIMASO
 70
     1
  9
$DIMSHO
 70
     1
  9
$DIMPOST
  1

  9
$DIMAPOST
  1

  9
$DIMALT
 70
     0
  9
$DIMALTD
 70
     3
  9
$DIMALTF
 40
0.03937007874016
  9
$DIMLFAC
 40
1.0
  9
$DIMTOFL
 70
     1
  9
$DIMTVP
 40
0.0
  9
$DIMTIX
 70
     0
  9
$DIMSOXD
 70
     0
  9
$DIMSAH
 70
     0
  9
$DIMBLK1
  1

  9
$DIMBLK2
  1

  9
$DIMSTYLE
  2
ISO-25
  9
$DIMCLRD
 70
     0
  9
$DIMCLRE
 70
     0
  9
$DIMCLRT
 70
     0
  9
$DIMTFAC
 40
1.0
  9
$DIMGAP
 40
0.625
  9
$DIMJUST
 70
     0
  9
$DIMSD1
 70
     0
  9
$DIMSD2
 70
     0
  9
$DIMTOLJ
 70
     0
  9
$DIMTZIN
 70
     8
  9
$DIMALTZ
 70
     0
  9
$DIMALTTZ
 70
     0
  9
$DIMUPT
 70
     0
  9
$DIMDEC
 70
     2
  9
$DIMTDEC
 70
     2
  9
$DIMALTU
 70
     2
  9
$DIMALTTD
 70
     3
  9
$DIMTXSTY
  7
Standard
  9
$DIMAUNIT
 70
     0
  9
$DIMADEC
 70
     0
  9
$DIMALTRND
 40
0.0
  9
$DIMAZIN
 70
     0
  9
$DIMDSEP
 70
    44
  9
$DIMATFIT
 70
     3
  9
$DIMFRAC
 70
     0
  9
$DIMLDRBLK
  1

  9
$DIMLUNIT
 70
     2
  9
$DIMLWD
 70
    -2
  9
$DIMLWE
 70
    -2
  9
$DIMTMOVE
 70
     0
  9
$LUNITS
 70
     2
  9
$LUPREC
 70
     4
  9
$SKETCHINC
 40
1.0
  9
$FILLETRAD
 40
10.0
  9
$AUNITS
 70
     0
  9
$AUPREC
 70
     0
  9
$MENU
  1
.
  9
$ELEVATION
 40
0.0
  9
$PELEVATION
 40
0.0
  9
$THICKNESS
 40
0.0
  9
$LIMCHECK
 70
     0
  9
$CHAMFERA
 40
10.0
  9
$CHAMFERB
 40
10.0
  9
$CHAMFERC
 40
20.0
  9
$CHAMFERD
 40
0.0
  9
$SKPOLY
 70
     0
  9
$TDCREATE
 40
2457590.728222083
  9
$TDUCREATE
 40
2457590.353222083
  9
$TDUPDATE
 40
2457590.728222095
  9
$TDUUPDATE
 40
2457590.353222095
  9
$TDINDWG
 40
0.0000000116
  9
$TDUSRTIMER
 40
0.0000000116
  9
$USRTIMER
 70
     1
  9
$ANGBASE
 50
0.0
  9
$ANGDIR
 70
     0
  9
$PDMODE
 70
     0
  9
$PDSIZE
 40
0.0
  9
$PLINEWID
 40
0.0
  9
$SPLFRAME
 70
     0
  9
$SPLINETYPE
 70
     6
  9
$SPLINESEGS
 70
     8
  9
$HANDSEED
  5
446
  9
$SURFTAB1
 70
     6
  9
$SURFTAB2
 70
     6
  9
$SURFTYPE
 70
     6
  9
$SURFU
 70
     6
  9
$SURFV
 70
     6
  9
$UCSBASE
  2

  9
$UCSNAME
  2

  9
$UCSORG
 10
0.0
 20
0.0
 30
0.0
  9
$UCSXDIR
 10
1.0
 20
0.0
 30
0.0
  9
$UCSYDIR
 10
0.0
 20
1.0
 30
0.0
  9
$UCSORTHOREF
  2

  9
$UCSORTHOVIEW
 70
     0
  9
$UCSORGTOP
 10
0.0
 20
0.0
 30
0.0
  9
$UCSORGBOTTOM
 10
0.0
 20
0.0
 30
0.0
  9
$UCSORGLEFT
 10
0.0
 20
0.0
 30
0.0
  9
$UCSORGRIGHT
 10
0.0
 20
0.0
 30
0.0
  9
$UCSORGFRONT
 10
0.0
 20
0.0
 30
0.0
  9
$UCSORGBACK
 10
0.0
 20
0.0
 30
0.0
  9
$PUCSBASE
  2

  9
$PUCSNAME
  2

  9
$PUCSORG
 10
0.0
 20
0.0
 30
0.0
  9
$PUCSXDIR
 10
1.0
 20
0.0
 30
0.0
  9
$PUCSYDIR
 10
0.0
 20
1.0
 30
0.0
  9
$PUCSORTHOREF
  2

  9
$PUCSORTHOVIEW
 70
     0
  9
$PUCSORGTOP
 10
0.0
 20
0.0
 30
0.0
  9
$PUCSORGBOTTOM
 10
0.0
 20
0.0
 30
0.0
  9
$PUCSORGLEFT
 10
0.0
 20
0.0
 30
0.0
  9
$PUCSORGRIGHT
 10
0.0
 20
0.0
 30
0.0
  9
$PUCSORGFRONT
 10
0.0
 20
0.0
 30
0.0
  9
$PUCSORGBACK
 10
0.0
 20
0.0
 30
0.0
  9
$USERI1
 70
     0
  9
$USERI2
 70
     0
  9
$USERI3
 70
     0
  9
$USERI4
 70
     0
  9
$USERI5
 70
     0
  9
$USERR1
 40
0.0
  9
$USERR2
 40
0.0
  9
$USERR3
 40
0.0
  9
$USERR4
 40
0.0
  9
$USERR5
 40
0.0
  9
$WORLDVIEW
 70
     1
  9
$SHADEDGE
 70
     3
  9
$SHADEDIF
 70
    70
  9
$TILEMODE
 70
     1
  9
$MAXACTVP
 70
    64
  9
$PINSBASE
 10
0.0
 20
0.0
 30
0.0
  9
$PLIMCHECK
 70
     0
  9
$PEXTMIN
 10
1.000000000000000E+20
 20
1.000000000000000E+20
 30
1.000000000000000E+20
  9
$PEXTMAX
 10
-1.000000000000000E+20
 20
-1.000000000000000E+20
 30
-1.000000000000000E+20
  9
$PLIMMIN
 10
0.0
 20
0.0
  9
$PLIMMAX
 10
420.0
 20
297.0
  9
$UNITMODE
 70
     0
  9
$VISRETAIN
 70
     1
  9
$PLINEGEN
 70
     0
  9
$PSLTSCALE
 70
     1
  9
$TREEDEPTH
 70
  3020
  9
$CMLSTYLE
  2
Standard
  9
$CMLJUST
 70
     0
  9
$CMLSCALE
 40
20.0
  9
$PROXYGRAPHICS
 70
     1
  9
$MEASUREMENT
 70
     1
  9
$CELWEIGHT
370
    -1
  9
$ENDCAPS
280
     0
  9
$JOINSTYLE
280
     0
  9
$LWDISPLAY
290
     0
  9
$INSUNITS
 70
     4
  9
$HYPERLINKBASE
  1

  9
$STYLESHEET
  1

  9
$XEDIT
290
     1
  9
$CEPSNTYPE
380
     0
  9
$PSTYLEMODE
290
     1
  9
$FINGERPRINTGUID
  2
{C61EACCA-5F33-43C0-B307-02DADE777388}
  9
$VERSIONGUID
  2
{FAEB1C32-E019-11D5-929B-00C0DF256EC4}
  9
$EXTNAMES
290
     1
  9
$PSVPSCALE
 40
0.0
  9
$OLESTARTUP
290
     0
  9
$SORTENTS
280
   127
  9
$INDEXCTL
280
     0
  9
$HIDETEXT
280
     1
  9
$XCLIPFRAME
290
     0
  9
$HALOGAP
280
     0
  9
$OBSCOLOR
 70
   257
  9
$OBSLTYPE
280
     0
  9
$INTERSECTIONDISPLAY
280
     0
  9
$INTERSECTIONCOLOR
 70
   257
  9
$DIMASSOC
280
     2
  9
$PROJECTNAME
  1

  0
ENDSEC
  0
SECTION
  2
CLASSES
  0
CLASS
  1
ACDBDICTIONARYWDFLT
  2
AcDbDictionaryWithDefault
  3
ObjectDBX Classes
 90
        0
 91
        4
280
     0
281
     0
  0
CLASS
  1
VISUALSTYLE
  2
AcDbVisualStyle
  3
ObjectDBX Classes
 90
     4095
 91
        4
280
     0
281
     0
  0
ENDSEC
  0
SECTION
  2
TABLES
  0
TABLE
  2
VPORT
  5
8
330
0
100
AcDbSymbolTable
 70
     1
  0
VPORT
  5
29
330
8
100
AcDbSymbolTableRecord
100
AcDbViewportTableRecord
  2
*Active
 70
     0
 10
0.0
 20
0.0
 11
1.0
 21
1.0
 12
0.0
 22
0.0
 13
0.0
 23
0.0
 14
10.0
 24
10.0
 15
10.0
 25
10.0
 16
0.0
 26
0.0
 36
1.0
 17
0.0
 27
0.0
 37
0.0
 40
1633.5
 41
1.414141414141414
 42
50.0
 43
0.0
 44
0.0
 50
0.0
 51
0.0
 71
     0
 72
 10000
 73
     1
 74
     3
 75
     0
 76
     0
 77
     0
 78
     0
281
     0
 65
     1
110
0.0
120
0.0
130
0.0
111
1.0
121
0.0
131
0.0
112
0.0
122
1.0
132
0.0
 79
     0
146
0.0
  0
ENDTAB
  0
TABLE
  2
LTYPE
  5
5
330
0
100
AcDbSymbolTable
 70
     4
  0
LTYPE
  5
14
330
5
100
AcDbSymbolTableRecord
100
AcDbLinetypeTableRecord
  2
ByBlock
 70
     0
  3

 72
    65
 73
     0
 40
0.0
  0
LTYPE
  5
15
330
5
100
AcDbSymbolTableRecord
100
AcDbLinetypeTableRecord
  2
ByLayer
 70
     0
  3

 72
    65
 73
     0
 40
0.0
  0
LTYPE
  5
16
330
5
100
AcDbSymbolTableRecord
100
AcDbLinetypeTableRecord
  2
Continuous
 70
     0
  3
Solid line
 72
    65
 73
     0
 40
0.0
  0
LTYPE
  5
3C
330
5
100
AcDbSymbolTableRecord
100
AcDbLinetypeTableRecord
  2
JWW_CENTER1
 70
     0
  3
-----  --  ----------  --  -----
 72
    65
 73
     4
 40
6.773333333333333
 49
4.233333333333333
 74
     0
 49
-0.8466666666666667
 74
     0
 49
0.8466666666666667
 74
     0
 49
-0.8466666666666667
 74
     0
  0
LTYPE
  5
3D
330
5
100
AcDbSymbolTableRecord
100
AcDbLinetypeTableRecord
  2
JWW_PHANTOM1
 70
     0
  3
----  -  -  --------  -  -  ----
 72
    65
 73
     6
 40
6.773333333333333
 49
3.386666666666667
 74
     0
 49
-0.8466666666666667
 74
     0
 49
0.4233333333333333
 74
     0
 49
-0.8466666666666667
 74
     0
 49
0.4233333333333333
 74
     0
 49
-0.8466666666666667
 74
     0
  0
LTYPE
  5
3E
330
5
100
AcDbSymbolTableRecord
100
AcDbLinetypeTableRecord
  2
JWW_CENTER2
 70
     0
  3
-------------  --  -------------
 72
    65
 73
     4
 40
13.54666666666667
 49
11.00666666666667
 74
     0
 49
-0.8466666666666667
 74
     0
 49
0.8466666666666667
 74
     0
 49
-0.8466666666666667
 74
     0
  0
ENDTAB
  0
TABLE
  2
LAYER
  5
2
330
0
100
AcDbSymbolTable
 70
     8
  0
LAYER
  5
10
330
2
100
AcDbSymbolTableRecord
100
AcDbLayerTableRecord
  2
0
 70
     0
 62
     7
  6
Continuous
370
    -3
390
F
  0
LAYER
  5
3F
330
2
100
AcDbSymbolTableRecord
100
AcDbLayerTableRecord
  2
寸法
 70
     0
 62
     7
  6
Continuous
370
    -3
390
F
  0
LAYER
  5
40
330
2
100
AcDbSymbolTableRecord
100
AcDbLayerTableRecord
  2
F-3ﾚｲﾔ
 70
     0
 62
     7
  6
Continuous
370
    -3
390
F
  0
LAYER
  5
41
330
2
100
AcDbSymbolTableRecord
100
AcDbLayerTableRecord
  2
その他
 70
     0
 62
     7
  6
Continuous
370
    -3
390
F
  0
LAYER
  5
42
330
2
100
AcDbSymbolTableRecord
100
AcDbLayerTableRecord
  2
通り芯
 70
     0
 62
     7
  6
Continuous
370
    -3
390
F
  0
LAYER
  5
43
330
2
100
AcDbSymbolTableRecord
100
AcDbLayerTableRecord
  2
仕上
 70
     0
 62
     7
  6
Continuous
370
    -3
390
F
  0
LAYER
  5
44
330
2
100
AcDbSymbolTableRecord
100
AcDbLayerTableRecord
  2
0-A
 70
     0
 62
     7
  6
Continuous
370
    -3
390
F
  0
LAYER
  5
45
330
2
100
AcDbSymbolTableRecord
100
AcDbLayerTableRecord
  2
建具
 70
     0
 62
     7
  6
Continuous
370
    -3
390
F
  0
ENDTAB
  0
TABLE
  2
STYLE
  5
3
330
0
100
AcDbSymbolTable
 70
     2
  0
STYLE
  5
11
330
3
100
AcDbSymbolTableRecord
100
AcDbTextStyleTableRecord
  2
Standard
 70
     0
 40
0.0
 41
1.0
 50
0.0
 71
     0
 42
2.5
  3
txt
  4

1001
ACAD
1000

1071
        0
  0
STYLE
  5
3B
330
3
100
AcDbSymbolTableRecord
100
AcDbTextStyleTableRecord
  2
ＭＳ ゴシック
 70
     0
 40
1.0
 41
1.0
 50
0.0
 71
     0
 42
10.0
  3

  4

1001
ACAD
1000
MS Gothic
1071
    32817
  0
ENDTAB
  0
TABLE
  2
VIEW
  5
6
330
0
100
AcDbSymbolTable
 70
     0
  0
ENDTAB
  0
TABLE
  2
UCS
  5
7
330
0
100
AcDbSymbolTable
 70
     0
  0
ENDTAB
  0
TABLE
  2
APPID
  5
9
330
0
100
AcDbSymbolTable
 70
     1
  0
APPID
  5
12
330
9
100
AcDbSymbolTableRecord
100
AcDbRegAppTableRecord
  2
ACAD
 70
     0
  0
ENDTAB
  0
TABLE
  2
DIMSTYLE
  5
A
330
0
100
AcDbSymbolTable
 70
     1
100
AcDbDimStyleTable
  0
DIMSTYLE
105
27
330
A
100
AcDbSymbolTableRecord
100
AcDbDimStyleTableRecord
  2
ISO-25
 70
     0
 41
2.5
 42
0.625
 43
3.75
 44
1.25
 73
     0
 74
     0
 77
     1
 78
     8
140
2.5
141
2.5
143
0.03937007874016
147
0.625
171
     3
172
     1
271
     2
272
     2
274
     3
278
    44
283
     0
284
     8
340
11
  0
ENDTAB
  0
TABLE
  2
BLOCK_RECORD
  5
1
330
0
100
AcDbSymbolTable
 70
     1
  0
BLOCK_RECORD
  5
1F
330
1
100
AcDbSymbolTableRecord
100
AcDbBlockTableRecord
  2
*Model_Space
340
22
  0
BLOCK_RECORD
  5
1B
330
1
100
AcDbSymbolTableRecord
100
AcDbBlockTableRecord
  2
*Paper_Space
340
1E
  0
BLOCK_RECORD
  5
23
330
1
100
AcDbSymbolTableRecord
100
AcDbBlockTableRecord
  2
*Paper_Space0
340
26
  0
ENDTAB
  0
ENDSEC
  0
SECTION
  2
BLOCKS
  0
BLOCK
  5
20
330
1F
100
AcDbEntity
  8
0
100
AcDbBlockBegin
  2
*Model_Space
 70
     0
 10
0.0
 20
0.0
 30
0.0
  3
*Model_Space
  1

  0
ENDBLK
  5
21
330
1F
100
AcDbEntity
  8
0
100
AcDbBlockEnd
  0
BLOCK
  5
1C
330
1B
100
AcDbEntity
 67
     1
  8
0
100
AcDbBlockBegin
  2
*Paper_Space
 70
     0
 10
0.0
 20
0.0
 30
0.0
  3
*Paper_Space
  1

  0
ENDBLK
  5
1D
330
1B
100
AcDbEntity
 67
     1
  8
0
100
AcDbBlockEnd
  0
BLOCK
  5
24
330
23
100
AcDbEntity
  8
0
100
AcDbBlockBegin
  2
*Paper_Space0
 70
     0
 10
0.0
 20
0.0
 30
0.0
  3
*Paper_Space0
  1

  0
ENDBLK
  5
25
330
23
100
AcDbEntity
  8
0
100
AcDbBlockEnd
  0
ENDSEC
  0
SECTION
  2
ENTITIES
  0
TEXT
  5
46
330
1F
100
AcDbEntity
  8
寸法
  6
Continuous
 62
     7
370
     9
100
AcDbText
 10
505.4181157641912
 20
-446.695999695986
 30
0.0
 40
11.43
  1
仕様
 41
1.083333333333333
  7
ＭＳ ゴシック
100
AcDbText
  0
TEXT
  5
47
330
1F
100
AcDbEntity
  8
寸法
  6
Continuous
 62
     7
370
     9
100
AcDbText
 10
505.4181322601797
 20
-472.9459935099903
 30
0.0
 40
11.43
  1
適用荷重：Ｔ－２０
 41
1.148148148148149
  7
ＭＳ ゴシック
100
AcDbText
  0
TEXT
  5
48
330
1F
100
AcDbEntity
  8
寸法
  6
Continuous
 62
     7
370
     9
100
AcDbText
 10
505.4181528801646
 20
-525.4459966029881
 30
0.0
 40
11.43
  1
接触圧子：２００×５００ｍｍ
 41
1.154761904761905
  7
ＭＳ ゴシック
100
AcDbText
  0
TEXT
  5
49
330
1F
100
AcDbEntity
  8
寸法
  6
Continuous
 62
     7
370
     9
100
AcDbText
 10
504.1163417291991
 20
-499.1959873239948
 30
0.0
 40
11.43
  1
破壊荷重：４４０ｋＮ｛４４，８００ｋＮ｝以上
 41
1.159090909090909
  7
ＭＳ ゴシック
100
AcDbText
  0
TEXT
  5
4A
330
1F
100
AcDbEntity
  8
寸法
  6
Continuous
 62
     7
370
     9
100
AcDbText
 10
505.4181281361823
 20
-551.6959904169925
 30
0.0
 40
11.43
  1
標準質量：３４．０ｋｇ
 41
1.151515151515152
  7
ＭＳ ゴシック
100
AcDbText
  0
TEXT
  5
4B
330
1F
100
AcDbEntity
  8
F-3ﾚｲﾔ
  6
Continuous
 62
     7
370
     9
100
AcDbText
 10
-385.7662624035281
 20
-672.1986714443219
 30
0.0
 40
11.43
  1
騒音防止型　鋳鉄製みぞ蓋　　　ＧＣＨ－Ｂ　１４０５０＋ＧＬ－２
 41
1.161290322580645
  7
ＭＳ ゴシック
100
AcDbText
  0
TEXT
  5
4C
330
1F
100
AcDbEntity
  8
その他
  6
Continuous
 62
     2
370
     9
100
AcDbText
 10
-393.8912796193159
 20
-127.114313544511
 30
0.0
 40
15.24
  1
995
 41
1.083333333333333
  7
ＭＳ ゴシック
100
AcDbText
  0
LINE
  5
4D
330
1F
100
AcDbEntity
  8
通り芯
  6
Continuous
 62
     3
370
     9
100
AcDbLine
 10
-875.141312611292
 20
14.27745040449658
 30
0.0
 11
-875.141312611292
 21
414.2774091645261
 31
0.0
  0
LINE
  5
4E
330
1F
100
AcDbEntity
  8
通り芯
  6
Continuous
 62
     3
370
     9
100
AcDbLine
 10
-875.141312611292
 20
414.2774091645261
 30
0.0
 11
119.8586296527492
 21
414.2774091645261
 31
0.0
  0
LINE
  5
4F
330
1F
100
AcDbEntity
  8
通り芯
  6
Continuous
 62
     3
370
     9
100
AcDbLine
 10
-410.3913010641006
 20
401.2772920430101
 30
0.0
 11
-394.8912994145018
 21
401.2772920430101
 31
0.0
  0
LINE
  5
50
330
1F
100
AcDbEntity
  8
通り芯
  6
Continuous
 62
     3
370
     9
100
AcDbLine
 10
-410.3913010641006
 20
268.2774594772901
 30
0.0
 11
-394.8912994145018
 21
268.2774594772901
 31
0.0
  0
LINE
  5
51
330
1F
100
AcDbEntity
  8
通り芯
  6
Continuous
 62
     3
370
     9
100
AcDbLine
 10
-410.3913010641006
 20
280.2774866956705
 30
0.0
 11
-394.8912994145018
 21
280.2774866956705
 31
0.0
  0
LINE
  5
52
330
1F
100
AcDbEntity
  8
通り芯
  6
Continuous
 62
     3
370
     9
100
AcDbLine
 10
-390.8913109616934
 20
164.2774504044966
 30
0.0
 11
-390.8913109616934
 21
264.2774710244817
 31
0.0
  0
LINE
  5
53
330
1F
100
AcDbEntity
  8
通り芯
  6
Continuous
 62
     3
370
     9
100
AcDbLine
 10
-414.3912895169088
 20
164.2774504044966
 30
0.0
 11
-414.3912895169088
 21
264.2774710244817
 31
0.0
  0
LINE
  5
54
330
1F
100
AcDbEntity
  8
通り芯
  6
Continuous
 62
     3
370
     9
100
AcDbLine
 10
-414.3912895169088
 20
284.2774751484789
 30
0.0
 11
-414.3912895169088
 21
397.2774273101131
 31
0.0
  0
LINE
  5
55
330
1F
100
AcDbEntity
  8
通り芯
  6
Continuous
 62
     3
370
     9
100
AcDbLine
 10
-390.8913109616934
 20
284.2774751484789
 30
0.0
 11
-390.8913109616934
 21
397.2774273101131
 31
0.0
  0
LINE
  5
56
330
1F
100
AcDbEntity
  8
通り芯
  6
Continuous
 62
     3
370
     9
100
AcDbLine
 10
-426.3912548753336
 20
284.2774751484789
 30
0.0
 11
-426.3912548753336
 21
397.2774273101131
 31
0.0
  0
LINE
  5
57
330
1F
100
AcDbEntity
  8
通り芯
  6
Continuous
 62
     3
370
     9
100
AcDbLine
 10
-449.8913571504604
 20
284.2774751484789
 30
0.0
 11
-449.8913571504604
 21
397.2774273101131
 31
0.0
  0
LINE
  5
58
330
1F
100
AcDbEntity
  8
通り芯
  6
Continuous
 62
     3
370
     9
100
AcDbLine
 10
-449.8913571504604
 20
164.2774504044966
 30
0.0
 11
-449.8913571504604
 21
264.2774710244817
 31
0.0
  0
LINE
  5
59
330
1F
100
AcDbEntity
  8
通り芯
  6
Continuous
 62
     3
370
     9
100
AcDbLine
 10
-426.3912548753336
 20
164.2774504044966
 30
0.0
 11
-426.3912548753336
 21
264.2774710244817
 31
0.0
  0
LINE
  5
5A
330
1F
100
AcDbEntity
  8
通り芯
  6
Continuous
 62
     3
370
     9
100
AcDbLine
 10
-445.8912449777407
 20
280.2774866956705
 30
0.0
 11
-430.3912433281419
 21
280.2774866956705
 31
0.0
  0
LINE
  5
5B
330
1F
100
AcDbEntity
  8
通り芯
  6
Continuous
 62
     3
370
     9
100
AcDbLine
 10
-445.8912449777407
 20
268.2774594772901
 30
0.0
 11
-430.3912433281419
 21
268.2774594772901
 31
0.0
  0
LINE
  5
5C
330
1F
100
AcDbEntity
  8
通り芯
  6
Continuous
 62
     3
370
     9
100
AcDbLine
 10
-445.8912449777407
 20
401.2772920430101
 30
0.0
 11
-430.3912433281419
 21
401.2772920430101
 31
0.0
  0
LINE
  5
5D
330
1F
100
AcDbEntity
  8
通り芯
  6
Continuous
 62
     3
370
     9
100
AcDbLine
 10
-481.3913126112923
 20
401.2772920430101
 30
0.0
 11
-465.8913109616935
 21
401.2772920430101
 31
0.0
  0
LINE
  5
5E
330
1F
100
AcDbEntity
  8
通り芯
  6
Continuous
 62
     3
370
     9
100
AcDbLine
 10
-481.3913126112923
 20
268.2774594772901
 30
0.0
 11
-465.8913109616935
 21
268.2774594772901
 31
0.0
  0
LINE
  5
5F
330
1F
100
AcDbEntity
  8
通り芯
  6
Continuous
 62
     3
370
     9
100
AcDbLine
 10
-481.3913126112923
 20
280.2774866956705
 30
0.0
 11
-465.8913109616935
 21
280.2774866956705
 31
0.0
  0
LINE
  5
60
330
1F
100
AcDbEntity
  8
通り芯
  6
Continuous
 62
     3
370
     9
100
AcDbLine
 10
-461.8913225088852
 20
164.2774504044966
 30
0.0
 11
-461.8913225088852
 21
264.2774710244817
 31
0.0
  0
LINE
  5
61
330
1F
100
AcDbEntity
  8
通り芯
  6
Continuous
 62
     3
370
     9
100
AcDbLine
 10
-485.3913010641006
 20
164.2774504044966
 30
0.0
 11
-485.3913010641006
 21
264.2774710244817
 31
0.0
  0
LINE
  5
62
330
1F
100
AcDbEntity
  8
通り芯
  6
Continuous
 62
     3
370
     9
100
AcDbLine
 10
-485.3913010641006
 20
284.2774751484789
 30
0.0
 11
-485.3913010641006
 21
397.2774273101131
 31
0.0
  0
LINE
  5
63
330
1F
100
AcDbEntity
  8
通り芯
  6
Continuous
 62
     3
370
     9
100
AcDbLine
 10
-461.8913225088852
 20
284.2774751484789
 30
0.0
 11
-461.8913225088852
 21
397.2774273101131
 31
0.0
  0
LINE
  5
64
330
1F
100
AcDbEntity
  8
通り芯
  6
Continuous
 62
     3
370
     9
100
AcDbLine
 10
-511.8913637488557
 20
284.2774751484789
 30
0.0
 11
-511.8913637488557
 21
397.2774273101131
 31
0.0
  0
LINE
  5
65
330
1F
100
AcDbEntity
  8
通り芯
  6
Continuous
 62
     3
370
     9
100
AcDbLine
 10
-535.391342304071
 20
284.2774751484789
 30
0.0
 11
-535.391342304071
 21
397.2774273101131
 31
0.0
  0
LINE
  5
66
330
1F
100
AcDbEntity
  8
通り芯
  6
Continuous
 62
     3
370
     9
100
AcDbLine
 10
-535.391342304071
 20
164.2774504044966
 30
0.0
 11
-535.391342304071
 21
264.2774710244817
 31
0.0
  0
LINE
  5
67
330
1F
100
AcDbEntity
  8
通り芯
  6
Continuous
 62
     3
370
     9
100
AcDbLine
 10
-511.8913637488557
 20
164.2774504044966
 30
0.0
 11
-511.8913637488557
 21
264.2774710244817
 31
0.0
  0
LINE
  5
68
330
1F
100
AcDbEntity
  8
通り芯
  6
Continuous
 62
     3
370
     9
100
AcDbLine
 10
-531.3913538512627
 20
280.2774866956705
 30
0.0
 11
-515.891352201664
 21
280.2774866956705
 31
0.0
  0
LINE
  5
69
330
1F
100
AcDbEntity
  8
通り芯
  6
Continuous
 62
     3
370
     9
100
AcDbLine
 10
-531.3913538512627
 20
268.2774594772901
 30
0.0
 11
-515.891352201664
 21
268.2774594772901
 31
0.0
  0
LINE
  5
6A
330
1F
100
AcDbEntity
  8
通り芯
  6
Continuous
 62
     3
370
     9
100
AcDbLine
 10
-531.3913538512627
 20
401.2772920430101
 30
0.0
 11
-515.891352201664
 21
401.2772920430101
 31
0.0
  0
LINE
  5
6B
330
1F
100
AcDbEntity
  8
通り芯
  6
Continuous
 62
     3
370
     9
100
AcDbLine
 10
-566.8912977649029
 20
401.2772920430101
 30
0.0
 11
-551.3912961153042
 21
401.2772920430101
 31
0.0
  0
LINE
  5
6C
330
1F
100
AcDbEntity
  8
通り芯
  6
Continuous
 62
     3
370
     9
100
AcDbLine
 10
-566.8912977649029
 20
268.2774594772901
 30
0.0
 11
-551.3912961153042
 21
268.2774594772901
 31
0.0
  0
LINE
  5
6D
330
1F
100
AcDbEntity
  8
通り芯
  6
Continuous
 62
     3
370
     9
100
AcDbLine
 10
-566.8912977649029
 20
280.2774866956705
 30
0.0
 11
-551.3912961153042
 21
280.2774866956705
 31
0.0
  0
LINE
  5
6E
330
1F
100
AcDbEntity
  8
通り芯
  6
Continuous
 62
     3
370
     9
100
AcDbLine
 10
-547.3913076624958
 20
164.2774504044966
 30
0.0
 11
-547.3913076624958
 21
264.2774710244817
 31
0.0
  0
LINE
  5
6F
330
1F
100
AcDbEntity
  8
通り芯
  6
Continuous
 62
     3
370
     9
100
AcDbLine
 10
-570.8912862177112
 20
164.2774504044966
 30
0.0
 11
-570.8912862177112
 21
264.2774710244817
 31
0.0
  0
LINE
  5
70
330
1F
100
AcDbEntity
  8
通り芯
  6
Continuous
 62
     3
370
     9
100
AcDbLine
 10
-570.8912862177112
 20
284.2774751484789
 30
0.0
 11
-570.8912862177112
 21
397.2774273101131
 31
0.0
  0
LINE
  5
71
330
1F
100
AcDbEntity
  8
通り芯
  6
Continuous
 62
     3
370
     9
100
AcDbLine
 10
-547.3913076624958
 20
284.2774751484789
 30
0.0
 11
-547.3913076624958
 21
397.2774273101131
 31
0.0
  0
LINE
  5
72
330
1F
100
AcDbEntity
  8
通り芯
  6
Continuous
 62
     3
370
     9
100
AcDbLine
 10
-582.891251576136
 20
284.2774751484789
 30
0.0
 11
-582.891251576136
 21
397.2774273101131
 31
0.0
  0
LINE
  5
73
330
1F
100
AcDbEntity
  8
通り芯
  6
Continuous
 62
     3
370
     9
100
AcDbLine
 10
-606.3913538512628
 20
284.2774751484789
 30
0.0
 11
-606.3913538512628
 21
397.2774273101131
 31
0.0
  0
LINE
  5
74
330
1F
100
AcDbEntity
  8
通り芯
  6
Continuous
 62
     3
370
     9
100
AcDbLine
 10
-606.3913538512628
 20
164.2774504044966
 30
0.0
 11
-606.3913538512628
 21
264.2774710244817
 31
0.0
  0
LINE
  5
75
330
1F
100
AcDbEntity
  8
通り芯
  6
Continuous
 62
     3
370
     9
100
AcDbLine
 10
-582.891251576136
 20
164.2774504044966
 30
0.0
 11
-582.891251576136
 21
264.2774710244817
 31
0.0
  0
LINE
  5
76
330
1F
100
AcDbEntity
  8
通り芯
  6
Continuous
 62
     3
370
     9
100
AcDbLine
 10
-602.3912416785432
 20
280.2774866956705
 30
0.0
 11
-586.8912400289444
 21
280.2774866956705
 31
0.0
  0
LINE
  5
77
330
1F
100
AcDbEntity
  8
通り芯
  6
Continuous
 62
     3
370
     9
100
AcDbLine
 10
-602.3912416785432
 20
268.2774594772901
 30
0.0
 11
-586.8912400289444
 21
268.2774594772901
 31
0.0
  0
LINE
  5
78
330
1F
100
AcDbEntity
  8
通り芯
  6
Continuous
 62
     3
370
     9
100
AcDbLine
 10
-602.3912416785432
 20
401.2772920430101
 30
0.0
 11
-586.8912400289444
 21
401.2772920430101
 31
0.0
  0
LINE
  5
79
330
1F
100
AcDbEntity
  8
通り芯
  6
Continuous
 62
     3
370
     9
100
AcDbLine
 10
-652.3912829185134
 20
401.2772920430101
 30
0.0
 11
-636.8912812689148
 21
401.2772920430101
 31
0.0
  0
LINE
  5
7A
330
1F
100
AcDbEntity
  8
通り芯
  6
Continuous
 62
     3
370
     9
100
AcDbLine
 10
-652.3912829185134
 20
268.2774594772901
 30
0.0
 11
-636.8912812689148
 21
268.2774594772901
 31
0.0
  0
LINE
  5
7B
330
1F
100
AcDbEntity
  8
通り芯
  6
Continuous
 62
     3
370
     9
100
AcDbLine
 10
-652.3912829185134
 20
280.2774866956705
 30
0.0
 11
-636.8912812689148
 21
280.2774866956705
 31
0.0
  0
LINE
  5
7C
330
1F
100
AcDbEntity
  8
通り芯
  6
Continuous
 62
     3
370
     9
100
AcDbLine
 10
-632.8912928161066
 20
164.2774504044966
 30
0.0
 11
-632.8912928161066
 21
264.2774710244817
 31
0.0
  0
LINE
  5
7D
330
1F
100
AcDbEntity
  8
通り芯
  6
Continuous
 62
     3
370
     9
100
AcDbLine
 10
-656.3912713713217
 20
164.2774504044966
 30
0.0
 11
-656.3912713713217
 21
264.2774710244817
 31
0.0
  0
LINE
  5
7E
330
1F
100
AcDbEntity
  8
通り芯
  6
Continuous
 62
     3
370
     9
100
AcDbLine
 10
-656.3912713713217
 20
284.2774751484789
 30
0.0
 11
-656.3912713713217
 21
397.2774273101131
 31
0.0
  0
LINE
  5
7F
330
1F
100
AcDbEntity
  8
通り芯
  6
Continuous
 62
     3
370
     9
100
AcDbLine
 10
-632.8912928161066
 20
284.2774751484789
 30
0.0
 11
-632.8912928161066
 21
397.2774273101131
 31
0.0
  0
LINE
  5
80
330
1F
100
AcDbEntity
  8
通り芯
  6
Continuous
 62
     3
370
     9
100
AcDbLine
 10
-668.3912367297465
 20
284.2774751484789
 30
0.0
 11
-668.3912367297465
 21
397.2774273101131
 31
0.0
  0
LINE
  5
81
330
1F
100
AcDbEntity
  8
通り芯
  6
Continuous
 62
     3
370
     9
100
AcDbLine
 10
-691.8913390048733
 20
284.2774751484789
 30
0.0
 11
-691.8913390048733
 21
397.2774273101131
 31
0.0
  0
LINE
  5
82
330
1F
100
AcDbEntity
  8
通り芯
  6
Continuous
 62
     3
370
     9
100
AcDbLine
 10
-691.8913390048733
 20
164.2774504044966
 30
0.0
 11
-691.8913390048733
 21
264.2774710244817
 31
0.0
  0
LINE
  5
83
330
1F
100
AcDbEntity
  8
通り芯
  6
Continuous
 62
     3
370
     9
100
AcDbLine
 10
-668.3912367297465
 20
164.2774504044966
 30
0.0
 11
-668.3912367297465
 21
264.2774710244817
 31
0.0
  0
LINE
  5
84
330
1F
100
AcDbEntity
  8
通り芯
  6
Continuous
 62
     3
370
     9
100
AcDbLine
 10
-687.891350552065
 20
280.2774866956705
 30
0.0
 11
-672.391348902466
 21
280.2774866956705
 31
0.0
  0
LINE
  5
85
330
1F
100
AcDbEntity
  8
通り芯
  6
Continuous
 62
     3
370
     9
100
AcDbLine
 10
-687.891350552065
 20
268.2774594772901
 30
0.0
 11
-672.391348902466
 21
268.2774594772901
 31
0.0
  0
LINE
  5
86
330
1F
100
AcDbEntity
  8
通り芯
  6
Continuous
 62
     3
370
     9
100
AcDbLine
 10
-687.891350552065
 20
401.2772920430101
 30
0.0
 11
-672.391348902466
 21
401.2772920430101
 31
0.0
  0
LINE
  5
87
330
1F
100
AcDbEntity
  8
通り芯
  6
Continuous
 62
     3
370
     9
100
AcDbLine
 10
-723.3912944657051
 20
401.2772920430101
 30
0.0
 11
-707.8912928161066
 21
401.2772920430101
 31
0.0
  0
LINE
  5
88
330
1F
100
AcDbEntity
  8
通り芯
  6
Continuous
 62
     3
370
     9
100
AcDbLine
 10
-723.3912944657051
 20
268.2774594772901
 30
0.0
 11
-707.8912928161066
 21
268.2774594772901
 31
0.0
  0
LINE
  5
89
330
1F
100
AcDbEntity
  8
通り芯
  6
Continuous
 62
     3
370
     9
100
AcDbLine
 10
-723.3912944657051
 20
280.2774866956705
 30
0.0
 11
-707.8912928161066
 21
280.2774866956705
 31
0.0
  0
LINE
  5
8A
330
1F
100
AcDbEntity
  8
通り芯
  6
Continuous
 62
     3
370
     9
100
AcDbLine
 10
-703.8913043632982
 20
164.2774504044966
 30
0.0
 11
-703.8913043632982
 21
264.2774710244817
 31
0.0
  0
LINE
  5
8B
330
1F
100
AcDbEntity
  8
通り芯
  6
Continuous
 62
     3
370
     9
100
AcDbLine
 10
-727.3912829185134
 20
164.2774504044966
 30
0.0
 11
-727.3912829185134
 21
264.2774710244817
 31
0.0
  0
LINE
  5
8C
330
1F
100
AcDbEntity
  8
通り芯
  6
Continuous
 62
     3
370
     9
100
AcDbLine
 10
-727.3912829185134
 20
284.2774751484789
 30
0.0
 11
-727.3912829185134
 21
397.2774273101131
 31
0.0
  0
LINE
  5
8D
330
1F
100
AcDbEntity
  8
通り芯
  6
Continuous
 62
     3
370
     9
100
AcDbLine
 10
-703.8913043632982
 20
284.2774751484789
 30
0.0
 11
-703.8913043632982
 21
397.2774273101131
 31
0.0
  0
LINE
  5
8E
330
1F
100
AcDbEntity
  8
通り芯
  6
Continuous
 62
     3
370
     9
100
AcDbLine
 10
-812.8912680721244
 20
406.7773844205439
 30
0.0
 11
-753.8912837433129
 21
406.7773844205439
 31
0.0
  0
LINE
  5
8F
330
1F
100
AcDbEntity
  8
通り芯
  6
Continuous
 62
     3
370
     9
100
AcDbLine
 10
-812.8912680721244
 20
364.7774438061012
 30
0.0
 11
-753.8912837433129
 21
364.7774438061012
 31
0.0
  0
LINE
  5
90
330
1F
100
AcDbEntity
  8
通り芯
  6
Continuous
 62
     3
370
     9
100
AcDbLine
 10
-753.8912837433129
 20
284.2774751484789
 30
0.0
 11
-753.8912837433129
 21
340.7775130892517
 31
0.0
  0
LINE
  5
91
330
1F
100
AcDbEntity
  8
通り芯
  6
Continuous
 62
     3
370
     9
100
AcDbLine
 10
-777.391324158484
 20
284.2774751484789
 30
0.0
 11
-777.391324158484
 21
340.7775130892517
 31
0.0
  0
LINE
  5
92
330
1F
100
AcDbEntity
  8
通り芯
  6
Continuous
 62
     3
370
     9
100
AcDbLine
 10
-777.391324158484
 20
164.2774504044966
 30
0.0
 11
-777.391324158484
 21
264.2774710244817
 31
0.0
  0
LINE
  5
93
330
1F
100
AcDbEntity
  8
通り芯
  6
Continuous
 62
     3
370
     9
100
AcDbLine
 10
-753.8912837433129
 20
164.2774504044966
 30
0.0
 11
-753.8912837433129
 21
264.2774710244817
 31
0.0
  0
LINE
  5
94
330
1F
100
AcDbEntity
  8
通り芯
  6
Continuous
 62
     3
370
     9
100
AcDbLine
 10
-773.3913357056757
 20
280.2774866956705
 30
0.0
 11
-757.8913340560767
 21
280.2774866956705
 31
0.0
  0
LINE
  5
95
330
1F
100
AcDbEntity
  8
通り芯
  6
Continuous
 62
     3
370
     9
100
AcDbLine
 10
-773.3913357056757
 20
268.2774594772901
 30
0.0
 11
-757.8913340560767
 21
268.2774594772901
 31
0.0
  0
LINE
  5
96
330
1F
100
AcDbEntity
  8
通り芯
  6
Continuous
 62
     3
370
     9
100
AcDbLine
 10
-753.8912837433129
 20
364.7774438061012
 30
0.0
 11
-753.8912837433129
 21
406.7773844205439
 31
0.0
  0
LINE
  5
97
330
1F
100
AcDbEntity
  8
通り芯
  6
Continuous
 62
     3
370
     9
100
AcDbLine
 10
-812.8912680721244
 20
364.7774438061012
 30
0.0
 11
-812.8912680721244
 21
406.7773844205439
 31
0.0
  0
LINE
  5
98
330
1F
100
AcDbEntity
  8
通り芯
  6
Continuous
 62
     3
370
     9
100
AcDbLine
 10
-808.891279619316
 20
268.2774594772901
 30
0.0
 11
-793.3912779697171
 21
268.2774594772901
 31
0.0
  0
LINE
  5
99
330
1F
100
AcDbEntity
  8
通り芯
  6
Continuous
 62
     3
370
     9
100
AcDbLine
 10
-808.891279619316
 20
280.2774866956705
 30
0.0
 11
-793.3912779697171
 21
280.2774866956705
 31
0.0
  0
LINE
  5
9A
330
1F
100
AcDbEntity
  8
通り芯
  6
Continuous
 62
     3
370
     9
100
AcDbLine
 10
-789.3912895169087
 20
164.2774504044966
 30
0.0
 11
-789.3912895169087
 21
264.2774710244817
 31
0.0
  0
LINE
  5
9B
330
1F
100
AcDbEntity
  8
通り芯
  6
Continuous
 62
     3
370
     9
100
AcDbLine
 10
-812.8912680721244
 20
164.2774504044966
 30
0.0
 11
-812.8912680721244
 21
264.2774710244817
 31
0.0
  0
LINE
  5
9C
330
1F
100
AcDbEntity
  8
通り芯
  6
Continuous
 62
     3
370
     9
100
AcDbLine
 10
-812.8912680721244
 20
284.2774751484789
 30
0.0
 11
-812.8912680721244
 21
340.7775130892517
 31
0.0
  0
LINE
  5
9D
330
1F
100
AcDbEntity
  8
通り芯
  6
Continuous
 62
     3
370
     9
100
AcDbLine
 10
-789.3912895169087
 20
284.2774751484789
 30
0.0
 11
-789.3912895169087
 21
340.7775130892517
 31
0.0
  0
LINE
  5
9E
330
1F
100
AcDbEntity
  8
通り芯
  6
Continuous
 62
     3
370
     9
100
AcDbLine
 10
-824.8912334305488
 20
284.2774751484789
 30
0.0
 11
-824.8912334305488
 21
397.2774273101131
 31
0.0
  0
LINE
  5
9F
330
1F
100
AcDbEntity
  8
通り芯
  6
Continuous
 62
     3
370
     9
100
AcDbLine
 10
-848.3913357056757
 20
284.2774751484789
 30
0.0
 11
-848.3913357056757
 21
397.2774273101131
 31
0.0
  0
LINE
  5
A0
330
1F
100
AcDbEntity
  8
通り芯
  6
Continuous
 62
     3
370
     9
100
AcDbLine
 10
-848.3913357056757
 20
164.2774504044966
 30
0.0
 11
-848.3913357056757
 21
264.2774710244817
 31
0.0
  0
LINE
  5
A1
330
1F
100
AcDbEntity
  8
通り芯
  6
Continuous
 62
     3
370
     9
100
AcDbLine
 10
-824.8912334305488
 20
164.2774504044966
 30
0.0
 11
-824.8912334305488
 21
264.2774710244817
 31
0.0
  0
LINE
  5
A2
330
1F
100
AcDbEntity
  8
通り芯
  6
Continuous
 62
     3
370
     9
100
AcDbLine
 10
-844.3912853929119
 20
280.2774866956705
 30
0.0
 11
-828.8912837433129
 21
280.2774866956705
 31
0.0
  0
LINE
  5
A3
330
1F
100
AcDbEntity
  8
通り芯
  6
Continuous
 62
     3
370
     9
100
AcDbLine
 10
-844.3912853929119
 20
268.2774594772901
 30
0.0
 11
-828.8912837433129
 21
268.2774594772901
 31
0.0
  0
LINE
  5
A4
330
1F
100
AcDbEntity
  8
通り芯
  6
Continuous
 62
     3
370
     9
100
AcDbLine
 10
-844.3912853929119
 20
401.2772920430101
 30
0.0
 11
-828.8912837433129
 21
401.2772920430101
 31
0.0
  0
LINE
  5
A5
330
1F
100
AcDbEntity
  8
仕上
  6
JWW_CENTER1
 62
     6
370
     9
100
AcDbLine
 10
-783.3912449777408
 20
358.6641955480777
 30
0.0
 11
-783.3912449777408
 21
410.762897643728
 31
0.0
  0
LINE
  5
A6
330
1F
100
AcDbEntity
  8
仕上
  6
JWW_CENTER1
 62
     6
370
     9
100
AcDbLine
 10
-819.0943369857642
 20
385.7774141133226
 30
0.0
 11
-747.7923251350466
 21
385.7774141133226
 31
0.0
  0
LINE
  5
A7
330
1F
100
AcDbEntity
  8
通り芯
  6
Continuous
 62
     3
370
     9
100
AcDbLine
 10
-808.891279619316
 20
344.7773778221485
 30
0.0
 11
-793.3912779697171
 21
344.7773778221485
 31
0.0
  0
LINE
  5
A8
330
1F
100
AcDbEntity
  8
通り芯
  6
Continuous
 62
     3
370
     9
100
AcDbLine
 10
-773.3913357056757
 20
344.7773778221485
 30
0.0
 11
-757.8913340560767
 21
344.7773778221485
 31
0.0
  0
LINE
  5
A9
330
1F
100
AcDbEntity
  8
仕上
  6
Continuous
 62
     6
370
     9
100
AcDbLine
 10
-771.3968470153252
 20
378.8525632370557
 30
0.0
 11
-771.3968470153252
 21
392.7025124294121
 31
0.0
  0
LINE
  5
AA
330
1F
100
AcDbEntity
  8
仕上
  6
Continuous
 62
     6
370
     9
100
AcDbLine
 10
-771.3968470153252
 20
392.7025124294121
 30
0.0
 11
-783.3912449777408
 21
399.6276107455017
 31
0.0
  0
LINE
  5
AB
330
1F
100
AcDbEntity
  8
仕上
  6
Continuous
 62
     6
370
     9
100
AcDbLine
 10
-783.3912449777408
 20
399.6276107455017
 30
0.0
 11
-795.3857666600676
 21
392.7025124294121
 31
0.0
  0
LINE
  5
AC
330
1F
100
AcDbEntity
  8
仕上
  6
Continuous
 62
     6
370
     9
100
AcDbLine
 10
-795.3857666600676
 20
392.7025124294121
 30
0.0
 11
-795.3857666600676
 21
378.8525632370557
 31
0.0
  0
LINE
  5
AD
330
1F
100
AcDbEntity
  8
仕上
  6
Continuous
 62
     6
370
     9
100
AcDbLine
 10
-795.3857666600676
 20
378.8525632370557
 30
0.0
 11
-783.3912449777408
 21
371.9274649209661
 31
0.0
  0
LINE
  5
AE
330
1F
100
AcDbEntity
  8
仕上
  6
Continuous
 62
     6
370
     9
100
AcDbLine
 10
-783.3912449777408
 20
371.9274649209661
 30
0.0
 11
-771.3968470153252
 21
378.8525632370557
 31
0.0
  0
LINE
  5
AF
330
1F
100
AcDbEntity
  8
通り芯
  6
JWW_PHANTOM1
 62
     3
370
     9
100
AcDbLine
 10
124.8586461487374
 20
414.2774091645261
 30
0.0
 11
289.8586956367018
 21
414.2774091645261
 31
0.0
  0
LINE
  5
B0
330
1F
100
AcDbEntity
  8
通り芯
  6
JWW_PHANTOM1
 62
     3
370
     9
100
AcDbLine
 10
124.8586461487374
 20
14.27745040449658
 30
0.0
 11
289.8586956367018
 21
14.27745040449658
 31
0.0
  0
LINE
  5
B1
330
1F
100
AcDbEntity
  8
仕上
  6
Continuous
 62
     6
370
     9
100
AcDbLine
 10
28.10868573910897
 20
371.9274649209661
 30
0.0
 11
16.11428777669348
 21
378.8525632370557
 31
0.0
  0
LINE
  5
B2
330
1F
100
AcDbEntity
  8
仕上
  6
Continuous
 62
     6
370
     9
100
AcDbLine
 10
40.10320742143578
 20
378.8525632370557
 30
0.0
 11
28.10868573910897
 21
371.9274649209661
 31
0.0
  0
LINE
  5
B3
330
1F
100
AcDbEntity
  8
仕上
  6
Continuous
 62
     6
370
     9
100
AcDbLine
 10
40.10320742143578
 20
392.7025124294121
 30
0.0
 11
40.10320742143578
 21
378.8525632370557
 31
0.0
  0
LINE
  5
B4
330
1F
100
AcDbEntity
  8
仕上
  6
Continuous
 62
     6
370
     9
100
AcDbLine
 10
28.10868573910897
 20
399.6276107455017
 30
0.0
 11
40.10320742143578
 21
392.7025124294121
 31
0.0
  0
LINE
  5
B5
330
1F
100
AcDbEntity
  8
仕上
  6
Continuous
 62
     6
370
     9
100
AcDbLine
 10
16.11428777669348
 20
392.7025124294121
 30
0.0
 11
28.10868573910897
 21
399.6276107455017
 31
0.0
  0
LINE
  5
B6
330
1F
100
AcDbEntity
  8
仕上
  6
Continuous
 62
     6
370
     9
100
AcDbLine
 10
16.11428777669348
 20
378.8525632370557
 30
0.0
 11
16.11428777669348
 21
392.7025124294121
 31
0.0
  0
LINE
  5
B7
330
1F
100
AcDbEntity
  8
通り芯
  6
Continuous
 62
     3
370
     9
100
AcDbLine
 10
18.10865274713267
 20
344.7773778221485
 30
0.0
 11
2.60877481744517
 21
344.7773778221485
 31
0.0
  0
LINE
  5
B8
330
1F
100
AcDbEntity
  8
通り芯
  6
Continuous
 62
     3
370
     9
100
AcDbLine
 10
53.60859666077276
 20
344.7773778221485
 30
0.0
 11
38.10871873108526
 21
344.7773778221485
 31
0.0
  0
LINE
  5
B9
330
1F
100
AcDbEntity
  8
仕上
  6
JWW_CENTER1
 62
     6
370
     9
100
AcDbLine
 10
63.81177774713267
 20
385.7774141133226
 30
0.0
 11
-7.490234103585305
 21
385.7774141133226
 31
0.0
  0
LINE
  5
BA
330
1F
100
AcDbEntity
  8
仕上
  6
JWW_CENTER1
 62
     6
370
     9
100
AcDbLine
 10
28.10868573910897
 20
358.6641955480777
 30
0.0
 11
28.10868573910897
 21
410.762897643728
 31
0.0
  0
LINE
  5
BB
330
1F
100
AcDbEntity
  8
通り芯
  6
Continuous
 62
     3
370
     9
100
AcDbLine
 10
89.108540574413
 20
401.2772920430101
 30
0.0
 11
73.6086626447255
 21
401.2772920430101
 31
0.0
  0
LINE
  5
BC
330
1F
100
AcDbEntity
  8
通り芯
  6
Continuous
 62
     3
370
     9
100
AcDbLine
 10
89.108540574413
 20
268.2774594772901
 30
0.0
 11
73.6086626447255
 21
268.2774594772901
 31
0.0
  0
LINE
  5
BD
330
1F
100
AcDbEntity
  8
通り芯
  6
Continuous
 62
     3
370
     9
100
AcDbLine
 10
89.108540574413
 20
280.2774866956705
 30
0.0
 11
73.6086626447255
 21
280.2774866956705
 31
0.0
  0
LINE
  5
BE
330
1F
100
AcDbEntity
  8
通り芯
  6
Continuous
 62
     3
370
     9
100
AcDbLine
 10
69.60855047200597
 20
164.2774504044966
 30
0.0
 11
69.60855047200597
 21
264.2774710244817
 31
0.0
  0
LINE
  5
BF
330
1F
100
AcDbEntity
  8
通り芯
  6
Continuous
 62
     3
370
     9
100
AcDbLine
 10
93.10865274713267
 20
164.2774504044966
 30
0.0
 11
93.10865274713267
 21
264.2774710244817
 31
0.0
  0
LINE
  5
C0
330
1F
100
AcDbEntity
  8
通り芯
  6
Continuous
 62
     3
370
     9
100
AcDbLine
 10
93.10865274713267
 20
284.2774751484789
 30
0.0
 11
93.10865274713267
 21
397.2774273101131
 31
0.0
  0
LINE
  5
C1
330
1F
100
AcDbEntity
  8
通り芯
  6
Continuous
 62
     3
370
     9
100
AcDbLine
 10
69.60855047200597
 20
284.2774751484789
 30
0.0
 11
69.60855047200597
 21
397.2774273101131
 31
0.0
  0
LINE
  5
C2
330
1F
100
AcDbEntity
  8
通り芯
  6
Continuous
 62
     3
370
     9
100
AcDbLine
 10
34.10860655836574
 20
284.2774751484789
 30
0.0
 11
34.10860655836574
 21
340.7775130892517
 31
0.0
  0
LINE
  5
C3
330
1F
100
AcDbEntity
  8
通り芯
  6
Continuous
 62
     3
370
     9
100
AcDbLine
 10
57.60870883349243
 20
284.2774751484789
 30
0.0
 11
57.60870883349243
 21
340.7775130892517
 31
0.0
  0
LINE
  5
C4
330
1F
100
AcDbEntity
  8
通り芯
  6
Continuous
 62
     3
370
     9
100
AcDbLine
 10
57.60870883349243
 20
164.2774504044966
 30
0.0
 11
57.60870883349243
 21
264.2774710244817
 31
0.0
  0
LINE
  5
C5
330
1F
100
AcDbEntity
  8
通り芯
  6
Continuous
 62
     3
370
     9
100
AcDbLine
 10
34.10860655836574
 20
164.2774504044966
 30
0.0
 11
34.10860655836574
 21
264.2774710244817
 31
0.0
  0
LINE
  5
C6
330
1F
100
AcDbEntity
  8
通り芯
  6
Continuous
 62
     3
370
     9
100
AcDbLine
 10
53.60859666077276
 20
280.2774866956705
 30
0.0
 11
38.10871873108526
 21
280.2774866956705
 31
0.0
  0
LINE
  5
C7
330
1F
100
AcDbEntity
  8
通り芯
  6
Continuous
 62
     3
370
     9
100
AcDbLine
 10
53.60859666077276
 20
268.2774594772901
 30
0.0
 11
38.10871873108526
 21
268.2774594772901
 31
0.0
  0
LINE
  5
C8
330
1F
100
AcDbEntity
  8
通り芯
  6
Continuous
 62
     3
370
     9
100
AcDbLine
 10
57.60870883349243
 20
364.7774438061012
 30
0.0
 11
57.60870883349243
 21
406.7773844205439
 31
0.0
  0
LINE
  5
C9
330
1F
100
AcDbEntity
  8
通り芯
  6
Continuous
 62
     3
370
     9
100
AcDbLine
 10
-1.391337355274498
 20
364.7774438061012
 30
0.0
 11
-1.391337355274498
 21
406.7773844205439
 31
0.0
  0
LINE
  5
CA
330
1F
100
AcDbEntity
  8
通り芯
  6
Continuous
 62
     3
370
     9
100
AcDbLine
 10
18.10865274713267
 20
268.2774594772901
 30
0.0
 11
2.60877481744517
 21
268.2774594772901
 31
0.0
  0
LINE
  5
CB
330
1F
100
AcDbEntity
  8
通り芯
  6
Continuous
 62
     3
370
     9
100
AcDbLine
 10
18.10865274713267
 20
280.2774866956705
 30
0.0
 11
2.60877481744517
 21
280.2774866956705
 31
0.0
  0
LINE
  5
CC
330
1F
100
AcDbEntity
  8
通り芯
  6
Continuous
 62
     3
370
     9
100
AcDbLine
 10
-1.391337355274498
 20
164.2774504044966
 30
0.0
 11
-1.391337355274498
 21
264.2774710244817
 31
0.0
  0
LINE
  5
CD
330
1F
100
AcDbEntity
  8
通り芯
  6
Continuous
 62
     3
370
     9
100
AcDbLine
 10
22.1087649198522
 20
164.2774504044966
 30
0.0
 11
22.1087649198522
 21
264.2774710244817
 31
0.0
  0
LINE
  5
CE
330
1F
100
AcDbEntity
  8
通り芯
  6
Continuous
 62
     3
370
     9
100
AcDbLine
 10
22.1087649198522
 20
284.2774751484789
 30
0.0
 11
22.1087649198522
 21
340.7775130892517
 31
0.0
  0
LINE
  5
CF
330
1F
100
AcDbEntity
  8
通り芯
  6
Continuous
 62
     3
370
     9
100
AcDbLine
 10
-1.391337355274498
 20
284.2774751484789
 30
0.0
 11
-1.391337355274498
 21
340.7775130892517
 31
0.0
  0
LINE
  5
D0
330
1F
100
AcDbEntity
  8
通り芯
  6
Continuous
 62
     3
370
     9
100
AcDbLine
 10
57.60870883349243
 20
364.7774438061012
 30
0.0
 11
-1.391337355274498
 21
364.7774438061012
 31
0.0
  0
LINE
  5
D1
330
1F
100
AcDbEntity
  8
通り芯
  6
Continuous
 62
     3
370
     9
100
AcDbLine
 10
57.60870883349243
 20
406.7773844205439
 30
0.0
 11
-1.391337355274498
 21
406.7773844205439
 31
0.0
  0
LINE
  5
D2
330
1F
100
AcDbEntity
  8
通り芯
  6
Continuous
 62
     3
370
     9
100
AcDbLine
 10
-51.39125487533362
 20
284.2774751484789
 30
0.0
 11
-51.39125487533362
 21
397.2774273101131
 31
0.0
  0
LINE
  5
D3
330
1F
100
AcDbEntity
  8
通り芯
  6
Continuous
 62
     3
370
     9
100
AcDbLine
 10
-27.89140004002958
 20
284.2774751484789
 30
0.0
 11
-27.89140004002958
 21
397.2774273101131
 31
0.0
  0
LINE
  5
D4
330
1F
100
AcDbEntity
  8
通り芯
  6
Continuous
 62
     3
370
     9
100
AcDbLine
 10
-27.89140004002958
 20
164.2774504044966
 30
0.0
 11
-27.89140004002958
 21
264.2774710244817
 31
0.0
  0
LINE
  5
D5
330
1F
100
AcDbEntity
  8
通り芯
  6
Continuous
 62
     3
370
     9
100
AcDbLine
 10
-51.39125487533362
 20
164.2774504044966
 30
0.0
 11
-51.39125487533362
 21
264.2774710244817
 31
0.0
  0
LINE
  5
D6
330
1F
100
AcDbEntity
  8
通り芯
  6
Continuous
 62
     3
370
     9
100
AcDbLine
 10
-31.89126477292644
 20
280.2774866956705
 30
0.0
 11
-47.39139014243661
 21
280.2774866956705
 31
0.0
  0
LINE
  5
D7
330
1F
100
AcDbEntity
  8
通り芯
  6
Continuous
 62
     3
370
     9
100
AcDbLine
 10
-31.89126477292644
 20
268.2774594772901
 30
0.0
 11
-47.39139014243661
 21
268.2774594772901
 31
0.0
  0
LINE
  5
D8
330
1F
100
AcDbEntity
  8
通り芯
  6
Continuous
 62
     3
370
     9
100
AcDbLine
 10
-31.89126477292644
 20
401.2772920430101
 30
0.0
 11
-47.39139014243661
 21
401.2772920430101
 31
0.0
  0
LINE
  5
D9
330
1F
100
AcDbEntity
  8
通り芯
  6
Continuous
 62
     3
370
     9
100
AcDbLine
 10
-67.39133240647801
 20
401.2772920430101
 30
0.0
 11
-82.89133405607684
 21
401.2772920430101
 31
0.0
  0
LINE
  5
DA
330
1F
100
AcDbEntity
  8
通り芯
  6
Continuous
 62
     3
370
     9
100
AcDbLine
 10
-67.39133240647801
 20
268.2774594772901
 30
0.0
 11
-82.89133405607684
 21
268.2774594772901
 31
0.0
  0
LINE
  5
DB
330
1F
100
AcDbEntity
  8
通り芯
  6
Continuous
 62
     3
370
     9
100
AcDbLine
 10
-67.39133240647801
 20
280.2774866956705
 30
0.0
 11
-82.89133405607684
 21
280.2774866956705
 31
0.0
  0
LINE
  5
DC
330
1F
100
AcDbEntity
  8
通り芯
  6
Continuous
 62
     3
370
     9
100
AcDbLine
 10
-86.89132250888518
 20
164.2774504044966
 30
0.0
 11
-86.89132250888518
 21
264.2774710244817
 31
0.0
  0
LINE
  5
DD
330
1F
100
AcDbEntity
  8
通り芯
  6
Continuous
 62
     3
370
     9
100
AcDbLine
 10
-63.39134395366982
 20
164.2774504044966
 30
0.0
 11
-63.39134395366982
 21
264.2774710244817
 31
0.0
  0
LINE
  5
DE
330
1F
100
AcDbEntity
  8
通り芯
  6
Continuous
 62
     3
370
     9
100
AcDbLine
 10
-63.39134395366982
 20
284.2774751484789
 30
0.0
 11
-63.39134395366982
 21
397.2774273101131
 31
0.0
  0
LINE
  5
DF
330
1F
100
AcDbEntity
  8
通り芯
  6
Continuous
 62
     3
370
     9
100
AcDbLine
 10
-86.89132250888518
 20
284.2774751484789
 30
0.0
 11
-86.89132250888518
 21
397.2774273101131
 31
0.0
  0
LINE
  5
E0
330
1F
100
AcDbEntity
  8
通り芯
  6
Continuous
 62
     3
370
     9
100
AcDbLine
 10
-122.3912664225253
 20
284.2774751484789
 30
0.0
 11
-122.3912664225253
 21
397.2774273101131
 31
0.0
  0
LINE
  5
E1
330
1F
100
AcDbEntity
  8
通り芯
  6
Continuous
 62
     3
370
     9
100
AcDbLine
 10
-98.89128786730991
 20
284.2774751484789
 30
0.0
 11
-98.89128786730991
 21
397.2774273101131
 31
0.0
  0
LINE
  5
E2
330
1F
100
AcDbEntity
  8
通り芯
  6
Continuous
 62
     3
370
     9
100
AcDbLine
 10
-98.89128786730991
 20
164.2774504044966
 30
0.0
 11
-98.89128786730991
 21
264.2774710244817
 31
0.0
  0
LINE
  5
E3
330
1F
100
AcDbEntity
  8
通り芯
  6
Continuous
 62
     3
370
     9
100
AcDbLine
 10
-122.3912664225253
 20
164.2774504044966
 30
0.0
 11
-122.3912664225253
 21
264.2774710244817
 31
0.0
  0
LINE
  5
E4
330
1F
100
AcDbEntity
  8
通り芯
  6
Continuous
 62
     3
370
     9
100
AcDbLine
 10
-102.8912763201183
 20
280.2774866956705
 30
0.0
 11
-118.3912779697171
 21
280.2774866956705
 31
0.0
  0
LINE
  5
E5
330
1F
100
AcDbEntity
  8
通り芯
  6
Continuous
 62
     3
370
     9
100
AcDbLine
 10
-102.8912763201183
 20
268.2774594772901
 30
0.0
 11
-118.3912779697171
 21
268.2774594772901
 31
0.0
  0
LINE
  5
E6
330
1F
100
AcDbEntity
  8
通り芯
  6
Continuous
 62
     3
370
     9
100
AcDbLine
 10
-102.8912763201183
 20
401.2772920430101
 30
0.0
 11
-118.3912779697171
 21
401.2772920430101
 31
0.0
  0
LINE
  5
E7
330
1F
100
AcDbEntity
  8
通り芯
  6
Continuous
 62
     3
370
     9
100
AcDbLine
 10
-152.8913175600887
 20
401.2772920430101
 30
0.0
 11
-168.3913192096875
 21
401.2772920430101
 31
0.0
  0
LINE
  5
E8
330
1F
100
AcDbEntity
  8
通り芯
  6
Continuous
 62
     3
370
     9
100
AcDbLine
 10
-152.8913175600887
 20
268.2774594772901
 30
0.0
 11
-168.3913192096875
 21
268.2774594772901
 31
0.0
  0
LINE
  5
E9
330
1F
100
AcDbEntity
  8
通り芯
  6
Continuous
 62
     3
370
     9
100
AcDbLine
 10
-152.8913175600887
 20
280.2774866956705
 30
0.0
 11
-168.3913192096875
 21
280.2774866956705
 31
0.0
  0
LINE
  5
EA
330
1F
100
AcDbEntity
  8
通り芯
  6
Continuous
 62
     3
370
     9
100
AcDbLine
 10
-172.3913076624957
 20
164.2774504044966
 30
0.0
 11
-172.3913076624957
 21
264.2774710244817
 31
0.0
  0
LINE
  5
EB
330
1F
100
AcDbEntity
  8
通り芯
  6
Continuous
 62
     3
370
     9
100
AcDbLine
 10
-148.8913291072803
 20
164.2774504044966
 30
0.0
 11
-148.8913291072803
 21
264.2774710244817
 31
0.0
  0
LINE
  5
EC
330
1F
100
AcDbEntity
  8
通り芯
  6
Continuous
 62
     3
370
     9
100
AcDbLine
 10
-148.8913291072803
 20
284.2774751484789
 30
0.0
 11
-148.8913291072803
 21
397.2774273101131
 31
0.0
  0
LINE
  5
ED
330
1F
100
AcDbEntity
  8
通り芯
  6
Continuous
 62
     3
370
     9
100
AcDbLine
 10
-172.3913076624957
 20
284.2774751484789
 30
0.0
 11
-172.3913076624957
 21
397.2774273101131
 31
0.0
  0
LINE
  5
EE
330
1F
100
AcDbEntity
  8
通り芯
  6
Continuous
 62
     3
370
     9
100
AcDbLine
 10
-207.891251576136
 20
284.2774751484789
 30
0.0
 11
-207.891251576136
 21
397.2774273101131
 31
0.0
  0
LINE
  5
EF
330
1F
100
AcDbEntity
  8
通り芯
  6
Continuous
 62
     3
370
     9
100
AcDbLine
 10
-184.3912730209206
 20
284.2774751484789
 30
0.0
 11
-184.3912730209206
 21
397.2774273101131
 31
0.0
  0
LINE
  5
F0
330
1F
100
AcDbEntity
  8
通り芯
  6
Continuous
 62
     3
370
     9
100
AcDbLine
 10
-184.3912730209206
 20
164.2774504044966
 30
0.0
 11
-184.3912730209206
 21
264.2774710244817
 31
0.0
  0
LINE
  5
F1
330
1F
100
AcDbEntity
  8
通り芯
  6
Continuous
 62
     3
370
     9
100
AcDbLine
 10
-207.891251576136
 20
164.2774504044966
 30
0.0
 11
-207.891251576136
 21
264.2774710244817
 31
0.0
  0
LINE
  5
F2
330
1F
100
AcDbEntity
  8
通り芯
  6
Continuous
 62
     3
370
     9
100
AcDbLine
 10
-188.3912614737289
 20
280.2774866956705
 30
0.0
 11
-203.8912631233278
 21
280.2774866956705
 31
0.0
  0
LINE
  5
F3
330
1F
100
AcDbEntity
  8
通り芯
  6
Continuous
 62
     3
370
     9
100
AcDbLine
 10
-188.3912614737289
 20
268.2774594772901
 30
0.0
 11
-203.8912631233278
 21
268.2774594772901
 31
0.0
  0
LINE
  5
F4
330
1F
100
AcDbEntity
  8
通り芯
  6
Continuous
 62
     3
370
     9
100
AcDbLine
 10
-188.3912614737289
 20
401.2772920430101
 30
0.0
 11
-203.8912631233278
 21
401.2772920430101
 31
0.0
  0
LINE
  5
F5
330
1F
100
AcDbEntity
  8
通り芯
  6
Continuous
 62
     3
370
     9
100
AcDbLine
 10
-223.8913291072804
 20
401.2772920430101
 30
0.0
 11
-239.3913307568792
 21
401.2772920430101
 31
0.0
  0
LINE
  5
F6
330
1F
100
AcDbEntity
  8
通り芯
  6
Continuous
 62
     3
370
     9
100
AcDbLine
 10
-223.8913291072804
 20
268.2774594772901
 30
0.0
 11
-239.3913307568792
 21
268.2774594772901
 31
0.0
  0
LINE
  5
F7
330
1F
100
AcDbEntity
  8
通り芯
  6
Continuous
 62
     3
370
     9
100
AcDbLine
 10
-223.8913291072804
 20
280.2774866956705
 30
0.0
 11
-239.3913307568792
 21
280.2774866956705
 31
0.0
  0
LINE
  5
F8
330
1F
100
AcDbEntity
  8
通り芯
  6
Continuous
 62
     3
370
     9
100
AcDbLine
 10
-243.3913192096875
 20
164.2774504044966
 30
0.0
 11
-243.3913192096875
 21
264.2774710244817
 31
0.0
  0
LINE
  5
F9
330
1F
100
AcDbEntity
  8
通り芯
  6
Continuous
 62
     3
370
     9
100
AcDbLine
 10
-219.8912169345608
 20
164.2774504044966
 30
0.0
 11
-219.8912169345608
 21
264.2774710244817
 31
0.0
  0
LINE
  5
FA
330
1F
100
AcDbEntity
  8
通り芯
  6
Continuous
 62
     3
370
     9
100
AcDbLine
 10
-219.8912169345608
 20
284.2774751484789
 30
0.0
 11
-219.8912169345608
 21
397.2774273101131
 31
0.0
  0
LINE
  5
FB
330
1F
100
AcDbEntity
  8
通り芯
  6
Continuous
 62
     3
370
     9
100
AcDbLine
 10
-243.3913192096875
 20
284.2774751484789
 30
0.0
 11
-243.3913192096875
 21
397.2774273101131
 31
0.0
  0
LINE
  5
FC
330
1F
100
AcDbEntity
  8
通り芯
  6
Continuous
 62
     3
370
     9
100
AcDbLine
 10
-293.3912367297467
 20
284.2774751484789
 30
0.0
 11
-293.3912367297467
 21
397.2774273101131
 31
0.0
  0
LINE
  5
FD
330
1F
100
AcDbEntity
  8
通り芯
  6
Continuous
 62
     3
370
     9
100
AcDbLine
 10
-269.8912581745313
 20
284.2774751484789
 30
0.0
 11
-269.8912581745313
 21
397.2774273101131
 31
0.0
  0
LINE
  5
FE
330
1F
100
AcDbEntity
  8
通り芯
  6
Continuous
 62
     3
370
     9
100
AcDbLine
 10
-269.8912581745313
 20
164.2774504044966
 30
0.0
 11
-269.8912581745313
 21
264.2774710244817
 31
0.0
  0
LINE
  5
FF
330
1F
100
AcDbEntity
  8
通り芯
  6
Continuous
 62
     3
370
     9
100
AcDbLine
 10
-293.3912367297467
 20
164.2774504044966
 30
0.0
 11
-293.3912367297467
 21
264.2774710244817
 31
0.0
  0
LINE
  5
100
330
1F
100
AcDbEntity
  8
通り芯
  6
Continuous
 62
     3
370
     9
100
AcDbLine
 10
-273.8912466273395
 20
280.2774866956705
 30
0.0
 11
-289.3912482769383
 21
280.2774866956705
 31
0.0
  0
LINE
  5
101
330
1F
100
AcDbEntity
  8
通り芯
  6
Continuous
 62
     3
370
     9
100
AcDbLine
 10
-273.8912466273395
 20
268.2774594772901
 30
0.0
 11
-289.3912482769383
 21
268.2774594772901
 31
0.0
  0
LINE
  5
102
330
1F
100
AcDbEntity
  8
通り芯
  6
Continuous
 62
     3
370
     9
100
AcDbLine
 10
-273.8912466273395
 20
401.2772920430101
 30
0.0
 11
-289.3912482769383
 21
401.2772920430101
 31
0.0
  0
LINE
  5
103
330
1F
100
AcDbEntity
  8
通り芯
  6
Continuous
 62
     3
370
     9
100
AcDbLine
 10
-309.391314260891
 20
401.2772920430101
 30
0.0
 11
-324.8913159104899
 21
401.2772920430101
 31
0.0
  0
LINE
  5
104
330
1F
100
AcDbEntity
  8
通り芯
  6
Continuous
 62
     3
370
     9
100
AcDbLine
 10
-309.391314260891
 20
268.2774594772901
 30
0.0
 11
-324.8913159104899
 21
268.2774594772901
 31
0.0
  0
LINE
  5
105
330
1F
100
AcDbEntity
  8
通り芯
  6
Continuous
 62
     3
370
     9
100
AcDbLine
 10
-309.391314260891
 20
280.2774866956705
 30
0.0
 11
-324.8913159104899
 21
280.2774866956705
 31
0.0
  0
LINE
  5
106
330
1F
100
AcDbEntity
  8
通り芯
  6
Continuous
 62
     3
370
     9
100
AcDbLine
 10
-328.8913043632982
 20
164.2774504044966
 30
0.0
 11
-328.8913043632982
 21
264.2774710244817
 31
0.0
  0
LINE
  5
107
330
1F
100
AcDbEntity
  8
通り芯
  6
Continuous
 62
     3
370
     9
100
AcDbLine
 10
-305.3913258080829
 20
164.2774504044966
 30
0.0
 11
-305.3913258080829
 21
264.2774710244817
 31
0.0
  0
LINE
  5
108
330
1F
100
AcDbEntity
  8
通り芯
  6
Continuous
 62
     3
370
     9
100
AcDbLine
 10
-305.3913258080829
 20
284.2774751484789
 30
0.0
 11
-305.3913258080829
 21
397.2774273101131
 31
0.0
  0
LINE
  5
109
330
1F
100
AcDbEntity
  8
通り芯
  6
Continuous
 62
     3
370
     9
100
AcDbLine
 10
-328.8913043632982
 20
284.2774751484789
 30
0.0
 11
-328.8913043632982
 21
397.2774273101131
 31
0.0
  0
LINE
  5
10A
330
1F
100
AcDbEntity
  8
通り芯
  6
Continuous
 62
     3
370
     9
100
AcDbLine
 10
-364.3912482769383
 20
284.2774751484789
 30
0.0
 11
-364.3912482769383
 21
397.2774273101131
 31
0.0
  0
LINE
  5
10B
330
1F
100
AcDbEntity
  8
通り芯
  6
Continuous
 62
     3
370
     9
100
AcDbLine
 10
-340.8912697217229
 20
284.2774751484789
 30
0.0
 11
-340.8912697217229
 21
397.2774273101131
 31
0.0
  0
LINE
  5
10C
330
1F
100
AcDbEntity
  8
通り芯
  6
Continuous
 62
     3
370
     9
100
AcDbLine
 10
-340.8912697217229
 20
164.2774504044966
 30
0.0
 11
-340.8912697217229
 21
264.2774710244817
 31
0.0
  0
LINE
  5
10D
330
1F
100
AcDbEntity
  8
通り芯
  6
Continuous
 62
     3
370
     9
100
AcDbLine
 10
-364.3912482769383
 20
164.2774504044966
 30
0.0
 11
-364.3912482769383
 21
264.2774710244817
 31
0.0
  0
LINE
  5
10E
330
1F
100
AcDbEntity
  8
通り芯
  6
Continuous
 62
     3
370
     9
100
AcDbLine
 10
-344.8912581745313
 20
280.2774866956705
 30
0.0
 11
-360.3912598241301
 21
280.2774866956705
 31
0.0
  0
LINE
  5
10F
330
1F
100
AcDbEntity
  8
通り芯
  6
Continuous
 62
     3
370
     9
100
AcDbLine
 10
-344.8912581745313
 20
268.2774594772901
 30
0.0
 11
-360.3912598241301
 21
268.2774594772901
 31
0.0
  0
LINE
  5
110
330
1F
100
AcDbEntity
  8
通り芯
  6
Continuous
 62
     3
370
     9
100
AcDbLine
 10
-344.8912581745313
 20
401.2772920430101
 30
0.0
 11
-360.3912598241301
 21
401.2772920430101
 31
0.0
  0
LINE
  5
111
330
1F
100
AcDbEntity
  8
通り芯
  6
Continuous
 62
     3
370
     9
100
AcDbLine
 10
119.8586296527492
 20
14.27745040449658
 30
0.0
 11
119.8586296527492
 21
414.2774091645261
 31
0.0
  0
LINE
  5
112
330
1F
100
AcDbEntity
  8
仕上
  6
Continuous
 62
     6
370
     9
100
AcDbLine
 10
-783.3912449777408
 20
56.62745650801219
 30
0.0
 11
-771.3968470153252
 21
49.70248191183393
 31
0.0
  0
LINE
  5
113
330
1F
100
AcDbEntity
  8
仕上
  6
Continuous
 62
     6
370
     9
100
AcDbLine
 10
-795.3857666600676
 20
49.70248191183393
 30
0.0
 11
-783.3912449777408
 21
56.62745650801219
 31
0.0
  0
LINE
  5
114
330
1F
100
AcDbEntity
  8
仕上
  6
Continuous
 62
     6
370
     9
100
AcDbLine
 10
-795.3857666600676
 20
35.85247085952183
 30
0.0
 11
-795.3857666600676
 21
49.70248191183393
 31
0.0
  0
LINE
  5
115
330
1F
100
AcDbEntity
  8
仕上
  6
Continuous
 62
     6
370
     9
100
AcDbLine
 10
-783.3912449777408
 20
28.92743440338798
 30
0.0
 11
-795.3857666600676
 21
35.85247085952183
 31
0.0
  0
LINE
  5
116
330
1F
100
AcDbEntity
  8
仕上
  6
Continuous
 62
     6
370
     9
100
AcDbLine
 10
-771.3968470153252
 20
35.85247085952183
 30
0.0
 11
-783.3912449777408
 21
28.92743440338798
 31
0.0
  0
LINE
  5
117
330
1F
100
AcDbEntity
  8
仕上
  6
Continuous
 62
     6
370
     9
100
AcDbLine
 10
-771.3968470153252
 20
49.70248191183393
 30
0.0
 11
-771.3968470153252
 21
35.85247085952183
 31
0.0
  0
LINE
  5
118
330
1F
100
AcDbEntity
  8
通り芯
  6
Continuous
 62
     3
370
     9
100
AcDbLine
 10
-773.3913357056757
 20
83.77748174687403
 30
0.0
 11
-757.8913340560767
 21
83.77748174687403
 31
0.0
  0
LINE
  5
119
330
1F
100
AcDbEntity
  8
通り芯
  6
Continuous
 62
     3
370
     9
100
AcDbLine
 10
-808.891279619316
 20
83.77748174687403
 30
0.0
 11
-793.3912779697171
 21
83.77748174687403
 31
0.0
  0
LINE
  5
11A
330
1F
100
AcDbEntity
  8
仕上
  6
JWW_CENTER1
 62
     6
370
     9
100
AcDbLine
 10
-819.0943369857642
 20
42.77744545570008
 30
0.0
 11
-747.7923251350466
 21
42.77744545570008
 31
0.0
  0
LINE
  5
11B
330
1F
100
AcDbEntity
  8
仕上
  6
JWW_CENTER1
 62
     6
370
     9
100
AcDbLine
 10
-783.3912449777408
 20
69.890664020945
 30
0.0
 11
-783.3912449777408
 21
17.79202378525035
 31
0.0
  0
LINE
  5
11C
330
1F
100
AcDbEntity
  8
通り芯
  6
Continuous
 62
     3
370
     9
100
AcDbLine
 10
-844.3912853929119
 20
27.277505666057
 30
0.0
 11
-828.8912837433129
 21
27.277505666057
 31
0.0
  0
LINE
  5
11D
330
1F
100
AcDbEntity
  8
通り芯
  6
Continuous
 62
     3
370
     9
100
AcDbLine
 10
-844.3912853929119
 20
160.2774619516882
 30
0.0
 11
-828.8912837433129
 21
160.2774619516882
 31
0.0
  0
LINE
  5
11E
330
1F
100
AcDbEntity
  8
通り芯
  6
Continuous
 62
     3
370
     9
100
AcDbLine
 10
-844.3912853929119
 20
148.2774965932635
 30
0.0
 11
-828.8912837433129
 21
148.2774965932635
 31
0.0
  0
LINE
  5
11F
330
1F
100
AcDbEntity
  8
通り芯
  6
Continuous
 62
     3
370
     9
100
AcDbLine
 10
-848.3913357056757
 20
144.2774462804994
 30
0.0
 11
-848.3913357056757
 21
31.27749411886519
 31
0.0
  0
LINE
  5
120
330
1F
100
AcDbEntity
  8
通り芯
  6
Continuous
 62
     3
370
     9
100
AcDbLine
 10
-824.8912334305488
 20
144.2774462804994
 30
0.0
 11
-824.8912334305488
 21
31.27749411886519
 31
0.0
  0
LINE
  5
121
330
1F
100
AcDbEntity
  8
通り芯
  6
Continuous
 62
     3
370
     9
100
AcDbLine
 10
-789.3912895169087
 20
144.2774462804994
 30
0.0
 11
-789.3912895169087
 21
87.77747019968237
 31
0.0
  0
LINE
  5
122
330
1F
100
AcDbEntity
  8
通り芯
  6
Continuous
 62
     3
370
     9
100
AcDbLine
 10
-812.8912680721244
 20
144.2774462804994
 30
0.0
 11
-812.8912680721244
 21
87.77747019968237
 31
0.0
  0
LINE
  5
123
330
1F
100
AcDbEntity
  8
通り芯
  6
Continuous
 62
     3
370
     9
100
AcDbLine
 10
-808.891279619316
 20
148.2774965932635
 30
0.0
 11
-793.3912779697171
 21
148.2774965932635
 31
0.0
  0
LINE
  5
124
330
1F
100
AcDbEntity
  8
通り芯
  6
Continuous
 62
     3
370
     9
100
AcDbLine
 10
-808.891279619316
 20
160.2774619516882
 30
0.0
 11
-793.3912779697171
 21
160.2774619516882
 31
0.0
  0
LINE
  5
125
330
1F
100
AcDbEntity
  8
通り芯
  6
Continuous
 62
     3
370
     9
100
AcDbLine
 10
-812.8912680721244
 20
63.77747762287703
 30
0.0
 11
-812.8912680721244
 21
21.77747514847887
 31
0.0
  0
LINE
  5
126
330
1F
100
AcDbEntity
  8
通り芯
  6
Continuous
 62
     3
370
     9
100
AcDbLine
 10
-753.8912837433129
 20
63.77747762287703
 30
0.0
 11
-753.8912837433129
 21
21.77747514847887
 31
0.0
  0
LINE
  5
127
330
1F
100
AcDbEntity
  8
通り芯
  6
Continuous
 62
     3
370
     9
100
AcDbLine
 10
-773.3913357056757
 20
160.2774619516882
 30
0.0
 11
-757.8913340560767
 21
160.2774619516882
 31
0.0
  0
LINE
  5
128
330
1F
100
AcDbEntity
  8
通り芯
  6
Continuous
 62
     3
370
     9
100
AcDbLine
 10
-773.3913357056757
 20
148.2774965932635
 30
0.0
 11
-757.8913340560767
 21
148.2774965932635
 31
0.0
  0
LINE
  5
129
330
1F
100
AcDbEntity
  8
通り芯
  6
Continuous
 62
     3
370
     9
100
AcDbLine
 10
-777.391324158484
 20
144.2774462804994
 30
0.0
 11
-777.391324158484
 21
87.77747019968237
 31
0.0
  0
LINE
  5
12A
330
1F
100
AcDbEntity
  8
通り芯
  6
Continuous
 62
     3
370
     9
100
AcDbLine
 10
-753.8912837433129
 20
144.2774462804994
 30
0.0
 11
-753.8912837433129
 21
87.77747019968237
 31
0.0
  0
LINE
  5
12B
330
1F
100
AcDbEntity
  8
通り芯
  6
Continuous
 62
     3
370
     9
100
AcDbLine
 10
-812.8912680721244
 20
63.77747762287703
 30
0.0
 11
-753.8912837433129
 21
63.77747762287703
 31
0.0
  0
LINE
  5
12C
330
1F
100
AcDbEntity
  8
通り芯
  6
Continuous
 62
     3
370
     9
100
AcDbLine
 10
-812.8912680721244
 20
21.77747514847887
 30
0.0
 11
-753.8912837433129
 21
21.77747514847887
 31
0.0
  0
LINE
  5
12D
330
1F
100
AcDbEntity
  8
通り芯
  6
Continuous
 62
     3
370
     9
100
AcDbLine
 10
-703.8913043632982
 20
144.2774462804994
 30
0.0
 11
-703.8913043632982
 21
31.27749411886519
 31
0.0
  0
LINE
  5
12E
330
1F
100
AcDbEntity
  8
通り芯
  6
Continuous
 62
     3
370
     9
100
AcDbLine
 10
-727.3912829185134
 20
144.2774462804994
 30
0.0
 11
-727.3912829185134
 21
31.27749411886519
 31
0.0
  0
LINE
  5
12F
330
1F
100
AcDbEntity
  8
通り芯
  6
Continuous
 62
     3
370
     9
100
AcDbLine
 10
-723.3912944657051
 20
148.2774965932635
 30
0.0
 11
-707.8912928161066
 21
148.2774965932635
 31
0.0
  0
LINE
  5
130
330
1F
100
AcDbEntity
  8
通り芯
  6
Continuous
 62
     3
370
     9
100
AcDbLine
 10
-723.3912944657051
 20
160.2774619516882
 30
0.0
 11
-707.8912928161066
 21
160.2774619516882
 31
0.0
  0
LINE
  5
131
330
1F
100
AcDbEntity
  8
通り芯
  6
Continuous
 62
     3
370
     9
100
AcDbLine
 10
-723.3912944657051
 20
27.277505666057
 30
0.0
 11
-707.8912928161066
 21
27.277505666057
 31
0.0
  0
LINE
  5
132
330
1F
100
AcDbEntity
  8
通り芯
  6
Continuous
 62
     3
370
     9
100
AcDbLine
 10
-687.891350552065
 20
27.277505666057
 30
0.0
 11
-672.391348902466
 21
27.277505666057
 31
0.0
  0
LINE
  5
133
330
1F
100
AcDbEntity
  8
通り芯
  6
Continuous
 62
     3
370
     9
100
AcDbLine
 10
-687.891350552065
 20
160.2774619516882
 30
0.0
 11
-672.391348902466
 21
160.2774619516882
 31
0.0
  0
LINE
  5
134
330
1F
100
AcDbEntity
  8
通り芯
  6
Continuous
 62
     3
370
     9
100
AcDbLine
 10
-687.891350552065
 20
148.2774965932635
 30
0.0
 11
-672.391348902466
 21
148.2774965932635
 31
0.0
  0
LINE
  5
135
330
1F
100
AcDbEntity
  8
通り芯
  6
Continuous
 62
     3
370
     9
100
AcDbLine
 10
-691.8913390048733
 20
144.2774462804994
 30
0.0
 11
-691.8913390048733
 21
31.27749411886519
 31
0.0
  0
LINE
  5
136
330
1F
100
AcDbEntity
  8
通り芯
  6
Continuous
 62
     3
370
     9
100
AcDbLine
 10
-668.3912367297465
 20
144.2774462804994
 30
0.0
 11
-668.3912367297465
 21
31.27749411886519
 31
0.0
  0
LINE
  5
137
330
1F
100
AcDbEntity
  8
通り芯
  6
Continuous
 62
     3
370
     9
100
AcDbLine
 10
-632.8912928161066
 20
144.2774462804994
 30
0.0
 11
-632.8912928161066
 21
31.27749411886519
 31
0.0
  0
LINE
  5
138
330
1F
100
AcDbEntity
  8
通り芯
  6
Continuous
 62
     3
370
     9
100
AcDbLine
 10
-656.3912713713217
 20
144.2774462804994
 30
0.0
 11
-656.3912713713217
 21
31.27749411886519
 31
0.0
  0
LINE
  5
139
330
1F
100
AcDbEntity
  8
通り芯
  6
Continuous
 62
     3
370
     9
100
AcDbLine
 10
-652.3912829185134
 20
148.2774965932635
 30
0.0
 11
-636.8912812689148
 21
148.2774965932635
 31
0.0
  0
LINE
  5
13A
330
1F
100
AcDbEntity
  8
通り芯
  6
Continuous
 62
     3
370
     9
100
AcDbLine
 10
-652.3912829185134
 20
160.2774619516882
 30
0.0
 11
-636.8912812689148
 21
160.2774619516882
 31
0.0
  0
LINE
  5
13B
330
1F
100
AcDbEntity
  8
通り芯
  6
Continuous
 62
     3
370
     9
100
AcDbLine
 10
-652.3912829185134
 20
27.277505666057
 30
0.0
 11
-636.8912812689148
 21
27.277505666057
 31
0.0
  0
LINE
  5
13C
330
1F
100
AcDbEntity
  8
通り芯
  6
Continuous
 62
     3
370
     9
100
AcDbLine
 10
-602.3912416785432
 20
27.277505666057
 30
0.0
 11
-586.8912400289444
 21
27.277505666057
 31
0.0
  0
LINE
  5
13D
330
1F
100
AcDbEntity
  8
通り芯
  6
Continuous
 62
     3
370
     9
100
AcDbLine
 10
-602.3912416785432
 20
160.2774619516882
 30
0.0
 11
-586.8912400289444
 21
160.2774619516882
 31
0.0
  0
LINE
  5
13E
330
1F
100
AcDbEntity
  8
通り芯
  6
Continuous
 62
     3
370
     9
100
AcDbLine
 10
-602.3912416785432
 20
148.2774965932635
 30
0.0
 11
-586.8912400289444
 21
148.2774965932635
 31
0.0
  0
LINE
  5
13F
330
1F
100
AcDbEntity
  8
通り芯
  6
Continuous
 62
     3
370
     9
100
AcDbLine
 10
-606.3913538512628
 20
144.2774462804994
 30
0.0
 11
-606.3913538512628
 21
31.27749411886519
 31
0.0
  0
LINE
  5
140
330
1F
100
AcDbEntity
  8
通り芯
  6
Continuous
 62
     3
370
     9
100
AcDbLine
 10
-582.891251576136
 20
144.2774462804994
 30
0.0
 11
-582.891251576136
 21
31.27749411886519
 31
0.0
  0
LINE
  5
141
330
1F
100
AcDbEntity
  8
通り芯
  6
Continuous
 62
     3
370
     9
100
AcDbLine
 10
-547.3913076624958
 20
144.2774462804994
 30
0.0
 11
-547.3913076624958
 21
31.27749411886519
 31
0.0
  0
LINE
  5
142
330
1F
100
AcDbEntity
  8
通り芯
  6
Continuous
 62
     3
370
     9
100
AcDbLine
 10
-570.8912862177112
 20
144.2774462804994
 30
0.0
 11
-570.8912862177112
 21
31.27749411886519
 31
0.0
  0
LINE
  5
143
330
1F
100
AcDbEntity
  8
通り芯
  6
Continuous
 62
     3
370
     9
100
AcDbLine
 10
-566.8912977649029
 20
148.2774965932635
 30
0.0
 11
-551.3912961153042
 21
148.2774965932635
 31
0.0
  0
LINE
  5
144
330
1F
100
AcDbEntity
  8
通り芯
  6
Continuous
 62
     3
370
     9
100
AcDbLine
 10
-566.8912977649029
 20
160.2774619516882
 30
0.0
 11
-551.3912961153042
 21
160.2774619516882
 31
0.0
  0
LINE
  5
145
330
1F
100
AcDbEntity
  8
通り芯
  6
Continuous
 62
     3
370
     9
100
AcDbLine
 10
-566.8912977649029
 20
27.277505666057
 30
0.0
 11
-551.3912961153042
 21
27.277505666057
 31
0.0
  0
LINE
  5
146
330
1F
100
AcDbEntity
  8
通り芯
  6
Continuous
 62
     3
370
     9
100
AcDbLine
 10
-531.3913538512627
 20
27.277505666057
 30
0.0
 11
-515.891352201664
 21
27.277505666057
 31
0.0
  0
LINE
  5
147
330
1F
100
AcDbEntity
  8
通り芯
  6
Continuous
 62
     3
370
     9
100
AcDbLine
 10
-531.3913538512627
 20
160.2774619516882
 30
0.0
 11
-515.891352201664
 21
160.2774619516882
 31
0.0
  0
LINE
  5
148
330
1F
100
AcDbEntity
  8
通り芯
  6
Continuous
 62
     3
370
     9
100
AcDbLine
 10
-531.3913538512627
 20
148.2774965932635
 30
0.0
 11
-515.891352201664
 21
148.2774965932635
 31
0.0
  0
LINE
  5
149
330
1F
100
AcDbEntity
  8
通り芯
  6
Continuous
 62
     3
370
     9
100
AcDbLine
 10
-535.391342304071
 20
144.2774462804994
 30
0.0
 11
-535.391342304071
 21
31.27749411886519
 31
0.0
  0
LINE
  5
14A
330
1F
100
AcDbEntity
  8
通り芯
  6
Continuous
 62
     3
370
     9
100
AcDbLine
 10
-511.8913637488557
 20
144.2774462804994
 30
0.0
 11
-511.8913637488557
 21
31.27749411886519
 31
0.0
  0
LINE
  5
14B
330
1F
100
AcDbEntity
  8
通り芯
  6
Continuous
 62
     3
370
     9
100
AcDbLine
 10
-461.8913225088852
 20
144.2774462804994
 30
0.0
 11
-461.8913225088852
 21
31.27749411886519
 31
0.0
  0
LINE
  5
14C
330
1F
100
AcDbEntity
  8
通り芯
  6
Continuous
 62
     3
370
     9
100
AcDbLine
 10
-485.3913010641006
 20
144.2774462804994
 30
0.0
 11
-485.3913010641006
 21
31.27749411886519
 31
0.0
  0
LINE
  5
14D
330
1F
100
AcDbEntity
  8
通り芯
  6
Continuous
 62
     3
370
     9
100
AcDbLine
 10
-481.3913126112923
 20
148.2774965932635
 30
0.0
 11
-465.8913109616935
 21
148.2774965932635
 31
0.0
  0
LINE
  5
14E
330
1F
100
AcDbEntity
  8
通り芯
  6
Continuous
 62
     3
370
     9
100
AcDbLine
 10
-481.3913126112923
 20
160.2774619516882
 30
0.0
 11
-465.8913109616935
 21
160.2774619516882
 31
0.0
  0
LINE
  5
14F
330
1F
100
AcDbEntity
  8
通り芯
  6
Continuous
 62
     3
370
     9
100
AcDbLine
 10
-481.3913126112923
 20
27.277505666057
 30
0.0
 11
-465.8913109616935
 21
27.277505666057
 31
0.0
  0
LINE
  5
150
330
1F
100
AcDbEntity
  8
通り芯
  6
Continuous
 62
     3
370
     9
100
AcDbLine
 10
-445.8912449777407
 20
27.277505666057
 30
0.0
 11
-430.3912433281419
 21
27.277505666057
 31
0.0
  0
LINE
  5
151
330
1F
100
AcDbEntity
  8
通り芯
  6
Continuous
 62
     3
370
     9
100
AcDbLine
 10
-445.8912449777407
 20
160.2774619516882
 30
0.0
 11
-430.3912433281419
 21
160.2774619516882
 31
0.0
  0
LINE
  5
152
330
1F
100
AcDbEntity
  8
通り芯
  6
Continuous
 62
     3
370
     9
100
AcDbLine
 10
-445.8912449777407
 20
148.2774965932635
 30
0.0
 11
-430.3912433281419
 21
148.2774965932635
 31
0.0
  0
LINE
  5
153
330
1F
100
AcDbEntity
  8
通り芯
  6
Continuous
 62
     3
370
     9
100
AcDbLine
 10
-449.8913571504604
 20
144.2774462804994
 30
0.0
 11
-449.8913571504604
 21
31.27749411886519
 31
0.0
  0
LINE
  5
154
330
1F
100
AcDbEntity
  8
通り芯
  6
Continuous
 62
     3
370
     9
100
AcDbLine
 10
-426.3912548753336
 20
144.2774462804994
 30
0.0
 11
-426.3912548753336
 21
31.27749411886519
 31
0.0
  0
LINE
  5
155
330
1F
100
AcDbEntity
  8
通り芯
  6
Continuous
 62
     3
370
     9
100
AcDbLine
 10
-390.8913109616934
 20
144.2774462804994
 30
0.0
 11
-390.8913109616934
 21
31.27749411886519
 31
0.0
  0
LINE
  5
156
330
1F
100
AcDbEntity
  8
通り芯
  6
Continuous
 62
     3
370
     9
100
AcDbLine
 10
-414.3912895169088
 20
144.2774462804994
 30
0.0
 11
-414.3912895169088
 21
31.27749411886519
 31
0.0
  0
LINE
  5
157
330
1F
100
AcDbEntity
  8
通り芯
  6
Continuous
 62
     3
370
     9
100
AcDbLine
 10
-410.3913010641006
 20
148.2774965932635
 30
0.0
 11
-394.8912994145018
 21
148.2774965932635
 31
0.0
  0
LINE
  5
158
330
1F
100
AcDbEntity
  8
通り芯
  6
Continuous
 62
     3
370
     9
100
AcDbLine
 10
-410.3913010641006
 20
160.2774619516882
 30
0.0
 11
-394.8912994145018
 21
160.2774619516882
 31
0.0
  0
LINE
  5
159
330
1F
100
AcDbEntity
  8
通り芯
  6
Continuous
 62
     3
370
     9
100
AcDbLine
 10
-410.3913010641006
 20
27.277505666057
 30
0.0
 11
-394.8912994145018
 21
27.277505666057
 31
0.0
  0
LINE
  5
15A
330
1F
100
AcDbEntity
  8
通り芯
  6
Continuous
 62
     3
370
     9
100
AcDbLine
 10
-875.141312611292
 20
14.27745040449658
 30
0.0
 11
119.8586296527492
 21
14.27745040449658
 31
0.0
  0
LINE
  5
15B
330
1F
100
AcDbEntity
  8
通り芯
  6
Continuous
 62
     3
370
     9
100
AcDbLine
 10
-344.8912581745313
 20
27.277505666057
 30
0.0
 11
-360.3912598241301
 21
27.277505666057
 31
0.0
  0
LINE
  5
15C
330
1F
100
AcDbEntity
  8
通り芯
  6
Continuous
 62
     3
370
     9
100
AcDbLine
 10
-344.8912581745313
 20
160.2774619516882
 30
0.0
 11
-360.3912598241301
 21
160.2774619516882
 31
0.0
  0
LINE
  5
15D
330
1F
100
AcDbEntity
  8
通り芯
  6
Continuous
 62
     3
370
     9
100
AcDbLine
 10
-344.8912581745313
 20
148.2774965932635
 30
0.0
 11
-360.3912598241301
 21
148.2774965932635
 31
0.0
  0
LINE
  5
15E
330
1F
100
AcDbEntity
  8
通り芯
  6
Continuous
 62
     3
370
     9
100
AcDbLine
 10
-340.8912697217229
 20
144.2774462804994
 30
0.0
 11
-340.8912697217229
 21
31.27749411886519
 31
0.0
  0
LINE
  5
15F
330
1F
100
AcDbEntity
  8
通り芯
  6
Continuous
 62
     3
370
     9
100
AcDbLine
 10
-364.3912482769383
 20
144.2774462804994
 30
0.0
 11
-364.3912482769383
 21
31.27749411886519
 31
0.0
  0
LINE
  5
160
330
1F
100
AcDbEntity
  8
通り芯
  6
Continuous
 62
     3
370
     9
100
AcDbLine
 10
-328.8913043632982
 20
144.2774462804994
 30
0.0
 11
-328.8913043632982
 21
31.27749411886519
 31
0.0
  0
LINE
  5
161
330
1F
100
AcDbEntity
  8
通り芯
  6
Continuous
 62
     3
370
     9
100
AcDbLine
 10
-305.3913258080829
 20
144.2774462804994
 30
0.0
 11
-305.3913258080829
 21
31.27749411886519
 31
0.0
  0
LINE
  5
162
330
1F
100
AcDbEntity
  8
通り芯
  6
Continuous
 62
     3
370
     9
100
AcDbLine
 10
-309.391314260891
 20
148.2774965932635
 30
0.0
 11
-324.8913159104899
 21
148.2774965932635
 31
0.0
  0
LINE
  5
163
330
1F
100
AcDbEntity
  8
通り芯
  6
Continuous
 62
     3
370
     9
100
AcDbLine
 10
-309.391314260891
 20
160.2774619516882
 30
0.0
 11
-324.8913159104899
 21
160.2774619516882
 31
0.0
  0
LINE
  5
164
330
1F
100
AcDbEntity
  8
通り芯
  6
Continuous
 62
     3
370
     9
100
AcDbLine
 10
-309.391314260891
 20
27.277505666057
 30
0.0
 11
-324.8913159104899
 21
27.277505666057
 31
0.0
  0
LINE
  5
165
330
1F
100
AcDbEntity
  8
通り芯
  6
Continuous
 62
     3
370
     9
100
AcDbLine
 10
-273.8912466273395
 20
27.277505666057
 30
0.0
 11
-289.3912482769383
 21
27.277505666057
 31
0.0
  0
LINE
  5
166
330
1F
100
AcDbEntity
  8
通り芯
  6
Continuous
 62
     3
370
     9
100
AcDbLine
 10
-273.8912466273395
 20
160.2774619516882
 30
0.0
 11
-289.3912482769383
 21
160.2774619516882
 31
0.0
  0
LINE
  5
167
330
1F
100
AcDbEntity
  8
通り芯
  6
Continuous
 62
     3
370
     9
100
AcDbLine
 10
-273.8912466273395
 20
148.2774965932635
 30
0.0
 11
-289.3912482769383
 21
148.2774965932635
 31
0.0
  0
LINE
  5
168
330
1F
100
AcDbEntity
  8
通り芯
  6
Continuous
 62
     3
370
     9
100
AcDbLine
 10
-269.8912581745313
 20
144.2774462804994
 30
0.0
 11
-269.8912581745313
 21
31.27749411886519
 31
0.0
  0
LINE
  5
169
330
1F
100
AcDbEntity
  8
通り芯
  6
Continuous
 62
     3
370
     9
100
AcDbLine
 10
-293.3912367297467
 20
144.2774462804994
 30
0.0
 11
-293.3912367297467
 21
31.27749411886519
 31
0.0
  0
LINE
  5
16A
330
1F
100
AcDbEntity
  8
通り芯
  6
Continuous
 62
     3
370
     9
100
AcDbLine
 10
-243.3913192096875
 20
144.2774462804994
 30
0.0
 11
-243.3913192096875
 21
31.27749411886519
 31
0.0
  0
LINE
  5
16B
330
1F
100
AcDbEntity
  8
通り芯
  6
Continuous
 62
     3
370
     9
100
AcDbLine
 10
-219.8912169345608
 20
144.2774462804994
 30
0.0
 11
-219.8912169345608
 21
31.27749411886519
 31
0.0
  0
LINE
  5
16C
330
1F
100
AcDbEntity
  8
通り芯
  6
Continuous
 62
     3
370
     9
100
AcDbLine
 10
-223.8913291072804
 20
148.2774965932635
 30
0.0
 11
-239.3913307568792
 21
148.2774965932635
 31
0.0
  0
LINE
  5
16D
330
1F
100
AcDbEntity
  8
通り芯
  6
Continuous
 62
     3
370
     9
100
AcDbLine
 10
-223.8913291072804
 20
160.2774619516882
 30
0.0
 11
-239.3913307568792
 21
160.2774619516882
 31
0.0
  0
LINE
  5
16E
330
1F
100
AcDbEntity
  8
通り芯
  6
Continuous
 62
     3
370
     9
100
AcDbLine
 10
-223.8913291072804
 20
27.277505666057
 30
0.0
 11
-239.3913307568792
 21
27.277505666057
 31
0.0
  0
LINE
  5
16F
330
1F
100
AcDbEntity
  8
通り芯
  6
Continuous
 62
     3
370
     9
100
AcDbLine
 10
-188.3912614737289
 20
27.277505666057
 30
0.0
 11
-203.8912631233278
 21
27.277505666057
 31
0.0
  0
LINE
  5
170
330
1F
100
AcDbEntity
  8
通り芯
  6
Continuous
 62
     3
370
     9
100
AcDbLine
 10
-188.3912614737289
 20
160.2774619516882
 30
0.0
 11
-203.8912631233278
 21
160.2774619516882
 31
0.0
  0
LINE
  5
171
330
1F
100
AcDbEntity
  8
通り芯
  6
Continuous
 62
     3
370
     9
100
AcDbLine
 10
-188.3912614737289
 20
148.2774965932635
 30
0.0
 11
-203.8912631233278
 21
148.2774965932635
 31
0.0
  0
LINE
  5
172
330
1F
100
AcDbEntity
  8
通り芯
  6
Continuous
 62
     3
370
     9
100
AcDbLine
 10
-184.3912730209206
 20
144.2774462804994
 30
0.0
 11
-184.3912730209206
 21
31.27749411886519
 31
0.0
  0
LINE
  5
173
330
1F
100
AcDbEntity
  8
通り芯
  6
Continuous
 62
     3
370
     9
100
AcDbLine
 10
-207.891251576136
 20
144.2774462804994
 30
0.0
 11
-207.891251576136
 21
31.27749411886519
 31
0.0
  0
LINE
  5
174
330
1F
100
AcDbEntity
  8
通り芯
  6
Continuous
 62
     3
370
     9
100
AcDbLine
 10
-172.3913076624957
 20
144.2774462804994
 30
0.0
 11
-172.3913076624957
 21
31.27749411886519
 31
0.0
  0
LINE
  5
175
330
1F
100
AcDbEntity
  8
通り芯
  6
Continuous
 62
     3
370
     9
100
AcDbLine
 10
-148.8913291072803
 20
144.2774462804994
 30
0.0
 11
-148.8913291072803
 21
31.27749411886519
 31
0.0
  0
LINE
  5
176
330
1F
100
AcDbEntity
  8
通り芯
  6
Continuous
 62
     3
370
     9
100
AcDbLine
 10
-152.8913175600887
 20
148.2774965932635
 30
0.0
 11
-168.3913192096875
 21
148.2774965932635
 31
0.0
  0
LINE
  5
177
330
1F
100
AcDbEntity
  8
通り芯
  6
Continuous
 62
     3
370
     9
100
AcDbLine
 10
-152.8913175600887
 20
160.2774619516882
 30
0.0
 11
-168.3913192096875
 21
160.2774619516882
 31
0.0
  0
LINE
  5
178
330
1F
100
AcDbEntity
  8
通り芯
  6
Continuous
 62
     3
370
     9
100
AcDbLine
 10
-152.8913175600887
 20
27.277505666057
 30
0.0
 11
-168.3913192096875
 21
27.277505666057
 31
0.0
  0
LINE
  5
179
330
1F
100
AcDbEntity
  8
通り芯
  6
Continuous
 62
     3
370
     9
100
AcDbLine
 10
-102.8912763201183
 20
27.277505666057
 30
0.0
 11
-118.3912779697171
 21
27.277505666057
 31
0.0
  0
LINE
  5
17A
330
1F
100
AcDbEntity
  8
通り芯
  6
Continuous
 62
     3
370
     9
100
AcDbLine
 10
-102.8912763201183
 20
160.2774619516882
 30
0.0
 11
-118.3912779697171
 21
160.2774619516882
 31
0.0
  0
LINE
  5
17B
330
1F
100
AcDbEntity
  8
通り芯
  6
Continuous
 62
     3
370
     9
100
AcDbLine
 10
-102.8912763201183
 20
148.2774965932635
 30
0.0
 11
-118.3912779697171
 21
148.2774965932635
 31
0.0
  0
LINE
  5
17C
330
1F
100
AcDbEntity
  8
通り芯
  6
Continuous
 62
     3
370
     9
100
AcDbLine
 10
-98.89128786730991
 20
144.2774462804994
 30
0.0
 11
-98.89128786730991
 21
31.27749411886519
 31
0.0
  0
LINE
  5
17D
330
1F
100
AcDbEntity
  8
通り芯
  6
Continuous
 62
     3
370
     9
100
AcDbLine
 10
-122.3912664225253
 20
144.2774462804994
 30
0.0
 11
-122.3912664225253
 21
31.27749411886519
 31
0.0
  0
LINE
  5
17E
330
1F
100
AcDbEntity
  8
通り芯
  6
Continuous
 62
     3
370
     9
100
AcDbLine
 10
-86.89132250888518
 20
144.2774462804994
 30
0.0
 11
-86.89132250888518
 21
31.27749411886519
 31
0.0
  0
LINE
  5
17F
330
1F
100
AcDbEntity
  8
通り芯
  6
Continuous
 62
     3
370
     9
100
AcDbLine
 10
-63.39134395366982
 20
144.2774462804994
 30
0.0
 11
-63.39134395366982
 21
31.27749411886519
 31
0.0
  0
LINE
  5
180
330
1F
100
AcDbEntity
  8
通り芯
  6
Continuous
 62
     3
370
     9
100
AcDbLine
 10
-67.39133240647801
 20
148.2774965932635
 30
0.0
 11
-82.89133405607684
 21
148.2774965932635
 31
0.0
  0
LINE
  5
181
330
1F
100
AcDbEntity
  8
通り芯
  6
Continuous
 62
     3
370
     9
100
AcDbLine
 10
-67.39133240647801
 20
160.2774619516882
 30
0.0
 11
-82.89133405607684
 21
160.2774619516882
 31
0.0
  0
LINE
  5
182
330
1F
100
AcDbEntity
  8
通り芯
  6
Continuous
 62
     3
370
     9
100
AcDbLine
 10
-67.39133240647801
 20
27.277505666057
 30
0.0
 11
-82.89133405607684
 21
27.277505666057
 31
0.0
  0
LINE
  5
183
330
1F
100
AcDbEntity
  8
通り芯
  6
Continuous
 62
     3
370
     9
100
AcDbLine
 10
-31.89126477292644
 20
27.277505666057
 30
0.0
 11
-47.39139014243661
 21
27.277505666057
 31
0.0
  0
LINE
  5
184
330
1F
100
AcDbEntity
  8
通り芯
  6
Continuous
 62
     3
370
     9
100
AcDbLine
 10
-31.89126477292644
 20
160.2774619516882
 30
0.0
 11
-47.39139014243661
 21
160.2774619516882
 31
0.0
  0
LINE
  5
185
330
1F
100
AcDbEntity
  8
通り芯
  6
Continuous
 62
     3
370
     9
100
AcDbLine
 10
-31.89126477292644
 20
148.2774965932635
 30
0.0
 11
-47.39139014243661
 21
148.2774965932635
 31
0.0
  0
LINE
  5
186
330
1F
100
AcDbEntity
  8
通り芯
  6
Continuous
 62
     3
370
     9
100
AcDbLine
 10
-27.89140004002958
 20
144.2774462804994
 30
0.0
 11
-27.89140004002958
 21
31.27749411886519
 31
0.0
  0
LINE
  5
187
330
1F
100
AcDbEntity
  8
通り芯
  6
Continuous
 62
     3
370
     9
100
AcDbLine
 10
-51.39125487533362
 20
144.2774462804994
 30
0.0
 11
-51.39125487533362
 21
31.27749411886519
 31
0.0
  0
LINE
  5
188
330
1F
100
AcDbEntity
  8
通り芯
  6
Continuous
 62
     3
370
     9
100
AcDbLine
 10
57.60870883349243
 20
21.77747514847887
 30
0.0
 11
-1.391337355274498
 21
21.77747514847887
 31
0.0
  0
LINE
  5
189
330
1F
100
AcDbEntity
  8
通り芯
  6
Continuous
 62
     3
370
     9
100
AcDbLine
 10
57.60870883349243
 20
63.77747762287703
 30
0.0
 11
-1.391337355274498
 21
63.77747762287703
 31
0.0
  0
LINE
  5
18A
330
1F
100
AcDbEntity
  8
通り芯
  6
Continuous
 62
     3
370
     9
100
AcDbLine
 10
-1.391337355274498
 20
144.2774462804994
 30
0.0
 11
-1.391337355274498
 21
87.77747019968237
 31
0.0
  0
LINE
  5
18B
330
1F
100
AcDbEntity
  8
通り芯
  6
Continuous
 62
     3
370
     9
100
AcDbLine
 10
22.1087649198522
 20
144.2774462804994
 30
0.0
 11
22.1087649198522
 21
87.77747019968237
 31
0.0
  0
LINE
  5
18C
330
1F
100
AcDbEntity
  8
通り芯
  6
Continuous
 62
     3
370
     9
100
AcDbLine
 10
18.10865274713267
 20
148.2774965932635
 30
0.0
 11
2.60877481744517
 21
148.2774965932635
 31
0.0
  0
LINE
  5
18D
330
1F
100
AcDbEntity
  8
通り芯
  6
Continuous
 62
     3
370
     9
100
AcDbLine
 10
18.10865274713267
 20
160.2774619516882
 30
0.0
 11
2.60877481744517
 21
160.2774619516882
 31
0.0
  0
LINE
  5
18E
330
1F
100
AcDbEntity
  8
通り芯
  6
Continuous
 62
     3
370
     9
100
AcDbLine
 10
-1.391337355274498
 20
63.77747762287703
 30
0.0
 11
-1.391337355274498
 21
21.77747514847887
 31
0.0
  0
LINE
  5
18F
330
1F
100
AcDbEntity
  8
通り芯
  6
Continuous
 62
     3
370
     9
100
AcDbLine
 10
57.60870883349243
 20
63.77747762287703
 30
0.0
 11
57.60870883349243
 21
21.77747514847887
 31
0.0
  0
LINE
  5
190
330
1F
100
AcDbEntity
  8
通り芯
  6
Continuous
 62
     3
370
     9
100
AcDbLine
 10
53.60859666077276
 20
160.2774619516882
 30
0.0
 11
38.10871873108526
 21
160.2774619516882
 31
0.0
  0
LINE
  5
191
330
1F
100
AcDbEntity
  8
通り芯
  6
Continuous
 62
     3
370
     9
100
AcDbLine
 10
53.60859666077276
 20
148.2774965932635
 30
0.0
 11
38.10871873108526
 21
148.2774965932635
 31
0.0
  0
LINE
  5
192
330
1F
100
AcDbEntity
  8
通り芯
  6
Continuous
 62
     3
370
     9
100
AcDbLine
 10
57.60870883349243
 20
144.2774462804994
 30
0.0
 11
57.60870883349243
 21
87.77747019968237
 31
0.0
  0
LINE
  5
193
330
1F
100
AcDbEntity
  8
通り芯
  6
Continuous
 62
     3
370
     9
100
AcDbLine
 10
34.10860655836574
 20
144.2774462804994
 30
0.0
 11
34.10860655836574
 21
87.77747019968237
 31
0.0
  0
LINE
  5
194
330
1F
100
AcDbEntity
  8
通り芯
  6
Continuous
 62
     3
370
     9
100
AcDbLine
 10
69.60855047200597
 20
144.2774462804994
 30
0.0
 11
69.60855047200597
 21
31.27749411886519
 31
0.0
  0
LINE
  5
195
330
1F
100
AcDbEntity
  8
通り芯
  6
Continuous
 62
     3
370
     9
100
AcDbLine
 10
93.10865274713267
 20
144.2774462804994
 30
0.0
 11
93.10865274713267
 21
31.27749411886519
 31
0.0
  0
LINE
  5
196
330
1F
100
AcDbEntity
  8
通り芯
  6
Continuous
 62
     3
370
     9
100
AcDbLine
 10
89.108540574413
 20
148.2774965932635
 30
0.0
 11
73.6086626447255
 21
148.2774965932635
 31
0.0
  0
LINE
  5
197
330
1F
100
AcDbEntity
  8
通り芯
  6
Continuous
 62
     3
370
     9
100
AcDbLine
 10
89.108540574413
 20
160.2774619516882
 30
0.0
 11
73.6086626447255
 21
160.2774619516882
 31
0.0
  0
LINE
  5
198
330
1F
100
AcDbEntity
  8
通り芯
  6
Continuous
 62
     3
370
     9
100
AcDbLine
 10
89.108540574413
 20
27.277505666057
 30
0.0
 11
73.6086626447255
 21
27.277505666057
 31
0.0
  0
LINE
  5
199
330
1F
100
AcDbEntity
  8
仕上
  6
JWW_CENTER1
 62
     6
370
     9
100
AcDbLine
 10
28.10868573910897
 20
69.890664020945
 30
0.0
 11
28.10868573910897
 21
17.79202378525035
 31
0.0
  0
LINE
  5
19A
330
1F
100
AcDbEntity
  8
仕上
  6
JWW_CENTER1
 62
     6
370
     9
100
AcDbLine
 10
63.81177774713267
 20
42.77744545570008
 30
0.0
 11
-7.490234103585305
 21
42.77744545570008
 31
0.0
  0
LINE
  5
19B
330
1F
100
AcDbEntity
  8
通り芯
  6
Continuous
 62
     3
370
     9
100
AcDbLine
 10
53.60859666077276
 20
83.77748174687403
 30
0.0
 11
38.10871873108526
 21
83.77748174687403
 31
0.0
  0
LINE
  5
19C
330
1F
100
AcDbEntity
  8
通り芯
  6
Continuous
 62
     3
370
     9
100
AcDbLine
 10
18.10865274713267
 20
83.77748174687403
 30
0.0
 11
2.60877481744517
 21
83.77748174687403
 31
0.0
  0
LINE
  5
19D
330
1F
100
AcDbEntity
  8
仕上
  6
Continuous
 62
     6
370
     9
100
AcDbLine
 10
16.11428777669348
 20
49.70248191183393
 30
0.0
 11
16.11428777669348
 21
35.85247085952183
 31
0.0
  0
LINE
  5
19E
330
1F
100
AcDbEntity
  8
仕上
  6
Continuous
 62
     6
370
     9
100
AcDbLine
 10
16.11428777669348
 20
35.85247085952183
 30
0.0
 11
28.10868573910897
 21
28.92743440338798
 31
0.0
  0
LINE
  5
19F
330
1F
100
AcDbEntity
  8
仕上
  6
Continuous
 62
     6
370
     9
100
AcDbLine
 10
28.10868573910897
 20
28.92743440338798
 30
0.0
 11
40.10320742143578
 21
35.85247085952183
 31
0.0
  0
LINE
  5
1A0
330
1F
100
AcDbEntity
  8
仕上
  6
Continuous
 62
     6
370
     9
100
AcDbLine
 10
40.10320742143578
 20
35.85247085952183
 30
0.0
 11
40.10320742143578
 21
49.70248191183393
 31
0.0
  0
LINE
  5
1A1
330
1F
100
AcDbEntity
  8
仕上
  6
Continuous
 62
     6
370
     9
100
AcDbLine
 10
40.10320742143578
 20
49.70248191183393
 30
0.0
 11
28.10868573910897
 21
56.62745650801219
 31
0.0
  0
LINE
  5
1A2
330
1F
100
AcDbEntity
  8
仕上
  6
Continuous
 62
     6
370
     9
100
AcDbLine
 10
28.10868573910897
 20
56.62745650801219
 30
0.0
 11
16.11428777669348
 21
49.70248191183393
 31
0.0
  0
LINE
  5
1A3
330
1F
100
AcDbEntity
  8
通り芯
  6
JWW_PHANTOM1
 62
     3
370
     9
100
AcDbLine
 10
124.8586461487374
 20
14.27745040449658
 30
0.0
 11
124.8586461487374
 21
414.2774091645261
 31
0.0
  0
LINE
  5
1A4
330
1F
100
AcDbEntity
  8
その他
  6
Continuous
 62
     7
370
     9
100
AcDbLine
 10
-877.6413208592863
 20
507.2770479023851
 30
0.0
 11
289.8586956367018
 21
507.2770479023851
 31
0.0
  0
LINE
  5
1A5
330
1F
100
AcDbEntity
  8
その他
  6
Continuous
 62
     7
370
     9
100
AcDbLine
 10
-777.6413002393009
 20
475.4501007159408
 30
0.0
 11
-777.6413002393009
 21
508.7770281071994
 31
0.0
  0
LINE
  5
1A6
330
1F
100
AcDbEntity
  8
その他
  6
Continuous
 62
     7
370
     9
100
AcDbLine
 10
-877.6413208592863
 20
507.2770479023851
 30
0.0
 11
-865.2482354826499
 21
508.9086660928411
 31
0.0
  0
LINE
  5
1A7
330
1F
100
AcDbEntity
  8
その他
  6
Continuous
 62
     7
370
     9
100
AcDbLine
 10
-877.6413208592863
 20
507.2770479023851
 30
0.0
 11
-865.2482354826499
 21
505.6454297119291
 31
0.0
  0
LINE
  5
1A8
330
1F
100
AcDbEntity
  8
その他
  6
Continuous
 62
     7
370
     9
100
AcDbLine
 10
-765.2482148626648
 20
505.6454297119291
 30
0.0
 11
-790.0343856159374
 21
508.9086660928411
 31
0.0
  0
LINE
  5
1A9
330
1F
100
AcDbEntity
  8
その他
  6
Continuous
 62
     7
370
     9
100
AcDbLine
 10
-765.2482148626648
 20
508.9086660928411
 30
0.0
 11
-790.0343856159374
 21
505.6454297119291
 31
0.0
  0
LINE
  5
1AA
330
1F
100
AcDbEntity
  8
その他
  6
Continuous
 62
     7
370
     9
100
AcDbLine
 10
-417.64128786731
 20
475.4501007159408
 30
0.0
 11
-417.64128786731
 21
508.7770281071994
 31
0.0
  0
LINE
  5
1AB
330
1F
100
AcDbEntity
  8
その他
  6
Continuous
 62
     7
370
     9
100
AcDbLine
 10
-405.248140630718
 20
505.6454297119291
 30
0.0
 11
-430.0343113839907
 21
508.9086660928411
 31
0.0
  0
LINE
  5
1AC
330
1F
100
AcDbEntity
  8
その他
  6
Continuous
 62
     7
370
     9
100
AcDbLine
 10
-405.248140630718
 20
508.9086660928411
 30
0.0
 11
-430.0343113839907
 21
505.6454297119291
 31
0.0
  0
LINE
  5
1AD
330
1F
100
AcDbEntity
  8
その他
  6
Continuous
 62
     7
370
     9
100
AcDbLine
 10
-57.64108991545184
 20
475.4501007159408
 30
0.0
 11
-57.64108991545184
 21
508.7770281071994
 31
0.0
  0
LINE
  5
1AE
330
1F
100
AcDbEntity
  8
その他
  6
Continuous
 62
     7
370
     9
100
AcDbLine
 10
-45.24806639877112
 20
505.6454297119291
 30
0.0
 11
-70.03411343213257
 21
508.9086660928411
 31
0.0
  0
LINE
  5
1AF
330
1F
100
AcDbEntity
  8
その他
  6
Continuous
 62
     7
370
     9
100
AcDbLine
 10
-45.24806639877112
 20
508.9086660928411
 30
0.0
 11
-70.03411343213257
 21
505.6454297119291
 31
0.0
  0
LINE
  5
1B0
330
1F
100
AcDbEntity
  8
その他
  6
Continuous
 62
     7
370
     9
100
AcDbLine
 10
-877.6413208592863
 20
547.2771798702904
 30
0.0
 11
289.8586956367018
 21
547.2771798702904
 31
0.0
  0
LINE
  5
1B1
330
1F
100
AcDbEntity
  8
その他
  6
Continuous
 62
     7
370
     9
100
AcDbLine
 10
-877.6413208592863
 20
436.7772359566502
 30
0.0
 11
-877.6413208592863
 21
548.7771600751047
 31
0.0
  0
LINE
  5
1B2
330
1F
100
AcDbEntity
  8
その他
  6
Continuous
 62
     7
370
     9
100
AcDbLine
 10
-877.6413208592863
 20
547.2771798702904
 30
0.0
 11
-865.2482354826499
 21
548.9087980607464
 31
0.0
  0
LINE
  5
1B3
330
1F
100
AcDbEntity
  8
その他
  6
Continuous
 62
     7
370
     9
100
AcDbLine
 10
-877.6413208592863
 20
547.2771798702904
 30
0.0
 11
-865.2482354826499
 21
545.6455616798344
 31
0.0
  0
LINE
  5
1B4
330
1F
100
AcDbEntity
  8
その他
  6
Continuous
 62
     7
370
     9
100
AcDbLine
 10
119.8586296527492
 20
1.777471024481692
 30
0.0
 11
119.8586296527492
 21
-136.4343102453135
 31
0.0
  0
LINE
  5
1B5
330
1F
100
AcDbEntity
  8
その他
  6
Continuous
 62
     7
370
     9
100
AcDbLine
 10
119.8586296527492
 20
-134.9343300404994
 30
0.0
 11
107.4656061360685
 21
-133.3027118500432
 31
0.0
  0
LINE
  5
1B6
330
1F
100
AcDbEntity
  8
その他
  6
Continuous
 62
     7
370
     9
100
AcDbLine
 10
119.8586296527492
 20
-134.9343300404994
 30
0.0
 11
107.4656061360685
 21
-136.565824511044
 31
0.0
  0
LINE
  5
1B7
330
1F
100
AcDbEntity
  8
その他
  6
Continuous
 62
     7
370
     9
100
AcDbLine
 10
-921.9290900738134
 20
-134.9343300404994
 30
0.0
 11
289.8586956367018
 21
-134.9343300404994
 31
0.0
  0
LINE
  5
1B8
330
1F
100
AcDbEntity
  8
その他
  6
Continuous
 62
     7
370
     9
100
AcDbLine
 10
124.8586461487374
 20
1.777471024481692
 30
0.0
 11
124.8586461487374
 21
-136.4343102453135
 31
0.0
  0
LINE
  5
1B9
330
1F
100
AcDbEntity
  8
その他
  6
Continuous
 62
     7
370
     9
100
AcDbLine
 10
124.8586461487374
 20
-134.9343300404994
 30
0.0
 11
137.2516696654181
 21
-133.3027118500432
 31
0.0
  0
LINE
  5
1BA
330
1F
100
AcDbEntity
  8
その他
  6
Continuous
 62
     7
370
     9
100
AcDbLine
 10
124.8586461487374
 20
-134.9343300404994
 30
0.0
 11
137.2516696654181
 21
-136.565824511044
 31
0.0
  0
LINE
  5
1BB
330
1F
100
AcDbEntity
  8
その他
  6
Continuous
 62
     7
370
     9
100
AcDbLine
 10
-875.141312611292
 20
1.777471024481692
 30
0.0
 11
-875.141312611292
 21
-136.4343102453135
 31
0.0
  0
LINE
  5
1BC
330
1F
100
AcDbEntity
  8
その他
  6
Continuous
 62
     7
370
     9
100
AcDbLine
 10
-877.6413208592863
 20
-8.222561967494606
 30
0.0
 11
-877.6413208592863
 21
-136.4343102453135
 31
0.0
  0
LINE
  5
1BD
330
1F
100
AcDbEntity
  8
その他
  6
Continuous
 62
     7
370
     9
100
AcDbLine
 10
-875.141312611292
 20
-134.9343300404994
 30
0.0
 11
-862.7481653747004
 21
-133.3027118500432
 31
0.0
  0
LINE
  5
1BE
330
1F
100
AcDbEntity
  8
その他
  6
Continuous
 62
     7
370
     9
100
AcDbLine
 10
-875.141312611292
 20
-134.9343300404994
 30
0.0
 11
-862.7481653747004
 21
-136.565824511044
 31
0.0
  0
LINE
  5
1BF
330
1F
100
AcDbEntity
  8
その他
  6
Continuous
 62
     7
370
     9
100
AcDbLine
 10
-877.6413208592863
 20
-134.9343300404994
 30
0.0
 11
-890.0343443759671
 21
-133.3027118500432
 31
0.0
  0
LINE
  5
1C0
330
1F
100
AcDbEntity
  8
その他
  6
Continuous
 62
     7
370
     9
100
AcDbLine
 10
-877.6413208592863
 20
-134.9343300404994
 30
0.0
 11
-890.0343443759671
 21
-136.565824511044
 31
0.0
  0
LINE
  5
1C1
330
1F
100
AcDbEntity
  8
その他
  6
Continuous
 62
     7
370
     9
100
AcDbLine
 10
-207.891251576136
 20
18.77757659880608
 30
0.0
 11
-207.891251576136
 21
-47.22241845239747
 31
0.0
  0
LINE
  5
1C2
330
1F
100
AcDbEntity
  8
その他
  6
Continuous
 62
     7
370
     9
100
AcDbLine
 10
-219.8912169345608
 20
18.77757659880608
 30
0.0
 11
-219.8912169345608
 21
-47.22241845239747
 31
0.0
  0
LINE
  5
1C3
330
1F
100
AcDbEntity
  8
その他
  6
Continuous
 62
     7
370
     9
100
AcDbLine
 10
-207.891251576136
 20
-45.72243824758328
 30
0.0
 11
-195.4982280594552
 21
-44.0908200571273
 31
0.0
  0
LINE
  5
1C4
330
1F
100
AcDbEntity
  8
その他
  6
Continuous
 62
     7
370
     9
100
AcDbLine
 10
-207.891251576136
 20
-45.72243824758328
 30
0.0
 11
-195.4982280594552
 21
-47.35393271812807
 31
0.0
  0
LINE
  5
1C5
330
1F
100
AcDbEntity
  8
その他
  6
Continuous
 62
     7
370
     9
100
AcDbLine
 10
-243.3913192096875
 20
18.77757659880608
 30
0.0
 11
-243.3913192096875
 21
-47.22241845239747
 31
0.0
  0
LINE
  5
1C6
330
1F
100
AcDbEntity
  8
その他
  6
Continuous
 62
     7
370
     9
100
AcDbLine
 10
-269.8912581745313
 20
18.77757659880608
 30
0.0
 11
-269.8912581745313
 21
-47.22241845239747
 31
0.0
  0
LINE
  5
1C7
330
1F
100
AcDbEntity
  8
その他
  6
Continuous
 62
     7
370
     9
100
AcDbLine
 10
-269.8912581745313
 20
-45.72243824758328
 30
0.0
 11
-282.2844054111233
 21
-44.0908200571273
 31
0.0
  0
LINE
  5
1C8
330
1F
100
AcDbEntity
  8
その他
  6
Continuous
 62
     7
370
     9
100
AcDbLine
 10
-269.8912581745313
 20
-45.72243824758328
 30
0.0
 11
-282.2844054111233
 21
-47.35393271812807
 31
0.0
  0
LINE
  5
1C9
330
1F
100
AcDbEntity
  8
その他
  6
Continuous
 62
     7
370
     9
100
AcDbLine
 10
-165.5107485144806
 20
-45.72243824758328
 30
0.0
 11
-322.2760625651034
 21
-45.72243824758328
 31
0.0
  0
LINE
  5
1CA
330
1F
100
AcDbEntity
  8
その他
  6
Continuous
 62
     7
370
     9
100
AcDbLine
 10
588.9870888614695
 20
-55.86957421411622
 30
0.0
 11
638.9871301014401
 21
-55.86957421411622
 31
0.0
  0
LINE
  5
1CB
330
1F
100
AcDbEntity
  8
その他
  6
Continuous
 62
     7
370
     9
100
AcDbLine
 10
588.9870888614695
 20
-55.86957421411622
 30
0.0
 11
601.3801123781504
 21
-54.23801788361583
 31
0.0
  0
LINE
  5
1CC
330
1F
100
AcDbEntity
  8
その他
  6
Continuous
 62
     7
370
     9
100
AcDbLine
 10
588.9870888614695
 20
-55.86957421411622
 30
0.0
 11
601.3801123781504
 21
-57.50113054461657
 31
0.0
  0
LINE
  5
1CD
330
1F
100
AcDbEntity
  8
その他
  6
Continuous
 62
     7
370
     9
100
AcDbLine
 10
638.9871301014401
 20
-55.86957421411622
 30
0.0
 11
626.5941065847594
 21
-54.23801788361583
 31
0.0
  0
LINE
  5
1CE
330
1F
100
AcDbEntity
  8
その他
  6
Continuous
 62
     7
370
     9
100
AcDbLine
 10
638.9871301014401
 20
-55.86957421411622
 30
0.0
 11
626.5941065847594
 21
-57.50113054461657
 31
0.0
  0
LINE
  5
1CF
330
1F
100
AcDbEntity
  8
その他
  6
Continuous
 62
     7
370
     9
100
AcDbLine
 10
638.9871301014401
 20
-57.36955441893038
 30
0.0
 11
638.9871301014401
 21
-15.33126063197937
 31
0.0
  0
LINE
  5
1D0
330
1F
100
AcDbEntity
  8
その他
  6
Continuous
 62
     7
370
     9
100
AcDbLine
 10
588.9870888614695
 20
-57.36955441893038
 30
0.0
 11
588.9870888614695
 21
-4.806902655839274
 31
0.0
  0
ARC
  5
1D1
330
1F
100
AcDbEntity
  8
通り芯
  6
Continuous
 62
     3
370
     9
100
AcDbCircle
 10
-410.3913010641006
 20
397.2774273101131
 30
0.0
 40
3.999999809909511
100
AcDbArc
 50
90.0
 51
180.0
  0
ARC
  5
1D2
330
1F
100
AcDbEntity
  8
通り芯
  6
Continuous
 62
     3
370
     9
100
AcDbCircle
 10
-394.8912994145018
 20
397.2774273101131
 30
0.0
 40
3.999999809909511
100
AcDbArc
 50
0.0
 51
90.0
  0
ARC
  5
1D3
330
1F
100
AcDbEntity
  8
通り芯
  6
Continuous
 62
     3
370
     9
100
AcDbCircle
 10
-394.8912994145018
 20
284.2774751484789
 30
0.0
 40
3.999999809909511
100
AcDbArc
 50
270.0
 51
0.0
  0
ARC
  5
1D4
330
1F
100
AcDbEntity
  8
通り芯
  6
Continuous
 62
     3
370
     9
100
AcDbCircle
 10
-410.3913010641006
 20
284.2774751484789
 30
0.0
 40
3.999999809909511
100
AcDbArc
 50
180.0
 51
270.0
  0
ARC
  5
1D5
330
1F
100
AcDbEntity
  8
通り芯
  6
Continuous
 62
     3
370
     9
100
AcDbCircle
 10
-410.3913010641006
 20
264.2774710244817
 30
0.0
 40
3.999999809909511
100
AcDbArc
 50
90.0
 51
180.0
  0
ARC
  5
1D6
330
1F
100
AcDbEntity
  8
通り芯
  6
Continuous
 62
     3
370
     9
100
AcDbCircle
 10
-394.8912994145018
 20
264.2774710244817
 30
0.0
 40
3.999999809909511
100
AcDbArc
 50
0.0
 51
90.0
  0
ARC
  5
1D7
330
1F
100
AcDbEntity
  8
通り芯
  6
Continuous
 62
     3
370
     9
100
AcDbCircle
 10
-430.3912433281419
 20
264.2774710244817
 30
0.0
 40
3.999999809909511
100
AcDbArc
 50
0.0
 51
90.0
  0
ARC
  5
1D8
330
1F
100
AcDbEntity
  8
通り芯
  6
Continuous
 62
     3
370
     9
100
AcDbCircle
 10
-445.8912449777407
 20
264.2774710244817
 30
0.0
 40
3.999999809909511
100
AcDbArc
 50
90.0
 51
180.0
  0
ARC
  5
1D9
330
1F
100
AcDbEntity
  8
通り芯
  6
Continuous
 62
     3
370
     9
100
AcDbCircle
 10
-445.8912449777407
 20
284.2774751484789
 30
0.0
 40
3.999999809909511
100
AcDbArc
 50
180.0
 51
270.0
  0
ARC
  5
1DA
330
1F
100
AcDbEntity
  8
通り芯
  6
Continuous
 62
     3
370
     9
100
AcDbCircle
 10
-430.3912433281419
 20
284.2774751484789
 30
0.0
 40
3.999999809909511
100
AcDbArc
 50
270.0
 51
0.0
  0
ARC
  5
1DB
330
1F
100
AcDbEntity
  8
通り芯
  6
Continuous
 62
     3
370
     9
100
AcDbCircle
 10
-430.3912433281419
 20
397.2774273101131
 30
0.0
 40
3.999999809909511
100
AcDbArc
 50
0.0
 51
90.0
  0
ARC
  5
1DC
330
1F
100
AcDbEntity
  8
通り芯
  6
Continuous
 62
     3
370
     9
100
AcDbCircle
 10
-445.8912449777407
 20
397.2774273101131
 30
0.0
 40
3.999999809909511
100
AcDbArc
 50
90.0
 51
180.0
  0
ARC
  5
1DD
330
1F
100
AcDbEntity
  8
通り芯
  6
Continuous
 62
     3
370
     9
100
AcDbCircle
 10
-481.3913126112923
 20
397.2774273101131
 30
0.0
 40
3.999999809909511
100
AcDbArc
 50
90.0
 51
180.0
  0
ARC
  5
1DE
330
1F
100
AcDbEntity
  8
通り芯
  6
Continuous
 62
     3
370
     9
100
AcDbCircle
 10
-465.8913109616935
 20
397.2774273101131
 30
0.0
 40
3.999999809909511
100
AcDbArc
 50
0.0
 51
90.0
  0
ARC
  5
1DF
330
1F
100
AcDbEntity
  8
通り芯
  6
Continuous
 62
     3
370
     9
100
AcDbCircle
 10
-465.8913109616935
 20
284.2774751484789
 30
0.0
 40
3.999999809909511
100
AcDbArc
 50
270.0
 51
0.0
  0
ARC
  5
1E0
330
1F
100
AcDbEntity
  8
通り芯
  6
Continuous
 62
     3
370
     9
100
AcDbCircle
 10
-481.3913126112923
 20
284.2774751484789
 30
0.0
 40
3.999999809909511
100
AcDbArc
 50
180.0
 51
270.0
  0
ARC
  5
1E1
330
1F
100
AcDbEntity
  8
通り芯
  6
Continuous
 62
     3
370
     9
100
AcDbCircle
 10
-481.3913126112923
 20
264.2774710244817
 30
0.0
 40
3.999999809909511
100
AcDbArc
 50
90.0
 51
180.0
  0
ARC
  5
1E2
330
1F
100
AcDbEntity
  8
通り芯
  6
Continuous
 62
     3
370
     9
100
AcDbCircle
 10
-465.8913109616935
 20
264.2774710244817
 30
0.0
 40
3.999999809909511
100
AcDbArc
 50
0.0
 51
90.0
  0
ARC
  5
1E3
330
1F
100
AcDbEntity
  8
通り芯
  6
Continuous
 62
     3
370
     9
100
AcDbCircle
 10
-515.891352201664
 20
264.2774710244817
 30
0.0
 40
3.999999809909511
100
AcDbArc
 50
0.0
 51
90.0
  0
ARC
  5
1E4
330
1F
100
AcDbEntity
  8
通り芯
  6
Continuous
 62
     3
370
     9
100
AcDbCircle
 10
-531.3913538512627
 20
264.2774710244817
 30
0.0
 40
3.999999809909511
100
AcDbArc
 50
90.0
 51
180.0
  0
ARC
  5
1E5
330
1F
100
AcDbEntity
  8
通り芯
  6
Continuous
 62
     3
370
     9
100
AcDbCircle
 10
-531.3913538512627
 20
284.2774751484789
 30
0.0
 40
3.999999809909511
100
AcDbArc
 50
180.0
 51
270.0
  0
ARC
  5
1E6
330
1F
100
AcDbEntity
  8
通り芯
  6
Continuous
 62
     3
370
     9
100
AcDbCircle
 10
-515.891352201664
 20
284.2774751484789
 30
0.0
 40
3.999999809909511
100
AcDbArc
 50
270.0
 51
0.0
  0
ARC
  5
1E7
330
1F
100
AcDbEntity
  8
通り芯
  6
Continuous
 62
     3
370
     9
100
AcDbCircle
 10
-515.891352201664
 20
397.2774273101131
 30
0.0
 40
3.999999809909511
100
AcDbArc
 50
0.0
 51
90.0
  0
ARC
  5
1E8
330
1F
100
AcDbEntity
  8
通り芯
  6
Continuous
 62
     3
370
     9
100
AcDbCircle
 10
-531.3913538512627
 20
397.2774273101131
 30
0.0
 40
3.999999809909511
100
AcDbArc
 50
90.0
 51
180.0
  0
ARC
  5
1E9
330
1F
100
AcDbEntity
  8
通り芯
  6
Continuous
 62
     3
370
     9
100
AcDbCircle
 10
-566.8912977649029
 20
397.2774273101131
 30
0.0
 40
3.999999809909511
100
AcDbArc
 50
90.0
 51
180.0
  0
ARC
  5
1EA
330
1F
100
AcDbEntity
  8
通り芯
  6
Continuous
 62
     3
370
     9
100
AcDbCircle
 10
-551.3912961153042
 20
397.2774273101131
 30
0.0
 40
3.999999809909511
100
AcDbArc
 50
0.0
 51
90.0
  0
ARC
  5
1EB
330
1F
100
AcDbEntity
  8
通り芯
  6
Continuous
 62
     3
370
     9
100
AcDbCircle
 10
-551.3912961153042
 20
284.2774751484789
 30
0.0
 40
3.999999809909511
100
AcDbArc
 50
270.0
 51
0.0
  0
ARC
  5
1EC
330
1F
100
AcDbEntity
  8
通り芯
  6
Continuous
 62
     3
370
     9
100
AcDbCircle
 10
-566.8912977649029
 20
284.2774751484789
 30
0.0
 40
3.999999809909511
100
AcDbArc
 50
180.0
 51
270.0
  0
ARC
  5
1ED
330
1F
100
AcDbEntity
  8
通り芯
  6
Continuous
 62
     3
370
     9
100
AcDbCircle
 10
-566.8912977649029
 20
264.2774710244817
 30
0.0
 40
3.999999809909511
100
AcDbArc
 50
90.0
 51
180.0
  0
ARC
  5
1EE
330
1F
100
AcDbEntity
  8
通り芯
  6
Continuous
 62
     3
370
     9
100
AcDbCircle
 10
-551.3912961153042
 20
264.2774710244817
 30
0.0
 40
3.999999809909511
100
AcDbArc
 50
0.0
 51
90.0
  0
ARC
  5
1EF
330
1F
100
AcDbEntity
  8
通り芯
  6
Continuous
 62
     3
370
     9
100
AcDbCircle
 10
-586.8912400289444
 20
264.2774710244817
 30
0.0
 40
3.999999809909511
100
AcDbArc
 50
0.0
 51
90.0
  0
ARC
  5
1F0
330
1F
100
AcDbEntity
  8
通り芯
  6
Continuous
 62
     3
370
     9
100
AcDbCircle
 10
-602.3912416785432
 20
264.2774710244817
 30
0.0
 40
3.999999809909511
100
AcDbArc
 50
90.0
 51
180.0
  0
ARC
  5
1F1
330
1F
100
AcDbEntity
  8
通り芯
  6
Continuous
 62
     3
370
     9
100
AcDbCircle
 10
-602.3912416785432
 20
284.2774751484789
 30
0.0
 40
3.999999809909511
100
AcDbArc
 50
180.0
 51
270.0
  0
ARC
  5
1F2
330
1F
100
AcDbEntity
  8
通り芯
  6
Continuous
 62
     3
370
     9
100
AcDbCircle
 10
-586.8912400289444
 20
284.2774751484789
 30
0.0
 40
3.999999809909511
100
AcDbArc
 50
270.0
 51
0.0
  0
ARC
  5
1F3
330
1F
100
AcDbEntity
  8
通り芯
  6
Continuous
 62
     3
370
     9
100
AcDbCircle
 10
-586.8912400289444
 20
397.2774273101131
 30
0.0
 40
3.999999809909511
100
AcDbArc
 50
0.0
 51
90.0
  0
ARC
  5
1F4
330
1F
100
AcDbEntity
  8
通り芯
  6
Continuous
 62
     3
370
     9
100
AcDbCircle
 10
-602.3912416785432
 20
397.2774273101131
 30
0.0
 40
3.999999809909511
100
AcDbArc
 50
90.0
 51
180.0
  0
ARC
  5
1F5
330
1F
100
AcDbEntity
  8
通り芯
  6
Continuous
 62
     3
370
     9
100
AcDbCircle
 10
-652.3912829185134
 20
397.2774273101131
 30
0.0
 40
3.999999809909511
100
AcDbArc
 50
90.0
 51
180.0
  0
ARC
  5
1F6
330
1F
100
AcDbEntity
  8
通り芯
  6
Continuous
 62
     3
370
     9
100
AcDbCircle
 10
-636.8912812689148
 20
397.2774273101131
 30
0.0
 40
3.999999809909511
100
AcDbArc
 50
0.0
 51
90.0
  0
ARC
  5
1F7
330
1F
100
AcDbEntity
  8
通り芯
  6
Continuous
 62
     3
370
     9
100
AcDbCircle
 10
-636.8912812689148
 20
284.2774751484789
 30
0.0
 40
3.999999809909511
100
AcDbArc
 50
270.0
 51
0.0
  0
ARC
  5
1F8
330
1F
100
AcDbEntity
  8
通り芯
  6
Continuous
 62
     3
370
     9
100
AcDbCircle
 10
-652.3912829185134
 20
284.2774751484789
 30
0.0
 40
3.999999809909511
100
AcDbArc
 50
180.0
 51
270.0
  0
ARC
  5
1F9
330
1F
100
AcDbEntity
  8
通り芯
  6
Continuous
 62
     3
370
     9
100
AcDbCircle
 10
-652.3912829185134
 20
264.2774710244817
 30
0.0
 40
3.999999809909511
100
AcDbArc
 50
90.0
 51
180.0
  0
ARC
  5
1FA
330
1F
100
AcDbEntity
  8
通り芯
  6
Continuous
 62
     3
370
     9
100
AcDbCircle
 10
-636.8912812689148
 20
264.2774710244817
 30
0.0
 40
3.999999809909511
100
AcDbArc
 50
0.0
 51
90.0
  0
ARC
  5
1FB
330
1F
100
AcDbEntity
  8
通り芯
  6
Continuous
 62
     3
370
     9
100
AcDbCircle
 10
-672.391348902466
 20
264.2774710244817
 30
0.0
 40
3.999999809909511
100
AcDbArc
 50
0.0
 51
90.0
  0
ARC
  5
1FC
330
1F
100
AcDbEntity
  8
通り芯
  6
Continuous
 62
     3
370
     9
100
AcDbCircle
 10
-687.891350552065
 20
264.2774710244817
 30
0.0
 40
3.999999809909511
100
AcDbArc
 50
90.0
 51
180.0
  0
ARC
  5
1FD
330
1F
100
AcDbEntity
  8
通り芯
  6
Continuous
 62
     3
370
     9
100
AcDbCircle
 10
-687.891350552065
 20
284.2774751484789
 30
0.0
 40
3.999999809909511
100
AcDbArc
 50
180.0
 51
270.0
  0
ARC
  5
1FE
330
1F
100
AcDbEntity
  8
通り芯
  6
Continuous
 62
     3
370
     9
100
AcDbCircle
 10
-672.391348902466
 20
284.2774751484789
 30
0.0
 40
3.999999809909511
100
AcDbArc
 50
270.0
 51
0.0
  0
ARC
  5
1FF
330
1F
100
AcDbEntity
  8
通り芯
  6
Continuous
 62
     3
370
     9
100
AcDbCircle
 10
-672.391348902466
 20
397.2774273101131
 30
0.0
 40
3.999999809909511
100
AcDbArc
 50
0.0
 51
90.0
  0
ARC
  5
200
330
1F
100
AcDbEntity
  8
通り芯
  6
Continuous
 62
     3
370
     9
100
AcDbCircle
 10
-687.891350552065
 20
397.2774273101131
 30
0.0
 40
3.999999809909511
100
AcDbArc
 50
90.0
 51
180.0
  0
ARC
  5
201
330
1F
100
AcDbEntity
  8
通り芯
  6
Continuous
 62
     3
370
     9
100
AcDbCircle
 10
-723.3912944657051
 20
397.2774273101131
 30
0.0
 40
3.999999809909511
100
AcDbArc
 50
90.0
 51
180.0
  0
ARC
  5
202
330
1F
100
AcDbEntity
  8
通り芯
  6
Continuous
 62
     3
370
     9
100
AcDbCircle
 10
-707.8912928161066
 20
397.2774273101131
 30
0.0
 40
3.999999809909511
100
AcDbArc
 50
0.0
 51
90.0
  0
ARC
  5
203
330
1F
100
AcDbEntity
  8
通り芯
  6
Continuous
 62
     3
370
     9
100
AcDbCircle
 10
-707.8912928161066
 20
284.2774751484789
 30
0.0
 40
3.999999809909511
100
AcDbArc
 50
270.0
 51
0.0
  0
ARC
  5
204
330
1F
100
AcDbEntity
  8
通り芯
  6
Continuous
 62
     3
370
     9
100
AcDbCircle
 10
-723.3912944657051
 20
284.2774751484789
 30
0.0
 40
3.999999809909511
100
AcDbArc
 50
180.0
 51
270.0
  0
ARC
  5
205
330
1F
100
AcDbEntity
  8
通り芯
  6
Continuous
 62
     3
370
     9
100
AcDbCircle
 10
-723.3912944657051
 20
264.2774710244817
 30
0.0
 40
3.999999809909511
100
AcDbArc
 50
90.0
 51
180.0
  0
ARC
  5
206
330
1F
100
AcDbEntity
  8
通り芯
  6
Continuous
 62
     3
370
     9
100
AcDbCircle
 10
-707.8912928161066
 20
264.2774710244817
 30
0.0
 40
3.999999809909511
100
AcDbArc
 50
0.0
 51
90.0
  0
ARC
  5
207
330
1F
100
AcDbEntity
  8
通り芯
  6
Continuous
 62
     3
370
     9
100
AcDbCircle
 10
-757.8913340560767
 20
264.2774710244817
 30
0.0
 40
3.999999809909511
100
AcDbArc
 50
0.0
 51
90.0
  0
ARC
  5
208
330
1F
100
AcDbEntity
  8
通り芯
  6
Continuous
 62
     3
370
     9
100
AcDbCircle
 10
-773.3913357056757
 20
264.2774710244817
 30
0.0
 40
3.999999809909511
100
AcDbArc
 50
90.0
 51
180.0
  0
ARC
  5
209
330
1F
100
AcDbEntity
  8
通り芯
  6
Continuous
 62
     3
370
     9
100
AcDbCircle
 10
-773.3913357056757
 20
284.2774751484789
 30
0.0
 40
3.999999809909511
100
AcDbArc
 50
180.0
 51
270.0
  0
ARC
  5
20A
330
1F
100
AcDbEntity
  8
通り芯
  6
Continuous
 62
     3
370
     9
100
AcDbCircle
 10
-757.8913340560767
 20
284.2774751484789
 30
0.0
 40
3.999999809909511
100
AcDbArc
 50
270.0
 51
0.0
  0
ARC
  5
20B
330
1F
100
AcDbEntity
  8
通り芯
  6
Continuous
 62
     3
370
     9
100
AcDbCircle
 10
-793.3912779697171
 20
284.2774751484789
 30
0.0
 40
3.999999809909511
100
AcDbArc
 50
270.0
 51
0.0
  0
ARC
  5
20C
330
1F
100
AcDbEntity
  8
通り芯
  6
Continuous
 62
     3
370
     9
100
AcDbCircle
 10
-808.891279619316
 20
284.2774751484789
 30
0.0
 40
3.999999809909511
100
AcDbArc
 50
180.0
 51
270.0
  0
ARC
  5
20D
330
1F
100
AcDbEntity
  8
通り芯
  6
Continuous
 62
     3
370
     9
100
AcDbCircle
 10
-808.891279619316
 20
264.2774710244817
 30
0.0
 40
3.999999809909511
100
AcDbArc
 50
90.0
 51
180.0
  0
ARC
  5
20E
330
1F
100
AcDbEntity
  8
通り芯
  6
Continuous
 62
     3
370
     9
100
AcDbCircle
 10
-793.3912779697171
 20
264.2774710244817
 30
0.0
 40
3.999999809909511
100
AcDbArc
 50
0.0
 51
90.0
  0
ARC
  5
20F
330
1F
100
AcDbEntity
  8
通り芯
  6
Continuous
 62
     3
370
     9
100
AcDbCircle
 10
-828.8912837433129
 20
264.2774710244817
 30
0.0
 40
3.999999809909511
100
AcDbArc
 50
0.0
 51
90.0
  0
ARC
  5
210
330
1F
100
AcDbEntity
  8
通り芯
  6
Continuous
 62
     3
370
     9
100
AcDbCircle
 10
-844.3912853929119
 20
264.2774710244817
 30
0.0
 40
3.999999809909511
100
AcDbArc
 50
90.0
 51
180.0
  0
ARC
  5
211
330
1F
100
AcDbEntity
  8
通り芯
  6
Continuous
 62
     3
370
     9
100
AcDbCircle
 10
-844.3912853929119
 20
284.2774751484789
 30
0.0
 40
3.999999809909511
100
AcDbArc
 50
180.0
 51
270.0
  0
ARC
  5
212
330
1F
100
AcDbEntity
  8
通り芯
  6
Continuous
 62
     3
370
     9
100
AcDbCircle
 10
-828.8912837433129
 20
284.2774751484789
 30
0.0
 40
3.999999809909511
100
AcDbArc
 50
270.0
 51
0.0
  0
ARC
  5
213
330
1F
100
AcDbEntity
  8
通り芯
  6
Continuous
 62
     3
370
     9
100
AcDbCircle
 10
-828.8912837433129
 20
397.2774273101131
 30
0.0
 40
3.999999809909511
100
AcDbArc
 50
0.0
 51
90.0
  0
ARC
  5
214
330
1F
100
AcDbEntity
  8
通り芯
  6
Continuous
 62
     3
370
     9
100
AcDbCircle
 10
-844.3912853929119
 20
397.2774273101131
 30
0.0
 40
3.999999809909511
100
AcDbArc
 50
90.0
 51
180.0
  0
ARC
  5
215
330
1F
100
AcDbEntity
  8
通り芯
  6
Continuous
 62
     3
370
     9
100
AcDbCircle
 10
-808.891279619316
 20
340.7775130892517
 30
0.0
 40
3.999999809909511
100
AcDbArc
 50
89.99998474121092
 51
180.0
  0
ARC
  5
216
330
1F
100
AcDbEntity
  8
通り芯
  6
Continuous
 62
     3
370
     9
100
AcDbCircle
 10
-793.3912779697171
 20
340.7775130892517
 30
0.0
 40
3.999999809909511
100
AcDbArc
 50
0.0
 51
90.0
  0
ARC
  5
217
330
1F
100
AcDbEntity
  8
通り芯
  6
Continuous
 62
     3
370
     9
100
AcDbCircle
 10
-773.3913357056757
 20
340.7775130892517
 30
0.0
 40
3.999999809909511
100
AcDbArc
 50
90.0
 51
180.0
  0
ARC
  5
218
330
1F
100
AcDbEntity
  8
通り芯
  6
Continuous
 62
     3
370
     9
100
AcDbCircle
 10
-757.8913340560767
 20
340.7775130892517
 30
0.0
 40
3.999999809909511
100
AcDbArc
 50
0.0
 51
90.0
  0
CIRCLE
  5
219
330
1F
100
AcDbEntity
  8
仕上
  6
Continuous
 62
     6
370
     9
100
AcDbCircle
 10
-783.3912449777408
 20
385.7774141133226
 30
0.0
 40
14.99999922675056
  0
CIRCLE
  5
21A
330
1F
100
AcDbEntity
  8
仕上
  6
Continuous
 62
     6
370
     9
100
AcDbCircle
 10
-783.3912449777408
 20
385.7774141133226
 30
0.0
 40
11.99999918808808
  0
CIRCLE
  5
21B
330
1F
100
AcDbEntity
  8
仕上
  6
Continuous
 62
     6
370
     9
100
AcDbCircle
 10
28.10868573910897
 20
385.7774141133226
 30
0.0
 40
11.99999918808808
  0
CIRCLE
  5
21C
330
1F
100
AcDbEntity
  8
仕上
  6
Continuous
 62
     6
370
     9
100
AcDbCircle
 10
28.10868573910897
 20
385.7774141133226
 30
0.0
 40
14.99999922675056
  0
ARC
  5
21D
330
1F
100
AcDbEntity
  8
通り芯
  6
Continuous
 62
     3
370
     9
100
AcDbCircle
 10
2.60877481744517
 20
340.7775130892517
 30
0.0
 40
3.999999809909511
100
AcDbArc
 50
90.0
 51
180.0
  0
ARC
  5
21E
330
1F
100
AcDbEntity
  8
通り芯
  6
Continuous
 62
     3
370
     9
100
AcDbCircle
 10
18.10865274713267
 20
340.7775130892517
 30
0.0
 40
3.999999809909511
100
AcDbArc
 50
7.016464233398438
 51
90.0
  0
ARC
  5
21F
330
1F
100
AcDbEntity
  8
通り芯
  6
Continuous
 62
     3
370
     9
100
AcDbCircle
 10
38.10871873108526
 20
340.7775130892517
 30
0.0
 40
3.999999809909511
100
AcDbArc
 50
90.0
 51
180.0
  0
ARC
  5
220
330
1F
100
AcDbEntity
  8
通り芯
  6
Continuous
 62
     3
370
     9
100
AcDbCircle
 10
53.60859666077276
 20
340.7775130892517
 30
0.0
 40
3.999999809909511
100
AcDbArc
 50
7.016464233398438
 51
90.0
  0
ARC
  5
221
330
1F
100
AcDbEntity
  8
通り芯
  6
Continuous
 62
     3
370
     9
100
AcDbCircle
 10
89.108540574413
 20
397.2774273101131
 30
0.0
 40
3.999999809909511
100
AcDbArc
 50
7.016464233398438
 51
90.0
  0
ARC
  5
222
330
1F
100
AcDbEntity
  8
通り芯
  6
Continuous
 62
     3
370
     9
100
AcDbCircle
 10
73.6086626447255
 20
397.2774273101131
 30
0.0
 40
3.999999809909511
100
AcDbArc
 50
90.0
 51
180.0
  0
ARC
  5
223
330
1F
100
AcDbEntity
  8
通り芯
  6
Continuous
 62
     3
370
     9
100
AcDbCircle
 10
73.6086626447255
 20
284.2774751484789
 30
0.0
 40
3.999999809909511
100
AcDbArc
 50
180.0
 51
270.0
  0
ARC
  5
224
330
1F
100
AcDbEntity
  8
通り芯
  6
Continuous
 62
     3
370
     9
100
AcDbCircle
 10
89.108540574413
 20
284.2774751484789
 30
0.0
 40
3.999999809909511
100
AcDbArc
 50
270.0
 51
0.0
  0
ARC
  5
225
330
1F
100
AcDbEntity
  8
通り芯
  6
Continuous
 62
     3
370
     9
100
AcDbCircle
 10
89.108540574413
 20
264.2774710244817
 30
0.0
 40
3.999999809909511
100
AcDbArc
 50
7.016464233398438
 51
90.0
  0
ARC
  5
226
330
1F
100
AcDbEntity
  8
通り芯
  6
Continuous
 62
     3
370
     9
100
AcDbCircle
 10
73.6086626447255
 20
264.2774710244817
 30
0.0
 40
3.999999809909511
100
AcDbArc
 50
90.0
 51
180.0
  0
ARC
  5
227
330
1F
100
AcDbEntity
  8
通り芯
  6
Continuous
 62
     3
370
     9
100
AcDbCircle
 10
38.10871873108526
 20
264.2774710244817
 30
0.0
 40
3.999999809909511
100
AcDbArc
 50
90.0
 51
180.0
  0
ARC
  5
228
330
1F
100
AcDbEntity
  8
通り芯
  6
Continuous
 62
     3
370
     9
100
AcDbCircle
 10
53.60859666077276
 20
264.2774710244817
 30
0.0
 40
3.999999809909511
100
AcDbArc
 50
7.016464233398438
 51
90.0
  0
ARC
  5
229
330
1F
100
AcDbEntity
  8
通り芯
  6
Continuous
 62
     3
370
     9
100
AcDbCircle
 10
53.60859666077276
 20
284.2774751484789
 30
0.0
 40
3.999999809909511
100
AcDbArc
 50
270.0
 51
0.0
  0
ARC
  5
22A
330
1F
100
AcDbEntity
  8
通り芯
  6
Continuous
 62
     3
370
     9
100
AcDbCircle
 10
38.10871873108526
 20
284.2774751484789
 30
0.0
 40
3.999999809909511
100
AcDbArc
 50
180.0
 51
270.0
  0
ARC
  5
22B
330
1F
100
AcDbEntity
  8
通り芯
  6
Continuous
 62
     3
370
     9
100
AcDbCircle
 10
2.60877481744517
 20
284.2774751484789
 30
0.0
 40
3.999999809909511
100
AcDbArc
 50
180.0
 51
270.0
  0
ARC
  5
22C
330
1F
100
AcDbEntity
  8
通り芯
  6
Continuous
 62
     3
370
     9
100
AcDbCircle
 10
18.10865274713267
 20
284.2774751484789
 30
0.0
 40
3.999999809909511
100
AcDbArc
 50
270.0
 51
0.0
  0
ARC
  5
22D
330
1F
100
AcDbEntity
  8
通り芯
  6
Continuous
 62
     3
370
     9
100
AcDbCircle
 10
18.10865274713267
 20
264.2774710244817
 30
0.0
 40
3.999999809909511
100
AcDbArc
 50
7.016464233398438
 51
90.0
  0
ARC
  5
22E
330
1F
100
AcDbEntity
  8
通り芯
  6
Continuous
 62
     3
370
     9
100
AcDbCircle
 10
2.60877481744517
 20
264.2774710244817
 30
0.0
 40
3.999999809909511
100
AcDbArc
 50
90.0
 51
180.0
  0
ARC
  5
22F
330
1F
100
AcDbEntity
  8
通り芯
  6
Continuous
 62
     3
370
     9
100
AcDbCircle
 10
-47.39139014243661
 20
264.2774710244817
 30
0.0
 40
3.999999809909511
100
AcDbArc
 50
90.0
 51
180.0
  0
ARC
  5
230
330
1F
100
AcDbEntity
  8
通り芯
  6
Continuous
 62
     3
370
     9
100
AcDbCircle
 10
-31.89126477292644
 20
264.2774710244817
 30
0.0
 40
3.999999809909511
100
AcDbArc
 50
7.016464233398438
 51
90.0
  0
ARC
  5
231
330
1F
100
AcDbEntity
  8
通り芯
  6
Continuous
 62
     3
370
     9
100
AcDbCircle
 10
-31.89126477292644
 20
284.2774751484789
 30
0.0
 40
3.999999809909511
100
AcDbArc
 50
270.0
 51
0.0
  0
ARC
  5
232
330
1F
100
AcDbEntity
  8
通り芯
  6
Continuous
 62
     3
370
     9
100
AcDbCircle
 10
-47.39139014243661
 20
284.2774751484789
 30
0.0
 40
3.999999809909511
100
AcDbArc
 50
180.0
 51
270.0
  0
ARC
  5
233
330
1F
100
AcDbEntity
  8
通り芯
  6
Continuous
 62
     3
370
     9
100
AcDbCircle
 10
-47.39139014243661
 20
397.2774273101131
 30
0.0
 40
3.999999809909511
100
AcDbArc
 50
90.0
 51
180.0
  0
ARC
  5
234
330
1F
100
AcDbEntity
  8
通り芯
  6
Continuous
 62
     3
370
     9
100
AcDbCircle
 10
-31.89126477292644
 20
397.2774273101131
 30
0.0
 40
3.999999809909511
100
AcDbArc
 50
7.016464233398438
 51
90.0
  0
ARC
  5
235
330
1F
100
AcDbEntity
  8
通り芯
  6
Continuous
 62
     3
370
     9
100
AcDbCircle
 10
-67.39133240647801
 20
397.2774273101131
 30
0.0
 40
3.999999809909511
100
AcDbArc
 50
7.016464233398438
 51
90.0
  0
ARC
  5
236
330
1F
100
AcDbEntity
  8
通り芯
  6
Continuous
 62
     3
370
     9
100
AcDbCircle
 10
-82.89133405607684
 20
397.2774273101131
 30
0.0
 40
3.999999809909511
100
AcDbArc
 50
90.0
 51
180.0
  0
ARC
  5
237
330
1F
100
AcDbEntity
  8
通り芯
  6
Continuous
 62
     3
370
     9
100
AcDbCircle
 10
-82.89133405607684
 20
284.2774751484789
 30
0.0
 40
3.999999809909511
100
AcDbArc
 50
180.0
 51
270.0
  0
ARC
  5
238
330
1F
100
AcDbEntity
  8
通り芯
  6
Continuous
 62
     3
370
     9
100
AcDbCircle
 10
-67.39133240647801
 20
284.2774751484789
 30
0.0
 40
3.999999809909511
100
AcDbArc
 50
270.0
 51
0.0
  0
ARC
  5
239
330
1F
100
AcDbEntity
  8
通り芯
  6
Continuous
 62
     3
370
     9
100
AcDbCircle
 10
-67.39133240647801
 20
264.2774710244817
 30
0.0
 40
3.999999809909511
100
AcDbArc
 50
7.016464233398438
 51
90.0
  0
ARC
  5
23A
330
1F
100
AcDbEntity
  8
通り芯
  6
Continuous
 62
     3
370
     9
100
AcDbCircle
 10
-82.89133405607684
 20
264.2774710244817
 30
0.0
 40
3.999999809909511
100
AcDbArc
 50
90.0
 51
180.0
  0
ARC
  5
23B
330
1F
100
AcDbEntity
  8
通り芯
  6
Continuous
 62
     3
370
     9
100
AcDbCircle
 10
-118.3912779697171
 20
264.2774710244817
 30
0.0
 40
3.999999809909511
100
AcDbArc
 50
90.0
 51
180.0
  0
ARC
  5
23C
330
1F
100
AcDbEntity
  8
通り芯
  6
Continuous
 62
     3
370
     9
100
AcDbCircle
 10
-102.8912763201183
 20
264.2774710244817
 30
0.0
 40
3.999999809909511
100
AcDbArc
 50
7.016464233398438
 51
90.0
  0
ARC
  5
23D
330
1F
100
AcDbEntity
  8
通り芯
  6
Continuous
 62
     3
370
     9
100
AcDbCircle
 10
-102.8912763201183
 20
284.2774751484789
 30
0.0
 40
3.999999809909511
100
AcDbArc
 50
270.0
 51
0.0
  0
ARC
  5
23E
330
1F
100
AcDbEntity
  8
通り芯
  6
Continuous
 62
     3
370
     9
100
AcDbCircle
 10
-118.3912779697171
 20
284.2774751484789
 30
0.0
 40
3.999999809909511
100
AcDbArc
 50
180.0
 51
270.0
  0
ARC
  5
23F
330
1F
100
AcDbEntity
  8
通り芯
  6
Continuous
 62
     3
370
     9
100
AcDbCircle
 10
-118.3912779697171
 20
397.2774273101131
 30
0.0
 40
3.999999809909511
100
AcDbArc
 50
90.0
 51
180.0
  0
ARC
  5
240
330
1F
100
AcDbEntity
  8
通り芯
  6
Continuous
 62
     3
370
     9
100
AcDbCircle
 10
-102.8912763201183
 20
397.2774273101131
 30
0.0
 40
3.999999809909511
100
AcDbArc
 50
7.016464233398438
 51
90.0
  0
ARC
  5
241
330
1F
100
AcDbEntity
  8
通り芯
  6
Continuous
 62
     3
370
     9
100
AcDbCircle
 10
-152.8913175600887
 20
397.2774273101131
 30
0.0
 40
3.999999809909511
100
AcDbArc
 50
7.016464233398438
 51
90.0
  0
ARC
  5
242
330
1F
100
AcDbEntity
  8
通り芯
  6
Continuous
 62
     3
370
     9
100
AcDbCircle
 10
-168.3913192096875
 20
397.2774273101131
 30
0.0
 40
3.999999809909511
100
AcDbArc
 50
90.0
 51
180.0
  0
ARC
  5
243
330
1F
100
AcDbEntity
  8
通り芯
  6
Continuous
 62
     3
370
     9
100
AcDbCircle
 10
-168.3913192096875
 20
284.2774751484789
 30
0.0
 40
3.999999809909511
100
AcDbArc
 50
180.0
 51
270.0
  0
ARC
  5
244
330
1F
100
AcDbEntity
  8
通り芯
  6
Continuous
 62
     3
370
     9
100
AcDbCircle
 10
-152.8913175600887
 20
284.2774751484789
 30
0.0
 40
3.999999809909511
100
AcDbArc
 50
270.0
 51
0.0
  0
ARC
  5
245
330
1F
100
AcDbEntity
  8
通り芯
  6
Continuous
 62
     3
370
     9
100
AcDbCircle
 10
-152.8913175600887
 20
264.2774710244817
 30
0.0
 40
3.999999809909511
100
AcDbArc
 50
7.016464233398438
 51
90.0
  0
ARC
  5
246
330
1F
100
AcDbEntity
  8
通り芯
  6
Continuous
 62
     3
370
     9
100
AcDbCircle
 10
-168.3913192096875
 20
264.2774710244817
 30
0.0
 40
3.999999809909511
100
AcDbArc
 50
90.0
 51
180.0
  0
ARC
  5
247
330
1F
100
AcDbEntity
  8
通り芯
  6
Continuous
 62
     3
370
     9
100
AcDbCircle
 10
-203.8912631233278
 20
264.2774710244817
 30
0.0
 40
3.999999809909511
100
AcDbArc
 50
90.0
 51
180.0
  0
ARC
  5
248
330
1F
100
AcDbEntity
  8
通り芯
  6
Continuous
 62
     3
370
     9
100
AcDbCircle
 10
-188.3912614737289
 20
264.2774710244817
 30
0.0
 40
3.999999809909511
100
AcDbArc
 50
7.016464233398438
 51
90.0
  0
ARC
  5
249
330
1F
100
AcDbEntity
  8
通り芯
  6
Continuous
 62
     3
370
     9
100
AcDbCircle
 10
-188.3912614737289
 20
284.2774751484789
 30
0.0
 40
3.999999809909511
100
AcDbArc
 50
270.0
 51
0.0
  0
ARC
  5
24A
330
1F
100
AcDbEntity
  8
通り芯
  6
Continuous
 62
     3
370
     9
100
AcDbCircle
 10
-203.8912631233278
 20
284.2774751484789
 30
0.0
 40
3.999999809909511
100
AcDbArc
 50
180.0
 51
270.0
  0
ARC
  5
24B
330
1F
100
AcDbEntity
  8
通り芯
  6
Continuous
 62
     3
370
     9
100
AcDbCircle
 10
-203.8912631233278
 20
397.2774273101131
 30
0.0
 40
3.999999809909511
100
AcDbArc
 50
90.0
 51
180.0
  0
ARC
  5
24C
330
1F
100
AcDbEntity
  8
通り芯
  6
Continuous
 62
     3
370
     9
100
AcDbCircle
 10
-188.3912614737289
 20
397.2774273101131
 30
0.0
 40
3.999999809909511
100
AcDbArc
 50
7.016464233398438
 51
90.0
  0
ARC
  5
24D
330
1F
100
AcDbEntity
  8
通り芯
  6
Continuous
 62
     3
370
     9
100
AcDbCircle
 10
-223.8913291072804
 20
397.2774273101131
 30
0.0
 40
3.999999809909511
100
AcDbArc
 50
7.016464233398438
 51
90.0
  0
ARC
  5
24E
330
1F
100
AcDbEntity
  8
通り芯
  6
Continuous
 62
     3
370
     9
100
AcDbCircle
 10
-239.3913307568792
 20
397.2774273101131
 30
0.0
 40
3.999999809909511
100
AcDbArc
 50
90.0
 51
180.0
  0
ARC
  5
24F
330
1F
100
AcDbEntity
  8
通り芯
  6
Continuous
 62
     3
370
     9
100
AcDbCircle
 10
-239.3913307568792
 20
284.2774751484789
 30
0.0
 40
3.999999809909511
100
AcDbArc
 50
180.0
 51
270.0
  0
ARC
  5
250
330
1F
100
AcDbEntity
  8
通り芯
  6
Continuous
 62
     3
370
     9
100
AcDbCircle
 10
-223.8913291072804
 20
284.2774751484789
 30
0.0
 40
3.999999809909511
100
AcDbArc
 50
270.0
 51
0.0
  0
ARC
  5
251
330
1F
100
AcDbEntity
  8
通り芯
  6
Continuous
 62
     3
370
     9
100
AcDbCircle
 10
-223.8913291072804
 20
264.2774710244817
 30
0.0
 40
3.999999809909511
100
AcDbArc
 50
7.016464233398438
 51
90.0
  0
ARC
  5
252
330
1F
100
AcDbEntity
  8
通り芯
  6
Continuous
 62
     3
370
     9
100
AcDbCircle
 10
-239.3913307568792
 20
264.2774710244817
 30
0.0
 40
3.999999809909511
100
AcDbArc
 50
90.0
 51
180.0
  0
ARC
  5
253
330
1F
100
AcDbEntity
  8
通り芯
  6
Continuous
 62
     3
370
     9
100
AcDbCircle
 10
-289.3912482769383
 20
264.2774710244817
 30
0.0
 40
3.999999809909511
100
AcDbArc
 50
90.0
 51
180.0
  0
ARC
  5
254
330
1F
100
AcDbEntity
  8
通り芯
  6
Continuous
 62
     3
370
     9
100
AcDbCircle
 10
-273.8912466273395
 20
264.2774710244817
 30
0.0
 40
3.999999809909511
100
AcDbArc
 50
7.016464233398438
 51
90.0
  0
ARC
  5
255
330
1F
100
AcDbEntity
  8
通り芯
  6
Continuous
 62
     3
370
     9
100
AcDbCircle
 10
-273.8912466273395
 20
284.2774751484789
 30
0.0
 40
3.999999809909511
100
AcDbArc
 50
270.0
 51
0.0
  0
ARC
  5
256
330
1F
100
AcDbEntity
  8
通り芯
  6
Continuous
 62
     3
370
     9
100
AcDbCircle
 10
-289.3912482769383
 20
284.2774751484789
 30
0.0
 40
3.999999809909511
100
AcDbArc
 50
180.0
 51
270.0
  0
ARC
  5
257
330
1F
100
AcDbEntity
  8
通り芯
  6
Continuous
 62
     3
370
     9
100
AcDbCircle
 10
-289.3912482769383
 20
397.2774273101131
 30
0.0
 40
3.999999809909511
100
AcDbArc
 50
90.0
 51
180.0
  0
ARC
  5
258
330
1F
100
AcDbEntity
  8
通り芯
  6
Continuous
 62
     3
370
     9
100
AcDbCircle
 10
-273.8912466273395
 20
397.2774273101131
 30
0.0
 40
3.999999809909511
100
AcDbArc
 50
7.016464233398438
 51
90.0
  0
ARC
  5
259
330
1F
100
AcDbEntity
  8
通り芯
  6
Continuous
 62
     3
370
     9
100
AcDbCircle
 10
-309.391314260891
 20
397.2774273101131
 30
0.0
 40
3.999999809909511
100
AcDbArc
 50
7.016464233398438
 51
90.0
  0
ARC
  5
25A
330
1F
100
AcDbEntity
  8
通り芯
  6
Continuous
 62
     3
370
     9
100
AcDbCircle
 10
-324.8913159104899
 20
397.2774273101131
 30
0.0
 40
3.999999809909511
100
AcDbArc
 50
90.0
 51
180.0
  0
ARC
  5
25B
330
1F
100
AcDbEntity
  8
通り芯
  6
Continuous
 62
     3
370
     9
100
AcDbCircle
 10
-324.8913159104899
 20
284.2774751484789
 30
0.0
 40
3.999999809909511
100
AcDbArc
 50
180.0
 51
270.0
  0
ARC
  5
25C
330
1F
100
AcDbEntity
  8
通り芯
  6
Continuous
 62
     3
370
     9
100
AcDbCircle
 10
-309.391314260891
 20
284.2774751484789
 30
0.0
 40
3.999999809909511
100
AcDbArc
 50
270.0
 51
0.0
  0
ARC
  5
25D
330
1F
100
AcDbEntity
  8
通り芯
  6
Continuous
 62
     3
370
     9
100
AcDbCircle
 10
-309.391314260891
 20
264.2774710244817
 30
0.0
 40
3.999999809909511
100
AcDbArc
 50
7.016464233398438
 51
90.0
  0
ARC
  5
25E
330
1F
100
AcDbEntity
  8
通り芯
  6
Continuous
 62
     3
370
     9
100
AcDbCircle
 10
-324.8913159104899
 20
264.2774710244817
 30
0.0
 40
3.999999809909511
100
AcDbArc
 50
90.0
 51
180.0
  0
ARC
  5
25F
330
1F
100
AcDbEntity
  8
通り芯
  6
Continuous
 62
     3
370
     9
100
AcDbCircle
 10
-360.3912598241301
 20
264.2774710244817
 30
0.0
 40
3.999999809909511
100
AcDbArc
 50
90.0
 51
180.0
  0
ARC
  5
260
330
1F
100
AcDbEntity
  8
通り芯
  6
Continuous
 62
     3
370
     9
100
AcDbCircle
 10
-344.8912581745313
 20
264.2774710244817
 30
0.0
 40
3.999999809909511
100
AcDbArc
 50
7.016464233398438
 51
90.0
  0
ARC
  5
261
330
1F
100
AcDbEntity
  8
通り芯
  6
Continuous
 62
     3
370
     9
100
AcDbCircle
 10
-344.8912581745313
 20
284.2774751484789
 30
0.0
 40
3.999999809909511
100
AcDbArc
 50
270.0
 51
0.0
  0
ARC
  5
262
330
1F
100
AcDbEntity
  8
通り芯
  6
Continuous
 62
     3
370
     9
100
AcDbCircle
 10
-360.3912598241301
 20
284.2774751484789
 30
0.0
 40
3.999999809909511
100
AcDbArc
 50
180.0
 51
270.0
  0
ARC
  5
263
330
1F
100
AcDbEntity
  8
通り芯
  6
Continuous
 62
     3
370
     9
100
AcDbCircle
 10
-360.3912598241301
 20
397.2774273101131
 30
0.0
 40
3.999999809909511
100
AcDbArc
 50
90.0
 51
180.0
  0
ARC
  5
264
330
1F
100
AcDbEntity
  8
通り芯
  6
Continuous
 62
     3
370
     9
100
AcDbCircle
 10
-344.8912581745313
 20
397.2774273101131
 30
0.0
 40
3.999999809909511
100
AcDbArc
 50
7.016464233398438
 51
90.0
  0
ARC
  5
265
330
1F
100
AcDbEntity
  8
仕上
  6
Continuous
 62
     6
370
     9
100
AcDbCircle
 10
-783.3912449777408
 20
42.77744545570008
 30
0.0
 40
11.99999918808808
100
AcDbArc
 50
1.403289794921875
 51
0.0
  0
ARC
  5
266
330
1F
100
AcDbEntity
  8
仕上
  6
Continuous
 62
     6
370
     9
100
AcDbCircle
 10
-783.3912449777408
 20
42.77744545570008
 30
0.0
 40
14.99999922675056
100
AcDbArc
 50
1.403289794921875
 51
0.0
  0
ARC
  5
267
330
1F
100
AcDbEntity
  8
通り芯
  6
Continuous
 62
     3
370
     9
100
AcDbCircle
 10
-757.8913340560767
 20
87.77747019968237
 30
0.0
 40
3.999999809909511
100
AcDbArc
 50
270.0
 51
0.0
  0
ARC
  5
268
330
1F
100
AcDbEntity
  8
通り芯
  6
Continuous
 62
     3
370
     9
100
AcDbCircle
 10
-773.3913357056757
 20
87.77747019968237
 30
0.0
 40
3.999999809909511
100
AcDbArc
 50
180.0
 51
270.0
  0
ARC
  5
269
330
1F
100
AcDbEntity
  8
通り芯
  6
Continuous
 62
     3
370
     9
100
AcDbCircle
 10
-793.3912779697171
 20
87.77747019968237
 30
0.0
 40
3.999999809909511
100
AcDbArc
 50
270.0
 51
0.0
  0
ARC
  5
26A
330
1F
100
AcDbEntity
  8
通り芯
  6
Continuous
 62
     3
370
     9
100
AcDbCircle
 10
-808.891279619316
 20
87.77747019968237
 30
0.0
 40
3.999999809909511
100
AcDbArc
 50
180.0
 51
270.0
  0
ARC
  5
26B
330
1F
100
AcDbEntity
  8
通り芯
  6
Continuous
 62
     3
370
     9
100
AcDbCircle
 10
-844.3912853929119
 20
31.27749411886519
 30
0.0
 40
3.999999809909511
100
AcDbArc
 50
180.0
 51
270.0
  0
ARC
  5
26C
330
1F
100
AcDbEntity
  8
通り芯
  6
Continuous
 62
     3
370
     9
100
AcDbCircle
 10
-828.8912837433129
 20
31.27749411886519
 30
0.0
 40
3.999999809909511
100
AcDbArc
 50
270.0
 51
0.0
  0
ARC
  5
26D
330
1F
100
AcDbEntity
  8
通り芯
  6
Continuous
 62
     3
370
     9
100
AcDbCircle
 10
-828.8912837433129
 20
144.2774462804994
 30
0.0
 40
3.999999809909511
100
AcDbArc
 50
1.403289794921875
 51
90.0
  0
ARC
  5
26E
330
1F
100
AcDbEntity
  8
通り芯
  6
Continuous
 62
     3
370
     9
100
AcDbCircle
 10
-844.3912853929119
 20
144.2774462804994
 30
0.0
 40
3.999999809909511
100
AcDbArc
 50
90.0
 51
180.0
  0
ARC
  5
26F
330
1F
100
AcDbEntity
  8
通り芯
  6
Continuous
 62
     3
370
     9
100
AcDbCircle
 10
-844.3912853929119
 20
164.2774504044966
 30
0.0
 40
3.999999809909511
100
AcDbArc
 50
180.0
 51
270.0
  0
ARC
  5
270
330
1F
100
AcDbEntity
  8
通り芯
  6
Continuous
 62
     3
370
     9
100
AcDbCircle
 10
-828.8912837433129
 20
164.2774504044966
 30
0.0
 40
3.999999809909511
100
AcDbArc
 50
270.0
 51
0.0
  0
ARC
  5
271
330
1F
100
AcDbEntity
  8
通り芯
  6
Continuous
 62
     3
370
     9
100
AcDbCircle
 10
-793.3912779697171
 20
164.2774504044966
 30
0.0
 40
3.999999809909511
100
AcDbArc
 50
270.0
 51
0.0
  0
ARC
  5
272
330
1F
100
AcDbEntity
  8
通り芯
  6
Continuous
 62
     3
370
     9
100
AcDbCircle
 10
-808.891279619316
 20
164.2774504044966
 30
0.0
 40
3.999999809909511
100
AcDbArc
 50
180.0
 51
270.0
  0
ARC
  5
273
330
1F
100
AcDbEntity
  8
通り芯
  6
Continuous
 62
     3
370
     9
100
AcDbCircle
 10
-808.891279619316
 20
144.2774462804994
 30
0.0
 40
3.999999809909511
100
AcDbArc
 50
90.0
 51
180.0
  0
ARC
  5
274
330
1F
100
AcDbEntity
  8
通り芯
  6
Continuous
 62
     3
370
     9
100
AcDbCircle
 10
-793.3912779697171
 20
144.2774462804994
 30
0.0
 40
3.999999809909511
100
AcDbArc
 50
1.403289794921875
 51
90.0
  0
ARC
  5
275
330
1F
100
AcDbEntity
  8
通り芯
  6
Continuous
 62
     3
370
     9
100
AcDbCircle
 10
-757.8913340560767
 20
144.2774462804994
 30
0.0
 40
3.999999809909511
100
AcDbArc
 50
1.403289794921875
 51
90.0
  0
ARC
  5
276
330
1F
100
AcDbEntity
  8
通り芯
  6
Continuous
 62
     3
370
     9
100
AcDbCircle
 10
-773.3913357056757
 20
144.2774462804994
 30
0.0
 40
3.999999809909511
100
AcDbArc
 50
90.0
 51
180.0
  0
ARC
  5
277
330
1F
100
AcDbEntity
  8
通り芯
  6
Continuous
 62
     3
370
     9
100
AcDbCircle
 10
-773.3913357056757
 20
164.2774504044966
 30
0.0
 40
3.999999809909511
100
AcDbArc
 50
180.0
 51
270.0
  0
ARC
  5
278
330
1F
100
AcDbEntity
  8
通り芯
  6
Continuous
 62
     3
370
     9
100
AcDbCircle
 10
-757.8913340560767
 20
164.2774504044966
 30
0.0
 40
3.999999809909511
100
AcDbArc
 50
270.0
 51
0.0
  0
ARC
  5
279
330
1F
100
AcDbEntity
  8
通り芯
  6
Continuous
 62
     3
370
     9
100
AcDbCircle
 10
-707.8912928161066
 20
164.2774504044966
 30
0.0
 40
3.999999809909511
100
AcDbArc
 50
270.0
 51
0.0
  0
ARC
  5
27A
330
1F
100
AcDbEntity
  8
通り芯
  6
Continuous
 62
     3
370
     9
100
AcDbCircle
 10
-723.3912944657051
 20
164.2774504044966
 30
0.0
 40
3.999999809909511
100
AcDbArc
 50
180.0
 51
270.0
  0
ARC
  5
27B
330
1F
100
AcDbEntity
  8
通り芯
  6
Continuous
 62
     3
370
     9
100
AcDbCircle
 10
-723.3912944657051
 20
144.2774462804994
 30
0.0
 40
3.999999809909511
100
AcDbArc
 50
90.0
 51
180.0
  0
ARC
  5
27C
330
1F
100
AcDbEntity
  8
通り芯
  6
Continuous
 62
     3
370
     9
100
AcDbCircle
 10
-707.8912928161066
 20
144.2774462804994
 30
0.0
 40
3.999999809909511
100
AcDbArc
 50
1.403289794921875
 51
90.0
  0
ARC
  5
27D
330
1F
100
AcDbEntity
  8
通り芯
  6
Continuous
 62
     3
370
     9
100
AcDbCircle
 10
-707.8912928161066
 20
31.27749411886519
 30
0.0
 40
3.999999809909511
100
AcDbArc
 50
270.0
 51
0.0
  0
ARC
  5
27E
330
1F
100
AcDbEntity
  8
通り芯
  6
Continuous
 62
     3
370
     9
100
AcDbCircle
 10
-723.3912944657051
 20
31.27749411886519
 30
0.0
 40
3.999999809909511
100
AcDbArc
 50
180.0
 51
270.0
  0
ARC
  5
27F
330
1F
100
AcDbEntity
  8
通り芯
  6
Continuous
 62
     3
370
     9
100
AcDbCircle
 10
-687.891350552065
 20
31.27749411886519
 30
0.0
 40
3.999999809909511
100
AcDbArc
 50
180.0
 51
270.0
  0
ARC
  5
280
330
1F
100
AcDbEntity
  8
通り芯
  6
Continuous
 62
     3
370
     9
100
AcDbCircle
 10
-672.391348902466
 20
31.27749411886519
 30
0.0
 40
3.999999809909511
100
AcDbArc
 50
270.0
 51
0.0
  0
ARC
  5
281
330
1F
100
AcDbEntity
  8
通り芯
  6
Continuous
 62
     3
370
     9
100
AcDbCircle
 10
-672.391348902466
 20
144.2774462804994
 30
0.0
 40
3.999999809909511
100
AcDbArc
 50
1.403289794921875
 51
90.0
  0
ARC
  5
282
330
1F
100
AcDbEntity
  8
通り芯
  6
Continuous
 62
     3
370
     9
100
AcDbCircle
 10
-687.891350552065
 20
144.2774462804994
 30
0.0
 40
3.999999809909511
100
AcDbArc
 50
90.0
 51
180.0
  0
ARC
  5
283
330
1F
100
AcDbEntity
  8
通り芯
  6
Continuous
 62
     3
370
     9
100
AcDbCircle
 10
-687.891350552065
 20
164.2774504044966
 30
0.0
 40
3.999999809909511
100
AcDbArc
 50
180.0
 51
270.0
  0
ARC
  5
284
330
1F
100
AcDbEntity
  8
通り芯
  6
Continuous
 62
     3
370
     9
100
AcDbCircle
 10
-672.391348902466
 20
164.2774504044966
 30
0.0
 40
3.999999809909511
100
AcDbArc
 50
270.0
 51
0.0
  0
ARC
  5
285
330
1F
100
AcDbEntity
  8
通り芯
  6
Continuous
 62
     3
370
     9
100
AcDbCircle
 10
-636.8912812689148
 20
164.2774504044966
 30
0.0
 40
3.999999809909511
100
AcDbArc
 50
270.0
 51
0.0
  0
ARC
  5
286
330
1F
100
AcDbEntity
  8
通り芯
  6
Continuous
 62
     3
370
     9
100
AcDbCircle
 10
-652.3912829185134
 20
164.2774504044966
 30
0.0
 40
3.999999809909511
100
AcDbArc
 50
180.0
 51
270.0
  0
ARC
  5
287
330
1F
100
AcDbEntity
  8
通り芯
  6
Continuous
 62
     3
370
     9
100
AcDbCircle
 10
-652.3912829185134
 20
144.2774462804994
 30
0.0
 40
3.999999809909511
100
AcDbArc
 50
90.0
 51
180.0
  0
ARC
  5
288
330
1F
100
AcDbEntity
  8
通り芯
  6
Continuous
 62
     3
370
     9
100
AcDbCircle
 10
-636.8912812689148
 20
144.2774462804994
 30
0.0
 40
3.999999809909511
100
AcDbArc
 50
1.403289794921875
 51
90.0
  0
ARC
  5
289
330
1F
100
AcDbEntity
  8
通り芯
  6
Continuous
 62
     3
370
     9
100
AcDbCircle
 10
-636.8912812689148
 20
31.27749411886519
 30
0.0
 40
3.999999809909511
100
AcDbArc
 50
270.0
 51
0.0
  0
ARC
  5
28A
330
1F
100
AcDbEntity
  8
通り芯
  6
Continuous
 62
     3
370
     9
100
AcDbCircle
 10
-652.3912829185134
 20
31.27749411886519
 30
0.0
 40
3.999999809909511
100
AcDbArc
 50
180.0
 51
270.0
  0
ARC
  5
28B
330
1F
100
AcDbEntity
  8
通り芯
  6
Continuous
 62
     3
370
     9
100
AcDbCircle
 10
-602.3912416785432
 20
31.27749411886519
 30
0.0
 40
3.999999809909511
100
AcDbArc
 50
180.0
 51
270.0
  0
ARC
  5
28C
330
1F
100
AcDbEntity
  8
通り芯
  6
Continuous
 62
     3
370
     9
100
AcDbCircle
 10
-586.8912400289444
 20
31.27749411886519
 30
0.0
 40
3.999999809909511
100
AcDbArc
 50
270.0
 51
0.0
  0
ARC
  5
28D
330
1F
100
AcDbEntity
  8
通り芯
  6
Continuous
 62
     3
370
     9
100
AcDbCircle
 10
-586.8912400289444
 20
144.2774462804994
 30
0.0
 40
3.999999809909511
100
AcDbArc
 50
1.403289794921875
 51
90.0
  0
ARC
  5
28E
330
1F
100
AcDbEntity
  8
通り芯
  6
Continuous
 62
     3
370
     9
100
AcDbCircle
 10
-602.3912416785432
 20
144.2774462804994
 30
0.0
 40
3.999999809909511
100
AcDbArc
 50
90.0
 51
180.0
  0
ARC
  5
28F
330
1F
100
AcDbEntity
  8
通り芯
  6
Continuous
 62
     3
370
     9
100
AcDbCircle
 10
-602.3912416785432
 20
164.2774504044966
 30
0.0
 40
3.999999809909511
100
AcDbArc
 50
180.0
 51
270.0
  0
ARC
  5
290
330
1F
100
AcDbEntity
  8
通り芯
  6
Continuous
 62
     3
370
     9
100
AcDbCircle
 10
-586.8912400289444
 20
164.2774504044966
 30
0.0
 40
3.999999809909511
100
AcDbArc
 50
270.0
 51
0.0
  0
ARC
  5
291
330
1F
100
AcDbEntity
  8
通り芯
  6
Continuous
 62
     3
370
     9
100
AcDbCircle
 10
-551.3912961153042
 20
164.2774504044966
 30
0.0
 40
3.999999809909511
100
AcDbArc
 50
270.0
 51
0.0
  0
ARC
  5
292
330
1F
100
AcDbEntity
  8
通り芯
  6
Continuous
 62
     3
370
     9
100
AcDbCircle
 10
-566.8912977649029
 20
164.2774504044966
 30
0.0
 40
3.999999809909511
100
AcDbArc
 50
180.0
 51
270.0
  0
ARC
  5
293
330
1F
100
AcDbEntity
  8
通り芯
  6
Continuous
 62
     3
370
     9
100
AcDbCircle
 10
-566.8912977649029
 20
144.2774462804994
 30
0.0
 40
3.999999809909511
100
AcDbArc
 50
90.0
 51
180.0
  0
ARC
  5
294
330
1F
100
AcDbEntity
  8
通り芯
  6
Continuous
 62
     3
370
     9
100
AcDbCircle
 10
-551.3912961153042
 20
144.2774462804994
 30
0.0
 40
3.999999809909511
100
AcDbArc
 50
1.403289794921875
 51
90.0
  0
ARC
  5
295
330
1F
100
AcDbEntity
  8
通り芯
  6
Continuous
 62
     3
370
     9
100
AcDbCircle
 10
-551.3912961153042
 20
31.27749411886519
 30
0.0
 40
3.999999809909511
100
AcDbArc
 50
270.0
 51
0.0
  0
ARC
  5
296
330
1F
100
AcDbEntity
  8
通り芯
  6
Continuous
 62
     3
370
     9
100
AcDbCircle
 10
-566.8912977649029
 20
31.27749411886519
 30
0.0
 40
3.999999809909511
100
AcDbArc
 50
180.0
 51
270.0
  0
ARC
  5
297
330
1F
100
AcDbEntity
  8
通り芯
  6
Continuous
 62
     3
370
     9
100
AcDbCircle
 10
-531.3913538512627
 20
31.27749411886519
 30
0.0
 40
3.999999809909511
100
AcDbArc
 50
180.0
 51
270.0
  0
ARC
  5
298
330
1F
100
AcDbEntity
  8
通り芯
  6
Continuous
 62
     3
370
     9
100
AcDbCircle
 10
-515.891352201664
 20
31.27749411886519
 30
0.0
 40
3.999999809909511
100
AcDbArc
 50
270.0
 51
0.0
  0
ARC
  5
299
330
1F
100
AcDbEntity
  8
通り芯
  6
Continuous
 62
     3
370
     9
100
AcDbCircle
 10
-515.891352201664
 20
144.2774462804994
 30
0.0
 40
3.999999809909511
100
AcDbArc
 50
1.403289794921875
 51
90.0
  0
ARC
  5
29A
330
1F
100
AcDbEntity
  8
通り芯
  6
Continuous
 62
     3
370
     9
100
AcDbCircle
 10
-531.3913538512627
 20
144.2774462804994
 30
0.0
 40
3.999999809909511
100
AcDbArc
 50
90.0
 51
180.0
  0
ARC
  5
29B
330
1F
100
AcDbEntity
  8
通り芯
  6
Continuous
 62
     3
370
     9
100
AcDbCircle
 10
-531.3913538512627
 20
164.2774504044966
 30
0.0
 40
3.999999809909511
100
AcDbArc
 50
180.0
 51
270.0
  0
ARC
  5
29C
330
1F
100
AcDbEntity
  8
通り芯
  6
Continuous
 62
     3
370
     9
100
AcDbCircle
 10
-515.891352201664
 20
164.2774504044966
 30
0.0
 40
3.999999809909511
100
AcDbArc
 50
270.0
 51
0.0
  0
ARC
  5
29D
330
1F
100
AcDbEntity
  8
通り芯
  6
Continuous
 62
     3
370
     9
100
AcDbCircle
 10
-465.8913109616935
 20
164.2774504044966
 30
0.0
 40
3.999999809909511
100
AcDbArc
 50
270.0
 51
0.0
  0
ARC
  5
29E
330
1F
100
AcDbEntity
  8
通り芯
  6
Continuous
 62
     3
370
     9
100
AcDbCircle
 10
-481.3913126112923
 20
164.2774504044966
 30
0.0
 40
3.999999809909511
100
AcDbArc
 50
180.0
 51
270.0
  0
ARC
  5
29F
330
1F
100
AcDbEntity
  8
通り芯
  6
Continuous
 62
     3
370
     9
100
AcDbCircle
 10
-481.3913126112923
 20
144.2774462804994
 30
0.0
 40
3.999999809909511
100
AcDbArc
 50
90.0
 51
180.0
  0
ARC
  5
2A0
330
1F
100
AcDbEntity
  8
通り芯
  6
Continuous
 62
     3
370
     9
100
AcDbCircle
 10
-465.8913109616935
 20
144.2774462804994
 30
0.0
 40
3.999999809909511
100
AcDbArc
 50
1.403289794921875
 51
90.0
  0
ARC
  5
2A1
330
1F
100
AcDbEntity
  8
通り芯
  6
Continuous
 62
     3
370
     9
100
AcDbCircle
 10
-465.8913109616935
 20
31.27749411886519
 30
0.0
 40
3.999999809909511
100
AcDbArc
 50
270.0
 51
0.0
  0
ARC
  5
2A2
330
1F
100
AcDbEntity
  8
通り芯
  6
Continuous
 62
     3
370
     9
100
AcDbCircle
 10
-481.3913126112923
 20
31.27749411886519
 30
0.0
 40
3.999999809909511
100
AcDbArc
 50
180.0
 51
270.0
  0
ARC
  5
2A3
330
1F
100
AcDbEntity
  8
通り芯
  6
Continuous
 62
     3
370
     9
100
AcDbCircle
 10
-445.8912449777407
 20
31.27749411886519
 30
0.0
 40
3.999999809909511
100
AcDbArc
 50
180.0
 51
270.0
  0
ARC
  5
2A4
330
1F
100
AcDbEntity
  8
通り芯
  6
Continuous
 62
     3
370
     9
100
AcDbCircle
 10
-430.3912433281419
 20
31.27749411886519
 30
0.0
 40
3.999999809909511
100
AcDbArc
 50
270.0
 51
0.0
  0
ARC
  5
2A5
330
1F
100
AcDbEntity
  8
通り芯
  6
Continuous
 62
     3
370
     9
100
AcDbCircle
 10
-430.3912433281419
 20
144.2774462804994
 30
0.0
 40
3.999999809909511
100
AcDbArc
 50
1.403289794921875
 51
90.0
  0
ARC
  5
2A6
330
1F
100
AcDbEntity
  8
通り芯
  6
Continuous
 62
     3
370
     9
100
AcDbCircle
 10
-445.8912449777407
 20
144.2774462804994
 30
0.0
 40
3.999999809909511
100
AcDbArc
 50
90.0
 51
180.0
  0
ARC
  5
2A7
330
1F
100
AcDbEntity
  8
通り芯
  6
Continuous
 62
     3
370
     9
100
AcDbCircle
 10
-445.8912449777407
 20
164.2774504044966
 30
0.0
 40
3.999999809909511
100
AcDbArc
 50
180.0
 51
270.0
  0
ARC
  5
2A8
330
1F
100
AcDbEntity
  8
通り芯
  6
Continuous
 62
     3
370
     9
100
AcDbCircle
 10
-430.3912433281419
 20
164.2774504044966
 30
0.0
 40
3.999999809909511
100
AcDbArc
 50
270.0
 51
0.0
  0
ARC
  5
2A9
330
1F
100
AcDbEntity
  8
通り芯
  6
Continuous
 62
     3
370
     9
100
AcDbCircle
 10
-394.8912994145018
 20
164.2774504044966
 30
0.0
 40
3.999999809909511
100
AcDbArc
 50
270.0
 51
0.0
  0
ARC
  5
2AA
330
1F
100
AcDbEntity
  8
通り芯
  6
Continuous
 62
     3
370
     9
100
AcDbCircle
 10
-410.3913010641006
 20
164.2774504044966
 30
0.0
 40
3.999999809909511
100
AcDbArc
 50
180.0
 51
270.0
  0
ARC
  5
2AB
330
1F
100
AcDbEntity
  8
通り芯
  6
Continuous
 62
     3
370
     9
100
AcDbCircle
 10
-410.3913010641006
 20
144.2774462804994
 30
0.0
 40
3.999999809909511
100
AcDbArc
 50
90.0
 51
180.0
  0
ARC
  5
2AC
330
1F
100
AcDbEntity
  8
通り芯
  6
Continuous
 62
     3
370
     9
100
AcDbCircle
 10
-394.8912994145018
 20
144.2774462804994
 30
0.0
 40
3.999999809909511
100
AcDbArc
 50
1.403289794921875
 51
90.0
  0
ARC
  5
2AD
330
1F
100
AcDbEntity
  8
通り芯
  6
Continuous
 62
     3
370
     9
100
AcDbCircle
 10
-394.8912994145018
 20
31.27749411886519
 30
0.0
 40
3.999999809909511
100
AcDbArc
 50
270.0
 51
0.0
  0
ARC
  5
2AE
330
1F
100
AcDbEntity
  8
通り芯
  6
Continuous
 62
     3
370
     9
100
AcDbCircle
 10
-410.3913010641006
 20
31.27749411886519
 30
0.0
 40
3.999999809909511
100
AcDbArc
 50
180.0
 51
270.0
  0
ARC
  5
2AF
330
1F
100
AcDbEntity
  8
通り芯
  6
Continuous
 62
     3
370
     9
100
AcDbCircle
 10
-344.8912581745313
 20
31.27749411886519
 30
0.0
 40
3.999999809909511
100
AcDbArc
 50
270.0
 51
0.0
  0
ARC
  5
2B0
330
1F
100
AcDbEntity
  8
通り芯
  6
Continuous
 62
     3
370
     9
100
AcDbCircle
 10
-360.3912598241301
 20
31.27749411886519
 30
0.0
 40
3.999999809909511
100
AcDbArc
 50
180.0
 51
270.0
  0
ARC
  5
2B1
330
1F
100
AcDbEntity
  8
通り芯
  6
Continuous
 62
     3
370
     9
100
AcDbCircle
 10
-360.3912598241301
 20
144.2774462804994
 30
0.0
 40
3.999999809909511
100
AcDbArc
 50
90.0
 51
180.0
  0
ARC
  5
2B2
330
1F
100
AcDbEntity
  8
通り芯
  6
Continuous
 62
     3
370
     9
100
AcDbCircle
 10
-344.8912581745313
 20
144.2774462804994
 30
0.0
 40
3.999999809909511
100
AcDbArc
 50
7.016464233398438
 51
90.0
  0
ARC
  5
2B3
330
1F
100
AcDbEntity
  8
通り芯
  6
Continuous
 62
     3
370
     9
100
AcDbCircle
 10
-344.8912581745313
 20
164.2774504044966
 30
0.0
 40
3.999999809909511
100
AcDbArc
 50
270.0
 51
0.0
  0
ARC
  5
2B4
330
1F
100
AcDbEntity
  8
通り芯
  6
Continuous
 62
     3
370
     9
100
AcDbCircle
 10
-360.3912598241301
 20
164.2774504044966
 30
0.0
 40
3.999999809909511
100
AcDbArc
 50
180.0
 51
270.0
  0
ARC
  5
2B5
330
1F
100
AcDbEntity
  8
通り芯
  6
Continuous
 62
     3
370
     9
100
AcDbCircle
 10
-324.8913159104899
 20
164.2774504044966
 30
0.0
 40
3.999999809909511
100
AcDbArc
 50
180.0
 51
270.0
  0
ARC
  5
2B6
330
1F
100
AcDbEntity
  8
通り芯
  6
Continuous
 62
     3
370
     9
100
AcDbCircle
 10
-309.391314260891
 20
164.2774504044966
 30
0.0
 40
3.999999809909511
100
AcDbArc
 50
270.0
 51
0.0
  0
ARC
  5
2B7
330
1F
100
AcDbEntity
  8
通り芯
  6
Continuous
 62
     3
370
     9
100
AcDbCircle
 10
-309.391314260891
 20
144.2774462804994
 30
0.0
 40
3.999999809909511
100
AcDbArc
 50
7.016464233398438
 51
90.0
  0
ARC
  5
2B8
330
1F
100
AcDbEntity
  8
通り芯
  6
Continuous
 62
     3
370
     9
100
AcDbCircle
 10
-324.8913159104899
 20
144.2774462804994
 30
0.0
 40
3.999999809909511
100
AcDbArc
 50
90.0
 51
180.0
  0
ARC
  5
2B9
330
1F
100
AcDbEntity
  8
通り芯
  6
Continuous
 62
     3
370
     9
100
AcDbCircle
 10
-324.8913159104899
 20
31.27749411886519
 30
0.0
 40
3.999999809909511
100
AcDbArc
 50
180.0
 51
270.0
  0
ARC
  5
2BA
330
1F
100
AcDbEntity
  8
通り芯
  6
Continuous
 62
     3
370
     9
100
AcDbCircle
 10
-309.391314260891
 20
31.27749411886519
 30
0.0
 40
3.999999809909511
100
AcDbArc
 50
270.0
 51
0.0
  0
ARC
  5
2BB
330
1F
100
AcDbEntity
  8
通り芯
  6
Continuous
 62
     3
370
     9
100
AcDbCircle
 10
-273.8912466273395
 20
31.27749411886519
 30
0.0
 40
3.999999809909511
100
AcDbArc
 50
270.0
 51
0.0
  0
ARC
  5
2BC
330
1F
100
AcDbEntity
  8
通り芯
  6
Continuous
 62
     3
370
     9
100
AcDbCircle
 10
-289.3912482769383
 20
31.27749411886519
 30
0.0
 40
3.999999809909511
100
AcDbArc
 50
180.0
 51
270.0
  0
ARC
  5
2BD
330
1F
100
AcDbEntity
  8
通り芯
  6
Continuous
 62
     3
370
     9
100
AcDbCircle
 10
-289.3912482769383
 20
144.2774462804994
 30
0.0
 40
3.999999809909511
100
AcDbArc
 50
90.0
 51
180.0
  0
ARC
  5
2BE
330
1F
100
AcDbEntity
  8
通り芯
  6
Continuous
 62
     3
370
     9
100
AcDbCircle
 10
-273.8912466273395
 20
144.2774462804994
 30
0.0
 40
3.999999809909511
100
AcDbArc
 50
7.016464233398438
 51
90.0
  0
ARC
  5
2BF
330
1F
100
AcDbEntity
  8
通り芯
  6
Continuous
 62
     3
370
     9
100
AcDbCircle
 10
-273.8912466273395
 20
164.2774504044966
 30
0.0
 40
3.999999809909511
100
AcDbArc
 50
270.0
 51
0.0
  0
ARC
  5
2C0
330
1F
100
AcDbEntity
  8
通り芯
  6
Continuous
 62
     3
370
     9
100
AcDbCircle
 10
-289.3912482769383
 20
164.2774504044966
 30
0.0
 40
3.999999809909511
100
AcDbArc
 50
180.0
 51
270.0
  0
ARC
  5
2C1
330
1F
100
AcDbEntity
  8
通り芯
  6
Continuous
 62
     3
370
     9
100
AcDbCircle
 10
-239.3913307568792
 20
164.2774504044966
 30
0.0
 40
3.999999809909511
100
AcDbArc
 50
180.0
 51
270.0
  0
ARC
  5
2C2
330
1F
100
AcDbEntity
  8
通り芯
  6
Continuous
 62
     3
370
     9
100
AcDbCircle
 10
-223.8913291072804
 20
164.2774504044966
 30
0.0
 40
3.999999809909511
100
AcDbArc
 50
270.0
 51
0.0
  0
ARC
  5
2C3
330
1F
100
AcDbEntity
  8
通り芯
  6
Continuous
 62
     3
370
     9
100
AcDbCircle
 10
-223.8913291072804
 20
144.2774462804994
 30
0.0
 40
3.999999809909511
100
AcDbArc
 50
7.016464233398438
 51
90.0
  0
ARC
  5
2C4
330
1F
100
AcDbEntity
  8
通り芯
  6
Continuous
 62
     3
370
     9
100
AcDbCircle
 10
-239.3913307568792
 20
144.2774462804994
 30
0.0
 40
3.999999809909511
100
AcDbArc
 50
90.0
 51
180.0
  0
ARC
  5
2C5
330
1F
100
AcDbEntity
  8
通り芯
  6
Continuous
 62
     3
370
     9
100
AcDbCircle
 10
-239.3913307568792
 20
31.27749411886519
 30
0.0
 40
3.999999809909511
100
AcDbArc
 50
180.0
 51
270.0
  0
ARC
  5
2C6
330
1F
100
AcDbEntity
  8
通り芯
  6
Continuous
 62
     3
370
     9
100
AcDbCircle
 10
-223.8913291072804
 20
31.27749411886519
 30
0.0
 40
3.999999809909511
100
AcDbArc
 50
270.0
 51
0.0
  0
ARC
  5
2C7
330
1F
100
AcDbEntity
  8
通り芯
  6
Continuous
 62
     3
370
     9
100
AcDbCircle
 10
-188.3912614737289
 20
31.27749411886519
 30
0.0
 40
3.999999809909511
100
AcDbArc
 50
270.0
 51
0.0
  0
ARC
  5
2C8
330
1F
100
AcDbEntity
  8
通り芯
  6
Continuous
 62
     3
370
     9
100
AcDbCircle
 10
-203.8912631233278
 20
31.27749411886519
 30
0.0
 40
3.999999809909511
100
AcDbArc
 50
180.0
 51
270.0
  0
ARC
  5
2C9
330
1F
100
AcDbEntity
  8
通り芯
  6
Continuous
 62
     3
370
     9
100
AcDbCircle
 10
-203.8912631233278
 20
144.2774462804994
 30
0.0
 40
3.999999809909511
100
AcDbArc
 50
90.0
 51
180.0
  0
ARC
  5
2CA
330
1F
100
AcDbEntity
  8
通り芯
  6
Continuous
 62
     3
370
     9
100
AcDbCircle
 10
-188.3912614737289
 20
144.2774462804994
 30
0.0
 40
3.999999809909511
100
AcDbArc
 50
7.016464233398438
 51
90.0
  0
ARC
  5
2CB
330
1F
100
AcDbEntity
  8
通り芯
  6
Continuous
 62
     3
370
     9
100
AcDbCircle
 10
-188.3912614737289
 20
164.2774504044966
 30
0.0
 40
3.999999809909511
100
AcDbArc
 50
270.0
 51
0.0
  0
ARC
  5
2CC
330
1F
100
AcDbEntity
  8
通り芯
  6
Continuous
 62
     3
370
     9
100
AcDbCircle
 10
-203.8912631233278
 20
164.2774504044966
 30
0.0
 40
3.999999809909511
100
AcDbArc
 50
180.0
 51
270.0
  0
ARC
  5
2CD
330
1F
100
AcDbEntity
  8
通り芯
  6
Continuous
 62
     3
370
     9
100
AcDbCircle
 10
-168.3913192096875
 20
164.2774504044966
 30
0.0
 40
3.999999809909511
100
AcDbArc
 50
180.0
 51
270.0
  0
ARC
  5
2CE
330
1F
100
AcDbEntity
  8
通り芯
  6
Continuous
 62
     3
370
     9
100
AcDbCircle
 10
-152.8913175600887
 20
164.2774504044966
 30
0.0
 40
3.999999809909511
100
AcDbArc
 50
270.0
 51
0.0
  0
ARC
  5
2CF
330
1F
100
AcDbEntity
  8
通り芯
  6
Continuous
 62
     3
370
     9
100
AcDbCircle
 10
-152.8913175600887
 20
144.2774462804994
 30
0.0
 40
3.999999809909511
100
AcDbArc
 50
7.016464233398438
 51
90.0
  0
ARC
  5
2D0
330
1F
100
AcDbEntity
  8
通り芯
  6
Continuous
 62
     3
370
     9
100
AcDbCircle
 10
-168.3913192096875
 20
144.2774462804994
 30
0.0
 40
3.999999809909511
100
AcDbArc
 50
90.0
 51
180.0
  0
ARC
  5
2D1
330
1F
100
AcDbEntity
  8
通り芯
  6
Continuous
 62
     3
370
     9
100
AcDbCircle
 10
-168.3913192096875
 20
31.27749411886519
 30
0.0
 40
3.999999809909511
100
AcDbArc
 50
180.0
 51
270.0
  0
ARC
  5
2D2
330
1F
100
AcDbEntity
  8
通り芯
  6
Continuous
 62
     3
370
     9
100
AcDbCircle
 10
-152.8913175600887
 20
31.27749411886519
 30
0.0
 40
3.999999809909511
100
AcDbArc
 50
270.0
 51
0.0
  0
ARC
  5
2D3
330
1F
100
AcDbEntity
  8
通り芯
  6
Continuous
 62
     3
370
     9
100
AcDbCircle
 10
-102.8912763201183
 20
31.27749411886519
 30
0.0
 40
3.999999809909511
100
AcDbArc
 50
270.0
 51
0.0
  0
ARC
  5
2D4
330
1F
100
AcDbEntity
  8
通り芯
  6
Continuous
 62
     3
370
     9
100
AcDbCircle
 10
-118.3912779697171
 20
31.27749411886519
 30
0.0
 40
3.999999809909511
100
AcDbArc
 50
180.0
 51
270.0
  0
ARC
  5
2D5
330
1F
100
AcDbEntity
  8
通り芯
  6
Continuous
 62
     3
370
     9
100
AcDbCircle
 10
-118.3912779697171
 20
144.2774462804994
 30
0.0
 40
3.999999809909511
100
AcDbArc
 50
90.0
 51
180.0
  0
ARC
  5
2D6
330
1F
100
AcDbEntity
  8
通り芯
  6
Continuous
 62
     3
370
     9
100
AcDbCircle
 10
-102.8912763201183
 20
144.2774462804994
 30
0.0
 40
3.999999809909511
100
AcDbArc
 50
7.016464233398438
 51
90.0
  0
ARC
  5
2D7
330
1F
100
AcDbEntity
  8
通り芯
  6
Continuous
 62
     3
370
     9
100
AcDbCircle
 10
-102.8912763201183
 20
164.2774504044966
 30
0.0
 40
3.999999809909511
100
AcDbArc
 50
270.0
 51
0.0
  0
ARC
  5
2D8
330
1F
100
AcDbEntity
  8
通り芯
  6
Continuous
 62
     3
370
     9
100
AcDbCircle
 10
-118.3912779697171
 20
164.2774504044966
 30
0.0
 40
3.999999809909511
100
AcDbArc
 50
180.0
 51
270.0
  0
ARC
  5
2D9
330
1F
100
AcDbEntity
  8
通り芯
  6
Continuous
 62
     3
370
     9
100
AcDbCircle
 10
-82.89133405607684
 20
164.2774504044966
 30
0.0
 40
3.999999809909511
100
AcDbArc
 50
180.0
 51
270.0
  0
ARC
  5
2DA
330
1F
100
AcDbEntity
  8
通り芯
  6
Continuous
 62
     3
370
     9
100
AcDbCircle
 10
-67.39133240647801
 20
164.2774504044966
 30
0.0
 40
3.999999809909511
100
AcDbArc
 50
270.0
 51
0.0
  0
ARC
  5
2DB
330
1F
100
AcDbEntity
  8
通り芯
  6
Continuous
 62
     3
370
     9
100
AcDbCircle
 10
-67.39133240647801
 20
144.2774462804994
 30
0.0
 40
3.999999809909511
100
AcDbArc
 50
7.016464233398438
 51
90.0
  0
ARC
  5
2DC
330
1F
100
AcDbEntity
  8
通り芯
  6
Continuous
 62
     3
370
     9
100
AcDbCircle
 10
-82.89133405607684
 20
144.2774462804994
 30
0.0
 40
3.999999809909511
100
AcDbArc
 50
90.0
 51
180.0
  0
ARC
  5
2DD
330
1F
100
AcDbEntity
  8
通り芯
  6
Continuous
 62
     3
370
     9
100
AcDbCircle
 10
-82.89133405607684
 20
31.27749411886519
 30
0.0
 40
3.999999809909511
100
AcDbArc
 50
180.0
 51
270.0
  0
ARC
  5
2DE
330
1F
100
AcDbEntity
  8
通り芯
  6
Continuous
 62
     3
370
     9
100
AcDbCircle
 10
-67.39133240647801
 20
31.27749411886519
 30
0.0
 40
3.999999809909511
100
AcDbArc
 50
270.0
 51
0.0
  0
ARC
  5
2DF
330
1F
100
AcDbEntity
  8
通り芯
  6
Continuous
 62
     3
370
     9
100
AcDbCircle
 10
-31.89126477292644
 20
31.27749411886519
 30
0.0
 40
3.999999809909511
100
AcDbArc
 50
270.0
 51
0.0
  0
ARC
  5
2E0
330
1F
100
AcDbEntity
  8
通り芯
  6
Continuous
 62
     3
370
     9
100
AcDbCircle
 10
-47.39139014243661
 20
31.27749411886519
 30
0.0
 40
3.999999809909511
100
AcDbArc
 50
180.0
 51
270.0
  0
ARC
  5
2E1
330
1F
100
AcDbEntity
  8
通り芯
  6
Continuous
 62
     3
370
     9
100
AcDbCircle
 10
-47.39139014243661
 20
144.2774462804994
 30
0.0
 40
3.999999809909511
100
AcDbArc
 50
90.0
 51
180.0
  0
ARC
  5
2E2
330
1F
100
AcDbEntity
  8
通り芯
  6
Continuous
 62
     3
370
     9
100
AcDbCircle
 10
-31.89126477292644
 20
144.2774462804994
 30
0.0
 40
3.999999809909511
100
AcDbArc
 50
7.016464233398438
 51
90.0
  0
ARC
  5
2E3
330
1F
100
AcDbEntity
  8
通り芯
  6
Continuous
 62
     3
370
     9
100
AcDbCircle
 10
-31.89126477292644
 20
164.2774504044966
 30
0.0
 40
3.999999809909511
100
AcDbArc
 50
270.0
 51
0.0
  0
ARC
  5
2E4
330
1F
100
AcDbEntity
  8
通り芯
  6
Continuous
 62
     3
370
     9
100
AcDbCircle
 10
-47.39139014243661
 20
164.2774504044966
 30
0.0
 40
3.999999809909511
100
AcDbArc
 50
180.0
 51
270.0
  0
ARC
  5
2E5
330
1F
100
AcDbEntity
  8
通り芯
  6
Continuous
 62
     3
370
     9
100
AcDbCircle
 10
2.60877481744517
 20
164.2774504044966
 30
0.0
 40
3.999999809909511
100
AcDbArc
 50
180.0
 51
270.0
  0
ARC
  5
2E6
330
1F
100
AcDbEntity
  8
通り芯
  6
Continuous
 62
     3
370
     9
100
AcDbCircle
 10
18.10865274713267
 20
164.2774504044966
 30
0.0
 40
3.999999809909511
100
AcDbArc
 50
270.0
 51
0.0
  0
ARC
  5
2E7
330
1F
100
AcDbEntity
  8
通り芯
  6
Continuous
 62
     3
370
     9
100
AcDbCircle
 10
18.10865274713267
 20
144.2774462804994
 30
0.0
 40
3.999999809909511
100
AcDbArc
 50
7.016464233398438
 51
90.0
  0
ARC
  5
2E8
330
1F
100
AcDbEntity
  8
通り芯
  6
Continuous
 62
     3
370
     9
100
AcDbCircle
 10
2.60877481744517
 20
144.2774462804994
 30
0.0
 40
3.999999809909511
100
AcDbArc
 50
90.0
 51
180.0
  0
ARC
  5
2E9
330
1F
100
AcDbEntity
  8
通り芯
  6
Continuous
 62
     3
370
     9
100
AcDbCircle
 10
38.10871873108526
 20
144.2774462804994
 30
0.0
 40
3.999999809909511
100
AcDbArc
 50
90.0
 51
180.0
  0
ARC
  5
2EA
330
1F
100
AcDbEntity
  8
通り芯
  6
Continuous
 62
     3
370
     9
100
AcDbCircle
 10
53.60859666077276
 20
144.2774462804994
 30
0.0
 40
3.999999809909511
100
AcDbArc
 50
7.016464233398438
 51
90.0
  0
ARC
  5
2EB
330
1F
100
AcDbEntity
  8
通り芯
  6
Continuous
 62
     3
370
     9
100
AcDbCircle
 10
53.60859666077276
 20
164.2774504044966
 30
0.0
 40
3.999999809909511
100
AcDbArc
 50
270.0
 51
0.0
  0
ARC
  5
2EC
330
1F
100
AcDbEntity
  8
通り芯
  6
Continuous
 62
     3
370
     9
100
AcDbCircle
 10
38.10871873108526
 20
164.2774504044966
 30
0.0
 40
3.999999809909511
100
AcDbArc
 50
180.0
 51
270.0
  0
ARC
  5
2ED
330
1F
100
AcDbEntity
  8
通り芯
  6
Continuous
 62
     3
370
     9
100
AcDbCircle
 10
73.6086626447255
 20
164.2774504044966
 30
0.0
 40
3.999999809909511
100
AcDbArc
 50
180.0
 51
270.0
  0
ARC
  5
2EE
330
1F
100
AcDbEntity
  8
通り芯
  6
Continuous
 62
     3
370
     9
100
AcDbCircle
 10
89.108540574413
 20
164.2774504044966
 30
0.0
 40
3.999999809909511
100
AcDbArc
 50
270.0
 51
0.0
  0
ARC
  5
2EF
330
1F
100
AcDbEntity
  8
通り芯
  6
Continuous
 62
     3
370
     9
100
AcDbCircle
 10
89.108540574413
 20
144.2774462804994
 30
0.0
 40
3.999999809909511
100
AcDbArc
 50
7.016464233398438
 51
90.0
  0
ARC
  5
2F0
330
1F
100
AcDbEntity
  8
通り芯
  6
Continuous
 62
     3
370
     9
100
AcDbCircle
 10
73.6086626447255
 20
144.2774462804994
 30
0.0
 40
3.999999809909511
100
AcDbArc
 50
90.0
 51
180.0
  0
ARC
  5
2F1
330
1F
100
AcDbEntity
  8
通り芯
  6
Continuous
 62
     3
370
     9
100
AcDbCircle
 10
73.6086626447255
 20
31.27749411886519
 30
0.0
 40
3.999999809909511
100
AcDbArc
 50
180.0
 51
270.0
  0
ARC
  5
2F2
330
1F
100
AcDbEntity
  8
通り芯
  6
Continuous
 62
     3
370
     9
100
AcDbCircle
 10
89.108540574413
 20
31.27749411886519
 30
0.0
 40
3.999999809909511
100
AcDbArc
 50
270.0
 51
0.0
  0
ARC
  5
2F3
330
1F
100
AcDbEntity
  8
通り芯
  6
Continuous
 62
     3
370
     9
100
AcDbCircle
 10
53.60859666077276
 20
87.77747019968237
 30
0.0
 40
3.999999809909511
100
AcDbArc
 50
270.0
 51
0.0
  0
ARC
  5
2F4
330
1F
100
AcDbEntity
  8
通り芯
  6
Continuous
 62
     3
370
     9
100
AcDbCircle
 10
38.10871873108526
 20
87.77747019968237
 30
0.0
 40
3.999999809909511
100
AcDbArc
 50
180.0
 51
270.0
  0
ARC
  5
2F5
330
1F
100
AcDbEntity
  8
通り芯
  6
Continuous
 62
     3
370
     9
100
AcDbCircle
 10
18.10865274713267
 20
87.77747019968237
 30
0.0
 40
3.999999809909511
100
AcDbArc
 50
270.0
 51
0.0
  0
ARC
  5
2F6
330
1F
100
AcDbEntity
  8
通り芯
  6
Continuous
 62
     3
370
     9
100
AcDbCircle
 10
2.60877481744517
 20
87.77747019968237
 30
0.0
 40
3.999999809909511
100
AcDbArc
 50
180.0
 51
270.0
  0
CIRCLE
  5
2F7
330
1F
100
AcDbEntity
  8
仕上
  6
Continuous
 62
     6
370
     9
100
AcDbCircle
 10
28.10868573910897
 20
42.77744545570008
 30
0.0
 40
14.99999922675056
  0
CIRCLE
  5
2F8
330
1F
100
AcDbEntity
  8
仕上
  6
Continuous
 62
     6
370
     9
100
AcDbCircle
 10
28.10868573910897
 20
42.77744545570008
 30
0.0
 40
11.99999918808808
  0
TEXT
  5
2F9
330
1F
100
AcDbEntity
  8
その他
  6
Continuous
 62
     2
370
     9
100
AcDbText
 10
-843.8912718868214
 20
515.0973118381959
 30
0.0
 40
15.24
  1
100
 41
1.083333333333333
  7
ＭＳ ゴシック
100
AcDbText
  0
TEXT
  5
2FA
330
1F
100
AcDbEntity
  8
その他
  6
Continuous
 62
     2
370
     9
100
AcDbText
 10
-613.8912476583389
 20
515.0973118381959
 30
0.0
 40
15.24
  1
360
 41
1.083333333333333
  7
ＭＳ ゴシック
100
AcDbText
  0
TEXT
  5
2FB
330
1F
100
AcDbEntity
  8
その他
  6
Continuous
 62
     2
370
     9
100
AcDbText
 10
-253.8912911406474
 20
515.0973118381771
 30
0.0
 40
15.24
  1
360
 50
359.99956377647
 41
1.083333333333335
  7
ＭＳ ゴシック
100
AcDbText
  0
TEXT
  5
2FC
330
1F
100
AcDbEntity
  8
その他
  6
Continuous
 62
     2
370
     9
100
AcDbText
 10
106.1088960757706
 20
515.0973118382071
 30
0.0
 40
15.24
  1
360
 50
359.9997818882347
 41
1.083333333333338
  7
ＭＳ ゴシック
100
AcDbText
  0
TEXT
  5
2FD
330
1F
100
AcDbEntity
  8
その他
  6
Continuous
 62
     2
370
     9
100
AcDbText
 10
100.4835680662354
 20
555.097196366209
 30
0.0
 40
15.24
  1
2000
 50
0.0001620259530437
 41
1.093750000000003
  7
ＭＳ ゴシック
100
AcDbText
  0
TEXT
  5
2FE
330
1F
100
AcDbEntity
  8
その他
  6
Continuous
 62
     2
370
     9
100
AcDbText
 10
257.358703884696
 20
-127.114313544511
 30
0.0
 40
15.24
  1
995
 41
1.083333333333333
  7
ＭＳ ゴシック
100
AcDbText
  0
TEXT
  5
2FF
330
1F
100
AcDbEntity
  8
その他
  6
Continuous
 62
     2
370
     9
100
AcDbText
 10
140.6242909439232
 20
-127.114313544511
 30
0.0
 40
15.24
  1
5
 41
0.9999999999999998
  7
ＭＳ ゴシック
100
AcDbText
  0
TEXT
  5
300
330
1F
100
AcDbEntity
  8
その他
  6
Continuous
 62
     2
370
     9
100
AcDbText
 10
-919.5860829087808
 20
-127.114313544511
 30
0.0
 40
15.24
  1
2.5
 41
1.083333333333333
  7
ＭＳ ゴシック
100
AcDbText
  0
TEXT
  5
301
330
1F
100
AcDbEntity
  8
その他
  6
Continuous
 62
     2
370
     9
100
AcDbText
 10
-190.790805029736
 20
-37.90242175159513
 30
0.0
 40
15.24
  1
12
 41
1.0625
  7
ＭＳ ゴシック
100
AcDbText
  0
TEXT
  5
302
330
1F
100
AcDbEntity
  8
その他
  6
Continuous
 62
     2
370
     9
100
AcDbText
 10
-247.3913167352893
 20
-67.70060983225392
 30
0.0
 40
15.24
  1
23.5
 41
0.8937499999999988
  7
ＭＳ ゴシック
100
AcDbText
  0
TEXT
  5
303
330
1F
100
AcDbEntity
  8
その他
  6
Continuous
 62
     2
370
     9
100
AcDbText
 10
-317.5977269113344
 20
-37.90242175159513
 30
0.0
 40
15.24
  1
26.5
 41
0.893749999999997
  7
ＭＳ ゴシック
100
AcDbText
  0
TEXT
  5
304
330
1F
100
AcDbEntity
  8
その他
  6
Continuous
 62
     2
370
     9
100
AcDbText
 10
603.3621094814549
 20
-50.04955194453224
 30
0.0
 40
15.24
  1
50
 41
1.0625
  7
ＭＳ ゴシック
100
AcDbText
  0
LWPOLYLINE
  5
305
330
1F
100
AcDbEntity
  8
その他
  6
Continuous
 62
     7
370
     9
100
AcDbPolyline
 90
        4
 70
     1
 43
0.5
 10
-243.1413192096875
 20
-45.72243824758328
 42
0.4142135623731
 10
-243.3913192096875
 20
-45.47243824758327
 42
0.4142135623731
 10
-243.6413192096875
 20
-45.72243824758328
 42
0.4142135623731
 10
-243.3913192096875
 20
-45.97243824758328
 42
0.4142135623731
  0
LWPOLYLINE
  5
306
330
1F
100
AcDbEntity
  8
その他
  6
Continuous
 62
     7
370
     9
100
AcDbPolyline
 90
        4
 70
     1
 43
0.5
 10
-219.6412169345609
 20
-45.72243824758328
 42
0.4142135623731
 10
-219.8912169345608
 20
-45.47243824758327
 42
0.4142135623731
 10
-220.1412169345608
 20
-45.72243824758328
 42
0.4142135623731
 10
-219.8912169345608
 20
-45.97243824758328
 42
0.4142135623731
  0
ARC
  5
307
330
1F
100
AcDbEntity
  8
0-A
  6
JWW_CENTER2
 62
     2
370
     9
100
AcDbCircle
 10
658.9870723654816
 20
443.2772326574527
 30
0.0
 40
12.49999967781273
100
AcDbArc
 50
270.0
 51
359.9999847412109
  0
LINE
  5
308
330
1F
100
AcDbEntity
  8
0-A
  6
Continuous
 62
     2
370
     9
100
AcDbLine
 10
614.9870756646792
 20
437.2773118381959
 30
0.0
 11
658.9870723654816
 21
437.2773118381959
 31
0.0
  0
LINE
  5
309
330
1F
100
AcDbEntity
  8
0-A
  6
JWW_CENTER2
 62
     2
370
     9
100
AcDbLine
 10
607.8338378321201
 20
430.7770676975709
 30
0.0
 11
658.9870723654816
 21
430.7770676975709
 31
0.0
  0
ARC
  5
30A
330
1F
100
AcDbEntity
  8
0-A
  6
Continuous
 62
     2
370
     9
100
AcDbCircle
 10
658.9870723654816
 20
443.2772326574527
 30
0.0
 40
18.99999927830052
100
AcDbArc
 50
270.0
 51
0.0
  0
ARC
  5
30B
330
1F
100
AcDbEntity
  8
0-A
  6
Continuous
 62
     2
370
     9
100
AcDbCircle
 10
658.9870723654816
 20
443.2772326574527
 30
0.0
 40
5.999999594044042
100
AcDbArc
 50
270.0
 51
0.0
  0
LINE
  5
30C
330
1F
100
AcDbEntity
  8
0-A
  6
Continuous
 62
     2
370
     9
100
AcDbLine
 10
664.9871169046496
 20
443.2772326574527
 30
0.0
 11
664.9871169046496
 21
457.277130382326
 31
0.0
  0
LINE
  5
30D
330
1F
100
AcDbEntity
  8
0-A
  6
Continuous
 62
     2
370
     9
100
AcDbLine
 10
664.9871169046496
 20
457.277130382326
 30
0.0
 11
677.9871103062543
 21
457.277130382326
 31
0.0
  0
LINE
  5
30E
330
1F
100
AcDbEntity
  8
0-A
  6
JWW_CENTER2
 62
     2
370
     9
100
AcDbLine
 10
671.4871136054519
 20
443.2772326574527
 30
0.0
 11
671.4871136054519
 21
462.0158504256114
 31
0.0
  0
LINE
  5
30F
330
1F
100
AcDbEntity
  8
0-A
  6
Continuous
 62
     2
370
     9
100
AcDbLine
 10
677.9871103062543
 20
443.2772326574527
 30
0.0
 11
677.9871103062543
 21
457.277130382326
 31
0.0
  0
LINE
  5
310
330
1F
100
AcDbEntity
  8
0-A
  6
Continuous
 62
     2
370
     9
100
AcDbLine
 10
614.9870756646792
 20
-8.72282342890724
 30
0.0
 11
658.9870723654816
 21
-8.72282342890724
 31
0.0
  0
LINE
  5
311
330
1F
100
AcDbEntity
  8
0-A
  6
JWW_CENTER2
 62
     2
370
     9
100
AcDbLine
 10
607.8338378321201
 20
-2.222826728104899
 30
0.0
 11
658.9870723654816
 21
-2.222826728104899
 31
0.0
  0
ARC
  5
312
330
1F
100
AcDbEntity
  8
0-A
  6
JWW_CENTER2
 62
     2
370
     9
100
AcDbCircle
 10
658.9870723654816
 20
-14.72274424816401
 30
0.0
 40
12.49999967781273
100
AcDbArc
 50
2.134414672851562
 51
89.99998474121094
  0
ARC
  5
313
330
1F
100
AcDbEntity
  8
0-A
  6
Continuous
 62
     2
370
     9
100
AcDbCircle
 10
658.9870723654816
 20
-14.72274424816401
 30
0.0
 40
18.99999927830052
100
AcDbArc
 50
1.403289794921875
 51
90.0
  0
ARC
  5
314
330
1F
100
AcDbEntity
  8
0-A
  6
Continuous
 62
     2
370
     9
100
AcDbCircle
 10
658.9870723654816
 20
-14.72274424816401
 30
0.0
 40
5.999999594044042
100
AcDbArc
 50
1.403289794921875
 51
90.0
  0
LINE
  5
315
330
1F
100
AcDbEntity
  8
0-A
  6
Continuous
 62
     2
370
     9
100
AcDbLine
 10
664.9871169046496
 20
-14.72274424816401
 30
0.0
 11
664.9871169046496
 21
-28.72288941285998
 31
0.0
  0
LINE
  5
316
330
1F
100
AcDbEntity
  8
0-A
  6
Continuous
 62
     2
370
     9
100
AcDbLine
 10
664.9871169046496
 20
-28.72288941285998
 30
0.0
 11
677.9871103062543
 21
-28.72288941285998
 31
0.0
  0
LINE
  5
317
330
1F
100
AcDbEntity
  8
0-A
  6
JWW_CENTER2
 62
     2
370
     9
100
AcDbLine
 10
671.4871136054519
 20
-14.72274424816401
 30
0.0
 11
671.4871136054519
 21
-33.46160945614539
 31
0.0
  0
LINE
  5
318
330
1F
100
AcDbEntity
  8
0-A
  6
Continuous
 62
     2
370
     9
100
AcDbLine
 10
677.9871103062543
 20
-14.72274424816401
 30
0.0
 11
677.9871103062543
 21
-28.72288941285998
 31
0.0
  0
LINE
  5
319
330
1F
100
AcDbEntity
  8
0-A
  6
Continuous
 62
     2
370
     9
100
AcDbLine
 10
614.9870756646792
 20
4.277169972697585
 30
0.0
 11
614.9870756646792
 21
-8.72282342890724
 31
0.0
  0
LINE
  5
31A
330
1F
100
AcDbEntity
  8
0-A
  6
Continuous
 62
     2
370
     9
100
AcDbLine
 10
614.9870756646792
 20
4.277169972697585
 30
0.0
 11
658.9870723654816
 21
4.277169972697585
 31
0.0
  0
LINE
  5
31B
330
1F
100
AcDbEntity
  8
0-A
  6
Continuous
 62
     2
370
     9
100
AcDbLine
 10
614.9870756646792
 20
424.2770709967686
 30
0.0
 11
614.9870756646792
 21
437.2773118381959
 31
0.0
  0
LINE
  5
31C
330
1F
100
AcDbEntity
  8
0-A
  6
Continuous
 62
     2
370
     9
100
AcDbLine
 10
614.9870756646792
 20
424.2770709967686
 30
0.0
 11
658.9870723654816
 21
424.2770709967686
 31
0.0
  0
LINE
  5
31D
330
1F
100
AcDbEntity
  8
建具
  6
Continuous
 62
     4
370
     9
100
AcDbLine
 10
588.9870888614695
 20
424.2770709967686
 30
0.0
 11
644.987050920697
 21
424.2770709967686
 31
0.0
  0
LINE
  5
31E
330
1F
100
AcDbEntity
  8
建具
  6
Continuous
 62
     4
370
     9
100
AcDbLine
 10
644.987050920697
 20
364.277120484733
 30
0.0
 11
644.987050920697
 21
424.2770709967686
 31
0.0
  0
LINE
  5
31F
330
1F
100
AcDbEntity
  8
建具
  6
Continuous
 62
     4
370
     9
100
AcDbLine
 10
588.9870888614695
 20
4.277169972697585
 30
0.0
 11
644.987050920697
 21
4.277169972697585
 31
0.0
  0
LINE
  5
320
330
1F
100
AcDbEntity
  8
建具
  6
Continuous
 62
     4
370
     9
100
AcDbLine
 10
644.987050920697
 20
64.27712048473302
 30
0.0
 11
644.987050920697
 21
4.277169972697585
 31
0.0
  0
ARC
  5
321
330
1F
100
AcDbEntity
  8
建具
  6
Continuous
 62
     4
370
     9
100
AcDbCircle
 10
632.4871301014401
 20
411.7771501775118
 30
0.0
 40
6.5
100
AcDbArc
 50
0.0
 51
90.00000000000001
  0
ARC
  5
322
330
1F
100
AcDbEntity
  8
建具
  6
Continuous
 62
     4
370
     9
100
AcDbCircle
 10
632.4871301014401
 20
16.77709079195425
 30
0.0
 40
6.5
100
AcDbArc
 50
270.0
 51
0.0
  0
LINE
  5
323
330
1F
100
AcDbEntity
  8
建具
  6
Continuous
 62
     4
370
     9
100
AcDbLine
 10
588.9870888614695
 20
5.77709079195425
 30
0.0
 11
588.9870888614695
 21
4.277169972697585
 31
0.0
  0
LINE
  5
324
330
1F
100
AcDbEntity
  8
建具
  6
Continuous
 62
     4
370
     9
100
AcDbLine
 10
593.4870888614695
 20
10.27709079195425
 30
0.0
 11
632.4871301014401
 21
10.27709079195425
 31
0.0
  0
ARC
  5
325
330
1F
100
AcDbEntity
  8
建具
  6
Continuous
 62
     4
370
     9
100
AcDbCircle
 10
593.4870888614695
 20
5.77709079195425
 30
0.0
 40
4.5
100
AcDbArc
 50
90.0
 51
180.0
  0
LINE
  5
326
330
1F
100
AcDbEntity
  8
建具
  6
Continuous
 62
     4
370
     9
100
AcDbLine
 10
643.4871301014402
 20
64.27712048473302
 30
0.0
 11
644.987050920697
 21
64.27712048473302
 31
0.0
  0
ARC
  5
327
330
1F
100
AcDbEntity
  8
建具
  6
Continuous
 62
     4
370
     9
100
AcDbCircle
 10
643.4871301014402
 20
59.77712048473301
 30
0.0
 40
4.5
100
AcDbArc
 50
90.0
 51
180.0
  0
LINE
  5
328
330
1F
100
AcDbEntity
  8
建具
  6
Continuous
 62
     4
370
     9
100
AcDbLine
 10
593.4870888614695
 20
418.2771501775118
 30
0.0
 11
632.4871301014401
 21
418.2771501775118
 31
0.0
  0
LINE
  5
329
330
1F
100
AcDbEntity
  8
建具
  6
Continuous
 62
     4
370
     9
100
AcDbLine
 10
588.9870888614695
 20
422.7771501775118
 30
0.0
 11
588.9870888614695
 21
424.2770709967686
 31
0.0
  0
ARC
  5
32A
330
1F
100
AcDbEntity
  8
建具
  6
Continuous
 62
     4
370
     9
100
AcDbCircle
 10
593.4870888614695
 20
422.7771501775118
 30
0.0
 40
4.5
100
AcDbArc
 50
180.0
 51
270.0
  0
LINE
  5
32B
330
1F
100
AcDbEntity
  8
建具
  6
Continuous
 62
     4
370
     9
100
AcDbLine
 10
643.4871301014402
 20
364.277120484733
 30
0.0
 11
644.987050920697
 21
364.277120484733
 31
0.0
  0
ARC
  5
32C
330
1F
100
AcDbEntity
  8
建具
  6
Continuous
 62
     4
370
     9
100
AcDbCircle
 10
643.4871301014402
 20
368.7771204847331
 30
0.0
 40
4.5
100
AcDbArc
 50
180.0
 51
270.0
  0
LINE
  5
32D
330
1F
100
AcDbEntity
  8
通り芯
  6
Continuous
 62
     3
370
     9
100
AcDbLine
 10
613.9870476214993
 20
81.90225905103367
 30
0.0
 11
613.9870476214993
 21
399.9520043529762
 31
0.0
  0
LINE
  5
32E
330
1F
100
AcDbEntity
  8
通り芯
  6
Continuous
 62
     3
370
     9
100
AcDbLine
 10
638.9871301014401
 20
404.2772524526385
 30
0.0
 11
588.9870888614695
 21
401.2772920430101
 31
0.0
  0
LINE
  5
32F
330
1F
100
AcDbEntity
  8
通り芯
  6
Continuous
 62
     3
370
     9
100
AcDbLine
 10
588.9870888614695
 20
14.27720296467392
 30
0.0
 11
588.9870888614695
 21
414.2772854446148
 31
0.0
  0
LINE
  5
330
330
1F
100
AcDbEntity
  8
通り芯
  6
Continuous
 62
     3
370
     9
100
AcDbLine
 10
603.9871383494341
 20
149.7775386580333
 30
0.0
 11
603.9871383494341
 21
158.7774198869184
 31
0.0
  0
LINE
  5
331
330
1F
100
AcDbEntity
  8
通り芯
  6
Continuous
 62
     3
370
     9
100
AcDbLine
 10
626.9870410231039
 20
352.0968952155186
 30
0.0
 11
626.9870410231039
 21
80.92709871002859
 31
0.0
  0
LINE
  5
332
330
1F
100
AcDbEntity
  8
通り芯
  6
Continuous
 62
     3
370
     9
100
AcDbLine
 10
588.9870888614695
 20
414.2772854446148
 30
0.0
 11
638.9871301014401
 21
411.2773250349864
 31
0.0
  0
LINE
  5
333
330
1F
100
AcDbEntity
  8
通り芯
  6
Continuous
 62
     3
370
     9
100
AcDbLine
 10
588.9870888614695
 20
14.27720296467392
 30
0.0
 11
638.9871301014401
 21
17.2771633743023
 31
0.0
  0
LINE
  5
334
330
1F
100
AcDbEntity
  8
通り芯
  6
Continuous
 62
     3
370
     9
100
AcDbLine
 10
588.9870888614695
 20
148.2775584532191
 30
0.0
 11
603.9871383494341
 21
149.7775386580333
 31
0.0
  0
LINE
  5
335
330
1F
100
AcDbEntity
  8
通り芯
  6
Continuous
 62
     3
370
     9
100
AcDbLine
 10
603.9871383494341
 20
158.7774198869184
 30
0.0
 11
588.9870888614695
 21
160.2774000917327
 31
0.0
  0
LINE
  5
336
330
1F
100
AcDbEntity
  8
通り芯
  6
Continuous
 62
     3
370
     9
100
AcDbLine
 10
628.9870971094639
 20
22.57732437514683
 30
0.0
 11
588.9870888614695
 21
21.77710398874488
 31
0.0
  0
LINE
  5
337
330
1F
100
AcDbEntity
  8
通り芯
  6
Continuous
 62
     3
370
     9
100
AcDbLine
 10
628.9870971094639
 20
80.7771501775118
 30
0.0
 11
628.9870971094639
 21
22.57732437514683
 31
0.0
  0
LINE
  5
338
330
1F
100
AcDbEntity
  8
通り芯
  6
Continuous
 62
     3
370
     9
100
AcDbLine
 10
628.9870971094639
 20
80.7771501775118
 30
0.0
 11
588.9870888614695
 21
83.77711058714004
 31
0.0
  0
LINE
  5
339
330
1F
100
AcDbEntity
  8
通り芯
  6
Continuous
 62
     3
370
     9
100
AcDbLine
 10
598.9871218534462
 20
75.77713368152351
 30
0.0
 11
628.9870971094639
 21
75.77713368152351
 31
0.0
  0
LINE
  5
33A
330
1F
100
AcDbEntity
  8
通り芯
  6
Continuous
 62
     3
370
     9
100
AcDbLine
 10
588.9870888614695
 20
63.77704460318745
 30
0.0
 11
598.9871218534462
 21
64.77719636627859
 31
0.0
  0
LINE
  5
33B
330
1F
100
AcDbEntity
  8
通り芯
  6
Continuous
 62
     3
370
     9
100
AcDbLine
 10
598.9871218534462
 20
64.77719636627859
 30
0.0
 11
598.9871218534462
 21
75.77713368152351
 31
0.0
  0
LINE
  5
33C
330
1F
100
AcDbEntity
  8
通り芯
  6
Continuous
 62
     3
370
     9
100
AcDbLine
 10
603.9871383494341
 20
269.7775015420598
 30
0.0
 11
603.9871383494341
 21
278.777382770945
 31
0.0
  0
LINE
  5
33D
330
1F
100
AcDbEntity
  8
通り芯
  6
Continuous
 62
     3
370
     9
100
AcDbLine
 10
588.9870888614695
 20
268.2775213372457
 30
0.0
 11
603.9871383494341
 21
269.7775015420598
 31
0.0
  0
LINE
  5
33E
330
1F
100
AcDbEntity
  8
通り芯
  6
Continuous
 62
     3
370
     9
100
AcDbLine
 10
603.9871383494341
 20
278.777382770945
 30
0.0
 11
588.9870888614695
 21
280.2773629757592
 31
0.0
  0
ARC
  5
33F
330
1F
100
AcDbEntity
  8
通り芯
  6
Continuous
 62
     3
370
     9
100
AcDbCircle
 10
616.9871317510389
 20
399.9520043529762
 30
0.0
 40
2.999999797022021
100
AcDbArc
 50
93.43362426757814
 51
180.0
  0
ARC
  5
340
330
1F
100
AcDbEntity
  8
通り芯
  6
Continuous
 62
     3
370
     9
100
AcDbCircle
 10
636.9870740150802
 20
352.0968952155186
 30
0.0
 40
9.9999991623131
100
AcDbArc
 50
116.5650329589844
 51
180.0
  0
LINE
  5
341
330
1F
100
AcDbEntity
  8
通り芯
  6
Continuous
 62
     3
370
     9
100
AcDbLine
 10
638.9871301014401
 20
364.277120484733
 30
0.0
 11
632.5149703806842
 21
361.0411024843108
 31
0.0
  0
LINE
  5
342
330
1F
100
AcDbEntity
  8
通り芯
  6
Continuous
 62
     3
370
     9
100
AcDbLine
 10
638.9871301014401
 20
364.277120484733
 30
0.0
 11
638.9871301014401
 21
411.7771501775118
 31
0.0
  0
LINE
  5
343
330
1F
100
AcDbEntity
  8
通り芯
  6
Continuous
 62
     3
370
     9
100
AcDbLine
 10
638.9871301014401
 20
64.27712048473302
 30
0.0
 11
638.9871301014401
 21
16.77709079195425
 31
0.0
  0
LINE
  5
344
330
1F
100
AcDbEntity
  8
通り芯
  6
Continuous
 62
     3
370
     9
100
AcDbLine
 10
638.9871301014401
 20
64.27712048473302
 30
0.0
 11
628.9870971094639
 21
65.2772722478243
 31
0.0
  0
LINE
  5
345
330
1F
100
AcDbEntity
  8
仕上
  6
Continuous
 62
     6
370
     9
100
AcDbLine
 10
628.9870971094639
 20
52.77710728794253
 30
0.0
 11
638.9871301014401
 21
52.77710728794253
 31
0.0
  0
LINE
  5
346
330
1F
100
AcDbEntity
  8
仕上
  6
Continuous
 62
     6
370
     9
100
AcDbLine
 10
628.9870971094639
 20
32.77728874381246
 30
0.0
 11
638.9871301014401
 21
32.77728874381246
 31
0.0
  0
LINE
  5
347
330
1F
100
AcDbEntity
  8
仕上
  6
Continuous
 62
     6
370
     9
100
AcDbLine
 10
625.9871366998354
 20
57.77712378393068
 30
0.0
 11
625.9871366998354
 21
27.77727224782431
 31
0.0
  0
LINE
  5
348
330
1F
100
AcDbEntity
  8
仕上
  6
Continuous
 62
     6
370
     9
100
AcDbLine
 10
625.9871366998354
 20
57.77712378393068
 30
0.0
 11
628.9870971094639
 21
57.77712378393068
 31
0.0
  0
LINE
  5
349
330
1F
100
AcDbEntity
  8
仕上
  6
Continuous
 62
     6
370
     9
100
AcDbLine
 10
625.9871366998354
 20
27.77727224782431
 30
0.0
 11
628.9870971094639
 21
27.77727224782431
 31
0.0
  0
LINE
  5
34A
330
1F
100
AcDbEntity
  8
仕上
  6
Continuous
 62
     6
370
     9
100
AcDbLine
 10
654.9870839126733
 20
53.77725905103367
 30
0.0
 11
654.9870839126733
 21
31.77713698072118
 31
0.0
  0
LINE
  5
34B
330
1F
100
AcDbEntity
  8
仕上
  6
Continuous
 62
     6
370
     9
100
AcDbLine
 10
644.987050920697
 20
56.62702348832261
 30
0.0
 11
653.3417328120611
 21
56.62702348832261
 31
0.0
  0
LINE
  5
34C
330
1F
100
AcDbEntity
  8
仕上
  6
Continuous
 62
     6
370
     9
100
AcDbLine
 10
644.987050920697
 20
28.92712510360973
 30
0.0
 11
653.3417328120611
 21
28.92712510360973
 31
0.0
  0
LINE
  5
34D
330
1F
100
AcDbEntity
  8
仕上
  6
Continuous
 62
     6
370
     9
100
AcDbLine
 10
628.9870971094639
 20
50.77705120158262
 30
0.0
 11
653.2550051542274
 21
50.77705120158262
 31
0.0
  0
LINE
  5
34E
330
1F
100
AcDbEntity
  8
仕上
  6
Continuous
 62
     6
370
     9
100
AcDbLine
 10
628.9870971094639
 20
34.77709739034957
 30
0.0
 11
653.2550051542274
 21
34.77709739034957
 31
0.0
  0
LINE
  5
34F
330
1F
100
AcDbEntity
  8
仕上
  6
Continuous
 62
     6
370
     9
100
AcDbLine
 10
609.5171709455067
 20
54.77716337430229
 30
0.0
 11
609.5171709455067
 21
30.77723265745256
 31
0.0
  0
LINE
  5
350
330
1F
100
AcDbEntity
  8
仕上
  6
Continuous
 62
     6
370
     9
100
AcDbLine
 10
654.9870839126733
 20
53.77725905103367
 30
0.0
 11
653.3417328120611
 21
56.62702348832261
 31
0.0
  0
LINE
  5
351
330
1F
100
AcDbEntity
  8
仕上
  6
Continuous
 62
     6
370
     9
100
AcDbLine
 10
654.9870839126733
 20
31.77713698072118
 30
0.0
 11
653.3417328120611
 21
28.92712510360973
 31
0.0
  0
LINE
  5
352
330
1F
100
AcDbEntity
  8
仕上
  6
Continuous
 62
     6
370
     9
100
AcDbLine
 10
609.5171709455067
 20
54.77716337430229
 30
0.0
 11
612.9871432982306
 21
54.77716337430229
 31
0.0
  0
LINE
  5
353
330
1F
100
AcDbEntity
  8
仕上
  6
Continuous
 62
     6
370
     9
100
AcDbLine
 10
609.5171709455067
 20
30.77723265745256
 30
0.0
 11
612.9871432982306
 21
30.77723265745256
 31
0.0
  0
LINE
  5
354
330
1F
100
AcDbEntity
  8
仕上
  6
Continuous
 62
     6
370
     9
100
AcDbLine
 10
612.9871432982306
 20
31.77713698072118
 30
0.0
 11
614.6326181187542
 21
28.92712510360973
 31
0.0
  0
LINE
  5
355
330
1F
100
AcDbEntity
  8
仕上
  6
Continuous
 62
     6
370
     9
100
AcDbLine
 10
612.9871432982306
 20
53.77725905103367
 30
0.0
 11
614.6326181187542
 21
56.62702348832261
 31
0.0
  0
LINE
  5
356
330
1F
100
AcDbEntity
  8
仕上
  6
Continuous
 62
     6
370
     9
100
AcDbLine
 10
625.9871366998354
 20
34.77709739034957
 30
0.0
 11
614.7190983367653
 21
34.77709739034957
 31
0.0
  0
LINE
  5
357
330
1F
100
AcDbEntity
  8
仕上
  6
Continuous
 62
     6
370
     9
100
AcDbLine
 10
625.9871366998354
 20
50.77705120158262
 30
0.0
 11
614.7190983367653
 21
50.77705120158262
 31
0.0
  0
LINE
  5
358
330
1F
100
AcDbEntity
  8
仕上
  6
Continuous
 62
     6
370
     9
100
AcDbLine
 10
625.9871366998354
 20
28.92712510360973
 30
0.0
 11
614.6326181187542
 21
28.92712510360973
 31
0.0
  0
LINE
  5
359
330
1F
100
AcDbEntity
  8
仕上
  6
Continuous
 62
     6
370
     9
100
AcDbLine
 10
625.9871366998354
 20
56.62702348832261
 30
0.0
 11
614.6326181187542
 21
56.62702348832261
 31
0.0
  0
LINE
  5
35A
330
1F
100
AcDbEntity
  8
仕上
  6
Continuous
 62
     6
370
     9
100
AcDbLine
 10
612.9871432982306
 20
54.77716337430229
 30
0.0
 11
612.9871432982306
 21
30.77723265745256
 31
0.0
  0
LINE
  5
35B
330
1F
100
AcDbEntity
  8
仕上
  6
Continuous
 62
     6
370
     9
100
AcDbLine
 10
628.9870971094639
 20
49.77714687831414
 30
0.0
 11
644.987050920697
 21
49.77714687831414
 31
0.0
  0
LINE
  5
35C
330
1F
100
AcDbEntity
  8
仕上
  6
Continuous
 62
     6
370
     9
100
AcDbLine
 10
628.9870971094639
 20
35.77724915344085
 30
0.0
 11
644.987050920697
 21
35.77724915344085
 31
0.0
  0
ARC
  5
35D
330
1F
100
AcDbEntity
  8
仕上
  6
Continuous
 62
     6
370
     9
100
AcDbCircle
 10
609.5203876632011
 20
42.77732173578875
 30
0.0
 40
11.53333348196906
100
AcDbArc
 50
90.01655578613281
 51
269.9834289550781
  0
ARC
  5
35E
330
1F
100
AcDbEntity
  8
仕上
  6
Continuous
 62
     6
370
     9
100
AcDbCircle
 10
651.6096540536149
 20
31.82711982489344
 30
0.0
 40
3.377868919759184
100
AcDbArc
 50
359.1518554687501
 51
60.84812927246097
  0
ARC
  5
35F
330
1F
100
AcDbEntity
  8
仕上
  6
Continuous
 62
     6
370
     9
100
AcDbCircle
 10
635.645950176398
 20
42.77732173578875
 30
0.0
 40
19.34123232557967
100
AcDbArc
 50
335.5672912597657
 51
24.43269348144536
  0
ARC
  5
360
330
1F
100
AcDbEntity
  8
仕上
  6
Continuous
 62
     6
370
     9
100
AcDbCircle
 10
651.6096540536149
 20
53.7272762068614
 30
0.0
 40
3.377868919759184
100
AcDbArc
 50
299.15185546875
 51
0.8481292724609363
  0
ARC
  5
361
330
1F
100
AcDbEntity
  8
仕上
  6
Continuous
 62
     6
370
     9
100
AcDbCircle
 10
616.3646968772003
 20
53.7272762068614
 30
0.0
 40
3.377868919759184
100
AcDbArc
 50
179.15185546875
 51
240.848129272461
  0
ARC
  5
362
330
1F
100
AcDbEntity
  8
仕上
  6
Continuous
 62
     6
370
     9
100
AcDbCircle
 10
632.3284007544172
 20
42.77732173578875
 30
0.0
 40
19.34123232557967
100
AcDbArc
 50
155.5672912597656
 51
204.4326934814453
  0
ARC
  5
363
330
1F
100
AcDbEntity
  8
仕上
  6
Continuous
 62
     6
370
     9
100
AcDbCircle
 10
616.3646968772003
 20
31.82711982489344
 30
0.0
 40
3.377868919759184
100
AcDbArc
 50
119.15185546875
 51
180.8481292724609
  0
LINE
  5
364
330
1F
100
AcDbEntity
  8
仕上
  6
JWW_CENTER1
 62
     6
370
     9
100
AcDbLine
 10
634.8196248887078
 20
385.7771666734999
 30
0.0
 11
661.3837744875257
 21
385.7771666734999
 31
0.0
  0
LINE
  5
365
330
1F
100
AcDbEntity
  8
仕上
  6
Continuous
 62
     6
370
     9
100
AcDbLine
 10
654.9870839126733
 20
396.7773514285676
 30
0.0
 11
653.3417328120611
 21
399.627363305679
 31
0.0
  0
LINE
  5
366
330
1F
100
AcDbEntity
  8
仕上
  6
Continuous
 62
     6
370
     9
100
AcDbLine
 10
654.9870839126733
 20
374.7772293582551
 30
0.0
 11
653.3417328120611
 21
371.9272174811436
 31
0.0
  0
LINE
  5
367
330
1F
100
AcDbEntity
  8
仕上
  6
Continuous
 62
     6
370
     9
100
AcDbLine
 10
644.987050920697
 20
393.7773910189392
 30
0.0
 11
653.2550051542274
 21
393.7773910189392
 31
0.0
  0
LINE
  5
368
330
1F
100
AcDbEntity
  8
仕上
  6
Continuous
 62
     6
370
     9
100
AcDbLine
 10
644.987050920697
 20
377.7771897678834
 30
0.0
 11
653.2550051542274
 21
377.7771897678834
 31
0.0
  0
LINE
  5
369
330
1F
100
AcDbEntity
  8
仕上
  6
Continuous
 62
     6
370
     9
100
AcDbLine
 10
644.987050920697
 20
399.627363305679
 30
0.0
 11
653.3417328120611
 21
399.627363305679
 31
0.0
  0
LINE
  5
36A
330
1F
100
AcDbEntity
  8
仕上
  6
Continuous
 62
     6
370
     9
100
AcDbLine
 10
644.987050920697
 20
371.9272174811436
 30
0.0
 11
653.3417328120611
 21
371.9272174811436
 31
0.0
  0
LINE
  5
36B
330
1F
100
AcDbEntity
  8
仕上
  6
Continuous
 62
     6
370
     9
100
AcDbLine
 10
654.9870839126733
 20
374.7772293582551
 30
0.0
 11
654.9870839126733
 21
396.7773514285676
 31
0.0
  0
ARC
  5
36C
330
1F
100
AcDbEntity
  8
仕上
  6
Continuous
 62
     6
370
     9
100
AcDbCircle
 10
651.6096540536149
 20
374.8272122024273
 30
0.0
 40
3.377868919759184
100
AcDbArc
 50
359.1518554687501
 51
60.84812927246097
  0
ARC
  5
36D
330
1F
100
AcDbEntity
  8
仕上
  6
Continuous
 62
     6
370
     9
100
AcDbCircle
 10
635.645950176398
 20
385.7771666734999
 30
0.0
 40
19.34123232557967
100
AcDbArc
 50
335.5672912597657
 51
24.43269348144536
  0
ARC
  5
36E
330
1F
100
AcDbEntity
  8
仕上
  6
Continuous
 62
     6
370
     9
100
AcDbCircle
 10
651.6096540536149
 20
396.7273685843953
 30
0.0
 40
3.377868919759184
100
AcDbArc
 50
299.15185546875
 51
0.8481292724609363
  0
LINE
  5
36F
330
1F
100
AcDbEntity
  8
建具
  6
Continuous
 62
     4
370
     9
100
AcDbLine
 10
638.9871301014401
 20
411.7771501775118
 30
0.0
 11
638.9871301014401
 21
368.7771204847331
 31
0.0
  0
LINE
  5
370
330
1F
100
AcDbEntity
  8
建具
  6
Continuous
 62
     4
370
     9
100
AcDbLine
 10
638.9871301014401
 20
16.77709079195425
 30
0.0
 11
638.9871301014401
 21
59.77712048473301
 31
0.0
  0
LINE
  5
371
330
1F
100
AcDbEntity
  8
通り芯
  6
JWW_CENTER2
 62
     3
370
     9
100
AcDbLine
 10
562.8237917753212
 20
214.277491644467
 30
0.0
 11
653.4970013007644
 21
214.277491644467
 31
0.0
  0
LINE
  5
372
330
1F
100
AcDbEntity
  8
建具
  6
Continuous
 62
     4
370
     9
100
AcDbLine
 10
-877.6413208592863
 20
364.2773679245557
 30
0.0
 11
-877.6413208592863
 21
424.2773184365911
 31
0.0
  0
LINE
  5
373
330
1F
100
AcDbEntity
  8
建具
  6
Continuous
 62
     4
370
     9
100
AcDbLine
 10
-877.6413208592863
 20
364.2773679245557
 30
0.0
 11
-875.141312611292
 21
364.2773679245557
 31
0.0
  0
LINE
  5
374
330
1F
100
AcDbEntity
  8
建具
  6
Continuous
 62
     4
370
     9
100
AcDbLine
 10
-848.3913357056757
 20
364.2773679245557
 30
0.0
 11
-824.8912334305488
 21
364.2773679245557
 31
0.0
  0
LINE
  5
375
330
1F
100
AcDbEntity
  8
建具
  6
Continuous
 62
     4
370
     9
100
AcDbLine
 10
-727.3912829185134
 20
364.2773679245557
 30
0.0
 11
-703.8913043632982
 21
364.2773679245557
 31
0.0
  0
LINE
  5
376
330
1F
100
AcDbEntity
  8
建具
  6
Continuous
 62
     4
370
     9
100
AcDbLine
 10
-691.8913390048733
 20
364.2773679245557
 30
0.0
 11
-668.3912367297465
 21
364.2773679245557
 31
0.0
  0
LINE
  5
377
330
1F
100
AcDbEntity
  8
建具
  6
Continuous
 62
     4
370
     9
100
AcDbLine
 10
-656.3912713713217
 20
364.2773679245557
 30
0.0
 11
-632.8912928161066
 21
364.2773679245557
 31
0.0
  0
LINE
  5
378
330
1F
100
AcDbEntity
  8
建具
  6
Continuous
 62
     4
370
     9
100
AcDbLine
 10
-606.3913538512628
 20
364.2773679245557
 30
0.0
 11
-582.891251576136
 21
364.2773679245557
 31
0.0
  0
LINE
  5
379
330
1F
100
AcDbEntity
  8
建具
  6
Continuous
 62
     4
370
     9
100
AcDbLine
 10
-570.8912862177112
 20
364.2773679245557
 30
0.0
 11
-547.3913076624958
 21
364.2773679245557
 31
0.0
  0
LINE
  5
37A
330
1F
100
AcDbEntity
  8
建具
  6
Continuous
 62
     4
370
     9
100
AcDbLine
 10
-535.391342304071
 20
364.2773679245557
 30
0.0
 11
-511.8913637488557
 21
364.2773679245557
 31
0.0
  0
LINE
  5
37B
330
1F
100
AcDbEntity
  8
建具
  6
Continuous
 62
     4
370
     9
100
AcDbLine
 10
-485.3913010641006
 20
364.2773679245557
 30
0.0
 11
-461.8913225088852
 21
364.2773679245557
 31
0.0
  0
LINE
  5
37C
330
1F
100
AcDbEntity
  8
建具
  6
Continuous
 62
     4
370
     9
100
AcDbLine
 10
-449.8913571504604
 20
364.2773679245557
 30
0.0
 11
-426.3912548753336
 21
364.2773679245557
 31
0.0
  0
LINE
  5
37D
330
1F
100
AcDbEntity
  8
建具
  6
Continuous
 62
     4
370
     9
100
AcDbLine
 10
-414.3912895169088
 20
364.2773679245557
 30
0.0
 11
-390.8913109616934
 21
364.2773679245557
 31
0.0
  0
LINE
  5
37E
330
1F
100
AcDbEntity
  8
建具
  6
Continuous
 62
     4
370
     9
100
AcDbLine
 10
-340.8912697217229
 20
364.2773679245557
 30
0.0
 11
-364.3912482769383
 21
364.2773679245557
 31
0.0
  0
LINE
  5
37F
330
1F
100
AcDbEntity
  8
建具
  6
Continuous
 62
     4
370
     9
100
AcDbLine
 10
-305.3913258080829
 20
364.2773679245557
 30
0.0
 11
-328.8913043632982
 21
364.2773679245557
 31
0.0
  0
LINE
  5
380
330
1F
100
AcDbEntity
  8
建具
  6
Continuous
 62
     4
370
     9
100
AcDbLine
 10
-269.8912581745313
 20
364.2773679245557
 30
0.0
 11
-293.3912367297467
 21
364.2773679245557
 31
0.0
  0
LINE
  5
381
330
1F
100
AcDbEntity
  8
建具
  6
Continuous
 62
     4
370
     9
100
AcDbLine
 10
-219.8912169345608
 20
364.2773679245557
 30
0.0
 11
-243.3913192096875
 21
364.2773679245557
 31
0.0
  0
LINE
  5
382
330
1F
100
AcDbEntity
  8
建具
  6
Continuous
 62
     4
370
     9
100
AcDbLine
 10
-184.3912730209206
 20
364.2773679245557
 30
0.0
 11
-207.891251576136
 21
364.2773679245557
 31
0.0
  0
LINE
  5
383
330
1F
100
AcDbEntity
  8
建具
  6
Continuous
 62
     4
370
     9
100
AcDbLine
 10
-148.8913291072803
 20
364.2773679245557
 30
0.0
 11
-172.3913076624957
 21
364.2773679245557
 31
0.0
  0
LINE
  5
384
330
1F
100
AcDbEntity
  8
建具
  6
Continuous
 62
     4
370
     9
100
AcDbLine
 10
-98.89128786730991
 20
364.2773679245557
 30
0.0
 11
-122.3912664225253
 21
364.2773679245557
 31
0.0
  0
LINE
  5
385
330
1F
100
AcDbEntity
  8
建具
  6
Continuous
 62
     4
370
     9
100
AcDbLine
 10
-63.39134395366982
 20
364.2773679245557
 30
0.0
 11
-86.89132250888518
 21
364.2773679245557
 31
0.0
  0
LINE
  5
386
330
1F
100
AcDbEntity
  8
建具
  6
Continuous
 62
     4
370
     9
100
AcDbLine
 10
-27.89140004002958
 20
364.2773679245557
 30
0.0
 11
-51.39125487533362
 21
364.2773679245557
 31
0.0
  0
LINE
  5
387
330
1F
100
AcDbEntity
  8
建具
  6
Continuous
 62
     4
370
     9
100
AcDbLine
 10
93.10865274713267
 20
364.2773679245557
 30
0.0
 11
69.60855047200597
 21
364.2773679245557
 31
0.0
  0
LINE
  5
388
330
1F
100
AcDbEntity
  8
建具
  6
Continuous
 62
     4
370
     9
100
AcDbLine
 10
-414.3912895169088
 20
64.277491644467
 30
0.0
 11
-390.8913109616934
 21
64.277491644467
 31
0.0
  0
LINE
  5
389
330
1F
100
AcDbEntity
  8
建具
  6
Continuous
 62
     4
370
     9
100
AcDbLine
 10
-449.8913571504604
 20
64.277491644467
 30
0.0
 11
-426.3912548753336
 21
64.277491644467
 31
0.0
  0
LINE
  5
38A
330
1F
100
AcDbEntity
  8
建具
  6
Continuous
 62
     4
370
     9
100
AcDbLine
 10
-485.3913010641006
 20
64.277491644467
 30
0.0
 11
-461.8913225088852
 21
64.277491644467
 31
0.0
  0
LINE
  5
38B
330
1F
100
AcDbEntity
  8
建具
  6
Continuous
 62
     4
370
     9
100
AcDbLine
 10
-535.391342304071
 20
64.277491644467
 30
0.0
 11
-511.8913637488557
 21
64.277491644467
 31
0.0
  0
LINE
  5
38C
330
1F
100
AcDbEntity
  8
建具
  6
Continuous
 62
     4
370
     9
100
AcDbLine
 10
-570.8912862177112
 20
64.277491644467
 30
0.0
 11
-547.3913076624958
 21
64.277491644467
 31
0.0
  0
LINE
  5
38D
330
1F
100
AcDbEntity
  8
建具
  6
Continuous
 62
     4
370
     9
100
AcDbLine
 10
-606.3913538512628
 20
64.277491644467
 30
0.0
 11
-582.891251576136
 21
64.277491644467
 31
0.0
  0
LINE
  5
38E
330
1F
100
AcDbEntity
  8
建具
  6
Continuous
 62
     4
370
     9
100
AcDbLine
 10
-656.3912713713217
 20
64.277491644467
 30
0.0
 11
-632.8912928161066
 21
64.277491644467
 31
0.0
  0
LINE
  5
38F
330
1F
100
AcDbEntity
  8
建具
  6
Continuous
 62
     4
370
     9
100
AcDbLine
 10
-691.8913390048733
 20
64.277491644467
 30
0.0
 11
-668.3912367297465
 21
64.277491644467
 31
0.0
  0
LINE
  5
390
330
1F
100
AcDbEntity
  8
建具
  6
Continuous
 62
     4
370
     9
100
AcDbLine
 10
-727.3912829185134
 20
64.277491644467
 30
0.0
 11
-703.8913043632982
 21
64.277491644467
 31
0.0
  0
LINE
  5
391
330
1F
100
AcDbEntity
  8
建具
  6
Continuous
 62
     4
370
     9
100
AcDbLine
 10
-848.3913357056757
 20
64.277491644467
 30
0.0
 11
-824.8912334305488
 21
64.277491644467
 31
0.0
  0
LINE
  5
392
330
1F
100
AcDbEntity
  8
建具
  6
Continuous
 62
     4
370
     9
100
AcDbLine
 10
-877.6413208592863
 20
64.277491644467
 30
0.0
 11
-875.141312611292
 21
64.277491644467
 31
0.0
  0
LINE
  5
393
330
1F
100
AcDbEntity
  8
建具
  6
Continuous
 62
     4
370
     9
100
AcDbLine
 10
-877.6413208592863
 20
64.277491644467
 30
0.0
 11
-877.6413208592863
 21
4.277479272475837
 31
0.0
  0
LINE
  5
394
330
1F
100
AcDbEntity
  8
建具
  6
Continuous
 62
     4
370
     9
100
AcDbLine
 10
93.10865274713267
 20
64.277491644467
 30
0.0
 11
69.60855047200597
 21
64.277491644467
 31
0.0
  0
LINE
  5
395
330
1F
100
AcDbEntity
  8
建具
  6
Continuous
 62
     4
370
     9
100
AcDbLine
 10
-27.89140004002958
 20
64.277491644467
 30
0.0
 11
-51.39125487533362
 21
64.277491644467
 31
0.0
  0
LINE
  5
396
330
1F
100
AcDbEntity
  8
建具
  6
Continuous
 62
     4
370
     9
100
AcDbLine
 10
-63.39134395366982
 20
64.277491644467
 30
0.0
 11
-86.89132250888518
 21
64.277491644467
 31
0.0
  0
LINE
  5
397
330
1F
100
AcDbEntity
  8
建具
  6
Continuous
 62
     4
370
     9
100
AcDbLine
 10
-98.89128786730991
 20
64.277491644467
 30
0.0
 11
-122.3912664225253
 21
64.277491644467
 31
0.0
  0
LINE
  5
398
330
1F
100
AcDbEntity
  8
建具
  6
Continuous
 62
     4
370
     9
100
AcDbLine
 10
-148.8913291072803
 20
64.277491644467
 30
0.0
 11
-172.3913076624957
 21
64.277491644467
 31
0.0
  0
LINE
  5
399
330
1F
100
AcDbEntity
  8
建具
  6
Continuous
 62
     4
370
     9
100
AcDbLine
 10
-184.3912730209206
 20
64.277491644467
 30
0.0
 11
-207.891251576136
 21
64.277491644467
 31
0.0
  0
LINE
  5
39A
330
1F
100
AcDbEntity
  8
建具
  6
Continuous
 62
     4
370
     9
100
AcDbLine
 10
-219.8912169345608
 20
64.277491644467
 30
0.0
 11
-243.3913192096875
 21
64.277491644467
 31
0.0
  0
LINE
  5
39B
330
1F
100
AcDbEntity
  8
建具
  6
Continuous
 62
     4
370
     9
100
AcDbLine
 10
-269.8912581745313
 20
64.277491644467
 30
0.0
 11
-293.3912367297467
 21
64.277491644467
 31
0.0
  0
LINE
  5
39C
330
1F
100
AcDbEntity
  8
建具
  6
Continuous
 62
     4
370
     9
100
AcDbLine
 10
-305.3913258080829
 20
64.277491644467
 30
0.0
 11
-328.8913043632982
 21
64.277491644467
 31
0.0
  0
LINE
  5
39D
330
1F
100
AcDbEntity
  8
建具
  6
Continuous
 62
     4
370
     9
100
AcDbLine
 10
-340.8912697217229
 20
64.277491644467
 30
0.0
 11
-364.3912482769383
 21
64.277491644467
 31
0.0
  0
LINE
  5
39E
330
1F
100
AcDbEntity
  8
建具
  6
Continuous
 62
     4
370
     9
100
AcDbLine
 10
-877.6413208592863
 20
4.277479272475837
 30
0.0
 11
289.8586956367018
 21
4.277479272475837
 31
0.0
  0
LINE
  5
39F
330
1F
100
AcDbEntity
  8
建具
  6
Continuous
 62
     4
370
     9
100
AcDbLine
 10
-877.6413208592863
 20
10.27746195168824
 30
0.0
 11
289.8586956367018
 21
10.27746195168824
 31
0.0
  0
LINE
  5
3A0
330
1F
100
AcDbEntity
  8
建具
  6
Continuous
 62
     4
370
     9
100
AcDbLine
 10
289.8586956367018
 20
64.277491644467
 30
0.0
 11
119.8586296527492
 21
64.277491644467
 31
0.0
  0
LINE
  5
3A1
330
1F
100
AcDbEntity
  8
建具
  6
Continuous
 62
     4
370
     9
100
AcDbLine
 10
289.8586956367018
 20
364.2773679245557
 30
0.0
 11
119.8586296527492
 21
364.2773679245557
 31
0.0
  0
LINE
  5
3A2
330
1F
100
AcDbEntity
  8
建具
  6
Continuous
 62
     4
370
     9
100
AcDbLine
 10
-877.6413208592863
 20
418.2773976173343
 30
0.0
 11
289.8586956367018
 21
418.2773976173343
 31
0.0
  0
LINE
  5
3A3
330
1F
100
AcDbEntity
  8
建具
  6
Continuous
 62
     4
370
     9
100
AcDbLine
 10
-877.6413208592863
 20
424.2773184365911
 30
0.0
 11
289.8586956367018
 21
424.2773184365911
 31
0.0
  0
LINE
  5
3A4
330
1F
100
AcDbEntity
  8
0-A
  6
Continuous
 62
     2
370
     9
100
AcDbLine
 10
-784.1412350801478
 20
457.2773778221485
 30
0.0
 11
-771.1412416785431
 21
457.2773778221485
 31
0.0
  0
LINE
  5
3A5
330
1F
100
AcDbEntity
  8
0-A
  6
JWW_CENTER1
 62
     2
370
     9
100
AcDbLine
 10
-429.5390605789865
 20
430.7774388573048
 30
0.0
 11
-405.8168810630448
 21
430.7774388573048
 31
0.0
  0
LINE
  5
3A6
330
1F
100
AcDbEntity
  8
0-A
  6
Continuous
 62
     2
370
     9
100
AcDbLine
 10
-771.1412416785431
 20
430.7774388573048
 30
0.0
 11
-771.1412416785431
 21
457.2773778221485
 31
0.0
  0
LINE
  5
3A7
330
1F
100
AcDbEntity
  8
0-A
  6
Continuous
 62
     2
370
     9
100
AcDbLine
 10
-784.1412350801478
 20
430.7774388573048
 30
0.0
 11
-784.1412350801478
 21
457.2773778221485
 31
0.0
  0
LINE
  5
3A8
330
1F
100
AcDbEntity
  8
0-A
  6
JWW_CENTER1
 62
     2
370
     9
100
AcDbLine
 10
-789.5391348109332
 20
430.7774388573048
 30
0.0
 11
-765.8169552949915
 21
430.7774388573048
 31
0.0
  0
LINE
  5
3A9
330
1F
100
AcDbEntity
  8
0-A
  6
Continuous
 62
     2
370
     9
100
AcDbLine
 10
-424.1412845681123
 20
430.7774388573048
 30
0.0
 11
-424.1412845681123
 21
457.2773778221485
 31
0.0
  0
LINE
  5
3AA
330
1F
100
AcDbEntity
  8
0-A
  6
Continuous
 62
     2
370
     9
100
AcDbLine
 10
-411.1412911665076
 20
430.7774388573048
 30
0.0
 11
-411.1412911665076
 21
457.2773778221485
 31
0.0
  0
LINE
  5
3AB
330
1F
100
AcDbEntity
  8
0-A
  6
Continuous
 62
     2
370
     9
100
AcDbLine
 10
-424.1412845681123
 20
457.2773778221485
 30
0.0
 11
-411.1412911665076
 21
457.2773778221485
 31
0.0
  0
LINE
  5
3AC
330
1F
100
AcDbEntity
  8
0-A
  6
Continuous
 62
     2
370
     9
100
AcDbLine
 10
-64.14133405607684
 20
457.2773778221485
 30
0.0
 11
-51.14134065447216
 21
457.2773778221485
 31
0.0
  0
LINE
  5
3AD
330
1F
100
AcDbEntity
  8
0-A
  6
Continuous
 62
     2
370
     9
100
AcDbLine
 10
-51.14134065447216
 20
430.7774388573048
 30
0.0
 11
-51.14134065447216
 21
457.2773778221485
 31
0.0
  0
LINE
  5
3AE
330
1F
100
AcDbEntity
  8
0-A
  6
Continuous
 62
     2
370
     9
100
AcDbLine
 10
-64.14133405607684
 20
430.7774388573048
 30
0.0
 11
-64.14133405607684
 21
457.2773778221485
 31
0.0
  0
LINE
  5
3AF
330
1F
100
AcDbEntity
  8
0-A
  6
JWW_CENTER1
 62
     2
370
     9
100
AcDbLine
 10
-69.53911006695107
 20
430.7774388573048
 30
0.0
 11
-45.81693055100926
 21
430.7774388573048
 31
0.0
  0
LINE
  5
3B0
330
1F
100
AcDbEntity
  8
0-A
  6
JWW_CENTER1
 62
     2
370
     9
100
AcDbLine
 10
-69.53911006695107
 20
-2.222517428326505
 30
0.0
 11
-45.81693055100926
 21
-2.222517428326505
 31
0.0
  0
LINE
  5
3B1
330
1F
100
AcDbEntity
  8
0-A
  6
Continuous
 62
     2
370
     9
100
AcDbLine
 10
-64.14133405607684
 20
-2.222517428326505
 30
0.0
 11
-64.14133405607684
 21
-28.72258011308158
 31
0.0
  0
LINE
  5
3B2
330
1F
100
AcDbEntity
  8
0-A
  6
Continuous
 62
     2
370
     9
100
AcDbLine
 10
-51.14134065447216
 20
-2.222517428326505
 30
0.0
 11
-51.14134065447216
 21
-28.72258011308158
 31
0.0
  0
LINE
  5
3B3
330
1F
100
AcDbEntity
  8
0-A
  6
Continuous
 62
     2
370
     9
100
AcDbLine
 10
-64.14133405607684
 20
-28.72258011308158
 30
0.0
 11
-51.14134065447216
 21
-28.72258011308158
 31
0.0
  0
LINE
  5
3B4
330
1F
100
AcDbEntity
  8
0-A
  6
Continuous
 62
     2
370
     9
100
AcDbLine
 10
-424.1412845681123
 20
-28.72258011308158
 30
0.0
 11
-411.1412911665076
 21
-28.72258011308158
 31
0.0
  0
LINE
  5
3B5
330
1F
100
AcDbEntity
  8
0-A
  6
Continuous
 62
     2
370
     9
100
AcDbLine
 10
-411.1412911665076
 20
-2.222517428326505
 30
0.0
 11
-411.1412911665076
 21
-28.72258011308158
 31
0.0
  0
LINE
  5
3B6
330
1F
100
AcDbEntity
  8
0-A
  6
Continuous
 62
     2
370
     9
100
AcDbLine
 10
-424.1412845681123
 20
-2.222517428326505
 30
0.0
 11
-424.1412845681123
 21
-28.72258011308158
 31
0.0
  0
LINE
  5
3B7
330
1F
100
AcDbEntity
  8
0-A
  6
JWW_CENTER1
 62
     2
370
     9
100
AcDbLine
 10
-789.5391348109332
 20
-2.222517428326505
 30
0.0
 11
-765.8169552949915
 21
-2.222517428326505
 31
0.0
  0
LINE
  5
3B8
330
1F
100
AcDbEntity
  8
0-A
  6
Continuous
 62
     2
370
     9
100
AcDbLine
 10
-784.1412350801478
 20
-2.222517428326505
 30
0.0
 11
-784.1412350801478
 21
-28.72258011308158
 31
0.0
  0
LINE
  5
3B9
330
1F
100
AcDbEntity
  8
0-A
  6
Continuous
 62
     2
370
     9
100
AcDbLine
 10
-771.1412416785431
 20
-2.222517428326505
 30
0.0
 11
-771.1412416785431
 21
-28.72258011308158
 31
0.0
  0
LINE
  5
3BA
330
1F
100
AcDbEntity
  8
0-A
  6
JWW_CENTER1
 62
     2
370
     9
100
AcDbLine
 10
-429.5390605789865
 20
-2.222517428326505
 30
0.0
 11
-405.8168810630448
 21
-2.222517428326505
 31
0.0
  0
LINE
  5
3BB
330
1F
100
AcDbEntity
  8
0-A
  6
Continuous
 62
     2
370
     9
100
AcDbLine
 10
-784.1412350801478
 20
-28.72258011308158
 30
0.0
 11
-771.1412416785431
 21
-28.72258011308158
 31
0.0
  0
LINE
  5
3BC
330
1F
100
AcDbEntity
  8
0-A
  6
JWW_CENTER1
 62
     2
370
     9
100
AcDbLine
 10
-777.6412383793455
 20
421.2773580269627
 30
0.0
 11
-777.6412383793455
 21
462.9501831958817
 31
0.0
  0
LINE
  5
3BD
330
1F
100
AcDbEntity
  8
0-A
  6
JWW_CENTER1
 62
     2
370
     9
100
AcDbLine
 10
-417.64128786731
 20
421.2773580269627
 30
0.0
 11
-417.64128786731
 21
462.9501831958817
 31
0.0
  0
LINE
  5
3BE
330
1F
100
AcDbEntity
  8
0-A
  6
JWW_CENTER1
 62
     2
370
     9
100
AcDbLine
 10
-57.6413373552745
 20
421.2773580269627
 30
0.0
 11
-57.6413373552745
 21
462.9501831958817
 31
0.0
  0
LINE
  5
3BF
330
1F
100
AcDbEntity
  8
0-A
  6
JWW_CENTER1
 62
     2
370
     9
100
AcDbLine
 10
-777.6412383793455
 20
7.277439682104223
 30
0.0
 11
-777.6412383793455
 21
-34.39532362685906
 31
0.0
  0
LINE
  5
3C0
330
1F
100
AcDbEntity
  8
0-A
  6
JWW_CENTER1
 62
     2
370
     9
100
AcDbLine
 10
-417.64128786731
 20
7.277439682104223
 30
0.0
 11
-417.64128786731
 21
-34.39532362685906
 31
0.0
  0
LINE
  5
3C1
330
1F
100
AcDbEntity
  8
0-A
  6
JWW_CENTER1
 62
     2
370
     9
100
AcDbLine
 10
-57.6413373552745
 20
7.277439682104223
 30
0.0
 11
-57.6413373552745
 21
-34.39532362685906
 31
0.0
  0
CIRCLE
  5
3C2
330
1F
100
AcDbEntity
  8
0-A
  6
Continuous
 62
     2
370
     9
100
AcDbCircle
 10
-417.64128786731
 20
430.7774388573048
 30
0.0
 40
6.499999600487786
  0
CIRCLE
  5
3C3
330
1F
100
AcDbEntity
  8
0-A
  6
Continuous
 62
     2
370
     9
100
AcDbCircle
 10
-777.6412383793455
 20
430.7774388573048
 30
0.0
 40
6.499999600487786
  0
CIRCLE
  5
3C4
330
1F
100
AcDbEntity
  8
0-A
  6
Continuous
 62
     2
370
     9
100
AcDbCircle
 10
-57.6413373552745
 20
430.7774388573048
 30
0.0
 40
6.499999600487786
  0
ARC
  5
3C5
330
1F
100
AcDbEntity
  8
0-A
  6
Continuous
 62
     2
370
     9
100
AcDbCircle
 10
-57.6413373552745
 20
-2.222517428326505
 30
0.0
 40
6.499999600487786
100
AcDbArc
 50
1.403289794921875
 51
0.0
  0
ARC
  5
3C6
330
1F
100
AcDbEntity
  8
0-A
  6
Continuous
 62
     2
370
     9
100
AcDbCircle
 10
-777.6412383793455
 20
-2.222517428326505
 30
0.0
 40
6.499999600487786
100
AcDbArc
 50
1.403289794921875
 51
0.0
  0
ARC
  5
3C7
330
1F
100
AcDbEntity
  8
0-A
  6
Continuous
 62
     2
370
     9
100
AcDbCircle
 10
-417.64128786731
 20
-2.222517428326505
 30
0.0
 40
6.499999600487786
100
AcDbArc
 50
1.403289794921875
 51
0.0
  0
LINE
  5
3C8
330
1F
100
AcDbEntity
  8
通り芯
  6
Continuous
 62
     2
370
     9
100
AcDbLine
 10
260.9911287289739
 20
164.2775122644522
 30
0.0
 11
318.7262625444299
 21
264.2773473045704
 31
0.0
  0
LINE
  5
3C9
330
1F
100
AcDbEntity
  8
通り芯
  6
Continuous
 62
     2
370
     9
100
AcDbLine
 10
289.8586956367018
 20
264.2773473045704
 30
0.0
 11
318.7262625444299
 21
264.2773473045704
 31
0.0
  0
LINE
  5
3CA
330
1F
100
AcDbEntity
  8
通り芯
  6
Continuous
 62
     2
370
     9
100
AcDbLine
 10
260.9911287289739
 20
164.2775122644522
 30
0.0
 11
289.8586956367018
 21
164.2775122644522
 31
0.0
  0
LINE
  5
3CB
330
1F
100
AcDbEntity
  8
通り芯
  6
Continuous
 62
     2
370
     9
100
AcDbLine
 10
289.8586956367018
 20
447.292438659353
 30
0.0
 11
289.8586956367018
 21
264.2773473045704
 31
0.0
  0
LINE
  5
3CC
330
1F
100
AcDbEntity
  8
通り芯
  6
Continuous
 62
     2
370
     9
100
AcDbLine
 10
289.8586956367018
 20
164.2775122644522
 30
0.0
 11
289.8586956367018
 21
-16.24660239586245
 31
0.0
  0
LINE
  5
3CD
330
1F
100
AcDbEntity
  8
仕上
  6
JWW_CENTER2
 62
     6
370
     9
100
AcDbLine
 10
592.3385375391514
 20
42.77732173578875
 30
0.0
 11
661.3837744875257
 21
42.77732173578875
 31
0.0
  0
TEXT
  5
3CE
330
1F
100
AcDbEntity
  8
寸法
  6
Continuous
 62
     7
370
     9
100
AcDbText
 10
761.9419857763212
 20
-80.23880556090775
 30
0.0
 40
11.43
  1
ボルト：Ｓ２０Ｃ
 41
1.145833333333333
  7
ＭＳ ゴシック
100
AcDbText
  0
LINE
  5
3CF
330
1F
100
AcDbEntity
  8
寸法
  6
Continuous
 62
     7
370
     9
100
AcDbLine
 10
654.9870839126733
 20
42.71556683668578
 30
0.0
 11
731.0341245287686
 21
-89.0017712756459
 31
0.0
  0
LINE
  5
3D0
330
1F
100
AcDbEntity
  8
寸法
  6
Continuous
 62
     7
370
     9
100
AcDbLine
 10
654.9870839126733
 20
42.71556683668578
 30
0.0
 11
659.7706268172369
 21
31.16707268029458
 31
0.0
  0
LINE
  5
3D1
330
1F
100
AcDbEntity
  8
寸法
  6
Continuous
 62
     7
370
     9
100
AcDbLine
 10
654.9870839126733
 20
42.71556683668578
 30
0.0
 11
662.5966017752826
 21
32.79865008304526
 31
0.0
  0
LINE
  5
3D2
330
1F
100
AcDbEntity
  8
寸法
  6
Continuous
 62
     7
370
     9
100
AcDbLine
 10
731.0341245287686
 20
-89.0017712756459
 30
0.0
 11
935.2262403612049
 21
-89.0017712756459
 31
0.0
  0
LINE
  5
3D3
330
1F
100
AcDbEntity
  8
寸法
  6
Continuous
 62
     7
370
     9
100
AcDbLine
 10
603.1238208082601
 20
424.2770709967686
 30
0.0
 11
505.1266399726393
 21
597.9026252619714
 31
0.0
  0
LINE
  5
3D4
330
1F
100
AcDbEntity
  8
寸法
  6
Continuous
 62
     7
370
     9
100
AcDbLine
 10
372.965690265608
 20
597.9026252619714
 30
0.0
 11
505.1266399726393
 21
597.9026252619714
 31
0.0
  0
LINE
  5
3D5
330
1F
100
AcDbEntity
  8
寸法
  6
Continuous
 62
     7
370
     9
100
AcDbLine
 10
603.1238208082601
 20
424.2770709967686
 30
0.0
 11
594.1089694701056
 21
436.266025283086
 31
0.0
  0
LINE
  5
3D6
330
1F
100
AcDbEntity
  8
寸法
  6
Continuous
 62
     7
370
     9
100
AcDbLine
 10
603.1238208082601
 20
424.2770709967686
 30
0.0
 11
597.5190613857518
 21
438.1906122235421
 31
0.0
  0
LINE
  5
3D7
330
1F
100
AcDbEntity
  8
寸法
  6
Continuous
 62
     7
370
     9
100
AcDbLine
 10
601.1421989886868
 20
34.85108189731754
 30
0.0
 11
597.0609265541427
 21
20.41692728371949
 31
0.0
  0
LINE
  5
3D8
330
1F
100
AcDbEntity
  8
寸法
  6
Continuous
 62
     7
370
     9
100
AcDbLine
 10
601.1421989886868
 20
34.85108189731754
 30
0.0
 11
593.4641412923185
 21
21.96515825394762
 31
0.0
  0
TEXT
  5
3D9
330
1F
100
AcDbEntity
  8
寸法
  6
Continuous
 62
     7
370
     9
100
AcDbText
 10
377.3587492486635
 20
606.6655909767094
 30
0.0
 40
11.43
  1
枠：ＳＳ４００
 41
1.142857142857143
  7
ＭＳ ゴシック
100
AcDbText
  0
LINE
  5
3DA
330
1F
100
AcDbEntity
  8
寸法
  6
Continuous
 62
     7
370
     9
100
AcDbLine
 10
588.9870888614695
 20
401.2772920430101
 30
0.0
 11
579.9722375233152
 21
413.2659988895051
 31
0.0
  0
LINE
  5
3DB
330
1F
100
AcDbEntity
  8
寸法
  6
Continuous
 62
     7
370
     9
100
AcDbLine
 10
588.9870888614695
 20
401.2772920430101
 30
0.0
 11
583.3823294389612
 21
415.1908332697838
 31
0.0
  0
TEXT
  5
3DC
330
1F
100
AcDbEntity
  8
寸法
  6
Continuous
 62
     7
370
     9
100
AcDbText
 10
374.645882032499
 20
527.9276532406878
 30
0.0
 40
11.43
  1
蓋：ＦＣＤ５００
 50
359.9998968926416
 41
1.145833333333337
  7
ＭＳ ゴシック
100
AcDbText
  0
LINE
  5
3DD
330
1F
100
AcDbEntity
  8
寸法
  6
Continuous
 62
     7
370
     9
100
AcDbLine
 10
367.1674013668846
 20
519.164687525916
 30
0.0
 11
522.4494291009206
 21
519.164687525916
 31
0.0
  0
LINE
  5
3DE
330
1F
100
AcDbEntity
  8
寸法
  6
Continuous
 62
     7
370
     9
100
AcDbLine
 10
588.9870888614695
 20
401.2772920430101
 30
0.0
 11
522.4494291009206
 21
519.164687525916
 31
0.0
  0
TEXT
  5
3DF
330
1F
100
AcDbEntity
  8
寸法
  6
Continuous
 62
     7
370
     9
100
AcDbText
 10
393.7993067251435
 20
499.7932505273941
 30
0.0
 40
11.43
  1
樹脂系塗装
 41
1.133333333333333
  7
ＭＳ ゴシック
100
AcDbText
  0
TEXT
  5
3E0
330
1F
100
AcDbEntity
  8
寸法
  6
Continuous
 62
     7
370
     9
100
AcDbText
 10
395.5089316804313
 20
578.5311882634492
 30
0.0
 40
11.43
  1
樹脂系塗装
 41
1.133333333333333
  7
ＭＳ ゴシック
100
AcDbText
  0
LINE
  5
3E1
330
1F
100
AcDbEntity
  8
寸法
  6
Continuous
 62
     7
370
     9
100
AcDbLine
 10
671.4870139298442
 20
457.2768829425033
 30
0.0
 11
734.9516168384168
 21
569.719476903652
 31
0.0
  0
LINE
  5
3E2
330
1F
100
AcDbEntity
  8
寸法
  6
Continuous
 62
     7
370
     9
100
AcDbLine
 10
671.4870139298442
 20
457.2768829425033
 30
0.0
 11
680.5019889879101
 21
469.2658372288209
 31
0.0
  0
LINE
  5
3E3
330
1F
100
AcDbEntity
  8
寸法
  6
Continuous
 62
     7
370
     9
100
AcDbLine
 10
671.4870139298442
 20
457.2768829425033
 30
0.0
 11
677.0917733523528
 21
471.190424169277
 31
0.0
  0
TEXT
  5
3E4
330
1F
100
AcDbEntity
  8
寸法
  6
Continuous
 62
     7
370
     9
100
AcDbText
 10
732.6695022883091
 20
579.0434715913647
 30
0.0
 40
11.43
  1
アンカー：ＳＳ４００
 41
1.15
  7
ＭＳ ゴシック
100
AcDbText
  0
TEXT
  5
3E5
330
1F
100
AcDbEntity
  8
寸法
  6
Continuous
 62
     7
370
     9
100
AcDbText
 10
780.8280653571269
 20
550.9090688781047
 30
0.0
 40
11.43
  1
樹脂系塗装
 41
1.133333333333333
  7
ＭＳ ゴシック
100
AcDbText
  0
LINE
  5
3E6
330
1F
100
AcDbEntity
  8
寸法
  6
Continuous
 62
     7
370
     9
100
AcDbLine
 10
734.9516168384168
 20
569.719476903652
 30
0.0
 11
905.4876498214611
 21
569.719476903652
 31
0.0
  0
LINE
  5
3E7
330
1F
100
AcDbEntity
  8
寸法
  6
Continuous
 62
     7
370
     9
100
AcDbLine
 10
500.453738922175
 20
-199.076052023713
 30
0.0
 11
601.1421989886868
 21
34.85108189731754
 31
0.0
  0
LINE
  5
3E8
330
1F
100
AcDbEntity
  8
その他
  6
Continuous
 62
     7
370
     9
100
AcDbLine
 10
218.2047006382855
 20
42.77744545570008
 30
0.0
 11
218.2047006382855
 21
385.7774141133226
 31
0.0
  0
LINE
  5
3E9
330
1F
100
AcDbEntity
  8
その他
  6
Continuous
 62
     7
370
     9
100
AcDbLine
 10
73.81181073910896
 20
42.77744545570008
 30
0.0
 11
219.7045571231885
 21
42.77744545570008
 31
0.0
  0
LINE
  5
3EA
330
1F
100
AcDbEntity
  8
その他
  6
Continuous
 62
     7
370
     9
100
AcDbLine
 10
73.81181073910896
 20
385.7774141133226
 30
0.0
 11
219.7045571231885
 21
385.7774141133226
 31
0.0
  0
LINE
  5
3EB
330
1F
100
AcDbEntity
  8
その他
  6
Continuous
 62
     7
370
     9
100
AcDbLine
 10
218.2047006382855
 20
42.77744545570008
 30
0.0
 11
216.2465856018624
 21
57.6491355356726
 31
0.0
  0
LINE
  5
3EC
330
1F
100
AcDbEntity
  8
その他
  6
Continuous
 62
     7
370
     9
100
AcDbLine
 10
218.2047006382855
 20
42.77744545570008
 30
0.0
 11
220.1623207950635
 21
57.6491355356726
 31
0.0
  0
LINE
  5
3ED
330
1F
100
AcDbEntity
  8
その他
  6
Continuous
 62
     7
370
     9
100
AcDbLine
 10
218.2047006382855
 20
385.7774141133226
 30
0.0
 11
216.2465856018624
 21
370.9057858933057
 31
0.0
  0
LINE
  5
3EE
330
1F
100
AcDbEntity
  8
その他
  6
Continuous
 62
     7
370
     9
100
AcDbLine
 10
218.2047006382855
 20
385.7774141133226
 30
0.0
 11
220.1623207950635
 21
370.9057858933057
 31
0.0
  0
LINE
  5
3EF
330
1F
100
AcDbEntity
  8
その他
  6
Continuous
 62
     7
370
     9
100
AcDbLine
 10
99.10857356638948
 20
160.2774619516882
 30
0.0
 11
179.4282823132221
 21
160.2774619516882
 31
0.0
  0
LINE
  5
3F0
330
1F
100
AcDbEntity
  8
その他
  6
Continuous
 62
     7
370
     9
100
AcDbLine
 10
177.9283021084079
 20
160.2774619516882
 30
0.0
 11
175.9705582317187
 21
175.1491520316608
 31
0.0
  0
LINE
  5
3F1
330
1F
100
AcDbEntity
  8
その他
  6
Continuous
 62
     7
370
     9
100
AcDbLine
 10
177.9283021084079
 20
160.2774619516882
 30
0.0
 11
179.8862934249198
 21
175.1491520316608
 31
0.0
  0
LINE
  5
3F2
330
1F
100
AcDbEntity
  8
その他
  6
Continuous
 62
     7
370
     9
100
AcDbLine
 10
177.9283021084079
 20
160.2774619516882
 30
0.0
 11
177.9283021084079
 21
322.5292591895999
 31
0.0
  0
LINE
  5
3F3
330
1F
100
AcDbEntity
  8
その他
  6
Continuous
 62
     7
370
     9
100
AcDbLine
 10
99.10857356638948
 20
268.2774594772901
 30
0.0
 11
179.4282823132221
 21
268.2774594772901
 31
0.0
  0
LINE
  5
3F4
330
1F
100
AcDbEntity
  8
その他
  6
Continuous
 62
     7
370
     9
100
AcDbLine
 10
177.9283021084079
 20
268.2774594772901
 30
0.0
 11
175.9705582317187
 21
253.4057693973176
 31
0.0
  0
LINE
  5
3F5
330
1F
100
AcDbEntity
  8
その他
  6
Continuous
 62
     7
370
     9
100
AcDbLine
 10
177.9283021084079
 20
268.2774594772901
 30
0.0
 11
179.8862934249198
 21
253.4057693973176
 31
0.0
  0
LINE
  5
3F6
330
1F
100
AcDbEntity
  8
その他
  6
Continuous
 62
     7
370
     9
100
AcDbLine
 10
99.10857356638948
 20
280.2774866956705
 30
0.0
 11
179.4282823132221
 21
280.2774866956705
 31
0.0
  0
LINE
  5
3F7
330
1F
100
AcDbEntity
  8
その他
  6
Continuous
 62
     7
370
     9
100
AcDbLine
 10
177.9283021084079
 20
280.2774866956705
 30
0.0
 11
175.9705582317187
 21
295.1491767756431
 31
0.0
  0
LINE
  5
3F8
330
1F
100
AcDbEntity
  8
その他
  6
Continuous
 62
     7
370
     9
100
AcDbLine
 10
177.9283021084079
 20
280.2774866956705
 30
0.0
 11
179.8862934249198
 21
295.1491767756431
 31
0.0
  0
LINE
  5
3F9
330
1F
100
AcDbEntity
  8
その他
  6
Continuous
 62
     7
370
     9
100
AcDbLine
 10
523.9869981335347
 20
4.277169972697585
 30
0.0
 11
522.0291305369341
 21
-10.59445824731934
 31
0.0
  0
LINE
  5
3FA
330
1F
100
AcDbEntity
  8
その他
  6
Continuous
 62
     7
370
     9
100
AcDbLine
 10
523.9869981335347
 20
4.277169972697585
 30
0.0
 11
525.9448657301351
 21
-10.59445824731934
 31
0.0
  0
LINE
  5
3FB
330
1F
100
AcDbEntity
  8
その他
  6
Continuous
 62
     7
370
     9
100
AcDbLine
 10
583.9870723654816
 20
10.27709079195425
 30
0.0
 11
522.4870179287205
 21
10.27709079195425
 31
0.0
  0
LINE
  5
3FC
330
1F
100
AcDbEntity
  8
その他
  6
Continuous
 62
     7
370
     9
100
AcDbLine
 10
583.9870723654816
 20
14.27720296467392
 30
0.0
 11
522.4870179287205
 21
14.27720296467392
 31
0.0
  0
LINE
  5
3FD
330
1F
100
AcDbEntity
  8
その他
  6
Continuous
 62
     7
370
     9
100
AcDbLine
 10
523.9869981335347
 20
14.27720296467392
 30
0.0
 11
522.0291305369341
 21
29.14883118469085
 31
0.0
  0
LINE
  5
3FE
330
1F
100
AcDbEntity
  8
その他
  6
Continuous
 62
     7
370
     9
100
AcDbLine
 10
523.9869981335347
 20
14.27720296467392
 30
0.0
 11
525.9448657301351
 21
29.14883118469085
 31
0.0
  0
LINE
  5
3FF
330
1F
100
AcDbEntity
  8
その他
  6
Continuous
 62
     7
370
     9
100
AcDbLine
 10
523.9869981335347
 20
414.2772854446148
 30
0.0
 11
522.0291305369341
 21
399.4056572245979
 31
0.0
  0
LINE
  5
400
330
1F
100
AcDbEntity
  8
その他
  6
Continuous
 62
     7
370
     9
100
AcDbLine
 10
523.9869981335347
 20
414.2772854446148
 30
0.0
 11
525.9448657301351
 21
399.4056572245979
 31
0.0
  0
LINE
  5
401
330
1F
100
AcDbEntity
  8
その他
  6
Continuous
 62
     7
370
     9
100
AcDbLine
 10
583.9870723654816
 20
414.2772854446148
 30
0.0
 11
522.4870179287205
 21
414.2772854446148
 31
0.0
  0
LINE
  5
402
330
1F
100
AcDbEntity
  8
その他
  6
Continuous
 62
     7
370
     9
100
AcDbLine
 10
583.9870723654816
 20
418.2771501775118
 30
0.0
 11
522.4870179287205
 21
418.2771501775118
 31
0.0
  0
LINE
  5
403
330
1F
100
AcDbEntity
  8
その他
  6
Continuous
 62
     7
370
     9
100
AcDbLine
 10
523.9869981335347
 20
424.2773184365911
 30
0.0
 11
522.0291305369341
 21
439.148946656608
 31
0.0
  0
LINE
  5
404
330
1F
100
AcDbEntity
  8
その他
  6
Continuous
 62
     7
370
     9
100
AcDbLine
 10
463.986923901588
 20
4.277169972697585
 30
0.0
 11
462.0290563049875
 21
19.14879819271441
 31
0.0
  0
LINE
  5
405
330
1F
100
AcDbEntity
  8
その他
  6
Continuous
 62
     7
370
     9
100
AcDbLine
 10
463.986923901588
 20
4.277169972697585
 30
0.0
 11
465.9447914981882
 21
19.14879819271441
 31
0.0
  0
LINE
  5
406
330
1F
100
AcDbEntity
  8
その他
  6
Continuous
 62
     7
370
     9
100
AcDbLine
 10
463.986923901588
 20
424.2773184365911
 30
0.0
 11
462.0290563049875
 21
409.4056902165743
 31
0.0
  0
LINE
  5
407
330
1F
100
AcDbEntity
  8
その他
  6
Continuous
 62
     7
370
     9
100
AcDbLine
 10
463.986923901588
 20
424.2773184365911
 30
0.0
 11
465.9447914981882
 21
409.4056902165743
 31
0.0
  0
LINE
  5
408
330
1F
100
AcDbEntity
  8
その他
  6
Continuous
 62
     7
370
     9
100
AcDbLine
 10
583.9870723654816
 20
424.2773184365911
 30
0.0
 11
462.4869436967737
 21
424.2773184365911
 31
0.0
  0
LINE
  5
409
330
1F
100
AcDbEntity
  8
その他
  6
Continuous
 62
     7
370
     9
100
AcDbLine
 10
583.9870723654816
 20
4.277169972697585
 30
0.0
 11
462.4869436967737
 21
4.277169972697585
 31
0.0
  0
LINE
  5
40A
330
1F
100
AcDbEntity
  8
その他
  6
Continuous
 62
     7
370
     9
100
AcDbLine
 10
523.9869981335347
 20
424.2773184365911
 30
0.0
 11
525.9448657301351
 21
439.148946656608
 31
0.0
  0
LINE
  5
40B
330
1F
100
AcDbEntity
  8
その他
  6
Continuous
 62
     7
370
     9
100
AcDbLine
 10
463.986923901588
 20
4.277169972697585
 30
0.0
 11
463.986923901588
 21
424.2773184365911
 31
0.0
  0
LINE
  5
40C
330
1F
100
AcDbEntity
  8
その他
  6
Continuous
 62
     7
370
     9
100
AcDbLine
 10
523.9869981335347
 20
-27.81602246290216
 30
0.0
 11
523.9869981335347
 21
460.9543335865067
 31
0.0
  0
LINE
  5
40D
330
1F
100
AcDbEntity
  8
その他
  6
Continuous
 62
     7
370
     9
100
AcDbLine
 10
739.9871169046496
 20
-28.72288941285998
 30
0.0
 11
738.0292493080491
 21
-13.85126119284305
 31
0.0
  0
LINE
  5
40E
330
1F
100
AcDbEntity
  8
その他
  6
Continuous
 62
     7
370
     9
100
AcDbLine
 10
739.9871169046496
 20
-28.72288941285998
 30
0.0
 11
741.9449845012501
 21
-13.85126119284305
 31
0.0
  0
LINE
  5
40F
330
1F
100
AcDbEntity
  8
その他
  6
Continuous
 62
     7
370
     9
100
AcDbLine
 10
741.9449845012501
 20
19.14879819271441
 30
0.0
 11
738.0292493080491
 21
-10.59445824731934
 31
0.0
  0
LINE
  5
410
330
1F
100
AcDbEntity
  8
その他
  6
Continuous
 62
     7
370
     9
100
AcDbLine
 10
738.0292493080491
 20
19.14879819271441
 30
0.0
 11
741.9449845012501
 21
-10.59445824731934
 31
0.0
  0
LINE
  5
411
330
1F
100
AcDbEntity
  8
その他
  6
Continuous
 62
     7
370
     9
100
AcDbLine
 10
649.9870674166852
 20
64.27712048473302
 30
0.0
 11
741.4870971094639
 21
64.27712048473302
 31
0.0
  0
LINE
  5
412
330
1F
100
AcDbEntity
  8
その他
  6
Continuous
 62
     7
370
     9
100
AcDbLine
 10
741.9449845012501
 20
79.1489961445726
 30
0.0
 11
738.0292493080491
 21
49.40549226471609
 31
0.0
  0
LINE
  5
413
330
1F
100
AcDbEntity
  8
その他
  6
Continuous
 62
     7
370
     9
100
AcDbLine
 10
738.0292493080491
 20
79.1489961445726
 30
0.0
 11
741.9449845012501
 21
49.40549226471609
 31
0.0
  0
LINE
  5
414
330
1F
100
AcDbEntity
  8
その他
  6
Continuous
 62
     7
370
     9
100
AcDbLine
 10
649.9870674166852
 20
364.277120484733
 30
0.0
 11
741.4870971094639
 21
364.277120484733
 31
0.0
  0
LINE
  5
415
330
1F
100
AcDbEntity
  8
その他
  6
Continuous
 62
     7
370
     9
100
AcDbLine
 10
741.9449845012501
 20
379.1489961445726
 30
0.0
 11
738.0292493080491
 21
349.4054922647161
 31
0.0
  0
LINE
  5
416
330
1F
100
AcDbEntity
  8
その他
  6
Continuous
 62
     7
370
     9
100
AcDbLine
 10
738.0292493080491
 20
379.1489961445726
 30
0.0
 11
741.9449845012501
 21
349.4054922647161
 31
0.0
  0
LINE
  5
417
330
1F
100
AcDbEntity
  8
その他
  6
Continuous
 62
     7
370
     9
100
AcDbLine
 10
741.9449845012501
 20
439.148946656608
 30
0.0
 11
738.0292493080491
 21
409.4056902165743
 31
0.0
  0
LINE
  5
418
330
1F
100
AcDbEntity
  8
その他
  6
Continuous
 62
     7
370
     9
100
AcDbLine
 10
738.0292493080491
 20
439.148946656608
 30
0.0
 11
741.9449845012501
 21
409.4056902165743
 31
0.0
  0
LINE
  5
419
330
1F
100
AcDbEntity
  8
その他
  6
Continuous
 62
     7
370
     9
100
AcDbLine
 10
739.9871169046496
 20
457.2773778221485
 30
0.0
 11
738.0292493080491
 21
442.4057496021317
 31
0.0
  0
LINE
  5
41A
330
1F
100
AcDbEntity
  8
その他
  6
Continuous
 62
     7
370
     9
100
AcDbLine
 10
739.9871169046496
 20
457.2773778221485
 30
0.0
 11
741.9449845012501
 21
442.4057496021317
 31
0.0
  0
LINE
  5
41B
330
1F
100
AcDbEntity
  8
その他
  6
Continuous
 62
     7
370
     9
100
AcDbLine
 10
682.9871268022425
 20
457.2773778221485
 30
0.0
 11
741.4870971094639
 21
457.2773778221485
 31
0.0
  0
LINE
  5
41C
330
1F
100
AcDbEntity
  8
その他
  6
Continuous
 62
     7
370
     9
100
AcDbLine
 10
682.9871268022425
 20
-28.72288941285998
 30
0.0
 11
741.4870971094639
 21
-28.72288941285998
 31
0.0
  0
LINE
  5
41D
330
1F
100
AcDbEntity
  8
その他
  6
Continuous
 62
     7
370
     9
100
AcDbLine
 10
663.9870888614696
 20
424.2773184365911
 30
0.0
 11
741.4870971094639
 21
424.2773184365911
 31
0.0
  0
LINE
  5
41E
330
1F
100
AcDbEntity
  8
その他
  6
Continuous
 62
     7
370
     9
100
AcDbLine
 10
663.9870888614696
 20
4.277169972697585
 30
0.0
 11
741.4870971094639
 21
4.277169972697585
 31
0.0
  0
LINE
  5
41F
330
1F
100
AcDbEntity
  8
その他
  6
Continuous
 62
     7
370
     9
100
AcDbLine
 10
739.9871169046496
 20
-28.72288941285998
 30
0.0
 11
739.9871169046496
 21
457.2773778221485
 31
0.0
  0
LINE
  5
420
330
1F
100
AcDbEntity
  8
その他
  6
Continuous
 62
     7
370
     9
100
AcDbLine
 10
588.9870888614695
 20
-92.91836769754106
 30
0.0
 11
644.987050920697
 21
-92.91836769754106
 31
0.0
  0
LINE
  5
421
330
1F
100
AcDbEntity
  8
その他
  6
Continuous
 62
     7
370
     9
100
AcDbLine
 10
588.9870888614695
 20
-92.91836769754106
 30
0.0
 11
601.3801123781504
 21
-91.28681136704063
 31
0.0
  0
LINE
  5
422
330
1F
100
AcDbEntity
  8
その他
  6
Continuous
 62
     7
370
     9
100
AcDbLine
 10
588.9870888614695
 20
-92.91836769754106
 30
0.0
 11
601.3801123781504
 21
-94.54998588799714
 31
0.0
  0
LINE
  5
423
330
1F
100
AcDbEntity
  8
その他
  6
Continuous
 62
     7
370
     9
100
AcDbLine
 10
644.987050920697
 20
-92.91836769754106
 30
0.0
 11
632.5940274040162
 21
-91.28681136704063
 31
0.0
  0
LINE
  5
424
330
1F
100
AcDbEntity
  8
その他
  6
Continuous
 62
     7
370
     9
100
AcDbLine
 10
644.987050920697
 20
-92.91836769754106
 30
0.0
 11
632.5940274040162
 21
-94.54998588799714
 31
0.0
  0
LINE
  5
425
330
1F
100
AcDbEntity
  8
その他
  6
Continuous
 62
     7
370
     9
100
AcDbLine
 10
588.9870888614695
 20
-94.41840976231094
 30
0.0
 11
588.9870888614695
 21
-39.30545760727508
 31
0.0
  0
LINE
  5
426
330
1F
100
AcDbEntity
  8
その他
  6
Continuous
 62
     7
370
     9
100
AcDbLine
 10
644.987050920697
 20
-92.91836769754106
 30
0.0
 11
677.9871103062543
 21
-92.91836769754106
 31
0.0
  0
LINE
  5
427
330
1F
100
AcDbEntity
  8
その他
  6
Continuous
 62
     7
370
     9
100
AcDbLine
 10
644.987050920697
 20
-92.91836769754106
 30
0.0
 11
657.3800744373777
 21
-91.28681136704063
 31
0.0
  0
LINE
  5
428
330
1F
100
AcDbEntity
  8
その他
  6
Continuous
 62
     7
370
     9
100
AcDbLine
 10
644.987050920697
 20
-92.91836769754106
 30
0.0
 11
657.3800744373777
 21
-94.54998588799714
 31
0.0
  0
LINE
  5
429
330
1F
100
AcDbEntity
  8
その他
  6
Continuous
 62
     7
370
     9
100
AcDbLine
 10
677.9871103062543
 20
-92.91836769754106
 30
0.0
 11
665.5940867895736
 21
-91.28681136704063
 31
0.0
  0
LINE
  5
42A
330
1F
100
AcDbEntity
  8
その他
  6
Continuous
 62
     7
370
     9
100
AcDbLine
 10
677.9871103062543
 20
-92.91836769754106
 30
0.0
 11
665.5940867895736
 21
-94.54998588799714
 31
0.0
  0
LINE
  5
42B
330
1F
100
AcDbEntity
  8
その他
  6
Continuous
 62
     7
370
     9
100
AcDbLine
 10
677.9871103062543
 20
-94.41840976231094
 30
0.0
 11
677.9871103062543
 21
-39.30545760727508
 31
0.0
  0
LINE
  5
42C
330
1F
100
AcDbEntity
  8
その他
  6
Continuous
 62
     7
370
     9
100
AcDbLine
 10
644.987050920697
 20
-94.41840976231094
 30
0.0
 11
644.987050920697
 21
6.497076341468677
 31
0.0
  0
TEXT
  5
42D
330
1F
100
AcDbEntity
  8
その他
  6
Continuous
 62
     2
370
     9
100
AcDbText
 10
212.8844449504687
 20
198.0273679245556
 30
0.0
 40
15.24
  1
343
 50
90.0
 41
1.083333333333333
  7
ＭＳ ゴシック
100
AcDbText
  0
TEXT
  5
42E
330
1F
100
AcDbEntity
  8
その他
  6
Continuous
 62
     2
370
     9
100
AcDbText
 10
172.6084175803252
 20
198.0274297845114
 30
0.0
 40
15.24
  1
108
 50
90.0
 41
1.083333333333333
  7
ＭＳ ゴシック
100
AcDbText
  0
TEXT
  5
42F
330
1F
100
AcDbEntity
  8
その他
  6
Continuous
 62
     2
370
     9
100
AcDbText
 10
172.6084175803252
 20
297.949086212668
 30
0.0
 40
15.24
  1
12
 50
90.0
 41
1.0625
  7
ＭＳ ゴシック
100
AcDbText
  0
TEXT
  5
430
330
1F
100
AcDbEntity
  8
その他
  6
Continuous
 62
     2
370
     9
100
AcDbText
 10
518.6669898855406
 20
-24.04134240259285
 30
0.0
 40
15.24
  1
6
 50
90.0
 41
0.9999999999999998
  7
ＭＳ ゴシック
100
AcDbText
  0
TEXT
  5
431
330
1F
100
AcDbEntity
  8
その他
  6
Continuous
 62
     2
370
     9
100
AcDbText
 10
518.6669898855406
 20
7.277115948336217
 30
0.0
 40
15.24
  1
4
 50
90.0
 41
0.9999999999999998
  7
ＭＳ ゴシック
100
AcDbText
  0
TEXT
  5
432
330
1F
100
AcDbEntity
  8
その他
  6
Continuous
 62
     2
370
     9
100
AcDbText
 10
518.6669898855406
 20
411.2773415309746
 30
0.0
 40
15.24
  1
4
 50
90.0
 41
0.9999999999999998
  7
ＭＳ ゴシック
100
AcDbText
  0
TEXT
  5
433
330
1F
100
AcDbEntity
  8
その他
  6
Continuous
 62
     2
370
     9
100
AcDbText
 10
518.6669898855406
 20
441.4956824304679
 30
0.0
 40
15.24
  1
6
 50
90.0
 41
0.9999999999999998
  7
ＭＳ ゴシック
100
AcDbText
  0
TEXT
  5
434
330
1F
100
AcDbEntity
  8
その他
  6
Continuous
 62
     2
370
     9
100
AcDbText
 10
734.6671086566555
 20
-22.8476741402142
 30
0.0
 40
15.24
  1
33
 50
90.0
 41
1.0625
  7
ＭＳ ゴシック
100
AcDbText
  0
TEXT
  5
435
330
1F
100
AcDbEntity
  8
その他
  6
Continuous
 62
     2
370
     9
100
AcDbText
 10
734.6671086566555
 20
23.65220708867099
 30
0.0
 40
15.24
  1
60
 50
90.0
 41
1.0625
  7
ＭＳ ゴシック
100
AcDbText
  0
TEXT
  5
436
330
1F
100
AcDbEntity
  8
その他
  6
Continuous
 62
     2
370
     9
100
AcDbText
 10
734.6671086566555
 20
383.6524050405291
 30
0.0
 40
15.24
  1
60
 50
90.0
 41
1.0625
  7
ＭＳ ゴシック
100
AcDbText
  0
TEXT
  5
437
330
1F
100
AcDbEntity
  8
その他
  6
Continuous
 62
     2
370
     9
100
AcDbText
 10
734.6671086566555
 20
430.1520388295916
 30
0.0
 40
15.24
  1
33
 50
90.0
 41
1.0625
  7
ＭＳ ゴシック
100
AcDbText
  0
TEXT
  5
438
330
1F
100
AcDbEntity
  8
その他
  6
Continuous
 62
     2
370
     9
100
AcDbText
 10
458.1669634919597
 20
198.0272442046444
 30
0.0
 40
15.24
  1
420
 50
90.0
 41
1.083333333333333
  7
ＭＳ ゴシック
100
AcDbText
  0
TEXT
  5
439
330
1F
100
AcDbEntity
  8
その他
  6
Continuous
 62
     2
370
     9
100
AcDbText
 10
518.1670377239062
 20
198.0272442046444
 30
0.0
 40
15.24
  1
400
 50
90.0
 41
1.083333333333333
  7
ＭＳ ゴシック
100
AcDbText
  0
TEXT
  5
43A
330
1F
100
AcDbEntity
  8
その他
  6
Continuous
 62
     2
370
     9
100
AcDbText
 10
734.9984657593795
 20
197.9983200679787
 30
0.0
 40
15.24
  1
300
 50
90.2863816329457
 41
1.083333333333331
  7
ＭＳ ゴシック
100
AcDbText
  0
TEXT
  5
43B
330
1F
100
AcDbEntity
  8
その他
  6
Continuous
 62
     2
370
     9
100
AcDbText
 10
606.3620698910834
 20
-87.09840728791266
 30
0.0
 40
15.24
  1
56
 41
1.0625
  7
ＭＳ ゴシック
100
AcDbText
  0
TEXT
  5
43C
330
1F
100
AcDbEntity
  8
その他
  6
Continuous
 62
     2
370
     9
100
AcDbText
 10
650.8620806134757
 20
-87.09840728791266
 30
0.0
 40
15.24
  1
33
 41
1.0625
  7
ＭＳ ゴシック
100
AcDbText
  0
LWPOLYLINE
  5
43D
330
1F
100
AcDbEntity
  8
その他
  6
Continuous
 62
     7
370
     9
100
AcDbPolyline
 90
        4
 70
     1
 43
0.5
 10
524.2369981335347
 20
10.27709079195425
 42
0.4142135623731
 10
523.9869981335347
 20
10.52709079195425
 42
0.4142135623731
 10
523.7369981335347
 20
10.27709079195425
 42
0.4142135623731
 10
523.9869981335347
 20
10.02709079195425
 42
0.4142135623731
  0
LWPOLYLINE
  5
43E
330
1F
100
AcDbEntity
  8
その他
  6
Continuous
 62
     7
370
     9
100
AcDbPolyline
 90
        4
 70
     1
 43
0.5
 10
524.2369981335347
 20
418.2771501775118
 42
0.4142135623731
 10
523.9869981335347
 20
418.5271501775118
 42
0.4142135623731
 10
523.7369981335347
 20
418.2771501775118
 42
0.4142135623731
 10
523.9869981335347
 20
418.0271501775118
 42
0.4142135623731
  0
TEXT
  5
43F
330
1F
100
AcDbEntity
  8
寸法
  6
Continuous
 62
     7
370
     9
100
AcDbText
 10
199.9444953952006
 20
-190.3130863089749
 30
0.0
 40
11.43
  1
Ｕナット：Ｓ２０Ｃ，電気亜鉛めっき
 41
1.156862745098039
  7
ＭＳ ゴシック
100
AcDbText
  0
TEXT
  5
440
330
1F
100
AcDbEntity
  8
寸法
  6
Continuous
 62
     7
370
     9
100
AcDbText
 10
199.9444953952006
 20
-218.4474890222348
 30
0.0
 40
11.43
  1
　　座金：ＳＰＣＣ，電気亜鉛めっき
 41
1.15686274509804
  7
ＭＳ ゴシック
100
AcDbText
  0
TEXT
  5
441
330
1F
100
AcDbEntity
  8
寸法
  6
Continuous
 62
     7
370
     9
100
AcDbText
 10
731.4464157860764
 20
-108.3732082741679
 30
0.0
 40
11.43
  1
電気亜鉛めっき，
 41
1.145833333333333
  7
ＭＳ ゴシック
100
AcDbText
  0
TEXT
  5
442
330
1F
100
AcDbEntity
  8
寸法
  6
Continuous
 62
     7
370
     9
100
AcDbText
 10
836.2305705798037
 20
-124.2016915659048
 30
0.0
 40
11.43
  1
Ｍ１６×３５
 41
1.138888888888889
  7
ＭＳ ゴシック
100
AcDbText
  0
LINE
  5
443
330
1F
100
AcDbEntity
  8
寸法
  6
Continuous
 62
     7
370
     9
100
AcDbLine
 10
196.7107478402089
 20
-199.076052023713
 30
0.0
 11
500.453738922175
 21
-199.076052023713
 31
0.0
  0
ENDSEC
  0
SECTION
  2
OBJECTS
  0
DICTIONARY
  5
C
330
0
100
AcDbDictionary
281
     1
  3
ACAD_GROUP
350
D
  3
ACAD_LAYOUT
350
1A
  3
ACAD_MLEADERSTYLE
350
445
  3
ACAD_MLINESTYLE
350
17
  3
ACAD_PLOTSETTINGS
350
19
  3
ACAD_PLOTSTYLENAME
350
E
  3
ACAD_TABLESTYLE
350
444
  3
ACAD_VISUALSTYLE
350
2A
  0
DICTIONARY
  5
D
102
{ACAD_REACTORS
330
C
102
}
330
C
100
AcDbDictionary
281
     1
  0
DICTIONARY
  5
1A
102
{ACAD_REACTORS
330
C
102
}
330
C
100
AcDbDictionary
281
     1
  3
Layout1
350
1E
  3
Layout2
350
26
  3
Model
350
22
  0
DICTIONARY
  5
445
102
{ACAD_REACTORS
330
C
102
}
330
C
100
AcDbDictionary
281
     1
  0
DICTIONARY
  5
17
102
{ACAD_REACTORS
330
C
102
}
330
C
100
AcDbDictionary
281
     1
  3
Standard
350
18
  0
DICTIONARY
  5
19
102
{ACAD_REACTORS
330
C
102
}
330
C
100
AcDbDictionary
281
     1
  0
ACDBDICTIONARYWDFLT
  5
E
102
{ACAD_REACTORS
330
C
102
}
330
C
100
AcDbDictionary
281
     1
  3
Normal
350
F
100
AcDbDictionaryWithDefault
340
F
  0
DICTIONARY
  5
444
102
{ACAD_REACTORS
330
C
102
}
330
C
100
AcDbDictionary
281
     1
  0
DICTIONARY
  5
2A
102
{ACAD_REACTORS
330
C
102
}
330
C
100
AcDbDictionary
281
     1
  3
2dWireframe
350
2F
  3
3D Hidden
350
31
  3
3dWireframe
350
30
  3
Basic
350
32
  3
Brighten
350
36
  3
ColorChange
350
3A
  3
Conceptual
350
34
  3
Dim
350
35
  3
Facepattern
350
39
  3
Flat
350
2B
  3
FlatWithEdges
350
2C
  3
Gouraud
350
2D
  3
GouraudWithEdges
350
2E
  3
Linepattern
350
38
  3
Realistic
350
33
  3
Thicken
350
37
  0
LAYOUT
  5
1E
102
{ACAD_REACTORS
330
1A
102
}
330
1A
100
AcDbPlotSettings
  1

  2
none_device
  4

  6

 40
0.0
 41
0.0
 42
0.0
 43
0.0
 44
0.0
 45
0.0
 46
0.0
 47
0.0
 48
0.0
 49
0.0
140
0.0
141
0.0
142
1.0
143
1.0
 70
   688
 72
     0
 73
     0
 74
     5
  7

 75
    16
 76
     0
 77
     5
 78
   300
147
1.0
148
0.0
149
0.0
100
AcDbLayout
  1
Layout1
 70
     1
 71
     1
 10
0.0
 20
0.0
 11
420.0
 21
297.0
 12
0.0
 22
0.0
 32
0.0
 14
1.000000000000000E+20
 24
1.000000000000000E+20
 34
1.000000000000000E+20
 15
-1.000000000000000E+20
 25
-1.000000000000000E+20
 35
-1.000000000000000E+20
146
0.0
 13
0.0
 23
0.0
 33
0.0
 16
1.0
 26
0.0
 36
0.0
 17
0.0
 27
1.0
 37
0.0
 76
     0
330
1B
  0
LAYOUT
  5
26
102
{ACAD_REACTORS
330
1A
102
}
330
1A
100
AcDbPlotSettings
  1

  2
none_device
  4

  6

 40
0.0
 41
0.0
 42
0.0
 43
0.0
 44
0.0
 45
0.0
 46
0.0
 47
0.0
 48
0.0
 49
0.0
140
0.0
141
0.0
142
1.0
143
1.0
 70
   688
 72
     0
 73
     0
 74
     5
  7

 75
    16
 76
     0
 77
     5
 78
   300
147
1.0
148
0.0
149
0.0
100
AcDbLayout
  1
Layout2
 70
     1
 71
     2
 10
0.0
 20
0.0
 11
0.0
 21
0.0
 12
0.0
 22
0.0
 32
0.0
 14
0.0
 24
0.0
 34
0.0
 15
0.0
 25
0.0
 35
0.0
146
0.0
 13
0.0
 23
0.0
 33
0.0
 16
1.0
 26
0.0
 36
0.0
 17
0.0
 27
1.0
 37
0.0
 76
     0
330
23
  0
LAYOUT
  5
22
102
{ACAD_REACTORS
330
1A
102
}
330
1A
100
AcDbPlotSettings
  1

  2
none_device
  4

  6

 40
0.0
 41
0.0
 42
0.0
 43
0.0
 44
0.0
 45
0.0
 46
0.0
 47
0.0
 48
0.0
 49
0.0
140
0.0
141
0.0
142
1.0
143
1.0
 70
  1712
 72
     0
 73
     0
 74
     0
  7

 75
     0
 76
     0
 77
     5
 78
   300
147
1.0
148
0.0
149
0.0
100
AcDbLayout
  1
Model
 70
     1
 71
     0
 10
-1050.0
 20
-742.5
 11
1050.0
 21
742.5
 12
0.0
 22
0.0
 32
0.0
 14
-1050.0
 24
-742.5
 34
0.0
 15
1050.0
 25
742.5
 35
0.0
146
0.0
 13
0.0
 23
0.0
 33
0.0
 16
1.0
 26
0.0
 36
0.0
 17
0.0
 27
1.0
 37
0.0
 76
     0
330
1F
331
29
  0
MLINESTYLE
  5
18
102
{ACAD_REACTORS
330
17
102
}
330
17
100
AcDbMlineStyle
  2
Standard
 70
     0
  3

 62
   256
 51
90.0
 52
90.0
 71
     2
 49
0.5
 62
   256
  6
BYLAYER
 49
-0.5
 62
   256
  6
BYLAYER
  0
ACDBPLACEHOLDER
  5
F
102
{ACAD_REACTORS
330
E
102
}
330
E
  0
VISUALSTYLE
  5
2F
102
{ACAD_REACTORS
330
2A
102
}
330
2A
100
AcDbVisualStyle
  2
2dWireframe
 70
     4
 71
     0
 72
     2
 73
     0
 90
        0
 40
-0.6
 41
-30.0
 62
     5
 63
     7
421
 16777215
 74
     1
 91
        4
 64
     7
 65
   257
 75
     1
175
     1
 42
1.0
 92
        0
 66
   257
 43
1.0
 76
     1
 77
     6
 78
     2
 67
     7
 79
     5
170
     0
171
     0
290
     0
174
     0
 93
        1
 44
0.0
173
     0
291
     0
 45
0.0
1001
ACAD
1000
AcDbSavedByObjectVersion
1070
     0
  0
VISUALSTYLE
  5
31
102
{ACAD_REACTORS
330
2A
102
}
330
2A
100
AcDbVisualStyle
  2
3D Hidden
 70
     6
 71
     1
 72
     2
 73
     2
 90
        0
 40
-0.6
 41
-30.0
 62
     5
 63
     7
421
 16777215
 74
     2
 91
        2
 64
     7
 65
   257
 75
     2
175
     1
 42
40.0
 92
        0
 66
   257
 43
1.0
 76
     1
 77
     6
 78
     2
 67
     7
 79
     3
170
     0
171
     0
290
     0
174
     0
 93
        1
 44
0.0
173
     0
291
     0
 45
0.0
1001
ACAD
1000
AcDbSavedByObjectVersion
1070
     0
  0
VISUALSTYLE
  5
30
102
{ACAD_REACTORS
330
2A
102
}
330
2A
100
AcDbVisualStyle
  2
3dWireframe
 70
     5
 71
     0
 72
     2
 73
     0
 90
        0
 40
-0.6
 41
-30.0
 62
     5
 63
     7
421
 16777215
 74
     1
 91
        4
 64
     7
 65
   257
 75
     1
175
     1
 42
1.0
 92
        0
 66
   257
 43
1.0
 76
     1
 77
     6
 78
     2
 67
     7
 79
     5
170
     0
171
     0
290
     0
174
     0
 93
        1
 44
0.0
173
     0
291
     0
 45
0.0
1001
ACAD
1000
AcDbSavedByObjectVersion
1070
     0
  0
VISUALSTYLE
  5
32
102
{ACAD_REACTORS
330
2A
102
}
330
2A
100
AcDbVisualStyle
  2
Basic
 70
     7
 71
     1
 72
     0
 73
     1
 90
        0
 40
-0.6
 41
-30.0
 62
     5
 63
     7
421
 16777215
 74
     0
 91
        4
 64
     7
 65
   257
 75
     1
175
     1
 42
1.0
 92
        8
 66
     7
 43
1.0
 76
     1
 77
     6
 78
     2
 67
     7
 79
     5
170
     0
171
     0
290
     0
174
     0
 93
        1
 44
0.0
173
     0
291
     1
 45
0.0
1001
ACAD
1000
AcDbSavedByObjectVersion
1070
     0
  0
VISUALSTYLE
  5
36
102
{ACAD_REACTORS
330
2A
102
}
330
2A
100
AcDbVisualStyle
  2
Brighten
 70
    12
 71
     2
 72
     2
 73
     0
 90
        0
 40
-0.6
 41
-30.0
 62
     5
 63
     7
421
 16777215
 74
     1
 91
        4
 64
     7
 65
   257
 75
     1
175
     1
 42
1.0
 92
        8
 66
     7
 43
1.0
 76
     1
 77
     6
 78
     2
 67
     7
 79
     5
170
     0
171
     0
290
     0
174
     0
 93
        1
 44
50.0
173
     0
291
     1
 45
0.0
1001
ACAD
1000
AcDbSavedByObjectVersion
1070
     0
  0
VISUALSTYLE
  5
3A
102
{ACAD_REACTORS
330
2A
102
}
330
2A
100
AcDbVisualStyle
  2
ColorChange
 70
    16
 71
     2
 72
     2
 73
     3
 90
        0
 40
-0.6
 41
-30.0
 62
     5
 63
     8
421
  8421504
 74
     1
 91
        4
 64
     7
 65
   257
 75
     1
175
     1
 42
1.0
 92
        8
 66
     8
424
  8421504
 43
1.0
 76
     1
 77
     6
 78
     2
 67
     7
 79
     5
170
     0
171
     0
290
     0
174
     0
 93
        1
 44
0.0
173
     0
291
     1
 45
0.0
1001
ACAD
1000
AcDbSavedByObjectVersion
1070
     0
  0
VISUALSTYLE
  5
34
102
{ACAD_REACTORS
330
2A
102
}
330
2A
100
AcDbVisualStyle
  2
Conceptual
 70
     9
 71
     3
 72
     2
 73
     0
 90
        0
 40
-0.6
 41
-30.0
 62
     5
 63
     7
421
 16777215
 74
     2
 91
        2
 64
     7
 65
   257
 75
     1
175
     1
 42
40.0
 92
        8
 66
     7
 43
1.0
 76
     1
 77
     6
 78
     2
 67
     7
 79
     3
170
     0
171
     0
290
     0
174
     0
 93
        1
 44
0.0
173
     0
291
     0
 45
0.0
1001
ACAD
1000
AcDbSavedByObjectVersion
1070
     0
  0
VISUALSTYLE
  5
35
102
{ACAD_REACTORS
330
2A
102
}
330
2A
100
AcDbVisualStyle
  2
Dim
 70
    11
 71
     2
 72
     2
 73
     0
 90
        0
 40
-0.6
 41
-30.0
 62
     5
 63
     7
421
 16777215
 74
     1
 91
        4
 64
     7
 65
   257
 75
     1
175
     1
 42
1.0
 92
        8
 66
     7
 43
1.0
 76
     1
 77
     6
 78
     2
 67
     7
 79
     5
170
     0
171
     0
290
     0
174
     0
 93
        1
 44
-50.0
173
     0
291
     1
 45
0.0
1001
ACAD
1000
AcDbSavedByObjectVersion
1070
     0
  0
VISUALSTYLE
  5
39
102
{ACAD_REACTORS
330
2A
102
}
330
2A
100
AcDbVisualStyle
  2
Facepattern
 70
    15
 71
     2
 72
     2
 73
     0
 90
        0
 40
-0.6
 41
-30.0
 62
     5
 63
     7
421
 16777215
 74
     1
 91
        4
 64
     7
 65
   257
 75
     1
175
     1
 42
1.0
 92
        8
 66
     7
 43
1.0
 76
     1
 77
     6
 78
     2
 67
     7
 79
     5
170
     0
171
     0
290
     0
174
     0
 93
        1
 44
0.0
173
     0
291
     1
 45
0.0
1001
ACAD
1000
AcDbSavedByObjectVersion
1070
     0
  0
VISUALSTYLE
  5
2B
102
{ACAD_REACTORS
330
2A
102
}
330
2A
100
AcDbVisualStyle
  2
Flat
 70
     0
 71
     2
 72
     1
 73
     1
 90
        2
 40
-0.6
 41
30.0
 62
     5
 63
     7
421
 16777215
 74
     0
 91
        4
 64
     7
 65
   257
 75
     1
175
     1
 42
1.0
 92
        8
 66
     7
 43
1.0
 76
     1
 77
     6
 78
     2
 67
     7
 79
     5
170
     0
171
     0
290
     0
174
     0
 93
       13
 44
0.0
173
     0
291
     1
 45
0.0
1001
ACAD
1000
AcDbSavedByObjectVersion
1070
     0
  0
VISUALSTYLE
  5
2C
102
{ACAD_REACTORS
330
2A
102
}
330
2A
100
AcDbVisualStyle
  2
FlatWithEdges
 70
     1
 71
     2
 72
     1
 73
     1
 90
        2
 40
-0.6
 41
30.0
 62
     5
 63
     7
421
 16777215
 74
     1
 91
        4
 64
     7
 65
   257
 75
     1
175
     1
 42
1.0
 92
        0
 66
   257
 43
1.0
 76
     1
 77
     6
 78
     2
 67
     7
 79
     5
170
     0
171
     0
290
     0
174
     0
 93
       13
 44
0.0
173
     0
291
     1
 45
0.0
1001
ACAD
1000
AcDbSavedByObjectVersion
1070
     0
  0
VISUALSTYLE
  5
2D
102
{ACAD_REACTORS
330
2A
102
}
330
2A
100
AcDbVisualStyle
  2
Gouraud
 70
     2
 71
     2
 72
     2
 73
     1
 90
        2
 40
-0.6
 41
30.0
 62
     5
 63
     7
421
 16777215
 74
     0
 91
        4
 64
     7
 65
   257
 75
     1
175
     1
 42
1.0
 92
        0
 66
     7
 43
1.0
 76
     1
 77
     6
 78
     2
 67
     7
 79
     5
170
     0
171
     0
290
     0
174
     0
 93
       13
 44
0.0
173
     0
291
     1
 45
0.0
1001
ACAD
1000
AcDbSavedByObjectVersion
1070
     0
  0
VISUALSTYLE
  5
2E
102
{ACAD_REACTORS
330
2A
102
}
330
2A
100
AcDbVisualStyle
  2
GouraudWithEdges
 70
     3
 71
     2
 72
     2
 73
     1
 90
        2
 40
-0.6
 41
30.0
 62
     5
 63
     7
421
 16777215
 74
     1
 91
        4
 64
     7
 65
   257
 75
     1
175
     1
 42
1.0
 92
        0
 66
   257
 43
1.0
 76
     1
 77
     6
 78
     2
 67
     7
 79
     5
170
     0
171
     0
290
     0
174
     0
 93
       13
 44
0.0
173
     0
291
     1
 45
0.0
1001
ACAD
1000
AcDbSavedByObjectVersion
1070
     0
  0
VISUALSTYLE
  5
38
102
{ACAD_REACTORS
330
2A
102
}
330
2A
100
AcDbVisualStyle
  2
Linepattern
 70
    14
 71
     2
 72
     2
 73
     0
 90
        0
 40
-0.6
 41
-30.0
 62
     5
 63
     7
421
 16777215
 74
     1
 91
        4
 64
     7
 65
   257
 75
     7
175
     7
 42
1.0
 92
        8
 66
     7
 43
1.0
 76
     1
 77
     6
 78
     2
 67
     7
 79
     5
170
     0
171
     0
290
     0
174
     0
 93
        1
 44
0.0
173
     0
291
     1
 45
0.0
1001
ACAD
1000
AcDbSavedByObjectVersion
1070
     0
  0
VISUALSTYLE
  5
33
102
{ACAD_REACTORS
330
2A
102
}
330
2A
100
AcDbVisualStyle
  2
Realistic
 70
     8
 71
     2
 72
     2
 73
     0
 90
        0
 40
-0.6
 41
-30.0
 62
     5
 63
     7
421
 16777215
 74
     1
 91
        0
 64
     7
 65
   257
 75
     1
175
     1
 42
1.0
 92
        8
 66
     8
424
  7895160
 43
1.0
 76
     1
 77
     6
 78
     2
 67
     7
 79
     5
170
     0
171
     0
290
     0
174
     0
 93
       13
 44
0.0
173
     0
291
     0
 45
0.0
1001
ACAD
1000
AcDbSavedByObjectVersion
1070
     0
  0
VISUALSTYLE
  5
37
102
{ACAD_REACTORS
330
2A
102
}
330
2A
100
AcDbVisualStyle
  2
Thicken
 70
    13
 71
     2
 72
     2
 73
     0
 90
        0
 40
-0.6
 41
-30.0
 62
     5
 63
     7
421
 16777215
 74
     1
 91
        4
 64
     7
 65
   257
 75
     1
175
     1
 42
1.0
 92
       12
 66
     7
 43
1.0
 76
     1
 77
     6
 78
     2
 67
     7
 79
     5
170
     0
171
     0
290
     0
174
     0
 93
        1
 44
0.0
173
     0
291
     1
 45
0.0
1001
ACAD
1000
AcDbSavedByObjectVersion
1070
     0
  0
ENDSEC
  0
EOF
