  0
SECTION
  2
HEADER
  9
$ACADVER
  1
AC1018
  9
$ACADMAINTVER
 70
     0
  9
$DWGCODEPAGE
  3
ANSI_932
  9
$INSBASE
 10
0.0
 20
0.0
 30
0.0
  9
$EXTMIN
 10
-2100.0
 20
-1485.0
 30
0.0
  9
$EXTMAX
 10
2100.0
 20
1485.0
 30
0.0
  9
$LIMMIN
 10
-2100.0
 20
-1485.0
  9
$LIMMAX
 10
2100.0
 20
1485.0
  9
$ORTHOMODE
 70
     0
  9
$REGENMODE
 70
     1
  9
$FILLMODE
 70
     1
  9
$QTEXTMODE
 70
     0
  9
$MIRRTEXT
 70
     1
  9
$LTSCALE
 40
10.0
  9
$ATTMODE
 70
     1
  9
$TEXTSIZE
 40
2.5
  9
$TRACEWID
 40
1.0
  9
$TEXTSTYLE
  7
Standard
  9
$CLAYER
  8
0
  9
$CELTYPE
  6
ByLayer
  9
$CECOLOR
 62
   256
  9
$CELTSCALE
 40
1.0
  9
$DISPSILH
 70
     0
  9
$DIMSCALE
 40
1.0
  9
$DIMASZ
 40
2.5
  9
$DIMEXO
 40
0.625
  9
$DIMDLI
 40
3.75
  9
$DIMRND
 40
0.0
  9
$DIMDLE
 40
0.0
  9
$DIMEXE
 40
1.25
  9
$DIMTP
 40
0.0
  9
$DIMTM
 40
0.0
  9
$DIMTXT
 40
2.5
  9
$DIMCEN
 40
2.5
  9
$DIMTSZ
 40
0.0
  9
$DIMTOL
 70
     0
  9
$DIMLIM
 70
     0
  9
$DIMTIH
 70
     0
  9
$DIMTOH
 70
     0
  9
$DIMSE1
 70
     0
  9
$DIMSE2
 70
     0
  9
$DIMTAD
 70
     1
  9
$DIMZIN
 70
     8
  9
$DIMBLK
  1

  9
$DIMASO
 70
     1
  9
$DIMSHO
 70
     1
  9
$DIMPOST
  1

  9
$DIMAPOST
  1

  9
$DIMALT
 70
     0
  9
$DIMALTD
 70
     3
  9
$DIMALTF
 40
0.03937007874016
  9
$DIMLFAC
 40
1.0
  9
$DIMTOFL
 70
     1
  9
$DIMTVP
 40
0.0
  9
$DIMTIX
 70
     0
  9
$DIMSOXD
 70
     0
  9
$DIMSAH
 70
     0
  9
$DIMBLK1
  1

  9
$DIMBLK2
  1

  9
$DIMSTYLE
  2
ISO-25
  9
$DIMCLRD
 70
     0
  9
$DIMCLRE
 70
     0
  9
$DIMCLRT
 70
     0
  9
$DIMTFAC
 40
1.0
  9
$DIMGAP
 40
0.625
  9
$DIMJUST
 70
     0
  9
$DIMSD1
 70
     0
  9
$DIMSD2
 70
     0
  9
$DIMTOLJ
 70
     0
  9
$DIMTZIN
 70
     8
  9
$DIMALTZ
 70
     0
  9
$DIMALTTZ
 70
     0
  9
$DIMUPT
 70
     0
  9
$DIMDEC
 70
     2
  9
$DIMTDEC
 70
     2
  9
$DIMALTU
 70
     2
  9
$DIMALTTD
 70
     3
  9
$DIMTXSTY
  7
Standard
  9
$DIMAUNIT
 70
     0
  9
$DIMADEC
 70
     0
  9
$DIMALTRND
 40
0.0
  9
$DIMAZIN
 70
     0
  9
$DIMDSEP
 70
    44
  9
$DIMATFIT
 70
     3
  9
$DIMFRAC
 70
     0
  9
$DIMLDRBLK
  1

  9
$DIMLUNIT
 70
     2
  9
$DIMLWD
 70
    -2
  9
$DIMLWE
 70
    -2
  9
$DIMTMOVE
 70
     0
  9
$LUNITS
 70
     2
  9
$LUPREC
 70
     4
  9
$SKETCHINC
 40
1.0
  9
$FILLETRAD
 40
10.0
  9
$AUNITS
 70
     0
  9
$AUPREC
 70
     0
  9
$MENU
  1
.
  9
$ELEVATION
 40
0.0
  9
$PELEVATION
 40
0.0
  9
$THICKNESS
 40
0.0
  9
$LIMCHECK
 70
     0
  9
$CHAMFERA
 40
10.0
  9
$CHAMFERB
 40
10.0
  9
$CHAMFERC
 40
20.0
  9
$CHAMFERD
 40
0.0
  9
$SKPOLY
 70
     0
  9
$TDCREATE
 40
2456498.823477975
  9
$TDUCREATE
 40
2456498.448477975
  9
$TDUPDATE
 40
2456498.823477986
  9
$TDUUPDATE
 40
2456498.448477986
  9
$TDINDWG
 40
0.0000000116
  9
$TDUSRTIMER
 40
0.0000000116
  9
$USRTIMER
 70
     1
  9
$ANGBASE
 50
0.0
  9
$ANGDIR
 70
     0
  9
$PDMODE
 70
     0
  9
$PDSIZE
 40
0.0
  9
$PLINEWID
 40
0.0
  9
$SPLFRAME
 70
     0
  9
$SPLINETYPE
 70
     6
  9
$SPLINESEGS
 70
     8
  9
$HANDSEED
  5
442
  9
$SURFTAB1
 70
     6
  9
$SURFTAB2
 70
     6
  9
$SURFTYPE
 70
     6
  9
$SURFU
 70
     6
  9
$SURFV
 70
     6
  9
$UCSBASE
  2

  9
$UCSNAME
  2

  9
$UCSORG
 10
0.0
 20
0.0
 30
0.0
  9
$UCSXDIR
 10
1.0
 20
0.0
 30
0.0
  9
$UCSYDIR
 10
0.0
 20
1.0
 30
0.0
  9
$UCSORTHOREF
  2

  9
$UCSORTHOVIEW
 70
     0
  9
$UCSORGTOP
 10
0.0
 20
0.0
 30
0.0
  9
$UCSORGBOTTOM
 10
0.0
 20
0.0
 30
0.0
  9
$UCSORGLEFT
 10
0.0
 20
0.0
 30
0.0
  9
$UCSORGRIGHT
 10
0.0
 20
0.0
 30
0.0
  9
$UCSORGFRONT
 10
0.0
 20
0.0
 30
0.0
  9
$UCSORGBACK
 10
0.0
 20
0.0
 30
0.0
  9
$PUCSBASE
  2

  9
$PUCSNAME
  2

  9
$PUCSORG
 10
0.0
 20
0.0
 30
0.0
  9
$PUCSXDIR
 10
1.0
 20
0.0
 30
0.0
  9
$PUCSYDIR
 10
0.0
 20
1.0
 30
0.0
  9
$PUCSORTHOREF
  2

  9
$PUCSORTHOVIEW
 70
     0
  9
$PUCSORGTOP
 10
0.0
 20
0.0
 30
0.0
  9
$PUCSORGBOTTOM
 10
0.0
 20
0.0
 30
0.0
  9
$PUCSORGLEFT
 10
0.0
 20
0.0
 30
0.0
  9
$PUCSORGRIGHT
 10
0.0
 20
0.0
 30
0.0
  9
$PUCSORGFRONT
 10
0.0
 20
0.0
 30
0.0
  9
$PUCSORGBACK
 10
0.0
 20
0.0
 30
0.0
  9
$USERI1
 70
     0
  9
$USERI2
 70
     0
  9
$USERI3
 70
     0
  9
$USERI4
 70
     0
  9
$USERI5
 70
     0
  9
$USERR1
 40
0.0
  9
$USERR2
 40
0.0
  9
$USERR3
 40
0.0
  9
$USERR4
 40
0.0
  9
$USERR5
 40
0.0
  9
$WORLDVIEW
 70
     1
  9
$SHADEDGE
 70
     3
  9
$SHADEDIF
 70
    70
  9
$TILEMODE
 70
     1
  9
$MAXACTVP
 70
    64
  9
$PINSBASE
 10
0.0
 20
0.0
 30
0.0
  9
$PLIMCHECK
 70
     0
  9
$PEXTMIN
 10
1.000000000000000E+20
 20
1.000000000000000E+20
 30
1.000000000000000E+20
  9
$PEXTMAX
 10
-1.000000000000000E+20
 20
-1.000000000000000E+20
 30
-1.000000000000000E+20
  9
$PLIMMIN
 10
0.0
 20
0.0
  9
$PLIMMAX
 10
420.0
 20
297.0
  9
$UNITMODE
 70
     0
  9
$VISRETAIN
 70
     1
  9
$PLINEGEN
 70
     0
  9
$PSLTSCALE
 70
     1
  9
$TREEDEPTH
 70
  3020
  9
$CMLSTYLE
  2
Standard
  9
$CMLJUST
 70
     0
  9
$CMLSCALE
 40
20.0
  9
$PROXYGRAPHICS
 70
     1
  9
$MEASUREMENT
 70
     1
  9
$CELWEIGHT
370
    -1
  9
$ENDCAPS
280
     0
  9
$JOINSTYLE
280
     0
  9
$LWDISPLAY
290
     0
  9
$INSUNITS
 70
     4
  9
$HYPERLINKBASE
  1

  9
$STYLESHEET
  1

  9
$XEDIT
290
     1
  9
$CEPSNTYPE
380
     0
  9
$PSTYLEMODE
290
     1
  9
$FINGERPRINTGUID
  2
{3434321D-F627-4011-888A-2317A74E9C45}
  9
$VERSIONGUID
  2
{FAEB1C32-E019-11D5-929B-00C0DF256EC4}
  9
$EXTNAMES
290
     1
  9
$PSVPSCALE
 40
0.0
  9
$OLESTARTUP
290
     0
  9
$SORTENTS
280
   127
  9
$INDEXCTL
280
     0
  9
$HIDETEXT
280
     1
  9
$XCLIPFRAME
290
     0
  9
$HALOGAP
280
     0
  9
$OBSCOLOR
 70
   257
  9
$OBSLTYPE
280
     0
  9
$INTERSECTIONDISPLAY
280
     0
  9
$INTERSECTIONCOLOR
 70
   257
  9
$DIMASSOC
280
     2
  9
$PROJECTNAME
  1

  0
ENDSEC
  0
SECTION
  2
CLASSES
  0
CLASS
  1
ACDBDICTIONARYWDFLT
  2
AcDbDictionaryWithDefault
  3
ObjectDBX Classes
 90
        0
 91
        4
280
     0
281
     0
  0
CLASS
  1
VISUALSTYLE
  2
AcDbVisualStyle
  3
ObjectDBX Classes
 90
     4095
 91
        4
280
     0
281
     0
  0
ENDSEC
  0
SECTION
  2
TABLES
  0
TABLE
  2
VPORT
  5
8
330
0
100
AcDbSymbolTable
 70
     1
  0
VPORT
  5
29
330
8
100
AcDbSymbolTableRecord
100
AcDbViewportTableRecord
  2
*Active
 70
     0
 10
0.0
 20
0.0
 11
1.0
 21
1.0
 12
0.0
 22
0.0
 13
0.0
 23
0.0
 14
10.0
 24
10.0
 15
10.0
 25
10.0
 16
0.0
 26
0.0
 36
1.0
 17
0.0
 27
0.0
 37
0.0
 40
3267.0
 41
1.414141414141414
 42
50.0
 43
0.0
 44
0.0
 50
0.0
 51
0.0
 71
     0
 72
 10000
 73
     1
 74
     3
 75
     0
 76
     0
 77
     0
 78
     0
281
     0
 65
     1
110
0.0
120
0.0
130
0.0
111
1.0
121
0.0
131
0.0
112
0.0
122
1.0
132
0.0
 79
     0
146
0.0
  0
ENDTAB
  0
TABLE
  2
LTYPE
  5
5
330
0
100
AcDbSymbolTable
 70
     3
  0
LTYPE
  5
14
330
5
100
AcDbSymbolTableRecord
100
AcDbLinetypeTableRecord
  2
ByBlock
 70
     0
  3

 72
    65
 73
     0
 40
0.0
  0
LTYPE
  5
15
330
5
100
AcDbSymbolTableRecord
100
AcDbLinetypeTableRecord
  2
ByLayer
 70
     0
  3

 72
    65
 73
     0
 40
0.0
  0
LTYPE
  5
16
330
5
100
AcDbSymbolTableRecord
100
AcDbLinetypeTableRecord
  2
Continuous
 70
     0
  3
Solid line
 72
    65
 73
     0
 40
0.0
  0
LTYPE
  5
3C
330
5
100
AcDbSymbolTableRecord
100
AcDbLinetypeTableRecord
  2
JWW_CENTER1
 70
     0
  3
-----  --  ----------  --  -----
 72
    65
 73
     4
 40
6.773333333333333
 49
4.233333333333333
 74
     0
 49
-0.8466666666666667
 74
     0
 49
0.8466666666666667
 74
     0
 49
-0.8466666666666667
 74
     0
  0
LTYPE
  5
3D
330
5
100
AcDbSymbolTableRecord
100
AcDbLinetypeTableRecord
  2
JWW_PHANTOM1
 70
     0
  3
----  -  -  --------  -  -  ----
 72
    65
 73
     6
 40
6.773333333333333
 49
3.386666666666667
 74
     0
 49
-0.8466666666666667
 74
     0
 49
0.4233333333333333
 74
     0
 49
-0.8466666666666667
 74
     0
 49
0.4233333333333333
 74
     0
 49
-0.8466666666666667
 74
     0
  0
ENDTAB
  0
TABLE
  2
LAYER
  5
2
330
0
100
AcDbSymbolTable
 70
     8
  0
LAYER
  5
10
330
2
100
AcDbSymbolTableRecord
100
AcDbLayerTableRecord
  2
0
 70
     0
 62
     7
  6
Continuous
370
    -3
390
F
  0
LAYER
  5
3E
330
2
100
AcDbSymbolTableRecord
100
AcDbLayerTableRecord
  2
0-5_文字
 70
     0
 62
     7
  6
Continuous
370
    -3
390
F
  0
LAYER
  5
3F
330
2
100
AcDbSymbolTableRecord
100
AcDbLayerTableRecord
  2
0-0_通り芯
 70
     0
 62
     7
  6
Continuous
370
    -3
390
F
  0
LAYER
  5
40
330
2
100
AcDbSymbolTableRecord
100
AcDbLayerTableRecord
  2
0-2_本体（蓋）
 70
     0
 62
     7
  6
Continuous
370
    -3
390
F
  0
LAYER
  5
41
330
2
100
AcDbSymbolTableRecord
100
AcDbLayerTableRecord
  2
0-4_寸法
 70
     0
 62
     7
  6
Continuous
370
    -3
390
F
  0
LAYER
  5
42
330
2
100
AcDbSymbolTableRecord
100
AcDbLayerTableRecord
  2
F-3ﾚｲﾔ
 70
     0
 62
     7
  6
Continuous
370
    -3
390
F
  0
LAYER
  5
43
330
2
100
AcDbSymbolTableRecord
100
AcDbLayerTableRecord
  2
0-3_受枠
 70
     0
 62
     7
  6
Continuous
370
    -3
390
F
  0
LAYER
  5
44
330
2
100
AcDbSymbolTableRecord
100
AcDbLayerTableRecord
  2
0-A
 70
     0
 62
     7
  6
Continuous
370
    -3
390
F
  0
ENDTAB
  0
TABLE
  2
STYLE
  5
3
330
0
100
AcDbSymbolTable
 70
     2
  0
STYLE
  5
11
330
3
100
AcDbSymbolTableRecord
100
AcDbTextStyleTableRecord
  2
Standard
 70
     0
 40
0.0
 41
1.0
 50
0.0
 71
     0
 42
2.5
  3
txt
  4

1001
ACAD
1000

1071
        0
  0
STYLE
  5
3B
330
3
100
AcDbSymbolTableRecord
100
AcDbTextStyleTableRecord
  2
ＭＳ ゴシック
 70
     0
 40
1.0
 41
1.0
 50
0.0
 71
     0
 42
10.0
  3

  4

1001
ACAD
1000
MS Gothic
1071
    32817
  0
ENDTAB
  0
TABLE
  2
VIEW
  5
6
330
0
100
AcDbSymbolTable
 70
     0
  0
ENDTAB
  0
TABLE
  2
UCS
  5
7
330
0
100
AcDbSymbolTable
 70
     0
  0
ENDTAB
  0
TABLE
  2
APPID
  5
9
330
0
100
AcDbSymbolTable
 70
     1
  0
APPID
  5
12
330
9
100
AcDbSymbolTableRecord
100
AcDbRegAppTableRecord
  2
ACAD
 70
     0
  0
ENDTAB
  0
TABLE
  2
DIMSTYLE
  5
A
330
0
100
AcDbSymbolTable
 70
     1
100
AcDbDimStyleTable
  0
DIMSTYLE
105
27
330
A
100
AcDbSymbolTableRecord
100
AcDbDimStyleTableRecord
  2
ISO-25
 70
     0
 41
2.5
 42
0.625
 43
3.75
 44
1.25
 73
     0
 74
     0
 77
     1
 78
     8
140
2.5
141
2.5
143
0.03937007874016
147
0.625
171
     3
172
     1
271
     2
272
     2
274
     3
278
    44
283
     0
284
     8
340
11
  0
ENDTAB
  0
TABLE
  2
BLOCK_RECORD
  5
1
330
0
100
AcDbSymbolTable
 70
     1
  0
BLOCK_RECORD
  5
1F
330
1
100
AcDbSymbolTableRecord
100
AcDbBlockTableRecord
  2
*Model_Space
340
22
  0
BLOCK_RECORD
  5
1B
330
1
100
AcDbSymbolTableRecord
100
AcDbBlockTableRecord
  2
*Paper_Space
340
1E
  0
BLOCK_RECORD
  5
23
330
1
100
AcDbSymbolTableRecord
100
AcDbBlockTableRecord
  2
*Paper_Space0
340
26
  0
ENDTAB
  0
ENDSEC
  0
SECTION
  2
BLOCKS
  0
BLOCK
  5
20
330
1F
100
AcDbEntity
  8
0
100
AcDbBlockBegin
  2
*Model_Space
 70
     0
 10
0.0
 20
0.0
 30
0.0
  3
*Model_Space
  1

  0
ENDBLK
  5
21
330
1F
100
AcDbEntity
  8
0
100
AcDbBlockEnd
  0
BLOCK
  5
1C
330
1B
100
AcDbEntity
 67
     1
  8
0
100
AcDbBlockBegin
  2
*Paper_Space
 70
     0
 10
0.0
 20
0.0
 30
0.0
  3
*Paper_Space
  1

  0
ENDBLK
  5
1D
330
1B
100
AcDbEntity
 67
     1
  8
0
100
AcDbBlockEnd
  0
BLOCK
  5
24
330
23
100
AcDbEntity
  8
0
100
AcDbBlockBegin
  2
*Paper_Space0
 70
     0
 10
0.0
 20
0.0
 30
0.0
  3
*Paper_Space0
  1

  0
ENDBLK
  5
25
330
23
100
AcDbEntity
  8
0
100
AcDbBlockEnd
  0
ENDSEC
  0
SECTION
  2
ENTITIES
  0
TEXT
  5
45
330
1F
100
AcDbEntity
  8
0-5_文字
  6
Continuous
 62
     7
370
    13
100
AcDbText
 10
1010.836231528382
 20
-893.3919993919719
 30
0.0
 40
22.86
  1
仕様
 41
1.083333333333333
  7
ＭＳ ゴシック
100
AcDbText
  0
TEXT
  5
46
330
1F
100
AcDbEntity
  8
0-5_文字
  6
Continuous
 62
     7
370
    13
100
AcDbText
 10
1010.836305760329
 20
-1050.891993205976
 30
0.0
 40
22.86
  1
接触圧子：２００×５００ｍｍ
 41
1.154761904761905
  7
ＭＳ ゴシック
100
AcDbText
  0
TEXT
  5
47
330
1F
100
AcDbEntity
  8
0-5_文字
  6
Continuous
 62
     7
370
    13
100
AcDbText
 10
1010.83626452036
 20
-945.8919870199807
 30
0.0
 40
22.86
  1
適用荷重：Ｔ－１４
 41
1.148148148148148
  7
ＭＳ ゴシック
100
AcDbText
  0
TEXT
  5
48
330
1F
100
AcDbEntity
  8
0-5_文字
  6
Continuous
 62
     7
370
    13
100
AcDbText
 10
1008.232683458398
 20
-998.3919746479896
 30
0.0
 40
22.86
  1
破壊荷重：３０８ｋＮ｛３１，４００ｋＮ｝以上
 41
1.159090909090909
  7
ＭＳ ゴシック
100
AcDbText
  0
LINE
  5
49
330
1F
100
AcDbEntity
  8
0-0_通り芯
  6
Continuous
 62
     3
370
    13
100
AcDbLine
 10
1300.48357777355
 20
114.6824178357049
 30
0.0
 11
1300.48357777355
 21
750.2440979850927
 31
0.0
  0
LINE
  5
4A
330
1F
100
AcDbEntity
  8
0-0_通り芯
  6
Continuous
 62
     3
370
    13
100
AcDbLine
 10
-1745.553590987007
 20
-20.48430711678648
 30
0.0
 11
-1745.553590987007
 21
779.5154866833615
 31
0.0
  0
LINE
  5
4B
330
1F
100
AcDbEntity
  8
0-0_通り芯
  6
Continuous
 62
     3
370
    13
100
AcDbLine
 10
-1745.553590987007
 20
779.5154866833615
 30
0.0
 11
244.4462935410755
 21
779.5154866833615
 31
0.0
  0
LINE
  5
4C
330
1F
100
AcDbEntity
  8
0-0_通り芯
  6
Continuous
 62
     3
370
    13
100
AcDbLine
 10
-816.0536916125352
 20
753.5154998801518
 30
0.0
 11
-785.0536883133375
 21
753.5154998801518
 31
0.0
  0
LINE
  5
4D
330
1F
100
AcDbEntity
  8
0-0_通り芯
  6
Continuous
 62
     3
370
    13
100
AcDbLine
 10
-816.0536916125352
 20
487.5157110288005
 30
0.0
 11
-785.0536883133375
 21
487.5157110288005
 31
0.0
  0
LINE
  5
4E
330
1F
100
AcDbEntity
  8
0-0_通り芯
  6
Continuous
 62
     3
370
    13
100
AcDbLine
 10
-816.0536916125352
 20
511.5157654655615
 30
0.0
 11
-785.0536883133375
 21
511.5157654655615
 31
0.0
  0
LINE
  5
4F
330
1F
100
AcDbEntity
  8
0-0_通り芯
  6
Continuous
 62
     3
370
    13
100
AcDbLine
 10
-777.0537114077208
 20
279.5156928832135
 30
0.0
 11
-777.0537114077208
 21
479.5157341231838
 31
0.0
  0
LINE
  5
50
330
1F
100
AcDbEntity
  8
0-0_通り芯
  6
Continuous
 62
     3
370
    13
100
AcDbLine
 10
-824.0536685181519
 20
279.5156928832135
 30
0.0
 11
-824.0536685181519
 21
479.5157341231838
 31
0.0
  0
LINE
  5
51
330
1F
100
AcDbEntity
  8
0-0_通り芯
  6
Continuous
 62
     3
370
    13
100
AcDbLine
 10
-824.0536685181519
 20
519.5157423711781
 30
0.0
 11
-824.0536685181519
 21
745.5155229745354
 31
0.0
  0
LINE
  5
52
330
1F
100
AcDbEntity
  8
0-0_通り芯
  6
Continuous
 62
     3
370
    13
100
AcDbLine
 10
-777.0537114077208
 20
519.5157423711781
 30
0.0
 11
-777.0537114077208
 21
745.5155229745354
 31
0.0
  0
LINE
  5
53
330
1F
100
AcDbEntity
  8
0-0_通り芯
  6
Continuous
 62
     3
370
    13
100
AcDbLine
 10
-848.0535992350013
 20
519.5157423711781
 30
0.0
 11
-848.0535992350013
 21
745.5155229745354
 31
0.0
  0
LINE
  5
54
330
1F
100
AcDbEntity
  8
0-0_通り芯
  6
Continuous
 62
     3
370
    13
100
AcDbLine
 10
-895.0536800653435
 20
519.5157423711781
 30
0.0
 11
-895.0536800653435
 21
745.5155229745354
 31
0.0
  0
LINE
  5
55
330
1F
100
AcDbEntity
  8
0-0_通り芯
  6
Continuous
 62
     3
370
    13
100
AcDbLine
 10
-895.0536800653435
 20
279.5156928832135
 30
0.0
 11
-895.0536800653435
 21
479.5157341231838
 31
0.0
  0
LINE
  5
56
330
1F
100
AcDbEntity
  8
0-0_通り芯
  6
Continuous
 62
     3
370
    13
100
AcDbLine
 10
-848.0535992350013
 20
279.5156928832135
 30
0.0
 11
-848.0535992350013
 21
479.5157341231838
 31
0.0
  0
LINE
  5
57
330
1F
100
AcDbEntity
  8
0-0_通り芯
  6
Continuous
 62
     3
370
    13
100
AcDbLine
 10
-887.0535794398155
 20
511.5157654655615
 30
0.0
 11
-856.053576140618
 21
511.5157654655615
 31
0.0
  0
LINE
  5
58
330
1F
100
AcDbEntity
  8
0-0_通り芯
  6
Continuous
 62
     3
370
    13
100
AcDbLine
 10
-887.0535794398155
 20
487.5157110288005
 30
0.0
 11
-856.053576140618
 21
487.5157110288005
 31
0.0
  0
LINE
  5
59
330
1F
100
AcDbEntity
  8
0-0_通り芯
  6
Continuous
 62
     3
370
    13
100
AcDbLine
 10
-887.0535794398155
 20
753.5154998801518
 30
0.0
 11
-856.053576140618
 21
753.5154998801518
 31
0.0
  0
LINE
  5
5A
330
1F
100
AcDbEntity
  8
0-0_通り芯
  6
Continuous
 62
     3
370
    13
100
AcDbLine
 10
-958.0537147069186
 20
753.5154998801518
 30
0.0
 11
-927.053711407721
 21
753.5154998801518
 31
0.0
  0
LINE
  5
5B
330
1F
100
AcDbEntity
  8
0-0_通り芯
  6
Continuous
 62
     3
370
    13
100
AcDbLine
 10
-958.0537147069186
 20
487.5157110288005
 30
0.0
 11
-927.053711407721
 21
487.5157110288005
 31
0.0
  0
LINE
  5
5C
330
1F
100
AcDbEntity
  8
0-0_通り芯
  6
Continuous
 62
     3
370
    13
100
AcDbLine
 10
-958.0537147069186
 20
511.5157654655615
 30
0.0
 11
-927.053711407721
 21
511.5157654655615
 31
0.0
  0
LINE
  5
5D
330
1F
100
AcDbEntity
  8
0-0_通り芯
  6
Continuous
 62
     3
370
    13
100
AcDbLine
 10
-919.0537345021045
 20
279.5156928832135
 30
0.0
 11
-919.0537345021045
 21
479.5157341231838
 31
0.0
  0
LINE
  5
5E
330
1F
100
AcDbEntity
  8
0-0_通り芯
  6
Continuous
 62
     3
370
    13
100
AcDbLine
 10
-966.0536916125353
 20
279.5156928832135
 30
0.0
 11
-966.0536916125353
 21
479.5157341231838
 31
0.0
  0
LINE
  5
5F
330
1F
100
AcDbEntity
  8
0-0_通り芯
  6
Continuous
 62
     3
370
    13
100
AcDbLine
 10
-966.0536916125353
 20
519.5157423711781
 30
0.0
 11
-966.0536916125353
 21
745.5155229745354
 31
0.0
  0
LINE
  5
60
330
1F
100
AcDbEntity
  8
0-0_通り芯
  6
Continuous
 62
     3
370
    13
100
AcDbLine
 10
-919.0537345021045
 20
519.5157423711781
 30
0.0
 11
-919.0537345021045
 21
745.5155229745354
 31
0.0
  0
LINE
  5
61
330
1F
100
AcDbEntity
  8
0-0_通り芯
  6
Continuous
 62
     3
370
    13
100
AcDbLine
 10
-1019.053693262134
 20
519.5157423711781
 30
0.0
 11
-1019.053693262134
 21
745.5155229745354
 31
0.0
  0
LINE
  5
62
330
1F
100
AcDbEntity
  8
0-0_通り芯
  6
Continuous
 62
     3
370
    13
100
AcDbLine
 10
-1066.053650372565
 20
519.5157423711781
 30
0.0
 11
-1066.053650372565
 21
745.5155229745354
 31
0.0
  0
LINE
  5
63
330
1F
100
AcDbEntity
  8
0-0_通り芯
  6
Continuous
 62
     3
370
    13
100
AcDbLine
 10
-1066.053650372565
 20
279.5156928832135
 30
0.0
 11
-1066.053650372565
 21
479.5157341231838
 31
0.0
  0
LINE
  5
64
330
1F
100
AcDbEntity
  8
0-0_通り芯
  6
Continuous
 62
     3
370
    13
100
AcDbLine
 10
-1019.053693262134
 20
279.5156928832135
 30
0.0
 11
-1019.053693262134
 21
479.5157341231838
 31
0.0
  0
LINE
  5
65
330
1F
100
AcDbEntity
  8
0-0_通り芯
  6
Continuous
 62
     3
370
    13
100
AcDbLine
 10
-1058.053673466948
 20
511.5157654655615
 30
0.0
 11
-1027.053670167751
 21
511.5157654655615
 31
0.0
  0
LINE
  5
66
330
1F
100
AcDbEntity
  8
0-0_通り芯
  6
Continuous
 62
     3
370
    13
100
AcDbLine
 10
-1058.053673466948
 20
487.5157110288005
 30
0.0
 11
-1027.053670167751
 21
487.5157110288005
 31
0.0
  0
LINE
  5
67
330
1F
100
AcDbEntity
  8
0-0_通り芯
  6
Continuous
 62
     3
370
    13
100
AcDbLine
 10
-1058.053673466948
 20
753.5154998801518
 30
0.0
 11
-1027.053670167751
 21
753.5154998801518
 31
0.0
  0
LINE
  5
68
330
1F
100
AcDbEntity
  8
0-0_通り芯
  6
Continuous
 62
     3
370
    13
100
AcDbLine
 10
-1129.05368501414
 20
753.5154998801518
 30
0.0
 11
-1098.053681714942
 21
753.5154998801518
 31
0.0
  0
LINE
  5
69
330
1F
100
AcDbEntity
  8
0-0_通り芯
  6
Continuous
 62
     3
370
    13
100
AcDbLine
 10
-1129.05368501414
 20
487.5157110288005
 30
0.0
 11
-1098.053681714942
 21
487.5157110288005
 31
0.0
  0
LINE
  5
6A
330
1F
100
AcDbEntity
  8
0-0_通り芯
  6
Continuous
 62
     3
370
    13
100
AcDbLine
 10
-1129.05368501414
 20
511.5157654655615
 30
0.0
 11
-1098.053681714942
 21
511.5157654655615
 31
0.0
  0
LINE
  5
6B
330
1F
100
AcDbEntity
  8
0-0_通り芯
  6
Continuous
 62
     3
370
    13
100
AcDbLine
 10
-1090.053704809326
 20
279.5156928832135
 30
0.0
 11
-1090.053704809326
 21
479.5157341231838
 31
0.0
  0
LINE
  5
6C
330
1F
100
AcDbEntity
  8
0-0_通り芯
  6
Continuous
 62
     3
370
    13
100
AcDbLine
 10
-1137.053661919756
 20
279.5156928832135
 30
0.0
 11
-1137.053661919756
 21
479.5157341231838
 31
0.0
  0
LINE
  5
6D
330
1F
100
AcDbEntity
  8
0-0_通り芯
  6
Continuous
 62
     3
370
    13
100
AcDbLine
 10
-1137.053661919756
 20
519.5157423711781
 30
0.0
 11
-1137.053661919756
 21
745.5155229745354
 31
0.0
  0
LINE
  5
6E
330
1F
100
AcDbEntity
  8
0-0_通り芯
  6
Continuous
 62
     3
370
    13
100
AcDbLine
 10
-1090.053704809326
 20
519.5157423711781
 30
0.0
 11
-1090.053704809326
 21
745.5155229745354
 31
0.0
  0
LINE
  5
6F
330
1F
100
AcDbEntity
  8
0-0_通り芯
  6
Continuous
 62
     3
370
    13
100
AcDbLine
 10
-1161.053592636606
 20
519.5157423711781
 30
0.0
 11
-1161.053592636606
 21
745.5155229745354
 31
0.0
  0
LINE
  5
70
330
1F
100
AcDbEntity
  8
0-0_通り芯
  6
Continuous
 62
     3
370
    13
100
AcDbLine
 10
-1208.053673466948
 20
519.5157423711781
 30
0.0
 11
-1208.053673466948
 21
745.5155229745354
 31
0.0
  0
LINE
  5
71
330
1F
100
AcDbEntity
  8
0-0_通り芯
  6
Continuous
 62
     3
370
    13
100
AcDbLine
 10
-1208.053673466948
 20
279.5156928832135
 30
0.0
 11
-1208.053673466948
 21
479.5157341231838
 31
0.0
  0
LINE
  5
72
330
1F
100
AcDbEntity
  8
0-0_通り芯
  6
Continuous
 62
     3
370
    13
100
AcDbLine
 10
-1161.053592636606
 20
279.5156928832135
 30
0.0
 11
-1161.053592636606
 21
479.5157341231838
 31
0.0
  0
LINE
  5
73
330
1F
100
AcDbEntity
  8
0-0_通り芯
  6
Continuous
 62
     3
370
    13
100
AcDbLine
 10
-1200.05357284142
 20
511.5157654655615
 30
0.0
 11
-1169.053569542223
 21
511.5157654655615
 31
0.0
  0
LINE
  5
74
330
1F
100
AcDbEntity
  8
0-0_通り芯
  6
Continuous
 62
     3
370
    13
100
AcDbLine
 10
-1200.05357284142
 20
487.5157110288005
 30
0.0
 11
-1169.053569542223
 21
487.5157110288005
 31
0.0
  0
LINE
  5
75
330
1F
100
AcDbEntity
  8
0-0_通り芯
  6
Continuous
 62
     3
370
    13
100
AcDbLine
 10
-1200.05357284142
 20
753.5154998801518
 30
0.0
 11
-1169.053569542223
 21
753.5154998801518
 31
0.0
  0
LINE
  5
76
330
1F
100
AcDbEntity
  8
0-0_通り芯
  6
Continuous
 62
     3
370
    13
100
AcDbLine
 10
-1300.053655321361
 20
753.5154998801518
 30
0.0
 11
-1269.053652022164
 21
753.5154998801518
 31
0.0
  0
LINE
  5
77
330
1F
100
AcDbEntity
  8
0-0_通り芯
  6
Continuous
 62
     3
370
    13
100
AcDbLine
 10
-1300.053655321361
 20
487.5157110288005
 30
0.0
 11
-1269.053652022164
 21
487.5157110288005
 31
0.0
  0
LINE
  5
78
330
1F
100
AcDbEntity
  8
0-0_通り芯
  6
Continuous
 62
     3
370
    13
100
AcDbLine
 10
-1300.053655321361
 20
511.5157654655615
 30
0.0
 11
-1269.053652022164
 21
511.5157654655615
 31
0.0
  0
LINE
  5
79
330
1F
100
AcDbEntity
  8
0-0_通り芯
  6
Continuous
 62
     3
370
    13
100
AcDbLine
 10
-1261.053675116547
 20
279.5156928832135
 30
0.0
 11
-1261.053675116547
 21
479.5157341231838
 31
0.0
  0
LINE
  5
7A
330
1F
100
AcDbEntity
  8
0-0_通り芯
  6
Continuous
 62
     3
370
    13
100
AcDbLine
 10
-1308.053632226978
 20
279.5156928832135
 30
0.0
 11
-1308.053632226978
 21
479.5157341231838
 31
0.0
  0
LINE
  5
7B
330
1F
100
AcDbEntity
  8
0-0_通り芯
  6
Continuous
 62
     3
370
    13
100
AcDbLine
 10
-1308.053632226978
 20
519.5157423711781
 30
0.0
 11
-1308.053632226978
 21
745.5155229745354
 31
0.0
  0
LINE
  5
7C
330
1F
100
AcDbEntity
  8
0-0_通り芯
  6
Continuous
 62
     3
370
    13
100
AcDbLine
 10
-1261.053675116547
 20
519.5157423711781
 30
0.0
 11
-1261.053675116547
 21
745.5155229745354
 31
0.0
  0
LINE
  5
7D
330
1F
100
AcDbEntity
  8
0-0_通り芯
  6
Continuous
 62
     3
370
    13
100
AcDbLine
 10
-1332.053562943827
 20
519.5157423711781
 30
0.0
 11
-1332.053562943827
 21
745.5155229745354
 31
0.0
  0
LINE
  5
7E
330
1F
100
AcDbEntity
  8
0-0_通り芯
  6
Continuous
 62
     3
370
    13
100
AcDbLine
 10
-1379.05364377417
 20
519.5157423711781
 30
0.0
 11
-1379.05364377417
 21
745.5155229745354
 31
0.0
  0
LINE
  5
7F
330
1F
100
AcDbEntity
  8
0-0_通り芯
  6
Continuous
 62
     3
370
    13
100
AcDbLine
 10
-1379.05364377417
 20
279.5156928832135
 30
0.0
 11
-1379.05364377417
 21
479.5157341231838
 31
0.0
  0
LINE
  5
80
330
1F
100
AcDbEntity
  8
0-0_通り芯
  6
Continuous
 62
     3
370
    13
100
AcDbLine
 10
-1332.053562943827
 20
279.5156928832135
 30
0.0
 11
-1332.053562943827
 21
479.5157341231838
 31
0.0
  0
LINE
  5
81
330
1F
100
AcDbEntity
  8
0-0_通り芯
  6
Continuous
 62
     3
370
    13
100
AcDbLine
 10
-1371.053666868553
 20
511.5157654655615
 30
0.0
 11
-1340.053663569356
 21
511.5157654655615
 31
0.0
  0
LINE
  5
82
330
1F
100
AcDbEntity
  8
0-0_通り芯
  6
Continuous
 62
     3
370
    13
100
AcDbLine
 10
-1371.053666868553
 20
487.5157110288005
 30
0.0
 11
-1340.053663569356
 21
487.5157110288005
 31
0.0
  0
LINE
  5
83
330
1F
100
AcDbEntity
  8
0-0_通り芯
  6
Continuous
 62
     3
370
    13
100
AcDbLine
 10
-1371.053666868553
 20
753.5154998801518
 30
0.0
 11
-1340.053663569356
 21
753.5154998801518
 31
0.0
  0
LINE
  5
84
330
1F
100
AcDbEntity
  8
0-0_通り芯
  6
Continuous
 62
     3
370
    13
100
AcDbLine
 10
-1442.053616555789
 20
753.5154998801518
 30
0.0
 11
-1411.053551396636
 21
753.5154998801518
 31
0.0
  0
LINE
  5
85
330
1F
100
AcDbEntity
  8
0-0_通り芯
  6
Continuous
 62
     3
370
    13
100
AcDbLine
 10
-1442.053616555789
 20
487.5157110288005
 30
0.0
 11
-1411.053551396636
 21
487.5157110288005
 31
0.0
  0
LINE
  5
86
330
1F
100
AcDbEntity
  8
0-0_通り芯
  6
Continuous
 62
     3
370
    13
100
AcDbLine
 10
-1442.053616555789
 20
511.5157654655615
 30
0.0
 11
-1411.053551396636
 21
511.5157654655615
 31
0.0
  0
LINE
  5
87
330
1F
100
AcDbEntity
  8
0-0_通り芯
  6
Continuous
 62
     3
370
    13
100
AcDbLine
 10
-1403.053574491019
 20
279.5156928832135
 30
0.0
 11
-1403.053574491019
 21
479.5157341231838
 31
0.0
  0
LINE
  5
88
330
1F
100
AcDbEntity
  8
0-0_通り芯
  6
Continuous
 62
     3
370
    13
100
AcDbLine
 10
-1450.053655321361
 20
279.5156928832135
 30
0.0
 11
-1450.053655321361
 21
479.5157341231838
 31
0.0
  0
LINE
  5
89
330
1F
100
AcDbEntity
  8
0-0_通り芯
  6
Continuous
 62
     3
370
    13
100
AcDbLine
 10
-1450.053655321361
 20
519.5157423711781
 30
0.0
 11
-1450.053655321361
 21
745.5155229745354
 31
0.0
  0
LINE
  5
8A
330
1F
100
AcDbEntity
  8
0-0_通り芯
  6
Continuous
 62
     3
370
    13
100
AcDbLine
 10
-1403.053574491019
 20
519.5157423711781
 30
0.0
 11
-1403.053574491019
 21
745.5155229745354
 31
0.0
  0
LINE
  5
8B
330
1F
100
AcDbEntity
  8
0-0_通り芯
  6
Continuous
 62
     3
370
    13
100
AcDbLine
 10
-1621.053625628583
 20
764.5156846352195
 30
0.0
 11
-1503.053595111005
 21
764.5156846352195
 31
0.0
  0
LINE
  5
8C
330
1F
100
AcDbEntity
  8
0-0_通り芯
  6
Continuous
 62
     3
370
    13
100
AcDbLine
 10
-1621.053625628583
 20
680.5155559665117
 30
0.0
 11
-1503.053595111005
 21
680.5155559665117
 31
0.0
  0
LINE
  5
8D
330
1F
100
AcDbEntity
  8
0-0_通り芯
  6
Continuous
 62
     3
370
    13
100
AcDbLine
 10
-1503.053595111005
 20
519.5157423711781
 30
0.0
 11
-1503.053595111005
 21
632.5156945328123
 31
0.0
  0
LINE
  5
8E
330
1F
100
AcDbEntity
  8
0-0_通り芯
  6
Continuous
 62
     3
370
    13
100
AcDbLine
 10
-1550.053614081391
 20
519.5157423711781
 30
0.0
 11
-1550.053614081391
 21
632.5156945328123
 31
0.0
  0
LINE
  5
8F
330
1F
100
AcDbEntity
  8
0-0_通り芯
  6
Continuous
 62
     3
370
    13
100
AcDbLine
 10
-1550.053614081391
 20
279.5156928832135
 30
0.0
 11
-1550.053614081391
 21
479.5157341231838
 31
0.0
  0
LINE
  5
90
330
1F
100
AcDbEntity
  8
0-0_通り芯
  6
Continuous
 62
     3
370
    13
100
AcDbLine
 10
-1503.053595111005
 20
279.5156928832135
 30
0.0
 11
-1503.053595111005
 21
479.5157341231838
 31
0.0
  0
LINE
  5
91
330
1F
100
AcDbEntity
  8
0-0_通り芯
  6
Continuous
 62
     3
370
    13
100
AcDbLine
 10
-1542.053637175774
 20
511.5157654655615
 30
0.0
 11
-1511.053633876577
 21
511.5157654655615
 31
0.0
  0
LINE
  5
92
330
1F
100
AcDbEntity
  8
0-0_通り芯
  6
Continuous
 62
     3
370
    13
100
AcDbLine
 10
-1542.053637175774
 20
487.5157110288005
 30
0.0
 11
-1511.053633876577
 21
487.5157110288005
 31
0.0
  0
LINE
  5
93
330
1F
100
AcDbEntity
  8
0-0_通り芯
  6
Continuous
 62
     3
370
    13
100
AcDbLine
 10
-1503.053595111005
 20
680.5155559665117
 30
0.0
 11
-1503.053595111005
 21
764.5156846352195
 31
0.0
  0
LINE
  5
94
330
1F
100
AcDbEntity
  8
0-0_通り芯
  6
Continuous
 62
     3
370
    13
100
AcDbLine
 10
-1621.053625628583
 20
680.5155559665117
 30
0.0
 11
-1621.053625628583
 21
764.5156846352195
 31
0.0
  0
LINE
  5
95
330
1F
100
AcDbEntity
  8
0-0_通り芯
  6
Continuous
 62
     3
370
    13
100
AcDbLine
 10
-1613.053648722966
 20
487.5157110288005
 30
0.0
 11
-1582.053645423768
 21
487.5157110288005
 31
0.0
  0
LINE
  5
96
330
1F
100
AcDbEntity
  8
0-0_通り芯
  6
Continuous
 62
     3
370
    13
100
AcDbLine
 10
-1613.053648722966
 20
511.5157654655615
 30
0.0
 11
-1582.053645423768
 21
511.5157654655615
 31
0.0
  0
LINE
  5
97
330
1F
100
AcDbEntity
  8
0-0_通り芯
  6
Continuous
 62
     3
370
    13
100
AcDbLine
 10
-1574.053606658196
 20
279.5156928832135
 30
0.0
 11
-1574.053606658196
 21
479.5157341231838
 31
0.0
  0
LINE
  5
98
330
1F
100
AcDbEntity
  8
0-0_通り芯
  6
Continuous
 62
     3
370
    13
100
AcDbLine
 10
-1621.053625628583
 20
279.5156928832135
 30
0.0
 11
-1621.053625628583
 21
479.5157341231838
 31
0.0
  0
LINE
  5
99
330
1F
100
AcDbEntity
  8
0-0_通り芯
  6
Continuous
 62
     3
370
    13
100
AcDbLine
 10
-1621.053625628583
 20
519.5157423711781
 30
0.0
 11
-1621.053625628583
 21
632.5156945328123
 31
0.0
  0
LINE
  5
9A
330
1F
100
AcDbEntity
  8
0-0_通り芯
  6
Continuous
 62
     3
370
    13
100
AcDbLine
 10
-1574.053606658196
 20
519.5157423711781
 30
0.0
 11
-1574.053606658196
 21
632.5156945328123
 31
0.0
  0
LINE
  5
9B
330
1F
100
AcDbEntity
  8
0-0_通り芯
  6
Continuous
 62
     3
370
    13
100
AcDbLine
 10
-1645.053556345432
 20
519.5157423711781
 30
0.0
 11
-1645.053556345432
 21
745.5155229745354
 31
0.0
  0
LINE
  5
9C
330
1F
100
AcDbEntity
  8
0-0_通り芯
  6
Continuous
 62
     3
370
    13
100
AcDbLine
 10
-1692.053637175774
 20
519.5157423711781
 30
0.0
 11
-1692.053637175774
 21
745.5155229745354
 31
0.0
  0
LINE
  5
9D
330
1F
100
AcDbEntity
  8
0-0_通り芯
  6
Continuous
 62
     3
370
    13
100
AcDbLine
 10
-1692.053637175774
 20
279.5156928832135
 30
0.0
 11
-1692.053637175774
 21
479.5157341231838
 31
0.0
  0
LINE
  5
9E
330
1F
100
AcDbEntity
  8
0-0_通り芯
  6
Continuous
 62
     3
370
    13
100
AcDbLine
 10
-1645.053556345432
 20
279.5156928832135
 30
0.0
 11
-1645.053556345432
 21
479.5157341231838
 31
0.0
  0
LINE
  5
9F
330
1F
100
AcDbEntity
  8
0-0_通り芯
  6
Continuous
 62
     3
370
    13
100
AcDbLine
 10
-1684.053598410202
 20
511.5157654655615
 30
0.0
 11
-1653.053595111005
 21
511.5157654655615
 31
0.0
  0
LINE
  5
A0
330
1F
100
AcDbEntity
  8
0-0_通り芯
  6
Continuous
 62
     3
370
    13
100
AcDbLine
 10
-1684.053598410202
 20
487.5157110288005
 30
0.0
 11
-1653.053595111005
 21
487.5157110288005
 31
0.0
  0
LINE
  5
A1
330
1F
100
AcDbEntity
  8
0-0_通り芯
  6
Continuous
 62
     3
370
    13
100
AcDbLine
 10
-1684.053598410202
 20
753.5154998801518
 30
0.0
 11
-1653.053595111005
 21
753.5154998801518
 31
0.0
  0
LINE
  5
A2
330
1F
100
AcDbEntity
  8
0-2_本体（蓋）
  6
JWW_CENTER1
 62
     6
370
    13
100
AcDbLine
 10
-1562.053579439816
 20
668.2893068902871
 30
0.0
 11
-1562.053579439816
 21
772.4867110815877
 31
0.0
  0
LINE
  5
A3
330
1F
100
AcDbEntity
  8
0-2_本体（蓋）
  6
JWW_CENTER1
 62
     6
370
    13
100
AcDbLine
 10
-1633.459639735952
 20
722.5154965809542
 30
0.0
 11
-1490.855739754427
 21
722.5154965809542
 31
0.0
  0
LINE
  5
A4
330
1F
100
AcDbEntity
  8
0-0_通り芯
  6
Continuous
 62
     3
370
    13
100
AcDbLine
 10
-1613.053648722966
 20
640.5156714384291
 30
0.0
 11
-1582.053645423768
 21
640.5156714384291
 31
0.0
  0
LINE
  5
A5
330
1F
100
AcDbEntity
  8
0-0_通り芯
  6
Continuous
 62
     3
370
    13
100
AcDbLine
 10
-1542.053637175774
 20
640.5156714384291
 30
0.0
 11
-1511.053633876577
 21
640.5156714384291
 31
0.0
  0
LINE
  5
A6
330
1F
100
AcDbEntity
  8
0-2_本体（蓋）
  6
Continuous
 62
     6
370
    13
100
AcDbLine
 10
-1538.064721655029
 20
708.6657948284205
 30
0.0
 11
-1538.064721655029
 21
736.3656932131333
 31
0.0
  0
LINE
  5
A7
330
1F
100
AcDbEntity
  8
0-2_本体（蓋）
  6
Continuous
 62
     6
370
    13
100
AcDbLine
 10
-1538.064721655029
 20
736.3656932131333
 30
0.0
 11
-1562.053579439816
 21
750.2158898453125
 31
0.0
  0
LINE
  5
A8
330
1F
100
AcDbEntity
  8
0-2_本体（蓋）
  6
Continuous
 62
     6
370
    13
100
AcDbLine
 10
-1562.053579439816
 20
750.2158898453125
 30
0.0
 11
-1586.042499084558
 21
736.3656932131333
 31
0.0
  0
LINE
  5
A9
330
1F
100
AcDbEntity
  8
0-2_本体（蓋）
  6
Continuous
 62
     6
370
    13
100
AcDbLine
 10
-1586.042499084558
 20
736.3656932131333
 30
0.0
 11
-1586.042499084558
 21
708.6657948284205
 31
0.0
  0
LINE
  5
AA
330
1F
100
AcDbEntity
  8
0-2_本体（蓋）
  6
Continuous
 62
     6
370
    13
100
AcDbLine
 10
-1586.042499084558
 20
708.6657948284205
 30
0.0
 11
-1562.053579439816
 21
694.8155981962414
 31
0.0
  0
LINE
  5
AB
330
1F
100
AcDbEntity
  8
0-2_本体（蓋）
  6
Continuous
 62
     6
370
    13
100
AcDbLine
 10
-1562.053579439816
 20
694.8155981962414
 30
0.0
 11
-1538.064721655029
 21
708.6657948284205
 31
0.0
  0
LINE
  5
AC
330
1F
100
AcDbEntity
  8
0-0_通り芯
  6
JWW_PHANTOM1
 62
     3
370
    13
100
AcDbLine
 10
254.4463265330519
 20
779.5154866833615
 30
0.0
 11
584.4464255089811
 21
779.5154866833615
 31
0.0
  0
LINE
  5
AD
330
1F
100
AcDbEntity
  8
0-0_通り芯
  6
JWW_PHANTOM1
 62
     3
370
    13
100
AcDbLine
 10
254.4463265330519
 20
-20.48430711678648
 30
0.0
 11
584.4464255089811
 21
-20.48430711678648
 31
0.0
  0
LINE
  5
AE
330
1F
100
AcDbEntity
  8
0-2_本体（蓋）
  6
Continuous
 62
     6
370
    13
100
AcDbLine
 10
60.94640571379504
 20
694.8155981962414
 30
0.0
 11
36.95760978896406
 21
708.6657948284205
 31
0.0
  0
LINE
  5
AF
330
1F
100
AcDbEntity
  8
0-2_本体（蓋）
  6
Continuous
 62
     6
370
    13
100
AcDbLine
 10
84.9352016386263
 20
708.6657948284205
 30
0.0
 11
60.94640571379504
 21
694.8155981962414
 31
0.0
  0
LINE
  5
B0
330
1F
100
AcDbEntity
  8
0-2_本体（蓋）
  6
Continuous
 62
     6
370
    13
100
AcDbLine
 10
84.9352016386263
 20
736.3656932131333
 30
0.0
 11
84.9352016386263
 21
708.6657948284205
 31
0.0
  0
LINE
  5
B1
330
1F
100
AcDbEntity
  8
0-2_本体（蓋）
  6
Continuous
 62
     6
370
    13
100
AcDbLine
 10
60.94640571379504
 20
750.2158898453125
 30
0.0
 11
84.9352016386263
 21
736.3656932131333
 31
0.0
  0
LINE
  5
B2
330
1F
100
AcDbEntity
  8
0-2_本体（蓋）
  6
Continuous
 62
     6
370
    13
100
AcDbLine
 10
36.95760978896406
 20
736.3656932131333
 30
0.0
 11
60.94640571379504
 21
750.2158898453125
 31
0.0
  0
LINE
  5
B3
330
1F
100
AcDbEntity
  8
0-2_本体（蓋）
  6
Continuous
 62
     6
370
    13
100
AcDbLine
 10
36.95760978896406
 20
708.6657948284205
 30
0.0
 11
36.95760978896406
 21
736.3656932131333
 31
0.0
  0
LINE
  5
B4
330
1F
100
AcDbEntity
  8
0-0_通り芯
  6
Continuous
 62
     3
370
    13
100
AcDbLine
 10
40.94633972984244
 20
640.5156714384291
 30
0.0
 11
9.946583870467514
 21
640.5156714384291
 31
0.0
  0
LINE
  5
B5
330
1F
100
AcDbEntity
  8
0-0_通り芯
  6
Continuous
 62
     3
370
    13
100
AcDbLine
 10
111.9462275571229
 20
640.5156714384291
 30
0.0
 11
80.94647169774791
 21
640.5156714384291
 31
0.0
  0
LINE
  5
B6
330
1F
100
AcDbEntity
  8
0-2_本体（蓋）
  6
JWW_CENTER1
 62
     6
370
    13
100
AcDbLine
 10
132.3525897298424
 20
722.5154965809542
 30
0.0
 11
-10.25143397159344
 21
722.5154965809542
 31
0.0
  0
LINE
  5
B7
330
1F
100
AcDbEntity
  8
0-2_本体（蓋）
  6
JWW_CENTER1
 62
     6
370
    13
100
AcDbLine
 10
60.94640571379504
 20
668.2893068902871
 30
0.0
 11
60.94640571379504
 21
772.4867110815877
 31
0.0
  0
LINE
  5
B8
330
1F
100
AcDbEntity
  8
0-0_通り芯
  6
Continuous
 62
     3
370
    13
100
AcDbLine
 10
182.9461153844031
 20
753.5154998801518
 30
0.0
 11
151.9463595250281
 21
753.5154998801518
 31
0.0
  0
LINE
  5
B9
330
1F
100
AcDbEntity
  8
0-0_通り芯
  6
Continuous
 62
     3
370
    13
100
AcDbLine
 10
182.9461153844031
 20
487.5157110288005
 30
0.0
 11
151.9463595250281
 21
487.5157110288005
 31
0.0
  0
LINE
  5
BA
330
1F
100
AcDbEntity
  8
0-0_通り芯
  6
Continuous
 62
     3
370
    13
100
AcDbLine
 10
182.9461153844031
 20
511.5157654655615
 30
0.0
 11
151.9463595250281
 21
511.5157654655615
 31
0.0
  0
LINE
  5
BB
330
1F
100
AcDbEntity
  8
0-0_通り芯
  6
Continuous
 62
     3
370
    13
100
AcDbLine
 10
143.946135179589
 20
279.5156928832135
 30
0.0
 11
143.946135179589
 21
479.5157341231838
 31
0.0
  0
LINE
  5
BC
330
1F
100
AcDbEntity
  8
0-0_通り芯
  6
Continuous
 62
     3
370
    13
100
AcDbLine
 10
190.9463397298424
 20
279.5156928832135
 30
0.0
 11
190.9463397298424
 21
479.5157341231838
 31
0.0
  0
LINE
  5
BD
330
1F
100
AcDbEntity
  8
0-0_通り芯
  6
Continuous
 62
     3
370
    13
100
AcDbLine
 10
190.9463397298424
 20
519.5157423711781
 30
0.0
 11
190.9463397298424
 21
745.5155229745354
 31
0.0
  0
LINE
  5
BE
330
1F
100
AcDbEntity
  8
0-0_通り芯
  6
Continuous
 62
     3
370
    13
100
AcDbLine
 10
143.946135179589
 20
519.5157423711781
 30
0.0
 11
143.946135179589
 21
745.5155229745354
 31
0.0
  0
LINE
  5
BF
330
1F
100
AcDbEntity
  8
0-0_通り芯
  6
Continuous
 62
     3
370
    13
100
AcDbLine
 10
72.94624735230857
 20
519.5157423711781
 30
0.0
 11
72.94624735230857
 21
632.5156945328123
 31
0.0
  0
LINE
  5
C0
330
1F
100
AcDbEntity
  8
0-0_通り芯
  6
Continuous
 62
     3
370
    13
100
AcDbLine
 10
119.946451902562
 20
519.5157423711781
 30
0.0
 11
119.946451902562
 21
632.5156945328123
 31
0.0
  0
LINE
  5
C1
330
1F
100
AcDbEntity
  8
0-0_通り芯
  6
Continuous
 62
     3
370
    13
100
AcDbLine
 10
119.946451902562
 20
279.5156928832135
 30
0.0
 11
119.946451902562
 21
479.5157341231838
 31
0.0
  0
LINE
  5
C2
330
1F
100
AcDbEntity
  8
0-0_通り芯
  6
Continuous
 62
     3
370
    13
100
AcDbLine
 10
72.94624735230857
 20
279.5156928832135
 30
0.0
 11
72.94624735230857
 21
479.5157341231838
 31
0.0
  0
LINE
  5
C3
330
1F
100
AcDbEntity
  8
0-0_通り芯
  6
Continuous
 62
     3
370
    13
100
AcDbLine
 10
111.9462275571229
 20
511.5157654655615
 30
0.0
 11
80.94647169774791
 21
511.5157654655615
 31
0.0
  0
LINE
  5
C4
330
1F
100
AcDbEntity
  8
0-0_通り芯
  6
Continuous
 62
     3
370
    13
100
AcDbLine
 10
111.9462275571229
 20
487.5157110288005
 30
0.0
 11
80.94647169774791
 21
487.5157110288005
 31
0.0
  0
LINE
  5
C5
330
1F
100
AcDbEntity
  8
0-0_通り芯
  6
Continuous
 62
     3
370
    13
100
AcDbLine
 10
119.946451902562
 20
680.5155559665117
 30
0.0
 11
119.946451902562
 21
764.5156846352195
 31
0.0
  0
LINE
  5
C6
330
1F
100
AcDbEntity
  8
0-0_通り芯
  6
Continuous
 62
     3
370
    13
100
AcDbLine
 10
1.946359525028178
 20
680.5155559665117
 30
0.0
 11
1.946359525028178
 21
764.5156846352195
 31
0.0
  0
LINE
  5
C7
330
1F
100
AcDbEntity
  8
0-0_通り芯
  6
Continuous
 62
     3
370
    13
100
AcDbLine
 10
40.94633972984244
 20
487.5157110288005
 30
0.0
 11
9.946583870467514
 21
487.5157110288005
 31
0.0
  0
LINE
  5
C8
330
1F
100
AcDbEntity
  8
0-0_通り芯
  6
Continuous
 62
     3
370
    13
100
AcDbLine
 10
40.94633972984244
 20
511.5157654655615
 30
0.0
 11
9.946583870467514
 21
511.5157654655615
 31
0.0
  0
LINE
  5
C9
330
1F
100
AcDbEntity
  8
0-0_通り芯
  6
Continuous
 62
     3
370
    13
100
AcDbLine
 10
1.946359525028178
 20
279.5156928832135
 30
0.0
 11
1.946359525028178
 21
479.5157341231838
 31
0.0
  0
LINE
  5
CA
330
1F
100
AcDbEntity
  8
0-0_通り芯
  6
Continuous
 62
     3
370
    13
100
AcDbLine
 10
48.94656407528149
 20
279.5156928832135
 30
0.0
 11
48.94656407528149
 21
479.5157341231838
 31
0.0
  0
LINE
  5
CB
330
1F
100
AcDbEntity
  8
0-0_通り芯
  6
Continuous
 62
     3
370
    13
100
AcDbLine
 10
48.94656407528149
 20
519.5157423711781
 30
0.0
 11
48.94656407528149
 21
632.5156945328123
 31
0.0
  0
LINE
  5
CC
330
1F
100
AcDbEntity
  8
0-0_通り芯
  6
Continuous
 62
     3
370
    13
100
AcDbLine
 10
1.946359525028178
 20
519.5157423711781
 30
0.0
 11
1.946359525028178
 21
632.5156945328123
 31
0.0
  0
LINE
  5
CD
330
1F
100
AcDbEntity
  8
0-0_通り芯
  6
Continuous
 62
     3
370
    13
100
AcDbLine
 10
119.946451902562
 20
680.5155559665117
 30
0.0
 11
1.946359525028178
 21
680.5155559665117
 31
0.0
  0
LINE
  5
CE
330
1F
100
AcDbEntity
  8
0-0_通り芯
  6
Continuous
 62
     3
370
    13
100
AcDbLine
 10
119.946451902562
 20
764.5156846352195
 30
0.0
 11
1.946359525028178
 21
764.5156846352195
 31
0.0
  0
LINE
  5
CF
330
1F
100
AcDbEntity
  8
0-0_通り芯
  6
Continuous
 62
     3
370
    13
100
AcDbLine
 10
-98.05347551509008
 20
519.5157423711781
 30
0.0
 11
-98.05347551509008
 21
745.5155229745354
 31
0.0
  0
LINE
  5
D0
330
1F
100
AcDbEntity
  8
0-0_通り芯
  6
Continuous
 62
     3
370
    13
100
AcDbLine
 10
-51.05376584448173
 20
519.5157423711781
 30
0.0
 11
-51.05376584448173
 21
745.5155229745354
 31
0.0
  0
LINE
  5
D1
330
1F
100
AcDbEntity
  8
0-0_通り芯
  6
Continuous
 62
     3
370
    13
100
AcDbLine
 10
-51.05376584448173
 20
279.5156928832135
 30
0.0
 11
-51.05376584448173
 21
479.5157341231838
 31
0.0
  0
LINE
  5
D2
330
1F
100
AcDbEntity
  8
0-0_通り芯
  6
Continuous
 62
     3
370
    13
100
AcDbLine
 10
-98.05347551509008
 20
279.5156928832135
 30
0.0
 11
-98.05347551509008
 21
479.5157341231838
 31
0.0
  0
LINE
  5
D3
330
1F
100
AcDbEntity
  8
0-0_通り芯
  6
Continuous
 62
     3
370
    13
100
AcDbLine
 10
-59.05349531027575
 20
511.5157654655615
 30
0.0
 11
-90.05374604929607
 21
511.5157654655615
 31
0.0
  0
LINE
  5
D4
330
1F
100
AcDbEntity
  8
0-0_通り芯
  6
Continuous
 62
     3
370
    13
100
AcDbLine
 10
-59.05349531027575
 20
487.5157110288005
 30
0.0
 11
-90.05374604929607
 21
487.5157110288005
 31
0.0
  0
LINE
  5
D5
330
1F
100
AcDbEntity
  8
0-0_通り芯
  6
Continuous
 62
     3
370
    13
100
AcDbLine
 10
-59.05349531027575
 20
753.5154998801518
 30
0.0
 11
-90.05374604929607
 21
753.5154998801518
 31
0.0
  0
LINE
  5
D6
330
1F
100
AcDbEntity
  8
0-0_通り芯
  6
Continuous
 62
     3
370
    13
100
AcDbLine
 10
-130.0537542972901
 20
753.5154998801518
 30
0.0
 11
-161.0537575964877
 21
753.5154998801518
 31
0.0
  0
LINE
  5
D7
330
1F
100
AcDbEntity
  8
0-0_通り芯
  6
Continuous
 62
     3
370
    13
100
AcDbLine
 10
-130.0537542972901
 20
487.5157110288005
 30
0.0
 11
-161.0537575964877
 21
487.5157110288005
 31
0.0
  0
LINE
  5
D8
330
1F
100
AcDbEntity
  8
0-0_通り芯
  6
Continuous
 62
     3
370
    13
100
AcDbLine
 10
-130.0537542972901
 20
511.5157654655615
 30
0.0
 11
-161.0537575964877
 21
511.5157654655615
 31
0.0
  0
LINE
  5
D9
330
1F
100
AcDbEntity
  8
0-0_通り芯
  6
Continuous
 62
     3
370
    13
100
AcDbLine
 10
-169.0537345021044
 20
279.5156928832135
 30
0.0
 11
-169.0537345021044
 21
479.5157341231838
 31
0.0
  0
LINE
  5
DA
330
1F
100
AcDbEntity
  8
0-0_通り芯
  6
Continuous
 62
     3
370
    13
100
AcDbLine
 10
-122.0536536717622
 20
279.5156928832135
 30
0.0
 11
-122.0536536717622
 21
479.5157341231838
 31
0.0
  0
LINE
  5
DB
330
1F
100
AcDbEntity
  8
0-0_通り芯
  6
Continuous
 62
     3
370
    13
100
AcDbLine
 10
-122.0536536717622
 20
519.5157423711781
 30
0.0
 11
-122.0536536717622
 21
745.5155229745354
 31
0.0
  0
LINE
  5
DC
330
1F
100
AcDbEntity
  8
0-0_通り芯
  6
Continuous
 62
     3
370
    13
100
AcDbLine
 10
-169.0537345021044
 20
519.5157423711781
 30
0.0
 11
-169.0537345021044
 21
745.5155229745354
 31
0.0
  0
LINE
  5
DD
330
1F
100
AcDbEntity
  8
0-0_通り芯
  6
Continuous
 62
     3
370
    13
100
AcDbLine
 10
-240.0536223293849
 20
519.5157423711781
 30
0.0
 11
-240.0536223293849
 21
745.5155229745354
 31
0.0
  0
LINE
  5
DE
330
1F
100
AcDbEntity
  8
0-0_通り芯
  6
Continuous
 62
     3
370
    13
100
AcDbLine
 10
-193.0536652189539
 20
519.5157423711781
 30
0.0
 11
-193.0536652189539
 21
745.5155229745354
 31
0.0
  0
LINE
  5
DF
330
1F
100
AcDbEntity
  8
0-0_通り芯
  6
Continuous
 62
     3
370
    13
100
AcDbLine
 10
-193.0536652189539
 20
279.5156928832135
 30
0.0
 11
-193.0536652189539
 21
479.5157341231838
 31
0.0
  0
LINE
  5
E0
330
1F
100
AcDbEntity
  8
0-0_通り芯
  6
Continuous
 62
     3
370
    13
100
AcDbLine
 10
-240.0536223293849
 20
279.5156928832135
 30
0.0
 11
-240.0536223293849
 21
479.5157341231838
 31
0.0
  0
LINE
  5
E1
330
1F
100
AcDbEntity
  8
0-0_通り芯
  6
Continuous
 62
     3
370
    13
100
AcDbLine
 10
-201.0536421245706
 20
511.5157654655615
 30
0.0
 11
-232.0536454237682
 21
511.5157654655615
 31
0.0
  0
LINE
  5
E2
330
1F
100
AcDbEntity
  8
0-0_通り芯
  6
Continuous
 62
     3
370
    13
100
AcDbLine
 10
-201.0536421245706
 20
487.5157110288005
 30
0.0
 11
-232.0536454237682
 21
487.5157110288005
 31
0.0
  0
LINE
  5
E3
330
1F
100
AcDbEntity
  8
0-0_通り芯
  6
Continuous
 62
     3
370
    13
100
AcDbLine
 10
-201.0536421245706
 20
753.5154998801518
 30
0.0
 11
-232.0536454237682
 21
753.5154998801518
 31
0.0
  0
LINE
  5
E4
330
1F
100
AcDbEntity
  8
0-0_通り芯
  6
Continuous
 62
     3
370
    13
100
AcDbLine
 10
-301.0537246045114
 20
753.5154998801518
 30
0.0
 11
-332.0537279037091
 21
753.5154998801518
 31
0.0
  0
LINE
  5
E5
330
1F
100
AcDbEntity
  8
0-0_通り芯
  6
Continuous
 62
     3
370
    13
100
AcDbLine
 10
-301.0537246045114
 20
487.5157110288005
 30
0.0
 11
-332.0537279037091
 21
487.5157110288005
 31
0.0
  0
LINE
  5
E6
330
1F
100
AcDbEntity
  8
0-0_通り芯
  6
Continuous
 62
     3
370
    13
100
AcDbLine
 10
-301.0537246045114
 20
511.5157654655615
 30
0.0
 11
-332.0537279037091
 21
511.5157654655615
 31
0.0
  0
LINE
  5
E7
330
1F
100
AcDbEntity
  8
0-0_通り芯
  6
Continuous
 62
     3
370
    13
100
AcDbLine
 10
-340.0537048093258
 20
279.5156928832135
 30
0.0
 11
-340.0537048093258
 21
479.5157341231838
 31
0.0
  0
LINE
  5
E8
330
1F
100
AcDbEntity
  8
0-0_通り芯
  6
Continuous
 62
     3
370
    13
100
AcDbLine
 10
-293.0537476988948
 20
279.5156928832135
 30
0.0
 11
-293.0537476988948
 21
479.5157341231838
 31
0.0
  0
LINE
  5
E9
330
1F
100
AcDbEntity
  8
0-0_通り芯
  6
Continuous
 62
     3
370
    13
100
AcDbLine
 10
-293.0537476988948
 20
519.5157423711781
 30
0.0
 11
-293.0537476988948
 21
745.5155229745354
 31
0.0
  0
LINE
  5
EA
330
1F
100
AcDbEntity
  8
0-0_通り芯
  6
Continuous
 62
     3
370
    13
100
AcDbLine
 10
-340.0537048093258
 20
519.5157423711781
 30
0.0
 11
-340.0537048093258
 21
745.5155229745354
 31
0.0
  0
LINE
  5
EB
330
1F
100
AcDbEntity
  8
0-0_通り芯
  6
Continuous
 62
     3
370
    13
100
AcDbLine
 10
-411.053592636606
 20
519.5157423711781
 30
0.0
 11
-411.053592636606
 21
745.5155229745354
 31
0.0
  0
LINE
  5
EC
330
1F
100
AcDbEntity
  8
0-0_通り芯
  6
Continuous
 62
     3
370
    13
100
AcDbLine
 10
-364.0536355261752
 20
519.5157423711781
 30
0.0
 11
-364.0536355261752
 21
745.5155229745354
 31
0.0
  0
LINE
  5
ED
330
1F
100
AcDbEntity
  8
0-0_通り芯
  6
Continuous
 62
     3
370
    13
100
AcDbLine
 10
-364.0536355261752
 20
279.5156928832135
 30
0.0
 11
-364.0536355261752
 21
479.5157341231838
 31
0.0
  0
LINE
  5
EE
330
1F
100
AcDbEntity
  8
0-0_通り芯
  6
Continuous
 62
     3
370
    13
100
AcDbLine
 10
-411.053592636606
 20
279.5156928832135
 30
0.0
 11
-411.053592636606
 21
479.5157341231838
 31
0.0
  0
LINE
  5
EF
330
1F
100
AcDbEntity
  8
0-0_通り芯
  6
Continuous
 62
     3
370
    13
100
AcDbLine
 10
-372.0536124317919
 20
511.5157654655615
 30
0.0
 11
-403.0536157309896
 21
511.5157654655615
 31
0.0
  0
LINE
  5
F0
330
1F
100
AcDbEntity
  8
0-0_通り芯
  6
Continuous
 62
     3
370
    13
100
AcDbLine
 10
-372.0536124317919
 20
487.5157110288005
 30
0.0
 11
-403.0536157309896
 21
487.5157110288005
 31
0.0
  0
LINE
  5
F1
330
1F
100
AcDbEntity
  8
0-0_通り芯
  6
Continuous
 62
     3
370
    13
100
AcDbLine
 10
-372.0536124317919
 20
753.5154998801518
 30
0.0
 11
-403.0536157309896
 21
753.5154998801518
 31
0.0
  0
LINE
  5
F2
330
1F
100
AcDbEntity
  8
0-0_通り芯
  6
Continuous
 62
     3
370
    13
100
AcDbLine
 10
-443.0537476988951
 20
753.5154998801518
 30
0.0
 11
-474.0537509980924
 21
753.5154998801518
 31
0.0
  0
LINE
  5
F3
330
1F
100
AcDbEntity
  8
0-0_通り芯
  6
Continuous
 62
     3
370
    13
100
AcDbLine
 10
-443.0537476988951
 20
487.5157110288005
 30
0.0
 11
-474.0537509980924
 21
487.5157110288005
 31
0.0
  0
LINE
  5
F4
330
1F
100
AcDbEntity
  8
0-0_通り芯
  6
Continuous
 62
     3
370
    13
100
AcDbLine
 10
-443.0537476988951
 20
511.5157654655615
 30
0.0
 11
-474.0537509980924
 21
511.5157654655615
 31
0.0
  0
LINE
  5
F5
330
1F
100
AcDbEntity
  8
0-0_通り芯
  6
Continuous
 62
     3
370
    13
100
AcDbLine
 10
-482.0537279037091
 20
279.5156928832135
 30
0.0
 11
-482.0537279037091
 21
479.5157341231838
 31
0.0
  0
LINE
  5
F6
330
1F
100
AcDbEntity
  8
0-0_通り芯
  6
Continuous
 62
     3
370
    13
100
AcDbLine
 10
-435.0535233534557
 20
279.5156928832135
 30
0.0
 11
-435.0535233534557
 21
479.5157341231838
 31
0.0
  0
LINE
  5
F7
330
1F
100
AcDbEntity
  8
0-0_通り芯
  6
Continuous
 62
     3
370
    13
100
AcDbLine
 10
-435.0535233534557
 20
519.5157423711781
 30
0.0
 11
-435.0535233534557
 21
745.5155229745354
 31
0.0
  0
LINE
  5
F8
330
1F
100
AcDbEntity
  8
0-0_通り芯
  6
Continuous
 62
     3
370
    13
100
AcDbLine
 10
-482.0537279037091
 20
519.5157423711781
 30
0.0
 11
-482.0537279037091
 21
745.5155229745354
 31
0.0
  0
LINE
  5
F9
330
1F
100
AcDbEntity
  8
0-0_通り芯
  6
Continuous
 62
     3
370
    13
100
AcDbLine
 10
-582.0535629438273
 20
519.5157423711781
 30
0.0
 11
-582.0535629438273
 21
745.5155229745354
 31
0.0
  0
LINE
  5
FA
330
1F
100
AcDbEntity
  8
0-0_通り芯
  6
Continuous
 62
     3
370
    13
100
AcDbLine
 10
-535.0536058333967
 20
519.5157423711781
 30
0.0
 11
-535.0536058333967
 21
745.5155229745354
 31
0.0
  0
LINE
  5
FB
330
1F
100
AcDbEntity
  8
0-0_通り芯
  6
Continuous
 62
     3
370
    13
100
AcDbLine
 10
-535.0536058333967
 20
279.5156928832135
 30
0.0
 11
-535.0536058333967
 21
479.5157341231838
 31
0.0
  0
LINE
  5
FC
330
1F
100
AcDbEntity
  8
0-0_通り芯
  6
Continuous
 62
     3
370
    13
100
AcDbLine
 10
-582.0535629438273
 20
279.5156928832135
 30
0.0
 11
-582.0535629438273
 21
479.5157341231838
 31
0.0
  0
LINE
  5
FD
330
1F
100
AcDbEntity
  8
0-0_通り芯
  6
Continuous
 62
     3
370
    13
100
AcDbLine
 10
-543.0535827390133
 20
511.5157654655615
 30
0.0
 11
-574.0535860382109
 21
511.5157654655615
 31
0.0
  0
LINE
  5
FE
330
1F
100
AcDbEntity
  8
0-0_通り芯
  6
Continuous
 62
     3
370
    13
100
AcDbLine
 10
-543.0535827390133
 20
487.5157110288005
 30
0.0
 11
-574.0535860382109
 21
487.5157110288005
 31
0.0
  0
LINE
  5
FF
330
1F
100
AcDbEntity
  8
0-0_通り芯
  6
Continuous
 62
     3
370
    13
100
AcDbLine
 10
-543.0535827390133
 20
753.5154998801518
 30
0.0
 11
-574.0535860382109
 21
753.5154998801518
 31
0.0
  0
LINE
  5
100
330
1F
100
AcDbEntity
  8
0-0_通り芯
  6
Continuous
 62
     3
370
    13
100
AcDbLine
 10
-614.0537180061161
 20
753.5154998801518
 30
0.0
 11
-645.0537213053138
 21
753.5154998801518
 31
0.0
  0
LINE
  5
101
330
1F
100
AcDbEntity
  8
0-0_通り芯
  6
Continuous
 62
     3
370
    13
100
AcDbLine
 10
-614.0537180061161
 20
487.5157110288005
 30
0.0
 11
-645.0537213053138
 21
487.5157110288005
 31
0.0
  0
LINE
  5
102
330
1F
100
AcDbEntity
  8
0-0_通り芯
  6
Continuous
 62
     3
370
    13
100
AcDbLine
 10
-614.0537180061161
 20
511.5157654655615
 30
0.0
 11
-645.0537213053138
 21
511.5157654655615
 31
0.0
  0
LINE
  5
103
330
1F
100
AcDbEntity
  8
0-0_通り芯
  6
Continuous
 62
     3
370
    13
100
AcDbLine
 10
-653.053574491019
 20
279.5156928832135
 30
0.0
 11
-653.053574491019
 21
479.5157341231838
 31
0.0
  0
LINE
  5
104
330
1F
100
AcDbEntity
  8
0-0_通り芯
  6
Continuous
 62
     3
370
    13
100
AcDbLine
 10
-606.0537411004997
 20
279.5156928832135
 30
0.0
 11
-606.0537411004997
 21
479.5157341231838
 31
0.0
  0
LINE
  5
105
330
1F
100
AcDbEntity
  8
0-0_通り芯
  6
Continuous
 62
     3
370
    13
100
AcDbLine
 10
-606.0537411004997
 20
519.5157423711781
 30
0.0
 11
-606.0537411004997
 21
745.5155229745354
 31
0.0
  0
LINE
  5
106
330
1F
100
AcDbEntity
  8
0-0_通り芯
  6
Continuous
 62
     3
370
    13
100
AcDbLine
 10
-653.053574491019
 20
519.5157423711781
 30
0.0
 11
-653.053574491019
 21
745.5155229745354
 31
0.0
  0
LINE
  5
107
330
1F
100
AcDbEntity
  8
0-0_通り芯
  6
Continuous
 62
     3
370
    13
100
AcDbLine
 10
-724.053586038211
 20
519.5157423711781
 30
0.0
 11
-724.053586038211
 21
745.5155229745354
 31
0.0
  0
LINE
  5
108
330
1F
100
AcDbEntity
  8
0-0_通り芯
  6
Continuous
 62
     3
370
    13
100
AcDbLine
 10
-677.05362892778
 20
519.5157423711781
 30
0.0
 11
-677.05362892778
 21
745.5155229745354
 31
0.0
  0
LINE
  5
109
330
1F
100
AcDbEntity
  8
0-0_通り芯
  6
Continuous
 62
     3
370
    13
100
AcDbLine
 10
-677.05362892778
 20
279.5156928832135
 30
0.0
 11
-677.05362892778
 21
479.5157341231838
 31
0.0
  0
LINE
  5
10A
330
1F
100
AcDbEntity
  8
0-0_通り芯
  6
Continuous
 62
     3
370
    13
100
AcDbLine
 10
-724.053586038211
 20
279.5156928832135
 30
0.0
 11
-724.053586038211
 21
479.5157341231838
 31
0.0
  0
LINE
  5
10B
330
1F
100
AcDbEntity
  8
0-0_通り芯
  6
Continuous
 62
     3
370
    13
100
AcDbLine
 10
-685.0536058333967
 20
511.5157654655615
 30
0.0
 11
-716.0536091325944
 21
511.5157654655615
 31
0.0
  0
LINE
  5
10C
330
1F
100
AcDbEntity
  8
0-0_通り芯
  6
Continuous
 62
     3
370
    13
100
AcDbLine
 10
-685.0536058333967
 20
487.5157110288005
 30
0.0
 11
-716.0536091325944
 21
487.5157110288005
 31
0.0
  0
LINE
  5
10D
330
1F
100
AcDbEntity
  8
0-0_通り芯
  6
Continuous
 62
     3
370
    13
100
AcDbLine
 10
-685.0536058333967
 20
753.5154998801518
 30
0.0
 11
-716.0536091325944
 21
753.5154998801518
 31
0.0
  0
LINE
  5
10E
330
1F
100
AcDbEntity
  8
0-0_通り芯
  6
Continuous
 62
     3
370
    13
100
AcDbLine
 10
244.4462935410755
 20
-20.48430711678648
 30
0.0
 11
244.4462935410755
 21
779.5154866833615
 31
0.0
  0
LINE
  5
10F
330
1F
100
AcDbEntity
  8
0-2_本体（蓋）
  6
Continuous
 62
     6
370
    13
100
AcDbLine
 10
-1562.053579439816
 20
64.2157050902448
 30
0.0
 11
-1538.064721655029
 21
50.36575589788828
 31
0.0
  0
LINE
  5
110
330
1F
100
AcDbEntity
  8
0-2_本体（蓋）
  6
Continuous
 62
     6
370
    13
100
AcDbLine
 10
-1586.042499084558
 20
50.36575589788828
 30
0.0
 11
-1562.053579439816
 21
64.2157050902448
 31
0.0
  0
LINE
  5
111
330
1F
100
AcDbEntity
  8
0-2_本体（蓋）
  6
Continuous
 62
     6
370
    13
100
AcDbLine
 10
-1586.042499084558
 20
22.66573379326431
 30
0.0
 11
-1586.042499084558
 21
50.36575589788828
 31
0.0
  0
LINE
  5
112
330
1F
100
AcDbEntity
  8
0-2_本体（蓋）
  6
Continuous
 62
     6
370
    13
100
AcDbLine
 10
-1562.053579439816
 20
8.815660880996319
 30
0.0
 11
-1586.042499084558
 21
22.66573379326431
 31
0.0
  0
LINE
  5
113
330
1F
100
AcDbEntity
  8
0-2_本体（蓋）
  6
Continuous
 62
     6
370
    13
100
AcDbLine
 10
-1538.064721655029
 20
22.66573379326431
 30
0.0
 11
-1562.053579439816
 21
8.815660880996319
 31
0.0
  0
LINE
  5
114
330
1F
100
AcDbEntity
  8
0-2_本体（蓋）
  6
Continuous
 62
     6
370
    13
100
AcDbLine
 10
-1538.064721655029
 20
50.36575589788828
 30
0.0
 11
-1538.064721655029
 21
22.66573379326431
 31
0.0
  0
LINE
  5
115
330
1F
100
AcDbEntity
  8
0-0_通り芯
  6
Continuous
 62
     3
370
    13
100
AcDbLine
 10
-1542.053637175774
 20
118.5157555679685
 30
0.0
 11
-1511.053633876577
 21
118.5157555679685
 31
0.0
  0
LINE
  5
116
330
1F
100
AcDbEntity
  8
0-0_通り芯
  6
Continuous
 62
     3
370
    13
100
AcDbLine
 10
-1613.053648722966
 20
118.5157555679685
 30
0.0
 11
-1582.053645423768
 21
118.5157555679685
 31
0.0
  0
LINE
  5
117
330
1F
100
AcDbEntity
  8
0-2_本体（蓋）
  6
JWW_CENTER1
 62
     6
370
    13
100
AcDbLine
 10
-1633.459639735952
 20
36.51568298562054
 30
0.0
 11
-1490.855739754427
 21
36.51568298562054
 31
0.0
  0
LINE
  5
118
330
1F
100
AcDbEntity
  8
0-2_本体（蓋）
  6
JWW_CENTER1
 62
     6
370
    13
100
AcDbLine
 10
-1562.053579439816
 20
90.74212011611041
 30
0.0
 11
-1562.053579439816
 21
-13.45516035527893
 31
0.0
  0
LINE
  5
119
330
1F
100
AcDbEntity
  8
0-0_通り芯
  6
Continuous
 62
     3
370
    13
100
AcDbLine
 10
-1684.053598410202
 20
5.515803406334356
 30
0.0
 11
-1653.053595111005
 21
5.515803406334356
 31
0.0
  0
LINE
  5
11A
330
1F
100
AcDbEntity
  8
0-0_通り芯
  6
Continuous
 62
     3
370
    13
100
AcDbLine
 10
-1684.053598410202
 20
271.5157159775969
 30
0.0
 11
-1653.053595111005
 21
271.5157159775969
 31
0.0
  0
LINE
  5
11B
330
1F
100
AcDbEntity
  8
0-0_通り芯
  6
Continuous
 62
     3
370
    13
100
AcDbLine
 10
-1684.053598410202
 20
247.5157852607474
 30
0.0
 11
-1653.053595111005
 21
247.5157852607474
 31
0.0
  0
LINE
  5
11C
330
1F
100
AcDbEntity
  8
0-0_通り芯
  6
Continuous
 62
     3
370
    13
100
AcDbLine
 10
-1692.053637175774
 20
239.5156846352195
 30
0.0
 11
-1692.053637175774
 21
13.51578031195075
 31
0.0
  0
LINE
  5
11D
330
1F
100
AcDbEntity
  8
0-0_通り芯
  6
Continuous
 62
     3
370
    13
100
AcDbLine
 10
-1645.053556345432
 20
239.5156846352195
 30
0.0
 11
-1645.053556345432
 21
13.51578031195075
 31
0.0
  0
LINE
  5
11E
330
1F
100
AcDbEntity
  8
0-0_通り芯
  6
Continuous
 62
     3
370
    13
100
AcDbLine
 10
-1574.053606658196
 20
239.5156846352195
 30
0.0
 11
-1574.053606658196
 21
126.5157324735851
 31
0.0
  0
LINE
  5
11F
330
1F
100
AcDbEntity
  8
0-0_通り芯
  6
Continuous
 62
     3
370
    13
100
AcDbLine
 10
-1621.053625628583
 20
239.5156846352195
 30
0.0
 11
-1621.053625628583
 21
126.5157324735851
 31
0.0
  0
LINE
  5
120
330
1F
100
AcDbEntity
  8
0-0_通り芯
  6
Continuous
 62
     3
370
    13
100
AcDbLine
 10
-1613.053648722966
 20
247.5157852607474
 30
0.0
 11
-1582.053645423768
 21
247.5157852607474
 31
0.0
  0
LINE
  5
121
330
1F
100
AcDbEntity
  8
0-0_通り芯
  6
Continuous
 62
     3
370
    13
100
AcDbLine
 10
-1613.053648722966
 20
271.5157159775969
 30
0.0
 11
-1582.053645423768
 21
271.5157159775969
 31
0.0
  0
LINE
  5
122
330
1F
100
AcDbEntity
  8
0-0_通り芯
  6
Continuous
 62
     3
370
    13
100
AcDbLine
 10
-1621.053625628583
 20
78.51574731997448
 30
0.0
 11
-1621.053625628583
 21
-5.484257628821894
 31
0.0
  0
LINE
  5
123
330
1F
100
AcDbEntity
  8
0-0_通り芯
  6
Continuous
 62
     3
370
    13
100
AcDbLine
 10
-1503.053595111005
 20
78.51574731997448
 30
0.0
 11
-1503.053595111005
 21
-5.484257628821894
 31
0.0
  0
LINE
  5
124
330
1F
100
AcDbEntity
  8
0-0_通り芯
  6
Continuous
 62
     3
370
    13
100
AcDbLine
 10
-1542.053637175774
 20
271.5157159775969
 30
0.0
 11
-1511.053633876577
 21
271.5157159775969
 31
0.0
  0
LINE
  5
125
330
1F
100
AcDbEntity
  8
0-0_通り芯
  6
Continuous
 62
     3
370
    13
100
AcDbLine
 10
-1542.053637175774
 20
247.5157852607474
 30
0.0
 11
-1511.053633876577
 21
247.5157852607474
 31
0.0
  0
LINE
  5
126
330
1F
100
AcDbEntity
  8
0-0_通り芯
  6
Continuous
 62
     3
370
    13
100
AcDbLine
 10
-1550.053614081391
 20
239.5156846352195
 30
0.0
 11
-1550.053614081391
 21
126.5157324735851
 31
0.0
  0
LINE
  5
127
330
1F
100
AcDbEntity
  8
0-0_通り芯
  6
Continuous
 62
     3
370
    13
100
AcDbLine
 10
-1503.053595111005
 20
239.5156846352195
 30
0.0
 11
-1503.053595111005
 21
126.5157324735851
 31
0.0
  0
LINE
  5
128
330
1F
100
AcDbEntity
  8
0-0_通り芯
  6
Continuous
 62
     3
370
    13
100
AcDbLine
 10
-1621.053625628583
 20
78.51574731997448
 30
0.0
 11
-1503.053595111005
 21
78.51574731997448
 31
0.0
  0
LINE
  5
129
330
1F
100
AcDbEntity
  8
0-0_通り芯
  6
Continuous
 62
     3
370
    13
100
AcDbLine
 10
-1621.053625628583
 20
-5.484257628821894
 30
0.0
 11
-1503.053595111005
 21
-5.484257628821894
 31
0.0
  0
LINE
  5
12A
330
1F
100
AcDbEntity
  8
0-0_通り芯
  6
Continuous
 62
     3
370
    13
100
AcDbLine
 10
-1403.053574491019
 20
239.5156846352195
 30
0.0
 11
-1403.053574491019
 21
13.51578031195075
 31
0.0
  0
LINE
  5
12B
330
1F
100
AcDbEntity
  8
0-0_通り芯
  6
Continuous
 62
     3
370
    13
100
AcDbLine
 10
-1450.053655321361
 20
239.5156846352195
 30
0.0
 11
-1450.053655321361
 21
13.51578031195075
 31
0.0
  0
LINE
  5
12C
330
1F
100
AcDbEntity
  8
0-0_通り芯
  6
Continuous
 62
     3
370
    13
100
AcDbLine
 10
-1442.053616555789
 20
247.5157852607474
 30
0.0
 11
-1411.053551396636
 21
247.5157852607474
 31
0.0
  0
LINE
  5
12D
330
1F
100
AcDbEntity
  8
0-0_通り芯
  6
Continuous
 62
     3
370
    13
100
AcDbLine
 10
-1442.053616555789
 20
271.5157159775969
 30
0.0
 11
-1411.053551396636
 21
271.5157159775969
 31
0.0
  0
LINE
  5
12E
330
1F
100
AcDbEntity
  8
0-0_通り芯
  6
Continuous
 62
     3
370
    13
100
AcDbLine
 10
-1442.053616555789
 20
5.515803406334356
 30
0.0
 11
-1411.053551396636
 21
5.515803406334356
 31
0.0
  0
LINE
  5
12F
330
1F
100
AcDbEntity
  8
0-0_通り芯
  6
Continuous
 62
     3
370
    13
100
AcDbLine
 10
-1371.053666868553
 20
5.515803406334356
 30
0.0
 11
-1340.053663569356
 21
5.515803406334356
 31
0.0
  0
LINE
  5
130
330
1F
100
AcDbEntity
  8
0-0_通り芯
  6
Continuous
 62
     3
370
    13
100
AcDbLine
 10
-1371.053666868553
 20
271.5157159775969
 30
0.0
 11
-1340.053663569356
 21
271.5157159775969
 31
0.0
  0
LINE
  5
131
330
1F
100
AcDbEntity
  8
0-0_通り芯
  6
Continuous
 62
     3
370
    13
100
AcDbLine
 10
-1371.053666868553
 20
247.5157852607474
 30
0.0
 11
-1340.053663569356
 21
247.5157852607474
 31
0.0
  0
LINE
  5
132
330
1F
100
AcDbEntity
  8
0-0_通り芯
  6
Continuous
 62
     3
370
    13
100
AcDbLine
 10
-1379.05364377417
 20
239.5156846352195
 30
0.0
 11
-1379.05364377417
 21
13.51578031195075
 31
0.0
  0
LINE
  5
133
330
1F
100
AcDbEntity
  8
0-0_通り芯
  6
Continuous
 62
     3
370
    13
100
AcDbLine
 10
-1332.053562943827
 20
239.5156846352195
 30
0.0
 11
-1332.053562943827
 21
13.51578031195075
 31
0.0
  0
LINE
  5
134
330
1F
100
AcDbEntity
  8
0-0_通り芯
  6
Continuous
 62
     3
370
    13
100
AcDbLine
 10
-1261.053675116547
 20
239.5156846352195
 30
0.0
 11
-1261.053675116547
 21
13.51578031195075
 31
0.0
  0
LINE
  5
135
330
1F
100
AcDbEntity
  8
0-0_通り芯
  6
Continuous
 62
     3
370
    13
100
AcDbLine
 10
-1308.053632226978
 20
239.5156846352195
 30
0.0
 11
-1308.053632226978
 21
13.51578031195075
 31
0.0
  0
LINE
  5
136
330
1F
100
AcDbEntity
  8
0-0_通り芯
  6
Continuous
 62
     3
370
    13
100
AcDbLine
 10
-1300.053655321361
 20
247.5157852607474
 30
0.0
 11
-1269.053652022164
 21
247.5157852607474
 31
0.0
  0
LINE
  5
137
330
1F
100
AcDbEntity
  8
0-0_通り芯
  6
Continuous
 62
     3
370
    13
100
AcDbLine
 10
-1300.053655321361
 20
271.5157159775969
 30
0.0
 11
-1269.053652022164
 21
271.5157159775969
 31
0.0
  0
LINE
  5
138
330
1F
100
AcDbEntity
  8
0-0_通り芯
  6
Continuous
 62
     3
370
    13
100
AcDbLine
 10
-1300.053655321361
 20
5.515803406334356
 30
0.0
 11
-1269.053652022164
 21
5.515803406334356
 31
0.0
  0
LINE
  5
139
330
1F
100
AcDbEntity
  8
0-0_通り芯
  6
Continuous
 62
     3
370
    13
100
AcDbLine
 10
-1200.05357284142
 20
5.515803406334356
 30
0.0
 11
-1169.053569542223
 21
5.515803406334356
 31
0.0
  0
LINE
  5
13A
330
1F
100
AcDbEntity
  8
0-0_通り芯
  6
Continuous
 62
     3
370
    13
100
AcDbLine
 10
-1200.05357284142
 20
271.5157159775969
 30
0.0
 11
-1169.053569542223
 21
271.5157159775969
 31
0.0
  0
LINE
  5
13B
330
1F
100
AcDbEntity
  8
0-0_通り芯
  6
Continuous
 62
     3
370
    13
100
AcDbLine
 10
-1200.05357284142
 20
247.5157852607474
 30
0.0
 11
-1169.053569542223
 21
247.5157852607474
 31
0.0
  0
LINE
  5
13C
330
1F
100
AcDbEntity
  8
0-0_通り芯
  6
Continuous
 62
     3
370
    13
100
AcDbLine
 10
-1208.053673466948
 20
239.5156846352195
 30
0.0
 11
-1208.053673466948
 21
13.51578031195075
 31
0.0
  0
LINE
  5
13D
330
1F
100
AcDbEntity
  8
0-0_通り芯
  6
Continuous
 62
     3
370
    13
100
AcDbLine
 10
-1161.053592636606
 20
239.5156846352195
 30
0.0
 11
-1161.053592636606
 21
13.51578031195075
 31
0.0
  0
LINE
  5
13E
330
1F
100
AcDbEntity
  8
0-0_通り芯
  6
Continuous
 62
     3
370
    13
100
AcDbLine
 10
-1090.053704809326
 20
239.5156846352195
 30
0.0
 11
-1090.053704809326
 21
13.51578031195075
 31
0.0
  0
LINE
  5
13F
330
1F
100
AcDbEntity
  8
0-0_通り芯
  6
Continuous
 62
     3
370
    13
100
AcDbLine
 10
-1137.053661919756
 20
239.5156846352195
 30
0.0
 11
-1137.053661919756
 21
13.51578031195075
 31
0.0
  0
LINE
  5
140
330
1F
100
AcDbEntity
  8
0-0_通り芯
  6
Continuous
 62
     3
370
    13
100
AcDbLine
 10
-1129.05368501414
 20
247.5157852607474
 30
0.0
 11
-1098.053681714942
 21
247.5157852607474
 31
0.0
  0
LINE
  5
141
330
1F
100
AcDbEntity
  8
0-0_通り芯
  6
Continuous
 62
     3
370
    13
100
AcDbLine
 10
-1129.05368501414
 20
271.5157159775969
 30
0.0
 11
-1098.053681714942
 21
271.5157159775969
 31
0.0
  0
LINE
  5
142
330
1F
100
AcDbEntity
  8
0-0_通り芯
  6
Continuous
 62
     3
370
    13
100
AcDbLine
 10
-1129.05368501414
 20
5.515803406334356
 30
0.0
 11
-1098.053681714942
 21
5.515803406334356
 31
0.0
  0
LINE
  5
143
330
1F
100
AcDbEntity
  8
0-0_通り芯
  6
Continuous
 62
     3
370
    13
100
AcDbLine
 10
-1058.053673466948
 20
5.515803406334356
 30
0.0
 11
-1027.053670167751
 21
5.515803406334356
 31
0.0
  0
LINE
  5
144
330
1F
100
AcDbEntity
  8
0-0_通り芯
  6
Continuous
 62
     3
370
    13
100
AcDbLine
 10
-1058.053673466948
 20
271.5157159775969
 30
0.0
 11
-1027.053670167751
 21
271.5157159775969
 31
0.0
  0
LINE
  5
145
330
1F
100
AcDbEntity
  8
0-0_通り芯
  6
Continuous
 62
     3
370
    13
100
AcDbLine
 10
-1058.053673466948
 20
247.5157852607474
 30
0.0
 11
-1027.053670167751
 21
247.5157852607474
 31
0.0
  0
LINE
  5
146
330
1F
100
AcDbEntity
  8
0-0_通り芯
  6
Continuous
 62
     3
370
    13
100
AcDbLine
 10
-1066.053650372565
 20
239.5156846352195
 30
0.0
 11
-1066.053650372565
 21
13.51578031195075
 31
0.0
  0
LINE
  5
147
330
1F
100
AcDbEntity
  8
0-0_通り芯
  6
Continuous
 62
     3
370
    13
100
AcDbLine
 10
-1019.053693262134
 20
239.5156846352195
 30
0.0
 11
-1019.053693262134
 21
13.51578031195075
 31
0.0
  0
LINE
  5
148
330
1F
100
AcDbEntity
  8
0-0_通り芯
  6
Continuous
 62
     3
370
    13
100
AcDbLine
 10
-919.0537345021045
 20
239.5156846352195
 30
0.0
 11
-919.0537345021045
 21
13.51578031195075
 31
0.0
  0
LINE
  5
149
330
1F
100
AcDbEntity
  8
0-0_通り芯
  6
Continuous
 62
     3
370
    13
100
AcDbLine
 10
-966.0536916125353
 20
239.5156846352195
 30
0.0
 11
-966.0536916125353
 21
13.51578031195075
 31
0.0
  0
LINE
  5
14A
330
1F
100
AcDbEntity
  8
0-0_通り芯
  6
Continuous
 62
     3
370
    13
100
AcDbLine
 10
-958.0537147069186
 20
247.5157852607474
 30
0.0
 11
-927.053711407721
 21
247.5157852607474
 31
0.0
  0
LINE
  5
14B
330
1F
100
AcDbEntity
  8
0-0_通り芯
  6
Continuous
 62
     3
370
    13
100
AcDbLine
 10
-958.0537147069186
 20
271.5157159775969
 30
0.0
 11
-927.053711407721
 21
271.5157159775969
 31
0.0
  0
LINE
  5
14C
330
1F
100
AcDbEntity
  8
0-0_通り芯
  6
Continuous
 62
     3
370
    13
100
AcDbLine
 10
-958.0537147069186
 20
5.515803406334356
 30
0.0
 11
-927.053711407721
 21
5.515803406334356
 31
0.0
  0
LINE
  5
14D
330
1F
100
AcDbEntity
  8
0-0_通り芯
  6
Continuous
 62
     3
370
    13
100
AcDbLine
 10
-887.0535794398155
 20
5.515803406334356
 30
0.0
 11
-856.053576140618
 21
5.515803406334356
 31
0.0
  0
LINE
  5
14E
330
1F
100
AcDbEntity
  8
0-0_通り芯
  6
Continuous
 62
     3
370
    13
100
AcDbLine
 10
-887.0535794398155
 20
271.5157159775969
 30
0.0
 11
-856.053576140618
 21
271.5157159775969
 31
0.0
  0
LINE
  5
14F
330
1F
100
AcDbEntity
  8
0-0_通り芯
  6
Continuous
 62
     3
370
    13
100
AcDbLine
 10
-887.0535794398155
 20
247.5157852607474
 30
0.0
 11
-856.053576140618
 21
247.5157852607474
 31
0.0
  0
LINE
  5
150
330
1F
100
AcDbEntity
  8
0-0_通り芯
  6
Continuous
 62
     3
370
    13
100
AcDbLine
 10
-895.0536800653435
 20
239.5156846352195
 30
0.0
 11
-895.0536800653435
 21
13.51578031195075
 31
0.0
  0
LINE
  5
151
330
1F
100
AcDbEntity
  8
0-0_通り芯
  6
Continuous
 62
     3
370
    13
100
AcDbLine
 10
-848.0535992350013
 20
239.5156846352195
 30
0.0
 11
-848.0535992350013
 21
13.51578031195075
 31
0.0
  0
LINE
  5
152
330
1F
100
AcDbEntity
  8
0-0_通り芯
  6
Continuous
 62
     3
370
    13
100
AcDbLine
 10
-777.0537114077208
 20
239.5156846352195
 30
0.0
 11
-777.0537114077208
 21
13.51578031195075
 31
0.0
  0
LINE
  5
153
330
1F
100
AcDbEntity
  8
0-0_通り芯
  6
Continuous
 62
     3
370
    13
100
AcDbLine
 10
-824.0536685181519
 20
239.5156846352195
 30
0.0
 11
-824.0536685181519
 21
13.51578031195075
 31
0.0
  0
LINE
  5
154
330
1F
100
AcDbEntity
  8
0-0_通り芯
  6
Continuous
 62
     3
370
    13
100
AcDbLine
 10
-816.0536916125352
 20
247.5157852607474
 30
0.0
 11
-785.0536883133375
 21
247.5157852607474
 31
0.0
  0
LINE
  5
155
330
1F
100
AcDbEntity
  8
0-0_通り芯
  6
Continuous
 62
     3
370
    13
100
AcDbLine
 10
-816.0536916125352
 20
271.5157159775969
 30
0.0
 11
-785.0536883133375
 21
271.5157159775969
 31
0.0
  0
LINE
  5
156
330
1F
100
AcDbEntity
  8
0-0_通り芯
  6
Continuous
 62
     3
370
    13
100
AcDbLine
 10
-816.0536916125352
 20
5.515803406334356
 30
0.0
 11
-785.0536883133375
 21
5.515803406334356
 31
0.0
  0
LINE
  5
157
330
1F
100
AcDbEntity
  8
0-0_通り芯
  6
Continuous
 62
     3
370
    13
100
AcDbLine
 10
-1745.553590987007
 20
-20.48430711678648
 30
0.0
 11
244.4462935410755
 21
-20.48430711678648
 31
0.0
  0
LINE
  5
158
330
1F
100
AcDbEntity
  8
0-0_通り芯
  6
Continuous
 62
     3
370
    13
100
AcDbLine
 10
-685.0536058333967
 20
5.515803406334356
 30
0.0
 11
-716.0536091325944
 21
5.515803406334356
 31
0.0
  0
LINE
  5
159
330
1F
100
AcDbEntity
  8
0-0_通り芯
  6
Continuous
 62
     3
370
    13
100
AcDbLine
 10
-685.0536058333967
 20
271.5157159775969
 30
0.0
 11
-716.0536091325944
 21
271.5157159775969
 31
0.0
  0
LINE
  5
15A
330
1F
100
AcDbEntity
  8
0-0_通り芯
  6
Continuous
 62
     3
370
    13
100
AcDbLine
 10
-685.0536058333967
 20
247.5157852607474
 30
0.0
 11
-716.0536091325944
 21
247.5157852607474
 31
0.0
  0
LINE
  5
15B
330
1F
100
AcDbEntity
  8
0-0_通り芯
  6
Continuous
 62
     3
370
    13
100
AcDbLine
 10
-677.05362892778
 20
239.5156846352195
 30
0.0
 11
-677.05362892778
 21
13.51578031195075
 31
0.0
  0
LINE
  5
15C
330
1F
100
AcDbEntity
  8
0-0_通り芯
  6
Continuous
 62
     3
370
    13
100
AcDbLine
 10
-724.053586038211
 20
239.5156846352195
 30
0.0
 11
-724.053586038211
 21
13.51578031195075
 31
0.0
  0
LINE
  5
15D
330
1F
100
AcDbEntity
  8
0-0_通り芯
  6
Continuous
 62
     3
370
    13
100
AcDbLine
 10
-653.053574491019
 20
239.5156846352195
 30
0.0
 11
-653.053574491019
 21
13.51578031195075
 31
0.0
  0
LINE
  5
15E
330
1F
100
AcDbEntity
  8
0-0_通り芯
  6
Continuous
 62
     3
370
    13
100
AcDbLine
 10
-606.0537411004997
 20
239.5156846352195
 30
0.0
 11
-606.0537411004997
 21
13.51578031195075
 31
0.0
  0
LINE
  5
15F
330
1F
100
AcDbEntity
  8
0-0_通り芯
  6
Continuous
 62
     3
370
    13
100
AcDbLine
 10
-614.0537180061161
 20
247.5157852607474
 30
0.0
 11
-645.0537213053138
 21
247.5157852607474
 31
0.0
  0
LINE
  5
160
330
1F
100
AcDbEntity
  8
0-0_通り芯
  6
Continuous
 62
     3
370
    13
100
AcDbLine
 10
-614.0537180061161
 20
271.5157159775969
 30
0.0
 11
-645.0537213053138
 21
271.5157159775969
 31
0.0
  0
LINE
  5
161
330
1F
100
AcDbEntity
  8
0-0_通り芯
  6
Continuous
 62
     3
370
    13
100
AcDbLine
 10
-614.0537180061161
 20
5.515803406334356
 30
0.0
 11
-645.0537213053138
 21
5.515803406334356
 31
0.0
  0
LINE
  5
162
330
1F
100
AcDbEntity
  8
0-0_通り芯
  6
Continuous
 62
     3
370
    13
100
AcDbLine
 10
-543.0535827390133
 20
5.515803406334356
 30
0.0
 11
-574.0535860382109
 21
5.515803406334356
 31
0.0
  0
LINE
  5
163
330
1F
100
AcDbEntity
  8
0-0_通り芯
  6
Continuous
 62
     3
370
    13
100
AcDbLine
 10
-543.0535827390133
 20
271.5157159775969
 30
0.0
 11
-574.0535860382109
 21
271.5157159775969
 31
0.0
  0
LINE
  5
164
330
1F
100
AcDbEntity
  8
0-0_通り芯
  6
Continuous
 62
     3
370
    13
100
AcDbLine
 10
-543.0535827390133
 20
247.5157852607474
 30
0.0
 11
-574.0535860382109
 21
247.5157852607474
 31
0.0
  0
LINE
  5
165
330
1F
100
AcDbEntity
  8
0-0_通り芯
  6
Continuous
 62
     3
370
    13
100
AcDbLine
 10
-535.0536058333967
 20
239.5156846352195
 30
0.0
 11
-535.0536058333967
 21
13.51578031195075
 31
0.0
  0
LINE
  5
166
330
1F
100
AcDbEntity
  8
0-0_通り芯
  6
Continuous
 62
     3
370
    13
100
AcDbLine
 10
-582.0535629438273
 20
239.5156846352195
 30
0.0
 11
-582.0535629438273
 21
13.51578031195075
 31
0.0
  0
LINE
  5
167
330
1F
100
AcDbEntity
  8
0-0_通り芯
  6
Continuous
 62
     3
370
    13
100
AcDbLine
 10
-482.0537279037091
 20
239.5156846352195
 30
0.0
 11
-482.0537279037091
 21
13.51578031195075
 31
0.0
  0
LINE
  5
168
330
1F
100
AcDbEntity
  8
0-0_通り芯
  6
Continuous
 62
     3
370
    13
100
AcDbLine
 10
-435.0535233534557
 20
239.5156846352195
 30
0.0
 11
-435.0535233534557
 21
13.51578031195075
 31
0.0
  0
LINE
  5
169
330
1F
100
AcDbEntity
  8
0-0_通り芯
  6
Continuous
 62
     3
370
    13
100
AcDbLine
 10
-443.0537476988951
 20
247.5157852607474
 30
0.0
 11
-474.0537509980924
 21
247.5157852607474
 31
0.0
  0
LINE
  5
16A
330
1F
100
AcDbEntity
  8
0-0_通り芯
  6
Continuous
 62
     3
370
    13
100
AcDbLine
 10
-443.0537476988951
 20
271.5157159775969
 30
0.0
 11
-474.0537509980924
 21
271.5157159775969
 31
0.0
  0
LINE
  5
16B
330
1F
100
AcDbEntity
  8
0-0_通り芯
  6
Continuous
 62
     3
370
    13
100
AcDbLine
 10
-443.0537476988951
 20
5.515803406334356
 30
0.0
 11
-474.0537509980924
 21
5.515803406334356
 31
0.0
  0
LINE
  5
16C
330
1F
100
AcDbEntity
  8
0-0_通り芯
  6
Continuous
 62
     3
370
    13
100
AcDbLine
 10
-372.0536124317919
 20
5.515803406334356
 30
0.0
 11
-403.0536157309896
 21
5.515803406334356
 31
0.0
  0
LINE
  5
16D
330
1F
100
AcDbEntity
  8
0-0_通り芯
  6
Continuous
 62
     3
370
    13
100
AcDbLine
 10
-372.0536124317919
 20
271.5157159775969
 30
0.0
 11
-403.0536157309896
 21
271.5157159775969
 31
0.0
  0
LINE
  5
16E
330
1F
100
AcDbEntity
  8
0-0_通り芯
  6
Continuous
 62
     3
370
    13
100
AcDbLine
 10
-372.0536124317919
 20
247.5157852607474
 30
0.0
 11
-403.0536157309896
 21
247.5157852607474
 31
0.0
  0
LINE
  5
16F
330
1F
100
AcDbEntity
  8
0-0_通り芯
  6
Continuous
 62
     3
370
    13
100
AcDbLine
 10
-364.0536355261752
 20
239.5156846352195
 30
0.0
 11
-364.0536355261752
 21
13.51578031195075
 31
0.0
  0
LINE
  5
170
330
1F
100
AcDbEntity
  8
0-0_通り芯
  6
Continuous
 62
     3
370
    13
100
AcDbLine
 10
-411.053592636606
 20
239.5156846352195
 30
0.0
 11
-411.053592636606
 21
13.51578031195075
 31
0.0
  0
LINE
  5
171
330
1F
100
AcDbEntity
  8
0-0_通り芯
  6
Continuous
 62
     3
370
    13
100
AcDbLine
 10
-340.0537048093258
 20
239.5156846352195
 30
0.0
 11
-340.0537048093258
 21
13.51578031195075
 31
0.0
  0
LINE
  5
172
330
1F
100
AcDbEntity
  8
0-0_通り芯
  6
Continuous
 62
     3
370
    13
100
AcDbLine
 10
-293.0537476988948
 20
239.5156846352195
 30
0.0
 11
-293.0537476988948
 21
13.51578031195075
 31
0.0
  0
LINE
  5
173
330
1F
100
AcDbEntity
  8
0-0_通り芯
  6
Continuous
 62
     3
370
    13
100
AcDbLine
 10
-301.0537246045114
 20
247.5157852607474
 30
0.0
 11
-332.0537279037091
 21
247.5157852607474
 31
0.0
  0
LINE
  5
174
330
1F
100
AcDbEntity
  8
0-0_通り芯
  6
Continuous
 62
     3
370
    13
100
AcDbLine
 10
-301.0537246045114
 20
271.5157159775969
 30
0.0
 11
-332.0537279037091
 21
271.5157159775969
 31
0.0
  0
LINE
  5
175
330
1F
100
AcDbEntity
  8
0-0_通り芯
  6
Continuous
 62
     3
370
    13
100
AcDbLine
 10
-301.0537246045114
 20
5.515803406334356
 30
0.0
 11
-332.0537279037091
 21
5.515803406334356
 31
0.0
  0
LINE
  5
176
330
1F
100
AcDbEntity
  8
0-0_通り芯
  6
Continuous
 62
     3
370
    13
100
AcDbLine
 10
-201.0536421245706
 20
5.515803406334356
 30
0.0
 11
-232.0536454237682
 21
5.515803406334356
 31
0.0
  0
LINE
  5
177
330
1F
100
AcDbEntity
  8
0-0_通り芯
  6
Continuous
 62
     3
370
    13
100
AcDbLine
 10
-201.0536421245706
 20
271.5157159775969
 30
0.0
 11
-232.0536454237682
 21
271.5157159775969
 31
0.0
  0
LINE
  5
178
330
1F
100
AcDbEntity
  8
0-0_通り芯
  6
Continuous
 62
     3
370
    13
100
AcDbLine
 10
-201.0536421245706
 20
247.5157852607474
 30
0.0
 11
-232.0536454237682
 21
247.5157852607474
 31
0.0
  0
LINE
  5
179
330
1F
100
AcDbEntity
  8
0-0_通り芯
  6
Continuous
 62
     3
370
    13
100
AcDbLine
 10
-193.0536652189539
 20
239.5156846352195
 30
0.0
 11
-193.0536652189539
 21
13.51578031195075
 31
0.0
  0
LINE
  5
17A
330
1F
100
AcDbEntity
  8
0-0_通り芯
  6
Continuous
 62
     3
370
    13
100
AcDbLine
 10
-240.0536223293849
 20
239.5156846352195
 30
0.0
 11
-240.0536223293849
 21
13.51578031195075
 31
0.0
  0
LINE
  5
17B
330
1F
100
AcDbEntity
  8
0-0_通り芯
  6
Continuous
 62
     3
370
    13
100
AcDbLine
 10
-169.0537345021044
 20
239.5156846352195
 30
0.0
 11
-169.0537345021044
 21
13.51578031195075
 31
0.0
  0
LINE
  5
17C
330
1F
100
AcDbEntity
  8
0-0_通り芯
  6
Continuous
 62
     3
370
    13
100
AcDbLine
 10
-122.0536536717622
 20
239.5156846352195
 30
0.0
 11
-122.0536536717622
 21
13.51578031195075
 31
0.0
  0
LINE
  5
17D
330
1F
100
AcDbEntity
  8
0-0_通り芯
  6
Continuous
 62
     3
370
    13
100
AcDbLine
 10
-130.0537542972901
 20
247.5157852607474
 30
0.0
 11
-161.0537575964877
 21
247.5157852607474
 31
0.0
  0
LINE
  5
17E
330
1F
100
AcDbEntity
  8
0-0_通り芯
  6
Continuous
 62
     3
370
    13
100
AcDbLine
 10
-130.0537542972901
 20
271.5157159775969
 30
0.0
 11
-161.0537575964877
 21
271.5157159775969
 31
0.0
  0
LINE
  5
17F
330
1F
100
AcDbEntity
  8
0-0_通り芯
  6
Continuous
 62
     3
370
    13
100
AcDbLine
 10
-130.0537542972901
 20
5.515803406334356
 30
0.0
 11
-161.0537575964877
 21
5.515803406334356
 31
0.0
  0
LINE
  5
180
330
1F
100
AcDbEntity
  8
0-0_通り芯
  6
Continuous
 62
     3
370
    13
100
AcDbLine
 10
-59.05349531027575
 20
5.515803406334356
 30
0.0
 11
-90.05374604929607
 21
5.515803406334356
 31
0.0
  0
LINE
  5
181
330
1F
100
AcDbEntity
  8
0-0_通り芯
  6
Continuous
 62
     3
370
    13
100
AcDbLine
 10
-59.05349531027575
 20
271.5157159775969
 30
0.0
 11
-90.05374604929607
 21
271.5157159775969
 31
0.0
  0
LINE
  5
182
330
1F
100
AcDbEntity
  8
0-0_通り芯
  6
Continuous
 62
     3
370
    13
100
AcDbLine
 10
-59.05349531027575
 20
247.5157852607474
 30
0.0
 11
-90.05374604929607
 21
247.5157852607474
 31
0.0
  0
LINE
  5
183
330
1F
100
AcDbEntity
  8
0-0_通り芯
  6
Continuous
 62
     3
370
    13
100
AcDbLine
 10
-51.05376584448173
 20
239.5156846352195
 30
0.0
 11
-51.05376584448173
 21
13.51578031195075
 31
0.0
  0
LINE
  5
184
330
1F
100
AcDbEntity
  8
0-0_通り芯
  6
Continuous
 62
     3
370
    13
100
AcDbLine
 10
-98.05347551509008
 20
239.5156846352195
 30
0.0
 11
-98.05347551509008
 21
13.51578031195075
 31
0.0
  0
LINE
  5
185
330
1F
100
AcDbEntity
  8
0-0_通り芯
  6
Continuous
 62
     3
370
    13
100
AcDbLine
 10
119.946451902562
 20
-5.484257628821894
 30
0.0
 11
1.946359525028178
 21
-5.484257628821894
 31
0.0
  0
LINE
  5
186
330
1F
100
AcDbEntity
  8
0-0_通り芯
  6
Continuous
 62
     3
370
    13
100
AcDbLine
 10
119.946451902562
 20
78.51574731997448
 30
0.0
 11
1.946359525028178
 21
78.51574731997448
 31
0.0
  0
LINE
  5
187
330
1F
100
AcDbEntity
  8
0-0_通り芯
  6
Continuous
 62
     3
370
    13
100
AcDbLine
 10
1.946359525028178
 20
239.5156846352195
 30
0.0
 11
1.946359525028178
 21
126.5157324735851
 31
0.0
  0
LINE
  5
188
330
1F
100
AcDbEntity
  8
0-0_通り芯
  6
Continuous
 62
     3
370
    13
100
AcDbLine
 10
48.94656407528149
 20
239.5156846352195
 30
0.0
 11
48.94656407528149
 21
126.5157324735851
 31
0.0
  0
LINE
  5
189
330
1F
100
AcDbEntity
  8
0-0_通り芯
  6
Continuous
 62
     3
370
    13
100
AcDbLine
 10
40.94633972984244
 20
247.5157852607474
 30
0.0
 11
9.946583870467514
 21
247.5157852607474
 31
0.0
  0
LINE
  5
18A
330
1F
100
AcDbEntity
  8
0-0_通り芯
  6
Continuous
 62
     3
370
    13
100
AcDbLine
 10
40.94633972984244
 20
271.5157159775969
 30
0.0
 11
9.946583870467514
 21
271.5157159775969
 31
0.0
  0
LINE
  5
18B
330
1F
100
AcDbEntity
  8
0-0_通り芯
  6
Continuous
 62
     3
370
    13
100
AcDbLine
 10
1.946359525028178
 20
78.51574731997448
 30
0.0
 11
1.946359525028178
 21
-5.484257628821894
 31
0.0
  0
LINE
  5
18C
330
1F
100
AcDbEntity
  8
0-0_通り芯
  6
Continuous
 62
     3
370
    13
100
AcDbLine
 10
119.946451902562
 20
78.51574731997448
 30
0.0
 11
119.946451902562
 21
-5.484257628821894
 31
0.0
  0
LINE
  5
18D
330
1F
100
AcDbEntity
  8
0-0_通り芯
  6
Continuous
 62
     3
370
    13
100
AcDbLine
 10
111.9462275571229
 20
271.5157159775969
 30
0.0
 11
80.94647169774791
 21
271.5157159775969
 31
0.0
  0
LINE
  5
18E
330
1F
100
AcDbEntity
  8
0-0_通り芯
  6
Continuous
 62
     3
370
    13
100
AcDbLine
 10
111.9462275571229
 20
247.5157852607474
 30
0.0
 11
80.94647169774791
 21
247.5157852607474
 31
0.0
  0
LINE
  5
18F
330
1F
100
AcDbEntity
  8
0-0_通り芯
  6
Continuous
 62
     3
370
    13
100
AcDbLine
 10
119.946451902562
 20
239.5156846352195
 30
0.0
 11
119.946451902562
 21
126.5157324735851
 31
0.0
  0
LINE
  5
190
330
1F
100
AcDbEntity
  8
0-0_通り芯
  6
Continuous
 62
     3
370
    13
100
AcDbLine
 10
72.94624735230857
 20
239.5156846352195
 30
0.0
 11
72.94624735230857
 21
126.5157324735851
 31
0.0
  0
LINE
  5
191
330
1F
100
AcDbEntity
  8
0-0_通り芯
  6
Continuous
 62
     3
370
    13
100
AcDbLine
 10
143.946135179589
 20
239.5156846352195
 30
0.0
 11
143.946135179589
 21
13.51578031195075
 31
0.0
  0
LINE
  5
192
330
1F
100
AcDbEntity
  8
0-0_通り芯
  6
Continuous
 62
     3
370
    13
100
AcDbLine
 10
190.9463397298424
 20
239.5156846352195
 30
0.0
 11
190.9463397298424
 21
13.51578031195075
 31
0.0
  0
LINE
  5
193
330
1F
100
AcDbEntity
  8
0-0_通り芯
  6
Continuous
 62
     3
370
    13
100
AcDbLine
 10
182.9461153844031
 20
247.5157852607474
 30
0.0
 11
151.9463595250281
 21
247.5157852607474
 31
0.0
  0
LINE
  5
194
330
1F
100
AcDbEntity
  8
0-0_通り芯
  6
Continuous
 62
     3
370
    13
100
AcDbLine
 10
182.9461153844031
 20
271.5157159775969
 30
0.0
 11
151.9463595250281
 21
271.5157159775969
 31
0.0
  0
LINE
  5
195
330
1F
100
AcDbEntity
  8
0-0_通り芯
  6
Continuous
 62
     3
370
    13
100
AcDbLine
 10
182.9461153844031
 20
5.515803406334356
 30
0.0
 11
151.9463595250281
 21
5.515803406334356
 31
0.0
  0
LINE
  5
196
330
1F
100
AcDbEntity
  8
0-2_本体（蓋）
  6
JWW_CENTER1
 62
     6
370
    13
100
AcDbLine
 10
60.94640571379504
 20
90.74212011611041
 30
0.0
 11
60.94640571379504
 21
-13.45516035527893
 31
0.0
  0
LINE
  5
197
330
1F
100
AcDbEntity
  8
0-2_本体（蓋）
  6
JWW_CENTER1
 62
     6
370
    13
100
AcDbLine
 10
132.3525897298424
 20
36.51568298562054
 30
0.0
 11
-10.25143397159344
 21
36.51568298562054
 31
0.0
  0
LINE
  5
198
330
1F
100
AcDbEntity
  8
0-0_通り芯
  6
Continuous
 62
     3
370
    13
100
AcDbLine
 10
111.9462275571229
 20
118.5157555679685
 30
0.0
 11
80.94647169774791
 21
118.5157555679685
 31
0.0
  0
LINE
  5
199
330
1F
100
AcDbEntity
  8
0-0_通り芯
  6
Continuous
 62
     3
370
    13
100
AcDbLine
 10
40.94633972984244
 20
118.5157555679685
 30
0.0
 11
9.946583870467514
 21
118.5157555679685
 31
0.0
  0
LINE
  5
19A
330
1F
100
AcDbEntity
  8
0-2_本体（蓋）
  6
Continuous
 62
     6
370
    13
100
AcDbLine
 10
36.95760978896406
 20
50.36575589788828
 30
0.0
 11
36.95760978896406
 21
22.66573379326431
 31
0.0
  0
LINE
  5
19B
330
1F
100
AcDbEntity
  8
0-2_本体（蓋）
  6
Continuous
 62
     6
370
    13
100
AcDbLine
 10
36.95760978896406
 20
22.66573379326431
 30
0.0
 11
60.94640571379504
 21
8.815660880996319
 31
0.0
  0
LINE
  5
19C
330
1F
100
AcDbEntity
  8
0-2_本体（蓋）
  6
Continuous
 62
     6
370
    13
100
AcDbLine
 10
60.94640571379504
 20
8.815660880996319
 30
0.0
 11
84.9352016386263
 21
22.66573379326431
 31
0.0
  0
LINE
  5
19D
330
1F
100
AcDbEntity
  8
0-2_本体（蓋）
  6
Continuous
 62
     6
370
    13
100
AcDbLine
 10
84.9352016386263
 20
22.66573379326431
 30
0.0
 11
84.9352016386263
 21
50.36575589788828
 31
0.0
  0
LINE
  5
19E
330
1F
100
AcDbEntity
  8
0-2_本体（蓋）
  6
Continuous
 62
     6
370
    13
100
AcDbLine
 10
84.9352016386263
 20
50.36575589788828
 30
0.0
 11
60.94640571379504
 21
64.2157050902448
 31
0.0
  0
LINE
  5
19F
330
1F
100
AcDbEntity
  8
0-2_本体（蓋）
  6
Continuous
 62
     6
370
    13
100
AcDbLine
 10
60.94640571379504
 20
64.2157050902448
 30
0.0
 11
36.95760978896406
 21
50.36575589788828
 31
0.0
  0
LINE
  5
1A0
330
1F
100
AcDbEntity
  8
0-0_通り芯
  6
JWW_PHANTOM1
 62
     3
370
    13
100
AcDbLine
 10
254.4463265330519
 20
-20.48430711678648
 30
0.0
 11
254.4463265330519
 21
779.5154866833615
 31
0.0
  0
LINE
  5
1A1
330
1F
100
AcDbEntity
  8
0-0_通り芯
  6
Continuous
 62
     3
370
    13
100
AcDbLine
 10
1284.483623962317
 20
490.5156714384289
 30
0.0
 11
1284.483623962317
 21
508.5156813360219
 31
0.0
  0
LINE
  5
1A2
330
1F
100
AcDbEntity
  8
0-0_通り芯
  6
Continuous
 62
     3
370
    13
100
AcDbLine
 10
1284.483623962317
 20
250.5157456703758
 30
0.0
 11
1254.483524986389
 21
247.5157852607474
 31
0.0
  0
LINE
  5
1A3
330
1F
100
AcDbEntity
  8
0-0_通り芯
  6
Continuous
 62
     3
370
    13
100
AcDbLine
 10
1254.483524986389
 20
271.5157159775969
 30
0.0
 11
1284.483623962317
 21
268.5157555679684
 31
0.0
  0
LINE
  5
1A4
330
1F
100
AcDbEntity
  8
0-0_通り芯
  6
Continuous
 62
     3
370
    13
100
AcDbLine
 10
1254.483524986389
 20
487.5157110288005
 30
0.0
 11
1284.483623962317
 21
490.5156714384289
 31
0.0
  0
LINE
  5
1A5
330
1F
100
AcDbEntity
  8
0-0_通り芯
  6
Continuous
 62
     3
370
    13
100
AcDbLine
 10
1284.483623962317
 20
508.5156813360219
 30
0.0
 11
1254.483524986389
 21
511.5157654655615
 31
0.0
  0
LINE
  5
1A6
330
1F
100
AcDbEntity
  8
0-0_通り芯
  6
Continuous
 62
     3
370
    13
100
AcDbLine
 10
1284.483623962317
 20
268.5157555679684
 30
0.0
 11
1284.483623962317
 21
250.5157456703758
 31
0.0
  0
LINE
  5
1A7
330
1F
100
AcDbEntity
  8
0-0_通り芯
  6
Continuous
 62
     3
370
    13
100
AcDbLine
 10
1330.483181869834
 20
775.5156219504643
 30
0.0
 11
1254.483524986389
 21
779.5154866833615
 31
0.0
  0
LINE
  5
1A8
330
1F
100
AcDbEntity
  8
0-0_通り芯
  6
Continuous
 62
     3
370
    13
100
AcDbLine
 10
1318.483340231321
 20
655.917563198353
 30
0.0
 11
1318.483340231321
 21
103.1136163682218
 31
0.0
  0
LINE
  5
1A9
330
1F
100
AcDbEntity
  8
0-0_通り芯
  6
Continuous
 62
     3
370
    13
100
AcDbLine
 10
1314.483228058601
 20
113.5157390719804
 30
0.0
 11
1314.483228058601
 21
-5.484257628821894
 31
0.0
  0
LINE
  5
1AA
330
1F
100
AcDbEntity
  8
0-0_通り芯
  6
Continuous
 62
     3
370
    13
100
AcDbLine
 10
1254.483524986389
 20
-5.484257628821894
 30
0.0
 11
1314.483228058601
 21
-5.484257628821894
 31
0.0
  0
LINE
  5
1AB
330
1F
100
AcDbEntity
  8
0-0_通り芯
  6
Continuous
 62
     3
370
    13
100
AcDbLine
 10
1330.483181869834
 20
79.51577536315443
 30
0.0
 11
1326.68448571274
 21
83.31471896007162
 31
0.0
  0
LINE
  5
1AC
330
1F
100
AcDbEntity
  8
0-0_通り芯
  6
Continuous
 62
     3
370
    13
100
AcDbLine
 10
1330.483181869834
 20
-16.48419494406696
 30
0.0
 11
1254.483524986389
 21
-20.48430711678648
 31
0.0
  0
LINE
  5
1AD
330
1F
100
AcDbEntity
  8
0-0_通り芯
  6
Continuous
 62
     3
370
    13
100
AcDbLine
 10
1270.483478797621
 20
103.5157060800042
 30
0.0
 11
1314.483228058601
 21
103.5157060800042
 31
0.0
  0
LINE
  5
1AE
330
1F
100
AcDbEntity
  8
0-0_通り芯
  6
Continuous
 62
     3
370
    13
100
AcDbLine
 10
1314.483228058601
 20
113.5157390719804
 30
0.0
 11
1254.483524986389
 21
118.5157555679685
 31
0.0
  0
LINE
  5
1AF
330
1F
100
AcDbEntity
  8
0-0_通り芯
  6
Continuous
 62
     3
370
    13
100
AcDbLine
 10
1270.483478797621
 20
80.51567968642291
 30
0.0
 11
1254.483524986389
 21
78.51574731997448
 31
0.0
  0
LINE
  5
1B0
330
1F
100
AcDbEntity
  8
0-0_通り芯
  6
Continuous
 62
     3
370
    13
100
AcDbLine
 10
1330.483181869834
 20
757.5156120528716
 30
0.0
 11
1306.16826025877
 21
756.2361007300252
 31
0.0
  0
LINE
  5
1B1
330
1F
100
AcDbEntity
  8
0-2_本体（蓋）
  6
Continuous
 62
     6
370
    13
100
AcDbLine
 10
1362.483584371946
 20
744.5156186512667
 30
0.0
 11
1359.192634730898
 21
750.2158898453125
 31
0.0
  0
LINE
  5
1B2
330
1F
100
AcDbEntity
  8
0-2_本体（蓋）
  6
Continuous
 62
     6
370
    13
100
AcDbLine
 10
1362.483584371946
 20
700.5156219504643
 30
0.0
 11
1359.192634730898
 21
694.8155981962414
 31
0.0
  0
LINE
  5
1B3
330
1F
100
AcDbEntity
  8
0-2_本体（蓋）
  6
Continuous
 62
     6
370
    13
100
AcDbLine
 10
1342.483518387993
 20
750.2158898453125
 30
0.0
 11
1359.192634730898
 21
750.2158898453125
 31
0.0
  0
LINE
  5
1B4
330
1F
100
AcDbEntity
  8
0-2_本体（蓋）
  6
Continuous
 62
     6
370
    13
100
AcDbLine
 10
1342.483518387993
 20
694.8155981962414
 30
0.0
 11
1359.192634730898
 21
694.8155981962414
 31
0.0
  0
LINE
  5
1B5
330
1F
100
AcDbEntity
  8
0-2_本体（蓋）
  6
Continuous
 62
     6
370
    13
100
AcDbLine
 10
1362.483584371946
 20
700.5156219504643
 30
0.0
 11
1362.483584371946
 21
744.5156186512667
 31
0.0
  0
LINE
  5
1B6
330
1F
100
AcDbEntity
  8
0-2_本体（蓋）
  6
JWW_CENTER1
 62
     6
370
    13
100
AcDbLine
 10
1315.679847040865
 20
722.5154965809542
 30
0.0
 11
1379.276830254547
 21
722.5154965809542
 31
0.0
  0
LINE
  5
1B7
330
1F
100
AcDbEntity
  8
0-0_通り芯
  6
Continuous
 62
     3
370
    13
100
AcDbLine
 10
1330.483181869834
 20
679.5156516432432
 30
0.0
 11
1326.68448571274
 21
675.716708046326
 31
0.0
  0
LINE
  5
1B8
330
1F
100
AcDbEntity
  8
0-2_本体（蓋）
  6
Continuous
 62
     6
370
    13
100
AcDbLine
 10
1314.483228058601
 20
56.51574896957346
 30
0.0
 11
1330.483181869834
 21
56.51574896957346
 31
0.0
  0
LINE
  5
1B9
330
1F
100
AcDbEntity
  8
0-2_本体（蓋）
  6
Continuous
 62
     6
370
    13
100
AcDbLine
 10
1314.483228058601
 20
16.51574072157914
 30
0.0
 11
1330.483181869834
 21
16.51574072157914
 31
0.0
  0
LINE
  5
1BA
330
1F
100
AcDbEntity
  8
0-2_本体（蓋）
  6
Continuous
 62
     6
370
    13
100
AcDbLine
 10
1308.483307239344
 20
66.51578196154975
 30
0.0
 11
1308.483307239344
 21
6.515707729602838
 31
0.0
  0
LINE
  5
1BB
330
1F
100
AcDbEntity
  8
0-2_本体（蓋）
  6
JWW_CENTER1
 62
     6
370
    13
100
AcDbLine
 10
1241.186108917976
 20
36.51568298562054
 30
0.0
 11
1379.276830254547
 21
36.51568298562054
 31
0.0
  0
LINE
  5
1BC
330
1F
100
AcDbEntity
  8
0-2_本体（蓋）
  6
Continuous
 62
     6
370
    13
100
AcDbLine
 10
1308.483307239344
 20
66.51578196154975
 30
0.0
 11
1314.483228058601
 21
66.51578196154975
 31
0.0
  0
LINE
  5
1BD
330
1F
100
AcDbEntity
  8
0-2_本体（蓋）
  6
Continuous
 62
     6
370
    13
100
AcDbLine
 10
1308.483307239344
 20
6.515707729602838
 30
0.0
 11
1314.483228058601
 21
6.515707729602838
 31
0.0
  0
LINE
  5
1BE
330
1F
100
AcDbEntity
  8
0-2_本体（蓋）
  6
Continuous
 62
     6
370
    13
100
AcDbLine
 10
1362.483584371946
 20
58.51568133602189
 30
0.0
 11
1362.483584371946
 21
14.51568463521951
 31
0.0
  0
LINE
  5
1BF
330
1F
100
AcDbEntity
  8
0-0_通り芯
  6
Continuous
 62
     3
370
    13
100
AcDbLine
 10
1270.483478797621
 20
80.51567968642291
 30
0.0
 11
1270.483478797621
 21
103.5157060800042
 31
0.0
  0
LINE
  5
1C0
330
1F
100
AcDbEntity
  8
0-2_本体（蓋）
  6
Continuous
 62
     6
370
    13
100
AcDbLine
 10
1342.483518387993
 20
64.2157050902448
 30
0.0
 11
1359.192634730898
 21
64.2157050902448
 31
0.0
  0
LINE
  5
1C1
330
1F
100
AcDbEntity
  8
0-2_本体（蓋）
  6
Continuous
 62
     6
370
    13
100
AcDbLine
 10
1342.483518387993
 20
8.815660880996319
 30
0.0
 11
1359.192634730898
 21
8.815660880996319
 31
0.0
  0
LINE
  5
1C2
330
1F
100
AcDbEntity
  8
0-2_本体（蓋）
  6
Continuous
 62
     6
370
    13
100
AcDbLine
 10
1314.483228058601
 20
52.51576051676512
 30
0.0
 11
1359.019426855054
 21
52.51576051676512
 31
0.0
  0
LINE
  5
1C3
330
1F
100
AcDbEntity
  8
0-2_本体（蓋）
  6
Continuous
 62
     6
370
    13
100
AcDbLine
 10
1314.483228058601
 20
20.51572917438747
 30
0.0
 11
1359.019426855054
 21
20.51572917438747
 31
0.0
  0
LINE
  5
1C4
330
1F
100
AcDbEntity
  8
0-2_本体（蓋）
  6
Continuous
 62
     6
370
    13
100
AcDbLine
 10
1275.54362317051
 20
60.51573742238151
 30
0.0
 11
1275.54362317051
 21
12.5157522687708
 31
0.0
  0
LINE
  5
1C5
330
1F
100
AcDbEntity
  8
0-2_本体（蓋）
  6
Continuous
 62
     6
370
    13
100
AcDbLine
 10
1362.483584371946
 20
58.51568133602189
 30
0.0
 11
1359.192634730898
 21
64.2157050902448
 31
0.0
  0
LINE
  5
1C6
330
1F
100
AcDbEntity
  8
0-2_本体（蓋）
  6
Continuous
 62
     6
370
    13
100
AcDbLine
 10
1362.483584371946
 20
14.51568463521951
 30
0.0
 11
1359.192634730898
 21
8.815660880996319
 31
0.0
  0
LINE
  5
1C7
330
1F
100
AcDbEntity
  8
0-2_本体（蓋）
  6
Continuous
 62
     6
370
    13
100
AcDbLine
 10
1275.54362317051
 20
60.51573742238151
 30
0.0
 11
1282.483320436135
 21
60.51573742238151
 31
0.0
  0
LINE
  5
1C8
330
1F
100
AcDbEntity
  8
0-2_本体（蓋）
  6
Continuous
 62
     6
370
    13
100
AcDbLine
 10
1275.54362317051
 20
12.5157522687708
 30
0.0
 11
1282.483320436135
 21
12.5157522687708
 31
0.0
  0
LINE
  5
1C9
330
1F
100
AcDbEntity
  8
0-2_本体（蓋）
  6
Continuous
 62
     6
370
    13
100
AcDbLine
 10
1282.483320436135
 20
14.51568463521951
 30
0.0
 11
1285.774270077182
 21
8.815660880996319
 31
0.0
  0
LINE
  5
1CA
330
1F
100
AcDbEntity
  8
0-2_本体（蓋）
  6
Continuous
 62
     6
370
    13
100
AcDbLine
 10
1282.483320436135
 20
58.51568133602189
 30
0.0
 11
1285.774270077182
 21
64.2157050902448
 31
0.0
  0
LINE
  5
1CB
330
1F
100
AcDbEntity
  8
0-2_本体（蓋）
  6
Continuous
 62
     6
370
    13
100
AcDbLine
 10
1308.483307239344
 20
20.51572917438747
 30
0.0
 11
1285.947477953027
 21
20.51572917438747
 31
0.0
  0
LINE
  5
1CC
330
1F
100
AcDbEntity
  8
0-2_本体（蓋）
  6
Continuous
 62
     6
370
    13
100
AcDbLine
 10
1308.483307239344
 20
52.51576051676512
 30
0.0
 11
1285.947477953027
 21
52.51576051676512
 31
0.0
  0
LINE
  5
1CD
330
1F
100
AcDbEntity
  8
0-2_本体（蓋）
  6
Continuous
 62
     6
370
    13
100
AcDbLine
 10
1308.483307239344
 20
8.815660880996319
 30
0.0
 11
1285.774270077182
 21
8.815660880996319
 31
0.0
  0
LINE
  5
1CE
330
1F
100
AcDbEntity
  8
0-2_本体（蓋）
  6
Continuous
 62
     6
370
    13
100
AcDbLine
 10
1308.483307239344
 20
64.2157050902448
 30
0.0
 11
1285.774270077182
 21
64.2157050902448
 31
0.0
  0
LINE
  5
1CF
330
1F
100
AcDbEntity
  8
0-2_本体（蓋）
  6
Continuous
 62
     6
370
    13
100
AcDbLine
 10
1282.483320436135
 20
60.51573742238151
 30
0.0
 11
1282.483320436135
 21
12.5157522687708
 31
0.0
  0
LINE
  5
1D0
330
1F
100
AcDbEntity
  8
0-2_本体（蓋）
  6
Continuous
 62
     6
370
    13
100
AcDbLine
 10
1314.483228058601
 20
50.51570443040521
 30
0.0
 11
1342.483518387993
 21
50.51570443040521
 31
0.0
  0
LINE
  5
1D1
330
1F
100
AcDbEntity
  8
0-2_本体（蓋）
  6
Continuous
 62
     6
370
    13
100
AcDbLine
 10
1314.483228058601
 20
22.51578526074738
 30
0.0
 11
1342.483518387993
 21
22.51578526074738
 31
0.0
  0
LINE
  5
1D2
330
1F
100
AcDbEntity
  8
0-2_本体（蓋）
  6
Continuous
 62
     6
370
    13
100
AcDbLine
 10
1342.483518387993
 20
738.5156978320099
 30
0.0
 11
1359.019426855054
 21
738.5156978320099
 31
0.0
  0
LINE
  5
1D3
330
1F
100
AcDbEntity
  8
0-2_本体（蓋）
  6
Continuous
 62
     6
370
    13
100
AcDbLine
 10
1342.483518387993
 20
706.515542769721
 30
0.0
 11
1359.019426855054
 21
706.515542769721
 31
0.0
  0
LINE
  5
1D4
330
1F
100
AcDbEntity
  8
0-0_通り芯
  6
Continuous
 62
     3
370
    13
100
AcDbLine
 10
1306.16826025877
 20
756.2361007300252
 30
0.0
 11
1254.483524986389
 21
753.5154998801518
 31
0.0
  0
LINE
  5
1D5
330
1F
100
AcDbEntity
  8
0-0_通り芯
  6
JWW_CENTER1
 62
     3
370
    13
100
AcDbLine
 10
1228.543913499902
 20
379.5157753631544
 30
0.0
 11
1348.756612771439
 21
379.5157753631544
 31
0.0
  0
LINE
  5
1D6
330
1F
100
AcDbEntity
  8
0-0_通り芯
  6
Continuous
 62
     3
370
    13
100
AcDbLine
 10
1254.483524986389
 20
-20.48430711678648
 30
0.0
 11
1254.483524986389
 21
27.12039292016456
 31
0.0
  0
LINE
  5
1D7
330
1F
100
AcDbEntity
  8
0-0_通り芯
  6
Continuous
 62
     3
370
    13
100
AcDbLine
 10
1254.483524986389
 20
45.91097305107684
 30
0.0
 11
1254.483524986389
 21
779.5154866833615
 31
0.0
  0
LINE
  5
1D8
330
1F
100
AcDbEntity
  8
0-4_寸法
  6
Continuous
 62
     7
370
    13
100
AcDbLine
 10
-1750.553607482996
 20
965.5150115989018
 30
0.0
 11
584.4464255089811
 21
965.5150115989018
 31
0.0
  0
LINE
  5
1D9
330
1F
100
AcDbEntity
  8
0-4_寸法
  6
Continuous
 62
     7
370
    13
100
AcDbLine
 10
-1550.553628102981
 20
901.8611172260132
 30
0.0
 11
-1550.553628102981
 21
968.5149720085302
 31
0.0
  0
LINE
  5
1DA
330
1F
100
AcDbEntity
  8
0-4_寸法
  6
Continuous
 62
     7
370
    13
100
AcDbLine
 10
-1750.553607482996
 20
965.5150115989018
 30
0.0
 11
-1725.767498589678
 21
968.7782479798141
 31
0.0
  0
LINE
  5
1DB
330
1F
100
AcDbEntity
  8
0-4_寸法
  6
Continuous
 62
     7
370
    13
100
AcDbLine
 10
-1750.553607482996
 20
965.5150115989018
 30
0.0
 11
-1725.767498589678
 21
962.2517752179899
 31
0.0
  0
LINE
  5
1DC
330
1F
100
AcDbEntity
  8
0-4_寸法
  6
Continuous
 62
     7
370
    13
100
AcDbLine
 10
-1525.767519209664
 20
962.2517752179899
 30
0.0
 11
-1575.339736996298
 21
968.7782479798141
 31
0.0
  0
LINE
  5
1DD
330
1F
100
AcDbEntity
  8
0-4_寸法
  6
Continuous
 62
     7
370
    13
100
AcDbLine
 10
-1525.767519209664
 20
968.7782479798141
 30
0.0
 11
-1575.339736996298
 21
962.2517752179899
 31
0.0
  0
LINE
  5
1DE
330
1F
100
AcDbEntity
  8
0-4_寸法
  6
Continuous
 62
     7
370
    13
100
AcDbLine
 10
-830.5536652189542
 20
901.8611172260132
 30
0.0
 11
-830.5536652189542
 21
968.5149720085302
 31
0.0
  0
LINE
  5
1DF
330
1F
100
AcDbEntity
  8
0-4_寸法
  6
Continuous
 62
     7
370
    13
100
AcDbLine
 10
-805.7673707457701
 20
962.2517752179899
 30
0.0
 11
-855.3397122523155
 21
968.7782479798141
 31
0.0
  0
LINE
  5
1E0
330
1F
100
AcDbEntity
  8
0-4_寸法
  6
Continuous
 62
     7
370
    13
100
AcDbLine
 10
-805.7673707457701
 20
968.7782479798141
 30
0.0
 11
-855.3397122523155
 21
962.2517752179899
 31
0.0
  0
LINE
  5
1E1
330
1F
100
AcDbEntity
  8
0-4_寸法
  6
Continuous
 62
     7
370
    13
100
AcDbLine
 10
-110.5531455953265
 20
901.8611172260132
 30
0.0
 11
-110.5531455953265
 21
968.5149720085302
 31
0.0
  0
LINE
  5
1E2
330
1F
100
AcDbEntity
  8
0-4_寸法
  6
Continuous
 62
     7
370
    13
100
AcDbLine
 10
-85.76709856196508
 20
962.2517752179899
 30
0.0
 11
-135.3393163485992
 21
968.7782479798141
 31
0.0
  0
LINE
  5
1E3
330
1F
100
AcDbEntity
  8
0-4_寸法
  6
Continuous
 62
     7
370
    13
100
AcDbLine
 10
-85.76709856196508
 20
968.7782479798141
 30
0.0
 11
-135.3393163485992
 21
962.2517752179899
 31
0.0
  0
LINE
  5
1E4
330
1F
100
AcDbEntity
  8
0-4_寸法
  6
Continuous
 62
     7
370
    13
100
AcDbLine
 10
-1750.553607482996
 20
1045.515275534713
 30
0.0
 11
584.4464255089811
 21
1045.515275534713
 31
0.0
  0
LINE
  5
1E5
330
1F
100
AcDbEntity
  8
0-4_寸法
  6
Continuous
 62
     7
370
    13
100
AcDbLine
 10
-1750.553607482996
 20
824.5153877074323
 30
0.0
 11
-1750.553607482996
 21
1048.515235944341
 31
0.0
  0
LINE
  5
1E6
330
1F
100
AcDbEntity
  8
0-4_寸法
  6
Continuous
 62
     7
370
    13
100
AcDbLine
 10
-1750.553607482996
 20
1045.515275534713
 30
0.0
 11
-1725.767498589678
 21
1048.778511915625
 31
0.0
  0
LINE
  5
1E7
330
1F
100
AcDbEntity
  8
0-4_寸法
  6
Continuous
 62
     7
370
    13
100
AcDbLine
 10
-1750.553607482996
 20
1045.515275534713
 30
0.0
 11
-1725.767498589678
 21
1042.252039153801
 31
0.0
  0
LINE
  5
1E8
330
1F
100
AcDbEntity
  8
0-4_寸法
  6
Continuous
 62
     7
370
    13
100
AcDbLine
 10
244.4462935410755
 20
-45.48426587681618
 30
0.0
 11
244.4462935410755
 21
-321.9078284164064
 31
0.0
  0
LINE
  5
1E9
330
1F
100
AcDbEntity
  8
0-4_寸法
  6
Continuous
 62
     7
370
    13
100
AcDbLine
 10
244.4462935410755
 20
-318.907868006778
 30
0.0
 11
219.660246507714
 21
-315.6446316258661
 31
0.0
  0
LINE
  5
1EA
330
1F
100
AcDbEntity
  8
0-4_寸法
  6
Continuous
 62
     7
370
    13
100
AcDbLine
 10
244.4462935410755
 20
-318.907868006778
 30
0.0
 11
219.660246507714
 21
-322.1708569478676
 31
0.0
  0
LINE
  5
1EB
330
1F
100
AcDbEntity
  8
0-4_寸法
  6
Continuous
 62
     7
370
    13
100
AcDbLine
 10
-1839.12914591205
 20
-318.907868006778
 30
0.0
 11
584.4464255089811
 21
-318.907868006778
 31
0.0
  0
LINE
  5
1EC
330
1F
100
AcDbEntity
  8
0-4_寸法
  6
Continuous
 62
     7
370
    13
100
AcDbLine
 10
254.4463265330519
 20
-45.48426587681618
 30
0.0
 11
254.4463265330519
 21
-321.9078284164064
 31
0.0
  0
LINE
  5
1ED
330
1F
100
AcDbEntity
  8
0-4_寸法
  6
Continuous
 62
     7
370
    13
100
AcDbLine
 10
254.4463265330519
 20
-318.907868006778
 30
0.0
 11
279.2323735664133
 21
-315.6446316258661
 31
0.0
  0
LINE
  5
1EE
330
1F
100
AcDbEntity
  8
0-4_寸法
  6
Continuous
 62
     7
370
    13
100
AcDbLine
 10
254.4463265330519
 20
-318.907868006778
 30
0.0
 11
279.2323735664133
 21
-322.1708569478676
 31
0.0
  0
LINE
  5
1EF
330
1F
100
AcDbEntity
  8
0-4_寸法
  6
Continuous
 62
     7
370
    13
100
AcDbLine
 10
-1745.553590987007
 20
-45.48426587681618
 30
0.0
 11
-1745.553590987007
 21
-321.9078284164064
 31
0.0
  0
LINE
  5
1F0
330
1F
100
AcDbEntity
  8
0-4_寸法
  6
Continuous
 62
     7
370
    13
100
AcDbLine
 10
-1750.553607482996
 20
-65.48433186076878
 30
0.0
 11
-1750.553607482996
 21
-321.9078284164064
 31
0.0
  0
LINE
  5
1F1
330
1F
100
AcDbEntity
  8
0-4_寸法
  6
Continuous
 62
     7
370
    13
100
AcDbLine
 10
-1745.553590987007
 20
-318.907868006778
 30
0.0
 11
-1720.767296513823
 21
-315.6446316258661
 31
0.0
  0
LINE
  5
1F2
330
1F
100
AcDbEntity
  8
0-4_寸法
  6
Continuous
 62
     7
370
    13
100
AcDbLine
 10
-1745.553590987007
 20
-318.907868006778
 30
0.0
 11
-1720.767296513823
 21
-322.1708569478676
 31
0.0
  0
LINE
  5
1F3
330
1F
100
AcDbEntity
  8
0-4_寸法
  6
Continuous
 62
     7
370
    13
100
AcDbLine
 10
-1750.553607482996
 20
-318.907868006778
 30
0.0
 11
-1775.339654516357
 21
-315.6446316258661
 31
0.0
  0
LINE
  5
1F4
330
1F
100
AcDbEntity
  8
0-4_寸法
  6
Continuous
 62
     7
370
    13
100
AcDbLine
 10
-1750.553607482996
 20
-318.907868006778
 30
0.0
 11
-1775.339654516357
 21
-322.1708569478676
 31
0.0
  0
LINE
  5
1F5
330
1F
100
AcDbEntity
  8
0-4_寸法
  6
Continuous
 62
     7
370
    13
100
AcDbLine
 10
-411.053592636606
 20
-11.48405472816748
 30
0.0
 11
-411.053592636606
 21
-143.4840448305745
 31
0.0
  0
LINE
  5
1F6
330
1F
100
AcDbEntity
  8
0-4_寸法
  6
Continuous
 62
     7
370
    13
100
AcDbLine
 10
-435.0535233534557
 20
-11.48405472816748
 30
0.0
 11
-435.0535233534557
 21
-143.4840448305745
 31
0.0
  0
LINE
  5
1F7
330
1F
100
AcDbEntity
  8
0-4_寸法
  6
Continuous
 62
     7
370
    13
100
AcDbLine
 10
-411.053592636606
 20
-140.4840844209461
 30
0.0
 11
-386.2674218833333
 21
-137.2208480400339
 31
0.0
  0
LINE
  5
1F8
330
1F
100
AcDbEntity
  8
0-4_寸法
  6
Continuous
 62
     7
370
    13
100
AcDbLine
 10
-411.053592636606
 20
-140.4840844209461
 30
0.0
 11
-386.2674218833333
 21
-143.7470733620357
 31
0.0
  0
LINE
  5
1F9
330
1F
100
AcDbEntity
  8
0-4_寸法
  6
Continuous
 62
     7
370
    13
100
AcDbLine
 10
-482.0536041837979
 20
-11.48405472816748
 30
0.0
 11
-482.0536041837979
 21
-143.4840448305745
 31
0.0
  0
LINE
  5
1FA
330
1F
100
AcDbEntity
  8
0-4_寸法
  6
Continuous
 62
     7
370
    13
100
AcDbLine
 10
-535.0536058333967
 20
-11.48405472816748
 30
0.0
 11
-535.0536058333967
 21
-143.4840448305745
 31
0.0
  0
LINE
  5
1FB
330
1F
100
AcDbEntity
  8
0-4_寸法
  6
Continuous
 62
     7
370
    13
100
AcDbLine
 10
-535.0536058333967
 20
-140.4840844209461
 30
0.0
 11
-559.8397765866695
 21
-137.2208480400339
 31
0.0
  0
LINE
  5
1FC
330
1F
100
AcDbEntity
  8
0-4_寸法
  6
Continuous
 62
     7
370
    13
100
AcDbLine
 10
-535.0536058333967
 20
-140.4840844209461
 30
0.0
 11
-559.8397765866695
 21
-143.7470733620357
 31
0.0
  0
LINE
  5
1FD
330
1F
100
AcDbEntity
  8
0-4_寸法
  6
Continuous
 62
     7
370
    13
100
AcDbLine
 10
-326.2924627933838
 20
-140.4840844209461
 30
0.0
 11
-639.8232146145413
 21
-140.4840844209461
 31
0.0
  0
LINE
  5
1FE
330
1F
100
AcDbEntity
  8
0-4_寸法
  6
Continuous
 62
     7
370
    13
100
AcDbLine
 10
1528.483538183179
 20
-106.4843681519427
 30
0.0
 11
1528.483538183179
 21
865.5159188782516
 31
0.0
  0
LINE
  5
1FF
330
1F
100
AcDbEntity
  8
0-4_寸法
  6
Continuous
 62
     7
370
    13
100
AcDbLine
 10
1453.483538183179
 20
-106.4843681519427
 30
0.0
 11
1531.483498592807
 21
-106.4843681519427
 31
0.0
  0
LINE
  5
200
330
1F
100
AcDbEntity
  8
0-4_寸法
  6
Continuous
 62
     7
370
    13
100
AcDbLine
 10
1415.483709741455
 20
-40.48424938082789
 30
0.0
 11
1531.483498592807
 21
-40.48424938082789
 31
0.0
  0
LINE
  5
201
330
1F
100
AcDbEntity
  8
0-4_寸法
  6
Continuous
 62
     7
370
    13
100
AcDbLine
 10
1528.483538183179
 20
-106.4843681519427
 30
0.0
 11
1525.220301802267
 21
-81.69807367875862
 31
0.0
  0
LINE
  5
202
330
1F
100
AcDbEntity
  8
0-4_寸法
  6
Continuous
 62
     7
370
    13
100
AcDbLine
 10
1528.483538183179
 20
-106.4843681519427
 30
0.0
 11
1531.746774564091
 21
-81.69807367875862
 31
0.0
  0
LINE
  5
203
330
1F
100
AcDbEntity
  8
0-4_寸法
  6
Continuous
 62
     7
370
    13
100
AcDbLine
 10
1531.746774564091
 20
-15.69820234746643
 30
0.0
 11
1525.220301802267
 21
-65.270543854012
 31
0.0
  0
LINE
  5
204
330
1F
100
AcDbEntity
  8
0-4_寸法
  6
Continuous
 62
     7
370
    13
100
AcDbLine
 10
1525.220301802267
 20
-15.69820234746643
 30
0.0
 11
1531.746774564091
 21
-65.270543854012
 31
0.0
  0
LINE
  5
205
330
1F
100
AcDbEntity
  8
0-4_寸法
  6
Continuous
 62
     7
370
    13
100
AcDbLine
 10
1367.483353428112
 20
79.51565164324296
 30
0.0
 11
1531.483498592807
 21
79.51565164324296
 31
0.0
  0
LINE
  5
206
330
1F
100
AcDbEntity
  8
0-4_寸法
  6
Continuous
 62
     7
370
    13
100
AcDbLine
 10
1531.746774564091
 20
104.3016986766047
 30
0.0
 11
1525.220301802267
 21
54.72935717005885
 31
0.0
  0
LINE
  5
207
330
1F
100
AcDbEntity
  8
0-4_寸法
  6
Continuous
 62
     7
370
    13
100
AcDbLine
 10
1525.220301802267
 20
104.3016986766047
 30
0.0
 11
1531.746774564091
 21
54.72935717005885
 31
0.0
  0
LINE
  5
208
330
1F
100
AcDbEntity
  8
0-4_寸法
  6
Continuous
 62
     7
370
    13
100
AcDbLine
 10
1254.483524986389
 20
-140.4843318607688
 30
0.0
 11
1330.483676749479
 21
-140.4843318607688
 31
0.0
  0
LINE
  5
209
330
1F
100
AcDbEntity
  8
0-4_寸法
  6
Continuous
 62
     7
370
    13
100
AcDbLine
 10
1330.483676749479
 20
-43.48420979045628
 30
0.0
 11
1330.483676749479
 21
-143.4842922703972
 31
0.0
  0
LINE
  5
20A
330
1F
100
AcDbEntity
  8
0-4_寸法
  6
Continuous
 62
     7
370
    13
100
AcDbLine
 10
1254.483524986389
 20
-140.4843318607688
 30
0.0
 11
1279.26957201975
 21
-137.2210954798565
 31
0.0
  0
LINE
  5
20B
330
1F
100
AcDbEntity
  8
0-4_寸法
  6
Continuous
 62
     7
370
    13
100
AcDbLine
 10
1254.483524986389
 20
-140.4843318607688
 30
0.0
 11
1279.26957201975
 21
-143.7473208018584
 31
0.0
  0
LINE
  5
20C
330
1F
100
AcDbEntity
  8
0-4_寸法
  6
Continuous
 62
     7
370
    13
100
AcDbLine
 10
1330.483676749479
 20
-140.4843318607688
 30
0.0
 11
1305.697629716118
 21
-137.2210954798565
 31
0.0
  0
LINE
  5
20D
330
1F
100
AcDbEntity
  8
0-4_寸法
  6
Continuous
 62
     7
370
    13
100
AcDbLine
 10
1330.483676749479
 20
-140.4843318607688
 30
0.0
 11
1305.697629716118
 21
-143.7473208018584
 31
0.0
  0
LINE
  5
20E
330
1F
100
AcDbEntity
  8
0-4_寸法
  6
Continuous
 62
     7
370
    13
100
AcDbLine
 10
1254.483524986389
 20
-220.4843483567569
 30
0.0
 11
1428.483208263416
 21
-220.4843483567569
 31
0.0
  0
LINE
  5
20F
330
1F
100
AcDbEntity
  8
0-4_寸法
  6
Continuous
 62
     7
370
    13
100
AcDbLine
 10
1254.483524986389
 20
-65.48433186076878
 30
0.0
 11
1254.483524986389
 21
-223.4843087663854
 31
0.0
  0
LINE
  5
210
330
1F
100
AcDbEntity
  8
0-4_寸法
  6
Continuous
 62
     7
370
    13
100
AcDbLine
 10
1342.483518387993
 20
-43.48420979045628
 30
0.0
 11
1342.483518387993
 21
-223.4843087663854
 31
0.0
  0
LINE
  5
211
330
1F
100
AcDbEntity
  8
0-4_寸法
  6
Continuous
 62
     7
370
    13
100
AcDbLine
 10
1254.483524986389
 20
-220.4843483567569
 30
0.0
 11
1279.26957201975
 21
-217.2211119758448
 31
0.0
  0
LINE
  5
212
330
1F
100
AcDbEntity
  8
0-4_寸法
  6
Continuous
 62
     7
370
    13
100
AcDbLine
 10
1254.483524986389
 20
-220.4843483567569
 30
0.0
 11
1279.26957201975
 21
-223.7473372978465
 31
0.0
  0
LINE
  5
213
330
1F
100
AcDbEntity
  8
0-4_寸法
  6
Continuous
 62
     7
370
    13
100
AcDbLine
 10
1367.269565421354
 20
-223.7475847376692
 30
0.0
 11
1317.697471354631
 21
-217.2211119758448
 31
0.0
  0
LINE
  5
214
330
1F
100
AcDbEntity
  8
0-4_寸法
  6
Continuous
 62
     7
370
    13
100
AcDbLine
 10
1367.269565421354
 20
-217.2213594156675
 30
0.0
 11
1317.697471354631
 21
-223.7473372978465
 31
0.0
  0
LINE
  5
215
330
1F
100
AcDbEntity
  8
0-4_寸法
  6
Continuous
 62
     7
370
    13
100
AcDbLine
 10
1428.483208263416
 20
-131.484203192061
 30
0.0
 11
1428.483208263416
 21
-223.4843087663854
 31
0.0
  0
LINE
  5
216
330
1F
100
AcDbEntity
  8
0-4_寸法
  6
Continuous
 62
     7
370
    13
100
AcDbLine
 10
1428.483208263416
 20
-220.4843483567569
 30
0.0
 11
1403.697161230054
 21
-217.2211119758448
 31
0.0
  0
LINE
  5
217
330
1F
100
AcDbEntity
  8
0-4_寸法
  6
Continuous
 62
     7
370
    13
100
AcDbLine
 10
1428.483208263416
 20
-220.4843483567569
 30
0.0
 11
1403.697161230054
 21
-223.7473372978465
 31
0.0
  0
LINE
  5
218
330
1F
100
AcDbEntity
  8
0-4_寸法
  6
Continuous
 62
     7
370
    13
100
AcDbLine
 10
1453.483538183179
 20
865.5159188782516
 30
0.0
 11
1531.483498592807
 21
865.5159188782516
 31
0.0
  0
LINE
  5
219
330
1F
100
AcDbEntity
  8
0-4_寸法
  6
Continuous
 62
     7
370
    13
100
AcDbLine
 10
1415.483709741455
 20
799.5158001071367
 30
0.0
 11
1531.483498592807
 21
799.5158001071367
 31
0.0
  0
LINE
  5
21A
330
1F
100
AcDbEntity
  8
0-4_寸法
  6
Continuous
 62
     7
370
    13
100
AcDbLine
 10
1528.483538183179
 20
865.5159188782516
 30
0.0
 11
1525.220301802267
 21
840.7296244050674
 31
0.0
  0
LINE
  5
21B
330
1F
100
AcDbEntity
  8
0-4_寸法
  6
Continuous
 62
     7
370
    13
100
AcDbLine
 10
1528.483538183179
 20
865.5159188782516
 30
0.0
 11
1531.746774564091
 21
840.7296244050674
 31
0.0
  0
LINE
  5
21C
330
1F
100
AcDbEntity
  8
0-4_寸法
  6
Continuous
 62
     7
370
    13
100
AcDbLine
 10
1531.746774564091
 20
774.7297530737752
 30
0.0
 11
1525.220301802267
 21
824.3020945803208
 31
0.0
  0
LINE
  5
21D
330
1F
100
AcDbEntity
  8
0-4_寸法
  6
Continuous
 62
     7
370
    13
100
AcDbLine
 10
1525.220301802267
 20
774.7297530737752
 30
0.0
 11
1531.746774564091
 21
824.3020945803208
 31
0.0
  0
LINE
  5
21E
330
1F
100
AcDbEntity
  8
0-4_寸法
  6
Continuous
 62
     7
370
    13
100
AcDbLine
 10
1367.483353428112
 20
679.5158990830656
 30
0.0
 11
1531.483498592807
 21
679.5158990830656
 31
0.0
  0
LINE
  5
21F
330
1F
100
AcDbEntity
  8
0-4_寸法
  6
Continuous
 62
     7
370
    13
100
AcDbLine
 10
1531.746774564091
 20
654.7298520497043
 30
0.0
 11
1525.220301802267
 21
704.3021935562497
 31
0.0
  0
LINE
  5
220
330
1F
100
AcDbEntity
  8
0-4_寸法
  6
Continuous
 62
     7
370
    13
100
AcDbLine
 10
1525.220301802267
 20
654.7298520497043
 30
0.0
 11
1531.746774564091
 21
704.3021935562497
 31
0.0
  0
LINE
  5
221
330
1F
100
AcDbEntity
  8
0-4_寸法
  6
Continuous
 62
     7
370
    13
100
AcDbLine
 10
1154.483195066625
 20
-81.51001941355602
 30
0.0
 11
1154.483195066625
 21
840.5410752602195
 31
0.0
  0
LINE
  5
222
330
1F
100
AcDbEntity
  8
0-4_寸法
  6
Continuous
 62
     7
370
    13
100
AcDbLine
 10
1229.483195066625
 20
-20.48443083669795
 30
0.0
 11
1151.483234656996
 21
-20.48443083669795
 31
0.0
  0
LINE
  5
223
330
1F
100
AcDbEntity
  8
0-4_寸法
  6
Continuous
 62
     7
370
    13
100
AcDbLine
 10
1154.483195066625
 20
-20.48443083669795
 30
0.0
 11
1151.219958685712
 21
4.301863636486161
 31
0.0
  0
LINE
  5
224
330
1F
100
AcDbEntity
  8
0-4_寸法
  6
Continuous
 62
     7
370
    13
100
AcDbLine
 10
1154.483195066625
 20
-20.48443083669795
 30
0.0
 11
1157.746431447537
 21
4.301863636486161
 31
0.0
  0
LINE
  5
225
330
1F
100
AcDbEntity
  8
0-4_寸法
  6
Continuous
 62
     7
370
    13
100
AcDbLine
 10
1229.483195066625
 20
787.5152161491552
 30
0.0
 11
1151.483234656996
 21
787.5152161491552
 31
0.0
  0
LINE
  5
226
330
1F
100
AcDbEntity
  8
0-4_寸法
  6
Continuous
 62
     7
370
    13
100
AcDbLine
 10
1154.483195066625
 20
799.5155526673141
 30
0.0
 11
1151.219958685712
 21
824.3011048210302
 31
0.0
  0
LINE
  5
227
330
1F
100
AcDbEntity
  8
0-4_寸法
  6
Continuous
 62
     7
370
    13
100
AcDbLine
 10
1154.483195066625
 20
799.5155526673141
 30
0.0
 11
1157.746431447537
 21
824.3011048210302
 31
0.0
  0
LINE
  5
228
330
1F
100
AcDbEntity
  8
0-4_寸法
  6
Continuous
 62
     7
370
    13
100
AcDbLine
 10
1229.483195066625
 20
779.5154866833615
 30
0.0
 11
1151.483234656996
 21
779.5154866833615
 31
0.0
  0
LINE
  5
229
330
1F
100
AcDbEntity
  8
0-4_寸法
  6
Continuous
 62
     7
370
    13
100
AcDbLine
 10
1154.483195066625
 20
779.5154866833615
 30
0.0
 11
1151.219958685712
 21
754.7289447703547
 31
0.0
  0
LINE
  5
22A
330
1F
100
AcDbEntity
  8
0-4_寸法
  6
Continuous
 62
     7
370
    13
100
AcDbLine
 10
1154.483195066625
 20
779.5154866833615
 30
0.0
 11
1157.746431447537
 21
754.7289447703547
 31
0.0
  0
LINE
  5
22B
330
1F
100
AcDbEntity
  8
0-4_寸法
  6
Continuous
 62
     7
370
    13
100
AcDbLine
 10
1229.483195066625
 20
-28.48416030249169
 30
0.0
 11
1151.483234656996
 21
-28.48416030249169
 31
0.0
  0
LINE
  5
22C
330
1F
100
AcDbEntity
  8
0-4_寸法
  6
Continuous
 62
     7
370
    13
100
AcDbLine
 10
1154.483195066625
 20
-40.48424938082789
 30
0.0
 11
1151.219958685712
 21
-65.27029641418935
 31
0.0
  0
LINE
  5
22D
330
1F
100
AcDbEntity
  8
0-4_寸法
  6
Continuous
 62
     7
370
    13
100
AcDbLine
 10
1154.483195066625
 20
-40.48424938082789
 30
0.0
 11
1157.746431447537
 21
-65.27029641418935
 31
0.0
  0
LINE
  5
22E
330
1F
100
AcDbEntity
  8
0-4_寸法
  6
Continuous
 62
     7
370
    13
100
AcDbLine
 10
1074.483426010459
 20
-40.48424938082789
 30
0.0
 11
1074.483426010459
 21
799.5155526673141
 31
0.0
  0
LINE
  5
22F
330
1F
100
AcDbEntity
  8
0-4_寸法
  6
Continuous
 62
     7
370
    13
100
AcDbLine
 10
1229.483195066625
 20
-40.48424938082789
 30
0.0
 11
1071.48346560083
 21
-40.48424938082789
 31
0.0
  0
LINE
  5
230
330
1F
100
AcDbEntity
  8
0-4_寸法
  6
Continuous
 62
     7
370
    13
100
AcDbLine
 10
1229.483195066625
 20
799.5155526673141
 30
0.0
 11
1071.48346560083
 21
799.5155526673141
 31
0.0
  0
LINE
  5
231
330
1F
100
AcDbEntity
  8
0-4_寸法
  6
Continuous
 62
     7
370
    13
100
AcDbLine
 10
1074.483426010459
 20
-40.48424938082789
 30
0.0
 11
1071.220189629547
 21
-15.69820234746643
 31
0.0
  0
LINE
  5
232
330
1F
100
AcDbEntity
  8
0-4_寸法
  6
Continuous
 62
     7
370
    13
100
AcDbLine
 10
1074.483426010459
 20
-40.48424938082789
 30
0.0
 11
1077.746662391371
 21
-15.69820234746643
 31
0.0
  0
LINE
  5
233
330
1F
100
AcDbEntity
  8
0-4_寸法
  6
Continuous
 62
     7
370
    13
100
AcDbLine
 10
1074.483426010459
 20
799.5155526673141
 30
0.0
 11
1071.220189629547
 21
774.7290107543073
 31
0.0
  0
LINE
  5
234
330
1F
100
AcDbEntity
  8
0-4_寸法
  6
Continuous
 62
     7
370
    13
100
AcDbLine
 10
1074.483426010459
 20
799.5155526673141
 30
0.0
 11
1077.746662391371
 21
774.7290107543073
 31
0.0
  0
ARC
  5
235
330
1F
100
AcDbEntity
  8
0-0_通り芯
  6
Continuous
 62
     3
370
    13
100
AcDbCircle
 10
-816.0536916125352
 20
745.5155229745354
 30
0.0
 40
7.999999619819023
100
AcDbArc
 50
90.0
 51
180.0
  0
ARC
  5
236
330
1F
100
AcDbEntity
  8
0-0_通り芯
  6
Continuous
 62
     3
370
    13
100
AcDbCircle
 10
-785.0536883133375
 20
745.5155229745354
 30
0.0
 40
7.999999619819023
100
AcDbArc
 50
0.0
 51
90.0
  0
ARC
  5
237
330
1F
100
AcDbEntity
  8
0-0_通り芯
  6
Continuous
 62
     3
370
    13
100
AcDbCircle
 10
-785.0536883133375
 20
519.5157423711781
 30
0.0
 40
7.999999619819023
100
AcDbArc
 50
270.0
 51
0.0
  0
ARC
  5
238
330
1F
100
AcDbEntity
  8
0-0_通り芯
  6
Continuous
 62
     3
370
    13
100
AcDbCircle
 10
-816.0536916125352
 20
519.5157423711781
 30
0.0
 40
7.999999619819023
100
AcDbArc
 50
180.0
 51
270.0
  0
ARC
  5
239
330
1F
100
AcDbEntity
  8
0-0_通り芯
  6
Continuous
 62
     3
370
    13
100
AcDbCircle
 10
-816.0536916125352
 20
479.5157341231838
 30
0.0
 40
7.999999619819023
100
AcDbArc
 50
90.0
 51
180.0
  0
ARC
  5
23A
330
1F
100
AcDbEntity
  8
0-0_通り芯
  6
Continuous
 62
     3
370
    13
100
AcDbCircle
 10
-785.0536883133375
 20
479.5157341231838
 30
0.0
 40
7.999999619819023
100
AcDbArc
 50
0.0
 51
90.0
  0
ARC
  5
23B
330
1F
100
AcDbEntity
  8
0-0_通り芯
  6
Continuous
 62
     3
370
    13
100
AcDbCircle
 10
-856.053576140618
 20
479.5157341231838
 30
0.0
 40
7.999999619819023
100
AcDbArc
 50
0.0
 51
90.0
  0
ARC
  5
23C
330
1F
100
AcDbEntity
  8
0-0_通り芯
  6
Continuous
 62
     3
370
    13
100
AcDbCircle
 10
-887.0535794398155
 20
479.5157341231838
 30
0.0
 40
7.999999619819023
100
AcDbArc
 50
90.0
 51
180.0
  0
ARC
  5
23D
330
1F
100
AcDbEntity
  8
0-0_通り芯
  6
Continuous
 62
     3
370
    13
100
AcDbCircle
 10
-887.0535794398155
 20
519.5157423711781
 30
0.0
 40
7.999999619819023
100
AcDbArc
 50
180.0
 51
270.0
  0
ARC
  5
23E
330
1F
100
AcDbEntity
  8
0-0_通り芯
  6
Continuous
 62
     3
370
    13
100
AcDbCircle
 10
-856.053576140618
 20
519.5157423711781
 30
0.0
 40
7.999999619819023
100
AcDbArc
 50
270.0
 51
0.0
  0
ARC
  5
23F
330
1F
100
AcDbEntity
  8
0-0_通り芯
  6
Continuous
 62
     3
370
    13
100
AcDbCircle
 10
-856.053576140618
 20
745.5155229745354
 30
0.0
 40
7.999999619819023
100
AcDbArc
 50
0.0
 51
90.0
  0
ARC
  5
240
330
1F
100
AcDbEntity
  8
0-0_通り芯
  6
Continuous
 62
     3
370
    13
100
AcDbCircle
 10
-887.0535794398155
 20
745.5155229745354
 30
0.0
 40
7.999999619819023
100
AcDbArc
 50
90.0
 51
180.0
  0
ARC
  5
241
330
1F
100
AcDbEntity
  8
0-0_通り芯
  6
Continuous
 62
     3
370
    13
100
AcDbCircle
 10
-958.0537147069186
 20
745.5155229745354
 30
0.0
 40
7.999999619819023
100
AcDbArc
 50
90.0
 51
180.0
  0
ARC
  5
242
330
1F
100
AcDbEntity
  8
0-0_通り芯
  6
Continuous
 62
     3
370
    13
100
AcDbCircle
 10
-927.053711407721
 20
745.5155229745354
 30
0.0
 40
7.999999619819023
100
AcDbArc
 50
0.0
 51
90.0
  0
ARC
  5
243
330
1F
100
AcDbEntity
  8
0-0_通り芯
  6
Continuous
 62
     3
370
    13
100
AcDbCircle
 10
-927.053711407721
 20
519.5157423711781
 30
0.0
 40
7.999999619819023
100
AcDbArc
 50
270.0
 51
0.0
  0
ARC
  5
244
330
1F
100
AcDbEntity
  8
0-0_通り芯
  6
Continuous
 62
     3
370
    13
100
AcDbCircle
 10
-958.0537147069186
 20
519.5157423711781
 30
0.0
 40
7.999999619819023
100
AcDbArc
 50
180.0
 51
270.0
  0
ARC
  5
245
330
1F
100
AcDbEntity
  8
0-0_通り芯
  6
Continuous
 62
     3
370
    13
100
AcDbCircle
 10
-958.0537147069186
 20
479.5157341231838
 30
0.0
 40
7.999999619819023
100
AcDbArc
 50
90.0
 51
180.0
  0
ARC
  5
246
330
1F
100
AcDbEntity
  8
0-0_通り芯
  6
Continuous
 62
     3
370
    13
100
AcDbCircle
 10
-927.053711407721
 20
479.5157341231838
 30
0.0
 40
7.999999619819023
100
AcDbArc
 50
0.0
 51
90.0
  0
ARC
  5
247
330
1F
100
AcDbEntity
  8
0-0_通り芯
  6
Continuous
 62
     3
370
    13
100
AcDbCircle
 10
-1027.053670167751
 20
479.5157341231838
 30
0.0
 40
7.999999619819023
100
AcDbArc
 50
0.0
 51
90.0
  0
ARC
  5
248
330
1F
100
AcDbEntity
  8
0-0_通り芯
  6
Continuous
 62
     3
370
    13
100
AcDbCircle
 10
-1058.053673466948
 20
479.5157341231838
 30
0.0
 40
7.999999619819023
100
AcDbArc
 50
90.0
 51
180.0
  0
ARC
  5
249
330
1F
100
AcDbEntity
  8
0-0_通り芯
  6
Continuous
 62
     3
370
    13
100
AcDbCircle
 10
-1058.053673466948
 20
519.5157423711781
 30
0.0
 40
7.999999619819023
100
AcDbArc
 50
180.0
 51
270.0
  0
ARC
  5
24A
330
1F
100
AcDbEntity
  8
0-0_通り芯
  6
Continuous
 62
     3
370
    13
100
AcDbCircle
 10
-1027.053670167751
 20
519.5157423711781
 30
0.0
 40
7.999999619819023
100
AcDbArc
 50
270.0
 51
0.0
  0
ARC
  5
24B
330
1F
100
AcDbEntity
  8
0-0_通り芯
  6
Continuous
 62
     3
370
    13
100
AcDbCircle
 10
-1027.053670167751
 20
745.5155229745354
 30
0.0
 40
7.999999619819023
100
AcDbArc
 50
0.0
 51
90.0
  0
ARC
  5
24C
330
1F
100
AcDbEntity
  8
0-0_通り芯
  6
Continuous
 62
     3
370
    13
100
AcDbCircle
 10
-1058.053673466948
 20
745.5155229745354
 30
0.0
 40
7.999999619819023
100
AcDbArc
 50
90.0
 51
180.0
  0
ARC
  5
24D
330
1F
100
AcDbEntity
  8
0-0_通り芯
  6
Continuous
 62
     3
370
    13
100
AcDbCircle
 10
-1129.05368501414
 20
745.5155229745354
 30
0.0
 40
7.999999619819023
100
AcDbArc
 50
90.0
 51
180.0
  0
ARC
  5
24E
330
1F
100
AcDbEntity
  8
0-0_通り芯
  6
Continuous
 62
     3
370
    13
100
AcDbCircle
 10
-1098.053681714942
 20
745.5155229745354
 30
0.0
 40
7.999999619819023
100
AcDbArc
 50
0.0
 51
90.0
  0
ARC
  5
24F
330
1F
100
AcDbEntity
  8
0-0_通り芯
  6
Continuous
 62
     3
370
    13
100
AcDbCircle
 10
-1098.053681714942
 20
519.5157423711781
 30
0.0
 40
7.999999619819023
100
AcDbArc
 50
270.0
 51
0.0
  0
ARC
  5
250
330
1F
100
AcDbEntity
  8
0-0_通り芯
  6
Continuous
 62
     3
370
    13
100
AcDbCircle
 10
-1129.05368501414
 20
519.5157423711781
 30
0.0
 40
7.999999619819023
100
AcDbArc
 50
180.0
 51
270.0
  0
ARC
  5
251
330
1F
100
AcDbEntity
  8
0-0_通り芯
  6
Continuous
 62
     3
370
    13
100
AcDbCircle
 10
-1129.05368501414
 20
479.5157341231838
 30
0.0
 40
7.999999619819023
100
AcDbArc
 50
90.0
 51
180.0
  0
ARC
  5
252
330
1F
100
AcDbEntity
  8
0-0_通り芯
  6
Continuous
 62
     3
370
    13
100
AcDbCircle
 10
-1098.053681714942
 20
479.5157341231838
 30
0.0
 40
7.999999619819023
100
AcDbArc
 50
0.0
 51
90.0
  0
ARC
  5
253
330
1F
100
AcDbEntity
  8
0-0_通り芯
  6
Continuous
 62
     3
370
    13
100
AcDbCircle
 10
-1169.053569542223
 20
479.5157341231838
 30
0.0
 40
7.999999619819023
100
AcDbArc
 50
0.0
 51
90.0
  0
ARC
  5
254
330
1F
100
AcDbEntity
  8
0-0_通り芯
  6
Continuous
 62
     3
370
    13
100
AcDbCircle
 10
-1200.05357284142
 20
479.5157341231838
 30
0.0
 40
7.999999619819023
100
AcDbArc
 50
90.0
 51
180.0
  0
ARC
  5
255
330
1F
100
AcDbEntity
  8
0-0_通り芯
  6
Continuous
 62
     3
370
    13
100
AcDbCircle
 10
-1200.05357284142
 20
519.5157423711781
 30
0.0
 40
7.999999619819023
100
AcDbArc
 50
180.0
 51
270.0
  0
ARC
  5
256
330
1F
100
AcDbEntity
  8
0-0_通り芯
  6
Continuous
 62
     3
370
    13
100
AcDbCircle
 10
-1169.053569542223
 20
519.5157423711781
 30
0.0
 40
7.999999619819023
100
AcDbArc
 50
270.0
 51
0.0
  0
ARC
  5
257
330
1F
100
AcDbEntity
  8
0-0_通り芯
  6
Continuous
 62
     3
370
    13
100
AcDbCircle
 10
-1169.053569542223
 20
745.5155229745354
 30
0.0
 40
7.999999619819023
100
AcDbArc
 50
0.0
 51
90.0
  0
ARC
  5
258
330
1F
100
AcDbEntity
  8
0-0_通り芯
  6
Continuous
 62
     3
370
    13
100
AcDbCircle
 10
-1200.05357284142
 20
745.5155229745354
 30
0.0
 40
7.999999619819023
100
AcDbArc
 50
90.0
 51
180.0
  0
ARC
  5
259
330
1F
100
AcDbEntity
  8
0-0_通り芯
  6
Continuous
 62
     3
370
    13
100
AcDbCircle
 10
-1300.053655321361
 20
745.5155229745354
 30
0.0
 40
7.999999619819023
100
AcDbArc
 50
90.0
 51
180.0
  0
ARC
  5
25A
330
1F
100
AcDbEntity
  8
0-0_通り芯
  6
Continuous
 62
     3
370
    13
100
AcDbCircle
 10
-1269.053652022164
 20
745.5155229745354
 30
0.0
 40
7.999999619819023
100
AcDbArc
 50
0.0
 51
90.0
  0
ARC
  5
25B
330
1F
100
AcDbEntity
  8
0-0_通り芯
  6
Continuous
 62
     3
370
    13
100
AcDbCircle
 10
-1269.053652022164
 20
519.5157423711781
 30
0.0
 40
7.999999619819023
100
AcDbArc
 50
270.0
 51
0.0
  0
ARC
  5
25C
330
1F
100
AcDbEntity
  8
0-0_通り芯
  6
Continuous
 62
     3
370
    13
100
AcDbCircle
 10
-1300.053655321361
 20
519.5157423711781
 30
0.0
 40
7.999999619819023
100
AcDbArc
 50
180.0
 51
270.0
  0
ARC
  5
25D
330
1F
100
AcDbEntity
  8
0-0_通り芯
  6
Continuous
 62
     3
370
    13
100
AcDbCircle
 10
-1300.053655321361
 20
479.5157341231838
 30
0.0
 40
7.999999619819023
100
AcDbArc
 50
90.0
 51
180.0
  0
ARC
  5
25E
330
1F
100
AcDbEntity
  8
0-0_通り芯
  6
Continuous
 62
     3
370
    13
100
AcDbCircle
 10
-1269.053652022164
 20
479.5157341231838
 30
0.0
 40
7.999999619819023
100
AcDbArc
 50
0.0
 51
90.0
  0
ARC
  5
25F
330
1F
100
AcDbEntity
  8
0-0_通り芯
  6
Continuous
 62
     3
370
    13
100
AcDbCircle
 10
-1340.053663569356
 20
479.5157341231838
 30
0.0
 40
7.999999619819023
100
AcDbArc
 50
0.0
 51
90.0
  0
ARC
  5
260
330
1F
100
AcDbEntity
  8
0-0_通り芯
  6
Continuous
 62
     3
370
    13
100
AcDbCircle
 10
-1371.053666868553
 20
479.5157341231838
 30
0.0
 40
7.999999619819023
100
AcDbArc
 50
90.0
 51
180.0
  0
ARC
  5
261
330
1F
100
AcDbEntity
  8
0-0_通り芯
  6
Continuous
 62
     3
370
    13
100
AcDbCircle
 10
-1371.053666868553
 20
519.5157423711781
 30
0.0
 40
7.999999619819023
100
AcDbArc
 50
180.0
 51
270.0
  0
ARC
  5
262
330
1F
100
AcDbEntity
  8
0-0_通り芯
  6
Continuous
 62
     3
370
    13
100
AcDbCircle
 10
-1340.053663569356
 20
519.5157423711781
 30
0.0
 40
7.999999619819023
100
AcDbArc
 50
270.0
 51
0.0
  0
ARC
  5
263
330
1F
100
AcDbEntity
  8
0-0_通り芯
  6
Continuous
 62
     3
370
    13
100
AcDbCircle
 10
-1340.053663569356
 20
745.5155229745354
 30
0.0
 40
7.999999619819023
100
AcDbArc
 50
0.0
 51
90.0
  0
ARC
  5
264
330
1F
100
AcDbEntity
  8
0-0_通り芯
  6
Continuous
 62
     3
370
    13
100
AcDbCircle
 10
-1371.053666868553
 20
745.5155229745354
 30
0.0
 40
7.999999619819023
100
AcDbArc
 50
90.0
 51
180.0
  0
ARC
  5
265
330
1F
100
AcDbEntity
  8
0-0_通り芯
  6
Continuous
 62
     3
370
    13
100
AcDbCircle
 10
-1442.053616555789
 20
745.5155229745354
 30
0.0
 40
7.999999619819023
100
AcDbArc
 50
90.0
 51
180.0
  0
ARC
  5
266
330
1F
100
AcDbEntity
  8
0-0_通り芯
  6
Continuous
 62
     3
370
    13
100
AcDbCircle
 10
-1411.053551396636
 20
745.5155229745354
 30
0.0
 40
7.999999619819023
100
AcDbArc
 50
0.0
 51
90.0
  0
ARC
  5
267
330
1F
100
AcDbEntity
  8
0-0_通り芯
  6
Continuous
 62
     3
370
    13
100
AcDbCircle
 10
-1411.053551396636
 20
519.5157423711781
 30
0.0
 40
7.999999619819023
100
AcDbArc
 50
270.0
 51
0.0
  0
ARC
  5
268
330
1F
100
AcDbEntity
  8
0-0_通り芯
  6
Continuous
 62
     3
370
    13
100
AcDbCircle
 10
-1442.053616555789
 20
519.5157423711781
 30
0.0
 40
7.999999619819023
100
AcDbArc
 50
180.0
 51
270.0
  0
ARC
  5
269
330
1F
100
AcDbEntity
  8
0-0_通り芯
  6
Continuous
 62
     3
370
    13
100
AcDbCircle
 10
-1442.053616555789
 20
479.5157341231838
 30
0.0
 40
7.999999619819023
100
AcDbArc
 50
90.0
 51
180.0
  0
ARC
  5
26A
330
1F
100
AcDbEntity
  8
0-0_通り芯
  6
Continuous
 62
     3
370
    13
100
AcDbCircle
 10
-1411.053551396636
 20
479.5157341231838
 30
0.0
 40
7.999999619819023
100
AcDbArc
 50
0.0
 51
90.0
  0
ARC
  5
26B
330
1F
100
AcDbEntity
  8
0-0_通り芯
  6
Continuous
 62
     3
370
    13
100
AcDbCircle
 10
-1511.053633876577
 20
479.5157341231838
 30
0.0
 40
7.999999619819023
100
AcDbArc
 50
0.0
 51
90.0
  0
ARC
  5
26C
330
1F
100
AcDbEntity
  8
0-0_通り芯
  6
Continuous
 62
     3
370
    13
100
AcDbCircle
 10
-1542.053637175774
 20
479.5157341231838
 30
0.0
 40
7.999999619819023
100
AcDbArc
 50
90.0
 51
180.0
  0
ARC
  5
26D
330
1F
100
AcDbEntity
  8
0-0_通り芯
  6
Continuous
 62
     3
370
    13
100
AcDbCircle
 10
-1542.053637175774
 20
519.5157423711781
 30
0.0
 40
7.999999619819023
100
AcDbArc
 50
180.0
 51
270.0
  0
ARC
  5
26E
330
1F
100
AcDbEntity
  8
0-0_通り芯
  6
Continuous
 62
     3
370
    13
100
AcDbCircle
 10
-1511.053633876577
 20
519.5157423711781
 30
0.0
 40
7.999999619819023
100
AcDbArc
 50
270.0
 51
0.0
  0
ARC
  5
26F
330
1F
100
AcDbEntity
  8
0-0_通り芯
  6
Continuous
 62
     3
370
    13
100
AcDbCircle
 10
-1582.053645423768
 20
519.5157423711781
 30
0.0
 40
7.999999619819023
100
AcDbArc
 50
270.0
 51
0.0
  0
ARC
  5
270
330
1F
100
AcDbEntity
  8
0-0_通り芯
  6
Continuous
 62
     3
370
    13
100
AcDbCircle
 10
-1613.053648722966
 20
519.5157423711781
 30
0.0
 40
7.999999619819023
100
AcDbArc
 50
180.0
 51
270.0
  0
ARC
  5
271
330
1F
100
AcDbEntity
  8
0-0_通り芯
  6
Continuous
 62
     3
370
    13
100
AcDbCircle
 10
-1613.053648722966
 20
479.5157341231838
 30
0.0
 40
7.999999619819023
100
AcDbArc
 50
90.0
 51
180.0
  0
ARC
  5
272
330
1F
100
AcDbEntity
  8
0-0_通り芯
  6
Continuous
 62
     3
370
    13
100
AcDbCircle
 10
-1582.053645423768
 20
479.5157341231838
 30
0.0
 40
7.999999619819023
100
AcDbArc
 50
0.0
 51
90.0
  0
ARC
  5
273
330
1F
100
AcDbEntity
  8
0-0_通り芯
  6
Continuous
 62
     3
370
    13
100
AcDbCircle
 10
-1653.053595111005
 20
479.5157341231838
 30
0.0
 40
7.999999619819023
100
AcDbArc
 50
0.0
 51
90.0
  0
ARC
  5
274
330
1F
100
AcDbEntity
  8
0-0_通り芯
  6
Continuous
 62
     3
370
    13
100
AcDbCircle
 10
-1684.053598410202
 20
479.5157341231838
 30
0.0
 40
7.999999619819023
100
AcDbArc
 50
90.0
 51
180.0
  0
ARC
  5
275
330
1F
100
AcDbEntity
  8
0-0_通り芯
  6
Continuous
 62
     3
370
    13
100
AcDbCircle
 10
-1684.053598410202
 20
519.5157423711781
 30
0.0
 40
7.999999619819023
100
AcDbArc
 50
180.0
 51
270.0
  0
ARC
  5
276
330
1F
100
AcDbEntity
  8
0-0_通り芯
  6
Continuous
 62
     3
370
    13
100
AcDbCircle
 10
-1653.053595111005
 20
519.5157423711781
 30
0.0
 40
7.999999619819023
100
AcDbArc
 50
270.0
 51
0.0
  0
ARC
  5
277
330
1F
100
AcDbEntity
  8
0-0_通り芯
  6
Continuous
 62
     3
370
    13
100
AcDbCircle
 10
-1653.053595111005
 20
745.5155229745354
 30
0.0
 40
7.999999619819023
100
AcDbArc
 50
0.0
 51
90.0
  0
ARC
  5
278
330
1F
100
AcDbEntity
  8
0-0_通り芯
  6
Continuous
 62
     3
370
    13
100
AcDbCircle
 10
-1684.053598410202
 20
745.5155229745354
 30
0.0
 40
7.999999619819023
100
AcDbArc
 50
90.0
 51
180.0
  0
ARC
  5
279
330
1F
100
AcDbEntity
  8
0-0_通り芯
  6
Continuous
 62
     3
370
    13
100
AcDbCircle
 10
-1613.053648722966
 20
632.5156945328123
 30
0.0
 40
7.999999619819023
100
AcDbArc
 50
89.99998474121092
 51
180.0
  0
ARC
  5
27A
330
1F
100
AcDbEntity
  8
0-0_通り芯
  6
Continuous
 62
     3
370
    13
100
AcDbCircle
 10
-1582.053645423768
 20
632.5156945328123
 30
0.0
 40
7.999999619819023
100
AcDbArc
 50
0.0
 51
90.0
  0
ARC
  5
27B
330
1F
100
AcDbEntity
  8
0-0_通り芯
  6
Continuous
 62
     3
370
    13
100
AcDbCircle
 10
-1542.053637175774
 20
632.5156945328123
 30
0.0
 40
7.999999619819023
100
AcDbArc
 50
90.0
 51
180.0
  0
ARC
  5
27C
330
1F
100
AcDbEntity
  8
0-0_通り芯
  6
Continuous
 62
     3
370
    13
100
AcDbCircle
 10
-1511.053633876577
 20
632.5156945328123
 30
0.0
 40
7.999999619819023
100
AcDbArc
 50
0.0
 51
90.0
  0
CIRCLE
  5
27D
330
1F
100
AcDbEntity
  8
0-2_本体（蓋）
  6
Continuous
 62
     6
370
    13
100
AcDbCircle
 10
-1562.053579439816
 20
722.5154965809542
 30
0.0
 40
29.99999845350111
  0
CIRCLE
  5
27E
330
1F
100
AcDbEntity
  8
0-2_本体（蓋）
  6
Continuous
 62
     6
370
    13
100
AcDbCircle
 10
-1562.053579439816
 20
722.5154965809542
 30
0.0
 40
23.99999837617617
  0
CIRCLE
  5
27F
330
1F
100
AcDbEntity
  8
0-2_本体（蓋）
  6
Continuous
 62
     6
370
    13
100
AcDbCircle
 10
60.94640571379504
 20
722.5154965809542
 30
0.0
 40
23.99999837617617
  0
CIRCLE
  5
280
330
1F
100
AcDbEntity
  8
0-2_本体（蓋）
  6
Continuous
 62
     6
370
    13
100
AcDbCircle
 10
60.94640571379504
 20
722.5154965809542
 30
0.0
 40
29.99999845350111
  0
ARC
  5
281
330
1F
100
AcDbEntity
  8
0-0_通り芯
  6
Continuous
 62
     3
370
    13
100
AcDbCircle
 10
9.946583870467514
 20
632.5156945328123
 30
0.0
 40
7.999999619819023
100
AcDbArc
 50
90.0
 51
180.0
  0
ARC
  5
282
330
1F
100
AcDbEntity
  8
0-0_通り芯
  6
Continuous
 62
     3
370
    13
100
AcDbCircle
 10
40.94633972984244
 20
632.5156945328123
 30
0.0
 40
7.999999619819023
100
AcDbArc
 50
7.016464233398438
 51
90.0
  0
ARC
  5
283
330
1F
100
AcDbEntity
  8
0-0_通り芯
  6
Continuous
 62
     3
370
    13
100
AcDbCircle
 10
80.94647169774791
 20
632.5156945328123
 30
0.0
 40
7.999999619819023
100
AcDbArc
 50
90.0
 51
180.0
  0
ARC
  5
284
330
1F
100
AcDbEntity
  8
0-0_通り芯
  6
Continuous
 62
     3
370
    13
100
AcDbCircle
 10
111.9462275571229
 20
632.5156945328123
 30
0.0
 40
7.999999619819023
100
AcDbArc
 50
7.016464233398438
 51
90.0
  0
ARC
  5
285
330
1F
100
AcDbEntity
  8
0-0_通り芯
  6
Continuous
 62
     3
370
    13
100
AcDbCircle
 10
182.9461153844031
 20
745.5155229745354
 30
0.0
 40
7.999999619819023
100
AcDbArc
 50
7.016464233398438
 51
90.0
  0
ARC
  5
286
330
1F
100
AcDbEntity
  8
0-0_通り芯
  6
Continuous
 62
     3
370
    13
100
AcDbCircle
 10
151.9463595250281
 20
745.5155229745354
 30
0.0
 40
7.999999619819023
100
AcDbArc
 50
90.0
 51
180.0
  0
ARC
  5
287
330
1F
100
AcDbEntity
  8
0-0_通り芯
  6
Continuous
 62
     3
370
    13
100
AcDbCircle
 10
151.9463595250281
 20
519.5157423711781
 30
0.0
 40
7.999999619819023
100
AcDbArc
 50
180.0
 51
270.0
  0
ARC
  5
288
330
1F
100
AcDbEntity
  8
0-0_通り芯
  6
Continuous
 62
     3
370
    13
100
AcDbCircle
 10
182.9461153844031
 20
519.5157423711781
 30
0.0
 40
7.999999619819023
100
AcDbArc
 50
270.0
 51
0.0
  0
ARC
  5
289
330
1F
100
AcDbEntity
  8
0-0_通り芯
  6
Continuous
 62
     3
370
    13
100
AcDbCircle
 10
182.9461153844031
 20
479.5157341231838
 30
0.0
 40
7.999999619819023
100
AcDbArc
 50
7.016464233398438
 51
90.0
  0
ARC
  5
28A
330
1F
100
AcDbEntity
  8
0-0_通り芯
  6
Continuous
 62
     3
370
    13
100
AcDbCircle
 10
151.9463595250281
 20
479.5157341231838
 30
0.0
 40
7.999999619819023
100
AcDbArc
 50
90.0
 51
180.0
  0
ARC
  5
28B
330
1F
100
AcDbEntity
  8
0-0_通り芯
  6
Continuous
 62
     3
370
    13
100
AcDbCircle
 10
80.94647169774791
 20
479.5157341231838
 30
0.0
 40
7.999999619819023
100
AcDbArc
 50
90.0
 51
180.0
  0
ARC
  5
28C
330
1F
100
AcDbEntity
  8
0-0_通り芯
  6
Continuous
 62
     3
370
    13
100
AcDbCircle
 10
111.9462275571229
 20
479.5157341231838
 30
0.0
 40
7.999999619819023
100
AcDbArc
 50
7.016464233398438
 51
90.0
  0
ARC
  5
28D
330
1F
100
AcDbEntity
  8
0-0_通り芯
  6
Continuous
 62
     3
370
    13
100
AcDbCircle
 10
111.9462275571229
 20
519.5157423711781
 30
0.0
 40
7.999999619819023
100
AcDbArc
 50
270.0
 51
0.0
  0
ARC
  5
28E
330
1F
100
AcDbEntity
  8
0-0_通り芯
  6
Continuous
 62
     3
370
    13
100
AcDbCircle
 10
80.94647169774791
 20
519.5157423711781
 30
0.0
 40
7.999999619819023
100
AcDbArc
 50
180.0
 51
270.0
  0
ARC
  5
28F
330
1F
100
AcDbEntity
  8
0-0_通り芯
  6
Continuous
 62
     3
370
    13
100
AcDbCircle
 10
9.946583870467514
 20
519.5157423711781
 30
0.0
 40
7.999999619819023
100
AcDbArc
 50
180.0
 51
270.0
  0
ARC
  5
290
330
1F
100
AcDbEntity
  8
0-0_通り芯
  6
Continuous
 62
     3
370
    13
100
AcDbCircle
 10
40.94633972984244
 20
519.5157423711781
 30
0.0
 40
7.999999619819023
100
AcDbArc
 50
270.0
 51
0.0
  0
ARC
  5
291
330
1F
100
AcDbEntity
  8
0-0_通り芯
  6
Continuous
 62
     3
370
    13
100
AcDbCircle
 10
40.94633972984244
 20
479.5157341231838
 30
0.0
 40
7.999999619819023
100
AcDbArc
 50
7.016464233398438
 51
90.0
  0
ARC
  5
292
330
1F
100
AcDbEntity
  8
0-0_通り芯
  6
Continuous
 62
     3
370
    13
100
AcDbCircle
 10
9.946583870467514
 20
479.5157341231838
 30
0.0
 40
7.999999619819023
100
AcDbArc
 50
90.0
 51
180.0
  0
ARC
  5
293
330
1F
100
AcDbEntity
  8
0-0_通り芯
  6
Continuous
 62
     3
370
    13
100
AcDbCircle
 10
-90.05374604929607
 20
479.5157341231838
 30
0.0
 40
7.999999619819023
100
AcDbArc
 50
90.0
 51
180.0
  0
ARC
  5
294
330
1F
100
AcDbEntity
  8
0-0_通り芯
  6
Continuous
 62
     3
370
    13
100
AcDbCircle
 10
-59.05349531027575
 20
479.5157341231838
 30
0.0
 40
7.999999619819023
100
AcDbArc
 50
7.016464233398438
 51
90.0
  0
ARC
  5
295
330
1F
100
AcDbEntity
  8
0-0_通り芯
  6
Continuous
 62
     3
370
    13
100
AcDbCircle
 10
-59.05349531027575
 20
519.5157423711781
 30
0.0
 40
7.999999619819023
100
AcDbArc
 50
270.0
 51
0.0
  0
ARC
  5
296
330
1F
100
AcDbEntity
  8
0-0_通り芯
  6
Continuous
 62
     3
370
    13
100
AcDbCircle
 10
-90.05374604929607
 20
519.5157423711781
 30
0.0
 40
7.999999619819023
100
AcDbArc
 50
180.0
 51
270.0
  0
ARC
  5
297
330
1F
100
AcDbEntity
  8
0-0_通り芯
  6
Continuous
 62
     3
370
    13
100
AcDbCircle
 10
-90.05374604929607
 20
745.5155229745354
 30
0.0
 40
7.999999619819023
100
AcDbArc
 50
90.0
 51
180.0
  0
ARC
  5
298
330
1F
100
AcDbEntity
  8
0-0_通り芯
  6
Continuous
 62
     3
370
    13
100
AcDbCircle
 10
-59.05349531027575
 20
745.5155229745354
 30
0.0
 40
7.999999619819023
100
AcDbArc
 50
7.016464233398438
 51
90.0
  0
ARC
  5
299
330
1F
100
AcDbEntity
  8
0-0_通り芯
  6
Continuous
 62
     3
370
    13
100
AcDbCircle
 10
-130.0537542972901
 20
745.5155229745354
 30
0.0
 40
7.999999619819023
100
AcDbArc
 50
7.016464233398438
 51
90.0
  0
ARC
  5
29A
330
1F
100
AcDbEntity
  8
0-0_通り芯
  6
Continuous
 62
     3
370
    13
100
AcDbCircle
 10
-161.0537575964877
 20
745.5155229745354
 30
0.0
 40
7.999999619819023
100
AcDbArc
 50
90.0
 51
180.0
  0
ARC
  5
29B
330
1F
100
AcDbEntity
  8
0-0_通り芯
  6
Continuous
 62
     3
370
    13
100
AcDbCircle
 10
-161.0537575964877
 20
519.5157423711781
 30
0.0
 40
7.999999619819023
100
AcDbArc
 50
180.0
 51
270.0
  0
ARC
  5
29C
330
1F
100
AcDbEntity
  8
0-0_通り芯
  6
Continuous
 62
     3
370
    13
100
AcDbCircle
 10
-130.0537542972901
 20
519.5157423711781
 30
0.0
 40
7.999999619819023
100
AcDbArc
 50
270.0
 51
0.0
  0
ARC
  5
29D
330
1F
100
AcDbEntity
  8
0-0_通り芯
  6
Continuous
 62
     3
370
    13
100
AcDbCircle
 10
-130.0537542972901
 20
479.5157341231838
 30
0.0
 40
7.999999619819023
100
AcDbArc
 50
7.016464233398438
 51
90.0
  0
ARC
  5
29E
330
1F
100
AcDbEntity
  8
0-0_通り芯
  6
Continuous
 62
     3
370
    13
100
AcDbCircle
 10
-161.0537575964877
 20
479.5157341231838
 30
0.0
 40
7.999999619819023
100
AcDbArc
 50
90.0
 51
180.0
  0
ARC
  5
29F
330
1F
100
AcDbEntity
  8
0-0_通り芯
  6
Continuous
 62
     3
370
    13
100
AcDbCircle
 10
-232.0536454237682
 20
479.5157341231838
 30
0.0
 40
7.999999619819023
100
AcDbArc
 50
90.0
 51
180.0
  0
ARC
  5
2A0
330
1F
100
AcDbEntity
  8
0-0_通り芯
  6
Continuous
 62
     3
370
    13
100
AcDbCircle
 10
-201.0536421245706
 20
479.5157341231838
 30
0.0
 40
7.999999619819023
100
AcDbArc
 50
7.016464233398438
 51
90.0
  0
ARC
  5
2A1
330
1F
100
AcDbEntity
  8
0-0_通り芯
  6
Continuous
 62
     3
370
    13
100
AcDbCircle
 10
-201.0536421245706
 20
519.5157423711781
 30
0.0
 40
7.999999619819023
100
AcDbArc
 50
270.0
 51
0.0
  0
ARC
  5
2A2
330
1F
100
AcDbEntity
  8
0-0_通り芯
  6
Continuous
 62
     3
370
    13
100
AcDbCircle
 10
-232.0536454237682
 20
519.5157423711781
 30
0.0
 40
7.999999619819023
100
AcDbArc
 50
180.0
 51
270.0
  0
ARC
  5
2A3
330
1F
100
AcDbEntity
  8
0-0_通り芯
  6
Continuous
 62
     3
370
    13
100
AcDbCircle
 10
-232.0536454237682
 20
745.5155229745354
 30
0.0
 40
7.999999619819023
100
AcDbArc
 50
90.0
 51
180.0
  0
ARC
  5
2A4
330
1F
100
AcDbEntity
  8
0-0_通り芯
  6
Continuous
 62
     3
370
    13
100
AcDbCircle
 10
-201.0536421245706
 20
745.5155229745354
 30
0.0
 40
7.999999619819023
100
AcDbArc
 50
7.016464233398438
 51
90.0
  0
ARC
  5
2A5
330
1F
100
AcDbEntity
  8
0-0_通り芯
  6
Continuous
 62
     3
370
    13
100
AcDbCircle
 10
-301.0537246045114
 20
745.5155229745354
 30
0.0
 40
7.999999619819023
100
AcDbArc
 50
7.016464233398438
 51
90.0
  0
ARC
  5
2A6
330
1F
100
AcDbEntity
  8
0-0_通り芯
  6
Continuous
 62
     3
370
    13
100
AcDbCircle
 10
-332.0537279037091
 20
745.5155229745354
 30
0.0
 40
7.999999619819023
100
AcDbArc
 50
90.0
 51
180.0
  0
ARC
  5
2A7
330
1F
100
AcDbEntity
  8
0-0_通り芯
  6
Continuous
 62
     3
370
    13
100
AcDbCircle
 10
-332.0537279037091
 20
519.5157423711781
 30
0.0
 40
7.999999619819023
100
AcDbArc
 50
180.0
 51
270.0
  0
ARC
  5
2A8
330
1F
100
AcDbEntity
  8
0-0_通り芯
  6
Continuous
 62
     3
370
    13
100
AcDbCircle
 10
-301.0537246045114
 20
519.5157423711781
 30
0.0
 40
7.999999619819023
100
AcDbArc
 50
270.0
 51
0.0
  0
ARC
  5
2A9
330
1F
100
AcDbEntity
  8
0-0_通り芯
  6
Continuous
 62
     3
370
    13
100
AcDbCircle
 10
-301.0537246045114
 20
479.5157341231838
 30
0.0
 40
7.999999619819023
100
AcDbArc
 50
7.016464233398438
 51
90.0
  0
ARC
  5
2AA
330
1F
100
AcDbEntity
  8
0-0_通り芯
  6
Continuous
 62
     3
370
    13
100
AcDbCircle
 10
-332.0537279037091
 20
479.5157341231838
 30
0.0
 40
7.999999619819023
100
AcDbArc
 50
90.0
 51
180.0
  0
ARC
  5
2AB
330
1F
100
AcDbEntity
  8
0-0_通り芯
  6
Continuous
 62
     3
370
    13
100
AcDbCircle
 10
-403.0536157309896
 20
479.5157341231838
 30
0.0
 40
7.999999619819023
100
AcDbArc
 50
90.0
 51
180.0
  0
ARC
  5
2AC
330
1F
100
AcDbEntity
  8
0-0_通り芯
  6
Continuous
 62
     3
370
    13
100
AcDbCircle
 10
-372.0536124317919
 20
479.5157341231838
 30
0.0
 40
7.999999619819023
100
AcDbArc
 50
7.016464233398438
 51
90.0
  0
ARC
  5
2AD
330
1F
100
AcDbEntity
  8
0-0_通り芯
  6
Continuous
 62
     3
370
    13
100
AcDbCircle
 10
-372.0536124317919
 20
519.5157423711781
 30
0.0
 40
7.999999619819023
100
AcDbArc
 50
270.0
 51
0.0
  0
ARC
  5
2AE
330
1F
100
AcDbEntity
  8
0-0_通り芯
  6
Continuous
 62
     3
370
    13
100
AcDbCircle
 10
-403.0536157309896
 20
519.5157423711781
 30
0.0
 40
7.999999619819023
100
AcDbArc
 50
180.0
 51
270.0
  0
ARC
  5
2AF
330
1F
100
AcDbEntity
  8
0-0_通り芯
  6
Continuous
 62
     3
370
    13
100
AcDbCircle
 10
-403.0536157309896
 20
745.5155229745354
 30
0.0
 40
7.999999619819023
100
AcDbArc
 50
90.0
 51
180.0
  0
ARC
  5
2B0
330
1F
100
AcDbEntity
  8
0-0_通り芯
  6
Continuous
 62
     3
370
    13
100
AcDbCircle
 10
-372.0536124317919
 20
745.5155229745354
 30
0.0
 40
7.999999619819023
100
AcDbArc
 50
7.016464233398438
 51
90.0
  0
ARC
  5
2B1
330
1F
100
AcDbEntity
  8
0-0_通り芯
  6
Continuous
 62
     3
370
    13
100
AcDbCircle
 10
-443.0537476988951
 20
745.5155229745354
 30
0.0
 40
7.999999619819023
100
AcDbArc
 50
7.016464233398438
 51
90.0
  0
ARC
  5
2B2
330
1F
100
AcDbEntity
  8
0-0_通り芯
  6
Continuous
 62
     3
370
    13
100
AcDbCircle
 10
-474.0537509980924
 20
745.5155229745354
 30
0.0
 40
7.999999619819023
100
AcDbArc
 50
90.0
 51
180.0
  0
ARC
  5
2B3
330
1F
100
AcDbEntity
  8
0-0_通り芯
  6
Continuous
 62
     3
370
    13
100
AcDbCircle
 10
-474.0537509980924
 20
519.5157423711781
 30
0.0
 40
7.999999619819023
100
AcDbArc
 50
180.0
 51
270.0
  0
ARC
  5
2B4
330
1F
100
AcDbEntity
  8
0-0_通り芯
  6
Continuous
 62
     3
370
    13
100
AcDbCircle
 10
-443.0537476988951
 20
519.5157423711781
 30
0.0
 40
7.999999619819023
100
AcDbArc
 50
270.0
 51
0.0
  0
ARC
  5
2B5
330
1F
100
AcDbEntity
  8
0-0_通り芯
  6
Continuous
 62
     3
370
    13
100
AcDbCircle
 10
-443.0537476988951
 20
479.5157341231838
 30
0.0
 40
7.999999619819023
100
AcDbArc
 50
7.016464233398438
 51
90.0
  0
ARC
  5
2B6
330
1F
100
AcDbEntity
  8
0-0_通り芯
  6
Continuous
 62
     3
370
    13
100
AcDbCircle
 10
-474.0537509980924
 20
479.5157341231838
 30
0.0
 40
7.999999619819023
100
AcDbArc
 50
90.0
 51
180.0
  0
ARC
  5
2B7
330
1F
100
AcDbEntity
  8
0-0_通り芯
  6
Continuous
 62
     3
370
    13
100
AcDbCircle
 10
-574.0535860382109
 20
479.5157341231838
 30
0.0
 40
7.999999619819023
100
AcDbArc
 50
90.0
 51
180.0
  0
ARC
  5
2B8
330
1F
100
AcDbEntity
  8
0-0_通り芯
  6
Continuous
 62
     3
370
    13
100
AcDbCircle
 10
-543.0535827390133
 20
479.5157341231838
 30
0.0
 40
7.999999619819023
100
AcDbArc
 50
7.016464233398438
 51
90.0
  0
ARC
  5
2B9
330
1F
100
AcDbEntity
  8
0-0_通り芯
  6
Continuous
 62
     3
370
    13
100
AcDbCircle
 10
-543.0535827390133
 20
519.5157423711781
 30
0.0
 40
7.999999619819023
100
AcDbArc
 50
270.0
 51
0.0
  0
ARC
  5
2BA
330
1F
100
AcDbEntity
  8
0-0_通り芯
  6
Continuous
 62
     3
370
    13
100
AcDbCircle
 10
-574.0535860382109
 20
519.5157423711781
 30
0.0
 40
7.999999619819023
100
AcDbArc
 50
180.0
 51
270.0
  0
ARC
  5
2BB
330
1F
100
AcDbEntity
  8
0-0_通り芯
  6
Continuous
 62
     3
370
    13
100
AcDbCircle
 10
-574.0535860382109
 20
745.5155229745354
 30
0.0
 40
7.999999619819023
100
AcDbArc
 50
90.0
 51
180.0
  0
ARC
  5
2BC
330
1F
100
AcDbEntity
  8
0-0_通り芯
  6
Continuous
 62
     3
370
    13
100
AcDbCircle
 10
-543.0535827390133
 20
745.5155229745354
 30
0.0
 40
7.999999619819023
100
AcDbArc
 50
7.016464233398438
 51
90.0
  0
ARC
  5
2BD
330
1F
100
AcDbEntity
  8
0-0_通り芯
  6
Continuous
 62
     3
370
    13
100
AcDbCircle
 10
-614.0537180061161
 20
745.5155229745354
 30
0.0
 40
7.999999619819023
100
AcDbArc
 50
7.016464233398438
 51
90.0
  0
ARC
  5
2BE
330
1F
100
AcDbEntity
  8
0-0_通り芯
  6
Continuous
 62
     3
370
    13
100
AcDbCircle
 10
-645.0537213053138
 20
745.5155229745354
 30
0.0
 40
7.999999619819023
100
AcDbArc
 50
90.0
 51
180.0
  0
ARC
  5
2BF
330
1F
100
AcDbEntity
  8
0-0_通り芯
  6
Continuous
 62
     3
370
    13
100
AcDbCircle
 10
-645.0537213053138
 20
519.5157423711781
 30
0.0
 40
7.999999619819023
100
AcDbArc
 50
180.0
 51
270.0
  0
ARC
  5
2C0
330
1F
100
AcDbEntity
  8
0-0_通り芯
  6
Continuous
 62
     3
370
    13
100
AcDbCircle
 10
-614.0537180061161
 20
519.5157423711781
 30
0.0
 40
7.999999619819023
100
AcDbArc
 50
270.0
 51
0.0
  0
ARC
  5
2C1
330
1F
100
AcDbEntity
  8
0-0_通り芯
  6
Continuous
 62
     3
370
    13
100
AcDbCircle
 10
-614.0537180061161
 20
479.5157341231838
 30
0.0
 40
7.999999619819023
100
AcDbArc
 50
7.016464233398438
 51
90.0
  0
ARC
  5
2C2
330
1F
100
AcDbEntity
  8
0-0_通り芯
  6
Continuous
 62
     3
370
    13
100
AcDbCircle
 10
-645.0537213053138
 20
479.5157341231838
 30
0.0
 40
7.999999619819023
100
AcDbArc
 50
90.0
 51
180.0
  0
ARC
  5
2C3
330
1F
100
AcDbEntity
  8
0-0_通り芯
  6
Continuous
 62
     3
370
    13
100
AcDbCircle
 10
-716.0536091325944
 20
479.5157341231838
 30
0.0
 40
7.999999619819023
100
AcDbArc
 50
90.0
 51
180.0
  0
ARC
  5
2C4
330
1F
100
AcDbEntity
  8
0-0_通り芯
  6
Continuous
 62
     3
370
    13
100
AcDbCircle
 10
-685.0536058333967
 20
479.5157341231838
 30
0.0
 40
7.999999619819023
100
AcDbArc
 50
7.016464233398438
 51
90.0
  0
ARC
  5
2C5
330
1F
100
AcDbEntity
  8
0-0_通り芯
  6
Continuous
 62
     3
370
    13
100
AcDbCircle
 10
-685.0536058333967
 20
519.5157423711781
 30
0.0
 40
7.999999619819023
100
AcDbArc
 50
270.0
 51
0.0
  0
ARC
  5
2C6
330
1F
100
AcDbEntity
  8
0-0_通り芯
  6
Continuous
 62
     3
370
    13
100
AcDbCircle
 10
-716.0536091325944
 20
519.5157423711781
 30
0.0
 40
7.999999619819023
100
AcDbArc
 50
180.0
 51
270.0
  0
ARC
  5
2C7
330
1F
100
AcDbEntity
  8
0-0_通り芯
  6
Continuous
 62
     3
370
    13
100
AcDbCircle
 10
-716.0536091325944
 20
745.5155229745354
 30
0.0
 40
7.999999619819023
100
AcDbArc
 50
90.0
 51
180.0
  0
ARC
  5
2C8
330
1F
100
AcDbEntity
  8
0-0_通り芯
  6
Continuous
 62
     3
370
    13
100
AcDbCircle
 10
-685.0536058333967
 20
745.5155229745354
 30
0.0
 40
7.999999619819023
100
AcDbArc
 50
7.016464233398438
 51
90.0
  0
ARC
  5
2C9
330
1F
100
AcDbEntity
  8
0-2_本体（蓋）
  6
Continuous
 62
     6
370
    13
100
AcDbCircle
 10
-1562.053579439816
 20
36.51568298562054
 30
0.0
 40
23.99999837617617
100
AcDbArc
 50
1.403289794921875
 51
0.0
  0
ARC
  5
2CA
330
1F
100
AcDbEntity
  8
0-2_本体（蓋）
  6
Continuous
 62
     6
370
    13
100
AcDbCircle
 10
-1562.053579439816
 20
36.51568298562054
 30
0.0
 40
29.99999845350111
100
AcDbArc
 50
1.403289794921875
 51
0.0
  0
ARC
  5
2CB
330
1F
100
AcDbEntity
  8
0-0_通り芯
  6
Continuous
 62
     3
370
    13
100
AcDbCircle
 10
-1511.053633876577
 20
126.5157324735851
 30
0.0
 40
7.999999619819023
100
AcDbArc
 50
270.0
 51
0.0
  0
ARC
  5
2CC
330
1F
100
AcDbEntity
  8
0-0_通り芯
  6
Continuous
 62
     3
370
    13
100
AcDbCircle
 10
-1542.053637175774
 20
126.5157324735851
 30
0.0
 40
7.999999619819023
100
AcDbArc
 50
180.0
 51
270.0
  0
ARC
  5
2CD
330
1F
100
AcDbEntity
  8
0-0_通り芯
  6
Continuous
 62
     3
370
    13
100
AcDbCircle
 10
-1582.053645423768
 20
126.5157324735851
 30
0.0
 40
7.999999619819023
100
AcDbArc
 50
270.0
 51
0.0
  0
ARC
  5
2CE
330
1F
100
AcDbEntity
  8
0-0_通り芯
  6
Continuous
 62
     3
370
    13
100
AcDbCircle
 10
-1613.053648722966
 20
126.5157324735851
 30
0.0
 40
7.999999619819023
100
AcDbArc
 50
180.0
 51
270.0
  0
ARC
  5
2CF
330
1F
100
AcDbEntity
  8
0-0_通り芯
  6
Continuous
 62
     3
370
    13
100
AcDbCircle
 10
-1684.053598410202
 20
13.51578031195075
 30
0.0
 40
7.999999619819023
100
AcDbArc
 50
180.0
 51
270.0
  0
ARC
  5
2D0
330
1F
100
AcDbEntity
  8
0-0_通り芯
  6
Continuous
 62
     3
370
    13
100
AcDbCircle
 10
-1653.053595111005
 20
13.51578031195075
 30
0.0
 40
7.999999619819023
100
AcDbArc
 50
270.0
 51
0.0
  0
ARC
  5
2D1
330
1F
100
AcDbEntity
  8
0-0_通り芯
  6
Continuous
 62
     3
370
    13
100
AcDbCircle
 10
-1653.053595111005
 20
239.5156846352195
 30
0.0
 40
7.999999619819023
100
AcDbArc
 50
1.403289794921875
 51
90.0
  0
ARC
  5
2D2
330
1F
100
AcDbEntity
  8
0-0_通り芯
  6
Continuous
 62
     3
370
    13
100
AcDbCircle
 10
-1684.053598410202
 20
239.5156846352195
 30
0.0
 40
7.999999619819023
100
AcDbArc
 50
90.0
 51
180.0
  0
ARC
  5
2D3
330
1F
100
AcDbEntity
  8
0-0_通り芯
  6
Continuous
 62
     3
370
    13
100
AcDbCircle
 10
-1684.053598410202
 20
279.5156928832135
 30
0.0
 40
7.999999619819023
100
AcDbArc
 50
180.0
 51
270.0
  0
ARC
  5
2D4
330
1F
100
AcDbEntity
  8
0-0_通り芯
  6
Continuous
 62
     3
370
    13
100
AcDbCircle
 10
-1653.053595111005
 20
279.5156928832135
 30
0.0
 40
7.999999619819023
100
AcDbArc
 50
270.0
 51
0.0
  0
ARC
  5
2D5
330
1F
100
AcDbEntity
  8
0-0_通り芯
  6
Continuous
 62
     3
370
    13
100
AcDbCircle
 10
-1582.053645423768
 20
279.5156928832135
 30
0.0
 40
7.999999619819023
100
AcDbArc
 50
270.0
 51
0.0
  0
ARC
  5
2D6
330
1F
100
AcDbEntity
  8
0-0_通り芯
  6
Continuous
 62
     3
370
    13
100
AcDbCircle
 10
-1613.053648722966
 20
279.5156928832135
 30
0.0
 40
7.999999619819023
100
AcDbArc
 50
180.0
 51
270.0
  0
ARC
  5
2D7
330
1F
100
AcDbEntity
  8
0-0_通り芯
  6
Continuous
 62
     3
370
    13
100
AcDbCircle
 10
-1613.053648722966
 20
239.5156846352195
 30
0.0
 40
7.999999619819023
100
AcDbArc
 50
90.0
 51
180.0
  0
ARC
  5
2D8
330
1F
100
AcDbEntity
  8
0-0_通り芯
  6
Continuous
 62
     3
370
    13
100
AcDbCircle
 10
-1582.053645423768
 20
239.5156846352195
 30
0.0
 40
7.999999619819023
100
AcDbArc
 50
1.403289794921875
 51
90.0
  0
ARC
  5
2D9
330
1F
100
AcDbEntity
  8
0-0_通り芯
  6
Continuous
 62
     3
370
    13
100
AcDbCircle
 10
-1511.053633876577
 20
239.5156846352195
 30
0.0
 40
7.999999619819023
100
AcDbArc
 50
1.403289794921875
 51
90.0
  0
ARC
  5
2DA
330
1F
100
AcDbEntity
  8
0-0_通り芯
  6
Continuous
 62
     3
370
    13
100
AcDbCircle
 10
-1542.053637175774
 20
239.5156846352195
 30
0.0
 40
7.999999619819023
100
AcDbArc
 50
90.0
 51
180.0
  0
ARC
  5
2DB
330
1F
100
AcDbEntity
  8
0-0_通り芯
  6
Continuous
 62
     3
370
    13
100
AcDbCircle
 10
-1542.053637175774
 20
279.5156928832135
 30
0.0
 40
7.999999619819023
100
AcDbArc
 50
180.0
 51
270.0
  0
ARC
  5
2DC
330
1F
100
AcDbEntity
  8
0-0_通り芯
  6
Continuous
 62
     3
370
    13
100
AcDbCircle
 10
-1511.053633876577
 20
279.5156928832135
 30
0.0
 40
7.999999619819023
100
AcDbArc
 50
270.0
 51
0.0
  0
ARC
  5
2DD
330
1F
100
AcDbEntity
  8
0-0_通り芯
  6
Continuous
 62
     3
370
    13
100
AcDbCircle
 10
-1411.053551396636
 20
279.5156928832135
 30
0.0
 40
7.999999619819023
100
AcDbArc
 50
270.0
 51
0.0
  0
ARC
  5
2DE
330
1F
100
AcDbEntity
  8
0-0_通り芯
  6
Continuous
 62
     3
370
    13
100
AcDbCircle
 10
-1442.053616555789
 20
279.5156928832135
 30
0.0
 40
7.999999619819023
100
AcDbArc
 50
180.0
 51
270.0
  0
ARC
  5
2DF
330
1F
100
AcDbEntity
  8
0-0_通り芯
  6
Continuous
 62
     3
370
    13
100
AcDbCircle
 10
-1442.053616555789
 20
239.5156846352195
 30
0.0
 40
7.999999619819023
100
AcDbArc
 50
90.0
 51
180.0
  0
ARC
  5
2E0
330
1F
100
AcDbEntity
  8
0-0_通り芯
  6
Continuous
 62
     3
370
    13
100
AcDbCircle
 10
-1411.053551396636
 20
239.5156846352195
 30
0.0
 40
7.999999619819023
100
AcDbArc
 50
1.403289794921875
 51
90.0
  0
ARC
  5
2E1
330
1F
100
AcDbEntity
  8
0-0_通り芯
  6
Continuous
 62
     3
370
    13
100
AcDbCircle
 10
-1411.053551396636
 20
13.51578031195075
 30
0.0
 40
7.999999619819023
100
AcDbArc
 50
270.0
 51
0.0
  0
ARC
  5
2E2
330
1F
100
AcDbEntity
  8
0-0_通り芯
  6
Continuous
 62
     3
370
    13
100
AcDbCircle
 10
-1442.053616555789
 20
13.51578031195075
 30
0.0
 40
7.999999619819023
100
AcDbArc
 50
180.0
 51
270.0
  0
ARC
  5
2E3
330
1F
100
AcDbEntity
  8
0-0_通り芯
  6
Continuous
 62
     3
370
    13
100
AcDbCircle
 10
-1371.053666868553
 20
13.51578031195075
 30
0.0
 40
7.999999619819023
100
AcDbArc
 50
180.0
 51
270.0
  0
ARC
  5
2E4
330
1F
100
AcDbEntity
  8
0-0_通り芯
  6
Continuous
 62
     3
370
    13
100
AcDbCircle
 10
-1340.053663569356
 20
13.51578031195075
 30
0.0
 40
7.999999619819023
100
AcDbArc
 50
270.0
 51
0.0
  0
ARC
  5
2E5
330
1F
100
AcDbEntity
  8
0-0_通り芯
  6
Continuous
 62
     3
370
    13
100
AcDbCircle
 10
-1340.053663569356
 20
239.5156846352195
 30
0.0
 40
7.999999619819023
100
AcDbArc
 50
1.403289794921875
 51
90.0
  0
ARC
  5
2E6
330
1F
100
AcDbEntity
  8
0-0_通り芯
  6
Continuous
 62
     3
370
    13
100
AcDbCircle
 10
-1371.053666868553
 20
239.5156846352195
 30
0.0
 40
7.999999619819023
100
AcDbArc
 50
90.0
 51
180.0
  0
ARC
  5
2E7
330
1F
100
AcDbEntity
  8
0-0_通り芯
  6
Continuous
 62
     3
370
    13
100
AcDbCircle
 10
-1371.053666868553
 20
279.5156928832135
 30
0.0
 40
7.999999619819023
100
AcDbArc
 50
180.0
 51
270.0
  0
ARC
  5
2E8
330
1F
100
AcDbEntity
  8
0-0_通り芯
  6
Continuous
 62
     3
370
    13
100
AcDbCircle
 10
-1340.053663569356
 20
279.5156928832135
 30
0.0
 40
7.999999619819023
100
AcDbArc
 50
270.0
 51
0.0
  0
ARC
  5
2E9
330
1F
100
AcDbEntity
  8
0-0_通り芯
  6
Continuous
 62
     3
370
    13
100
AcDbCircle
 10
-1269.053652022164
 20
279.5156928832135
 30
0.0
 40
7.999999619819023
100
AcDbArc
 50
270.0
 51
0.0
  0
ARC
  5
2EA
330
1F
100
AcDbEntity
  8
0-0_通り芯
  6
Continuous
 62
     3
370
    13
100
AcDbCircle
 10
-1300.053655321361
 20
279.5156928832135
 30
0.0
 40
7.999999619819023
100
AcDbArc
 50
180.0
 51
270.0
  0
ARC
  5
2EB
330
1F
100
AcDbEntity
  8
0-0_通り芯
  6
Continuous
 62
     3
370
    13
100
AcDbCircle
 10
-1300.053655321361
 20
239.5156846352195
 30
0.0
 40
7.999999619819023
100
AcDbArc
 50
90.0
 51
180.0
  0
ARC
  5
2EC
330
1F
100
AcDbEntity
  8
0-0_通り芯
  6
Continuous
 62
     3
370
    13
100
AcDbCircle
 10
-1269.053652022164
 20
239.5156846352195
 30
0.0
 40
7.999999619819023
100
AcDbArc
 50
1.403289794921875
 51
90.0
  0
ARC
  5
2ED
330
1F
100
AcDbEntity
  8
0-0_通り芯
  6
Continuous
 62
     3
370
    13
100
AcDbCircle
 10
-1269.053652022164
 20
13.51578031195075
 30
0.0
 40
7.999999619819023
100
AcDbArc
 50
270.0
 51
0.0
  0
ARC
  5
2EE
330
1F
100
AcDbEntity
  8
0-0_通り芯
  6
Continuous
 62
     3
370
    13
100
AcDbCircle
 10
-1300.053655321361
 20
13.51578031195075
 30
0.0
 40
7.999999619819023
100
AcDbArc
 50
180.0
 51
270.0
  0
ARC
  5
2EF
330
1F
100
AcDbEntity
  8
0-0_通り芯
  6
Continuous
 62
     3
370
    13
100
AcDbCircle
 10
-1200.05357284142
 20
13.51578031195075
 30
0.0
 40
7.999999619819023
100
AcDbArc
 50
180.0
 51
270.0
  0
ARC
  5
2F0
330
1F
100
AcDbEntity
  8
0-0_通り芯
  6
Continuous
 62
     3
370
    13
100
AcDbCircle
 10
-1169.053569542223
 20
13.51578031195075
 30
0.0
 40
7.999999619819023
100
AcDbArc
 50
270.0
 51
0.0
  0
ARC
  5
2F1
330
1F
100
AcDbEntity
  8
0-0_通り芯
  6
Continuous
 62
     3
370
    13
100
AcDbCircle
 10
-1169.053569542223
 20
239.5156846352195
 30
0.0
 40
7.999999619819023
100
AcDbArc
 50
1.403289794921875
 51
90.0
  0
ARC
  5
2F2
330
1F
100
AcDbEntity
  8
0-0_通り芯
  6
Continuous
 62
     3
370
    13
100
AcDbCircle
 10
-1200.05357284142
 20
239.5156846352195
 30
0.0
 40
7.999999619819023
100
AcDbArc
 50
90.0
 51
180.0
  0
ARC
  5
2F3
330
1F
100
AcDbEntity
  8
0-0_通り芯
  6
Continuous
 62
     3
370
    13
100
AcDbCircle
 10
-1200.05357284142
 20
279.5156928832135
 30
0.0
 40
7.999999619819023
100
AcDbArc
 50
180.0
 51
270.0
  0
ARC
  5
2F4
330
1F
100
AcDbEntity
  8
0-0_通り芯
  6
Continuous
 62
     3
370
    13
100
AcDbCircle
 10
-1169.053569542223
 20
279.5156928832135
 30
0.0
 40
7.999999619819023
100
AcDbArc
 50
270.0
 51
0.0
  0
ARC
  5
2F5
330
1F
100
AcDbEntity
  8
0-0_通り芯
  6
Continuous
 62
     3
370
    13
100
AcDbCircle
 10
-1098.053681714942
 20
279.5156928832135
 30
0.0
 40
7.999999619819023
100
AcDbArc
 50
270.0
 51
0.0
  0
ARC
  5
2F6
330
1F
100
AcDbEntity
  8
0-0_通り芯
  6
Continuous
 62
     3
370
    13
100
AcDbCircle
 10
-1129.05368501414
 20
279.5156928832135
 30
0.0
 40
7.999999619819023
100
AcDbArc
 50
180.0
 51
270.0
  0
ARC
  5
2F7
330
1F
100
AcDbEntity
  8
0-0_通り芯
  6
Continuous
 62
     3
370
    13
100
AcDbCircle
 10
-1129.05368501414
 20
239.5156846352195
 30
0.0
 40
7.999999619819023
100
AcDbArc
 50
90.0
 51
180.0
  0
ARC
  5
2F8
330
1F
100
AcDbEntity
  8
0-0_通り芯
  6
Continuous
 62
     3
370
    13
100
AcDbCircle
 10
-1098.053681714942
 20
239.5156846352195
 30
0.0
 40
7.999999619819023
100
AcDbArc
 50
1.403289794921875
 51
90.0
  0
ARC
  5
2F9
330
1F
100
AcDbEntity
  8
0-0_通り芯
  6
Continuous
 62
     3
370
    13
100
AcDbCircle
 10
-1098.053681714942
 20
13.51578031195075
 30
0.0
 40
7.999999619819023
100
AcDbArc
 50
270.0
 51
0.0
  0
ARC
  5
2FA
330
1F
100
AcDbEntity
  8
0-0_通り芯
  6
Continuous
 62
     3
370
    13
100
AcDbCircle
 10
-1129.05368501414
 20
13.51578031195075
 30
0.0
 40
7.999999619819023
100
AcDbArc
 50
180.0
 51
270.0
  0
ARC
  5
2FB
330
1F
100
AcDbEntity
  8
0-0_通り芯
  6
Continuous
 62
     3
370
    13
100
AcDbCircle
 10
-1058.053673466948
 20
13.51578031195075
 30
0.0
 40
7.999999619819023
100
AcDbArc
 50
180.0
 51
270.0
  0
ARC
  5
2FC
330
1F
100
AcDbEntity
  8
0-0_通り芯
  6
Continuous
 62
     3
370
    13
100
AcDbCircle
 10
-1027.053670167751
 20
13.51578031195075
 30
0.0
 40
7.999999619819023
100
AcDbArc
 50
270.0
 51
0.0
  0
ARC
  5
2FD
330
1F
100
AcDbEntity
  8
0-0_通り芯
  6
Continuous
 62
     3
370
    13
100
AcDbCircle
 10
-1027.053670167751
 20
239.5156846352195
 30
0.0
 40
7.999999619819023
100
AcDbArc
 50
1.403289794921875
 51
90.0
  0
ARC
  5
2FE
330
1F
100
AcDbEntity
  8
0-0_通り芯
  6
Continuous
 62
     3
370
    13
100
AcDbCircle
 10
-1058.053673466948
 20
239.5156846352195
 30
0.0
 40
7.999999619819023
100
AcDbArc
 50
90.0
 51
180.0
  0
ARC
  5
2FF
330
1F
100
AcDbEntity
  8
0-0_通り芯
  6
Continuous
 62
     3
370
    13
100
AcDbCircle
 10
-1058.053673466948
 20
279.5156928832135
 30
0.0
 40
7.999999619819023
100
AcDbArc
 50
180.0
 51
270.0
  0
ARC
  5
300
330
1F
100
AcDbEntity
  8
0-0_通り芯
  6
Continuous
 62
     3
370
    13
100
AcDbCircle
 10
-1027.053670167751
 20
279.5156928832135
 30
0.0
 40
7.999999619819023
100
AcDbArc
 50
270.0
 51
0.0
  0
ARC
  5
301
330
1F
100
AcDbEntity
  8
0-0_通り芯
  6
Continuous
 62
     3
370
    13
100
AcDbCircle
 10
-927.053711407721
 20
279.5156928832135
 30
0.0
 40
7.999999619819023
100
AcDbArc
 50
270.0
 51
0.0
  0
ARC
  5
302
330
1F
100
AcDbEntity
  8
0-0_通り芯
  6
Continuous
 62
     3
370
    13
100
AcDbCircle
 10
-958.0537147069186
 20
279.5156928832135
 30
0.0
 40
7.999999619819023
100
AcDbArc
 50
180.0
 51
270.0
  0
ARC
  5
303
330
1F
100
AcDbEntity
  8
0-0_通り芯
  6
Continuous
 62
     3
370
    13
100
AcDbCircle
 10
-958.0537147069186
 20
239.5156846352195
 30
0.0
 40
7.999999619819023
100
AcDbArc
 50
90.0
 51
180.0
  0
ARC
  5
304
330
1F
100
AcDbEntity
  8
0-0_通り芯
  6
Continuous
 62
     3
370
    13
100
AcDbCircle
 10
-927.053711407721
 20
239.5156846352195
 30
0.0
 40
7.999999619819023
100
AcDbArc
 50
1.403289794921875
 51
90.0
  0
ARC
  5
305
330
1F
100
AcDbEntity
  8
0-0_通り芯
  6
Continuous
 62
     3
370
    13
100
AcDbCircle
 10
-927.053711407721
 20
13.51578031195075
 30
0.0
 40
7.999999619819023
100
AcDbArc
 50
270.0
 51
0.0
  0
ARC
  5
306
330
1F
100
AcDbEntity
  8
0-0_通り芯
  6
Continuous
 62
     3
370
    13
100
AcDbCircle
 10
-958.0537147069186
 20
13.51578031195075
 30
0.0
 40
7.999999619819023
100
AcDbArc
 50
180.0
 51
270.0
  0
ARC
  5
307
330
1F
100
AcDbEntity
  8
0-0_通り芯
  6
Continuous
 62
     3
370
    13
100
AcDbCircle
 10
-887.0535794398155
 20
13.51578031195075
 30
0.0
 40
7.999999619819023
100
AcDbArc
 50
180.0
 51
270.0
  0
ARC
  5
308
330
1F
100
AcDbEntity
  8
0-0_通り芯
  6
Continuous
 62
     3
370
    13
100
AcDbCircle
 10
-856.053576140618
 20
13.51578031195075
 30
0.0
 40
7.999999619819023
100
AcDbArc
 50
270.0
 51
0.0
  0
ARC
  5
309
330
1F
100
AcDbEntity
  8
0-0_通り芯
  6
Continuous
 62
     3
370
    13
100
AcDbCircle
 10
-856.053576140618
 20
239.5156846352195
 30
0.0
 40
7.999999619819023
100
AcDbArc
 50
1.403289794921875
 51
90.0
  0
ARC
  5
30A
330
1F
100
AcDbEntity
  8
0-0_通り芯
  6
Continuous
 62
     3
370
    13
100
AcDbCircle
 10
-887.0535794398155
 20
239.5156846352195
 30
0.0
 40
7.999999619819023
100
AcDbArc
 50
90.0
 51
180.0
  0
ARC
  5
30B
330
1F
100
AcDbEntity
  8
0-0_通り芯
  6
Continuous
 62
     3
370
    13
100
AcDbCircle
 10
-887.0535794398155
 20
279.5156928832135
 30
0.0
 40
7.999999619819023
100
AcDbArc
 50
180.0
 51
270.0
  0
ARC
  5
30C
330
1F
100
AcDbEntity
  8
0-0_通り芯
  6
Continuous
 62
     3
370
    13
100
AcDbCircle
 10
-856.053576140618
 20
279.5156928832135
 30
0.0
 40
7.999999619819023
100
AcDbArc
 50
270.0
 51
0.0
  0
ARC
  5
30D
330
1F
100
AcDbEntity
  8
0-0_通り芯
  6
Continuous
 62
     3
370
    13
100
AcDbCircle
 10
-785.0536883133375
 20
279.5156928832135
 30
0.0
 40
7.999999619819023
100
AcDbArc
 50
270.0
 51
0.0
  0
ARC
  5
30E
330
1F
100
AcDbEntity
  8
0-0_通り芯
  6
Continuous
 62
     3
370
    13
100
AcDbCircle
 10
-816.0536916125352
 20
279.5156928832135
 30
0.0
 40
7.999999619819023
100
AcDbArc
 50
180.0
 51
270.0
  0
ARC
  5
30F
330
1F
100
AcDbEntity
  8
0-0_通り芯
  6
Continuous
 62
     3
370
    13
100
AcDbCircle
 10
-816.0536916125352
 20
239.5156846352195
 30
0.0
 40
7.999999619819023
100
AcDbArc
 50
90.0
 51
180.0
  0
ARC
  5
310
330
1F
100
AcDbEntity
  8
0-0_通り芯
  6
Continuous
 62
     3
370
    13
100
AcDbCircle
 10
-785.0536883133375
 20
239.5156846352195
 30
0.0
 40
7.999999619819023
100
AcDbArc
 50
1.403289794921875
 51
90.0
  0
ARC
  5
311
330
1F
100
AcDbEntity
  8
0-0_通り芯
  6
Continuous
 62
     3
370
    13
100
AcDbCircle
 10
-785.0536883133375
 20
13.51578031195075
 30
0.0
 40
7.999999619819023
100
AcDbArc
 50
270.0
 51
0.0
  0
ARC
  5
312
330
1F
100
AcDbEntity
  8
0-0_通り芯
  6
Continuous
 62
     3
370
    13
100
AcDbCircle
 10
-816.0536916125352
 20
13.51578031195075
 30
0.0
 40
7.999999619819023
100
AcDbArc
 50
180.0
 51
270.0
  0
ARC
  5
313
330
1F
100
AcDbEntity
  8
0-0_通り芯
  6
Continuous
 62
     3
370
    13
100
AcDbCircle
 10
-685.0536058333967
 20
13.51578031195075
 30
0.0
 40
7.999999619819023
100
AcDbArc
 50
270.0
 51
0.0
  0
ARC
  5
314
330
1F
100
AcDbEntity
  8
0-0_通り芯
  6
Continuous
 62
     3
370
    13
100
AcDbCircle
 10
-716.0536091325944
 20
13.51578031195075
 30
0.0
 40
7.999999619819023
100
AcDbArc
 50
180.0
 51
270.0
  0
ARC
  5
315
330
1F
100
AcDbEntity
  8
0-0_通り芯
  6
Continuous
 62
     3
370
    13
100
AcDbCircle
 10
-716.0536091325944
 20
239.5156846352195
 30
0.0
 40
7.999999619819023
100
AcDbArc
 50
90.0
 51
180.0
  0
ARC
  5
316
330
1F
100
AcDbEntity
  8
0-0_通り芯
  6
Continuous
 62
     3
370
    13
100
AcDbCircle
 10
-685.0536058333967
 20
239.5156846352195
 30
0.0
 40
7.999999619819023
100
AcDbArc
 50
7.016464233398438
 51
90.0
  0
ARC
  5
317
330
1F
100
AcDbEntity
  8
0-0_通り芯
  6
Continuous
 62
     3
370
    13
100
AcDbCircle
 10
-685.0536058333967
 20
279.5156928832135
 30
0.0
 40
7.999999619819023
100
AcDbArc
 50
270.0
 51
0.0
  0
ARC
  5
318
330
1F
100
AcDbEntity
  8
0-0_通り芯
  6
Continuous
 62
     3
370
    13
100
AcDbCircle
 10
-716.0536091325944
 20
279.5156928832135
 30
0.0
 40
7.999999619819023
100
AcDbArc
 50
180.0
 51
270.0
  0
ARC
  5
319
330
1F
100
AcDbEntity
  8
0-0_通り芯
  6
Continuous
 62
     3
370
    13
100
AcDbCircle
 10
-645.0537213053138
 20
279.5156928832135
 30
0.0
 40
7.999999619819023
100
AcDbArc
 50
180.0
 51
270.0
  0
ARC
  5
31A
330
1F
100
AcDbEntity
  8
0-0_通り芯
  6
Continuous
 62
     3
370
    13
100
AcDbCircle
 10
-614.0537180061161
 20
279.5156928832135
 30
0.0
 40
7.999999619819023
100
AcDbArc
 50
270.0
 51
0.0
  0
ARC
  5
31B
330
1F
100
AcDbEntity
  8
0-0_通り芯
  6
Continuous
 62
     3
370
    13
100
AcDbCircle
 10
-614.0537180061161
 20
239.5156846352195
 30
0.0
 40
7.999999619819023
100
AcDbArc
 50
7.016464233398438
 51
90.0
  0
ARC
  5
31C
330
1F
100
AcDbEntity
  8
0-0_通り芯
  6
Continuous
 62
     3
370
    13
100
AcDbCircle
 10
-645.0537213053138
 20
239.5156846352195
 30
0.0
 40
7.999999619819023
100
AcDbArc
 50
90.0
 51
180.0
  0
ARC
  5
31D
330
1F
100
AcDbEntity
  8
0-0_通り芯
  6
Continuous
 62
     3
370
    13
100
AcDbCircle
 10
-645.0537213053138
 20
13.51578031195075
 30
0.0
 40
7.999999619819023
100
AcDbArc
 50
180.0
 51
270.0
  0
ARC
  5
31E
330
1F
100
AcDbEntity
  8
0-0_通り芯
  6
Continuous
 62
     3
370
    13
100
AcDbCircle
 10
-614.0537180061161
 20
13.51578031195075
 30
0.0
 40
7.999999619819023
100
AcDbArc
 50
270.0
 51
0.0
  0
ARC
  5
31F
330
1F
100
AcDbEntity
  8
0-0_通り芯
  6
Continuous
 62
     3
370
    13
100
AcDbCircle
 10
-543.0535827390133
 20
13.51578031195075
 30
0.0
 40
7.999999619819023
100
AcDbArc
 50
270.0
 51
0.0
  0
ARC
  5
320
330
1F
100
AcDbEntity
  8
0-0_通り芯
  6
Continuous
 62
     3
370
    13
100
AcDbCircle
 10
-574.0535860382109
 20
13.51578031195075
 30
0.0
 40
7.999999619819023
100
AcDbArc
 50
180.0
 51
270.0
  0
ARC
  5
321
330
1F
100
AcDbEntity
  8
0-0_通り芯
  6
Continuous
 62
     3
370
    13
100
AcDbCircle
 10
-574.0535860382109
 20
239.5156846352195
 30
0.0
 40
7.999999619819023
100
AcDbArc
 50
90.0
 51
180.0
  0
ARC
  5
322
330
1F
100
AcDbEntity
  8
0-0_通り芯
  6
Continuous
 62
     3
370
    13
100
AcDbCircle
 10
-543.0535827390133
 20
239.5156846352195
 30
0.0
 40
7.999999619819023
100
AcDbArc
 50
7.016464233398438
 51
90.0
  0
ARC
  5
323
330
1F
100
AcDbEntity
  8
0-0_通り芯
  6
Continuous
 62
     3
370
    13
100
AcDbCircle
 10
-543.0535827390133
 20
279.5156928832135
 30
0.0
 40
7.999999619819023
100
AcDbArc
 50
270.0
 51
0.0
  0
ARC
  5
324
330
1F
100
AcDbEntity
  8
0-0_通り芯
  6
Continuous
 62
     3
370
    13
100
AcDbCircle
 10
-574.0535860382109
 20
279.5156928832135
 30
0.0
 40
7.999999619819023
100
AcDbArc
 50
180.0
 51
270.0
  0
ARC
  5
325
330
1F
100
AcDbEntity
  8
0-0_通り芯
  6
Continuous
 62
     3
370
    13
100
AcDbCircle
 10
-474.0537509980924
 20
279.5156928832135
 30
0.0
 40
7.999999619819023
100
AcDbArc
 50
180.0
 51
270.0
  0
ARC
  5
326
330
1F
100
AcDbEntity
  8
0-0_通り芯
  6
Continuous
 62
     3
370
    13
100
AcDbCircle
 10
-443.0537476988951
 20
279.5156928832135
 30
0.0
 40
7.999999619819023
100
AcDbArc
 50
270.0
 51
0.0
  0
ARC
  5
327
330
1F
100
AcDbEntity
  8
0-0_通り芯
  6
Continuous
 62
     3
370
    13
100
AcDbCircle
 10
-443.0537476988951
 20
239.5156846352195
 30
0.0
 40
7.999999619819023
100
AcDbArc
 50
7.016464233398438
 51
90.0
  0
ARC
  5
328
330
1F
100
AcDbEntity
  8
0-0_通り芯
  6
Continuous
 62
     3
370
    13
100
AcDbCircle
 10
-474.0537509980924
 20
239.5156846352195
 30
0.0
 40
7.999999619819023
100
AcDbArc
 50
90.0
 51
180.0
  0
ARC
  5
329
330
1F
100
AcDbEntity
  8
0-0_通り芯
  6
Continuous
 62
     3
370
    13
100
AcDbCircle
 10
-474.0537509980924
 20
13.51578031195075
 30
0.0
 40
7.999999619819023
100
AcDbArc
 50
180.0
 51
270.0
  0
ARC
  5
32A
330
1F
100
AcDbEntity
  8
0-0_通り芯
  6
Continuous
 62
     3
370
    13
100
AcDbCircle
 10
-443.0537476988951
 20
13.51578031195075
 30
0.0
 40
7.999999619819023
100
AcDbArc
 50
270.0
 51
0.0
  0
ARC
  5
32B
330
1F
100
AcDbEntity
  8
0-0_通り芯
  6
Continuous
 62
     3
370
    13
100
AcDbCircle
 10
-372.0536124317919
 20
13.51578031195075
 30
0.0
 40
7.999999619819023
100
AcDbArc
 50
270.0
 51
0.0
  0
ARC
  5
32C
330
1F
100
AcDbEntity
  8
0-0_通り芯
  6
Continuous
 62
     3
370
    13
100
AcDbCircle
 10
-403.0536157309896
 20
13.51578031195075
 30
0.0
 40
7.999999619819023
100
AcDbArc
 50
180.0
 51
270.0
  0
ARC
  5
32D
330
1F
100
AcDbEntity
  8
0-0_通り芯
  6
Continuous
 62
     3
370
    13
100
AcDbCircle
 10
-403.0536157309896
 20
239.5156846352195
 30
0.0
 40
7.999999619819023
100
AcDbArc
 50
90.0
 51
180.0
  0
ARC
  5
32E
330
1F
100
AcDbEntity
  8
0-0_通り芯
  6
Continuous
 62
     3
370
    13
100
AcDbCircle
 10
-372.0536124317919
 20
239.5156846352195
 30
0.0
 40
7.999999619819023
100
AcDbArc
 50
7.016464233398438
 51
90.0
  0
ARC
  5
32F
330
1F
100
AcDbEntity
  8
0-0_通り芯
  6
Continuous
 62
     3
370
    13
100
AcDbCircle
 10
-372.0536124317919
 20
279.5156928832135
 30
0.0
 40
7.999999619819023
100
AcDbArc
 50
270.0
 51
0.0
  0
ARC
  5
330
330
1F
100
AcDbEntity
  8
0-0_通り芯
  6
Continuous
 62
     3
370
    13
100
AcDbCircle
 10
-403.0536157309896
 20
279.5156928832135
 30
0.0
 40
7.999999619819023
100
AcDbArc
 50
180.0
 51
270.0
  0
ARC
  5
331
330
1F
100
AcDbEntity
  8
0-0_通り芯
  6
Continuous
 62
     3
370
    13
100
AcDbCircle
 10
-332.0537279037091
 20
279.5156928832135
 30
0.0
 40
7.999999619819023
100
AcDbArc
 50
180.0
 51
270.0
  0
ARC
  5
332
330
1F
100
AcDbEntity
  8
0-0_通り芯
  6
Continuous
 62
     3
370
    13
100
AcDbCircle
 10
-301.0537246045114
 20
279.5156928832135
 30
0.0
 40
7.999999619819023
100
AcDbArc
 50
270.0
 51
0.0
  0
ARC
  5
333
330
1F
100
AcDbEntity
  8
0-0_通り芯
  6
Continuous
 62
     3
370
    13
100
AcDbCircle
 10
-301.0537246045114
 20
239.5156846352195
 30
0.0
 40
7.999999619819023
100
AcDbArc
 50
7.016464233398438
 51
90.0
  0
ARC
  5
334
330
1F
100
AcDbEntity
  8
0-0_通り芯
  6
Continuous
 62
     3
370
    13
100
AcDbCircle
 10
-332.0537279037091
 20
239.5156846352195
 30
0.0
 40
7.999999619819023
100
AcDbArc
 50
90.0
 51
180.0
  0
ARC
  5
335
330
1F
100
AcDbEntity
  8
0-0_通り芯
  6
Continuous
 62
     3
370
    13
100
AcDbCircle
 10
-332.0537279037091
 20
13.51578031195075
 30
0.0
 40
7.999999619819023
100
AcDbArc
 50
180.0
 51
270.0
  0
ARC
  5
336
330
1F
100
AcDbEntity
  8
0-0_通り芯
  6
Continuous
 62
     3
370
    13
100
AcDbCircle
 10
-301.0537246045114
 20
13.51578031195075
 30
0.0
 40
7.999999619819023
100
AcDbArc
 50
270.0
 51
0.0
  0
ARC
  5
337
330
1F
100
AcDbEntity
  8
0-0_通り芯
  6
Continuous
 62
     3
370
    13
100
AcDbCircle
 10
-201.0536421245706
 20
13.51578031195075
 30
0.0
 40
7.999999619819023
100
AcDbArc
 50
270.0
 51
0.0
  0
ARC
  5
338
330
1F
100
AcDbEntity
  8
0-0_通り芯
  6
Continuous
 62
     3
370
    13
100
AcDbCircle
 10
-232.0536454237682
 20
13.51578031195075
 30
0.0
 40
7.999999619819023
100
AcDbArc
 50
180.0
 51
270.0
  0
ARC
  5
339
330
1F
100
AcDbEntity
  8
0-0_通り芯
  6
Continuous
 62
     3
370
    13
100
AcDbCircle
 10
-232.0536454237682
 20
239.5156846352195
 30
0.0
 40
7.999999619819023
100
AcDbArc
 50
90.0
 51
180.0
  0
ARC
  5
33A
330
1F
100
AcDbEntity
  8
0-0_通り芯
  6
Continuous
 62
     3
370
    13
100
AcDbCircle
 10
-201.0536421245706
 20
239.5156846352195
 30
0.0
 40
7.999999619819023
100
AcDbArc
 50
7.016464233398438
 51
90.0
  0
ARC
  5
33B
330
1F
100
AcDbEntity
  8
0-0_通り芯
  6
Continuous
 62
     3
370
    13
100
AcDbCircle
 10
-201.0536421245706
 20
279.5156928832135
 30
0.0
 40
7.999999619819023
100
AcDbArc
 50
270.0
 51
0.0
  0
ARC
  5
33C
330
1F
100
AcDbEntity
  8
0-0_通り芯
  6
Continuous
 62
     3
370
    13
100
AcDbCircle
 10
-232.0536454237682
 20
279.5156928832135
 30
0.0
 40
7.999999619819023
100
AcDbArc
 50
180.0
 51
270.0
  0
ARC
  5
33D
330
1F
100
AcDbEntity
  8
0-0_通り芯
  6
Continuous
 62
     3
370
    13
100
AcDbCircle
 10
-161.0537575964877
 20
279.5156928832135
 30
0.0
 40
7.999999619819023
100
AcDbArc
 50
180.0
 51
270.0
  0
ARC
  5
33E
330
1F
100
AcDbEntity
  8
0-0_通り芯
  6
Continuous
 62
     3
370
    13
100
AcDbCircle
 10
-130.0537542972901
 20
279.5156928832135
 30
0.0
 40
7.999999619819023
100
AcDbArc
 50
270.0
 51
0.0
  0
ARC
  5
33F
330
1F
100
AcDbEntity
  8
0-0_通り芯
  6
Continuous
 62
     3
370
    13
100
AcDbCircle
 10
-130.0537542972901
 20
239.5156846352195
 30
0.0
 40
7.999999619819023
100
AcDbArc
 50
7.016464233398438
 51
90.0
  0
ARC
  5
340
330
1F
100
AcDbEntity
  8
0-0_通り芯
  6
Continuous
 62
     3
370
    13
100
AcDbCircle
 10
-161.0537575964877
 20
239.5156846352195
 30
0.0
 40
7.999999619819023
100
AcDbArc
 50
90.0
 51
180.0
  0
ARC
  5
341
330
1F
100
AcDbEntity
  8
0-0_通り芯
  6
Continuous
 62
     3
370
    13
100
AcDbCircle
 10
-161.0537575964877
 20
13.51578031195075
 30
0.0
 40
7.999999619819023
100
AcDbArc
 50
180.0
 51
270.0
  0
ARC
  5
342
330
1F
100
AcDbEntity
  8
0-0_通り芯
  6
Continuous
 62
     3
370
    13
100
AcDbCircle
 10
-130.0537542972901
 20
13.51578031195075
 30
0.0
 40
7.999999619819023
100
AcDbArc
 50
270.0
 51
0.0
  0
ARC
  5
343
330
1F
100
AcDbEntity
  8
0-0_通り芯
  6
Continuous
 62
     3
370
    13
100
AcDbCircle
 10
-59.05349531027575
 20
13.51578031195075
 30
0.0
 40
7.999999619819023
100
AcDbArc
 50
270.0
 51
0.0
  0
ARC
  5
344
330
1F
100
AcDbEntity
  8
0-0_通り芯
  6
Continuous
 62
     3
370
    13
100
AcDbCircle
 10
-90.05374604929607
 20
13.51578031195075
 30
0.0
 40
7.999999619819023
100
AcDbArc
 50
180.0
 51
270.0
  0
ARC
  5
345
330
1F
100
AcDbEntity
  8
0-0_通り芯
  6
Continuous
 62
     3
370
    13
100
AcDbCircle
 10
-90.05374604929607
 20
239.5156846352195
 30
0.0
 40
7.999999619819023
100
AcDbArc
 50
90.0
 51
180.0
  0
ARC
  5
346
330
1F
100
AcDbEntity
  8
0-0_通り芯
  6
Continuous
 62
     3
370
    13
100
AcDbCircle
 10
-59.05349531027575
 20
239.5156846352195
 30
0.0
 40
7.999999619819023
100
AcDbArc
 50
7.016464233398438
 51
90.0
  0
ARC
  5
347
330
1F
100
AcDbEntity
  8
0-0_通り芯
  6
Continuous
 62
     3
370
    13
100
AcDbCircle
 10
-59.05349531027575
 20
279.5156928832135
 30
0.0
 40
7.999999619819023
100
AcDbArc
 50
270.0
 51
0.0
  0
ARC
  5
348
330
1F
100
AcDbEntity
  8
0-0_通り芯
  6
Continuous
 62
     3
370
    13
100
AcDbCircle
 10
-90.05374604929607
 20
279.5156928832135
 30
0.0
 40
7.999999619819023
100
AcDbArc
 50
180.0
 51
270.0
  0
ARC
  5
349
330
1F
100
AcDbEntity
  8
0-0_通り芯
  6
Continuous
 62
     3
370
    13
100
AcDbCircle
 10
9.946583870467514
 20
279.5156928832135
 30
0.0
 40
7.999999619819023
100
AcDbArc
 50
180.0
 51
270.0
  0
ARC
  5
34A
330
1F
100
AcDbEntity
  8
0-0_通り芯
  6
Continuous
 62
     3
370
    13
100
AcDbCircle
 10
40.94633972984244
 20
279.5156928832135
 30
0.0
 40
7.999999619819023
100
AcDbArc
 50
270.0
 51
0.0
  0
ARC
  5
34B
330
1F
100
AcDbEntity
  8
0-0_通り芯
  6
Continuous
 62
     3
370
    13
100
AcDbCircle
 10
40.94633972984244
 20
239.5156846352195
 30
0.0
 40
7.999999619819023
100
AcDbArc
 50
7.016464233398438
 51
90.0
  0
ARC
  5
34C
330
1F
100
AcDbEntity
  8
0-0_通り芯
  6
Continuous
 62
     3
370
    13
100
AcDbCircle
 10
9.946583870467514
 20
239.5156846352195
 30
0.0
 40
7.999999619819023
100
AcDbArc
 50
90.0
 51
180.0
  0
ARC
  5
34D
330
1F
100
AcDbEntity
  8
0-0_通り芯
  6
Continuous
 62
     3
370
    13
100
AcDbCircle
 10
80.94647169774791
 20
239.5156846352195
 30
0.0
 40
7.999999619819023
100
AcDbArc
 50
90.0
 51
180.0
  0
ARC
  5
34E
330
1F
100
AcDbEntity
  8
0-0_通り芯
  6
Continuous
 62
     3
370
    13
100
AcDbCircle
 10
111.9462275571229
 20
239.5156846352195
 30
0.0
 40
7.999999619819023
100
AcDbArc
 50
7.016464233398438
 51
90.0
  0
ARC
  5
34F
330
1F
100
AcDbEntity
  8
0-0_通り芯
  6
Continuous
 62
     3
370
    13
100
AcDbCircle
 10
111.9462275571229
 20
279.5156928832135
 30
0.0
 40
7.999999619819023
100
AcDbArc
 50
270.0
 51
0.0
  0
ARC
  5
350
330
1F
100
AcDbEntity
  8
0-0_通り芯
  6
Continuous
 62
     3
370
    13
100
AcDbCircle
 10
80.94647169774791
 20
279.5156928832135
 30
0.0
 40
7.999999619819023
100
AcDbArc
 50
180.0
 51
270.0
  0
ARC
  5
351
330
1F
100
AcDbEntity
  8
0-0_通り芯
  6
Continuous
 62
     3
370
    13
100
AcDbCircle
 10
151.9463595250281
 20
279.5156928832135
 30
0.0
 40
7.999999619819023
100
AcDbArc
 50
180.0
 51
270.0
  0
ARC
  5
352
330
1F
100
AcDbEntity
  8
0-0_通り芯
  6
Continuous
 62
     3
370
    13
100
AcDbCircle
 10
182.9461153844031
 20
279.5156928832135
 30
0.0
 40
7.999999619819023
100
AcDbArc
 50
270.0
 51
0.0
  0
ARC
  5
353
330
1F
100
AcDbEntity
  8
0-0_通り芯
  6
Continuous
 62
     3
370
    13
100
AcDbCircle
 10
182.9461153844031
 20
239.5156846352195
 30
0.0
 40
7.999999619819023
100
AcDbArc
 50
7.016464233398438
 51
90.0
  0
ARC
  5
354
330
1F
100
AcDbEntity
  8
0-0_通り芯
  6
Continuous
 62
     3
370
    13
100
AcDbCircle
 10
151.9463595250281
 20
239.5156846352195
 30
0.0
 40
7.999999619819023
100
AcDbArc
 50
90.0
 51
180.0
  0
ARC
  5
355
330
1F
100
AcDbEntity
  8
0-0_通り芯
  6
Continuous
 62
     3
370
    13
100
AcDbCircle
 10
151.9463595250281
 20
13.51578031195075
 30
0.0
 40
7.999999619819023
100
AcDbArc
 50
180.0
 51
270.0
  0
ARC
  5
356
330
1F
100
AcDbEntity
  8
0-0_通り芯
  6
Continuous
 62
     3
370
    13
100
AcDbCircle
 10
182.9461153844031
 20
13.51578031195075
 30
0.0
 40
7.999999619819023
100
AcDbArc
 50
270.0
 51
0.0
  0
ARC
  5
357
330
1F
100
AcDbEntity
  8
0-0_通り芯
  6
Continuous
 62
     3
370
    13
100
AcDbCircle
 10
111.9462275571229
 20
126.5157324735851
 30
0.0
 40
7.999999619819023
100
AcDbArc
 50
270.0
 51
0.0
  0
ARC
  5
358
330
1F
100
AcDbEntity
  8
0-0_通り芯
  6
Continuous
 62
     3
370
    13
100
AcDbCircle
 10
80.94647169774791
 20
126.5157324735851
 30
0.0
 40
7.999999619819023
100
AcDbArc
 50
180.0
 51
270.0
  0
ARC
  5
359
330
1F
100
AcDbEntity
  8
0-0_通り芯
  6
Continuous
 62
     3
370
    13
100
AcDbCircle
 10
40.94633972984244
 20
126.5157324735851
 30
0.0
 40
7.999999619819023
100
AcDbArc
 50
270.0
 51
0.0
  0
ARC
  5
35A
330
1F
100
AcDbEntity
  8
0-0_通り芯
  6
Continuous
 62
     3
370
    13
100
AcDbCircle
 10
9.946583870467514
 20
126.5157324735851
 30
0.0
 40
7.999999619819023
100
AcDbArc
 50
180.0
 51
270.0
  0
CIRCLE
  5
35B
330
1F
100
AcDbEntity
  8
0-2_本体（蓋）
  6
Continuous
 62
     6
370
    13
100
AcDbCircle
 10
60.94640571379504
 20
36.51568298562054
 30
0.0
 40
29.99999845350111
  0
CIRCLE
  5
35C
330
1F
100
AcDbEntity
  8
0-2_本体（蓋）
  6
Continuous
 62
     6
370
    13
100
AcDbCircle
 10
60.94640571379504
 20
36.51568298562054
 30
0.0
 40
23.99999837617617
  0
ARC
  5
35D
330
1F
100
AcDbEntity
  8
0-0_通り芯
  6
Continuous
 62
     3
370
    13
100
AcDbCircle
 10
1306.483498592807
 20
750.2440979850927
 30
0.0
 40
5.999999594044042
100
AcDbArc
 50
93.01278686523439
 51
180.0
  0
ARC
  5
35E
330
1F
100
AcDbEntity
  8
0-0_通り芯
  6
Continuous
 62
     3
370
    13
100
AcDbCircle
 10
1346.483630560713
 20
655.917563198353
 30
0.0
 40
27.99999842772613
100
AcDbArc
 50
135.0
 51
180.0
  0
ARC
  5
35F
330
1F
100
AcDbEntity
  8
0-2_本体（蓋）
  6
Continuous
 62
     6
370
    13
100
AcDbCircle
 10
1355.728477214006
 20
700.6155876388091
 30
0.0
 40
6.755737839518368
100
AcDbArc
 50
359.1518554687501
 51
60.84812927246097
  0
ARC
  5
360
330
1F
100
AcDbEntity
  8
0-2_本体（蓋）
  6
Continuous
 62
     6
370
    13
100
AcDbCircle
 10
1323.801316899395
 20
722.5154965809542
 30
0.0
 40
38.68246465115934
100
AcDbArc
 50
335.5672912597657
 51
24.43269348144536
  0
ARC
  5
361
330
1F
100
AcDbEntity
  8
0-2_本体（蓋）
  6
Continuous
 62
     6
370
    13
100
AcDbCircle
 10
1355.728477214006
 20
744.4156529629221
 30
0.0
 40
6.755737839518368
100
AcDbArc
 50
299.15185546875
 51
0.8481292724609363
  0
ARC
  5
362
330
1F
100
AcDbEntity
  8
0-0_通り芯
  6
Continuous
 62
     3
370
    13
100
AcDbCircle
 10
1346.483630560713
 20
103.1136163682218
 30
0.0
 40
27.99999842772613
100
AcDbArc
 50
180.0
 51
225.0
  0
ARC
  5
363
330
1F
100
AcDbEntity
  8
0-2_本体（蓋）
  6
Continuous
 62
     6
370
    13
100
AcDbCircle
 10
1275.550056605898
 20
36.51568298562054
 30
0.0
 40
23.06666696393812
100
AcDbArc
 50
90.01655578613281
 51
269.9834289550781
  0
ARC
  5
364
330
1F
100
AcDbEntity
  8
0-2_本体（蓋）
  6
Continuous
 62
     6
370
    13
100
AcDbCircle
 10
1355.728477214006
 20
14.61577404347523
 30
0.0
 40
6.755737839518368
100
AcDbArc
 50
359.1518554687501
 51
60.84812927246097
  0
ARC
  5
365
330
1F
100
AcDbEntity
  8
0-2_本体（蓋）
  6
Continuous
 62
     6
370
    13
100
AcDbCircle
 10
1323.801316899395
 20
36.51568298562054
 30
0.0
 40
38.68246465115934
100
AcDbArc
 50
335.5672912597657
 51
24.43269348144536
  0
ARC
  5
366
330
1F
100
AcDbEntity
  8
0-2_本体（蓋）
  6
Continuous
 62
     6
370
    13
100
AcDbCircle
 10
1355.728477214006
 20
58.41571564767708
 30
0.0
 40
6.755737839518368
100
AcDbArc
 50
299.15185546875
 51
0.8481292724609363
  0
ARC
  5
367
330
1F
100
AcDbEntity
  8
0-2_本体（蓋）
  6
Continuous
 62
     6
370
    13
100
AcDbCircle
 10
1289.238427594074
 20
58.41571564767708
 30
0.0
 40
6.755737839518368
100
AcDbArc
 50
179.15185546875
 51
240.848129272461
  0
ARC
  5
368
330
1F
100
AcDbEntity
  8
0-2_本体（蓋）
  6
Continuous
 62
     6
370
    13
100
AcDbCircle
 10
1321.16608278833
 20
36.51568298562054
 30
0.0
 40
38.68246465115934
100
AcDbArc
 50
155.5672912597656
 51
204.4326934814453
  0
ARC
  5
369
330
1F
100
AcDbEntity
  8
0-2_本体（蓋）
  6
Continuous
 62
     6
370
    13
100
AcDbCircle
 10
1289.238427594074
 20
14.61577404347523
 30
0.0
 40
6.755737839518368
100
AcDbArc
 50
119.15185546875
 51
180.8481292724609
  0
TEXT
  5
36A
330
1F
100
AcDbEntity
  8
0-4_寸法
  6
Continuous
 62
     2
370
    13
100
AcDbText
 10
-1683.053633257977
 20
981.1555394705234
 30
0.0
 40
30.48
  1
100
 41
1.083333333333333
  7
ＭＳ ゴシック
100
AcDbText
  0
TEXT
  5
36B
330
1F
100
AcDbEntity
  8
0-4_寸法
  6
Continuous
 62
     2
370
    13
100
AcDbText
 10
-1223.053584801012
 20
981.1555394705234
 30
0.0
 40
30.48
  1
360
 41
1.083333333333333
  7
ＭＳ ゴシック
100
AcDbText
  0
TEXT
  5
36C
330
1F
100
AcDbEntity
  8
0-4_寸法
  6
Continuous
 62
     2
370
    13
100
AcDbText
 10
-503.0535480457173
 20
981.1555394704858
 30
0.0
 40
30.48
  1
360
 50
359.99956377647
 41
1.083333333333336
  7
ＭＳ ゴシック
100
AcDbText
  0
TEXT
  5
36D
330
1F
100
AcDbEntity
  8
0-4_寸法
  6
Continuous
 62
     2
370
    13
100
AcDbText
 10
216.9468478579988
 20
981.1555394704858
 30
0.0
 40
30.48
  1
360
 50
359.99956377647
 41
1.083333333333335
  7
ＭＳ ゴシック
100
AcDbText
  0
TEXT
  5
36E
330
1F
100
AcDbEntity
  8
0-4_寸法
  6
Continuous
 62
     2
370
    13
100
AcDbText
 10
205.6961863171526
 20
1061.155308526689
 30
0.0
 40
30.48
  1
2000
 41
1.09375
  7
ＭＳ ゴシック
100
AcDbText
  0
TEXT
  5
36F
330
1F
100
AcDbEntity
  8
0-4_寸法
  6
Continuous
 62
     2
370
    13
100
AcDbText
 10
-783.0536487229659
 20
-303.2678350148017
 30
0.0
 40
30.48
  1
995
 41
1.083333333333333
  7
ＭＳ ゴシック
100
AcDbText
  0
TEXT
  5
370
330
1F
100
AcDbEntity
  8
0-4_寸法
  6
Continuous
 62
     2
370
    13
100
AcDbText
 10
519.4464420049692
 20
-303.2678350148017
 30
0.0
 40
30.48
  1
995
 41
1.083333333333333
  7
ＭＳ ゴシック
100
AcDbText
  0
TEXT
  5
371
330
1F
100
AcDbEntity
  8
0-4_寸法
  6
Continuous
 62
     2
370
    13
100
AcDbText
 10
285.9776161234236
 20
-303.2678350148017
 30
0.0
 40
30.48
  1
5
 41
0.9999999999999998
  7
ＭＳ ゴシック
100
AcDbText
  0
TEXT
  5
372
330
1F
100
AcDbEntity
  8
0-4_寸法
  6
Continuous
 62
     2
370
    13
100
AcDbText
 10
-1834.443131581985
 20
-303.2678350148017
 30
0.0
 40
30.48
  1
2.5
 41
1.083333333333333
  7
ＭＳ ゴシック
100
AcDbText
  0
TEXT
  5
373
330
1F
100
AcDbEntity
  8
0-4_寸法
  6
Continuous
 62
     2
370
    13
100
AcDbText
 10
-376.8526995438062
 20
-124.8440514289698
 30
0.0
 40
30.48
  1
12
 41
1.0625
  7
ＭＳ ゴシック
100
AcDbText
  0
TEXT
  5
374
330
1F
100
AcDbEntity
  8
0-4_寸法
  6
Continuous
 62
     2
370
    13
100
AcDbText
 10
-490.0535992350013
 20
-184.4404275902875
 30
0.0
 40
30.48
  1
23.5
 41
0.8937500000000006
  7
ＭＳ ゴシック
100
AcDbText
  0
TEXT
  5
375
330
1F
100
AcDbEntity
  8
0-4_寸法
  6
Continuous
 62
     2
370
    13
100
AcDbText
 10
-630.4665433070031
 20
-124.8440514289698
 30
0.0
 40
30.48
  1
26.5
 41
0.893749999999997
  7
ＭＳ ゴシック
100
AcDbText
  0
TEXT
  5
376
330
1F
100
AcDbEntity
  8
0-4_寸法
  6
Continuous
 62
     2
370
    13
100
AcDbText
 10
1512.843505191202
 20
-94.73443248629664
 30
0.0
 40
30.48
  1
33
 50
90.0
 41
1.0625
  7
ＭＳ ゴシック
100
AcDbText
  0
TEXT
  5
377
330
1F
100
AcDbEntity
  8
0-4_寸法
  6
Continuous
 62
     2
370
    13
100
AcDbText
 10
1512.843505191202
 20
-1.734422588703807
 30
0.0
 40
30.48
  1
60
 50
90.0
 41
1.062500000000001
  7
ＭＳ ゴシック
100
AcDbText
  0
TEXT
  5
378
330
1F
100
AcDbEntity
  8
0-4_寸法
  6
Continuous
 62
     2
370
    13
100
AcDbText
 10
1271.233724587845
 20
-124.8442988687925
 30
0.0
 40
30.48
  1
38
 41
1.0625
  7
ＭＳ ゴシック
100
AcDbText
  0
TEXT
  5
379
330
1F
100
AcDbEntity
  8
0-4_寸法
  6
Continuous
 62
     2
370
    13
100
AcDbText
 10
1277.233645407102
 20
-204.8443153647807
 30
0.0
 40
30.48
  1
44
 41
1.0625
  7
ＭＳ ゴシック
100
AcDbText
  0
TEXT
  5
37A
330
1F
100
AcDbEntity
  8
0-4_寸法
  6
Continuous
 62
     2
370
    13
100
AcDbText
 10
1364.233487045616
 20
-204.8443153647807
 30
0.0
 40
30.48
  1
43
 41
1.0625
  7
ＭＳ ゴシック
100
AcDbText
  0
TEXT
  5
37B
330
1F
100
AcDbEntity
  8
0-4_寸法
  6
Continuous
 62
     2
370
    13
100
AcDbText
 10
1512.843505191202
 20
811.2659832126054
 30
0.0
 40
30.48
  1
33
 50
90.0
 41
1.0625
  7
ＭＳ ゴシック
100
AcDbText
  0
TEXT
  5
37C
330
1F
100
AcDbEntity
  8
0-4_寸法
  6
Continuous
 62
     2
370
    13
100
AcDbText
 10
1512.843505191202
 20
718.2659733150125
 30
0.0
 40
30.48
  1
60
 50
90.0
 41
1.0625
  7
ＭＳ ゴシック
100
AcDbText
  0
TEXT
  5
37D
330
1F
100
AcDbEntity
  8
0-4_寸法
  6
Continuous
 62
     2
370
    13
100
AcDbText
 10
1138.843162074648
 20
825.8733704460302
 30
0.0
 40
30.48
  1
6
 50
90.0
 41
0.9999999999999998
  7
ＭＳ ゴシック
100
AcDbText
  0
TEXT
  5
37E
330
1F
100
AcDbEntity
  8
0-4_寸法
  6
Continuous
 62
     2
370
    13
100
AcDbText
 10
1138.843162074648
 20
728.3761417720438
 30
0.0
 40
30.48
  1
4
 50
90.0
 41
0.9999999999999998
  7
ＭＳ ゴシック
100
AcDbText
  0
TEXT
  5
37F
330
1F
100
AcDbEntity
  8
0-4_寸法
  6
Continuous
 62
     2
370
    13
100
AcDbText
 10
1138.843162074648
 20
-86.84237645932228
 30
0.0
 40
30.48
  1
6
 50
90.0
 41
0.9999999999999998
  7
ＭＳ ゴシック
100
AcDbText
  0
TEXT
  5
380
330
1F
100
AcDbEntity
  8
0-4_寸法
  6
Continuous
 62
     2
370
    13
100
AcDbText
 10
1138.843162074648
 20
10.65485221466417
 30
0.0
 40
30.48
  1
4
 50
90.0
 41
0.9999999999999998
  7
ＭＳ ゴシック
100
AcDbText
  0
TEXT
  5
381
330
1F
100
AcDbEntity
  8
0-4_寸法
  6
Continuous
 62
     2
370
    13
100
AcDbText
 10
1063.843162074648
 20
347.0156516432431
 30
0.0
 40
30.48
  1
420
 50
90.0
 41
1.083333333333332
  7
ＭＳ ゴシック
100
AcDbText
  0
TEXT
  5
382
330
1F
100
AcDbEntity
  8
0-4_寸法
  6
Continuous
 62
     2
370
    13
100
AcDbText
 10
1143.843426010459
 20
347.0156516432431
 30
0.0
 40
30.48
  1
400
 50
90.0
 41
1.083333333333332
  7
ＭＳ ゴシック
100
AcDbText
  0
LWPOLYLINE
  5
383
330
1F
100
AcDbEntity
  8
0-4_寸法
  6
Continuous
 62
     7
370
    13
100
AcDbPolyline
 90
        4
 70
     1
 43
1.0
 10
-481.5536041837979
 20
-140.4840844209461
 42
0.4142135623731
 10
-482.0536041837979
 20
-139.9840844209461
 42
0.4142135623731
 10
-482.5536041837979
 20
-140.4840844209461
 42
0.4142135623731
 10
-482.0536041837979
 20
-140.9840844209461
 42
0.4142135623731
  0
LWPOLYLINE
  5
384
330
1F
100
AcDbEntity
  8
0-4_寸法
  6
Continuous
 62
     7
370
    13
100
AcDbPolyline
 90
        4
 70
     1
 43
1.0
 10
-434.5535233534557
 20
-140.4840844209461
 42
0.4142135623731
 10
-435.0535233534557
 20
-139.9840844209461
 42
0.4142135623731
 10
-435.5535233534557
 20
-140.4840844209461
 42
0.4142135623731
 10
-435.0535233534557
 20
-140.9840844209461
 42
0.4142135623731
  0
LWPOLYLINE
  5
385
330
1F
100
AcDbEntity
  8
0-4_寸法
  6
Continuous
 62
     7
370
    13
100
AcDbPolyline
 90
        4
 70
     1
 43
1.0
 10
1154.983195066625
 20
787.5152161491552
 42
0.4142135623731
 10
1154.483195066625
 20
788.0152161491551
 42
0.4142135623731
 10
1153.983195066625
 20
787.5152161491552
 42
0.4142135623731
 10
1154.483195066625
 20
787.0152161491552
 42
0.4142135623731
  0
LWPOLYLINE
  5
386
330
1F
100
AcDbEntity
  8
0-4_寸法
  6
Continuous
 62
     7
370
    13
100
AcDbPolyline
 90
        4
 70
     1
 43
1.0
 10
1154.983195066625
 20
-28.48416030249169
 42
0.4142135623731
 10
1154.483195066625
 20
-27.98416030249169
 42
0.4142135623731
 10
1153.983195066625
 20
-28.48416030249169
 42
0.4142135623731
 10
1154.483195066625
 20
-28.98416030249169
 42
0.4142135623731
  0
TEXT
  5
387
330
1F
100
AcDbEntity
  8
0-5_文字
  6
Continuous
 62
     7
370
    13
100
AcDbText
 10
1010.836256272365
 20
-1103.391980833985
 30
0.0
 40
22.86
  1
標準質量：２６．０ｋｇ
 41
1.151515151515152
  7
ＭＳ ゴシック
100
AcDbText
  0
TEXT
  5
388
330
1F
100
AcDbEntity
  8
F-3ﾚｲﾔ
  6
Continuous
 62
     7
370
    13
100
AcDbText
 10
-771.5325248070562
 20
-1344.397342888644
 30
0.0
 40
22.86
  1
騒音防止型　鋳鉄製みぞ蓋　　　ＧＣＨ－Ｃ　１４０３８＋ＧＬ－３
 41
1.161290322580645
  7
ＭＳ ゴシック
100
AcDbText
  0
LINE
  5
389
330
1F
100
AcDbEntity
  8
0-3_受枠
  6
Continuous
 62
     4
370
    13
100
AcDbLine
 10
-1750.553607482996
 20
787.5154635889778
 30
0.0
 11
584.4464255089811
 21
787.5154635889778
 31
0.0
  0
LINE
  5
38A
330
1F
100
AcDbEntity
  8
0-3_受枠
  6
Continuous
 62
     4
370
    13
100
AcDbLine
 10
-1750.553607482996
 20
799.5155526673141
 30
0.0
 11
584.4464255089811
 21
799.5155526673141
 31
0.0
  0
LINE
  5
38B
330
1F
100
AcDbEntity
  8
0-3_受枠
  6
Continuous
 62
     4
370
    13
100
AcDbLine
 10
-1750.553607482996
 20
679.5156516432432
 30
0.0
 11
-1750.553607482996
 21
799.5155526673141
 31
0.0
  0
LINE
  5
38C
330
1F
100
AcDbEntity
  8
0-3_受枠
  6
Continuous
 62
     4
370
    13
100
AcDbLine
 10
-1750.553607482996
 20
679.5156516432432
 30
0.0
 11
-1745.553590987007
 21
679.5156516432432
 31
0.0
  0
LINE
  5
38D
330
1F
100
AcDbEntity
  8
0-3_受枠
  6
Continuous
 62
     4
370
    13
100
AcDbLine
 10
-1692.053637175774
 20
679.5156516432432
 30
0.0
 11
-1645.053556345432
 21
679.5156516432432
 31
0.0
  0
LINE
  5
38E
330
1F
100
AcDbEntity
  8
0-3_受枠
  6
Continuous
 62
     4
370
    13
100
AcDbLine
 10
-1450.053655321361
 20
679.5156516432432
 30
0.0
 11
-1403.053574491019
 21
679.5156516432432
 31
0.0
  0
LINE
  5
38F
330
1F
100
AcDbEntity
  8
0-3_受枠
  6
Continuous
 62
     4
370
    13
100
AcDbLine
 10
-1379.05364377417
 20
679.5156516432432
 30
0.0
 11
-1332.053562943827
 21
679.5156516432432
 31
0.0
  0
LINE
  5
390
330
1F
100
AcDbEntity
  8
0-3_受枠
  6
Continuous
 62
     4
370
    13
100
AcDbLine
 10
-1308.053632226978
 20
679.5156516432432
 30
0.0
 11
-1261.053675116547
 21
679.5156516432432
 31
0.0
  0
LINE
  5
391
330
1F
100
AcDbEntity
  8
0-3_受枠
  6
Continuous
 62
     4
370
    13
100
AcDbLine
 10
-1208.053673466948
 20
679.5156516432432
 30
0.0
 11
-1161.053592636606
 21
679.5156516432432
 31
0.0
  0
LINE
  5
392
330
1F
100
AcDbEntity
  8
0-3_受枠
  6
Continuous
 62
     4
370
    13
100
AcDbLine
 10
-1137.053661919756
 20
679.5156516432432
 30
0.0
 11
-1090.053704809326
 21
679.5156516432432
 31
0.0
  0
LINE
  5
393
330
1F
100
AcDbEntity
  8
0-3_受枠
  6
Continuous
 62
     4
370
    13
100
AcDbLine
 10
-1066.053650372565
 20
679.5156516432432
 30
0.0
 11
-1019.053693262134
 21
679.5156516432432
 31
0.0
  0
LINE
  5
394
330
1F
100
AcDbEntity
  8
0-3_受枠
  6
Continuous
 62
     4
370
    13
100
AcDbLine
 10
-966.0536916125353
 20
679.5156516432432
 30
0.0
 11
-919.0537345021045
 21
679.5156516432432
 31
0.0
  0
LINE
  5
395
330
1F
100
AcDbEntity
  8
0-3_受枠
  6
Continuous
 62
     4
370
    13
100
AcDbLine
 10
-895.0536800653435
 20
679.5156516432432
 30
0.0
 11
-848.0535992350013
 21
679.5156516432432
 31
0.0
  0
LINE
  5
396
330
1F
100
AcDbEntity
  8
0-3_受枠
  6
Continuous
 62
     4
370
    13
100
AcDbLine
 10
-824.0536685181519
 20
679.5156516432432
 30
0.0
 11
-777.0537114077208
 21
679.5156516432432
 31
0.0
  0
LINE
  5
397
330
1F
100
AcDbEntity
  8
0-3_受枠
  6
Continuous
 62
     4
370
    13
100
AcDbLine
 10
-677.05362892778
 20
679.5156516432432
 30
0.0
 11
-724.053586038211
 21
679.5156516432432
 31
0.0
  0
LINE
  5
398
330
1F
100
AcDbEntity
  8
0-3_受枠
  6
Continuous
 62
     4
370
    13
100
AcDbLine
 10
-606.0537411004997
 20
679.5156516432432
 30
0.0
 11
-653.053574491019
 21
679.5156516432432
 31
0.0
  0
LINE
  5
399
330
1F
100
AcDbEntity
  8
0-3_受枠
  6
Continuous
 62
     4
370
    13
100
AcDbLine
 10
-535.0536058333967
 20
679.5156516432432
 30
0.0
 11
-582.0535629438273
 21
679.5156516432432
 31
0.0
  0
LINE
  5
39A
330
1F
100
AcDbEntity
  8
0-3_受枠
  6
Continuous
 62
     4
370
    13
100
AcDbLine
 10
-435.0535233534557
 20
679.5156516432432
 30
0.0
 11
-482.0537279037091
 21
679.5156516432432
 31
0.0
  0
LINE
  5
39B
330
1F
100
AcDbEntity
  8
0-3_受枠
  6
Continuous
 62
     4
370
    13
100
AcDbLine
 10
-364.0536355261752
 20
679.5156516432432
 30
0.0
 11
-411.053592636606
 21
679.5156516432432
 31
0.0
  0
LINE
  5
39C
330
1F
100
AcDbEntity
  8
0-3_受枠
  6
Continuous
 62
     4
370
    13
100
AcDbLine
 10
-293.0537476988948
 20
679.5156516432432
 30
0.0
 11
-340.0537048093258
 21
679.5156516432432
 31
0.0
  0
LINE
  5
39D
330
1F
100
AcDbEntity
  8
0-3_受枠
  6
Continuous
 62
     4
370
    13
100
AcDbLine
 10
-193.0536652189539
 20
679.5156516432432
 30
0.0
 11
-240.0536223293849
 21
679.5156516432432
 31
0.0
  0
LINE
  5
39E
330
1F
100
AcDbEntity
  8
0-3_受枠
  6
Continuous
 62
     4
370
    13
100
AcDbLine
 10
-122.0536536717622
 20
679.5156516432432
 30
0.0
 11
-169.0537345021044
 21
679.5156516432432
 31
0.0
  0
LINE
  5
39F
330
1F
100
AcDbEntity
  8
0-3_受枠
  6
Continuous
 62
     4
370
    13
100
AcDbLine
 10
-51.05376584448173
 20
679.5156516432432
 30
0.0
 11
-98.05347551509008
 21
679.5156516432432
 31
0.0
  0
LINE
  5
3A0
330
1F
100
AcDbEntity
  8
0-3_受枠
  6
Continuous
 62
     4
370
    13
100
AcDbLine
 10
190.9463397298424
 20
679.5156516432432
 30
0.0
 11
143.946135179589
 21
679.5156516432432
 31
0.0
  0
LINE
  5
3A1
330
1F
100
AcDbEntity
  8
0-3_受枠
  6
Continuous
 62
     4
370
    13
100
AcDbLine
 10
-824.0536685181519
 20
79.51577536315443
 30
0.0
 11
-777.0537114077208
 21
79.51577536315443
 31
0.0
  0
LINE
  5
3A2
330
1F
100
AcDbEntity
  8
0-3_受枠
  6
Continuous
 62
     4
370
    13
100
AcDbLine
 10
-895.0536800653435
 20
79.51577536315443
 30
0.0
 11
-848.0535992350013
 21
79.51577536315443
 31
0.0
  0
LINE
  5
3A3
330
1F
100
AcDbEntity
  8
0-3_受枠
  6
Continuous
 62
     4
370
    13
100
AcDbLine
 10
-966.0536916125353
 20
79.51577536315443
 30
0.0
 11
-919.0537345021045
 21
79.51577536315443
 31
0.0
  0
LINE
  5
3A4
330
1F
100
AcDbEntity
  8
0-3_受枠
  6
Continuous
 62
     4
370
    13
100
AcDbLine
 10
-1066.053650372565
 20
79.51577536315443
 30
0.0
 11
-1019.053693262134
 21
79.51577536315443
 31
0.0
  0
LINE
  5
3A5
330
1F
100
AcDbEntity
  8
0-3_受枠
  6
Continuous
 62
     4
370
    13
100
AcDbLine
 10
-1137.053661919756
 20
79.51577536315443
 30
0.0
 11
-1090.053704809326
 21
79.51577536315443
 31
0.0
  0
LINE
  5
3A6
330
1F
100
AcDbEntity
  8
0-3_受枠
  6
Continuous
 62
     4
370
    13
100
AcDbLine
 10
-1208.053673466948
 20
79.51577536315443
 30
0.0
 11
-1161.053592636606
 21
79.51577536315443
 31
0.0
  0
LINE
  5
3A7
330
1F
100
AcDbEntity
  8
0-3_受枠
  6
Continuous
 62
     4
370
    13
100
AcDbLine
 10
-1308.053632226978
 20
79.51577536315443
 30
0.0
 11
-1261.053675116547
 21
79.51577536315443
 31
0.0
  0
LINE
  5
3A8
330
1F
100
AcDbEntity
  8
0-3_受枠
  6
Continuous
 62
     4
370
    13
100
AcDbLine
 10
-1379.05364377417
 20
79.51577536315443
 30
0.0
 11
-1332.053562943827
 21
79.51577536315443
 31
0.0
  0
LINE
  5
3A9
330
1F
100
AcDbEntity
  8
0-3_受枠
  6
Continuous
 62
     4
370
    13
100
AcDbLine
 10
-1450.053655321361
 20
79.51577536315443
 30
0.0
 11
-1403.053574491019
 21
79.51577536315443
 31
0.0
  0
LINE
  5
3AA
330
1F
100
AcDbEntity
  8
0-3_受枠
  6
Continuous
 62
     4
370
    13
100
AcDbLine
 10
-1692.053637175774
 20
79.51577536315443
 30
0.0
 11
-1645.053556345432
 21
79.51577536315443
 31
0.0
  0
LINE
  5
3AB
330
1F
100
AcDbEntity
  8
0-3_受枠
  6
Continuous
 62
     4
370
    13
100
AcDbLine
 10
-1750.553607482996
 20
79.51577536315443
 30
0.0
 11
-1745.553590987007
 21
79.51577536315443
 31
0.0
  0
LINE
  5
3AC
330
1F
100
AcDbEntity
  8
0-3_受枠
  6
Continuous
 62
     4
370
    13
100
AcDbLine
 10
-1750.553607482996
 20
79.51577536315443
 30
0.0
 11
-1750.553607482996
 21
-40.48424938082789
 31
0.0
  0
LINE
  5
3AD
330
1F
100
AcDbEntity
  8
0-3_受枠
  6
Continuous
 62
     4
370
    13
100
AcDbLine
 10
-51.05376584448173
 20
79.51577536315443
 30
0.0
 11
-98.05347551509008
 21
79.51577536315443
 31
0.0
  0
LINE
  5
3AE
330
1F
100
AcDbEntity
  8
0-3_受枠
  6
Continuous
 62
     4
370
    13
100
AcDbLine
 10
-122.0536536717622
 20
79.51577536315443
 30
0.0
 11
-169.0537345021044
 21
79.51577536315443
 31
0.0
  0
LINE
  5
3AF
330
1F
100
AcDbEntity
  8
0-3_受枠
  6
Continuous
 62
     4
370
    13
100
AcDbLine
 10
-193.0536652189539
 20
79.51577536315443
 30
0.0
 11
-240.0536223293849
 21
79.51577536315443
 31
0.0
  0
LINE
  5
3B0
330
1F
100
AcDbEntity
  8
0-3_受枠
  6
Continuous
 62
     4
370
    13
100
AcDbLine
 10
-293.0537476988948
 20
79.51577536315443
 30
0.0
 11
-340.0537048093258
 21
79.51577536315443
 31
0.0
  0
LINE
  5
3B1
330
1F
100
AcDbEntity
  8
0-3_受枠
  6
Continuous
 62
     4
370
    13
100
AcDbLine
 10
-364.0536355261752
 20
79.51577536315443
 30
0.0
 11
-411.053592636606
 21
79.51577536315443
 31
0.0
  0
LINE
  5
3B2
330
1F
100
AcDbEntity
  8
0-3_受枠
  6
Continuous
 62
     4
370
    13
100
AcDbLine
 10
-435.0535233534557
 20
79.51577536315443
 30
0.0
 11
-482.0537279037091
 21
79.51577536315443
 31
0.0
  0
LINE
  5
3B3
330
1F
100
AcDbEntity
  8
0-3_受枠
  6
Continuous
 62
     4
370
    13
100
AcDbLine
 10
-535.0536058333967
 20
79.51577536315443
 30
0.0
 11
-582.0535629438273
 21
79.51577536315443
 31
0.0
  0
LINE
  5
3B4
330
1F
100
AcDbEntity
  8
0-3_受枠
  6
Continuous
 62
     4
370
    13
100
AcDbLine
 10
-606.0537411004997
 20
79.51577536315443
 30
0.0
 11
-653.053574491019
 21
79.51577536315443
 31
0.0
  0
LINE
  5
3B5
330
1F
100
AcDbEntity
  8
0-3_受枠
  6
Continuous
 62
     4
370
    13
100
AcDbLine
 10
-677.05362892778
 20
79.51577536315443
 30
0.0
 11
-724.053586038211
 21
79.51577536315443
 31
0.0
  0
LINE
  5
3B6
330
1F
100
AcDbEntity
  8
0-3_受枠
  6
Continuous
 62
     4
370
    13
100
AcDbLine
 10
584.4464255089811
 20
679.5156516432432
 30
0.0
 11
244.4462935410755
 21
679.5156516432432
 31
0.0
  0
LINE
  5
3B7
330
1F
100
AcDbEntity
  8
0-3_受枠
  6
Continuous
 62
     4
370
    13
100
AcDbLine
 10
-1750.553607482996
 20
-40.48424938082789
 30
0.0
 11
584.4464255089811
 21
-40.48424938082789
 31
0.0
  0
LINE
  5
3B8
330
1F
100
AcDbEntity
  8
0-3_受枠
  6
Continuous
 62
     4
370
    13
100
AcDbLine
 10
-1750.553607482996
 20
-28.48428402240316
 30
0.0
 11
584.4464255089811
 21
-28.48428402240316
 31
0.0
  0
LINE
  5
3B9
330
1F
100
AcDbEntity
  8
0-3_受枠
  6
Continuous
 62
     4
370
    13
100
AcDbLine
 10
190.9463397298424
 20
79.51577536315443
 30
0.0
 11
143.946135179589
 21
79.51577536315443
 31
0.0
  0
LINE
  5
3BA
330
1F
100
AcDbEntity
  8
0-3_受枠
  6
Continuous
 62
     4
370
    13
100
AcDbLine
 10
584.4464255089811
 20
79.51577536315443
 30
0.0
 11
244.4462935410755
 21
79.51577536315443
 31
0.0
  0
LINE
  5
3BB
330
1F
100
AcDbEntity
  8
0-A
  6
Continuous
 62
     2
370
    13
100
AcDbLine
 10
-1563.55355964463
 20
865.5156714384289
 30
0.0
 11
-1537.55357284142
 21
865.5156714384289
 31
0.0
  0
LINE
  5
3BC
330
1F
100
AcDbEntity
  8
0-A
  6
JWW_CENTER1
 62
     2
370
    13
100
AcDbLine
 10
-854.3492106423072
 20
812.5155460689188
 30
0.0
 11
-806.9048516104237
 21
812.5155460689188
 31
0.0
  0
LINE
  5
3BD
330
1F
100
AcDbEntity
  8
0-A
  6
Continuous
 62
     2
370
    13
100
AcDbLine
 10
-1537.55357284142
 20
812.5155460689188
 30
0.0
 11
-1537.55357284142
 21
865.5156714384289
 31
0.0
  0
LINE
  5
3BE
330
1F
100
AcDbEntity
  8
0-A
  6
Continuous
 62
     2
370
    13
100
AcDbLine
 10
-1563.55355964463
 20
812.5155460689188
 30
0.0
 11
-1563.55355964463
 21
865.5156714384289
 31
0.0
  0
LINE
  5
3BF
330
1F
100
AcDbEntity
  8
0-A
  6
JWW_CENTER1
 62
     2
370
    13
100
AcDbLine
 10
-1574.349235386289
 20
812.5155460689188
 30
0.0
 11
-1526.904876354406
 21
812.5155460689188
 31
0.0
  0
LINE
  5
3C0
330
1F
100
AcDbEntity
  8
0-A
  6
Continuous
 62
     2
370
    13
100
AcDbLine
 10
-843.5535349006476
 20
812.5155460689188
 30
0.0
 11
-843.5535349006476
 21
865.5156714384289
 31
0.0
  0
LINE
  5
3C1
330
1F
100
AcDbEntity
  8
0-A
  6
Continuous
 62
     2
370
    13
100
AcDbLine
 10
-817.5536718173493
 20
812.5155460689188
 30
0.0
 11
-817.5536718173493
 21
865.5156714384289
 31
0.0
  0
LINE
  5
3C2
330
1F
100
AcDbEntity
  8
0-A
  6
Continuous
 62
     2
370
    13
100
AcDbLine
 10
-843.5535349006476
 20
865.5156714384289
 30
0.0
 11
-817.5536718173493
 21
865.5156714384289
 31
0.0
  0
LINE
  5
3C3
330
1F
100
AcDbEntity
  8
0-A
  6
Continuous
 62
     2
370
    13
100
AcDbLine
 10
-123.5536338765765
 20
865.5156714384289
 30
0.0
 11
-97.55364707336689
 21
865.5156714384289
 31
0.0
  0
LINE
  5
3C4
330
1F
100
AcDbEntity
  8
0-A
  6
Continuous
 62
     2
370
    13
100
AcDbLine
 10
-97.55364707336689
 20
812.5155460689188
 30
0.0
 11
-97.55364707336689
 21
865.5156714384289
 31
0.0
  0
LINE
  5
3C5
330
1F
100
AcDbEntity
  8
0-A
  6
Continuous
 62
     2
370
    13
100
AcDbLine
 10
-123.5536338765765
 20
812.5155460689188
 30
0.0
 11
-123.5536338765765
 21
865.5156714384289
 31
0.0
  0
LINE
  5
3C6
330
1F
100
AcDbEntity
  8
0-A
  6
JWW_CENTER1
 62
     2
370
    13
100
AcDbLine
 10
-134.3493096182362
 20
812.5155460689188
 30
0.0
 11
-86.90482686644138
 21
812.5155460689188
 31
0.0
  0
LINE
  5
3C7
330
1F
100
AcDbEntity
  8
0-A
  6
JWW_CENTER1
 62
     2
370
    13
100
AcDbLine
 10
-134.3493096182362
 20
-53.48424278243257
 30
0.0
 11
-86.90482686644138
 21
-53.48424278243257
 31
0.0
  0
LINE
  5
3C8
330
1F
100
AcDbEntity
  8
0-A
  6
Continuous
 62
     2
370
    13
100
AcDbLine
 10
-123.5536338765765
 20
-53.48424278243257
 30
0.0
 11
-123.5536338765765
 21
-106.4843681519427
 31
0.0
  0
LINE
  5
3C9
330
1F
100
AcDbEntity
  8
0-A
  6
Continuous
 62
     2
370
    13
100
AcDbLine
 10
-97.55364707336689
 20
-53.48424278243257
 30
0.0
 11
-97.55364707336689
 21
-106.4843681519427
 31
0.0
  0
LINE
  5
3CA
330
1F
100
AcDbEntity
  8
0-A
  6
Continuous
 62
     2
370
    13
100
AcDbLine
 10
-123.5536338765765
 20
-106.4843681519427
 30
0.0
 11
-97.55364707336689
 21
-106.4843681519427
 31
0.0
  0
LINE
  5
3CB
330
1F
100
AcDbEntity
  8
0-A
  6
Continuous
 62
     2
370
    13
100
AcDbLine
 10
-843.5535349006476
 20
-106.4843681519427
 30
0.0
 11
-817.5536718173493
 21
-106.4843681519427
 31
0.0
  0
LINE
  5
3CC
330
1F
100
AcDbEntity
  8
0-A
  6
Continuous
 62
     2
370
    13
100
AcDbLine
 10
-817.5536718173493
 20
-53.48424278243257
 30
0.0
 11
-817.5536718173493
 21
-106.4843681519427
 31
0.0
  0
LINE
  5
3CD
330
1F
100
AcDbEntity
  8
0-A
  6
Continuous
 62
     2
370
    13
100
AcDbLine
 10
-843.5535349006476
 20
-53.48424278243257
 30
0.0
 11
-843.5535349006476
 21
-106.4843681519427
 31
0.0
  0
LINE
  5
3CE
330
1F
100
AcDbEntity
  8
0-A
  6
JWW_CENTER1
 62
     2
370
    13
100
AcDbLine
 10
-1574.349235386289
 20
-53.48424278243257
 30
0.0
 11
-1526.904876354406
 21
-53.48424278243257
 31
0.0
  0
LINE
  5
3CF
330
1F
100
AcDbEntity
  8
0-A
  6
Continuous
 62
     2
370
    13
100
AcDbLine
 10
-1563.55355964463
 20
-53.48424278243257
 30
0.0
 11
-1563.55355964463
 21
-106.4843681519427
 31
0.0
  0
LINE
  5
3D0
330
1F
100
AcDbEntity
  8
0-A
  6
Continuous
 62
     2
370
    13
100
AcDbLine
 10
-1537.55357284142
 20
-53.48424278243257
 30
0.0
 11
-1537.55357284142
 21
-106.4843681519427
 31
0.0
  0
LINE
  5
3D1
330
1F
100
AcDbEntity
  8
0-A
  6
JWW_CENTER1
 62
     2
370
    13
100
AcDbLine
 10
-854.3492106423072
 20
-53.48424278243257
 30
0.0
 11
-806.9048516104237
 21
-53.48424278243257
 31
0.0
  0
LINE
  5
3D2
330
1F
100
AcDbEntity
  8
0-A
  6
Continuous
 62
     2
370
    13
100
AcDbLine
 10
-1563.55355964463
 20
-106.4843681519427
 30
0.0
 11
-1537.55357284142
 21
-106.4843681519427
 31
0.0
  0
LINE
  5
3D3
330
1F
100
AcDbEntity
  8
0-A
  6
Continuous
 62
     2
370
    13
100
AcDbLine
 10
1428.483208263416
 20
837.5156285488596
 30
0.0
 11
1428.483208263416
 21
865.5156714384289
 31
0.0
  0
LINE
  5
3D4
330
1F
100
AcDbEntity
  8
0-A
  6
Continuous
 62
     2
370
    13
100
AcDbLine
 10
1402.483221460205
 20
865.5156714384289
 30
0.0
 11
1428.483208263416
 21
865.5156714384289
 31
0.0
  0
LINE
  5
3D5
330
1F
100
AcDbEntity
  8
0-A
  6
Continuous
 62
     2
370
    13
100
AcDbLine
 10
1402.483221460205
 20
837.5156285488596
 30
0.0
 11
1402.483221460205
 21
865.5156714384289
 31
0.0
  0
LINE
  5
3D6
330
1F
100
AcDbEntity
  8
0-A
  6
Continuous
 62
     2
370
    13
100
AcDbLine
 10
1302.483386420088
 20
825.5155394705234
 30
0.0
 11
1390.483379821692
 21
825.5155394705234
 31
0.0
  0
LINE
  5
3D7
330
1F
100
AcDbEntity
  8
0-A
  6
Continuous
 62
     2
370
    13
100
AcDbLine
 10
1302.483386420088
 20
799.5155526673141
 30
0.0
 11
1302.483386420088
 21
825.5155394705234
 31
0.0
  0
LINE
  5
3D8
330
1F
100
AcDbEntity
  8
0-A
  6
JWW_CENTER1
 62
     2
370
    13
100
AcDbLine
 10
1288.176910754969
 20
812.5155460689188
 30
0.0
 11
1390.483379821692
 21
812.5155460689188
 31
0.0
  0
LINE
  5
3D9
330
1F
100
AcDbEntity
  8
0-A
  6
JWW_CENTER1
 62
     2
370
    13
100
AcDbLine
 10
1415.48321486181
 20
837.5156285488596
 30
0.0
 11
1415.48321486181
 21
874.993111525
 31
0.0
  0
LINE
  5
3DA
330
1F
100
AcDbEntity
  8
0-A
  6
JWW_CENTER1
 62
     2
370
    13
100
AcDbLine
 10
1415.48321486181
 20
-78.48420154246227
 30
0.0
 11
1415.48321486181
 21
-115.9618082385138
 31
0.0
  0
LINE
  5
3DB
330
1F
100
AcDbEntity
  8
0-A
  6
JWW_CENTER1
 62
     2
370
    13
100
AcDbLine
 10
1288.176910754969
 20
-53.48424278243257
 30
0.0
 11
1390.483379821692
 21
-53.48424278243257
 31
0.0
  0
LINE
  5
3DC
330
1F
100
AcDbEntity
  8
0-A
  6
Continuous
 62
     2
370
    13
100
AcDbLine
 10
1302.483386420088
 20
-40.48424938082789
 30
0.0
 11
1302.483386420088
 21
-66.48423618403726
 31
0.0
  0
LINE
  5
3DD
330
1F
100
AcDbEntity
  8
0-A
  6
Continuous
 62
     2
370
    13
100
AcDbLine
 10
1302.483386420088
 20
-66.48423618403726
 30
0.0
 11
1390.483379821692
 21
-66.48423618403726
 31
0.0
  0
LINE
  5
3DE
330
1F
100
AcDbEntity
  8
0-A
  6
Continuous
 62
     2
370
    13
100
AcDbLine
 10
1402.483221460205
 20
-78.48420154246227
 30
0.0
 11
1402.483221460205
 21
-106.4843681519427
 31
0.0
  0
LINE
  5
3DF
330
1F
100
AcDbEntity
  8
0-A
  6
Continuous
 62
     2
370
    13
100
AcDbLine
 10
1402.483221460205
 20
-106.4843681519427
 30
0.0
 11
1428.483208263416
 21
-106.4843681519427
 31
0.0
  0
LINE
  5
3E0
330
1F
100
AcDbEntity
  8
0-A
  6
Continuous
 62
     2
370
    13
100
AcDbLine
 10
1428.483208263416
 20
-78.48420154246227
 30
0.0
 11
1428.483208263416
 21
-106.4843681519427
 31
0.0
  0
LINE
  5
3E1
330
1F
100
AcDbEntity
  8
0-A
  6
JWW_CENTER1
 62
     2
370
    13
100
AcDbLine
 10
-1550.553566243025
 20
793.5156318480573
 30
0.0
 11
-1550.553566243025
 21
876.8612821858951
 31
0.0
  0
LINE
  5
3E2
330
1F
100
AcDbEntity
  8
0-A
  6
JWW_CENTER1
 62
     2
370
    13
100
AcDbLine
 10
-830.5536652189542
 20
793.5156318480573
 30
0.0
 11
-830.5536652189542
 21
876.8612821858951
 31
0.0
  0
LINE
  5
3E3
330
1F
100
AcDbEntity
  8
0-A
  6
JWW_CENTER1
 62
     2
370
    13
100
AcDbLine
 10
-110.5536404749719
 20
793.5156318480573
 30
0.0
 11
-110.5536404749719
 21
876.8612821858951
 31
0.0
  0
LINE
  5
3E4
330
1F
100
AcDbEntity
  8
0-A
  6
JWW_CENTER1
 62
     2
370
    13
100
AcDbLine
 10
-1550.553566243025
 20
-34.48432856157112
 30
0.0
 11
-1550.553566243025
 21
-117.8298551794977
 31
0.0
  0
LINE
  5
3E5
330
1F
100
AcDbEntity
  8
0-A
  6
JWW_CENTER1
 62
     2
370
    13
100
AcDbLine
 10
-830.5536652189542
 20
-34.48432856157112
 30
0.0
 11
-830.5536652189542
 21
-117.8298551794977
 31
0.0
  0
LINE
  5
3E6
330
1F
100
AcDbEntity
  8
0-A
  6
JWW_CENTER1
 62
     2
370
    13
100
AcDbLine
 10
-110.5536404749719
 20
-34.48432856157112
 30
0.0
 11
-110.5536404749719
 21
-117.8298551794977
 31
0.0
  0
CIRCLE
  5
3E7
330
1F
100
AcDbEntity
  8
0-A
  6
Continuous
 62
     2
370
    13
100
AcDbCircle
 10
-830.5536652189542
 20
812.5155460689188
 30
0.0
 40
12.99999920097557
  0
CIRCLE
  5
3E8
330
1F
100
AcDbEntity
  8
0-A
  6
Continuous
 62
     2
370
    13
100
AcDbCircle
 10
-1550.553566243025
 20
812.5155460689188
 30
0.0
 40
12.99999920097557
  0
CIRCLE
  5
3E9
330
1F
100
AcDbEntity
  8
0-A
  6
Continuous
 62
     2
370
    13
100
AcDbCircle
 10
-110.5536404749719
 20
812.5155460689188
 30
0.0
 40
12.99999920097557
  0
ARC
  5
3EA
330
1F
100
AcDbEntity
  8
0-A
  6
Continuous
 62
     2
370
    13
100
AcDbCircle
 10
-110.5536404749719
 20
-53.48424278243257
 30
0.0
 40
12.99999920097557
100
AcDbArc
 50
1.403289794921875
 51
0.0
  0
ARC
  5
3EB
330
1F
100
AcDbEntity
  8
0-A
  6
Continuous
 62
     2
370
    13
100
AcDbCircle
 10
-1550.553566243025
 20
-53.48424278243257
 30
0.0
 40
12.99999920097557
100
AcDbArc
 50
1.403289794921875
 51
0.0
  0
ARC
  5
3EC
330
1F
100
AcDbEntity
  8
0-A
  6
Continuous
 62
     2
370
    13
100
AcDbCircle
 10
-830.5536652189542
 20
-53.48424278243257
 30
0.0
 40
12.99999920097557
100
AcDbArc
 50
1.403289794921875
 51
0.0
  0
ARC
  5
3ED
330
1F
100
AcDbEntity
  8
0-A
  6
Continuous
 62
     2
370
    13
100
AcDbCircle
 10
1390.483379821692
 20
837.5156285488596
 30
0.0
 40
11.99999918808808
100
AcDbArc
 50
270.0
 51
0.0
  0
ARC
  5
3EE
330
1F
100
AcDbEntity
  8
0-A
  6
Continuous
 62
     2
370
    13
100
AcDbCircle
 10
1390.483379821692
 20
837.5156285488596
 30
0.0
 40
37.99999855660104
100
AcDbArc
 50
270.0
 51
0.0
  0
ARC
  5
3EF
330
1F
100
AcDbEntity
  8
0-A
  6
JWW_CENTER1
 62
     2
370
    13
100
AcDbCircle
 10
1390.483379821692
 20
837.5156285488596
 30
0.0
 40
24.99999935562546
100
AcDbArc
 50
270.0
 51
359.9999847412109
  0
ARC
  5
3F0
330
1F
100
AcDbEntity
  8
0-A
  6
JWW_CENTER1
 62
     2
370
    13
100
AcDbCircle
 10
1390.483379821692
 20
-78.48420154246227
 30
0.0
 40
24.99999935562546
100
AcDbArc
 50
2.134414672851562
 51
89.99998474121094
  0
ARC
  5
3F1
330
1F
100
AcDbEntity
  8
0-A
  6
Continuous
 62
     2
370
    13
100
AcDbCircle
 10
1390.483379821692
 20
-78.48420154246227
 30
0.0
 40
37.99999855660104
100
AcDbArc
 50
1.403289794921875
 51
90.0
  0
ARC
  5
3F2
330
1F
100
AcDbEntity
  8
0-A
  6
Continuous
 62
     2
370
    13
100
AcDbCircle
 10
1390.483379821692
 20
-78.48420154246227
 30
0.0
 40
11.99999918808808
100
AcDbArc
 50
1.403289794921875
 51
90.0
  0
LINE
  5
3F3
330
1F
100
AcDbEntity
  8
0-0_通り芯
  6
Continuous
 62
     2
370
    13
100
AcDbLine
 10
526.7112916935248
 20
279.5158166031247
 30
0.0
 11
642.1815593244373
 21
479.5154866833615
 31
0.0
  0
LINE
  5
3F4
330
1F
100
AcDbEntity
  8
0-0_通り芯
  6
Continuous
 62
     2
370
    13
100
AcDbLine
 10
584.4464255089811
 20
479.5154866833615
 30
0.0
 11
642.1815593244373
 21
479.5154866833615
 31
0.0
  0
LINE
  5
3F5
330
1F
100
AcDbEntity
  8
0-0_通り芯
  6
Continuous
 62
     2
370
    13
100
AcDbLine
 10
526.7112916935248
 20
279.5158166031247
 30
0.0
 11
584.4464255089811
 21
279.5158166031247
 31
0.0
  0
LINE
  5
3F6
330
1F
100
AcDbEntity
  8
0-0_通り芯
  6
Continuous
 62
     2
370
    13
100
AcDbLine
 10
584.4464255089811
 20
845.5455456730151
 30
0.0
 11
584.4464255089811
 21
479.5154866833615
 31
0.0
  0
LINE
  5
3F7
330
1F
100
AcDbEntity
  8
0-0_通り芯
  6
Continuous
 62
     2
370
    13
100
AcDbLine
 10
584.4464255089811
 20
279.5158166031247
 30
0.0
 11
584.4464255089811
 21
-81.53241271750446
 31
0.0
  0
LINE
  5
3F8
330
1F
100
AcDbEntity
  8
0-A
  6
Continuous
 62
     2
370
    13
100
AcDbLine
 10
1390.483379821692
 20
799.5156299922586
 30
0.0
 11
1302.483386420088
 21
799.5156299922586
 31
0.0
  0
LINE
  5
3F9
330
1F
100
AcDbEntity
  8
0-A
  6
Continuous
 62
     2
370
    13
100
AcDbLine
 10
1302.483386420088
 20
-40.48424938082789
 30
0.0
 11
1390.483379821692
 21
-40.48424938082789
 31
0.0
  0
LINE
  5
3FA
330
1F
100
AcDbEntity
  8
0-3_受枠
  6
Continuous
 62
     4
370
    13
100
AcDbLine
 10
1254.483524986389
 20
-40.48424938082789
 30
0.0
 11
1342.483518387993
 21
-40.48424938082789
 31
0.0
  0
LINE
  5
3FB
330
1F
100
AcDbEntity
  8
0-3_受枠
  6
Continuous
 62
     4
370
    13
100
AcDbLine
 10
1342.483518387993
 20
79.51577536315443
 30
0.0
 11
1342.483518387993
 21
-40.48424938082789
 31
0.0
  0
LINE
  5
3FC
330
1F
100
AcDbEntity
  8
0-3_受枠
  6
Continuous
 62
     4
370
    13
100
AcDbLine
 10
1254.483524986389
 20
799.5155526673141
 30
0.0
 11
1342.483518387993
 21
799.5155526673141
 31
0.0
  0
LINE
  5
3FD
330
1F
100
AcDbEntity
  8
0-3_受枠
  6
Continuous
 62
     4
370
    13
100
AcDbLine
 10
1342.483518387993
 20
679.5156516432432
 30
0.0
 11
1342.483518387993
 21
799.5155526673141
 31
0.0
  0
ARC
  5
3FE
330
1F
100
AcDbEntity
  8
0-3_受枠
  6
Continuous
 62
     4
370
    13
100
AcDbCircle
 10
1317.483181869834
 20
774.5154635889778
 30
0.0
 40
13.0
100
AcDbArc
 50
0.0
 51
90.00000000000001
  0
ARC
  5
3FF
330
1F
100
AcDbEntity
  8
0-3_受枠
  6
Continuous
 62
     4
370
    13
100
AcDbCircle
 10
1317.483181869834
 20
-15.48428402240316
 30
0.0
 40
13.0
100
AcDbArc
 50
270.0
 51
0.0
  0
LINE
  5
400
330
1F
100
AcDbEntity
  8
0-3_受枠
  6
Continuous
 62
     4
370
    13
100
AcDbLine
 10
1254.483524986389
 20
-37.48428402240316
 30
0.0
 11
1254.483524986389
 21
-40.48424938082789
 31
0.0
  0
LINE
  5
401
330
1F
100
AcDbEntity
  8
0-3_受枠
  6
Continuous
 62
     4
370
    13
100
AcDbLine
 10
1263.483524986389
 20
-28.48428402240316
 30
0.0
 11
1317.483181869834
 21
-28.48428402240316
 31
0.0
  0
ARC
  5
402
330
1F
100
AcDbEntity
  8
0-3_受枠
  6
Continuous
 62
     4
370
    13
100
AcDbCircle
 10
1263.483524986389
 20
-37.48428402240316
 30
0.0
 40
9.0
100
AcDbArc
 50
90.0
 51
180.0
  0
LINE
  5
403
330
1F
100
AcDbEntity
  8
0-3_受枠
  6
Continuous
 62
     4
370
    13
100
AcDbLine
 10
1330.483181869834
 20
70.51577536315443
 30
0.0
 11
1330.483181869834
 21
-15.48428402240316
 31
0.0
  0
LINE
  5
404
330
1F
100
AcDbEntity
  8
0-3_受枠
  6
Continuous
 62
     4
370
    13
100
AcDbLine
 10
1339.483181869834
 20
79.51577536315443
 30
0.0
 11
1342.483518387993
 21
79.51577536315443
 31
0.0
  0
ARC
  5
405
330
1F
100
AcDbEntity
  8
0-3_受枠
  6
Continuous
 62
     4
370
    13
100
AcDbCircle
 10
1339.483181869834
 20
70.51577536315443
 30
0.0
 40
9.0
100
AcDbArc
 50
90.0
 51
180.0
  0
LINE
  5
406
330
1F
100
AcDbEntity
  8
0-3_受枠
  6
Continuous
 62
     4
370
    13
100
AcDbLine
 10
1263.483524986389
 20
787.5154635889778
 30
0.0
 11
1317.483181869834
 21
787.5154635889778
 31
0.0
  0
LINE
  5
407
330
1F
100
AcDbEntity
  8
0-3_受枠
  6
Continuous
 62
     4
370
    13
100
AcDbLine
 10
1254.483524986389
 20
796.5154635889779
 30
0.0
 11
1254.483524986389
 21
799.5155526673141
 31
0.0
  0
ARC
  5
408
330
1F
100
AcDbEntity
  8
0-3_受枠
  6
Continuous
 62
     4
370
    13
100
AcDbCircle
 10
1263.483524986389
 20
796.5154635889779
 30
0.0
 40
9.0
100
AcDbArc
 50
180.0
 51
270.0
  0
LINE
  5
409
330
1F
100
AcDbEntity
  8
0-3_受枠
  6
Continuous
 62
     4
370
    13
100
AcDbLine
 10
1330.483181869834
 20
688.5156516432432
 30
0.0
 11
1330.483181869834
 21
774.5154635889778
 31
0.0
  0
LINE
  5
40A
330
1F
100
AcDbEntity
  8
0-3_受枠
  6
Continuous
 62
     4
370
    13
100
AcDbLine
 10
1339.483181869834
 20
679.5156516432432
 30
0.0
 11
1342.483518387993
 21
679.5156516432432
 31
0.0
  0
ARC
  5
40B
330
1F
100
AcDbEntity
  8
0-3_受枠
  6
Continuous
 62
     4
370
    13
100
AcDbCircle
 10
1339.483181869834
 20
688.5156516432432
 30
0.0
 40
9.0
100
AcDbArc
 50
180.0
 51
270.0
  0
LINE
  5
40C
330
1F
100
AcDbEntity
  8
0-4_寸法
  6
Continuous
 62
     7
370
    13
100
AcDbLine
 10
441.1381880723259
 20
36.51568298562054
 30
0.0
 11
441.1381880723259
 21
722.5154965809542
 31
0.0
  0
LINE
  5
40D
330
1F
100
AcDbEntity
  8
0-4_寸法
  6
Continuous
 62
     7
370
    13
100
AcDbLine
 10
152.352655713795
 20
36.51568298562054
 30
0.0
 11
444.138148481954
 21
36.51568298562054
 31
0.0
  0
LINE
  5
40E
330
1F
100
AcDbEntity
  8
0-4_寸法
  6
Continuous
 62
     7
370
    13
100
AcDbLine
 10
152.352655713795
 20
722.5154965809542
 30
0.0
 11
444.138148481954
 21
722.5154965809542
 31
0.0
  0
LINE
  5
40F
330
1F
100
AcDbEntity
  8
0-4_寸法
  6
Continuous
 62
     7
370
    13
100
AcDbLine
 10
441.1381880723259
 20
36.51568298562054
 30
0.0
 11
437.2222054393019
 21
66.25906314556562
 31
0.0
  0
LINE
  5
410
330
1F
100
AcDbEntity
  8
0-4_寸法
  6
Continuous
 62
     7
370
    13
100
AcDbLine
 10
441.1381880723259
 20
36.51568298562054
 30
0.0
 11
445.053675825704
 21
66.25906314556562
 31
0.0
  0
LINE
  5
411
330
1F
100
AcDbEntity
  8
0-4_寸法
  6
Continuous
 62
     7
370
    13
100
AcDbLine
 10
441.1381880723259
 20
722.5154965809542
 30
0.0
 11
437.2222054393019
 21
692.7722401409205
 31
0.0
  0
LINE
  5
412
330
1F
100
AcDbEntity
  8
0-4_寸法
  6
Continuous
 62
     7
370
    13
100
AcDbLine
 10
441.1381880723259
 20
722.5154965809542
 30
0.0
 11
445.053675825704
 21
692.7722401409205
 31
0.0
  0
LINE
  5
413
330
1F
100
AcDbEntity
  8
0-4_寸法
  6
Continuous
 62
     7
370
    13
100
AcDbLine
 10
202.946181368356
 20
271.5157159775969
 30
0.0
 11
363.5855988620217
 21
271.5157159775969
 31
0.0
  0
LINE
  5
414
330
1F
100
AcDbEntity
  8
0-4_寸法
  6
Continuous
 62
     7
370
    13
100
AcDbLine
 10
360.5856384523932
 20
271.5157159775969
 30
0.0
 11
356.6701506990148
 21
301.2590961375422
 31
0.0
  0
LINE
  5
415
330
1F
100
AcDbEntity
  8
0-4_寸法
  6
Continuous
 62
     7
370
    13
100
AcDbLine
 10
360.5856384523932
 20
271.5157159775969
 30
0.0
 11
364.5016210854166
 21
301.2590961375422
 31
0.0
  0
LINE
  5
416
330
1F
100
AcDbEntity
  8
0-4_寸法
  6
Continuous
 62
     7
370
    13
100
AcDbLine
 10
360.5856384523932
 20
271.5157159775969
 30
0.0
 11
360.5856384523932
 21
596.0193104534205
 31
0.0
  0
LINE
  5
417
330
1F
100
AcDbEntity
  8
0-4_寸法
  6
Continuous
 62
     7
370
    13
100
AcDbLine
 10
202.946181368356
 20
487.5157110288005
 30
0.0
 11
363.5855988620217
 21
487.5157110288005
 31
0.0
  0
LINE
  5
418
330
1F
100
AcDbEntity
  8
0-4_寸法
  6
Continuous
 62
     7
370
    13
100
AcDbLine
 10
360.5856384523932
 20
487.5157110288005
 30
0.0
 11
356.6701506990148
 21
457.7723308688554
 31
0.0
  0
LINE
  5
419
330
1F
100
AcDbEntity
  8
0-4_寸法
  6
Continuous
 62
     7
370
    13
100
AcDbLine
 10
360.5856384523932
 20
487.5157110288005
 30
0.0
 11
364.5016210854166
 21
457.7723308688554
 31
0.0
  0
LINE
  5
41A
330
1F
100
AcDbEntity
  8
0-4_寸法
  6
Continuous
 62
     7
370
    13
100
AcDbLine
 10
202.946181368356
 20
511.5157654655615
 30
0.0
 11
363.5855988620217
 21
511.5157654655615
 31
0.0
  0
LINE
  5
41B
330
1F
100
AcDbEntity
  8
0-4_寸法
  6
Continuous
 62
     7
370
    13
100
AcDbLine
 10
360.5856384523932
 20
511.5157654655615
 30
0.0
 11
356.6701506990148
 21
541.2591456255064
 31
0.0
  0
LINE
  5
41C
330
1F
100
AcDbEntity
  8
0-4_寸法
  6
Continuous
 62
     7
370
    13
100
AcDbLine
 10
360.5856384523932
 20
511.5157654655615
 30
0.0
 11
364.5016210854166
 21
541.2591456255064
 31
0.0
  0
TEXT
  5
41D
330
1F
100
AcDbEntity
  8
0-4_寸法
  6
Continuous
 62
     2
370
    13
100
AcDbText
 10
430.4979241365148
 20
347.0155279233318
 30
0.0
 40
30.48
  1
343
 50
90.0
 41
1.083333333333332
  7
ＭＳ ゴシック
100
AcDbText
  0
TEXT
  5
41E
330
1F
100
AcDbEntity
  8
0-4_寸法
  6
Continuous
 62
     2
370
    13
100
AcDbText
 10
349.9458693962276
 20
347.0156516432431
 30
0.0
 40
30.48
  1
108
 50
90.0
 41
1.083333333333332
  7
ＭＳ ゴシック
100
AcDbText
  0
TEXT
  5
41F
330
1F
100
AcDbEntity
  8
0-4_寸法
  6
Continuous
 62
     2
370
    13
100
AcDbText
 10
349.9458693962276
 20
546.8589644995564
 30
0.0
 40
30.48
  1
12
 50
90.0
 41
1.0625
  7
ＭＳ ゴシック
100
AcDbText
  0
TEXT
  5
420
330
1F
100
AcDbEntity
  8
0-4_寸法
  6
Continuous
 62
     2
370
    13
100
AcDbText
 10
1517.843274247368
 20
347.0157753631545
 30
0.0
 40
30.48
  1
300
 50
90.0
 41
1.083333333333332
  7
ＭＳ ゴシック
100
AcDbText
  0
TEXT
  5
421
330
1F
100
AcDbEntity
  8
0-5_文字
  6
Continuous
 62
     7
370
    13
100
AcDbText
 10
864.1079607137367
 20
950.5474168489201
 30
0.0
 40
22.86
  1
樹脂系塗装
 41
1.133333333333333
  7
ＭＳ ゴシック
100
AcDbText
  0
TEXT
  5
422
330
1F
100
AcDbEntity
  8
0-5_文字
  6
Continuous
 62
     7
370
    13
100
AcDbText
 10
825.8011113284474
 20
1006.816222275507
 30
0.0
 40
22.86
  1
蓋：ＦＣＤ５００
 50
359.9998968926416
 41
1.145833333333337
  7
ＭＳ ゴシック
100
AcDbText
  0
TEXT
  5
423
330
1F
100
AcDbEntity
  8
0-5_文字
  6
Continuous
 62
     7
370
    13
100
AcDbText
 10
867.5272106243121
 20
1108.02329232103
 30
0.0
 40
22.86
  1
樹脂系塗装
 41
1.133333333333333
  7
ＭＳ ゴシック
100
AcDbText
  0
TEXT
  5
424
330
1F
100
AcDbEntity
  8
0-5_文字
  6
Continuous
 62
     7
370
    13
100
AcDbText
 10
831.2268457607765
 20
1164.292097747551
 30
0.0
 40
22.86
  1
枠：ＳＳ４００
 41
1.142857142857143
  7
ＭＳ ゴシック
100
AcDbText
  0
LINE
  5
425
330
1F
100
AcDbEntity
  8
0-5_文字
  6
Continuous
 62
     7
370
    13
100
AcDbLine
 10
822.4407277946657
 20
1146.766166318075
 30
0.0
 11
1086.762627208728
 21
1146.766166318075
 31
0.0
  0
LINE
  5
426
330
1F
100
AcDbEntity
  8
0-5_文字
  6
Continuous
 62
     7
370
    13
100
AcDbLine
 10
810.8441499972187
 20
989.2902908459638
 30
0.0
 11
1121.408205465291
 21
989.2902908459638
 31
0.0
  0
LINE
  5
427
330
1F
100
AcDbEntity
  8
0-5_文字
  6
Continuous
 62
     7
370
    13
100
AcDbLine
 10
1254.483524986389
 20
753.5154998801517
 30
0.0
 11
1121.408205465291
 21
989.2902908459638
 31
0.0
  0
LINE
  5
428
330
1F
100
AcDbEntity
  8
0-5_文字
  6
Continuous
 62
     7
370
    13
100
AcDbLine
 10
1282.75698887997
 20
799.5150577876694
 30
0.0
 11
1086.762627208728
 21
1146.766166318075
 31
0.0
  0
LINE
  5
429
330
1F
100
AcDbEntity
  8
0-5_文字
  6
Continuous
 62
     7
370
    13
100
AcDbLine
 10
1254.483524986389
 20
753.5154998801517
 30
0.0
 11
1236.45382231008
 21
777.4929135731423
 31
0.0
  0
LINE
  5
42A
330
1F
100
AcDbEntity
  8
0-5_文字
  6
Continuous
 62
     7
370
    13
100
AcDbLine
 10
1254.483524986389
 20
753.5154998801517
 30
0.0
 11
1243.274006141372
 21
781.3425823336996
 31
0.0
  0
LINE
  5
42B
330
1F
100
AcDbEntity
  8
0-5_文字
  6
Continuous
 62
     7
370
    13
100
AcDbLine
 10
1282.75698887997
 20
799.5150577876694
 30
0.0
 11
1264.727286203661
 21
823.4929663603037
 31
0.0
  0
LINE
  5
42C
330
1F
100
AcDbEntity
  8
0-5_文字
  6
Continuous
 62
     7
370
    13
100
AcDbLine
 10
1282.75698887997
 20
799.5150577876694
 30
0.0
 11
1271.547470034953
 21
827.3421402412163
 31
0.0
  0
LINE
  5
42D
330
1F
100
AcDbEntity
  8
0-5_文字
  6
Continuous
 62
     7
370
    13
100
AcDbLine
 10
1415.483090181801
 20
865.5143765094061
 30
0.0
 11
1433.513040297933
 21
889.4922850820416
 31
0.0
  0
LINE
  5
42E
330
1F
100
AcDbEntity
  8
0-5_文字
  6
Continuous
 62
     7
370
    13
100
AcDbLine
 10
1415.483090181801
 20
865.5143765094061
 30
0.0
 11
1426.692609026818
 21
893.3414589629541
 31
0.0
  0
TEXT
  5
42F
330
1F
100
AcDbEntity
  8
0-5_文字
  6
Continuous
 62
     7
370
    13
100
AcDbText
 10
1497.796467665235
 20
1016.683526419494
 30
0.0
 40
22.86
  1
アンカー：ＳＳ４００
 41
1.15
  7
ＭＳ ゴシック
100
AcDbText
  0
TEXT
  5
430
330
1F
100
AcDbEntity
  8
0-5_文字
  6
Continuous
 62
     7
370
    13
100
AcDbText
 10
1594.11359380287
 20
960.4147209929732
 30
0.0
 40
22.86
  1
樹脂系塗装
 41
1.133333333333333
  7
ＭＳ ゴシック
100
AcDbText
  0
LINE
  5
431
330
1F
100
AcDbEntity
  8
0-5_文字
  6
Continuous
 62
     7
370
    13
100
AcDbLine
 10
1415.483090181801
 20
865.5143765094061
 30
0.0
 11
1490.280393712717
 21
998.0355370440685
 31
0.0
  0
LINE
  5
432
330
1F
100
AcDbEntity
  8
0-5_文字
  6
Continuous
 62
     7
370
    13
100
AcDbLine
 10
1490.280393712717
 20
998.0355370440685
 30
0.0
 11
1843.432762731538
 21
998.0355370440685
 31
0.0
  0
LINE
  5
433
330
1F
100
AcDbEntity
  8
0-5_文字
  6
Continuous
 62
     7
370
    13
100
AcDbLine
 10
1362.483793149296
 20
36.51568298562069
 30
0.0
 11
1514.577874381486
 21
-226.9189932390427
 31
0.0
  0
LINE
  5
434
330
1F
100
AcDbEntity
  8
0-5_文字
  6
Continuous
 62
     7
370
    13
100
AcDbLine
 10
1362.483793149296
 20
36.51568298562069
 30
0.0
 11
1372.050878958423
 21
13.41869467283828
 31
0.0
  0
LINE
  5
435
330
1F
100
AcDbEntity
  8
0-5_文字
  6
Continuous
 62
     7
370
    13
100
AcDbLine
 10
1362.483793149296
 20
36.51568298562069
 30
0.0
 11
1377.702828874515
 21
16.68184947833964
 31
0.0
  0
TEXT
  5
436
330
1F
100
AcDbEntity
  8
0-5_文字
  6
Continuous
 62
     7
370
    13
100
AcDbText
 10
1548.346540590171
 20
-209.3930618095664
 30
0.0
 40
22.86
  1
ボルト：Ｓ２０Ｃ
 41
1.145833333333333
  7
ＭＳ ゴシック
100
AcDbText
  0
LINE
  5
437
330
1F
100
AcDbEntity
  8
0-5_文字
  6
Continuous
 62
     7
370
    13
100
AcDbLine
 10
1514.577874381486
 20
-226.9189932390427
 30
0.0
 11
1826.611023309875
 21
-226.9189932390427
 31
0.0
  0
LINE
  5
438
330
1F
100
AcDbEntity
  8
0-5_文字
  6
Continuous
 62
     7
370
    13
100
AcDbLine
 10
1263.483874031188
 20
17.46306408253787
 30
0.0
 11
1253.916860728822
 21
-5.633958721516024
 31
0.0
  0
LINE
  5
439
330
1F
100
AcDbEntity
  8
0-5_文字
  6
Continuous
 62
     7
370
    13
100
AcDbLine
 10
1263.483874031188
 20
17.46306408253787
 30
0.0
 11
1248.26484030019
 21
-2.370722340603777
 31
0.0
  0
TEXT
  5
43A
330
1F
100
AcDbEntity
  8
0-5_文字
  6
Continuous
 62
     7
370
    13
100
AcDbText
 10
1625.430767382659
 20
-307.6215222854989
 30
0.0
 40
22.86
  1
Ｍ１６×３０
 41
1.138888888888889
  7
ＭＳ ゴシック
100
AcDbText
  0
TEXT
  5
43B
330
1F
100
AcDbEntity
  8
0-5_文字
  6
Continuous
 62
     7
370
    13
100
AcDbText
 10
1520.945790518549
 20
-265.6618672360867
 30
0.0
 40
22.86
  1
電気亜鉛めっき，
 41
1.145833333333333
  7
ＭＳ ゴシック
100
AcDbText
  0
TEXT
  5
43C
330
1F
100
AcDbEntity
  8
0-5_文字
  6
Continuous
 62
     7
370
    13
100
AcDbText
 10
557.8157209210733
 20
-149.1277503892912
 30
0.0
 40
22.86
  1
Ｕナット：Ｓ２０Ｃ，電気亜鉛めっき
 41
1.156862745098039
  7
ＭＳ ゴシック
100
AcDbText
  0
TEXT
  5
43D
330
1F
100
AcDbEntity
  8
0-5_文字
  6
Continuous
 62
     7
370
    13
100
AcDbText
 10
628.5211678544418
 20
-200.5625714408115
 30
0.0
 40
22.86
  1
座金：ＳＰＣＣ，電気亜鉛めっき
 41
1.155555555555555
  7
ＭＳ ゴシック
100
AcDbText
  0
LINE
  5
43E
330
1F
100
AcDbEntity
  8
0-5_文字
  6
Continuous
 62
     7
370
    13
100
AcDbLine
 10
1158.531686384453
 20
-164.3195819718503
 30
0.0
 11
553.418760874065
 21
-164.3195819718503
 31
0.0
  0
LINE
  5
43F
330
1F
100
AcDbEntity
  8
0-5_文字
  6
Continuous
 62
     7
370
    13
100
AcDbLine
 10
1263.483874031188
 20
17.46306408253787
 30
0.0
 11
1158.531686384453
 21
-164.3195819718503
 31
0.0
  0
ENDSEC
  0
SECTION
  2
OBJECTS
  0
DICTIONARY
  5
C
330
0
100
AcDbDictionary
281
     1
  3
ACAD_GROUP
350
D
  3
ACAD_LAYOUT
350
1A
  3
ACAD_MLEADERSTYLE
350
441
  3
ACAD_MLINESTYLE
350
17
  3
ACAD_PLOTSETTINGS
350
19
  3
ACAD_PLOTSTYLENAME
350
E
  3
ACAD_TABLESTYLE
350
440
  3
ACAD_VISUALSTYLE
350
2A
  0
DICTIONARY
  5
D
102
{ACAD_REACTORS
330
C
102
}
330
C
100
AcDbDictionary
281
     1
  0
DICTIONARY
  5
1A
102
{ACAD_REACTORS
330
C
102
}
330
C
100
AcDbDictionary
281
     1
  3
Layout1
350
1E
  3
Layout2
350
26
  3
Model
350
22
  0
DICTIONARY
  5
441
102
{ACAD_REACTORS
330
C
102
}
330
C
100
AcDbDictionary
281
     1
  0
DICTIONARY
  5
17
102
{ACAD_REACTORS
330
C
102
}
330
C
100
AcDbDictionary
281
     1
  3
Standard
350
18
  0
DICTIONARY
  5
19
102
{ACAD_REACTORS
330
C
102
}
330
C
100
AcDbDictionary
281
     1
  0
ACDBDICTIONARYWDFLT
  5
E
102
{ACAD_REACTORS
330
C
102
}
330
C
100
AcDbDictionary
281
     1
  3
Normal
350
F
100
AcDbDictionaryWithDefault
340
F
  0
DICTIONARY
  5
440
102
{ACAD_REACTORS
330
C
102
}
330
C
100
AcDbDictionary
281
     1
  0
DICTIONARY
  5
2A
102
{ACAD_REACTORS
330
C
102
}
330
C
100
AcDbDictionary
281
     1
  3
2dWireframe
350
2F
  3
3D Hidden
350
31
  3
3dWireframe
350
30
  3
Basic
350
32
  3
Brighten
350
36
  3
ColorChange
350
3A
  3
Conceptual
350
34
  3
Dim
350
35
  3
Facepattern
350
39
  3
Flat
350
2B
  3
FlatWithEdges
350
2C
  3
Gouraud
350
2D
  3
GouraudWithEdges
350
2E
  3
Linepattern
350
38
  3
Realistic
350
33
  3
Thicken
350
37
  0
LAYOUT
  5
1E
102
{ACAD_REACTORS
330
1A
102
}
330
1A
100
AcDbPlotSettings
  1

  2
none_device
  4

  6

 40
0.0
 41
0.0
 42
0.0
 43
0.0
 44
0.0
 45
0.0
 46
0.0
 47
0.0
 48
0.0
 49
0.0
140
0.0
141
0.0
142
1.0
143
1.0
 70
   688
 72
     0
 73
     0
 74
     5
  7

 75
    16
 76
     0
 77
     5
 78
   300
147
1.0
148
0.0
149
0.0
100
AcDbLayout
  1
Layout1
 70
     1
 71
     1
 10
0.0
 20
0.0
 11
420.0
 21
297.0
 12
0.0
 22
0.0
 32
0.0
 14
1.000000000000000E+20
 24
1.000000000000000E+20
 34
1.000000000000000E+20
 15
-1.000000000000000E+20
 25
-1.000000000000000E+20
 35
-1.000000000000000E+20
146
0.0
 13
0.0
 23
0.0
 33
0.0
 16
1.0
 26
0.0
 36
0.0
 17
0.0
 27
1.0
 37
0.0
 76
     0
330
1B
  0
LAYOUT
  5
26
102
{ACAD_REACTORS
330
1A
102
}
330
1A
100
AcDbPlotSettings
  1

  2
none_device
  4

  6

 40
0.0
 41
0.0
 42
0.0
 43
0.0
 44
0.0
 45
0.0
 46
0.0
 47
0.0
 48
0.0
 49
0.0
140
0.0
141
0.0
142
1.0
143
1.0
 70
   688
 72
     0
 73
     0
 74
     5
  7

 75
    16
 76
     0
 77
     5
 78
   300
147
1.0
148
0.0
149
0.0
100
AcDbLayout
  1
Layout2
 70
     1
 71
     2
 10
0.0
 20
0.0
 11
0.0
 21
0.0
 12
0.0
 22
0.0
 32
0.0
 14
0.0
 24
0.0
 34
0.0
 15
0.0
 25
0.0
 35
0.0
146
0.0
 13
0.0
 23
0.0
 33
0.0
 16
1.0
 26
0.0
 36
0.0
 17
0.0
 27
1.0
 37
0.0
 76
     0
330
23
  0
LAYOUT
  5
22
102
{ACAD_REACTORS
330
1A
102
}
330
1A
100
AcDbPlotSettings
  1

  2
none_device
  4

  6

 40
0.0
 41
0.0
 42
0.0
 43
0.0
 44
0.0
 45
0.0
 46
0.0
 47
0.0
 48
0.0
 49
0.0
140
0.0
141
0.0
142
1.0
143
1.0
 70
  1712
 72
     0
 73
     0
 74
     0
  7

 75
     0
 76
     0
 77
     5
 78
   300
147
1.0
148
0.0
149
0.0
100
AcDbLayout
  1
Model
 70
     1
 71
     0
 10
-2100.0
 20
-1485.0
 11
2100.0
 21
1485.0
 12
0.0
 22
0.0
 32
0.0
 14
-2100.0
 24
-1485.0
 34
0.0
 15
2100.0
 25
1485.0
 35
0.0
146
0.0
 13
0.0
 23
0.0
 33
0.0
 16
1.0
 26
0.0
 36
0.0
 17
0.0
 27
1.0
 37
0.0
 76
     0
330
1F
331
29
  0
MLINESTYLE
  5
18
102
{ACAD_REACTORS
330
17
102
}
330
17
100
AcDbMlineStyle
  2
Standard
 70
     0
  3

 62
   256
 51
90.0
 52
90.0
 71
     2
 49
0.5
 62
   256
  6
BYLAYER
 49
-0.5
 62
   256
  6
BYLAYER
  0
ACDBPLACEHOLDER
  5
F
102
{ACAD_REACTORS
330
E
102
}
330
E
  0
VISUALSTYLE
  5
2F
102
{ACAD_REACTORS
330
2A
102
}
330
2A
100
AcDbVisualStyle
  2
2dWireframe
 70
     4
 71
     0
 72
     2
 73
     0
 90
        0
 40
-0.6
 41
-30.0
 62
     5
 63
     7
421
 16777215
 74
     1
 91
        4
 64
     7
 65
   257
 75
     1
175
     1
 42
1.0
 92
        0
 66
   257
 43
1.0
 76
     1
 77
     6
 78
     2
 67
     7
 79
     5
170
     0
171
     0
290
     0
174
     0
 93
        1
 44
0.0
173
     0
291
     0
 45
0.0
1001
ACAD
1000
AcDbSavedByObjectVersion
1070
     0
  0
VISUALSTYLE
  5
31
102
{ACAD_REACTORS
330
2A
102
}
330
2A
100
AcDbVisualStyle
  2
3D Hidden
 70
     6
 71
     1
 72
     2
 73
     2
 90
        0
 40
-0.6
 41
-30.0
 62
     5
 63
     7
421
 16777215
 74
     2
 91
        2
 64
     7
 65
   257
 75
     2
175
     1
 42
40.0
 92
        0
 66
   257
 43
1.0
 76
     1
 77
     6
 78
     2
 67
     7
 79
     3
170
     0
171
     0
290
     0
174
     0
 93
        1
 44
0.0
173
     0
291
     0
 45
0.0
1001
ACAD
1000
AcDbSavedByObjectVersion
1070
     0
  0
VISUALSTYLE
  5
30
102
{ACAD_REACTORS
330
2A
102
}
330
2A
100
AcDbVisualStyle
  2
3dWireframe
 70
     5
 71
     0
 72
     2
 73
     0
 90
        0
 40
-0.6
 41
-30.0
 62
     5
 63
     7
421
 16777215
 74
     1
 91
        4
 64
     7
 65
   257
 75
     1
175
     1
 42
1.0
 92
        0
 66
   257
 43
1.0
 76
     1
 77
     6
 78
     2
 67
     7
 79
     5
170
     0
171
     0
290
     0
174
     0
 93
        1
 44
0.0
173
     0
291
     0
 45
0.0
1001
ACAD
1000
AcDbSavedByObjectVersion
1070
     0
  0
VISUALSTYLE
  5
32
102
{ACAD_REACTORS
330
2A
102
}
330
2A
100
AcDbVisualStyle
  2
Basic
 70
     7
 71
     1
 72
     0
 73
     1
 90
        0
 40
-0.6
 41
-30.0
 62
     5
 63
     7
421
 16777215
 74
     0
 91
        4
 64
     7
 65
   257
 75
     1
175
     1
 42
1.0
 92
        8
 66
     7
 43
1.0
 76
     1
 77
     6
 78
     2
 67
     7
 79
     5
170
     0
171
     0
290
     0
174
     0
 93
        1
 44
0.0
173
     0
291
     1
 45
0.0
1001
ACAD
1000
AcDbSavedByObjectVersion
1070
     0
  0
VISUALSTYLE
  5
36
102
{ACAD_REACTORS
330
2A
102
}
330
2A
100
AcDbVisualStyle
  2
Brighten
 70
    12
 71
     2
 72
     2
 73
     0
 90
        0
 40
-0.6
 41
-30.0
 62
     5
 63
     7
421
 16777215
 74
     1
 91
        4
 64
     7
 65
   257
 75
     1
175
     1
 42
1.0
 92
        8
 66
     7
 43
1.0
 76
     1
 77
     6
 78
     2
 67
     7
 79
     5
170
     0
171
     0
290
     0
174
     0
 93
        1
 44
50.0
173
     0
291
     1
 45
0.0
1001
ACAD
1000
AcDbSavedByObjectVersion
1070
     0
  0
VISUALSTYLE
  5
3A
102
{ACAD_REACTORS
330
2A
102
}
330
2A
100
AcDbVisualStyle
  2
ColorChange
 70
    16
 71
     2
 72
     2
 73
     3
 90
        0
 40
-0.6
 41
-30.0
 62
     5
 63
     8
421
  8421504
 74
     1
 91
        4
 64
     7
 65
   257
 75
     1
175
     1
 42
1.0
 92
        8
 66
     8
424
  8421504
 43
1.0
 76
     1
 77
     6
 78
     2
 67
     7
 79
     5
170
     0
171
     0
290
     0
174
     0
 93
        1
 44
0.0
173
     0
291
     1
 45
0.0
1001
ACAD
1000
AcDbSavedByObjectVersion
1070
     0
  0
VISUALSTYLE
  5
34
102
{ACAD_REACTORS
330
2A
102
}
330
2A
100
AcDbVisualStyle
  2
Conceptual
 70
     9
 71
     3
 72
     2
 73
     0
 90
        0
 40
-0.6
 41
-30.0
 62
     5
 63
     7
421
 16777215
 74
     2
 91
        2
 64
     7
 65
   257
 75
     1
175
     1
 42
40.0
 92
        8
 66
     7
 43
1.0
 76
     1
 77
     6
 78
     2
 67
     7
 79
     3
170
     0
171
     0
290
     0
174
     0
 93
        1
 44
0.0
173
     0
291
     0
 45
0.0
1001
ACAD
1000
AcDbSavedByObjectVersion
1070
     0
  0
VISUALSTYLE
  5
35
102
{ACAD_REACTORS
330
2A
102
}
330
2A
100
AcDbVisualStyle
  2
Dim
 70
    11
 71
     2
 72
     2
 73
     0
 90
        0
 40
-0.6
 41
-30.0
 62
     5
 63
     7
421
 16777215
 74
     1
 91
        4
 64
     7
 65
   257
 75
     1
175
     1
 42
1.0
 92
        8
 66
     7
 43
1.0
 76
     1
 77
     6
 78
     2
 67
     7
 79
     5
170
     0
171
     0
290
     0
174
     0
 93
        1
 44
-50.0
173
     0
291
     1
 45
0.0
1001
ACAD
1000
AcDbSavedByObjectVersion
1070
     0
  0
VISUALSTYLE
  5
39
102
{ACAD_REACTORS
330
2A
102
}
330
2A
100
AcDbVisualStyle
  2
Facepattern
 70
    15
 71
     2
 72
     2
 73
     0
 90
        0
 40
-0.6
 41
-30.0
 62
     5
 63
     7
421
 16777215
 74
     1
 91
        4
 64
     7
 65
   257
 75
     1
175
     1
 42
1.0
 92
        8
 66
     7
 43
1.0
 76
     1
 77
     6
 78
     2
 67
     7
 79
     5
170
     0
171
     0
290
     0
174
     0
 93
        1
 44
0.0
173
     0
291
     1
 45
0.0
1001
ACAD
1000
AcDbSavedByObjectVersion
1070
     0
  0
VISUALSTYLE
  5
2B
102
{ACAD_REACTORS
330
2A
102
}
330
2A
100
AcDbVisualStyle
  2
Flat
 70
     0
 71
     2
 72
     1
 73
     1
 90
        2
 40
-0.6
 41
30.0
 62
     5
 63
     7
421
 16777215
 74
     0
 91
        4
 64
     7
 65
   257
 75
     1
175
     1
 42
1.0
 92
        8
 66
     7
 43
1.0
 76
     1
 77
     6
 78
     2
 67
     7
 79
     5
170
     0
171
     0
290
     0
174
     0
 93
       13
 44
0.0
173
     0
291
     1
 45
0.0
1001
ACAD
1000
AcDbSavedByObjectVersion
1070
     0
  0
VISUALSTYLE
  5
2C
102
{ACAD_REACTORS
330
2A
102
}
330
2A
100
AcDbVisualStyle
  2
FlatWithEdges
 70
     1
 71
     2
 72
     1
 73
     1
 90
        2
 40
-0.6
 41
30.0
 62
     5
 63
     7
421
 16777215
 74
     1
 91
        4
 64
     7
 65
   257
 75
     1
175
     1
 42
1.0
 92
        0
 66
   257
 43
1.0
 76
     1
 77
     6
 78
     2
 67
     7
 79
     5
170
     0
171
     0
290
     0
174
     0
 93
       13
 44
0.0
173
     0
291
     1
 45
0.0
1001
ACAD
1000
AcDbSavedByObjectVersion
1070
     0
  0
VISUALSTYLE
  5
2D
102
{ACAD_REACTORS
330
2A
102
}
330
2A
100
AcDbVisualStyle
  2
Gouraud
 70
     2
 71
     2
 72
     2
 73
     1
 90
        2
 40
-0.6
 41
30.0
 62
     5
 63
     7
421
 16777215
 74
     0
 91
        4
 64
     7
 65
   257
 75
     1
175
     1
 42
1.0
 92
        0
 66
     7
 43
1.0
 76
     1
 77
     6
 78
     2
 67
     7
 79
     5
170
     0
171
     0
290
     0
174
     0
 93
       13
 44
0.0
173
     0
291
     1
 45
0.0
1001
ACAD
1000
AcDbSavedByObjectVersion
1070
     0
  0
VISUALSTYLE
  5
2E
102
{ACAD_REACTORS
330
2A
102
}
330
2A
100
AcDbVisualStyle
  2
GouraudWithEdges
 70
     3
 71
     2
 72
     2
 73
     1
 90
        2
 40
-0.6
 41
30.0
 62
     5
 63
     7
421
 16777215
 74
     1
 91
        4
 64
     7
 65
   257
 75
     1
175
     1
 42
1.0
 92
        0
 66
   257
 43
1.0
 76
     1
 77
     6
 78
     2
 67
     7
 79
     5
170
     0
171
     0
290
     0
174
     0
 93
       13
 44
0.0
173
     0
291
     1
 45
0.0
1001
ACAD
1000
AcDbSavedByObjectVersion
1070
     0
  0
VISUALSTYLE
  5
38
102
{ACAD_REACTORS
330
2A
102
}
330
2A
100
AcDbVisualStyle
  2
Linepattern
 70
    14
 71
     2
 72
     2
 73
     0
 90
        0
 40
-0.6
 41
-30.0
 62
     5
 63
     7
421
 16777215
 74
     1
 91
        4
 64
     7
 65
   257
 75
     7
175
     7
 42
1.0
 92
        8
 66
     7
 43
1.0
 76
     1
 77
     6
 78
     2
 67
     7
 79
     5
170
     0
171
     0
290
     0
174
     0
 93
        1
 44
0.0
173
     0
291
     1
 45
0.0
1001
ACAD
1000
AcDbSavedByObjectVersion
1070
     0
  0
VISUALSTYLE
  5
33
102
{ACAD_REACTORS
330
2A
102
}
330
2A
100
AcDbVisualStyle
  2
Realistic
 70
     8
 71
     2
 72
     2
 73
     0
 90
        0
 40
-0.6
 41
-30.0
 62
     5
 63
     7
421
 16777215
 74
     1
 91
        0
 64
     7
 65
   257
 75
     1
175
     1
 42
1.0
 92
        8
 66
     8
424
  7895160
 43
1.0
 76
     1
 77
     6
 78
     2
 67
     7
 79
     5
170
     0
171
     0
290
     0
174
     0
 93
       13
 44
0.0
173
     0
291
     0
 45
0.0
1001
ACAD
1000
AcDbSavedByObjectVersion
1070
     0
  0
VISUALSTYLE
  5
37
102
{ACAD_REACTORS
330
2A
102
}
330
2A
100
AcDbVisualStyle
  2
Thicken
 70
    13
 71
     2
 72
     2
 73
     0
 90
        0
 40
-0.6
 41
-30.0
 62
     5
 63
     7
421
 16777215
 74
     1
 91
        4
 64
     7
 65
   257
 75
     1
175
     1
 42
1.0
 92
       12
 66
     7
 43
1.0
 76
     1
 77
     6
 78
     2
 67
     7
 79
     5
170
     0
171
     0
290
     0
174
     0
 93
        1
 44
0.0
173
     0
291
     1
 45
0.0
1001
ACAD
1000
AcDbSavedByObjectVersion
1070
     0
  0
ENDSEC
  0
EOF
