  0
SECTION
  2
HEADER
  9
$ACADVER
  1
AC1018
  9
$ACADMAINTVER
 70
     0
  9
$DWGCODEPAGE
  3
ANSI_932
  9
$INSBASE
 10
0.0
 20
0.0
 30
0.0
  9
$EXTMIN
 10
-420.0
 20
-297.0
 30
0.0
  9
$EXTMAX
 10
420.0
 20
297.0
 30
0.0
  9
$LIMMIN
 10
-420.0
 20
-297.0
  9
$LIMMAX
 10
420.0
 20
297.0
  9
$ORTHOMODE
 70
     0
  9
$REGENMODE
 70
     1
  9
$FILLMODE
 70
     1
  9
$QTEXTMODE
 70
     0
  9
$MIRRTEXT
 70
     1
  9
$LTSCALE
 40
2.0
  9
$ATTMODE
 70
     1
  9
$TEXTSIZE
 40
2.5
  9
$TRACEWID
 40
1.0
  9
$TEXTSTYLE
  7
Standard
  9
$CLAYER
  8
0
  9
$CELTYPE
  6
ByLayer
  9
$CECOLOR
 62
   256
  9
$CELTSCALE
 40
1.0
  9
$DISPSILH
 70
     0
  9
$DIMSCALE
 40
1.0
  9
$DIMASZ
 40
2.5
  9
$DIMEXO
 40
0.625
  9
$DIMDLI
 40
3.75
  9
$DIMRND
 40
0.0
  9
$DIMDLE
 40
0.0
  9
$DIMEXE
 40
1.25
  9
$DIMTP
 40
0.0
  9
$DIMTM
 40
0.0
  9
$DIMTXT
 40
2.5
  9
$DIMCEN
 40
2.5
  9
$DIMTSZ
 40
0.0
  9
$DIMTOL
 70
     0
  9
$DIMLIM
 70
     0
  9
$DIMTIH
 70
     0
  9
$DIMTOH
 70
     0
  9
$DIMSE1
 70
     0
  9
$DIMSE2
 70
     0
  9
$DIMTAD
 70
     1
  9
$DIMZIN
 70
     8
  9
$DIMBLK
  1

  9
$DIMASO
 70
     1
  9
$DIMSHO
 70
     1
  9
$DIMPOST
  1

  9
$DIMAPOST
  1

  9
$DIMALT
 70
     0
  9
$DIMALTD
 70
     3
  9
$DIMALTF
 40
0.03937007874016
  9
$DIMLFAC
 40
1.0
  9
$DIMTOFL
 70
     1
  9
$DIMTVP
 40
0.0
  9
$DIMTIX
 70
     0
  9
$DIMSOXD
 70
     0
  9
$DIMSAH
 70
     0
  9
$DIMBLK1
  1

  9
$DIMBLK2
  1

  9
$DIMSTYLE
  2
ISO-25
  9
$DIMCLRD
 70
     0
  9
$DIMCLRE
 70
     0
  9
$DIMCLRT
 70
     0
  9
$DIMTFAC
 40
1.0
  9
$DIMGAP
 40
0.625
  9
$DIMJUST
 70
     0
  9
$DIMSD1
 70
     0
  9
$DIMSD2
 70
     0
  9
$DIMTOLJ
 70
     0
  9
$DIMTZIN
 70
     8
  9
$DIMALTZ
 70
     0
  9
$DIMALTTZ
 70
     0
  9
$DIMUPT
 70
     0
  9
$DIMDEC
 70
     2
  9
$DIMTDEC
 70
     2
  9
$DIMALTU
 70
     2
  9
$DIMALTTD
 70
     3
  9
$DIMTXSTY
  7
Standard
  9
$DIMAUNIT
 70
     0
  9
$DIMADEC
 70
     0
  9
$DIMALTRND
 40
0.0
  9
$DIMAZIN
 70
     0
  9
$DIMDSEP
 70
    44
  9
$DIMATFIT
 70
     3
  9
$DIMFRAC
 70
     0
  9
$DIMLDRBLK
  1

  9
$DIMLUNIT
 70
     2
  9
$DIMLWD
 70
    -2
  9
$DIMLWE
 70
    -2
  9
$DIMTMOVE
 70
     0
  9
$LUNITS
 70
     2
  9
$LUPREC
 70
     4
  9
$SKETCHINC
 40
1.0
  9
$FILLETRAD
 40
10.0
  9
$AUNITS
 70
     0
  9
$AUPREC
 70
     0
  9
$MENU
  1
.
  9
$ELEVATION
 40
0.0
  9
$PELEVATION
 40
0.0
  9
$THICKNESS
 40
0.0
  9
$LIMCHECK
 70
     0
  9
$CHAMFERA
 40
10.0
  9
$CHAMFERB
 40
10.0
  9
$CHAMFERC
 40
20.0
  9
$CHAMFERD
 40
0.0
  9
$SKPOLY
 70
     0
  9
$TDCREATE
 40
2456498.823515533
  9
$TDUCREATE
 40
2456498.448515533
  9
$TDUPDATE
 40
2456498.823515544
  9
$TDUUPDATE
 40
2456498.448515544
  9
$TDINDWG
 40
0.0000000116
  9
$TDUSRTIMER
 40
0.0000000116
  9
$USRTIMER
 70
     1
  9
$ANGBASE
 50
0.0
  9
$ANGDIR
 70
     0
  9
$PDMODE
 70
     0
  9
$PDSIZE
 40
0.0
  9
$PLINEWID
 40
0.0
  9
$SPLFRAME
 70
     0
  9
$SPLINETYPE
 70
     6
  9
$SPLINESEGS
 70
     8
  9
$HANDSEED
  5
3BA
  9
$SURFTAB1
 70
     6
  9
$SURFTAB2
 70
     6
  9
$SURFTYPE
 70
     6
  9
$SURFU
 70
     6
  9
$SURFV
 70
     6
  9
$UCSBASE
  2

  9
$UCSNAME
  2

  9
$UCSORG
 10
0.0
 20
0.0
 30
0.0
  9
$UCSXDIR
 10
1.0
 20
0.0
 30
0.0
  9
$UCSYDIR
 10
0.0
 20
1.0
 30
0.0
  9
$UCSORTHOREF
  2

  9
$UCSORTHOVIEW
 70
     0
  9
$UCSORGTOP
 10
0.0
 20
0.0
 30
0.0
  9
$UCSORGBOTTOM
 10
0.0
 20
0.0
 30
0.0
  9
$UCSORGLEFT
 10
0.0
 20
0.0
 30
0.0
  9
$UCSORGRIGHT
 10
0.0
 20
0.0
 30
0.0
  9
$UCSORGFRONT
 10
0.0
 20
0.0
 30
0.0
  9
$UCSORGBACK
 10
0.0
 20
0.0
 30
0.0
  9
$PUCSBASE
  2

  9
$PUCSNAME
  2

  9
$PUCSORG
 10
0.0
 20
0.0
 30
0.0
  9
$PUCSXDIR
 10
1.0
 20
0.0
 30
0.0
  9
$PUCSYDIR
 10
0.0
 20
1.0
 30
0.0
  9
$PUCSORTHOREF
  2

  9
$PUCSORTHOVIEW
 70
     0
  9
$PUCSORGTOP
 10
0.0
 20
0.0
 30
0.0
  9
$PUCSORGBOTTOM
 10
0.0
 20
0.0
 30
0.0
  9
$PUCSORGLEFT
 10
0.0
 20
0.0
 30
0.0
  9
$PUCSORGRIGHT
 10
0.0
 20
0.0
 30
0.0
  9
$PUCSORGFRONT
 10
0.0
 20
0.0
 30
0.0
  9
$PUCSORGBACK
 10
0.0
 20
0.0
 30
0.0
  9
$USERI1
 70
     0
  9
$USERI2
 70
     0
  9
$USERI3
 70
     0
  9
$USERI4
 70
     0
  9
$USERI5
 70
     0
  9
$USERR1
 40
0.0
  9
$USERR2
 40
0.0
  9
$USERR3
 40
0.0
  9
$USERR4
 40
0.0
  9
$USERR5
 40
0.0
  9
$WORLDVIEW
 70
     1
  9
$SHADEDGE
 70
     3
  9
$SHADEDIF
 70
    70
  9
$TILEMODE
 70
     1
  9
$MAXACTVP
 70
    64
  9
$PINSBASE
 10
0.0
 20
0.0
 30
0.0
  9
$PLIMCHECK
 70
     0
  9
$PEXTMIN
 10
1.000000000000000E+20
 20
1.000000000000000E+20
 30
1.000000000000000E+20
  9
$PEXTMAX
 10
-1.000000000000000E+20
 20
-1.000000000000000E+20
 30
-1.000000000000000E+20
  9
$PLIMMIN
 10
0.0
 20
0.0
  9
$PLIMMAX
 10
420.0
 20
297.0
  9
$UNITMODE
 70
     0
  9
$VISRETAIN
 70
     1
  9
$PLINEGEN
 70
     0
  9
$PSLTSCALE
 70
     1
  9
$TREEDEPTH
 70
  3020
  9
$CMLSTYLE
  2
Standard
  9
$CMLJUST
 70
     0
  9
$CMLSCALE
 40
20.0
  9
$PROXYGRAPHICS
 70
     1
  9
$MEASUREMENT
 70
     1
  9
$CELWEIGHT
370
    -1
  9
$ENDCAPS
280
     0
  9
$JOINSTYLE
280
     0
  9
$LWDISPLAY
290
     0
  9
$INSUNITS
 70
     4
  9
$HYPERLINKBASE
  1

  9
$STYLESHEET
  1

  9
$XEDIT
290
     1
  9
$CEPSNTYPE
380
     0
  9
$PSTYLEMODE
290
     1
  9
$FINGERPRINTGUID
  2
{535CED33-4C1F-408B-928D-EB1888B48559}
  9
$VERSIONGUID
  2
{FAEB1C32-E019-11D5-929B-00C0DF256EC4}
  9
$EXTNAMES
290
     1
  9
$PSVPSCALE
 40
0.0
  9
$OLESTARTUP
290
     0
  9
$SORTENTS
280
   127
  9
$INDEXCTL
280
     0
  9
$HIDETEXT
280
     1
  9
$XCLIPFRAME
290
     0
  9
$HALOGAP
280
     0
  9
$OBSCOLOR
 70
   257
  9
$OBSLTYPE
280
     0
  9
$INTERSECTIONDISPLAY
280
     0
  9
$INTERSECTIONCOLOR
 70
   257
  9
$DIMASSOC
280
     2
  9
$PROJECTNAME
  1

  0
ENDSEC
  0
SECTION
  2
CLASSES
  0
CLASS
  1
ACDBDICTIONARYWDFLT
  2
AcDbDictionaryWithDefault
  3
ObjectDBX Classes
 90
        0
 91
        4
280
     0
281
     0
  0
CLASS
  1
VISUALSTYLE
  2
AcDbVisualStyle
  3
ObjectDBX Classes
 90
     4095
 91
        4
280
     0
281
     0
  0
ENDSEC
  0
SECTION
  2
TABLES
  0
TABLE
  2
VPORT
  5
8
330
0
100
AcDbSymbolTable
 70
     1
  0
VPORT
  5
29
330
8
100
AcDbSymbolTableRecord
100
AcDbViewportTableRecord
  2
*Active
 70
     0
 10
0.0
 20
0.0
 11
1.0
 21
1.0
 12
0.0
 22
0.0
 13
0.0
 23
0.0
 14
10.0
 24
10.0
 15
10.0
 25
10.0
 16
0.0
 26
0.0
 36
1.0
 17
0.0
 27
0.0
 37
0.0
 40
653.4000000000001
 41
1.414141414141414
 42
50.0
 43
0.0
 44
0.0
 50
0.0
 51
0.0
 71
     0
 72
 10000
 73
     1
 74
     3
 75
     0
 76
     0
 77
     0
 78
     0
281
     0
 65
     1
110
0.0
120
0.0
130
0.0
111
1.0
121
0.0
131
0.0
112
0.0
122
1.0
132
0.0
 79
     0
146
0.0
  0
ENDTAB
  0
TABLE
  2
LTYPE
  5
5
330
0
100
AcDbSymbolTable
 70
     2
  0
LTYPE
  5
14
330
5
100
AcDbSymbolTableRecord
100
AcDbLinetypeTableRecord
  2
ByBlock
 70
     0
  3

 72
    65
 73
     0
 40
0.0
  0
LTYPE
  5
15
330
5
100
AcDbSymbolTableRecord
100
AcDbLinetypeTableRecord
  2
ByLayer
 70
     0
  3

 72
    65
 73
     0
 40
0.0
  0
LTYPE
  5
16
330
5
100
AcDbSymbolTableRecord
100
AcDbLinetypeTableRecord
  2
Continuous
 70
     0
  3
Solid line
 72
    65
 73
     0
 40
0.0
  0
LTYPE
  5
3C
330
5
100
AcDbSymbolTableRecord
100
AcDbLinetypeTableRecord
  2
JWW_CENTER1
 70
     0
  3
-----  --  ----------  --  -----
 72
    65
 73
     4
 40
6.773333333333333
 49
4.233333333333333
 74
     0
 49
-0.8466666666666667
 74
     0
 49
0.8466666666666667
 74
     0
 49
-0.8466666666666667
 74
     0
  0
ENDTAB
  0
TABLE
  2
LAYER
  5
2
330
0
100
AcDbSymbolTable
 70
     5
  0
LAYER
  5
10
330
2
100
AcDbSymbolTableRecord
100
AcDbLayerTableRecord
  2
0
 70
     0
 62
     7
  6
Continuous
370
    -3
390
F
  0
LAYER
  5
3D
330
2
100
AcDbSymbolTableRecord
100
AcDbLayerTableRecord
  2
0-5_仕様文
 70
     0
 62
     7
  6
Continuous
370
    -3
390
F
  0
LAYER
  5
3E
330
2
100
AcDbSymbolTableRecord
100
AcDbLayerTableRecord
  2
0-0_通り芯
 70
     0
 62
     7
  6
Continuous
370
    -3
390
F
  0
LAYER
  5
3F
330
2
100
AcDbSymbolTableRecord
100
AcDbLayerTableRecord
  2
0-4_寸法
 70
     0
 62
     7
  6
Continuous
370
    -3
390
F
  0
LAYER
  5
40
330
2
100
AcDbSymbolTableRecord
100
AcDbLayerTableRecord
  2
F-5ﾚｲﾔ
 70
     0
 62
     7
  6
Continuous
370
    -3
390
F
  0
ENDTAB
  0
TABLE
  2
STYLE
  5
3
330
0
100
AcDbSymbolTable
 70
     2
  0
STYLE
  5
11
330
3
100
AcDbSymbolTableRecord
100
AcDbTextStyleTableRecord
  2
Standard
 70
     0
 40
0.0
 41
1.0
 50
0.0
 71
     0
 42
2.5
  3
txt
  4

1001
ACAD
1000

1071
        0
  0
STYLE
  5
3B
330
3
100
AcDbSymbolTableRecord
100
AcDbTextStyleTableRecord
  2
ＭＳ ゴシック
 70
     0
 40
1.0
 41
1.0
 50
0.0
 71
     0
 42
10.0
  3

  4

1001
ACAD
1000
MS Gothic
1071
    32817
  0
ENDTAB
  0
TABLE
  2
VIEW
  5
6
330
0
100
AcDbSymbolTable
 70
     0
  0
ENDTAB
  0
TABLE
  2
UCS
  5
7
330
0
100
AcDbSymbolTable
 70
     0
  0
ENDTAB
  0
TABLE
  2
APPID
  5
9
330
0
100
AcDbSymbolTable
 70
     1
  0
APPID
  5
12
330
9
100
AcDbSymbolTableRecord
100
AcDbRegAppTableRecord
  2
ACAD
 70
     0
  0
ENDTAB
  0
TABLE
  2
DIMSTYLE
  5
A
330
0
100
AcDbSymbolTable
 70
     1
100
AcDbDimStyleTable
  0
DIMSTYLE
105
27
330
A
100
AcDbSymbolTableRecord
100
AcDbDimStyleTableRecord
  2
ISO-25
 70
     0
 41
2.5
 42
0.625
 43
3.75
 44
1.25
 73
     0
 74
     0
 77
     1
 78
     8
140
2.5
141
2.5
143
0.03937007874016
147
0.625
171
     3
172
     1
271
     2
272
     2
274
     3
278
    44
283
     0
284
     8
340
11
  0
ENDTAB
  0
TABLE
  2
BLOCK_RECORD
  5
1
330
0
100
AcDbSymbolTable
 70
     1
  0
BLOCK_RECORD
  5
1F
330
1
100
AcDbSymbolTableRecord
100
AcDbBlockTableRecord
  2
*Model_Space
340
22
  0
BLOCK_RECORD
  5
1B
330
1
100
AcDbSymbolTableRecord
100
AcDbBlockTableRecord
  2
*Paper_Space
340
1E
  0
BLOCK_RECORD
  5
23
330
1
100
AcDbSymbolTableRecord
100
AcDbBlockTableRecord
  2
*Paper_Space0
340
26
  0
ENDTAB
  0
ENDSEC
  0
SECTION
  2
BLOCKS
  0
BLOCK
  5
20
330
1F
100
AcDbEntity
  8
0
100
AcDbBlockBegin
  2
*Model_Space
 70
     0
 10
0.0
 20
0.0
 30
0.0
  3
*Model_Space
  1

  0
ENDBLK
  5
21
330
1F
100
AcDbEntity
  8
0
100
AcDbBlockEnd
  0
BLOCK
  5
1C
330
1B
100
AcDbEntity
 67
     1
  8
0
100
AcDbBlockBegin
  2
*Paper_Space
 70
     0
 10
0.0
 20
0.0
 30
0.0
  3
*Paper_Space
  1

  0
ENDBLK
  5
1D
330
1B
100
AcDbEntity
 67
     1
  8
0
100
AcDbBlockEnd
  0
BLOCK
  5
24
330
23
100
AcDbEntity
  8
0
100
AcDbBlockBegin
  2
*Paper_Space0
 70
     0
 10
0.0
 20
0.0
 30
0.0
  3
*Paper_Space0
  1

  0
ENDBLK
  5
25
330
23
100
AcDbEntity
  8
0
100
AcDbBlockEnd
  0
ENDSEC
  0
SECTION
  2
ENTITIES
  0
TEXT
  5
41
330
1F
100
AcDbEntity
  8
0-5_仕様文
  6
Continuous
 62
     2
370
     9
100
AcDbText
 10
223.8488399742729
 20
-186.3774232729564
 30
0.0
 40
6.096
  1
材　　質：ＦＣ２００
 41
1.1125
  7
ＭＳ ゴシック
100
AcDbText
  0
TEXT
  5
42
330
1F
100
AcDbEntity
  8
0-5_仕様文
  6
Continuous
 62
     2
370
     9
100
AcDbText
 10
223.9040050089437
 20
-209.0638291479798
 30
0.0
 40
6.096
  1
適用荷重：歩行用
 41
1.109375
  7
ＭＳ ゴシック
100
AcDbText
  0
TEXT
  5
43
330
1F
100
AcDbEntity
  8
0-5_仕様文
  6
Continuous
 62
     2
370
     9
100
AcDbText
 10
223.8488399742729
 20
-197.4355436930518
 30
0.0
 40
6.096
  1
表面処理：樹脂系塗装
 41
1.1125
  7
ＭＳ ゴシック
100
AcDbText
  0
TEXT
  5
44
330
1F
100
AcDbEntity
  8
0-5_仕様文
  6
Continuous
 62
     3
370
     9
100
AcDbText
 10
223.8458792388229
 20
-172.3316266642633
 30
0.0
 40
7.620000000000001
  1
仕様
 41
1.05
  7
ＭＳ ゴシック
100
AcDbText
  0
LINE
  5
45
330
1F
100
AcDbEntity
  8
0-0_通り芯
  6
Continuous
 62
     3
370
     9
100
AcDbLine
 10
143.6929706352913
 20
-166.7454140440721
 30
0.0
 11
-356.3069963727323
 21
-166.7454140440721
 31
0.0
  0
LINE
  5
46
330
1F
100
AcDbEntity
  8
0-0_通り芯
  6
Continuous
 62
     3
370
     9
100
AcDbLine
 10
-310.8070070951246
 20
-166.7454140440721
 30
0.0
 11
-308.162049326217
 21
-181.7454222920662
 31
0.0
  0
LINE
  5
47
330
1F
100
AcDbEntity
  8
0-0_通り芯
  6
Continuous
 62
     3
370
     9
100
AcDbLine
 10
-296.8070103943222
 20
-166.7454140440721
 30
0.0
 11
-299.4518568153405
 21
-181.7454222920662
 31
0.0
  0
LINE
  5
48
330
1F
100
AcDbEntity
  8
0-0_通り芯
  6
Continuous
 62
     3
370
     9
100
AcDbLine
 10
-271.3070004967294
 20
-166.7454140440721
 30
0.0
 11
-268.6620427278218
 21
-181.7454222920662
 31
0.0
  0
LINE
  5
49
330
1F
100
AcDbEntity
  8
0-0_通り芯
  6
Continuous
 62
     3
370
     9
100
AcDbLine
 10
-257.307003795927
 20
-166.7454140440721
 30
0.0
 11
-259.9518502169451
 21
-181.7454222920662
 31
0.0
  0
LINE
  5
4A
330
1F
100
AcDbEntity
  8
0-0_通り芯
  6
Continuous
 62
     3
370
     9
100
AcDbLine
 10
-231.8069938983341
 20
-166.7454140440721
 30
0.0
 11
-229.1620918033712
 21
-181.7454222920662
 31
0.0
  0
LINE
  5
4B
330
1F
100
AcDbEntity
  8
0-0_通り芯
  6
Continuous
 62
     3
370
     9
100
AcDbLine
 10
-217.8069971975318
 20
-166.7454140440721
 30
0.0
 11
-220.4518436185498
 21
-181.7454222920662
 31
0.0
  0
LINE
  5
4C
330
1F
100
AcDbEntity
  8
0-0_通り芯
  6
Continuous
 62
     3
370
     9
100
AcDbLine
 10
-192.3069872999388
 20
-166.7454140440721
 30
0.0
 11
-189.6620852049761
 21
-181.7454222920662
 31
0.0
  0
LINE
  5
4D
330
1F
100
AcDbEntity
  8
0-0_通り芯
  6
Continuous
 62
     3
370
     9
100
AcDbLine
 10
-178.3069905991365
 20
-166.7454140440721
 30
0.0
 11
-180.9518370201545
 21
-181.7454222920662
 31
0.0
  0
LINE
  5
4E
330
1F
100
AcDbEntity
  8
0-0_通り芯
  6
Continuous
 62
     3
370
     9
100
AcDbLine
 10
-152.8069807015435
 20
-166.7454140440721
 30
0.0
 11
-150.1620786065807
 21
-181.7454222920662
 31
0.0
  0
LINE
  5
4F
330
1F
100
AcDbEntity
  8
0-0_通り芯
  6
Continuous
 62
     3
370
     9
100
AcDbLine
 10
-138.8069840007412
 20
-166.7454140440721
 30
0.0
 11
-141.451886095704
 21
-181.7454222920662
 31
0.0
  0
LINE
  5
50
330
1F
100
AcDbEntity
  8
0-0_通り芯
  6
Continuous
 62
     3
370
     9
100
AcDbLine
 10
-113.3069741031483
 20
-166.7454140440721
 30
0.0
 11
-110.6620720081855
 21
-181.7454222920662
 31
0.0
  0
LINE
  5
51
330
1F
100
AcDbEntity
  8
0-0_通り芯
  6
Continuous
 62
     3
370
     9
100
AcDbLine
 10
-99.30697740234592
 20
-166.7454140440721
 30
0.0
 11
-101.9518794973088
 21
-181.7454222920662
 31
0.0
  0
LINE
  5
52
330
1F
100
AcDbEntity
  8
0-0_通り芯
  6
Continuous
 62
     3
370
     9
100
AcDbLine
 10
-73.80696750475306
 20
-166.7454140440721
 30
0.0
 11
-71.16206540979013
 21
-181.7454222920662
 31
0.0
  0
LINE
  5
53
330
1F
100
AcDbEntity
  8
0-0_通り芯
  6
Continuous
 62
     3
370
     9
100
AcDbLine
 10
-59.80697080395061
 20
-166.7454140440721
 30
0.0
 11
-62.45187289891345
 21
-181.7454222920662
 31
0.0
  0
LINE
  5
54
330
1F
100
AcDbEntity
  8
0-0_通り芯
  6
Continuous
 62
     3
370
     9
100
AcDbLine
 10
-34.30696090635774
 20
-166.7454140440721
 30
0.0
 11
-31.66205881139498
 21
-181.7454222920662
 31
0.0
  0
LINE
  5
55
330
1F
100
AcDbEntity
  8
0-0_通り芯
  6
Continuous
 62
     3
370
     9
100
AcDbLine
 10
-20.30696420555535
 20
-166.7454140440721
 30
0.0
 11
-22.95181062657342
 21
-181.7454222920662
 31
0.0
  0
LINE
  5
56
330
1F
100
AcDbEntity
  8
0-0_通り芯
  6
Continuous
 62
     3
370
     9
100
AcDbLine
 10
5.193082808010956
 20
-166.7454140440721
 30
0.0
 11
7.837817881139408
 21
-181.7454222920662
 31
0.0
  0
LINE
  5
57
330
1F
100
AcDbEntity
  8
0-0_通り芯
  6
Continuous
 62
     3
370
     9
100
AcDbLine
 10
19.1930795088133
 20
-166.7454140440721
 30
0.0
 11
16.54812173990568
 21
-181.7454222920662
 31
0.0
  0
LINE
  5
58
330
1F
100
AcDbEntity
  8
0-0_通り芯
  6
Continuous
 62
     3
370
     9
100
AcDbLine
 10
44.69294094251256
 20
-166.7454140440721
 30
0.0
 11
47.33789871142018
 21
-181.7454222920662
 31
0.0
  0
LINE
  5
59
330
1F
100
AcDbEntity
  8
0-0_通り芯
  6
Continuous
 62
     3
370
     9
100
AcDbLine
 10
58.69293764331502
 20
-166.7454140440721
 30
0.0
 11
56.0482025701864
 21
-181.7454222920662
 31
0.0
  0
LINE
  5
5A
330
1F
100
AcDbEntity
  8
0-0_通り芯
  6
Continuous
 62
     3
370
     9
100
AcDbLine
 10
84.19294754090788
 20
-166.7454140440721
 30
0.0
 11
86.8379053098155
 21
-181.7454222920662
 31
0.0
  0
LINE
  5
5B
330
1F
100
AcDbEntity
  8
0-0_通り芯
  6
Continuous
 62
     3
370
     9
100
AcDbLine
 10
98.19294424171028
 20
-166.7454140440721
 30
0.0
 11
95.54820916858174
 21
-181.7454222920662
 31
0.0
  0
LINE
  5
5C
330
1F
100
AcDbEntity
  8
0-0_通り芯
  6
JWW_CENTER1
 62
     3
370
     9
100
AcDbLine
 10
-106.3069757527471
 20
-198.000478312442
 30
0.0
 11
-106.3069757527471
 21
-149.1993720565149
 31
0.0
  0
LINE
  5
5D
330
1F
100
AcDbEntity
  8
0-0_通り芯
  6
JWW_CENTER1
 62
     3
370
     9
100
AcDbLine
 10
-106.3069757527471
 20
-105.3720565149137
 30
0.0
 11
-106.3069757527471
 21
274.1538461538461
 31
0.0
  0
LINE
  5
5E
330
1F
100
AcDbEntity
  8
0-4_寸法
  6
Continuous
 62
     7
370
     9
100
AcDbLine
 10
-34.30692379038432
 20
-115.1863977886974
 30
0.0
 11
-29.34969948351527
 21
-114.5337668275971
 31
0.0
  0
LINE
  5
5F
330
1F
100
AcDbEntity
  8
0-4_寸法
  6
Continuous
 62
     7
370
     9
100
AcDbLine
 10
-34.30692379038432
 20
-115.1863977886974
 30
0.0
 11
-29.34969948351527
 21
-115.8390287497976
 31
0.0
  0
LINE
  5
60
330
1F
100
AcDbEntity
  8
0-4_寸法
  6
Continuous
 62
     7
370
     9
100
AcDbLine
 10
-34.30692379038432
 20
-115.7863977886974
 30
0.0
 11
-34.30692379038432
 21
-74.94032705899424
 31
0.0
  0
LINE
  5
61
330
1F
100
AcDbEntity
  8
0-4_寸法
  6
Continuous
 62
     7
370
     9
100
AcDbLine
 10
-59.80698317594171
 20
-115.7863977886974
 30
0.0
 11
-59.80698317594171
 21
-74.94032705899424
 31
0.0
  0
LINE
  5
62
330
1F
100
AcDbEntity
  8
0-4_寸法
  6
Continuous
 62
     7
370
     9
100
AcDbLine
 10
-73.80693696139986
 20
-115.1863977886974
 30
0.0
 11
-78.76416126826891
 21
-114.5337668275971
 31
0.0
  0
LINE
  5
63
330
1F
100
AcDbEntity
  8
0-4_寸法
  6
Continuous
 62
     7
370
     9
100
AcDbLine
 10
-73.80693696139986
 20
-115.1863977886974
 30
0.0
 11
-78.76416126826891
 21
-115.8390287497976
 31
0.0
  0
LINE
  5
64
330
1F
100
AcDbEntity
  8
0-4_寸法
  6
Continuous
 62
     7
370
     9
100
AcDbLine
 10
-73.80693696139986
 20
-115.7863977886974
 30
0.0
 11
-73.80693696139986
 21
-74.94032705899424
 31
0.0
  0
LINE
  5
65
330
1F
100
AcDbEntity
  8
0-4_寸法
  6
Continuous
 62
     7
370
     9
100
AcDbLine
 10
-59.80698317594171
 20
-115.1863977886974
 30
0.0
 11
-91.91203598732343
 21
-115.1863977886974
 31
0.0
  0
TEXT
  5
66
330
1F
100
AcDbEntity
  8
0-4_寸法
  6
Continuous
 62
     2
370
   211
100
AcDbText
 10
-29.35949980874378
 20
-112.0583977886974
 30
0.0
 40
6.096
  1
25.5
 41
1.09375
  7
ＭＳ ゴシック
100
AcDbText
  0
TEXT
  5
67
330
1F
100
AcDbEntity
  8
0-4_寸法
  6
Continuous
 62
     2
370
   211
100
AcDbText
 10
-88.3669034147456
 20
-112.0583977886974
 30
0.0
 40
6.096
  1
14
 41
1.0625
  7
ＭＳ ゴシック
100
AcDbText
  0
LWPOLYLINE
  5
68
330
1F
100
AcDbEntity
  8
0-4_寸法
  6
Continuous
 62
     7
370
     9
100
AcDbPolyline
 90
        4
 70
     1
 43
0.2
 10
-59.70698317594171
 20
-115.1863977886974
 42
0.4142135623731
 10
-59.80698317594171
 20
-115.0863977886974
 42
0.4142135623731
 10
-59.90698317594171
 20
-115.1863977886974
 42
0.4142135623731
 10
-59.80698317594171
 20
-115.2863977886974
 42
0.4142135623731
  0
LINE
  5
69
330
1F
100
AcDbEntity
  8
0-4_寸法
  6
Continuous
 62
     7
370
     9
100
AcDbLine
 10
-11.20948700063521
 20
-115.1863977886974
 30
0.0
 11
-59.80698317594171
 21
-115.1863977886974
 31
0.0
  0
LINE
  5
6A
330
1F
100
AcDbEntity
  8
0-4_寸法
  6
Continuous
 62
     7
370
     9
100
AcDbLine
 10
-356.3069963727323
 20
-134.2794348508634
 30
0.0
 11
143.693119099185
 21
-134.2794348508634
 31
0.0
  0
LINE
  5
6B
330
1F
100
AcDbEntity
  8
0-4_寸法
  6
Continuous
 62
     7
370
     9
100
AcDbLine
 10
-356.3069963727323
 20
-134.2794348508634
 30
0.0
 11
-351.3497720658632
 21
-133.6268038897632
 31
0.0
  0
LINE
  5
6C
330
1F
100
AcDbEntity
  8
0-4_寸法
  6
Continuous
 62
     7
370
     9
100
AcDbLine
 10
-356.3069963727323
 20
-134.2794348508634
 30
0.0
 11
-351.3497720658632
 21
-134.9320658119637
 31
0.0
  0
LINE
  5
6D
330
1F
100
AcDbEntity
  8
0-4_寸法
  6
Continuous
 62
     7
370
     9
100
AcDbLine
 10
143.693119099185
 20
-134.2794348508634
 30
0.0
 11
138.7358947923159
 21
-133.6268038897632
 31
0.0
  0
LINE
  5
6E
330
1F
100
AcDbEntity
  8
0-4_寸法
  6
Continuous
 62
     7
370
     9
100
AcDbLine
 10
143.693119099185
 20
-134.2794348508634
 30
0.0
 11
138.7358947923159
 21
-134.9320658119637
 31
0.0
  0
LINE
  5
6F
330
1F
100
AcDbEntity
  8
0-4_寸法
  6
Continuous
 62
     7
370
     9
100
AcDbLine
 10
-356.3069963727323
 20
-134.8794348508634
 30
0.0
 11
-356.3069963727323
 21
-96.94039964134227
 31
0.0
  0
LINE
  5
70
330
1F
100
AcDbEntity
  8
0-4_寸法
  6
Continuous
 62
     7
370
     9
100
AcDbLine
 10
143.693119099185
 20
-134.8794348508634
 30
0.0
 11
143.693119099185
 21
-96.94039964134227
 31
0.0
  0
TEXT
  5
71
330
1F
100
AcDbEntity
  8
0-4_寸法
  6
Continuous
 62
     2
370
   211
100
AcDbText
 10
-112.8069386367737
 20
-131.1514348508634
 30
0.0
 40
6.096
  1
500
 41
1.083333333333333
  7
ＭＳ ゴシック
100
AcDbText
  0
LINE
  5
72
330
1F
100
AcDbEntity
  8
0-4_寸法
  6
Continuous
 62
     7
370
     9
100
AcDbLine
 10
163.6025571199377
 20
156.0596795394011
 30
0.0
 11
162.9499261588374
 21
161.0169038462701
 31
0.0
  0
LINE
  5
73
330
1F
100
AcDbEntity
  8
0-4_寸法
  6
Continuous
 62
     7
370
     9
100
AcDbLine
 10
163.6025571199377
 20
156.0596795394011
 30
0.0
 11
164.255188081038
 21
161.0169038462701
 31
0.0
  0
LINE
  5
74
330
1F
100
AcDbEntity
  8
0-4_寸法
  6
Continuous
 62
     7
370
     9
100
AcDbLine
 10
164.2025571199377
 20
156.0596795394011
 30
0.0
 11
125.6930465168371
 21
156.0596795394011
 31
0.0
  0
LINE
  5
75
330
1F
100
AcDbEntity
  8
0-4_寸法
  6
Continuous
 62
     7
370
     9
100
AcDbLine
 10
164.2025571199377
 20
129.5596729152308
 30
0.0
 11
125.6930465168371
 21
129.5596729152308
 31
0.0
  0
LINE
  5
76
330
1F
100
AcDbEntity
  8
0-4_寸法
  6
Continuous
 62
     7
370
     9
100
AcDbLine
 10
163.6025571199377
 20
115.5596201538436
 30
0.0
 11
162.9499261588374
 21
110.6023958469745
 31
0.0
  0
LINE
  5
77
330
1F
100
AcDbEntity
  8
0-4_寸法
  6
Continuous
 62
     7
370
     9
100
AcDbLine
 10
163.6025571199377
 20
115.5596201538436
 30
0.0
 11
164.255188081038
 21
110.6023958469745
 31
0.0
  0
LINE
  5
78
330
1F
100
AcDbEntity
  8
0-4_寸法
  6
Continuous
 62
     7
370
     9
100
AcDbLine
 10
164.2025571199377
 20
115.5596201538436
 30
0.0
 11
125.6930465168371
 21
115.5596201538436
 31
0.0
  0
LINE
  5
79
330
1F
100
AcDbEntity
  8
0-4_寸法
  6
Continuous
 62
     7
370
     9
100
AcDbLine
 10
237.7864992150706
 20
-92.94039964134227
 30
0.0
 11
237.7864992150706
 21
257.0596663426106
 31
0.0
  0
LINE
  5
7A
330
1F
100
AcDbEntity
  8
0-4_寸法
  6
Continuous
 62
     7
370
     9
100
AcDbLine
 10
237.7864992150706
 20
-92.94039964134227
 30
0.0
 11
237.1338682539704
 21
-87.98317533447322
 31
0.0
  0
LINE
  5
7B
330
1F
100
AcDbEntity
  8
0-4_寸法
  6
Continuous
 62
     7
370
     9
100
AcDbLine
 10
237.7864992150706
 20
-92.94039964134227
 30
0.0
 11
238.4391301761709
 21
-87.98317533447322
 31
0.0
  0
LINE
  5
7C
330
1F
100
AcDbEntity
  8
0-4_寸法
  6
Continuous
 62
     7
370
     9
100
AcDbLine
 10
237.7864992150706
 20
257.0596663426106
 30
0.0
 11
237.1338682539704
 21
252.1024420357415
 31
0.0
  0
LINE
  5
7D
330
1F
100
AcDbEntity
  8
0-4_寸法
  6
Continuous
 62
     7
370
     9
100
AcDbLine
 10
237.7864992150706
 20
257.0596663426106
 30
0.0
 11
238.4391301761709
 21
252.1024420357415
 31
0.0
  0
LINE
  5
7E
330
1F
100
AcDbEntity
  8
0-4_寸法
  6
Continuous
 62
     7
370
     9
100
AcDbLine
 10
237.1864992150707
 20
-92.94039964134227
 30
0.0
 11
282.28427487055
 21
-92.94039964134227
 31
0.0
  0
LINE
  5
7F
330
1F
100
AcDbEntity
  8
0-4_寸法
  6
Continuous
 62
     7
370
     9
100
AcDbLine
 10
237.1864992150707
 20
257.0596663426106
 30
0.0
 11
282.28427487055
 21
257.0596663426106
 31
0.0
  0
TEXT
  5
80
330
1F
100
AcDbEntity
  8
0-4_寸法
  6
Continuous
 62
     2
370
   211
100
AcDbText
 10
234.6584992150707
 20
75.55963335063414
 30
0.0
 40
6.096
  1
350
 50
90.0
 41
1.083333333333333
  7
ＭＳ ゴシック
100
AcDbText
  0
TEXT
  5
81
330
1F
100
AcDbEntity
  8
0-4_寸法
  6
Continuous
 62
     2
370
   211
100
AcDbText
 10
160.4745571199377
 20
100.4808739701653
 30
0.0
 40
6.096
  1
14
 50
90.0
 41
1.0625
  7
ＭＳ ゴシック
100
AcDbText
  0
TEXT
  5
82
330
1F
100
AcDbEntity
  8
0-4_寸法
  6
Continuous
 62
     2
370
   211
100
AcDbText
 10
160.4745571199377
 20
162.8636792115711
 30
0.0
 40
6.096
  1
26.5
 50
90.0
 41
1.09375
  7
ＭＳ ゴシック
100
AcDbText
  0
LINE
  5
83
330
1F
100
AcDbEntity
  8
0-4_寸法
  6
Continuous
 62
     7
370
     9
100
AcDbLine
 10
163.6025571199377
 20
129.5596729152308
 30
0.0
 11
163.6025571199377
 21
98.65061894821932
 31
0.0
  0
LINE
  5
84
330
1F
100
AcDbEntity
  8
0-4_寸法
  6
Continuous
 62
     7
370
     9
100
AcDbLine
 10
163.6025571199377
 20
183.111780347932
 30
0.0
 11
163.6025571199377
 21
129.5596729152308
 31
0.0
  0
LWPOLYLINE
  5
85
330
1F
100
AcDbEntity
  8
0-4_寸法
  6
Continuous
 62
     7
370
     9
100
AcDbPolyline
 90
        4
 70
     1
 43
0.2
 10
163.7025571199377
 20
129.5596729152308
 42
0.4142135623731
 10
163.6025571199377
 20
129.6596729152308
 42
0.4142135623731
 10
163.5025571199377
 20
129.5596729152308
 42
0.4142135623731
 10
163.6025571199377
 20
129.4596729152308
 42
0.4142135623731
  0
LINE
  5
86
330
1F
100
AcDbEntity
  8
0-4_寸法
  6
Continuous
 62
     7
370
     9
100
AcDbLine
 10
286.28427487055
 20
-115.7878423356451
 30
0.0
 11
301.28427487055
 21
-115.7878423356451
 31
0.0
  0
LINE
  5
87
330
1F
100
AcDbEntity
  8
0-4_寸法
  6
Continuous
 62
     7
370
     9
100
AcDbLine
 10
286.28427487055
 20
-115.7878423356451
 30
0.0
 11
291.2414991774191
 21
-115.1352113745449
 31
0.0
  0
LINE
  5
88
330
1F
100
AcDbEntity
  8
0-4_寸法
  6
Continuous
 62
     7
370
     9
100
AcDbLine
 10
286.28427487055
 20
-115.7878423356451
 30
0.0
 11
291.2414991774191
 21
-116.4404732967454
 31
0.0
  0
LINE
  5
89
330
1F
100
AcDbEntity
  8
0-4_寸法
  6
Continuous
 62
     7
370
     9
100
AcDbLine
 10
301.28427487055
 20
-115.7878423356451
 30
0.0
 11
296.3270505636809
 21
-115.1352113745449
 31
0.0
  0
LINE
  5
8A
330
1F
100
AcDbEntity
  8
0-4_寸法
  6
Continuous
 62
     7
370
     9
100
AcDbLine
 10
301.28427487055
 20
-115.7878423356451
 30
0.0
 11
296.3270505636809
 21
-116.4404732967454
 31
0.0
  0
LINE
  5
8B
330
1F
100
AcDbEntity
  8
0-4_寸法
  6
Continuous
 62
     7
370
     9
100
AcDbLine
 10
286.28427487055
 20
-116.3878423356451
 30
0.0
 11
286.28427487055
 21
-96.94039964134227
 31
0.0
  0
LINE
  5
8C
330
1F
100
AcDbEntity
  8
0-4_寸法
  6
Continuous
 62
     7
370
     9
100
AcDbLine
 10
301.28427487055
 20
-116.3878423356451
 30
0.0
 11
301.28427487055
 21
-94.2954658892307
 31
0.0
  0
TEXT
  5
8D
330
1F
100
AcDbEntity
  8
0-4_寸法
  6
Continuous
 62
     2
370
   211
100
AcDbText
 10
289.53427487055
 20
-112.6598423356451
 30
0.0
 40
6.096
  1
15
 41
1.0625
  7
ＭＳ ゴシック
100
AcDbText
  0
LINE
  5
8E
330
1F
100
AcDbEntity
  8
0-0_通り芯
  6
Continuous
 62
     3
370
     9
100
AcDbLine
 10
-356.3069963727323
 20
257.0596663426106
 30
0.0
 11
143.693119099185
 21
257.0596663426106
 31
0.0
  0
LINE
  5
8F
330
1F
100
AcDbEntity
  8
0-0_通り芯
  6
Continuous
 62
     3
370
     9
100
AcDbLine
 10
143.693119099185
 20
-92.94039964134227
 30
0.0
 11
143.693119099185
 21
257.0596663426106
 31
0.0
  0
LINE
  5
90
330
1F
100
AcDbEntity
  8
0-0_通り芯
  6
Continuous
 62
     3
370
     9
100
AcDbLine
 10
-97.30698317594171
 20
89.05960695705305
 30
0.0
 11
-75.80693698717484
 21
89.05960695705305
 31
0.0
  0
LINE
  5
91
330
1F
100
AcDbEntity
  8
0-0_通り芯
  6
Continuous
 62
     3
370
     9
100
AcDbLine
 10
-99.30698977433697
 20
91.05966304341284
 30
0.0
 11
-99.30698977433697
 21
113.5597125313774
 31
0.0
  0
LINE
  5
92
330
1F
100
AcDbEntity
  8
0-0_通り芯
  6
Continuous
 62
     3
370
     9
100
AcDbLine
 10
-73.80693038877952
 20
91.05966304341284
 30
0.0
 11
-73.80693038877952
 21
113.5597125313774
 31
0.0
  0
LINE
  5
93
330
1F
100
AcDbEntity
  8
0-0_通り芯
  6
Continuous
 62
     3
370
     9
100
AcDbLine
 10
-97.30698317594171
 20
115.5596201538436
 30
0.0
 11
-75.80693698717484
 21
115.5596201538436
 31
0.0
  0
LINE
  5
94
330
1F
100
AcDbEntity
  8
0-0_通り芯
  6
Continuous
 62
     3
370
     9
100
AcDbLine
 10
-57.80697657754651
 20
115.5596201538436
 30
0.0
 11
-36.30693038877952
 21
115.5596201538436
 31
0.0
  0
LINE
  5
95
330
1F
100
AcDbEntity
  8
0-0_通り芯
  6
Continuous
 62
     3
370
     9
100
AcDbLine
 10
-34.30692379038432
 20
91.05966304341284
 30
0.0
 11
-34.30692379038432
 21
113.5597125313774
 31
0.0
  0
LINE
  5
96
330
1F
100
AcDbEntity
  8
0-0_通り芯
  6
Continuous
 62
     3
370
     9
100
AcDbLine
 10
-59.80698317594171
 20
91.05966304341284
 30
0.0
 11
-59.80698317594171
 21
113.5597125313774
 31
0.0
  0
LINE
  5
97
330
1F
100
AcDbEntity
  8
0-0_通り芯
  6
Continuous
 62
     3
370
     9
100
AcDbLine
 10
-57.80697657754651
 20
89.05960695705305
 30
0.0
 11
-36.30693038877952
 21
89.05960695705305
 31
0.0
  0
LINE
  5
98
330
1F
100
AcDbEntity
  8
0-0_通り芯
  6
Continuous
 62
     3
370
     9
100
AcDbLine
 10
-18.30696997915119
 20
89.05960695705305
 30
0.0
 11
3.193026721651208
 21
89.05960695705305
 31
0.0
  0
LINE
  5
99
330
1F
100
AcDbEntity
  8
0-0_通り芯
  6
Continuous
 62
     3
370
     9
100
AcDbLine
 10
-20.30697657754651
 20
91.05966304341284
 30
0.0
 11
-20.30697657754651
 21
113.5597125313774
 31
0.0
  0
LINE
  5
9A
330
1F
100
AcDbEntity
  8
0-0_通り芯
  6
Continuous
 62
     3
370
     9
100
AcDbLine
 10
5.193082808010999
 20
91.05966304341284
 30
0.0
 11
5.193082808010999
 21
113.5597125313774
 31
0.0
  0
LINE
  5
9B
330
1F
100
AcDbEntity
  8
0-0_通り芯
  6
Continuous
 62
     3
370
     9
100
AcDbLine
 10
-18.30696997915119
 20
115.5596201538436
 30
0.0
 11
3.193026721651208
 21
115.5596201538436
 31
0.0
  0
LINE
  5
9C
330
1F
100
AcDbEntity
  8
0-0_通り芯
  6
Continuous
 62
     3
370
     9
100
AcDbLine
 10
21.1930861072086
 20
115.5596201538436
 30
0.0
 11
42.69303332004641
 21
115.5596201538436
 31
0.0
  0
LINE
  5
9D
330
1F
100
AcDbEntity
  8
0-0_通り芯
  6
Continuous
 62
     3
370
     9
100
AcDbLine
 10
44.6930894064062
 20
91.05966304341284
 30
0.0
 11
44.6930894064062
 21
113.5597125313774
 31
0.0
  0
LINE
  5
9E
330
1F
100
AcDbEntity
  8
0-0_通り芯
  6
Continuous
 62
     3
370
     9
100
AcDbLine
 10
19.1930795088134
 20
91.05966304341284
 30
0.0
 11
19.1930795088134
 21
113.5597125313774
 31
0.0
  0
LINE
  5
9F
330
1F
100
AcDbEntity
  8
0-0_通り芯
  6
Continuous
 62
     3
370
     9
100
AcDbLine
 10
21.1930861072086
 20
89.05960695705305
 30
0.0
 11
42.69303332004641
 21
89.05960695705305
 31
0.0
  0
LINE
  5
A0
330
1F
100
AcDbEntity
  8
0-0_通り芯
  6
Continuous
 62
     3
370
     9
100
AcDbLine
 10
60.69309270560392
 20
89.05960695705305
 30
0.0
 11
82.19303991844173
 21
89.05960695705305
 31
0.0
  0
LINE
  5
A1
330
1F
100
AcDbEntity
  8
0-0_通り芯
  6
Continuous
 62
     3
370
     9
100
AcDbLine
 10
58.6930861072086
 20
91.05966304341284
 30
0.0
 11
58.6930861072086
 21
113.5597125313774
 31
0.0
  0
LINE
  5
A2
330
1F
100
AcDbEntity
  8
0-0_通り芯
  6
Continuous
 62
     3
370
     9
100
AcDbLine
 10
84.19304651683704
 20
91.05966304341284
 30
0.0
 11
84.19304651683704
 21
113.5597125313774
 31
0.0
  0
LINE
  5
A3
330
1F
100
AcDbEntity
  8
0-0_通り芯
  6
Continuous
 62
     3
370
     9
100
AcDbLine
 10
60.69309270560392
 20
115.5596201538436
 30
0.0
 11
82.19303991844173
 21
115.5596201538436
 31
0.0
  0
LINE
  5
A4
330
1F
100
AcDbEntity
  8
0-0_通り芯
  6
Continuous
 62
     3
370
     9
100
AcDbLine
 10
100.1930498160346
 20
115.5596201538436
 30
0.0
 11
121.6930465168371
 21
115.5596201538436
 31
0.0
  0
LINE
  5
A5
330
1F
100
AcDbEntity
  8
0-0_通り芯
  6
Continuous
 62
     3
370
     9
100
AcDbLine
 10
123.6930531152323
 20
91.05966304341284
 30
0.0
 11
123.6930531152323
 21
113.5597125313774
 31
0.0
  0
LINE
  5
A6
330
1F
100
AcDbEntity
  8
0-0_通り芯
  6
Continuous
 62
     3
370
     9
100
AcDbLine
 10
98.19309270560392
 20
91.05966304341284
 30
0.0
 11
98.19309270560392
 21
113.5597125313774
 31
0.0
  0
LINE
  5
A7
330
1F
100
AcDbEntity
  8
0-0_通り芯
  6
Continuous
 62
     3
370
     9
100
AcDbLine
 10
100.1930498160346
 20
89.05960695705305
 30
0.0
 11
121.6930465168371
 21
89.05960695705305
 31
0.0
  0
LINE
  5
A8
330
1F
100
AcDbEntity
  8
0-0_通り芯
  6
Continuous
 62
     3
370
     9
100
AcDbLine
 10
100.1930498160346
 20
129.5596663426105
 30
0.0
 11
121.6930465168371
 21
129.5596663426105
 31
0.0
  0
LINE
  5
A9
330
1F
100
AcDbEntity
  8
0-0_通り芯
  6
Continuous
 62
     3
370
     9
100
AcDbLine
 10
98.19309270560392
 20
131.5596729410058
 30
0.0
 11
98.19309270560392
 21
154.0596729410058
 31
0.0
  0
LINE
  5
AA
330
1F
100
AcDbEntity
  8
0-0_通り芯
  6
Continuous
 62
     3
370
     9
100
AcDbLine
 10
123.6930531152323
 20
131.5596729410058
 30
0.0
 11
123.6930531152323
 21
154.0596729410058
 31
0.0
  0
LINE
  5
AB
330
1F
100
AcDbEntity
  8
0-0_通り芯
  6
Continuous
 62
     3
370
     9
100
AcDbLine
 10
100.1930498160346
 20
156.0596795394011
 30
0.0
 11
121.6930465168371
 21
156.0596795394011
 31
0.0
  0
LINE
  5
AC
330
1F
100
AcDbEntity
  8
0-0_通り芯
  6
Continuous
 62
     3
370
     9
100
AcDbLine
 10
60.69309270560392
 20
156.0596795394011
 30
0.0
 11
82.19303991844173
 21
156.0596795394011
 31
0.0
  0
LINE
  5
AD
330
1F
100
AcDbEntity
  8
0-0_通り芯
  6
Continuous
 62
     3
370
     9
100
AcDbLine
 10
84.19304651683704
 20
131.5596729410058
 30
0.0
 11
84.19304651683704
 21
154.0596729410058
 31
0.0
  0
LINE
  5
AE
330
1F
100
AcDbEntity
  8
0-0_通り芯
  6
Continuous
 62
     3
370
     9
100
AcDbLine
 10
58.6930861072086
 20
131.5596729410058
 30
0.0
 11
58.6930861072086
 21
154.0596729410058
 31
0.0
  0
LINE
  5
AF
330
1F
100
AcDbEntity
  8
0-0_通り芯
  6
Continuous
 62
     3
370
     9
100
AcDbLine
 10
60.69309270560392
 20
129.5596663426105
 30
0.0
 11
82.19303991844173
 21
129.5596663426105
 31
0.0
  0
LINE
  5
B0
330
1F
100
AcDbEntity
  8
0-0_通り芯
  6
Continuous
 62
     3
370
     9
100
AcDbLine
 10
21.1930861072086
 20
129.5596663426105
 30
0.0
 11
42.69303332004641
 21
129.5596663426105
 31
0.0
  0
LINE
  5
B1
330
1F
100
AcDbEntity
  8
0-0_通り芯
  6
Continuous
 62
     3
370
     9
100
AcDbLine
 10
19.1930795088134
 20
131.5596729410058
 30
0.0
 11
19.1930795088134
 21
154.0596729410058
 31
0.0
  0
LINE
  5
B2
330
1F
100
AcDbEntity
  8
0-0_通り芯
  6
Continuous
 62
     3
370
     9
100
AcDbLine
 10
44.6930894064062
 20
131.5596729410058
 30
0.0
 11
44.6930894064062
 21
154.0596729410058
 31
0.0
  0
LINE
  5
B3
330
1F
100
AcDbEntity
  8
0-0_通り芯
  6
Continuous
 62
     3
370
     9
100
AcDbLine
 10
21.1930861072086
 20
156.0596795394011
 30
0.0
 11
42.69303332004641
 21
156.0596795394011
 31
0.0
  0
LINE
  5
B4
330
1F
100
AcDbEntity
  8
0-0_通り芯
  6
Continuous
 62
     3
370
     9
100
AcDbLine
 10
-18.30696997915119
 20
156.0596795394011
 30
0.0
 11
3.193026721651208
 21
156.0596795394011
 31
0.0
  0
LINE
  5
B5
330
1F
100
AcDbEntity
  8
0-0_通り芯
  6
Continuous
 62
     3
370
     9
100
AcDbLine
 10
5.193082808010999
 20
131.5596729410058
 30
0.0
 11
5.193082808010999
 21
154.0596729410058
 31
0.0
  0
LINE
  5
B6
330
1F
100
AcDbEntity
  8
0-0_通り芯
  6
Continuous
 62
     3
370
     9
100
AcDbLine
 10
-20.30697657754651
 20
131.5596729410058
 30
0.0
 11
-20.30697657754651
 21
154.0596729410058
 31
0.0
  0
LINE
  5
B7
330
1F
100
AcDbEntity
  8
0-0_通り芯
  6
Continuous
 62
     3
370
     9
100
AcDbLine
 10
-18.30696997915119
 20
129.5596663426105
 30
0.0
 11
3.193026721651208
 21
129.5596663426105
 31
0.0
  0
LINE
  5
B8
330
1F
100
AcDbEntity
  8
0-0_通り芯
  6
Continuous
 62
     3
370
     9
100
AcDbLine
 10
-57.80697657754651
 20
129.5596663426105
 30
0.0
 11
-36.30693038877952
 21
129.5596663426105
 31
0.0
  0
LINE
  5
B9
330
1F
100
AcDbEntity
  8
0-0_通り芯
  6
Continuous
 62
     3
370
     9
100
AcDbLine
 10
-59.80698317594171
 20
131.5596729410058
 30
0.0
 11
-59.80698317594171
 21
154.0596729410058
 31
0.0
  0
LINE
  5
BA
330
1F
100
AcDbEntity
  8
0-0_通り芯
  6
Continuous
 62
     3
370
     9
100
AcDbLine
 10
-34.30692379038432
 20
131.5596729410058
 30
0.0
 11
-34.30692379038432
 21
154.0596729410058
 31
0.0
  0
LINE
  5
BB
330
1F
100
AcDbEntity
  8
0-0_通り芯
  6
Continuous
 62
     3
370
     9
100
AcDbLine
 10
-57.80697657754651
 20
156.0596795394011
 30
0.0
 11
-36.30693038877952
 21
156.0596795394011
 31
0.0
  0
LINE
  5
BC
330
1F
100
AcDbEntity
  8
0-0_通り芯
  6
Continuous
 62
     3
370
     9
100
AcDbLine
 10
-97.30698317594171
 20
156.0596795394011
 30
0.0
 11
-75.80693698717484
 21
156.0596795394011
 31
0.0
  0
LINE
  5
BD
330
1F
100
AcDbEntity
  8
0-0_通り芯
  6
Continuous
 62
     3
370
     9
100
AcDbLine
 10
-73.80693038877952
 20
131.5596729410058
 30
0.0
 11
-73.80693038877952
 21
154.0596729410058
 31
0.0
  0
LINE
  5
BE
330
1F
100
AcDbEntity
  8
0-0_通り芯
  6
Continuous
 62
     3
370
     9
100
AcDbLine
 10
-99.30698977433697
 20
131.5596729410058
 30
0.0
 11
-99.30698977433697
 21
154.0596729410058
 31
0.0
  0
LINE
  5
BF
330
1F
100
AcDbEntity
  8
0-0_通り芯
  6
Continuous
 62
     3
370
     9
100
AcDbLine
 10
-97.30698317594171
 20
129.5596663426105
 30
0.0
 11
-75.80693698717484
 21
129.5596663426105
 31
0.0
  0
LINE
  5
C0
330
1F
100
AcDbEntity
  8
0-0_通り芯
  6
Continuous
 62
     3
370
     9
100
AcDbLine
 10
-97.30698317594171
 20
170.059725728168
 30
0.0
 11
-75.80693698717484
 21
170.059725728168
 31
0.0
  0
LINE
  5
C1
330
1F
100
AcDbEntity
  8
0-0_通り芯
  6
Continuous
 62
     3
370
     9
100
AcDbLine
 10
-99.30698977433697
 20
172.0596333506341
 30
0.0
 11
-99.30698977433697
 21
194.5596333506342
 31
0.0
  0
LINE
  5
C2
330
1F
100
AcDbEntity
  8
0-0_通り芯
  6
Continuous
 62
     3
370
     9
100
AcDbLine
 10
-73.80693038877952
 20
172.0596333506341
 30
0.0
 11
-73.80693038877952
 21
194.5596333506342
 31
0.0
  0
LINE
  5
C3
330
1F
100
AcDbEntity
  8
0-0_通り芯
  6
Continuous
 62
     3
370
     9
100
AcDbLine
 10
-97.30698317594171
 20
196.5596399490294
 30
0.0
 11
-75.80693698717484
 21
196.5596399490294
 31
0.0
  0
LINE
  5
C4
330
1F
100
AcDbEntity
  8
0-0_通り芯
  6
Continuous
 62
     3
370
     9
100
AcDbLine
 10
-57.80697657754651
 20
196.5596399490294
 30
0.0
 11
-36.30693038877952
 21
196.5596399490294
 31
0.0
  0
LINE
  5
C5
330
1F
100
AcDbEntity
  8
0-0_通り芯
  6
Continuous
 62
     3
370
     9
100
AcDbLine
 10
-34.30692379038432
 20
172.0596333506341
 30
0.0
 11
-34.30692379038432
 21
194.5596333506342
 31
0.0
  0
LINE
  5
C6
330
1F
100
AcDbEntity
  8
0-0_通り芯
  6
Continuous
 62
     3
370
     9
100
AcDbLine
 10
-59.80698317594171
 20
172.0596333506341
 30
0.0
 11
-59.80698317594171
 21
194.5596333506342
 31
0.0
  0
LINE
  5
C7
330
1F
100
AcDbEntity
  8
0-0_通り芯
  6
Continuous
 62
     3
370
     9
100
AcDbLine
 10
-57.80697657754651
 20
170.059725728168
 30
0.0
 11
-36.30693038877952
 21
170.059725728168
 31
0.0
  0
LINE
  5
C8
330
1F
100
AcDbEntity
  8
0-0_通り芯
  6
Continuous
 62
     3
370
     9
100
AcDbLine
 10
-18.30696997915119
 20
170.059725728168
 30
0.0
 11
3.193026721651208
 21
170.059725728168
 31
0.0
  0
LINE
  5
C9
330
1F
100
AcDbEntity
  8
0-0_通り芯
  6
Continuous
 62
     3
370
     9
100
AcDbLine
 10
-20.30697657754651
 20
172.0596333506341
 30
0.0
 11
-20.30697657754651
 21
194.5596333506342
 31
0.0
  0
LINE
  5
CA
330
1F
100
AcDbEntity
  8
0-0_通り芯
  6
Continuous
 62
     3
370
     9
100
AcDbLine
 10
5.193082808010999
 20
172.0596333506341
 30
0.0
 11
5.193082808010999
 21
194.5596333506342
 31
0.0
  0
LINE
  5
CB
330
1F
100
AcDbEntity
  8
0-0_通り芯
  6
Continuous
 62
     3
370
     9
100
AcDbLine
 10
-18.30696997915119
 20
196.5596399490294
 30
0.0
 11
3.193026721651208
 21
196.5596399490294
 31
0.0
  0
LINE
  5
CC
330
1F
100
AcDbEntity
  8
0-0_通り芯
  6
Continuous
 62
     3
370
     9
100
AcDbLine
 10
21.1930861072086
 20
196.5596399490294
 30
0.0
 11
42.69303332004641
 21
196.5596399490294
 31
0.0
  0
LINE
  5
CD
330
1F
100
AcDbEntity
  8
0-0_通り芯
  6
Continuous
 62
     3
370
     9
100
AcDbLine
 10
44.6930894064062
 20
172.0596333506341
 30
0.0
 11
44.6930894064062
 21
194.5596333506342
 31
0.0
  0
LINE
  5
CE
330
1F
100
AcDbEntity
  8
0-0_通り芯
  6
Continuous
 62
     3
370
     9
100
AcDbLine
 10
19.1930795088134
 20
172.0596333506341
 30
0.0
 11
19.1930795088134
 21
194.5596333506342
 31
0.0
  0
LINE
  5
CF
330
1F
100
AcDbEntity
  8
0-0_通り芯
  6
Continuous
 62
     3
370
     9
100
AcDbLine
 10
21.1930861072086
 20
170.059725728168
 30
0.0
 11
42.69303332004641
 21
170.059725728168
 31
0.0
  0
LINE
  5
D0
330
1F
100
AcDbEntity
  8
0-0_通り芯
  6
Continuous
 62
     3
370
     9
100
AcDbLine
 10
60.69309270560392
 20
170.059725728168
 30
0.0
 11
82.19303991844173
 21
170.059725728168
 31
0.0
  0
LINE
  5
D1
330
1F
100
AcDbEntity
  8
0-0_通り芯
  6
Continuous
 62
     3
370
     9
100
AcDbLine
 10
58.6930861072086
 20
172.0596333506341
 30
0.0
 11
58.6930861072086
 21
194.5596333506342
 31
0.0
  0
LINE
  5
D2
330
1F
100
AcDbEntity
  8
0-0_通り芯
  6
Continuous
 62
     3
370
     9
100
AcDbLine
 10
84.19304651683704
 20
172.0596333506341
 30
0.0
 11
84.19304651683704
 21
194.5596333506342
 31
0.0
  0
LINE
  5
D3
330
1F
100
AcDbEntity
  8
0-0_通り芯
  6
Continuous
 62
     3
370
     9
100
AcDbLine
 10
60.69309270560392
 20
196.5596399490294
 30
0.0
 11
82.19303991844173
 21
196.5596399490294
 31
0.0
  0
LINE
  5
D4
330
1F
100
AcDbEntity
  8
0-0_通り芯
  6
Continuous
 62
     3
370
     9
100
AcDbLine
 10
100.1930498160346
 20
196.5596399490294
 30
0.0
 11
121.6930465168371
 21
196.5596399490294
 31
0.0
  0
LINE
  5
D5
330
1F
100
AcDbEntity
  8
0-0_通り芯
  6
Continuous
 62
     3
370
     9
100
AcDbLine
 10
123.6930531152323
 20
172.0596333506341
 30
0.0
 11
123.6930531152323
 21
194.5596333506342
 31
0.0
  0
LINE
  5
D6
330
1F
100
AcDbEntity
  8
0-0_通り芯
  6
Continuous
 62
     3
370
     9
100
AcDbLine
 10
98.19309270560392
 20
172.0596333506341
 30
0.0
 11
98.19309270560392
 21
194.5596333506342
 31
0.0
  0
LINE
  5
D7
330
1F
100
AcDbEntity
  8
0-0_通り芯
  6
Continuous
 62
     3
370
     9
100
AcDbLine
 10
100.1930498160346
 20
170.059725728168
 30
0.0
 11
121.6930465168371
 21
170.059725728168
 31
0.0
  0
LINE
  5
D8
330
1F
100
AcDbEntity
  8
0-0_通り芯
  6
Continuous
 62
     3
370
     9
100
AcDbLine
 10
100.1930498160346
 20
210.5596861377963
 30
0.0
 11
121.6930465168371
 21
210.5596861377963
 31
0.0
  0
LINE
  5
D9
330
1F
100
AcDbEntity
  8
0-0_通り芯
  6
Continuous
 62
     3
370
     9
100
AcDbLine
 10
98.19309270560392
 20
212.5595937602625
 30
0.0
 11
98.19309270560392
 21
235.0595937602625
 31
0.0
  0
LINE
  5
DA
330
1F
100
AcDbEntity
  8
0-0_通り芯
  6
Continuous
 62
     3
370
     9
100
AcDbLine
 10
123.6930531152323
 20
212.5595937602625
 30
0.0
 11
123.6930531152323
 21
235.0595937602625
 31
0.0
  0
LINE
  5
DB
330
1F
100
AcDbEntity
  8
0-0_通り芯
  6
Continuous
 62
     3
370
     9
100
AcDbLine
 10
100.1930498160346
 20
237.0596993345868
 30
0.0
 11
121.6930465168371
 21
237.0596993345868
 31
0.0
  0
LINE
  5
DC
330
1F
100
AcDbEntity
  8
0-0_通り芯
  6
Continuous
 62
     3
370
     9
100
AcDbLine
 10
60.69309270560392
 20
237.0596993345868
 30
0.0
 11
82.19303991844173
 21
237.0596993345868
 31
0.0
  0
LINE
  5
DD
330
1F
100
AcDbEntity
  8
0-0_通り芯
  6
Continuous
 62
     3
370
     9
100
AcDbLine
 10
84.19304651683704
 20
212.5595937602625
 30
0.0
 11
84.19304651683704
 21
235.0595937602625
 31
0.0
  0
LINE
  5
DE
330
1F
100
AcDbEntity
  8
0-0_通り芯
  6
Continuous
 62
     3
370
     9
100
AcDbLine
 10
58.6930861072086
 20
212.5595937602625
 30
0.0
 11
58.6930861072086
 21
235.0595937602625
 31
0.0
  0
LINE
  5
DF
330
1F
100
AcDbEntity
  8
0-0_通り芯
  6
Continuous
 62
     3
370
     9
100
AcDbLine
 10
60.69309270560392
 20
210.5596861377963
 30
0.0
 11
82.19303991844173
 21
210.5596861377963
 31
0.0
  0
LINE
  5
E0
330
1F
100
AcDbEntity
  8
0-0_通り芯
  6
Continuous
 62
     3
370
     9
100
AcDbLine
 10
21.1930861072086
 20
210.5596861377963
 30
0.0
 11
42.69303332004641
 21
210.5596861377963
 31
0.0
  0
LINE
  5
E1
330
1F
100
AcDbEntity
  8
0-0_通り芯
  6
Continuous
 62
     3
370
     9
100
AcDbLine
 10
19.1930795088134
 20
212.5595937602625
 30
0.0
 11
19.1930795088134
 21
235.0595937602625
 31
0.0
  0
LINE
  5
E2
330
1F
100
AcDbEntity
  8
0-0_通り芯
  6
Continuous
 62
     3
370
     9
100
AcDbLine
 10
44.6930894064062
 20
212.5595937602625
 30
0.0
 11
44.6930894064062
 21
235.0595937602625
 31
0.0
  0
LINE
  5
E3
330
1F
100
AcDbEntity
  8
0-0_通り芯
  6
Continuous
 62
     3
370
     9
100
AcDbLine
 10
21.1930861072086
 20
237.0596993345868
 30
0.0
 11
42.69303332004641
 21
237.0596993345868
 31
0.0
  0
LINE
  5
E4
330
1F
100
AcDbEntity
  8
0-0_通り芯
  6
Continuous
 62
     3
370
     9
100
AcDbLine
 10
-18.30696997915119
 20
237.0596993345868
 30
0.0
 11
3.193026721651208
 21
237.0596993345868
 31
0.0
  0
LINE
  5
E5
330
1F
100
AcDbEntity
  8
0-0_通り芯
  6
Continuous
 62
     3
370
     9
100
AcDbLine
 10
5.193082808010999
 20
212.5595937602625
 30
0.0
 11
5.193082808010999
 21
235.0595937602625
 31
0.0
  0
LINE
  5
E6
330
1F
100
AcDbEntity
  8
0-0_通り芯
  6
Continuous
 62
     3
370
     9
100
AcDbLine
 10
-20.30697657754651
 20
212.5595937602625
 30
0.0
 11
-20.30697657754651
 21
235.0595937602625
 31
0.0
  0
LINE
  5
E7
330
1F
100
AcDbEntity
  8
0-0_通り芯
  6
Continuous
 62
     3
370
     9
100
AcDbLine
 10
-18.30696997915119
 20
210.5596861377963
 30
0.0
 11
3.193026721651208
 21
210.5596861377963
 31
0.0
  0
LINE
  5
E8
330
1F
100
AcDbEntity
  8
0-0_通り芯
  6
Continuous
 62
     3
370
     9
100
AcDbLine
 10
-57.80697657754651
 20
210.5596861377963
 30
0.0
 11
-36.30693038877952
 21
210.5596861377963
 31
0.0
  0
LINE
  5
E9
330
1F
100
AcDbEntity
  8
0-0_通り芯
  6
Continuous
 62
     3
370
     9
100
AcDbLine
 10
-59.80698317594171
 20
212.5595937602625
 30
0.0
 11
-59.80698317594171
 21
235.0595937602625
 31
0.0
  0
LINE
  5
EA
330
1F
100
AcDbEntity
  8
0-0_通り芯
  6
Continuous
 62
     3
370
     9
100
AcDbLine
 10
-34.30692379038432
 20
212.5595937602625
 30
0.0
 11
-34.30692379038432
 21
235.0595937602625
 31
0.0
  0
LINE
  5
EB
330
1F
100
AcDbEntity
  8
0-0_通り芯
  6
Continuous
 62
     3
370
     9
100
AcDbLine
 10
-57.80697657754651
 20
237.0596993345868
 30
0.0
 11
-36.30693038877952
 21
237.0596993345868
 31
0.0
  0
LINE
  5
EC
330
1F
100
AcDbEntity
  8
0-0_通り芯
  6
Continuous
 62
     3
370
     9
100
AcDbLine
 10
-97.30698317594171
 20
237.0596993345868
 30
0.0
 11
-75.80693698717484
 21
237.0596993345868
 31
0.0
  0
LINE
  5
ED
330
1F
100
AcDbEntity
  8
0-0_通り芯
  6
Continuous
 62
     3
370
     9
100
AcDbLine
 10
-73.80693038877952
 20
212.5595937602625
 30
0.0
 11
-73.80693038877952
 21
235.0595937602625
 31
0.0
  0
LINE
  5
EE
330
1F
100
AcDbEntity
  8
0-0_通り芯
  6
Continuous
 62
     3
370
     9
100
AcDbLine
 10
-99.30698977433697
 20
212.5595937602625
 30
0.0
 11
-99.30698977433697
 21
235.0595937602625
 31
0.0
  0
LINE
  5
EF
330
1F
100
AcDbEntity
  8
0-0_通り芯
  6
Continuous
 62
     3
370
     9
100
AcDbLine
 10
-97.30698317594171
 20
210.5596861377963
 30
0.0
 11
-75.80693698717484
 21
210.5596861377963
 31
0.0
  0
LINE
  5
F0
330
1F
100
AcDbEntity
  8
0-0_通り芯
  6
Continuous
 62
     3
370
     9
100
AcDbLine
 10
-97.30698317594171
 20
-46.44036994856351
 30
0.0
 11
-75.80693698717484
 21
-46.44036994856351
 31
0.0
  0
LINE
  5
F1
330
1F
100
AcDbEntity
  8
0-0_通り芯
  6
Continuous
 62
     3
370
     9
100
AcDbLine
 10
-99.30698977433697
 20
-48.44032705899424
 30
0.0
 11
-99.30698977433697
 21
-70.94032705899424
 31
0.0
  0
LINE
  5
F2
330
1F
100
AcDbEntity
  8
0-0_通り芯
  6
Continuous
 62
     3
370
     9
100
AcDbLine
 10
-73.80693038877952
 20
-48.44032705899424
 30
0.0
 11
-73.80693038877952
 21
-70.94032705899424
 31
0.0
  0
LINE
  5
F3
330
1F
100
AcDbEntity
  8
0-0_通り芯
  6
Continuous
 62
     3
370
     9
100
AcDbLine
 10
-97.30698317594171
 20
-72.94033365738956
 30
0.0
 11
-75.80693698717484
 21
-72.94033365738956
 31
0.0
  0
LINE
  5
F4
330
1F
100
AcDbEntity
  8
0-0_通り芯
  6
Continuous
 62
     3
370
     9
100
AcDbLine
 10
-57.80697657754651
 20
-72.94033365738956
 30
0.0
 11
-36.30693038877952
 21
-72.94033365738956
 31
0.0
  0
LINE
  5
F5
330
1F
100
AcDbEntity
  8
0-0_通り芯
  6
Continuous
 62
     3
370
     9
100
AcDbLine
 10
-34.30692379038432
 20
-48.44032705899424
 30
0.0
 11
-34.30692379038432
 21
-70.94032705899424
 31
0.0
  0
LINE
  5
F6
330
1F
100
AcDbEntity
  8
0-0_通り芯
  6
Continuous
 62
     3
370
     9
100
AcDbLine
 10
-59.80698317594171
 20
-48.44032705899424
 30
0.0
 11
-59.80698317594171
 21
-70.94032705899424
 31
0.0
  0
LINE
  5
F7
330
1F
100
AcDbEntity
  8
0-0_通り芯
  6
Continuous
 62
     3
370
     9
100
AcDbLine
 10
-57.80697657754651
 20
-46.44036994856351
 30
0.0
 11
-36.30693038877952
 21
-46.44036994856351
 31
0.0
  0
LINE
  5
F8
330
1F
100
AcDbEntity
  8
0-0_通り芯
  6
Continuous
 62
     3
370
     9
100
AcDbLine
 10
-18.30696997915119
 20
-46.44036994856351
 30
0.0
 11
3.193026721651208
 21
-46.44036994856351
 31
0.0
  0
LINE
  5
F9
330
1F
100
AcDbEntity
  8
0-0_通り芯
  6
Continuous
 62
     3
370
     9
100
AcDbLine
 10
-20.30697657754651
 20
-48.44032705899424
 30
0.0
 11
-20.30697657754651
 21
-70.94032705899424
 31
0.0
  0
LINE
  5
FA
330
1F
100
AcDbEntity
  8
0-0_通り芯
  6
Continuous
 62
     3
370
     9
100
AcDbLine
 10
5.193082808010999
 20
-48.44032705899424
 30
0.0
 11
5.193082808010999
 21
-70.94032705899424
 31
0.0
  0
LINE
  5
FB
330
1F
100
AcDbEntity
  8
0-0_通り芯
  6
Continuous
 62
     3
370
     9
100
AcDbLine
 10
-18.30696997915119
 20
-72.94033365738956
 30
0.0
 11
3.193026721651208
 21
-72.94033365738956
 31
0.0
  0
LINE
  5
FC
330
1F
100
AcDbEntity
  8
0-0_通り芯
  6
Continuous
 62
     3
370
     9
100
AcDbLine
 10
21.1930861072086
 20
-72.94033365738956
 30
0.0
 11
42.69303332004641
 21
-72.94033365738956
 31
0.0
  0
LINE
  5
FD
330
1F
100
AcDbEntity
  8
0-0_通り芯
  6
Continuous
 62
     3
370
     9
100
AcDbLine
 10
44.6930894064062
 20
-48.44032705899424
 30
0.0
 11
44.6930894064062
 21
-70.94032705899424
 31
0.0
  0
LINE
  5
FE
330
1F
100
AcDbEntity
  8
0-0_通り芯
  6
Continuous
 62
     3
370
     9
100
AcDbLine
 10
19.1930795088134
 20
-48.44032705899424
 30
0.0
 11
19.1930795088134
 21
-70.94032705899424
 31
0.0
  0
LINE
  5
FF
330
1F
100
AcDbEntity
  8
0-0_通り芯
  6
Continuous
 62
     3
370
     9
100
AcDbLine
 10
21.1930861072086
 20
-46.44036994856351
 30
0.0
 11
42.69303332004641
 21
-46.44036994856351
 31
0.0
  0
LINE
  5
100
330
1F
100
AcDbEntity
  8
0-0_通り芯
  6
Continuous
 62
     3
370
     9
100
AcDbLine
 10
60.69309270560392
 20
-46.44036994856351
 30
0.0
 11
82.19303991844173
 21
-46.44036994856351
 31
0.0
  0
LINE
  5
101
330
1F
100
AcDbEntity
  8
0-0_通り芯
  6
Continuous
 62
     3
370
     9
100
AcDbLine
 10
58.6930861072086
 20
-48.44032705899424
 30
0.0
 11
58.6930861072086
 21
-70.94032705899424
 31
0.0
  0
LINE
  5
102
330
1F
100
AcDbEntity
  8
0-0_通り芯
  6
Continuous
 62
     3
370
     9
100
AcDbLine
 10
84.19304651683704
 20
-48.44032705899424
 30
0.0
 11
84.19304651683704
 21
-70.94032705899424
 31
0.0
  0
LINE
  5
103
330
1F
100
AcDbEntity
  8
0-0_通り芯
  6
Continuous
 62
     3
370
     9
100
AcDbLine
 10
60.69309270560392
 20
-72.94033365738956
 30
0.0
 11
82.19303991844173
 21
-72.94033365738956
 31
0.0
  0
LINE
  5
104
330
1F
100
AcDbEntity
  8
0-0_通り芯
  6
Continuous
 62
     3
370
     9
100
AcDbLine
 10
100.1930498160346
 20
-72.94033365738956
 30
0.0
 11
121.6930465168371
 21
-72.94033365738956
 31
0.0
  0
LINE
  5
105
330
1F
100
AcDbEntity
  8
0-0_通り芯
  6
Continuous
 62
     3
370
     9
100
AcDbLine
 10
123.6930531152323
 20
-48.44032705899424
 30
0.0
 11
123.6930531152323
 21
-70.94032705899424
 31
0.0
  0
LINE
  5
106
330
1F
100
AcDbEntity
  8
0-0_通り芯
  6
Continuous
 62
     3
370
     9
100
AcDbLine
 10
98.19309270560392
 20
-48.44032705899424
 30
0.0
 11
98.19309270560392
 21
-70.94032705899424
 31
0.0
  0
LINE
  5
107
330
1F
100
AcDbEntity
  8
0-0_通り芯
  6
Continuous
 62
     3
370
     9
100
AcDbLine
 10
100.1930498160346
 20
-46.44036994856351
 30
0.0
 11
121.6930465168371
 21
-46.44036994856351
 31
0.0
  0
LINE
  5
108
330
1F
100
AcDbEntity
  8
0-0_通り芯
  6
Continuous
 62
     3
370
     9
100
AcDbLine
 10
100.1930498160346
 20
-5.940360050970597
 30
0.0
 11
121.6930465168371
 21
-5.940360050970597
 31
0.0
  0
LINE
  5
109
330
1F
100
AcDbEntity
  8
0-0_通り芯
  6
Continuous
 62
     3
370
     9
100
AcDbLine
 10
98.19309270560392
 20
-7.940366649365913
 30
0.0
 11
98.19309270560392
 21
-30.44036664936591
 31
0.0
  0
LINE
  5
10A
330
1F
100
AcDbEntity
  8
0-0_通り芯
  6
Continuous
 62
     3
370
     9
100
AcDbLine
 10
123.6930531152323
 20
-7.940366649365913
 30
0.0
 11
123.6930531152323
 21
-30.44036664936591
 31
0.0
  0
LINE
  5
10B
330
1F
100
AcDbEntity
  8
0-0_通り芯
  6
Continuous
 62
     3
370
     9
100
AcDbLine
 10
100.1930498160346
 20
-32.44037324776112
 30
0.0
 11
121.6930465168371
 21
-32.44037324776112
 31
0.0
  0
LINE
  5
10C
330
1F
100
AcDbEntity
  8
0-0_通り芯
  6
Continuous
 62
     3
370
     9
100
AcDbLine
 10
60.69309270560392
 20
-32.44037324776112
 30
0.0
 11
82.19303991844173
 21
-32.44037324776112
 31
0.0
  0
LINE
  5
10D
330
1F
100
AcDbEntity
  8
0-0_通り芯
  6
Continuous
 62
     3
370
     9
100
AcDbLine
 10
84.19304651683704
 20
-7.940366649365913
 30
0.0
 11
84.19304651683704
 21
-30.44036664936591
 31
0.0
  0
LINE
  5
10E
330
1F
100
AcDbEntity
  8
0-0_通り芯
  6
Continuous
 62
     3
370
     9
100
AcDbLine
 10
58.6930861072086
 20
-7.940366649365913
 30
0.0
 11
58.6930861072086
 21
-30.44036664936591
 31
0.0
  0
LINE
  5
10F
330
1F
100
AcDbEntity
  8
0-0_通り芯
  6
Continuous
 62
     3
370
     9
100
AcDbLine
 10
60.69309270560392
 20
-5.940360050970597
 30
0.0
 11
82.19303991844173
 21
-5.940360050970597
 31
0.0
  0
LINE
  5
110
330
1F
100
AcDbEntity
  8
0-0_通り芯
  6
Continuous
 62
     3
370
     9
100
AcDbLine
 10
21.1930861072086
 20
-5.940360050970597
 30
0.0
 11
42.69303332004641
 21
-5.940360050970597
 31
0.0
  0
LINE
  5
111
330
1F
100
AcDbEntity
  8
0-0_通り芯
  6
Continuous
 62
     3
370
     9
100
AcDbLine
 10
19.1930795088134
 20
-7.940366649365913
 30
0.0
 11
19.1930795088134
 21
-30.44036664936591
 31
0.0
  0
LINE
  5
112
330
1F
100
AcDbEntity
  8
0-0_通り芯
  6
Continuous
 62
     3
370
     9
100
AcDbLine
 10
44.6930894064062
 20
-7.940366649365913
 30
0.0
 11
44.6930894064062
 21
-30.44036664936591
 31
0.0
  0
LINE
  5
113
330
1F
100
AcDbEntity
  8
0-0_通り芯
  6
Continuous
 62
     3
370
     9
100
AcDbLine
 10
21.1930861072086
 20
-32.44037324776112
 30
0.0
 11
42.69303332004641
 21
-32.44037324776112
 31
0.0
  0
LINE
  5
114
330
1F
100
AcDbEntity
  8
0-0_通り芯
  6
Continuous
 62
     3
370
     9
100
AcDbLine
 10
-18.30696997915119
 20
-32.44037324776112
 30
0.0
 11
3.193026721651208
 21
-32.44037324776112
 31
0.0
  0
LINE
  5
115
330
1F
100
AcDbEntity
  8
0-0_通り芯
  6
Continuous
 62
     3
370
     9
100
AcDbLine
 10
5.193082808010999
 20
-7.940366649365913
 30
0.0
 11
5.193082808010999
 21
-30.44036664936591
 31
0.0
  0
LINE
  5
116
330
1F
100
AcDbEntity
  8
0-0_通り芯
  6
Continuous
 62
     3
370
     9
100
AcDbLine
 10
-20.30697657754651
 20
-7.940366649365913
 30
0.0
 11
-20.30697657754651
 21
-30.44036664936591
 31
0.0
  0
LINE
  5
117
330
1F
100
AcDbEntity
  8
0-0_通り芯
  6
Continuous
 62
     3
370
     9
100
AcDbLine
 10
-18.30696997915119
 20
-5.940360050970597
 30
0.0
 11
3.193026721651208
 21
-5.940360050970597
 31
0.0
  0
LINE
  5
118
330
1F
100
AcDbEntity
  8
0-0_通り芯
  6
Continuous
 62
     3
370
     9
100
AcDbLine
 10
-57.80697657754651
 20
-5.940360050970597
 30
0.0
 11
-36.30693038877952
 21
-5.940360050970597
 31
0.0
  0
LINE
  5
119
330
1F
100
AcDbEntity
  8
0-0_通り芯
  6
Continuous
 62
     3
370
     9
100
AcDbLine
 10
-59.80698317594171
 20
-7.940366649365913
 30
0.0
 11
-59.80698317594171
 21
-30.44036664936591
 31
0.0
  0
LINE
  5
11A
330
1F
100
AcDbEntity
  8
0-0_通り芯
  6
Continuous
 62
     3
370
     9
100
AcDbLine
 10
-34.30692379038432
 20
-7.940366649365913
 30
0.0
 11
-34.30692379038432
 21
-30.44036664936591
 31
0.0
  0
LINE
  5
11B
330
1F
100
AcDbEntity
  8
0-0_通り芯
  6
Continuous
 62
     3
370
     9
100
AcDbLine
 10
-57.80697657754651
 20
-32.44037324776112
 30
0.0
 11
-36.30693038877952
 21
-32.44037324776112
 31
0.0
  0
LINE
  5
11C
330
1F
100
AcDbEntity
  8
0-0_通り芯
  6
Continuous
 62
     3
370
     9
100
AcDbLine
 10
-97.30698317594171
 20
-32.44037324776112
 30
0.0
 11
-75.80693698717484
 21
-32.44037324776112
 31
0.0
  0
LINE
  5
11D
330
1F
100
AcDbEntity
  8
0-0_通り芯
  6
Continuous
 62
     3
370
     9
100
AcDbLine
 10
-73.80693038877952
 20
-7.940366649365913
 30
0.0
 11
-73.80693038877952
 21
-30.44036664936591
 31
0.0
  0
LINE
  5
11E
330
1F
100
AcDbEntity
  8
0-0_通り芯
  6
Continuous
 62
     3
370
     9
100
AcDbLine
 10
-99.30698977433697
 20
-7.940366649365913
 30
0.0
 11
-99.30698977433697
 21
-30.44036664936591
 31
0.0
  0
LINE
  5
11F
330
1F
100
AcDbEntity
  8
0-0_通り芯
  6
Continuous
 62
     3
370
     9
100
AcDbLine
 10
-97.30698317594171
 20
-5.940360050970597
 30
0.0
 11
-75.80693698717484
 21
-5.940360050970597
 31
0.0
  0
LINE
  5
120
330
1F
100
AcDbEntity
  8
0-0_通り芯
  6
Continuous
 62
     3
370
     9
100
AcDbLine
 10
-97.30698317594171
 20
34.55964984662232
 30
0.0
 11
-75.80693698717484
 21
34.55964984662232
 31
0.0
  0
LINE
  5
121
330
1F
100
AcDbEntity
  8
0-0_通り芯
  6
Continuous
 62
     3
370
     9
100
AcDbLine
 10
-99.30698977433697
 20
32.55969273619159
 30
0.0
 11
-99.30698977433697
 21
10.05969273619159
 31
0.0
  0
LINE
  5
122
330
1F
100
AcDbEntity
  8
0-0_通り芯
  6
Continuous
 62
     3
370
     9
100
AcDbLine
 10
-73.80693038877952
 20
32.55969273619159
 30
0.0
 11
-73.80693038877952
 21
10.05969273619159
 31
0.0
  0
LINE
  5
123
330
1F
100
AcDbEntity
  8
0-0_通り芯
  6
Continuous
 62
     3
370
     9
100
AcDbLine
 10
-97.30698317594171
 20
8.059686137796277
 30
0.0
 11
-75.80693698717484
 21
8.059686137796277
 31
0.0
  0
LINE
  5
124
330
1F
100
AcDbEntity
  8
0-0_通り芯
  6
Continuous
 62
     3
370
     9
100
AcDbLine
 10
-57.80697657754651
 20
8.059686137796277
 30
0.0
 11
-36.30693038877952
 21
8.059686137796277
 31
0.0
  0
LINE
  5
125
330
1F
100
AcDbEntity
  8
0-0_通り芯
  6
Continuous
 62
     3
370
     9
100
AcDbLine
 10
-34.30692379038432
 20
32.55969273619159
 30
0.0
 11
-34.30692379038432
 21
10.05969273619159
 31
0.0
  0
LINE
  5
126
330
1F
100
AcDbEntity
  8
0-0_通り芯
  6
Continuous
 62
     3
370
     9
100
AcDbLine
 10
-59.80698317594171
 20
32.55969273619159
 30
0.0
 11
-59.80698317594171
 21
10.05969273619159
 31
0.0
  0
LINE
  5
127
330
1F
100
AcDbEntity
  8
0-0_通り芯
  6
Continuous
 62
     3
370
     9
100
AcDbLine
 10
-57.80697657754651
 20
34.55964984662232
 30
0.0
 11
-36.30693038877952
 21
34.55964984662232
 31
0.0
  0
LINE
  5
128
330
1F
100
AcDbEntity
  8
0-0_通り芯
  6
Continuous
 62
     3
370
     9
100
AcDbLine
 10
-18.30696997915119
 20
34.55964984662232
 30
0.0
 11
3.193026721651208
 21
34.55964984662232
 31
0.0
  0
LINE
  5
129
330
1F
100
AcDbEntity
  8
0-0_通り芯
  6
Continuous
 62
     3
370
     9
100
AcDbLine
 10
-20.30697657754651
 20
32.55969273619159
 30
0.0
 11
-20.30697657754651
 21
10.05969273619159
 31
0.0
  0
LINE
  5
12A
330
1F
100
AcDbEntity
  8
0-0_通り芯
  6
Continuous
 62
     3
370
     9
100
AcDbLine
 10
5.193082808010999
 20
32.55969273619159
 30
0.0
 11
5.193082808010999
 21
10.05969273619159
 31
0.0
  0
LINE
  5
12B
330
1F
100
AcDbEntity
  8
0-0_通り芯
  6
Continuous
 62
     3
370
     9
100
AcDbLine
 10
-18.30696997915119
 20
8.059686137796277
 30
0.0
 11
3.193026721651208
 21
8.059686137796277
 31
0.0
  0
LINE
  5
12C
330
1F
100
AcDbEntity
  8
0-0_通り芯
  6
Continuous
 62
     3
370
     9
100
AcDbLine
 10
21.1930861072086
 20
8.059686137796277
 30
0.0
 11
42.69303332004641
 21
8.059686137796277
 31
0.0
  0
LINE
  5
12D
330
1F
100
AcDbEntity
  8
0-0_通り芯
  6
Continuous
 62
     3
370
     9
100
AcDbLine
 10
44.6930894064062
 20
32.55969273619159
 30
0.0
 11
44.6930894064062
 21
10.05969273619159
 31
0.0
  0
LINE
  5
12E
330
1F
100
AcDbEntity
  8
0-0_通り芯
  6
Continuous
 62
     3
370
     9
100
AcDbLine
 10
19.1930795088134
 20
32.55969273619159
 30
0.0
 11
19.1930795088134
 21
10.05969273619159
 31
0.0
  0
LINE
  5
12F
330
1F
100
AcDbEntity
  8
0-0_通り芯
  6
Continuous
 62
     3
370
     9
100
AcDbLine
 10
21.1930861072086
 20
34.55964984662232
 30
0.0
 11
42.69303332004641
 21
34.55964984662232
 31
0.0
  0
LINE
  5
130
330
1F
100
AcDbEntity
  8
0-0_通り芯
  6
Continuous
 62
     3
370
     9
100
AcDbLine
 10
60.69309270560392
 20
34.55964984662232
 30
0.0
 11
82.19303991844173
 21
34.55964984662232
 31
0.0
  0
LINE
  5
131
330
1F
100
AcDbEntity
  8
0-0_通り芯
  6
Continuous
 62
     3
370
     9
100
AcDbLine
 10
58.6930861072086
 20
32.55969273619159
 30
0.0
 11
58.6930861072086
 21
10.05969273619159
 31
0.0
  0
LINE
  5
132
330
1F
100
AcDbEntity
  8
0-0_通り芯
  6
Continuous
 62
     3
370
     9
100
AcDbLine
 10
84.19304651683704
 20
32.55969273619159
 30
0.0
 11
84.19304651683704
 21
10.05969273619159
 31
0.0
  0
LINE
  5
133
330
1F
100
AcDbEntity
  8
0-0_通り芯
  6
Continuous
 62
     3
370
     9
100
AcDbLine
 10
60.69309270560392
 20
8.059686137796277
 30
0.0
 11
82.19303991844173
 21
8.059686137796277
 31
0.0
  0
LINE
  5
134
330
1F
100
AcDbEntity
  8
0-0_通り芯
  6
Continuous
 62
     3
370
     9
100
AcDbLine
 10
100.1930498160346
 20
8.059686137796277
 30
0.0
 11
121.6930465168371
 21
8.059686137796277
 31
0.0
  0
LINE
  5
135
330
1F
100
AcDbEntity
  8
0-0_通り芯
  6
Continuous
 62
     3
370
     9
100
AcDbLine
 10
123.6930531152323
 20
32.55969273619159
 30
0.0
 11
123.6930531152323
 21
10.05969273619159
 31
0.0
  0
LINE
  5
136
330
1F
100
AcDbEntity
  8
0-0_通り芯
  6
Continuous
 62
     3
370
     9
100
AcDbLine
 10
98.19309270560392
 20
32.55969273619159
 30
0.0
 11
98.19309270560392
 21
10.05969273619159
 31
0.0
  0
LINE
  5
137
330
1F
100
AcDbEntity
  8
0-0_通り芯
  6
Continuous
 62
     3
370
     9
100
AcDbLine
 10
100.1930498160346
 20
34.55964984662232
 30
0.0
 11
121.6930465168371
 21
34.55964984662232
 31
0.0
  0
LINE
  5
138
330
1F
100
AcDbEntity
  8
0-0_通り芯
  6
Continuous
 62
     3
370
     9
100
AcDbLine
 10
100.1930498160346
 20
75.05961025625065
 30
0.0
 11
121.6930465168371
 21
75.05961025625065
 31
0.0
  0
LINE
  5
139
330
1F
100
AcDbEntity
  8
0-0_通り芯
  6
Continuous
 62
     3
370
     9
100
AcDbLine
 10
98.19309270560392
 20
73.05965314581992
 30
0.0
 11
98.19309270560392
 21
50.55965314581992
 31
0.0
  0
LINE
  5
13A
330
1F
100
AcDbEntity
  8
0-0_通り芯
  6
Continuous
 62
     3
370
     9
100
AcDbLine
 10
123.6930531152323
 20
73.05965314581992
 30
0.0
 11
123.6930531152323
 21
50.55965314581992
 31
0.0
  0
LINE
  5
13B
330
1F
100
AcDbEntity
  8
0-0_通り芯
  6
Continuous
 62
     3
370
     9
100
AcDbLine
 10
100.1930498160346
 20
48.55964654742472
 30
0.0
 11
121.6930465168371
 21
48.55964654742472
 31
0.0
  0
LINE
  5
13C
330
1F
100
AcDbEntity
  8
0-0_通り芯
  6
Continuous
 62
     3
370
     9
100
AcDbLine
 10
60.69309270560392
 20
48.55964654742472
 30
0.0
 11
82.19303991844173
 21
48.55964654742472
 31
0.0
  0
LINE
  5
13D
330
1F
100
AcDbEntity
  8
0-0_通り芯
  6
Continuous
 62
     3
370
     9
100
AcDbLine
 10
84.19304651683704
 20
73.05965314581992
 30
0.0
 11
84.19304651683704
 21
50.55965314581992
 31
0.0
  0
LINE
  5
13E
330
1F
100
AcDbEntity
  8
0-0_通り芯
  6
Continuous
 62
     3
370
     9
100
AcDbLine
 10
58.6930861072086
 20
73.05965314581992
 30
0.0
 11
58.6930861072086
 21
50.55965314581992
 31
0.0
  0
LINE
  5
13F
330
1F
100
AcDbEntity
  8
0-0_通り芯
  6
Continuous
 62
     3
370
     9
100
AcDbLine
 10
60.69309270560392
 20
75.05961025625065
 30
0.0
 11
82.19303991844173
 21
75.05961025625065
 31
0.0
  0
LINE
  5
140
330
1F
100
AcDbEntity
  8
0-0_通り芯
  6
Continuous
 62
     3
370
     9
100
AcDbLine
 10
21.1930861072086
 20
75.05961025625065
 30
0.0
 11
42.69303332004641
 21
75.05961025625065
 31
0.0
  0
LINE
  5
141
330
1F
100
AcDbEntity
  8
0-0_通り芯
  6
Continuous
 62
     3
370
     9
100
AcDbLine
 10
19.1930795088134
 20
73.05965314581992
 30
0.0
 11
19.1930795088134
 21
50.55965314581992
 31
0.0
  0
LINE
  5
142
330
1F
100
AcDbEntity
  8
0-0_通り芯
  6
Continuous
 62
     3
370
     9
100
AcDbLine
 10
44.6930894064062
 20
73.05965314581992
 30
0.0
 11
44.6930894064062
 21
50.55965314581992
 31
0.0
  0
LINE
  5
143
330
1F
100
AcDbEntity
  8
0-0_通り芯
  6
Continuous
 62
     3
370
     9
100
AcDbLine
 10
21.1930861072086
 20
48.55964654742472
 30
0.0
 11
42.69303332004641
 21
48.55964654742472
 31
0.0
  0
LINE
  5
144
330
1F
100
AcDbEntity
  8
0-0_通り芯
  6
Continuous
 62
     3
370
     9
100
AcDbLine
 10
-18.30696997915119
 20
48.55964654742472
 30
0.0
 11
3.193026721651208
 21
48.55964654742472
 31
0.0
  0
LINE
  5
145
330
1F
100
AcDbEntity
  8
0-0_通り芯
  6
Continuous
 62
     3
370
     9
100
AcDbLine
 10
5.193082808010999
 20
73.05965314581992
 30
0.0
 11
5.193082808010999
 21
50.55965314581992
 31
0.0
  0
LINE
  5
146
330
1F
100
AcDbEntity
  8
0-0_通り芯
  6
Continuous
 62
     3
370
     9
100
AcDbLine
 10
-20.30697657754651
 20
73.05965314581992
 30
0.0
 11
-20.30697657754651
 21
50.55965314581992
 31
0.0
  0
LINE
  5
147
330
1F
100
AcDbEntity
  8
0-0_通り芯
  6
Continuous
 62
     3
370
     9
100
AcDbLine
 10
-18.30696997915119
 20
75.05961025625065
 30
0.0
 11
3.193026721651208
 21
75.05961025625065
 31
0.0
  0
LINE
  5
148
330
1F
100
AcDbEntity
  8
0-0_通り芯
  6
Continuous
 62
     3
370
     9
100
AcDbLine
 10
-57.80697657754651
 20
75.05961025625065
 30
0.0
 11
-36.30693038877952
 21
75.05961025625065
 31
0.0
  0
LINE
  5
149
330
1F
100
AcDbEntity
  8
0-0_通り芯
  6
Continuous
 62
     3
370
     9
100
AcDbLine
 10
-59.80698317594171
 20
73.05965314581992
 30
0.0
 11
-59.80698317594171
 21
50.55965314581992
 31
0.0
  0
LINE
  5
14A
330
1F
100
AcDbEntity
  8
0-0_通り芯
  6
Continuous
 62
     3
370
     9
100
AcDbLine
 10
-34.30692379038432
 20
73.05965314581992
 30
0.0
 11
-34.30692379038432
 21
50.55965314581992
 31
0.0
  0
LINE
  5
14B
330
1F
100
AcDbEntity
  8
0-0_通り芯
  6
Continuous
 62
     3
370
     9
100
AcDbLine
 10
-57.80697657754651
 20
48.55964654742472
 30
0.0
 11
-36.30693038877952
 21
48.55964654742472
 31
0.0
  0
LINE
  5
14C
330
1F
100
AcDbEntity
  8
0-0_通り芯
  6
Continuous
 62
     3
370
     9
100
AcDbLine
 10
-97.30698317594171
 20
48.55964654742472
 30
0.0
 11
-75.80693698717484
 21
48.55964654742472
 31
0.0
  0
LINE
  5
14D
330
1F
100
AcDbEntity
  8
0-0_通り芯
  6
Continuous
 62
     3
370
     9
100
AcDbLine
 10
-73.80693038877952
 20
73.05965314581992
 30
0.0
 11
-73.80693038877952
 21
50.55965314581992
 31
0.0
  0
LINE
  5
14E
330
1F
100
AcDbEntity
  8
0-0_通り芯
  6
Continuous
 62
     3
370
     9
100
AcDbLine
 10
-99.30698977433697
 20
73.05965314581992
 30
0.0
 11
-99.30698977433697
 21
50.55965314581992
 31
0.0
  0
LINE
  5
14F
330
1F
100
AcDbEntity
  8
0-0_通り芯
  6
Continuous
 62
     3
370
     9
100
AcDbLine
 10
-97.30698317594171
 20
75.05961025625065
 30
0.0
 11
-75.80693698717484
 21
75.05961025625065
 31
0.0
  0
LINE
  5
150
330
1F
100
AcDbEntity
  8
0-0_通り芯
  6
Continuous
 62
     3
370
     9
100
AcDbLine
 10
-356.3069963727323
 20
-92.94039964134227
 30
0.0
 11
143.693119099185
 21
-92.94039964134227
 31
0.0
  0
LINE
  5
151
330
1F
100
AcDbEntity
  8
0-0_通り芯
  6
Continuous
 62
     3
370
     9
100
AcDbLine
 10
-356.3069963727323
 20
257.0596663426106
 30
0.0
 11
-356.3069963727323
 21
-92.94039964134227
 31
0.0
  0
LINE
  5
152
330
1F
100
AcDbEntity
  8
0-0_通り芯
  6
Continuous
 62
     3
370
     9
100
AcDbLine
 10
-115.3069435855701
 20
75.05961025625065
 30
0.0
 11
-136.806989774337
 21
75.05961025625065
 31
0.0
  0
LINE
  5
153
330
1F
100
AcDbEntity
  8
0-0_通り芯
  6
Continuous
 62
     3
370
     9
100
AcDbLine
 10
-113.3069369871748
 20
73.05965314581992
 30
0.0
 11
-113.3069369871748
 21
50.55965314581992
 31
0.0
  0
LINE
  5
154
330
1F
100
AcDbEntity
  8
0-0_通り芯
  6
Continuous
 62
     3
370
     9
100
AcDbLine
 10
-138.8069963727323
 20
73.05965314581992
 30
0.0
 11
-138.8069963727323
 21
50.55965314581992
 31
0.0
  0
LINE
  5
155
330
1F
100
AcDbEntity
  8
0-0_通り芯
  6
Continuous
 62
     3
370
     9
100
AcDbLine
 10
-115.3069435855701
 20
48.55964654742472
 30
0.0
 11
-136.806989774337
 21
48.55964654742472
 31
0.0
  0
LINE
  5
156
330
1F
100
AcDbEntity
  8
0-0_通り芯
  6
Continuous
 62
     3
370
     9
100
AcDbLine
 10
-154.8069501839653
 20
48.55964654742472
 30
0.0
 11
-176.3069963727323
 21
48.55964654742472
 31
0.0
  0
LINE
  5
157
330
1F
100
AcDbEntity
  8
0-0_通り芯
  6
Continuous
 62
     3
370
     9
100
AcDbLine
 10
-178.3070029711275
 20
73.05965314581992
 30
0.0
 11
-178.3070029711275
 21
50.55965314581992
 31
0.0
  0
LINE
  5
158
330
1F
100
AcDbEntity
  8
0-0_通り芯
  6
Continuous
 62
     3
370
     9
100
AcDbLine
 10
-152.8069435855701
 20
73.05965314581992
 30
0.0
 11
-152.8069435855701
 21
50.55965314581992
 31
0.0
  0
LINE
  5
159
330
1F
100
AcDbEntity
  8
0-0_通り芯
  6
Continuous
 62
     3
370
     9
100
AcDbLine
 10
-154.8069501839653
 20
75.05961025625065
 30
0.0
 11
-176.3069963727323
 21
75.05961025625065
 31
0.0
  0
LINE
  5
15A
330
1F
100
AcDbEntity
  8
0-0_通り芯
  6
Continuous
 62
     3
370
     9
100
AcDbLine
 10
-194.3070557582897
 20
75.05961025625065
 30
0.0
 11
-215.8070029711275
 21
75.05961025625065
 31
0.0
  0
LINE
  5
15B
330
1F
100
AcDbEntity
  8
0-0_通り芯
  6
Continuous
 62
     3
370
     9
100
AcDbLine
 10
-192.3069501839653
 20
73.05965314581992
 30
0.0
 11
-192.3069501839653
 21
50.55965314581992
 31
0.0
  0
LINE
  5
15C
330
1F
100
AcDbEntity
  8
0-0_通り芯
  6
Continuous
 62
     3
370
     9
100
AcDbLine
 10
-217.8070095695228
 20
73.05965314581992
 30
0.0
 11
-217.8070095695228
 21
50.55965314581992
 31
0.0
  0
LINE
  5
15D
330
1F
100
AcDbEntity
  8
0-0_通り芯
  6
Continuous
 62
     3
370
     9
100
AcDbLine
 10
-194.3070557582897
 20
48.55964654742472
 30
0.0
 11
-215.8070029711275
 21
48.55964654742472
 31
0.0
  0
LINE
  5
15E
330
1F
100
AcDbEntity
  8
0-0_通り芯
  6
Continuous
 62
     3
370
     9
100
AcDbLine
 10
-233.8069633807559
 20
48.55964654742472
 30
0.0
 11
-255.3069105935937
 21
48.55964654742472
 31
0.0
  0
LINE
  5
15F
330
1F
100
AcDbEntity
  8
0-0_通り芯
  6
Continuous
 62
     3
370
     9
100
AcDbLine
 10
-257.3070161679181
 20
73.05965314581992
 30
0.0
 11
-257.3070161679181
 21
50.55965314581992
 31
0.0
  0
LINE
  5
160
330
1F
100
AcDbEntity
  8
0-0_通り芯
  6
Continuous
 62
     3
370
     9
100
AcDbLine
 10
-231.8069567823607
 20
73.05965314581992
 30
0.0
 11
-231.8069567823607
 21
50.55965314581992
 31
0.0
  0
LINE
  5
161
330
1F
100
AcDbEntity
  8
0-0_通り芯
  6
Continuous
 62
     3
370
     9
100
AcDbLine
 10
-233.8069633807559
 20
75.05961025625065
 30
0.0
 11
-255.3069105935937
 21
75.05961025625065
 31
0.0
  0
LINE
  5
162
330
1F
100
AcDbEntity
  8
0-0_通り芯
  6
Continuous
 62
     3
370
     9
100
AcDbLine
 10
-273.3069699791512
 20
75.05961025625065
 30
0.0
 11
-294.8070161679181
 21
75.05961025625065
 31
0.0
  0
LINE
  5
163
330
1F
100
AcDbEntity
  8
0-0_通り芯
  6
Continuous
 62
     3
370
     9
100
AcDbLine
 10
-271.3069633807559
 20
73.05965314581992
 30
0.0
 11
-271.3069633807559
 21
50.55965314581992
 31
0.0
  0
LINE
  5
164
330
1F
100
AcDbEntity
  8
0-0_通り芯
  6
Continuous
 62
     3
370
     9
100
AcDbLine
 10
-296.8070227663134
 20
73.05965314581992
 30
0.0
 11
-296.8070227663134
 21
50.55965314581992
 31
0.0
  0
LINE
  5
165
330
1F
100
AcDbEntity
  8
0-0_通り芯
  6
Continuous
 62
     3
370
     9
100
AcDbLine
 10
-273.3069699791512
 20
48.55964654742472
 30
0.0
 11
-294.8070161679181
 21
48.55964654742472
 31
0.0
  0
LINE
  5
166
330
1F
100
AcDbEntity
  8
0-0_通り芯
  6
Continuous
 62
     3
370
     9
100
AcDbLine
 10
-312.8069765775465
 20
48.55964654742472
 30
0.0
 11
-334.3069237903843
 21
48.55964654742472
 31
0.0
  0
LINE
  5
167
330
1F
100
AcDbEntity
  8
0-0_通り芯
  6
Continuous
 62
     3
370
     9
100
AcDbLine
 10
-336.3070293647086
 20
73.05965314581992
 30
0.0
 11
-336.3070293647086
 21
50.55965314581992
 31
0.0
  0
LINE
  5
168
330
1F
100
AcDbEntity
  8
0-0_通り芯
  6
Continuous
 62
     3
370
     9
100
AcDbLine
 10
-310.8069699791512
 20
73.05965314581992
 30
0.0
 11
-310.8069699791512
 21
50.55965314581992
 31
0.0
  0
LINE
  5
169
330
1F
100
AcDbEntity
  8
0-0_通り芯
  6
Continuous
 62
     3
370
     9
100
AcDbLine
 10
-312.8069765775465
 20
75.05961025625065
 30
0.0
 11
-334.3069237903843
 21
75.05961025625065
 31
0.0
  0
LINE
  5
16A
330
1F
100
AcDbEntity
  8
0-0_通り芯
  6
Continuous
 62
     3
370
     9
100
AcDbLine
 10
-312.8069765775465
 20
34.55964984662232
 30
0.0
 11
-334.3069237903843
 21
34.55964984662232
 31
0.0
  0
LINE
  5
16B
330
1F
100
AcDbEntity
  8
0-0_通り芯
  6
Continuous
 62
     3
370
     9
100
AcDbLine
 10
-310.8069699791512
 20
32.55969273619159
 30
0.0
 11
-310.8069699791512
 21
10.05969273619159
 31
0.0
  0
LINE
  5
16C
330
1F
100
AcDbEntity
  8
0-0_通り芯
  6
Continuous
 62
     3
370
     9
100
AcDbLine
 10
-336.3070293647086
 20
32.55969273619159
 30
0.0
 11
-336.3070293647086
 21
10.05969273619159
 31
0.0
  0
LINE
  5
16D
330
1F
100
AcDbEntity
  8
0-0_通り芯
  6
Continuous
 62
     3
370
     9
100
AcDbLine
 10
-312.8069765775465
 20
8.059686137796277
 30
0.0
 11
-334.3069237903843
 21
8.059686137796277
 31
0.0
  0
LINE
  5
16E
330
1F
100
AcDbEntity
  8
0-0_通り芯
  6
Continuous
 62
     3
370
     9
100
AcDbLine
 10
-273.3069699791512
 20
8.059686137796277
 30
0.0
 11
-294.8070161679181
 21
8.059686137796277
 31
0.0
  0
LINE
  5
16F
330
1F
100
AcDbEntity
  8
0-0_通り芯
  6
Continuous
 62
     3
370
     9
100
AcDbLine
 10
-296.8070227663134
 20
32.55969273619159
 30
0.0
 11
-296.8070227663134
 21
10.05969273619159
 31
0.0
  0
LINE
  5
170
330
1F
100
AcDbEntity
  8
0-0_通り芯
  6
Continuous
 62
     3
370
     9
100
AcDbLine
 10
-271.3069633807559
 20
32.55969273619159
 30
0.0
 11
-271.3069633807559
 21
10.05969273619159
 31
0.0
  0
LINE
  5
171
330
1F
100
AcDbEntity
  8
0-0_通り芯
  6
Continuous
 62
     3
370
     9
100
AcDbLine
 10
-273.3069699791512
 20
34.55964984662232
 30
0.0
 11
-294.8070161679181
 21
34.55964984662232
 31
0.0
  0
LINE
  5
172
330
1F
100
AcDbEntity
  8
0-0_通り芯
  6
Continuous
 62
     3
370
     9
100
AcDbLine
 10
-233.8069633807559
 20
34.55964984662232
 30
0.0
 11
-255.3069105935937
 21
34.55964984662232
 31
0.0
  0
LINE
  5
173
330
1F
100
AcDbEntity
  8
0-0_通り芯
  6
Continuous
 62
     3
370
     9
100
AcDbLine
 10
-231.8069567823607
 20
32.55969273619159
 30
0.0
 11
-231.8069567823607
 21
10.05969273619159
 31
0.0
  0
LINE
  5
174
330
1F
100
AcDbEntity
  8
0-0_通り芯
  6
Continuous
 62
     3
370
     9
100
AcDbLine
 10
-257.3070161679181
 20
32.55969273619159
 30
0.0
 11
-257.3070161679181
 21
10.05969273619159
 31
0.0
  0
LINE
  5
175
330
1F
100
AcDbEntity
  8
0-0_通り芯
  6
Continuous
 62
     3
370
     9
100
AcDbLine
 10
-233.8069633807559
 20
8.059686137796277
 30
0.0
 11
-255.3069105935937
 21
8.059686137796277
 31
0.0
  0
LINE
  5
176
330
1F
100
AcDbEntity
  8
0-0_通り芯
  6
Continuous
 62
     3
370
     9
100
AcDbLine
 10
-194.3070557582897
 20
8.059686137796277
 30
0.0
 11
-215.8070029711275
 21
8.059686137796277
 31
0.0
  0
LINE
  5
177
330
1F
100
AcDbEntity
  8
0-0_通り芯
  6
Continuous
 62
     3
370
     9
100
AcDbLine
 10
-217.8070095695228
 20
32.55969273619159
 30
0.0
 11
-217.8070095695228
 21
10.05969273619159
 31
0.0
  0
LINE
  5
178
330
1F
100
AcDbEntity
  8
0-0_通り芯
  6
Continuous
 62
     3
370
     9
100
AcDbLine
 10
-192.3069501839653
 20
32.55969273619159
 30
0.0
 11
-192.3069501839653
 21
10.05969273619159
 31
0.0
  0
LINE
  5
179
330
1F
100
AcDbEntity
  8
0-0_通り芯
  6
Continuous
 62
     3
370
     9
100
AcDbLine
 10
-194.3070557582897
 20
34.55964984662232
 30
0.0
 11
-215.8070029711275
 21
34.55964984662232
 31
0.0
  0
LINE
  5
17A
330
1F
100
AcDbEntity
  8
0-0_通り芯
  6
Continuous
 62
     3
370
     9
100
AcDbLine
 10
-154.8069501839653
 20
34.55964984662232
 30
0.0
 11
-176.3069963727323
 21
34.55964984662232
 31
0.0
  0
LINE
  5
17B
330
1F
100
AcDbEntity
  8
0-0_通り芯
  6
Continuous
 62
     3
370
     9
100
AcDbLine
 10
-152.8069435855701
 20
32.55969273619159
 30
0.0
 11
-152.8069435855701
 21
10.05969273619159
 31
0.0
  0
LINE
  5
17C
330
1F
100
AcDbEntity
  8
0-0_通り芯
  6
Continuous
 62
     3
370
     9
100
AcDbLine
 10
-178.3070029711275
 20
32.55969273619159
 30
0.0
 11
-178.3070029711275
 21
10.05969273619159
 31
0.0
  0
LINE
  5
17D
330
1F
100
AcDbEntity
  8
0-0_通り芯
  6
Continuous
 62
     3
370
     9
100
AcDbLine
 10
-154.8069501839653
 20
8.059686137796277
 30
0.0
 11
-176.3069963727323
 21
8.059686137796277
 31
0.0
  0
LINE
  5
17E
330
1F
100
AcDbEntity
  8
0-0_通り芯
  6
Continuous
 62
     3
370
     9
100
AcDbLine
 10
-115.3069435855701
 20
8.059686137796277
 30
0.0
 11
-136.806989774337
 21
8.059686137796277
 31
0.0
  0
LINE
  5
17F
330
1F
100
AcDbEntity
  8
0-0_通り芯
  6
Continuous
 62
     3
370
     9
100
AcDbLine
 10
-138.8069963727323
 20
32.55969273619159
 30
0.0
 11
-138.8069963727323
 21
10.05969273619159
 31
0.0
  0
LINE
  5
180
330
1F
100
AcDbEntity
  8
0-0_通り芯
  6
Continuous
 62
     3
370
     9
100
AcDbLine
 10
-113.3069369871748
 20
32.55969273619159
 30
0.0
 11
-113.3069369871748
 21
10.05969273619159
 31
0.0
  0
LINE
  5
181
330
1F
100
AcDbEntity
  8
0-0_通り芯
  6
Continuous
 62
     3
370
     9
100
AcDbLine
 10
-115.3069435855701
 20
34.55964984662232
 30
0.0
 11
-136.806989774337
 21
34.55964984662232
 31
0.0
  0
LINE
  5
182
330
1F
100
AcDbEntity
  8
0-0_通り芯
  6
Continuous
 62
     3
370
     9
100
AcDbLine
 10
-115.3069435855701
 20
-5.940360050970597
 30
0.0
 11
-136.806989774337
 21
-5.940360050970597
 31
0.0
  0
LINE
  5
183
330
1F
100
AcDbEntity
  8
0-0_通り芯
  6
Continuous
 62
     3
370
     9
100
AcDbLine
 10
-113.3069369871748
 20
-7.940366649365913
 30
0.0
 11
-113.3069369871748
 21
-30.44036664936591
 31
0.0
  0
LINE
  5
184
330
1F
100
AcDbEntity
  8
0-0_通り芯
  6
Continuous
 62
     3
370
     9
100
AcDbLine
 10
-138.8069963727323
 20
-7.940366649365913
 30
0.0
 11
-138.8069963727323
 21
-30.44036664936591
 31
0.0
  0
LINE
  5
185
330
1F
100
AcDbEntity
  8
0-0_通り芯
  6
Continuous
 62
     3
370
     9
100
AcDbLine
 10
-115.3069435855701
 20
-32.44037324776112
 30
0.0
 11
-136.806989774337
 21
-32.44037324776112
 31
0.0
  0
LINE
  5
186
330
1F
100
AcDbEntity
  8
0-0_通り芯
  6
Continuous
 62
     3
370
     9
100
AcDbLine
 10
-154.8069501839653
 20
-32.44037324776112
 30
0.0
 11
-176.3069963727323
 21
-32.44037324776112
 31
0.0
  0
LINE
  5
187
330
1F
100
AcDbEntity
  8
0-0_通り芯
  6
Continuous
 62
     3
370
     9
100
AcDbLine
 10
-178.3070029711275
 20
-7.940366649365913
 30
0.0
 11
-178.3070029711275
 21
-30.44036664936591
 31
0.0
  0
LINE
  5
188
330
1F
100
AcDbEntity
  8
0-0_通り芯
  6
Continuous
 62
     3
370
     9
100
AcDbLine
 10
-152.8069435855701
 20
-7.940366649365913
 30
0.0
 11
-152.8069435855701
 21
-30.44036664936591
 31
0.0
  0
LINE
  5
189
330
1F
100
AcDbEntity
  8
0-0_通り芯
  6
Continuous
 62
     3
370
     9
100
AcDbLine
 10
-154.8069501839653
 20
-5.940360050970597
 30
0.0
 11
-176.3069963727323
 21
-5.940360050970597
 31
0.0
  0
LINE
  5
18A
330
1F
100
AcDbEntity
  8
0-0_通り芯
  6
Continuous
 62
     3
370
     9
100
AcDbLine
 10
-194.3070557582897
 20
-5.940360050970597
 30
0.0
 11
-215.8070029711275
 21
-5.940360050970597
 31
0.0
  0
LINE
  5
18B
330
1F
100
AcDbEntity
  8
0-0_通り芯
  6
Continuous
 62
     3
370
     9
100
AcDbLine
 10
-192.3069501839653
 20
-7.940366649365913
 30
0.0
 11
-192.3069501839653
 21
-30.44036664936591
 31
0.0
  0
LINE
  5
18C
330
1F
100
AcDbEntity
  8
0-0_通り芯
  6
Continuous
 62
     3
370
     9
100
AcDbLine
 10
-217.8070095695228
 20
-7.940366649365913
 30
0.0
 11
-217.8070095695228
 21
-30.44036664936591
 31
0.0
  0
LINE
  5
18D
330
1F
100
AcDbEntity
  8
0-0_通り芯
  6
Continuous
 62
     3
370
     9
100
AcDbLine
 10
-194.3070557582897
 20
-32.44037324776112
 30
0.0
 11
-215.8070029711275
 21
-32.44037324776112
 31
0.0
  0
LINE
  5
18E
330
1F
100
AcDbEntity
  8
0-0_通り芯
  6
Continuous
 62
     3
370
     9
100
AcDbLine
 10
-233.8069633807559
 20
-32.44037324776112
 30
0.0
 11
-255.3069105935937
 21
-32.44037324776112
 31
0.0
  0
LINE
  5
18F
330
1F
100
AcDbEntity
  8
0-0_通り芯
  6
Continuous
 62
     3
370
     9
100
AcDbLine
 10
-257.3070161679181
 20
-7.940366649365913
 30
0.0
 11
-257.3070161679181
 21
-30.44036664936591
 31
0.0
  0
LINE
  5
190
330
1F
100
AcDbEntity
  8
0-0_通り芯
  6
Continuous
 62
     3
370
     9
100
AcDbLine
 10
-231.8069567823607
 20
-7.940366649365913
 30
0.0
 11
-231.8069567823607
 21
-30.44036664936591
 31
0.0
  0
LINE
  5
191
330
1F
100
AcDbEntity
  8
0-0_通り芯
  6
Continuous
 62
     3
370
     9
100
AcDbLine
 10
-233.8069633807559
 20
-5.940360050970597
 30
0.0
 11
-255.3069105935937
 21
-5.940360050970597
 31
0.0
  0
LINE
  5
192
330
1F
100
AcDbEntity
  8
0-0_通り芯
  6
Continuous
 62
     3
370
     9
100
AcDbLine
 10
-273.3069699791512
 20
-5.940360050970597
 30
0.0
 11
-294.8070161679181
 21
-5.940360050970597
 31
0.0
  0
LINE
  5
193
330
1F
100
AcDbEntity
  8
0-0_通り芯
  6
Continuous
 62
     3
370
     9
100
AcDbLine
 10
-271.3069633807559
 20
-7.940366649365913
 30
0.0
 11
-271.3069633807559
 21
-30.44036664936591
 31
0.0
  0
LINE
  5
194
330
1F
100
AcDbEntity
  8
0-0_通り芯
  6
Continuous
 62
     3
370
     9
100
AcDbLine
 10
-296.8070227663134
 20
-7.940366649365913
 30
0.0
 11
-296.8070227663134
 21
-30.44036664936591
 31
0.0
  0
LINE
  5
195
330
1F
100
AcDbEntity
  8
0-0_通り芯
  6
Continuous
 62
     3
370
     9
100
AcDbLine
 10
-273.3069699791512
 20
-32.44037324776112
 30
0.0
 11
-294.8070161679181
 21
-32.44037324776112
 31
0.0
  0
LINE
  5
196
330
1F
100
AcDbEntity
  8
0-0_通り芯
  6
Continuous
 62
     3
370
     9
100
AcDbLine
 10
-312.8069765775465
 20
-32.44037324776112
 30
0.0
 11
-334.3069237903843
 21
-32.44037324776112
 31
0.0
  0
LINE
  5
197
330
1F
100
AcDbEntity
  8
0-0_通り芯
  6
Continuous
 62
     3
370
     9
100
AcDbLine
 10
-336.3070293647086
 20
-7.940366649365913
 30
0.0
 11
-336.3070293647086
 21
-30.44036664936591
 31
0.0
  0
LINE
  5
198
330
1F
100
AcDbEntity
  8
0-0_通り芯
  6
Continuous
 62
     3
370
     9
100
AcDbLine
 10
-310.8069699791512
 20
-7.940366649365913
 30
0.0
 11
-310.8069699791512
 21
-30.44036664936591
 31
0.0
  0
LINE
  5
199
330
1F
100
AcDbEntity
  8
0-0_通り芯
  6
Continuous
 62
     3
370
     9
100
AcDbLine
 10
-312.8069765775465
 20
-5.940360050970597
 30
0.0
 11
-334.3069237903843
 21
-5.940360050970597
 31
0.0
  0
LINE
  5
19A
330
1F
100
AcDbEntity
  8
0-0_通り芯
  6
Continuous
 62
     3
370
     9
100
AcDbLine
 10
-312.8069765775465
 20
-46.44036994856351
 30
0.0
 11
-334.3069237903843
 21
-46.44036994856351
 31
0.0
  0
LINE
  5
19B
330
1F
100
AcDbEntity
  8
0-0_通り芯
  6
Continuous
 62
     3
370
     9
100
AcDbLine
 10
-310.8069699791512
 20
-48.44032705899424
 30
0.0
 11
-310.8069699791512
 21
-70.94032705899424
 31
0.0
  0
LINE
  5
19C
330
1F
100
AcDbEntity
  8
0-0_通り芯
  6
Continuous
 62
     3
370
     9
100
AcDbLine
 10
-336.3070293647086
 20
-48.44032705899424
 30
0.0
 11
-336.3070293647086
 21
-70.94032705899424
 31
0.0
  0
LINE
  5
19D
330
1F
100
AcDbEntity
  8
0-0_通り芯
  6
Continuous
 62
     3
370
     9
100
AcDbLine
 10
-312.8069765775465
 20
-72.94033365738956
 30
0.0
 11
-334.3069237903843
 21
-72.94033365738956
 31
0.0
  0
LINE
  5
19E
330
1F
100
AcDbEntity
  8
0-0_通り芯
  6
Continuous
 62
     3
370
     9
100
AcDbLine
 10
-273.3069699791512
 20
-72.94033365738956
 30
0.0
 11
-294.8070161679181
 21
-72.94033365738956
 31
0.0
  0
LINE
  5
19F
330
1F
100
AcDbEntity
  8
0-0_通り芯
  6
Continuous
 62
     3
370
     9
100
AcDbLine
 10
-296.8070227663134
 20
-48.44032705899424
 30
0.0
 11
-296.8070227663134
 21
-70.94032705899424
 31
0.0
  0
LINE
  5
1A0
330
1F
100
AcDbEntity
  8
0-0_通り芯
  6
Continuous
 62
     3
370
     9
100
AcDbLine
 10
-271.3069633807559
 20
-48.44032705899424
 30
0.0
 11
-271.3069633807559
 21
-70.94032705899424
 31
0.0
  0
LINE
  5
1A1
330
1F
100
AcDbEntity
  8
0-0_通り芯
  6
Continuous
 62
     3
370
     9
100
AcDbLine
 10
-273.3069699791512
 20
-46.44036994856351
 30
0.0
 11
-294.8070161679181
 21
-46.44036994856351
 31
0.0
  0
LINE
  5
1A2
330
1F
100
AcDbEntity
  8
0-0_通り芯
  6
Continuous
 62
     3
370
     9
100
AcDbLine
 10
-233.8069633807559
 20
-46.44036994856351
 30
0.0
 11
-255.3069105935937
 21
-46.44036994856351
 31
0.0
  0
LINE
  5
1A3
330
1F
100
AcDbEntity
  8
0-0_通り芯
  6
Continuous
 62
     3
370
     9
100
AcDbLine
 10
-231.8069567823607
 20
-48.44032705899424
 30
0.0
 11
-231.8069567823607
 21
-70.94032705899424
 31
0.0
  0
LINE
  5
1A4
330
1F
100
AcDbEntity
  8
0-0_通り芯
  6
Continuous
 62
     3
370
     9
100
AcDbLine
 10
-257.3070161679181
 20
-48.44032705899424
 30
0.0
 11
-257.3070161679181
 21
-70.94032705899424
 31
0.0
  0
LINE
  5
1A5
330
1F
100
AcDbEntity
  8
0-0_通り芯
  6
Continuous
 62
     3
370
     9
100
AcDbLine
 10
-233.8069633807559
 20
-72.94033365738956
 30
0.0
 11
-255.3069105935937
 21
-72.94033365738956
 31
0.0
  0
LINE
  5
1A6
330
1F
100
AcDbEntity
  8
0-0_通り芯
  6
Continuous
 62
     3
370
     9
100
AcDbLine
 10
-194.3070557582897
 20
-72.94033365738956
 30
0.0
 11
-215.8070029711275
 21
-72.94033365738956
 31
0.0
  0
LINE
  5
1A7
330
1F
100
AcDbEntity
  8
0-0_通り芯
  6
Continuous
 62
     3
370
     9
100
AcDbLine
 10
-217.8070095695228
 20
-48.44032705899424
 30
0.0
 11
-217.8070095695228
 21
-70.94032705899424
 31
0.0
  0
LINE
  5
1A8
330
1F
100
AcDbEntity
  8
0-0_通り芯
  6
Continuous
 62
     3
370
     9
100
AcDbLine
 10
-192.3069501839653
 20
-48.44032705899424
 30
0.0
 11
-192.3069501839653
 21
-70.94032705899424
 31
0.0
  0
LINE
  5
1A9
330
1F
100
AcDbEntity
  8
0-0_通り芯
  6
Continuous
 62
     3
370
     9
100
AcDbLine
 10
-194.3070557582897
 20
-46.44036994856351
 30
0.0
 11
-215.8070029711275
 21
-46.44036994856351
 31
0.0
  0
LINE
  5
1AA
330
1F
100
AcDbEntity
  8
0-0_通り芯
  6
Continuous
 62
     3
370
     9
100
AcDbLine
 10
-154.8069501839653
 20
-46.44036994856351
 30
0.0
 11
-176.3069963727323
 21
-46.44036994856351
 31
0.0
  0
LINE
  5
1AB
330
1F
100
AcDbEntity
  8
0-0_通り芯
  6
Continuous
 62
     3
370
     9
100
AcDbLine
 10
-152.8069435855701
 20
-48.44032705899424
 30
0.0
 11
-152.8069435855701
 21
-70.94032705899424
 31
0.0
  0
LINE
  5
1AC
330
1F
100
AcDbEntity
  8
0-0_通り芯
  6
Continuous
 62
     3
370
     9
100
AcDbLine
 10
-178.3070029711275
 20
-48.44032705899424
 30
0.0
 11
-178.3070029711275
 21
-70.94032705899424
 31
0.0
  0
LINE
  5
1AD
330
1F
100
AcDbEntity
  8
0-0_通り芯
  6
Continuous
 62
     3
370
     9
100
AcDbLine
 10
-154.8069501839653
 20
-72.94033365738956
 30
0.0
 11
-176.3069963727323
 21
-72.94033365738956
 31
0.0
  0
LINE
  5
1AE
330
1F
100
AcDbEntity
  8
0-0_通り芯
  6
Continuous
 62
     3
370
     9
100
AcDbLine
 10
-115.3069435855701
 20
-72.94033365738956
 30
0.0
 11
-136.806989774337
 21
-72.94033365738956
 31
0.0
  0
LINE
  5
1AF
330
1F
100
AcDbEntity
  8
0-0_通り芯
  6
Continuous
 62
     3
370
     9
100
AcDbLine
 10
-138.8069963727323
 20
-48.44032705899424
 30
0.0
 11
-138.8069963727323
 21
-70.94032705899424
 31
0.0
  0
LINE
  5
1B0
330
1F
100
AcDbEntity
  8
0-0_通り芯
  6
Continuous
 62
     3
370
     9
100
AcDbLine
 10
-113.3069369871748
 20
-48.44032705899424
 30
0.0
 11
-113.3069369871748
 21
-70.94032705899424
 31
0.0
  0
LINE
  5
1B1
330
1F
100
AcDbEntity
  8
0-0_通り芯
  6
Continuous
 62
     3
370
     9
100
AcDbLine
 10
-115.3069435855701
 20
-46.44036994856351
 30
0.0
 11
-136.806989774337
 21
-46.44036994856351
 31
0.0
  0
LINE
  5
1B2
330
1F
100
AcDbEntity
  8
0-0_通り芯
  6
Continuous
 62
     3
370
     9
100
AcDbLine
 10
-115.3069435855701
 20
210.5596861377963
 30
0.0
 11
-136.806989774337
 21
210.5596861377963
 31
0.0
  0
LINE
  5
1B3
330
1F
100
AcDbEntity
  8
0-0_通り芯
  6
Continuous
 62
     3
370
     9
100
AcDbLine
 10
-113.3069369871748
 20
212.5595937602625
 30
0.0
 11
-113.3069369871748
 21
235.0595937602625
 31
0.0
  0
LINE
  5
1B4
330
1F
100
AcDbEntity
  8
0-0_通り芯
  6
Continuous
 62
     3
370
     9
100
AcDbLine
 10
-138.8069963727323
 20
212.5595937602625
 30
0.0
 11
-138.8069963727323
 21
235.0595937602625
 31
0.0
  0
LINE
  5
1B5
330
1F
100
AcDbEntity
  8
0-0_通り芯
  6
Continuous
 62
     3
370
     9
100
AcDbLine
 10
-115.3069435855701
 20
237.0596993345868
 30
0.0
 11
-136.806989774337
 21
237.0596993345868
 31
0.0
  0
LINE
  5
1B6
330
1F
100
AcDbEntity
  8
0-0_通り芯
  6
Continuous
 62
     3
370
     9
100
AcDbLine
 10
-154.8069501839653
 20
237.0596993345868
 30
0.0
 11
-176.3069963727323
 21
237.0596993345868
 31
0.0
  0
LINE
  5
1B7
330
1F
100
AcDbEntity
  8
0-0_通り芯
  6
Continuous
 62
     3
370
     9
100
AcDbLine
 10
-178.3070029711275
 20
212.5595937602625
 30
0.0
 11
-178.3070029711275
 21
235.0595937602625
 31
0.0
  0
LINE
  5
1B8
330
1F
100
AcDbEntity
  8
0-0_通り芯
  6
Continuous
 62
     3
370
     9
100
AcDbLine
 10
-152.8069435855701
 20
212.5595937602625
 30
0.0
 11
-152.8069435855701
 21
235.0595937602625
 31
0.0
  0
LINE
  5
1B9
330
1F
100
AcDbEntity
  8
0-0_通り芯
  6
Continuous
 62
     3
370
     9
100
AcDbLine
 10
-154.8069501839653
 20
210.5596861377963
 30
0.0
 11
-176.3069963727323
 21
210.5596861377963
 31
0.0
  0
LINE
  5
1BA
330
1F
100
AcDbEntity
  8
0-0_通り芯
  6
Continuous
 62
     3
370
     9
100
AcDbLine
 10
-194.3070557582897
 20
210.5596861377963
 30
0.0
 11
-215.8070029711275
 21
210.5596861377963
 31
0.0
  0
LINE
  5
1BB
330
1F
100
AcDbEntity
  8
0-0_通り芯
  6
Continuous
 62
     3
370
     9
100
AcDbLine
 10
-192.3069501839653
 20
212.5595937602625
 30
0.0
 11
-192.3069501839653
 21
235.0595937602625
 31
0.0
  0
LINE
  5
1BC
330
1F
100
AcDbEntity
  8
0-0_通り芯
  6
Continuous
 62
     3
370
     9
100
AcDbLine
 10
-217.8070095695228
 20
212.5595937602625
 30
0.0
 11
-217.8070095695228
 21
235.0595937602625
 31
0.0
  0
LINE
  5
1BD
330
1F
100
AcDbEntity
  8
0-0_通り芯
  6
Continuous
 62
     3
370
     9
100
AcDbLine
 10
-194.3070557582897
 20
237.0596993345868
 30
0.0
 11
-215.8070029711275
 21
237.0596993345868
 31
0.0
  0
LINE
  5
1BE
330
1F
100
AcDbEntity
  8
0-0_通り芯
  6
Continuous
 62
     3
370
     9
100
AcDbLine
 10
-233.8069633807559
 20
237.0596993345868
 30
0.0
 11
-255.3069105935937
 21
237.0596993345868
 31
0.0
  0
LINE
  5
1BF
330
1F
100
AcDbEntity
  8
0-0_通り芯
  6
Continuous
 62
     3
370
     9
100
AcDbLine
 10
-257.3070161679181
 20
212.5595937602625
 30
0.0
 11
-257.3070161679181
 21
235.0595937602625
 31
0.0
  0
LINE
  5
1C0
330
1F
100
AcDbEntity
  8
0-0_通り芯
  6
Continuous
 62
     3
370
     9
100
AcDbLine
 10
-231.8069567823607
 20
212.5595937602625
 30
0.0
 11
-231.8069567823607
 21
235.0595937602625
 31
0.0
  0
LINE
  5
1C1
330
1F
100
AcDbEntity
  8
0-0_通り芯
  6
Continuous
 62
     3
370
     9
100
AcDbLine
 10
-233.8069633807559
 20
210.5596861377963
 30
0.0
 11
-255.3069105935937
 21
210.5596861377963
 31
0.0
  0
LINE
  5
1C2
330
1F
100
AcDbEntity
  8
0-0_通り芯
  6
Continuous
 62
     3
370
     9
100
AcDbLine
 10
-273.3069699791512
 20
210.5596861377963
 30
0.0
 11
-294.8070161679181
 21
210.5596861377963
 31
0.0
  0
LINE
  5
1C3
330
1F
100
AcDbEntity
  8
0-0_通り芯
  6
Continuous
 62
     3
370
     9
100
AcDbLine
 10
-271.3069633807559
 20
212.5595937602625
 30
0.0
 11
-271.3069633807559
 21
235.0595937602625
 31
0.0
  0
LINE
  5
1C4
330
1F
100
AcDbEntity
  8
0-0_通り芯
  6
Continuous
 62
     3
370
     9
100
AcDbLine
 10
-296.8070227663134
 20
212.5595937602625
 30
0.0
 11
-296.8070227663134
 21
235.0595937602625
 31
0.0
  0
LINE
  5
1C5
330
1F
100
AcDbEntity
  8
0-0_通り芯
  6
Continuous
 62
     3
370
     9
100
AcDbLine
 10
-273.3069699791512
 20
237.0596993345868
 30
0.0
 11
-294.8070161679181
 21
237.0596993345868
 31
0.0
  0
LINE
  5
1C6
330
1F
100
AcDbEntity
  8
0-0_通り芯
  6
Continuous
 62
     3
370
     9
100
AcDbLine
 10
-312.8069765775465
 20
237.0596993345868
 30
0.0
 11
-334.3069237903843
 21
237.0596993345868
 31
0.0
  0
LINE
  5
1C7
330
1F
100
AcDbEntity
  8
0-0_通り芯
  6
Continuous
 62
     3
370
     9
100
AcDbLine
 10
-336.3070293647086
 20
212.5595937602625
 30
0.0
 11
-336.3070293647086
 21
235.0595937602625
 31
0.0
  0
LINE
  5
1C8
330
1F
100
AcDbEntity
  8
0-0_通り芯
  6
Continuous
 62
     3
370
     9
100
AcDbLine
 10
-310.8069699791512
 20
212.5595937602625
 30
0.0
 11
-310.8069699791512
 21
235.0595937602625
 31
0.0
  0
LINE
  5
1C9
330
1F
100
AcDbEntity
  8
0-0_通り芯
  6
Continuous
 62
     3
370
     9
100
AcDbLine
 10
-312.8069765775465
 20
210.5596861377963
 30
0.0
 11
-334.3069237903843
 21
210.5596861377963
 31
0.0
  0
LINE
  5
1CA
330
1F
100
AcDbEntity
  8
0-0_通り芯
  6
Continuous
 62
     3
370
     9
100
AcDbLine
 10
-312.8069765775465
 20
170.059725728168
 30
0.0
 11
-334.3069237903843
 21
170.059725728168
 31
0.0
  0
LINE
  5
1CB
330
1F
100
AcDbEntity
  8
0-0_通り芯
  6
Continuous
 62
     3
370
     9
100
AcDbLine
 10
-310.8069699791512
 20
172.0596333506341
 30
0.0
 11
-310.8069699791512
 21
194.5596333506342
 31
0.0
  0
LINE
  5
1CC
330
1F
100
AcDbEntity
  8
0-0_通り芯
  6
Continuous
 62
     3
370
     9
100
AcDbLine
 10
-336.3070293647086
 20
172.0596333506341
 30
0.0
 11
-336.3070293647086
 21
194.5596333506342
 31
0.0
  0
LINE
  5
1CD
330
1F
100
AcDbEntity
  8
0-0_通り芯
  6
Continuous
 62
     3
370
     9
100
AcDbLine
 10
-312.8069765775465
 20
196.5596399490294
 30
0.0
 11
-334.3069237903843
 21
196.5596399490294
 31
0.0
  0
LINE
  5
1CE
330
1F
100
AcDbEntity
  8
0-0_通り芯
  6
Continuous
 62
     3
370
     9
100
AcDbLine
 10
-273.3069699791512
 20
196.5596399490294
 30
0.0
 11
-294.8070161679181
 21
196.5596399490294
 31
0.0
  0
LINE
  5
1CF
330
1F
100
AcDbEntity
  8
0-0_通り芯
  6
Continuous
 62
     3
370
     9
100
AcDbLine
 10
-296.8070227663134
 20
172.0596333506341
 30
0.0
 11
-296.8070227663134
 21
194.5596333506342
 31
0.0
  0
LINE
  5
1D0
330
1F
100
AcDbEntity
  8
0-0_通り芯
  6
Continuous
 62
     3
370
     9
100
AcDbLine
 10
-271.3069633807559
 20
172.0596333506341
 30
0.0
 11
-271.3069633807559
 21
194.5596333506342
 31
0.0
  0
LINE
  5
1D1
330
1F
100
AcDbEntity
  8
0-0_通り芯
  6
Continuous
 62
     3
370
     9
100
AcDbLine
 10
-273.3069699791512
 20
170.059725728168
 30
0.0
 11
-294.8070161679181
 21
170.059725728168
 31
0.0
  0
LINE
  5
1D2
330
1F
100
AcDbEntity
  8
0-0_通り芯
  6
Continuous
 62
     3
370
     9
100
AcDbLine
 10
-233.8069633807559
 20
170.059725728168
 30
0.0
 11
-255.3069105935937
 21
170.059725728168
 31
0.0
  0
LINE
  5
1D3
330
1F
100
AcDbEntity
  8
0-0_通り芯
  6
Continuous
 62
     3
370
     9
100
AcDbLine
 10
-231.8069567823607
 20
172.0596333506341
 30
0.0
 11
-231.8069567823607
 21
194.5596333506342
 31
0.0
  0
LINE
  5
1D4
330
1F
100
AcDbEntity
  8
0-0_通り芯
  6
Continuous
 62
     3
370
     9
100
AcDbLine
 10
-257.3070161679181
 20
172.0596333506341
 30
0.0
 11
-257.3070161679181
 21
194.5596333506342
 31
0.0
  0
LINE
  5
1D5
330
1F
100
AcDbEntity
  8
0-0_通り芯
  6
Continuous
 62
     3
370
     9
100
AcDbLine
 10
-233.8069633807559
 20
196.5596399490294
 30
0.0
 11
-255.3069105935937
 21
196.5596399490294
 31
0.0
  0
LINE
  5
1D6
330
1F
100
AcDbEntity
  8
0-0_通り芯
  6
Continuous
 62
     3
370
     9
100
AcDbLine
 10
-194.3070557582897
 20
196.5596399490294
 30
0.0
 11
-215.8070029711275
 21
196.5596399490294
 31
0.0
  0
LINE
  5
1D7
330
1F
100
AcDbEntity
  8
0-0_通り芯
  6
Continuous
 62
     3
370
     9
100
AcDbLine
 10
-217.8070095695228
 20
172.0596333506341
 30
0.0
 11
-217.8070095695228
 21
194.5596333506342
 31
0.0
  0
LINE
  5
1D8
330
1F
100
AcDbEntity
  8
0-0_通り芯
  6
Continuous
 62
     3
370
     9
100
AcDbLine
 10
-192.3069501839653
 20
172.0596333506341
 30
0.0
 11
-192.3069501839653
 21
194.5596333506342
 31
0.0
  0
LINE
  5
1D9
330
1F
100
AcDbEntity
  8
0-0_通り芯
  6
Continuous
 62
     3
370
     9
100
AcDbLine
 10
-194.3070557582897
 20
170.059725728168
 30
0.0
 11
-215.8070029711275
 21
170.059725728168
 31
0.0
  0
LINE
  5
1DA
330
1F
100
AcDbEntity
  8
0-0_通り芯
  6
Continuous
 62
     3
370
     9
100
AcDbLine
 10
-154.8069501839653
 20
170.059725728168
 30
0.0
 11
-176.3069963727323
 21
170.059725728168
 31
0.0
  0
LINE
  5
1DB
330
1F
100
AcDbEntity
  8
0-0_通り芯
  6
Continuous
 62
     3
370
     9
100
AcDbLine
 10
-152.8069435855701
 20
172.0596333506341
 30
0.0
 11
-152.8069435855701
 21
194.5596333506342
 31
0.0
  0
LINE
  5
1DC
330
1F
100
AcDbEntity
  8
0-0_通り芯
  6
Continuous
 62
     3
370
     9
100
AcDbLine
 10
-178.3070029711275
 20
172.0596333506341
 30
0.0
 11
-178.3070029711275
 21
194.5596333506342
 31
0.0
  0
LINE
  5
1DD
330
1F
100
AcDbEntity
  8
0-0_通り芯
  6
Continuous
 62
     3
370
     9
100
AcDbLine
 10
-154.8069501839653
 20
196.5596399490294
 30
0.0
 11
-176.3069963727323
 21
196.5596399490294
 31
0.0
  0
LINE
  5
1DE
330
1F
100
AcDbEntity
  8
0-0_通り芯
  6
Continuous
 62
     3
370
     9
100
AcDbLine
 10
-115.3069435855701
 20
196.5596399490294
 30
0.0
 11
-136.806989774337
 21
196.5596399490294
 31
0.0
  0
LINE
  5
1DF
330
1F
100
AcDbEntity
  8
0-0_通り芯
  6
Continuous
 62
     3
370
     9
100
AcDbLine
 10
-138.8069963727323
 20
172.0596333506341
 30
0.0
 11
-138.8069963727323
 21
194.5596333506342
 31
0.0
  0
LINE
  5
1E0
330
1F
100
AcDbEntity
  8
0-0_通り芯
  6
Continuous
 62
     3
370
     9
100
AcDbLine
 10
-113.3069369871748
 20
172.0596333506341
 30
0.0
 11
-113.3069369871748
 21
194.5596333506342
 31
0.0
  0
LINE
  5
1E1
330
1F
100
AcDbEntity
  8
0-0_通り芯
  6
Continuous
 62
     3
370
     9
100
AcDbLine
 10
-115.3069435855701
 20
170.059725728168
 30
0.0
 11
-136.806989774337
 21
170.059725728168
 31
0.0
  0
LINE
  5
1E2
330
1F
100
AcDbEntity
  8
0-0_通り芯
  6
Continuous
 62
     3
370
     9
100
AcDbLine
 10
-115.3069435855701
 20
129.5596663426105
 30
0.0
 11
-136.806989774337
 21
129.5596663426105
 31
0.0
  0
LINE
  5
1E3
330
1F
100
AcDbEntity
  8
0-0_通り芯
  6
Continuous
 62
     3
370
     9
100
AcDbLine
 10
-113.3069369871748
 20
131.5596729410058
 30
0.0
 11
-113.3069369871748
 21
154.0596729410058
 31
0.0
  0
LINE
  5
1E4
330
1F
100
AcDbEntity
  8
0-0_通り芯
  6
Continuous
 62
     3
370
     9
100
AcDbLine
 10
-138.8069963727323
 20
131.5596729410058
 30
0.0
 11
-138.8069963727323
 21
154.0596729410058
 31
0.0
  0
LINE
  5
1E5
330
1F
100
AcDbEntity
  8
0-0_通り芯
  6
Continuous
 62
     3
370
     9
100
AcDbLine
 10
-115.3069435855701
 20
156.0596795394011
 30
0.0
 11
-136.806989774337
 21
156.0596795394011
 31
0.0
  0
LINE
  5
1E6
330
1F
100
AcDbEntity
  8
0-0_通り芯
  6
Continuous
 62
     3
370
     9
100
AcDbLine
 10
-154.8069501839653
 20
156.0596795394011
 30
0.0
 11
-176.3069963727323
 21
156.0596795394011
 31
0.0
  0
LINE
  5
1E7
330
1F
100
AcDbEntity
  8
0-0_通り芯
  6
Continuous
 62
     3
370
     9
100
AcDbLine
 10
-178.3070029711275
 20
131.5596729410058
 30
0.0
 11
-178.3070029711275
 21
154.0596729410058
 31
0.0
  0
LINE
  5
1E8
330
1F
100
AcDbEntity
  8
0-0_通り芯
  6
Continuous
 62
     3
370
     9
100
AcDbLine
 10
-152.8069435855701
 20
131.5596729410058
 30
0.0
 11
-152.8069435855701
 21
154.0596729410058
 31
0.0
  0
LINE
  5
1E9
330
1F
100
AcDbEntity
  8
0-0_通り芯
  6
Continuous
 62
     3
370
     9
100
AcDbLine
 10
-154.8069501839653
 20
129.5596663426105
 30
0.0
 11
-176.3069963727323
 21
129.5596663426105
 31
0.0
  0
LINE
  5
1EA
330
1F
100
AcDbEntity
  8
0-0_通り芯
  6
Continuous
 62
     3
370
     9
100
AcDbLine
 10
-194.3070557582897
 20
129.5596663426105
 30
0.0
 11
-215.8070029711275
 21
129.5596663426105
 31
0.0
  0
LINE
  5
1EB
330
1F
100
AcDbEntity
  8
0-0_通り芯
  6
Continuous
 62
     3
370
     9
100
AcDbLine
 10
-192.3069501839653
 20
131.5596729410058
 30
0.0
 11
-192.3069501839653
 21
154.0596729410058
 31
0.0
  0
LINE
  5
1EC
330
1F
100
AcDbEntity
  8
0-0_通り芯
  6
Continuous
 62
     3
370
     9
100
AcDbLine
 10
-217.8070095695228
 20
131.5596729410058
 30
0.0
 11
-217.8070095695228
 21
154.0596729410058
 31
0.0
  0
LINE
  5
1ED
330
1F
100
AcDbEntity
  8
0-0_通り芯
  6
Continuous
 62
     3
370
     9
100
AcDbLine
 10
-194.3070557582897
 20
156.0596795394011
 30
0.0
 11
-215.8070029711275
 21
156.0596795394011
 31
0.0
  0
LINE
  5
1EE
330
1F
100
AcDbEntity
  8
0-0_通り芯
  6
Continuous
 62
     3
370
     9
100
AcDbLine
 10
-233.8069633807559
 20
156.0596795394011
 30
0.0
 11
-255.3069105935937
 21
156.0596795394011
 31
0.0
  0
LINE
  5
1EF
330
1F
100
AcDbEntity
  8
0-0_通り芯
  6
Continuous
 62
     3
370
     9
100
AcDbLine
 10
-257.3070161679181
 20
131.5596729410058
 30
0.0
 11
-257.3070161679181
 21
154.0596729410058
 31
0.0
  0
LINE
  5
1F0
330
1F
100
AcDbEntity
  8
0-0_通り芯
  6
Continuous
 62
     3
370
     9
100
AcDbLine
 10
-231.8069567823607
 20
131.5596729410058
 30
0.0
 11
-231.8069567823607
 21
154.0596729410058
 31
0.0
  0
LINE
  5
1F1
330
1F
100
AcDbEntity
  8
0-0_通り芯
  6
Continuous
 62
     3
370
     9
100
AcDbLine
 10
-233.8069633807559
 20
129.5596663426105
 30
0.0
 11
-255.3069105935937
 21
129.5596663426105
 31
0.0
  0
LINE
  5
1F2
330
1F
100
AcDbEntity
  8
0-0_通り芯
  6
Continuous
 62
     3
370
     9
100
AcDbLine
 10
-273.3069699791512
 20
129.5596663426105
 30
0.0
 11
-294.8070161679181
 21
129.5596663426105
 31
0.0
  0
LINE
  5
1F3
330
1F
100
AcDbEntity
  8
0-0_通り芯
  6
Continuous
 62
     3
370
     9
100
AcDbLine
 10
-271.3069633807559
 20
131.5596729410058
 30
0.0
 11
-271.3069633807559
 21
154.0596729410058
 31
0.0
  0
LINE
  5
1F4
330
1F
100
AcDbEntity
  8
0-0_通り芯
  6
Continuous
 62
     3
370
     9
100
AcDbLine
 10
-296.8070227663134
 20
131.5596729410058
 30
0.0
 11
-296.8070227663134
 21
154.0596729410058
 31
0.0
  0
LINE
  5
1F5
330
1F
100
AcDbEntity
  8
0-0_通り芯
  6
Continuous
 62
     3
370
     9
100
AcDbLine
 10
-273.3069699791512
 20
156.0596795394011
 30
0.0
 11
-294.8070161679181
 21
156.0596795394011
 31
0.0
  0
LINE
  5
1F6
330
1F
100
AcDbEntity
  8
0-0_通り芯
  6
Continuous
 62
     3
370
     9
100
AcDbLine
 10
-312.8069765775465
 20
156.0596795394011
 30
0.0
 11
-334.3069237903843
 21
156.0596795394011
 31
0.0
  0
LINE
  5
1F7
330
1F
100
AcDbEntity
  8
0-0_通り芯
  6
Continuous
 62
     3
370
     9
100
AcDbLine
 10
-336.3070293647086
 20
131.5596729410058
 30
0.0
 11
-336.3070293647086
 21
154.0596729410058
 31
0.0
  0
LINE
  5
1F8
330
1F
100
AcDbEntity
  8
0-0_通り芯
  6
Continuous
 62
     3
370
     9
100
AcDbLine
 10
-310.8069699791512
 20
131.5596729410058
 30
0.0
 11
-310.8069699791512
 21
154.0596729410058
 31
0.0
  0
LINE
  5
1F9
330
1F
100
AcDbEntity
  8
0-0_通り芯
  6
Continuous
 62
     3
370
     9
100
AcDbLine
 10
-312.8069765775465
 20
129.5596663426105
 30
0.0
 11
-334.3069237903843
 21
129.5596663426105
 31
0.0
  0
LINE
  5
1FA
330
1F
100
AcDbEntity
  8
0-0_通り芯
  6
Continuous
 62
     3
370
     9
100
AcDbLine
 10
-312.8069765775465
 20
89.05960695705305
 30
0.0
 11
-334.3069237903843
 21
89.05960695705305
 31
0.0
  0
LINE
  5
1FB
330
1F
100
AcDbEntity
  8
0-0_通り芯
  6
Continuous
 62
     3
370
     9
100
AcDbLine
 10
-310.8069699791512
 20
91.05966304341284
 30
0.0
 11
-310.8069699791512
 21
113.5597125313774
 31
0.0
  0
LINE
  5
1FC
330
1F
100
AcDbEntity
  8
0-0_通り芯
  6
Continuous
 62
     3
370
     9
100
AcDbLine
 10
-336.3070293647086
 20
91.05966304341284
 30
0.0
 11
-336.3070293647086
 21
113.5597125313774
 31
0.0
  0
LINE
  5
1FD
330
1F
100
AcDbEntity
  8
0-0_通り芯
  6
Continuous
 62
     3
370
     9
100
AcDbLine
 10
-312.8069765775465
 20
115.5596201538436
 30
0.0
 11
-334.3069237903843
 21
115.5596201538436
 31
0.0
  0
LINE
  5
1FE
330
1F
100
AcDbEntity
  8
0-0_通り芯
  6
Continuous
 62
     3
370
     9
100
AcDbLine
 10
-273.3069699791512
 20
115.5596201538436
 30
0.0
 11
-294.8070161679181
 21
115.5596201538436
 31
0.0
  0
LINE
  5
1FF
330
1F
100
AcDbEntity
  8
0-0_通り芯
  6
Continuous
 62
     3
370
     9
100
AcDbLine
 10
-296.8070227663134
 20
91.05966304341284
 30
0.0
 11
-296.8070227663134
 21
113.5597125313774
 31
0.0
  0
LINE
  5
200
330
1F
100
AcDbEntity
  8
0-0_通り芯
  6
Continuous
 62
     3
370
     9
100
AcDbLine
 10
-271.3069633807559
 20
91.05966304341284
 30
0.0
 11
-271.3069633807559
 21
113.5597125313774
 31
0.0
  0
LINE
  5
201
330
1F
100
AcDbEntity
  8
0-0_通り芯
  6
Continuous
 62
     3
370
     9
100
AcDbLine
 10
-273.3069699791512
 20
89.05960695705305
 30
0.0
 11
-294.8070161679181
 21
89.05960695705305
 31
0.0
  0
LINE
  5
202
330
1F
100
AcDbEntity
  8
0-0_通り芯
  6
Continuous
 62
     3
370
     9
100
AcDbLine
 10
-233.8069633807559
 20
89.05960695705305
 30
0.0
 11
-255.3069105935937
 21
89.05960695705305
 31
0.0
  0
LINE
  5
203
330
1F
100
AcDbEntity
  8
0-0_通り芯
  6
Continuous
 62
     3
370
     9
100
AcDbLine
 10
-231.8069567823607
 20
91.05966304341284
 30
0.0
 11
-231.8069567823607
 21
113.5597125313774
 31
0.0
  0
LINE
  5
204
330
1F
100
AcDbEntity
  8
0-0_通り芯
  6
Continuous
 62
     3
370
     9
100
AcDbLine
 10
-257.3070161679181
 20
91.05966304341284
 30
0.0
 11
-257.3070161679181
 21
113.5597125313774
 31
0.0
  0
LINE
  5
205
330
1F
100
AcDbEntity
  8
0-0_通り芯
  6
Continuous
 62
     3
370
     9
100
AcDbLine
 10
-233.8069633807559
 20
115.5596201538436
 30
0.0
 11
-255.3069105935937
 21
115.5596201538436
 31
0.0
  0
LINE
  5
206
330
1F
100
AcDbEntity
  8
0-0_通り芯
  6
Continuous
 62
     3
370
     9
100
AcDbLine
 10
-194.3070557582897
 20
115.5596201538436
 30
0.0
 11
-215.8070029711275
 21
115.5596201538436
 31
0.0
  0
LINE
  5
207
330
1F
100
AcDbEntity
  8
0-0_通り芯
  6
Continuous
 62
     3
370
     9
100
AcDbLine
 10
-217.8070095695228
 20
91.05966304341284
 30
0.0
 11
-217.8070095695228
 21
113.5597125313774
 31
0.0
  0
LINE
  5
208
330
1F
100
AcDbEntity
  8
0-0_通り芯
  6
Continuous
 62
     3
370
     9
100
AcDbLine
 10
-192.3069501839653
 20
91.05966304341284
 30
0.0
 11
-192.3069501839653
 21
113.5597125313774
 31
0.0
  0
LINE
  5
209
330
1F
100
AcDbEntity
  8
0-0_通り芯
  6
Continuous
 62
     3
370
     9
100
AcDbLine
 10
-194.3070557582897
 20
89.05960695705305
 30
0.0
 11
-215.8070029711275
 21
89.05960695705305
 31
0.0
  0
LINE
  5
20A
330
1F
100
AcDbEntity
  8
0-0_通り芯
  6
Continuous
 62
     3
370
     9
100
AcDbLine
 10
-154.8069501839653
 20
89.05960695705305
 30
0.0
 11
-176.3069963727323
 21
89.05960695705305
 31
0.0
  0
LINE
  5
20B
330
1F
100
AcDbEntity
  8
0-0_通り芯
  6
Continuous
 62
     3
370
     9
100
AcDbLine
 10
-152.8069435855701
 20
91.05966304341284
 30
0.0
 11
-152.8069435855701
 21
113.5597125313774
 31
0.0
  0
LINE
  5
20C
330
1F
100
AcDbEntity
  8
0-0_通り芯
  6
Continuous
 62
     3
370
     9
100
AcDbLine
 10
-178.3070029711275
 20
91.05966304341284
 30
0.0
 11
-178.3070029711275
 21
113.5597125313774
 31
0.0
  0
LINE
  5
20D
330
1F
100
AcDbEntity
  8
0-0_通り芯
  6
Continuous
 62
     3
370
     9
100
AcDbLine
 10
-154.8069501839653
 20
115.5596201538436
 30
0.0
 11
-176.3069963727323
 21
115.5596201538436
 31
0.0
  0
LINE
  5
20E
330
1F
100
AcDbEntity
  8
0-0_通り芯
  6
Continuous
 62
     3
370
     9
100
AcDbLine
 10
-115.3069435855701
 20
115.5596201538436
 30
0.0
 11
-136.806989774337
 21
115.5596201538436
 31
0.0
  0
LINE
  5
20F
330
1F
100
AcDbEntity
  8
0-0_通り芯
  6
Continuous
 62
     3
370
     9
100
AcDbLine
 10
-138.8069963727323
 20
91.05966304341284
 30
0.0
 11
-138.8069963727323
 21
113.5597125313774
 31
0.0
  0
LINE
  5
210
330
1F
100
AcDbEntity
  8
0-0_通り芯
  6
Continuous
 62
     3
370
     9
100
AcDbLine
 10
-113.3069369871748
 20
91.05966304341284
 30
0.0
 11
-113.3069369871748
 21
113.5597125313774
 31
0.0
  0
LINE
  5
211
330
1F
100
AcDbEntity
  8
0-0_通り芯
  6
Continuous
 62
     3
370
     9
100
AcDbLine
 10
-115.3069435855701
 20
89.05960695705305
 30
0.0
 11
-136.806989774337
 21
89.05960695705305
 31
0.0
  0
ARC
  5
212
330
1F
100
AcDbEntity
  8
0-0_通り芯
  6
Continuous
 62
     3
370
     9
100
AcDbCircle
 10
-97.30698317594171
 20
113.5597125313774
 30
0.0
 40
2.000000025774982
100
AcDbArc
 50
90.0
 51
180.0
  0
ARC
  5
213
330
1F
100
AcDbEntity
  8
0-0_通り芯
  6
Continuous
 62
     3
370
     9
100
AcDbCircle
 10
-75.80693698717484
 20
113.5597125313774
 30
0.0
 40
2.000000025774982
100
AcDbArc
 50
0.0
 51
90.0
  0
ARC
  5
214
330
1F
100
AcDbEntity
  8
0-0_通り芯
  6
Continuous
 62
     3
370
     9
100
AcDbCircle
 10
-75.80693698717484
 20
91.05966304341284
 30
0.0
 40
2.000000025774982
100
AcDbArc
 50
270.0
 51
0.0
  0
ARC
  5
215
330
1F
100
AcDbEntity
  8
0-0_通り芯
  6
Continuous
 62
     3
370
     9
100
AcDbCircle
 10
-97.30698317594171
 20
91.05966304341284
 30
0.0
 40
2.000000025774982
100
AcDbArc
 50
180.0
 51
270.0
  0
ARC
  5
216
330
1F
100
AcDbEntity
  8
0-0_通り芯
  6
Continuous
 62
     3
370
     9
100
AcDbCircle
 10
-57.80697657754651
 20
91.05966304341284
 30
0.0
 40
2.000000025774982
100
AcDbArc
 50
180.0
 51
270.0
  0
ARC
  5
217
330
1F
100
AcDbEntity
  8
0-0_通り芯
  6
Continuous
 62
     3
370
     9
100
AcDbCircle
 10
-36.30693038877952
 20
91.05966304341284
 30
0.0
 40
2.000000025774982
100
AcDbArc
 50
270.0
 51
0.0
  0
ARC
  5
218
330
1F
100
AcDbEntity
  8
0-0_通り芯
  6
Continuous
 62
     3
370
     9
100
AcDbCircle
 10
-36.30693038877952
 20
113.5597125313774
 30
0.0
 40
2.000000025774982
100
AcDbArc
 50
0.0
 51
90.0
  0
ARC
  5
219
330
1F
100
AcDbEntity
  8
0-0_通り芯
  6
Continuous
 62
     3
370
     9
100
AcDbCircle
 10
-57.80697657754651
 20
113.5597125313774
 30
0.0
 40
2.000000025774982
100
AcDbArc
 50
90.0
 51
180.0
  0
ARC
  5
21A
330
1F
100
AcDbEntity
  8
0-0_通り芯
  6
Continuous
 62
     3
370
     9
100
AcDbCircle
 10
-18.30696997915119
 20
113.5597125313774
 30
0.0
 40
2.000000025774982
100
AcDbArc
 50
90.0
 51
180.0
  0
ARC
  5
21B
330
1F
100
AcDbEntity
  8
0-0_通り芯
  6
Continuous
 62
     3
370
     9
100
AcDbCircle
 10
3.193026721651208
 20
113.5597125313774
 30
0.0
 40
2.000000025774982
100
AcDbArc
 50
0.0
 51
90.0
  0
ARC
  5
21C
330
1F
100
AcDbEntity
  8
0-0_通り芯
  6
Continuous
 62
     3
370
     9
100
AcDbCircle
 10
3.193026721651208
 20
91.05966304341284
 30
0.0
 40
2.000000025774982
100
AcDbArc
 50
270.0
 51
0.0
  0
ARC
  5
21D
330
1F
100
AcDbEntity
  8
0-0_通り芯
  6
Continuous
 62
     3
370
     9
100
AcDbCircle
 10
-18.30696997915119
 20
91.05966304341284
 30
0.0
 40
2.000000025774982
100
AcDbArc
 50
180.0
 51
270.0
  0
ARC
  5
21E
330
1F
100
AcDbEntity
  8
0-0_通り芯
  6
Continuous
 62
     3
370
     9
100
AcDbCircle
 10
21.1930861072086
 20
91.05966304341284
 30
0.0
 40
2.000000025774982
100
AcDbArc
 50
180.0
 51
270.0
  0
ARC
  5
21F
330
1F
100
AcDbEntity
  8
0-0_通り芯
  6
Continuous
 62
     3
370
     9
100
AcDbCircle
 10
42.69303332004641
 20
91.05966304341284
 30
0.0
 40
2.000000025774982
100
AcDbArc
 50
270.0
 51
0.0
  0
ARC
  5
220
330
1F
100
AcDbEntity
  8
0-0_通り芯
  6
Continuous
 62
     3
370
     9
100
AcDbCircle
 10
42.69303332004641
 20
113.5597125313774
 30
0.0
 40
2.000000025774982
100
AcDbArc
 50
0.0
 51
90.0
  0
ARC
  5
221
330
1F
100
AcDbEntity
  8
0-0_通り芯
  6
Continuous
 62
     3
370
     9
100
AcDbCircle
 10
21.1930861072086
 20
113.5597125313774
 30
0.0
 40
2.000000025774982
100
AcDbArc
 50
90.0
 51
180.0
  0
ARC
  5
222
330
1F
100
AcDbEntity
  8
0-0_通り芯
  6
Continuous
 62
     3
370
     9
100
AcDbCircle
 10
60.69309270560392
 20
113.5597125313774
 30
0.0
 40
2.000000025774982
100
AcDbArc
 50
90.0
 51
180.0
  0
ARC
  5
223
330
1F
100
AcDbEntity
  8
0-0_通り芯
  6
Continuous
 62
     3
370
     9
100
AcDbCircle
 10
82.19303991844173
 20
113.5597125313774
 30
0.0
 40
2.000000025774982
100
AcDbArc
 50
0.0
 51
90.0
  0
ARC
  5
224
330
1F
100
AcDbEntity
  8
0-0_通り芯
  6
Continuous
 62
     3
370
     9
100
AcDbCircle
 10
82.19303991844173
 20
91.05966304341284
 30
0.0
 40
2.000000025774982
100
AcDbArc
 50
270.0
 51
0.0
  0
ARC
  5
225
330
1F
100
AcDbEntity
  8
0-0_通り芯
  6
Continuous
 62
     3
370
     9
100
AcDbCircle
 10
60.69309270560392
 20
91.05966304341284
 30
0.0
 40
2.000000025774982
100
AcDbArc
 50
180.0
 51
270.0
  0
ARC
  5
226
330
1F
100
AcDbEntity
  8
0-0_通り芯
  6
Continuous
 62
     3
370
     9
100
AcDbCircle
 10
100.1930498160346
 20
91.05966304341284
 30
0.0
 40
2.000000025774982
100
AcDbArc
 50
180.0
 51
270.0
  0
ARC
  5
227
330
1F
100
AcDbEntity
  8
0-0_通り芯
  6
Continuous
 62
     3
370
     9
100
AcDbCircle
 10
121.6930465168371
 20
91.05966304341284
 30
0.0
 40
2.000000025774982
100
AcDbArc
 50
270.0
 51
0.0
  0
ARC
  5
228
330
1F
100
AcDbEntity
  8
0-0_通り芯
  6
Continuous
 62
     3
370
     9
100
AcDbCircle
 10
121.6930465168371
 20
113.5597125313774
 30
0.0
 40
2.000000025774982
100
AcDbArc
 50
0.0
 51
90.0
  0
ARC
  5
229
330
1F
100
AcDbEntity
  8
0-0_通り芯
  6
Continuous
 62
     3
370
     9
100
AcDbCircle
 10
100.1930498160346
 20
113.5597125313774
 30
0.0
 40
2.000000025774982
100
AcDbArc
 50
90.0
 51
180.0
  0
ARC
  5
22A
330
1F
100
AcDbEntity
  8
0-0_通り芯
  6
Continuous
 62
     3
370
     9
100
AcDbCircle
 10
100.1930498160346
 20
154.0596729410058
 30
0.0
 40
2.000000025774982
100
AcDbArc
 50
90.0
 51
180.0
  0
ARC
  5
22B
330
1F
100
AcDbEntity
  8
0-0_通り芯
  6
Continuous
 62
     3
370
     9
100
AcDbCircle
 10
121.6930465168371
 20
154.0596729410058
 30
0.0
 40
2.000000025774982
100
AcDbArc
 50
0.0
 51
90.0
  0
ARC
  5
22C
330
1F
100
AcDbEntity
  8
0-0_通り芯
  6
Continuous
 62
     3
370
     9
100
AcDbCircle
 10
121.6930465168371
 20
131.5596729410058
 30
0.0
 40
2.000000025774982
100
AcDbArc
 50
270.0
 51
0.0
  0
ARC
  5
22D
330
1F
100
AcDbEntity
  8
0-0_通り芯
  6
Continuous
 62
     3
370
     9
100
AcDbCircle
 10
100.1930498160346
 20
131.5596729410058
 30
0.0
 40
2.000000025774982
100
AcDbArc
 50
180.0
 51
270.0
  0
ARC
  5
22E
330
1F
100
AcDbEntity
  8
0-0_通り芯
  6
Continuous
 62
     3
370
     9
100
AcDbCircle
 10
60.69309270560392
 20
131.5596729410058
 30
0.0
 40
2.000000025774982
100
AcDbArc
 50
180.0
 51
270.0
  0
ARC
  5
22F
330
1F
100
AcDbEntity
  8
0-0_通り芯
  6
Continuous
 62
     3
370
     9
100
AcDbCircle
 10
82.19303991844173
 20
131.5596729410058
 30
0.0
 40
2.000000025774982
100
AcDbArc
 50
270.0
 51
0.0
  0
ARC
  5
230
330
1F
100
AcDbEntity
  8
0-0_通り芯
  6
Continuous
 62
     3
370
     9
100
AcDbCircle
 10
82.19303991844173
 20
154.0596729410058
 30
0.0
 40
2.000000025774982
100
AcDbArc
 50
0.0
 51
90.0
  0
ARC
  5
231
330
1F
100
AcDbEntity
  8
0-0_通り芯
  6
Continuous
 62
     3
370
     9
100
AcDbCircle
 10
60.69309270560392
 20
154.0596729410058
 30
0.0
 40
2.000000025774982
100
AcDbArc
 50
90.0
 51
180.0
  0
ARC
  5
232
330
1F
100
AcDbEntity
  8
0-0_通り芯
  6
Continuous
 62
     3
370
     9
100
AcDbCircle
 10
21.1930861072086
 20
154.0596729410058
 30
0.0
 40
2.000000025774982
100
AcDbArc
 50
90.0
 51
180.0
  0
ARC
  5
233
330
1F
100
AcDbEntity
  8
0-0_通り芯
  6
Continuous
 62
     3
370
     9
100
AcDbCircle
 10
42.69303332004641
 20
154.0596729410058
 30
0.0
 40
2.000000025774982
100
AcDbArc
 50
0.0
 51
90.0
  0
ARC
  5
234
330
1F
100
AcDbEntity
  8
0-0_通り芯
  6
Continuous
 62
     3
370
     9
100
AcDbCircle
 10
42.69303332004641
 20
131.5596729410058
 30
0.0
 40
2.000000025774982
100
AcDbArc
 50
270.0
 51
0.0
  0
ARC
  5
235
330
1F
100
AcDbEntity
  8
0-0_通り芯
  6
Continuous
 62
     3
370
     9
100
AcDbCircle
 10
21.1930861072086
 20
131.5596729410058
 30
0.0
 40
2.000000025774982
100
AcDbArc
 50
180.0
 51
270.0
  0
ARC
  5
236
330
1F
100
AcDbEntity
  8
0-0_通り芯
  6
Continuous
 62
     3
370
     9
100
AcDbCircle
 10
-18.30696997915119
 20
131.5596729410058
 30
0.0
 40
2.000000025774982
100
AcDbArc
 50
180.0
 51
270.0
  0
ARC
  5
237
330
1F
100
AcDbEntity
  8
0-0_通り芯
  6
Continuous
 62
     3
370
     9
100
AcDbCircle
 10
3.193026721651208
 20
131.5596729410058
 30
0.0
 40
2.000000025774982
100
AcDbArc
 50
270.0
 51
0.0
  0
ARC
  5
238
330
1F
100
AcDbEntity
  8
0-0_通り芯
  6
Continuous
 62
     3
370
     9
100
AcDbCircle
 10
3.193026721651208
 20
154.0596729410058
 30
0.0
 40
2.000000025774982
100
AcDbArc
 50
0.0
 51
90.0
  0
ARC
  5
239
330
1F
100
AcDbEntity
  8
0-0_通り芯
  6
Continuous
 62
     3
370
     9
100
AcDbCircle
 10
-18.30696997915119
 20
154.0596729410058
 30
0.0
 40
2.000000025774982
100
AcDbArc
 50
90.0
 51
180.0
  0
ARC
  5
23A
330
1F
100
AcDbEntity
  8
0-0_通り芯
  6
Continuous
 62
     3
370
     9
100
AcDbCircle
 10
-57.80697657754651
 20
154.0596729410058
 30
0.0
 40
2.000000025774982
100
AcDbArc
 50
90.0
 51
180.0
  0
ARC
  5
23B
330
1F
100
AcDbEntity
  8
0-0_通り芯
  6
Continuous
 62
     3
370
     9
100
AcDbCircle
 10
-36.30693038877952
 20
154.0596729410058
 30
0.0
 40
2.000000025774982
100
AcDbArc
 50
0.0
 51
90.0
  0
ARC
  5
23C
330
1F
100
AcDbEntity
  8
0-0_通り芯
  6
Continuous
 62
     3
370
     9
100
AcDbCircle
 10
-36.30693038877952
 20
131.5596729410058
 30
0.0
 40
2.000000025774982
100
AcDbArc
 50
270.0
 51
0.0
  0
ARC
  5
23D
330
1F
100
AcDbEntity
  8
0-0_通り芯
  6
Continuous
 62
     3
370
     9
100
AcDbCircle
 10
-57.80697657754651
 20
131.5596729410058
 30
0.0
 40
2.000000025774982
100
AcDbArc
 50
180.0
 51
270.0
  0
ARC
  5
23E
330
1F
100
AcDbEntity
  8
0-0_通り芯
  6
Continuous
 62
     3
370
     9
100
AcDbCircle
 10
-97.30698317594171
 20
131.5596729410058
 30
0.0
 40
2.000000025774982
100
AcDbArc
 50
180.0
 51
270.0
  0
ARC
  5
23F
330
1F
100
AcDbEntity
  8
0-0_通り芯
  6
Continuous
 62
     3
370
     9
100
AcDbCircle
 10
-75.80693698717484
 20
131.5596729410058
 30
0.0
 40
2.000000025774982
100
AcDbArc
 50
270.0
 51
0.0
  0
ARC
  5
240
330
1F
100
AcDbEntity
  8
0-0_通り芯
  6
Continuous
 62
     3
370
     9
100
AcDbCircle
 10
-75.80693698717484
 20
154.0596729410058
 30
0.0
 40
2.000000025774982
100
AcDbArc
 50
0.0
 51
90.0
  0
ARC
  5
241
330
1F
100
AcDbEntity
  8
0-0_通り芯
  6
Continuous
 62
     3
370
     9
100
AcDbCircle
 10
-97.30698317594171
 20
154.0596729410058
 30
0.0
 40
2.000000025774982
100
AcDbArc
 50
90.0
 51
180.0
  0
ARC
  5
242
330
1F
100
AcDbEntity
  8
0-0_通り芯
  6
Continuous
 62
     3
370
     9
100
AcDbCircle
 10
-97.30698317594171
 20
194.5596333506342
 30
0.0
 40
2.000000025774982
100
AcDbArc
 50
90.0
 51
180.0
  0
ARC
  5
243
330
1F
100
AcDbEntity
  8
0-0_通り芯
  6
Continuous
 62
     3
370
     9
100
AcDbCircle
 10
-75.80693698717484
 20
194.5596333506342
 30
0.0
 40
2.000000025774982
100
AcDbArc
 50
0.0
 51
90.0
  0
ARC
  5
244
330
1F
100
AcDbEntity
  8
0-0_通り芯
  6
Continuous
 62
     3
370
     9
100
AcDbCircle
 10
-75.80693698717484
 20
172.0596333506341
 30
0.0
 40
2.000000025774982
100
AcDbArc
 50
270.0
 51
0.0
  0
ARC
  5
245
330
1F
100
AcDbEntity
  8
0-0_通り芯
  6
Continuous
 62
     3
370
     9
100
AcDbCircle
 10
-97.30698317594171
 20
172.0596333506341
 30
0.0
 40
2.000000025774982
100
AcDbArc
 50
180.0
 51
270.0
  0
ARC
  5
246
330
1F
100
AcDbEntity
  8
0-0_通り芯
  6
Continuous
 62
     3
370
     9
100
AcDbCircle
 10
-57.80697657754651
 20
172.0596333506341
 30
0.0
 40
2.000000025774982
100
AcDbArc
 50
180.0
 51
270.0
  0
ARC
  5
247
330
1F
100
AcDbEntity
  8
0-0_通り芯
  6
Continuous
 62
     3
370
     9
100
AcDbCircle
 10
-36.30693038877952
 20
172.0596333506341
 30
0.0
 40
2.000000025774982
100
AcDbArc
 50
270.0
 51
0.0
  0
ARC
  5
248
330
1F
100
AcDbEntity
  8
0-0_通り芯
  6
Continuous
 62
     3
370
     9
100
AcDbCircle
 10
-36.30693038877952
 20
194.5596333506342
 30
0.0
 40
2.000000025774982
100
AcDbArc
 50
0.0
 51
90.0
  0
ARC
  5
249
330
1F
100
AcDbEntity
  8
0-0_通り芯
  6
Continuous
 62
     3
370
     9
100
AcDbCircle
 10
-57.80697657754651
 20
194.5596333506342
 30
0.0
 40
2.000000025774982
100
AcDbArc
 50
90.0
 51
180.0
  0
ARC
  5
24A
330
1F
100
AcDbEntity
  8
0-0_通り芯
  6
Continuous
 62
     3
370
     9
100
AcDbCircle
 10
-18.30696997915119
 20
194.5596333506342
 30
0.0
 40
2.000000025774982
100
AcDbArc
 50
90.0
 51
180.0
  0
ARC
  5
24B
330
1F
100
AcDbEntity
  8
0-0_通り芯
  6
Continuous
 62
     3
370
     9
100
AcDbCircle
 10
3.193026721651208
 20
194.5596333506342
 30
0.0
 40
2.000000025774982
100
AcDbArc
 50
0.0
 51
90.0
  0
ARC
  5
24C
330
1F
100
AcDbEntity
  8
0-0_通り芯
  6
Continuous
 62
     3
370
     9
100
AcDbCircle
 10
3.193026721651208
 20
172.0596333506341
 30
0.0
 40
2.000000025774982
100
AcDbArc
 50
270.0
 51
0.0
  0
ARC
  5
24D
330
1F
100
AcDbEntity
  8
0-0_通り芯
  6
Continuous
 62
     3
370
     9
100
AcDbCircle
 10
-18.30696997915119
 20
172.0596333506341
 30
0.0
 40
2.000000025774982
100
AcDbArc
 50
180.0
 51
270.0
  0
ARC
  5
24E
330
1F
100
AcDbEntity
  8
0-0_通り芯
  6
Continuous
 62
     3
370
     9
100
AcDbCircle
 10
21.1930861072086
 20
172.0596333506341
 30
0.0
 40
2.000000025774982
100
AcDbArc
 50
180.0
 51
270.0
  0
ARC
  5
24F
330
1F
100
AcDbEntity
  8
0-0_通り芯
  6
Continuous
 62
     3
370
     9
100
AcDbCircle
 10
42.69303332004641
 20
172.0596333506341
 30
0.0
 40
2.000000025774982
100
AcDbArc
 50
270.0
 51
0.0
  0
ARC
  5
250
330
1F
100
AcDbEntity
  8
0-0_通り芯
  6
Continuous
 62
     3
370
     9
100
AcDbCircle
 10
42.69303332004641
 20
194.5596333506342
 30
0.0
 40
2.000000025774982
100
AcDbArc
 50
0.0
 51
90.0
  0
ARC
  5
251
330
1F
100
AcDbEntity
  8
0-0_通り芯
  6
Continuous
 62
     3
370
     9
100
AcDbCircle
 10
21.1930861072086
 20
194.5596333506342
 30
0.0
 40
2.000000025774982
100
AcDbArc
 50
90.0
 51
180.0
  0
ARC
  5
252
330
1F
100
AcDbEntity
  8
0-0_通り芯
  6
Continuous
 62
     3
370
     9
100
AcDbCircle
 10
60.69309270560392
 20
194.5596333506342
 30
0.0
 40
2.000000025774982
100
AcDbArc
 50
90.0
 51
180.0
  0
ARC
  5
253
330
1F
100
AcDbEntity
  8
0-0_通り芯
  6
Continuous
 62
     3
370
     9
100
AcDbCircle
 10
82.19303991844173
 20
194.5596333506342
 30
0.0
 40
2.000000025774982
100
AcDbArc
 50
0.0
 51
90.0
  0
ARC
  5
254
330
1F
100
AcDbEntity
  8
0-0_通り芯
  6
Continuous
 62
     3
370
     9
100
AcDbCircle
 10
82.19303991844173
 20
172.0596333506341
 30
0.0
 40
2.000000025774982
100
AcDbArc
 50
270.0
 51
0.0
  0
ARC
  5
255
330
1F
100
AcDbEntity
  8
0-0_通り芯
  6
Continuous
 62
     3
370
     9
100
AcDbCircle
 10
60.69309270560392
 20
172.0596333506341
 30
0.0
 40
2.000000025774982
100
AcDbArc
 50
180.0
 51
270.0
  0
ARC
  5
256
330
1F
100
AcDbEntity
  8
0-0_通り芯
  6
Continuous
 62
     3
370
     9
100
AcDbCircle
 10
100.1930498160346
 20
172.0596333506341
 30
0.0
 40
2.000000025774982
100
AcDbArc
 50
180.0
 51
270.0
  0
ARC
  5
257
330
1F
100
AcDbEntity
  8
0-0_通り芯
  6
Continuous
 62
     3
370
     9
100
AcDbCircle
 10
121.6930465168371
 20
172.0596333506341
 30
0.0
 40
2.000000025774982
100
AcDbArc
 50
270.0
 51
0.0
  0
ARC
  5
258
330
1F
100
AcDbEntity
  8
0-0_通り芯
  6
Continuous
 62
     3
370
     9
100
AcDbCircle
 10
121.6930465168371
 20
194.5596333506342
 30
0.0
 40
2.000000025774982
100
AcDbArc
 50
0.0
 51
90.0
  0
ARC
  5
259
330
1F
100
AcDbEntity
  8
0-0_通り芯
  6
Continuous
 62
     3
370
     9
100
AcDbCircle
 10
100.1930498160346
 20
194.5596333506342
 30
0.0
 40
2.000000025774982
100
AcDbArc
 50
90.0
 51
180.0
  0
ARC
  5
25A
330
1F
100
AcDbEntity
  8
0-0_通り芯
  6
Continuous
 62
     3
370
     9
100
AcDbCircle
 10
100.1930498160346
 20
235.0595937602625
 30
0.0
 40
2.000000025774982
100
AcDbArc
 50
90.0
 51
180.0
  0
ARC
  5
25B
330
1F
100
AcDbEntity
  8
0-0_通り芯
  6
Continuous
 62
     3
370
     9
100
AcDbCircle
 10
121.6930465168371
 20
235.0595937602625
 30
0.0
 40
2.000000025774982
100
AcDbArc
 50
0.0
 51
90.0
  0
ARC
  5
25C
330
1F
100
AcDbEntity
  8
0-0_通り芯
  6
Continuous
 62
     3
370
     9
100
AcDbCircle
 10
121.6930465168371
 20
212.5595937602625
 30
0.0
 40
2.000000025774982
100
AcDbArc
 50
270.0
 51
0.0
  0
ARC
  5
25D
330
1F
100
AcDbEntity
  8
0-0_通り芯
  6
Continuous
 62
     3
370
     9
100
AcDbCircle
 10
100.1930498160346
 20
212.5595937602625
 30
0.0
 40
2.000000025774982
100
AcDbArc
 50
180.0
 51
270.0
  0
ARC
  5
25E
330
1F
100
AcDbEntity
  8
0-0_通り芯
  6
Continuous
 62
     3
370
     9
100
AcDbCircle
 10
60.69309270560392
 20
212.5595937602625
 30
0.0
 40
2.000000025774982
100
AcDbArc
 50
180.0
 51
270.0
  0
ARC
  5
25F
330
1F
100
AcDbEntity
  8
0-0_通り芯
  6
Continuous
 62
     3
370
     9
100
AcDbCircle
 10
82.19303991844173
 20
212.5595937602625
 30
0.0
 40
2.000000025774982
100
AcDbArc
 50
270.0
 51
0.0
  0
ARC
  5
260
330
1F
100
AcDbEntity
  8
0-0_通り芯
  6
Continuous
 62
     3
370
     9
100
AcDbCircle
 10
82.19303991844173
 20
235.0595937602625
 30
0.0
 40
2.000000025774982
100
AcDbArc
 50
0.0
 51
90.0
  0
ARC
  5
261
330
1F
100
AcDbEntity
  8
0-0_通り芯
  6
Continuous
 62
     3
370
     9
100
AcDbCircle
 10
60.69309270560392
 20
235.0595937602625
 30
0.0
 40
2.000000025774982
100
AcDbArc
 50
90.0
 51
180.0
  0
ARC
  5
262
330
1F
100
AcDbEntity
  8
0-0_通り芯
  6
Continuous
 62
     3
370
     9
100
AcDbCircle
 10
21.1930861072086
 20
235.0595937602625
 30
0.0
 40
2.000000025774982
100
AcDbArc
 50
90.0
 51
180.0
  0
ARC
  5
263
330
1F
100
AcDbEntity
  8
0-0_通り芯
  6
Continuous
 62
     3
370
     9
100
AcDbCircle
 10
42.69303332004641
 20
235.0595937602625
 30
0.0
 40
2.000000025774982
100
AcDbArc
 50
0.0
 51
90.0
  0
ARC
  5
264
330
1F
100
AcDbEntity
  8
0-0_通り芯
  6
Continuous
 62
     3
370
     9
100
AcDbCircle
 10
42.69303332004641
 20
212.5595937602625
 30
0.0
 40
2.000000025774982
100
AcDbArc
 50
270.0
 51
0.0
  0
ARC
  5
265
330
1F
100
AcDbEntity
  8
0-0_通り芯
  6
Continuous
 62
     3
370
     9
100
AcDbCircle
 10
21.1930861072086
 20
212.5595937602625
 30
0.0
 40
2.000000025774982
100
AcDbArc
 50
180.0
 51
270.0
  0
ARC
  5
266
330
1F
100
AcDbEntity
  8
0-0_通り芯
  6
Continuous
 62
     3
370
     9
100
AcDbCircle
 10
-18.30696997915119
 20
212.5595937602625
 30
0.0
 40
2.000000025774982
100
AcDbArc
 50
180.0
 51
270.0
  0
ARC
  5
267
330
1F
100
AcDbEntity
  8
0-0_通り芯
  6
Continuous
 62
     3
370
     9
100
AcDbCircle
 10
3.193026721651208
 20
212.5595937602625
 30
0.0
 40
2.000000025774982
100
AcDbArc
 50
270.0
 51
0.0
  0
ARC
  5
268
330
1F
100
AcDbEntity
  8
0-0_通り芯
  6
Continuous
 62
     3
370
     9
100
AcDbCircle
 10
3.193026721651208
 20
235.0595937602625
 30
0.0
 40
2.000000025774982
100
AcDbArc
 50
0.0
 51
90.0
  0
ARC
  5
269
330
1F
100
AcDbEntity
  8
0-0_通り芯
  6
Continuous
 62
     3
370
     9
100
AcDbCircle
 10
-18.30696997915119
 20
235.0595937602625
 30
0.0
 40
2.000000025774982
100
AcDbArc
 50
90.0
 51
180.0
  0
ARC
  5
26A
330
1F
100
AcDbEntity
  8
0-0_通り芯
  6
Continuous
 62
     3
370
     9
100
AcDbCircle
 10
-57.80697657754651
 20
235.0595937602625
 30
0.0
 40
2.000000025774982
100
AcDbArc
 50
90.0
 51
180.0
  0
ARC
  5
26B
330
1F
100
AcDbEntity
  8
0-0_通り芯
  6
Continuous
 62
     3
370
     9
100
AcDbCircle
 10
-36.30693038877952
 20
235.0595937602625
 30
0.0
 40
2.000000025774982
100
AcDbArc
 50
0.0
 51
90.0
  0
ARC
  5
26C
330
1F
100
AcDbEntity
  8
0-0_通り芯
  6
Continuous
 62
     3
370
     9
100
AcDbCircle
 10
-36.30693038877952
 20
212.5595937602625
 30
0.0
 40
2.000000025774982
100
AcDbArc
 50
270.0
 51
0.0
  0
ARC
  5
26D
330
1F
100
AcDbEntity
  8
0-0_通り芯
  6
Continuous
 62
     3
370
     9
100
AcDbCircle
 10
-57.80697657754651
 20
212.5595937602625
 30
0.0
 40
2.000000025774982
100
AcDbArc
 50
180.0
 51
270.0
  0
ARC
  5
26E
330
1F
100
AcDbEntity
  8
0-0_通り芯
  6
Continuous
 62
     3
370
     9
100
AcDbCircle
 10
-97.30698317594171
 20
212.5595937602625
 30
0.0
 40
2.000000025774982
100
AcDbArc
 50
180.0
 51
270.0
  0
ARC
  5
26F
330
1F
100
AcDbEntity
  8
0-0_通り芯
  6
Continuous
 62
     3
370
     9
100
AcDbCircle
 10
-75.80693698717484
 20
212.5595937602625
 30
0.0
 40
2.000000025774982
100
AcDbArc
 50
270.0
 51
0.0
  0
ARC
  5
270
330
1F
100
AcDbEntity
  8
0-0_通り芯
  6
Continuous
 62
     3
370
     9
100
AcDbCircle
 10
-75.80693698717484
 20
235.0595937602625
 30
0.0
 40
2.000000025774982
100
AcDbArc
 50
0.0
 51
90.0
  0
ARC
  5
271
330
1F
100
AcDbEntity
  8
0-0_通り芯
  6
Continuous
 62
     3
370
     9
100
AcDbCircle
 10
-97.30698317594171
 20
235.0595937602625
 30
0.0
 40
2.000000025774982
100
AcDbArc
 50
90.0
 51
180.0
  0
ARC
  5
272
330
1F
100
AcDbEntity
  8
0-0_通り芯
  6
Continuous
 62
     3
370
     9
100
AcDbCircle
 10
-97.30698317594171
 20
-70.94032705899424
 30
0.0
 40
2.000000025774982
100
AcDbArc
 50
180.0
 51
270.0
  0
ARC
  5
273
330
1F
100
AcDbEntity
  8
0-0_通り芯
  6
Continuous
 62
     3
370
     9
100
AcDbCircle
 10
-75.80693698717484
 20
-70.94032705899424
 30
0.0
 40
2.000000025774982
100
AcDbArc
 50
270.0
 51
0.0
  0
ARC
  5
274
330
1F
100
AcDbEntity
  8
0-0_通り芯
  6
Continuous
 62
     3
370
     9
100
AcDbCircle
 10
-75.80693698717484
 20
-48.44032705899424
 30
0.0
 40
2.000000025774982
100
AcDbArc
 50
1.403289794921875
 51
90.0
  0
ARC
  5
275
330
1F
100
AcDbEntity
  8
0-0_通り芯
  6
Continuous
 62
     3
370
     9
100
AcDbCircle
 10
-97.30698317594171
 20
-48.44032705899424
 30
0.0
 40
2.000000025774982
100
AcDbArc
 50
89.99998474121094
 51
180.0
  0
ARC
  5
276
330
1F
100
AcDbEntity
  8
0-0_通り芯
  6
Continuous
 62
     3
370
     9
100
AcDbCircle
 10
-57.80697657754651
 20
-48.44032705899424
 30
0.0
 40
2.000000025774982
100
AcDbArc
 50
89.99998474121094
 51
180.0
  0
ARC
  5
277
330
1F
100
AcDbEntity
  8
0-0_通り芯
  6
Continuous
 62
     3
370
     9
100
AcDbCircle
 10
-36.30693038877952
 20
-48.44032705899424
 30
0.0
 40
2.000000025774982
100
AcDbArc
 50
1.403289794921875
 51
90.0
  0
ARC
  5
278
330
1F
100
AcDbEntity
  8
0-0_通り芯
  6
Continuous
 62
     3
370
     9
100
AcDbCircle
 10
-36.30693038877952
 20
-70.94032705899424
 30
0.0
 40
2.000000025774982
100
AcDbArc
 50
270.0
 51
0.0
  0
ARC
  5
279
330
1F
100
AcDbEntity
  8
0-0_通り芯
  6
Continuous
 62
     3
370
     9
100
AcDbCircle
 10
-57.80697657754651
 20
-70.94032705899424
 30
0.0
 40
2.000000025774982
100
AcDbArc
 50
180.0
 51
270.0
  0
ARC
  5
27A
330
1F
100
AcDbEntity
  8
0-0_通り芯
  6
Continuous
 62
     3
370
     9
100
AcDbCircle
 10
-18.30696997915119
 20
-70.94032705899424
 30
0.0
 40
2.000000025774982
100
AcDbArc
 50
180.0
 51
270.0
  0
ARC
  5
27B
330
1F
100
AcDbEntity
  8
0-0_通り芯
  6
Continuous
 62
     3
370
     9
100
AcDbCircle
 10
3.193026721651208
 20
-70.94032705899424
 30
0.0
 40
2.000000025774982
100
AcDbArc
 50
270.0
 51
0.0
  0
ARC
  5
27C
330
1F
100
AcDbEntity
  8
0-0_通り芯
  6
Continuous
 62
     3
370
     9
100
AcDbCircle
 10
3.193026721651208
 20
-48.44032705899424
 30
0.0
 40
2.000000025774982
100
AcDbArc
 50
1.403289794921875
 51
90.0
  0
ARC
  5
27D
330
1F
100
AcDbEntity
  8
0-0_通り芯
  6
Continuous
 62
     3
370
     9
100
AcDbCircle
 10
-18.30696997915119
 20
-48.44032705899424
 30
0.0
 40
2.000000025774982
100
AcDbArc
 50
89.99998474121094
 51
180.0
  0
ARC
  5
27E
330
1F
100
AcDbEntity
  8
0-0_通り芯
  6
Continuous
 62
     3
370
     9
100
AcDbCircle
 10
21.1930861072086
 20
-48.44032705899424
 30
0.0
 40
2.000000025774982
100
AcDbArc
 50
89.99998474121094
 51
180.0
  0
ARC
  5
27F
330
1F
100
AcDbEntity
  8
0-0_通り芯
  6
Continuous
 62
     3
370
     9
100
AcDbCircle
 10
42.69303332004641
 20
-48.44032705899424
 30
0.0
 40
2.000000025774982
100
AcDbArc
 50
1.403289794921875
 51
90.0
  0
ARC
  5
280
330
1F
100
AcDbEntity
  8
0-0_通り芯
  6
Continuous
 62
     3
370
     9
100
AcDbCircle
 10
42.69303332004641
 20
-70.94032705899424
 30
0.0
 40
2.000000025774982
100
AcDbArc
 50
270.0
 51
0.0
  0
ARC
  5
281
330
1F
100
AcDbEntity
  8
0-0_通り芯
  6
Continuous
 62
     3
370
     9
100
AcDbCircle
 10
21.1930861072086
 20
-70.94032705899424
 30
0.0
 40
2.000000025774982
100
AcDbArc
 50
180.0
 51
270.0
  0
ARC
  5
282
330
1F
100
AcDbEntity
  8
0-0_通り芯
  6
Continuous
 62
     3
370
     9
100
AcDbCircle
 10
60.69309270560392
 20
-70.94032705899424
 30
0.0
 40
2.000000025774982
100
AcDbArc
 50
180.0
 51
270.0
  0
ARC
  5
283
330
1F
100
AcDbEntity
  8
0-0_通り芯
  6
Continuous
 62
     3
370
     9
100
AcDbCircle
 10
82.19303991844173
 20
-70.94032705899424
 30
0.0
 40
2.000000025774982
100
AcDbArc
 50
270.0
 51
0.0
  0
ARC
  5
284
330
1F
100
AcDbEntity
  8
0-0_通り芯
  6
Continuous
 62
     3
370
     9
100
AcDbCircle
 10
82.19303991844173
 20
-48.44032705899424
 30
0.0
 40
2.000000025774982
100
AcDbArc
 50
1.403289794921875
 51
90.0
  0
ARC
  5
285
330
1F
100
AcDbEntity
  8
0-0_通り芯
  6
Continuous
 62
     3
370
     9
100
AcDbCircle
 10
60.69309270560392
 20
-48.44032705899424
 30
0.0
 40
2.000000025774982
100
AcDbArc
 50
89.99998474121094
 51
180.0
  0
ARC
  5
286
330
1F
100
AcDbEntity
  8
0-0_通り芯
  6
Continuous
 62
     3
370
     9
100
AcDbCircle
 10
100.1930498160346
 20
-48.44032705899424
 30
0.0
 40
2.000000025774982
100
AcDbArc
 50
89.99998474121094
 51
180.0
  0
ARC
  5
287
330
1F
100
AcDbEntity
  8
0-0_通り芯
  6
Continuous
 62
     3
370
     9
100
AcDbCircle
 10
121.6930465168371
 20
-48.44032705899424
 30
0.0
 40
2.000000025774982
100
AcDbArc
 50
1.403289794921875
 51
90.0
  0
ARC
  5
288
330
1F
100
AcDbEntity
  8
0-0_通り芯
  6
Continuous
 62
     3
370
     9
100
AcDbCircle
 10
121.6930465168371
 20
-70.94032705899424
 30
0.0
 40
2.000000025774982
100
AcDbArc
 50
270.0
 51
0.0
  0
ARC
  5
289
330
1F
100
AcDbEntity
  8
0-0_通り芯
  6
Continuous
 62
     3
370
     9
100
AcDbCircle
 10
100.1930498160346
 20
-70.94032705899424
 30
0.0
 40
2.000000025774982
100
AcDbArc
 50
180.0
 51
270.0
  0
ARC
  5
28A
330
1F
100
AcDbEntity
  8
0-0_通り芯
  6
Continuous
 62
     3
370
     9
100
AcDbCircle
 10
100.1930498160346
 20
-30.44036664936591
 30
0.0
 40
2.000000025774982
100
AcDbArc
 50
180.0
 51
270.0
  0
ARC
  5
28B
330
1F
100
AcDbEntity
  8
0-0_通り芯
  6
Continuous
 62
     3
370
     9
100
AcDbCircle
 10
121.6930465168371
 20
-30.44036664936591
 30
0.0
 40
2.000000025774982
100
AcDbArc
 50
270.0
 51
0.0
  0
ARC
  5
28C
330
1F
100
AcDbEntity
  8
0-0_通り芯
  6
Continuous
 62
     3
370
     9
100
AcDbCircle
 10
121.6930465168371
 20
-7.940366649365913
 30
0.0
 40
2.000000025774982
100
AcDbArc
 50
1.403289794921875
 51
90.0
  0
ARC
  5
28D
330
1F
100
AcDbEntity
  8
0-0_通り芯
  6
Continuous
 62
     3
370
     9
100
AcDbCircle
 10
100.1930498160346
 20
-7.940366649365913
 30
0.0
 40
2.000000025774982
100
AcDbArc
 50
89.99998474121094
 51
180.0
  0
ARC
  5
28E
330
1F
100
AcDbEntity
  8
0-0_通り芯
  6
Continuous
 62
     3
370
     9
100
AcDbCircle
 10
60.69309270560392
 20
-7.940366649365913
 30
0.0
 40
2.000000025774982
100
AcDbArc
 50
89.99998474121094
 51
180.0
  0
ARC
  5
28F
330
1F
100
AcDbEntity
  8
0-0_通り芯
  6
Continuous
 62
     3
370
     9
100
AcDbCircle
 10
82.19303991844173
 20
-7.940366649365913
 30
0.0
 40
2.000000025774982
100
AcDbArc
 50
1.403289794921875
 51
90.0
  0
ARC
  5
290
330
1F
100
AcDbEntity
  8
0-0_通り芯
  6
Continuous
 62
     3
370
     9
100
AcDbCircle
 10
82.19303991844173
 20
-30.44036664936591
 30
0.0
 40
2.000000025774982
100
AcDbArc
 50
270.0
 51
0.0
  0
ARC
  5
291
330
1F
100
AcDbEntity
  8
0-0_通り芯
  6
Continuous
 62
     3
370
     9
100
AcDbCircle
 10
60.69309270560392
 20
-30.44036664936591
 30
0.0
 40
2.000000025774982
100
AcDbArc
 50
180.0
 51
270.0
  0
ARC
  5
292
330
1F
100
AcDbEntity
  8
0-0_通り芯
  6
Continuous
 62
     3
370
     9
100
AcDbCircle
 10
21.1930861072086
 20
-30.44036664936591
 30
0.0
 40
2.000000025774982
100
AcDbArc
 50
180.0
 51
270.0
  0
ARC
  5
293
330
1F
100
AcDbEntity
  8
0-0_通り芯
  6
Continuous
 62
     3
370
     9
100
AcDbCircle
 10
42.69303332004641
 20
-30.44036664936591
 30
0.0
 40
2.000000025774982
100
AcDbArc
 50
270.0
 51
0.0
  0
ARC
  5
294
330
1F
100
AcDbEntity
  8
0-0_通り芯
  6
Continuous
 62
     3
370
     9
100
AcDbCircle
 10
42.69303332004641
 20
-7.940366649365913
 30
0.0
 40
2.000000025774982
100
AcDbArc
 50
1.403289794921875
 51
90.0
  0
ARC
  5
295
330
1F
100
AcDbEntity
  8
0-0_通り芯
  6
Continuous
 62
     3
370
     9
100
AcDbCircle
 10
21.1930861072086
 20
-7.940366649365913
 30
0.0
 40
2.000000025774982
100
AcDbArc
 50
89.99998474121094
 51
180.0
  0
ARC
  5
296
330
1F
100
AcDbEntity
  8
0-0_通り芯
  6
Continuous
 62
     3
370
     9
100
AcDbCircle
 10
-18.30696997915119
 20
-7.940366649365913
 30
0.0
 40
2.000000025774982
100
AcDbArc
 50
89.99998474121094
 51
180.0
  0
ARC
  5
297
330
1F
100
AcDbEntity
  8
0-0_通り芯
  6
Continuous
 62
     3
370
     9
100
AcDbCircle
 10
3.193026721651208
 20
-7.940366649365913
 30
0.0
 40
2.000000025774982
100
AcDbArc
 50
1.403289794921875
 51
90.0
  0
ARC
  5
298
330
1F
100
AcDbEntity
  8
0-0_通り芯
  6
Continuous
 62
     3
370
     9
100
AcDbCircle
 10
3.193026721651208
 20
-30.44036664936591
 30
0.0
 40
2.000000025774982
100
AcDbArc
 50
270.0
 51
0.0
  0
ARC
  5
299
330
1F
100
AcDbEntity
  8
0-0_通り芯
  6
Continuous
 62
     3
370
     9
100
AcDbCircle
 10
-18.30696997915119
 20
-30.44036664936591
 30
0.0
 40
2.000000025774982
100
AcDbArc
 50
180.0
 51
270.0
  0
ARC
  5
29A
330
1F
100
AcDbEntity
  8
0-0_通り芯
  6
Continuous
 62
     3
370
     9
100
AcDbCircle
 10
-57.80697657754651
 20
-30.44036664936591
 30
0.0
 40
2.000000025774982
100
AcDbArc
 50
180.0
 51
270.0
  0
ARC
  5
29B
330
1F
100
AcDbEntity
  8
0-0_通り芯
  6
Continuous
 62
     3
370
     9
100
AcDbCircle
 10
-36.30693038877952
 20
-30.44036664936591
 30
0.0
 40
2.000000025774982
100
AcDbArc
 50
270.0
 51
0.0
  0
ARC
  5
29C
330
1F
100
AcDbEntity
  8
0-0_通り芯
  6
Continuous
 62
     3
370
     9
100
AcDbCircle
 10
-36.30693038877952
 20
-7.940366649365913
 30
0.0
 40
2.000000025774982
100
AcDbArc
 50
1.403289794921875
 51
90.0
  0
ARC
  5
29D
330
1F
100
AcDbEntity
  8
0-0_通り芯
  6
Continuous
 62
     3
370
     9
100
AcDbCircle
 10
-57.80697657754651
 20
-7.940366649365913
 30
0.0
 40
2.000000025774982
100
AcDbArc
 50
89.99998474121094
 51
180.0
  0
ARC
  5
29E
330
1F
100
AcDbEntity
  8
0-0_通り芯
  6
Continuous
 62
     3
370
     9
100
AcDbCircle
 10
-97.30698317594171
 20
-7.940366649365913
 30
0.0
 40
2.000000025774982
100
AcDbArc
 50
89.99998474121094
 51
180.0
  0
ARC
  5
29F
330
1F
100
AcDbEntity
  8
0-0_通り芯
  6
Continuous
 62
     3
370
     9
100
AcDbCircle
 10
-75.80693698717484
 20
-7.940366649365913
 30
0.0
 40
2.000000025774982
100
AcDbArc
 50
1.403289794921875
 51
90.0
  0
ARC
  5
2A0
330
1F
100
AcDbEntity
  8
0-0_通り芯
  6
Continuous
 62
     3
370
     9
100
AcDbCircle
 10
-75.80693698717484
 20
-30.44036664936591
 30
0.0
 40
2.000000025774982
100
AcDbArc
 50
270.0
 51
0.0
  0
ARC
  5
2A1
330
1F
100
AcDbEntity
  8
0-0_通り芯
  6
Continuous
 62
     3
370
     9
100
AcDbCircle
 10
-97.30698317594171
 20
-30.44036664936591
 30
0.0
 40
2.000000025774982
100
AcDbArc
 50
180.0
 51
270.0
  0
ARC
  5
2A2
330
1F
100
AcDbEntity
  8
0-0_通り芯
  6
Continuous
 62
     3
370
     9
100
AcDbCircle
 10
-97.30698317594171
 20
10.05969273619159
 30
0.0
 40
2.000000025774982
100
AcDbArc
 50
180.0
 51
270.0
  0
ARC
  5
2A3
330
1F
100
AcDbEntity
  8
0-0_通り芯
  6
Continuous
 62
     3
370
     9
100
AcDbCircle
 10
-75.80693698717484
 20
10.05969273619159
 30
0.0
 40
2.000000025774982
100
AcDbArc
 50
270.0
 51
0.0
  0
ARC
  5
2A4
330
1F
100
AcDbEntity
  8
0-0_通り芯
  6
Continuous
 62
     3
370
     9
100
AcDbCircle
 10
-75.80693698717484
 20
32.55969273619159
 30
0.0
 40
2.000000025774982
100
AcDbArc
 50
1.403289794921875
 51
90.0
  0
ARC
  5
2A5
330
1F
100
AcDbEntity
  8
0-0_通り芯
  6
Continuous
 62
     3
370
     9
100
AcDbCircle
 10
-97.30698317594171
 20
32.55969273619159
 30
0.0
 40
2.000000025774982
100
AcDbArc
 50
89.99998474121094
 51
180.0
  0
ARC
  5
2A6
330
1F
100
AcDbEntity
  8
0-0_通り芯
  6
Continuous
 62
     3
370
     9
100
AcDbCircle
 10
-57.80697657754651
 20
32.55969273619159
 30
0.0
 40
2.000000025774982
100
AcDbArc
 50
89.99998474121094
 51
180.0
  0
ARC
  5
2A7
330
1F
100
AcDbEntity
  8
0-0_通り芯
  6
Continuous
 62
     3
370
     9
100
AcDbCircle
 10
-36.30693038877952
 20
32.55969273619159
 30
0.0
 40
2.000000025774982
100
AcDbArc
 50
1.403289794921875
 51
90.0
  0
ARC
  5
2A8
330
1F
100
AcDbEntity
  8
0-0_通り芯
  6
Continuous
 62
     3
370
     9
100
AcDbCircle
 10
-36.30693038877952
 20
10.05969273619159
 30
0.0
 40
2.000000025774982
100
AcDbArc
 50
270.0
 51
0.0
  0
ARC
  5
2A9
330
1F
100
AcDbEntity
  8
0-0_通り芯
  6
Continuous
 62
     3
370
     9
100
AcDbCircle
 10
-57.80697657754651
 20
10.05969273619159
 30
0.0
 40
2.000000025774982
100
AcDbArc
 50
180.0
 51
270.0
  0
ARC
  5
2AA
330
1F
100
AcDbEntity
  8
0-0_通り芯
  6
Continuous
 62
     3
370
     9
100
AcDbCircle
 10
-18.30696997915119
 20
10.05969273619159
 30
0.0
 40
2.000000025774982
100
AcDbArc
 50
180.0
 51
270.0
  0
ARC
  5
2AB
330
1F
100
AcDbEntity
  8
0-0_通り芯
  6
Continuous
 62
     3
370
     9
100
AcDbCircle
 10
3.193026721651208
 20
10.05969273619159
 30
0.0
 40
2.000000025774982
100
AcDbArc
 50
270.0
 51
0.0
  0
ARC
  5
2AC
330
1F
100
AcDbEntity
  8
0-0_通り芯
  6
Continuous
 62
     3
370
     9
100
AcDbCircle
 10
3.193026721651208
 20
32.55969273619159
 30
0.0
 40
2.000000025774982
100
AcDbArc
 50
1.403289794921875
 51
90.0
  0
ARC
  5
2AD
330
1F
100
AcDbEntity
  8
0-0_通り芯
  6
Continuous
 62
     3
370
     9
100
AcDbCircle
 10
-18.30696997915119
 20
32.55969273619159
 30
0.0
 40
2.000000025774982
100
AcDbArc
 50
89.99998474121094
 51
180.0
  0
ARC
  5
2AE
330
1F
100
AcDbEntity
  8
0-0_通り芯
  6
Continuous
 62
     3
370
     9
100
AcDbCircle
 10
21.1930861072086
 20
32.55969273619159
 30
0.0
 40
2.000000025774982
100
AcDbArc
 50
89.99998474121094
 51
180.0
  0
ARC
  5
2AF
330
1F
100
AcDbEntity
  8
0-0_通り芯
  6
Continuous
 62
     3
370
     9
100
AcDbCircle
 10
42.69303332004641
 20
32.55969273619159
 30
0.0
 40
2.000000025774982
100
AcDbArc
 50
1.403289794921875
 51
90.0
  0
ARC
  5
2B0
330
1F
100
AcDbEntity
  8
0-0_通り芯
  6
Continuous
 62
     3
370
     9
100
AcDbCircle
 10
42.69303332004641
 20
10.05969273619159
 30
0.0
 40
2.000000025774982
100
AcDbArc
 50
270.0
 51
0.0
  0
ARC
  5
2B1
330
1F
100
AcDbEntity
  8
0-0_通り芯
  6
Continuous
 62
     3
370
     9
100
AcDbCircle
 10
21.1930861072086
 20
10.05969273619159
 30
0.0
 40
2.000000025774982
100
AcDbArc
 50
180.0
 51
270.0
  0
ARC
  5
2B2
330
1F
100
AcDbEntity
  8
0-0_通り芯
  6
Continuous
 62
     3
370
     9
100
AcDbCircle
 10
60.69309270560392
 20
10.05969273619159
 30
0.0
 40
2.000000025774982
100
AcDbArc
 50
180.0
 51
270.0
  0
ARC
  5
2B3
330
1F
100
AcDbEntity
  8
0-0_通り芯
  6
Continuous
 62
     3
370
     9
100
AcDbCircle
 10
82.19303991844173
 20
10.05969273619159
 30
0.0
 40
2.000000025774982
100
AcDbArc
 50
270.0
 51
0.0
  0
ARC
  5
2B4
330
1F
100
AcDbEntity
  8
0-0_通り芯
  6
Continuous
 62
     3
370
     9
100
AcDbCircle
 10
82.19303991844173
 20
32.55969273619159
 30
0.0
 40
2.000000025774982
100
AcDbArc
 50
1.403289794921875
 51
90.0
  0
ARC
  5
2B5
330
1F
100
AcDbEntity
  8
0-0_通り芯
  6
Continuous
 62
     3
370
     9
100
AcDbCircle
 10
60.69309270560392
 20
32.55969273619159
 30
0.0
 40
2.000000025774982
100
AcDbArc
 50
89.99998474121094
 51
180.0
  0
ARC
  5
2B6
330
1F
100
AcDbEntity
  8
0-0_通り芯
  6
Continuous
 62
     3
370
     9
100
AcDbCircle
 10
100.1930498160346
 20
32.55969273619159
 30
0.0
 40
2.000000025774982
100
AcDbArc
 50
89.99998474121094
 51
180.0
  0
ARC
  5
2B7
330
1F
100
AcDbEntity
  8
0-0_通り芯
  6
Continuous
 62
     3
370
     9
100
AcDbCircle
 10
121.6930465168371
 20
32.55969273619159
 30
0.0
 40
2.000000025774982
100
AcDbArc
 50
1.403289794921875
 51
90.0
  0
ARC
  5
2B8
330
1F
100
AcDbEntity
  8
0-0_通り芯
  6
Continuous
 62
     3
370
     9
100
AcDbCircle
 10
121.6930465168371
 20
10.05969273619159
 30
0.0
 40
2.000000025774982
100
AcDbArc
 50
270.0
 51
0.0
  0
ARC
  5
2B9
330
1F
100
AcDbEntity
  8
0-0_通り芯
  6
Continuous
 62
     3
370
     9
100
AcDbCircle
 10
100.1930498160346
 20
10.05969273619159
 30
0.0
 40
2.000000025774982
100
AcDbArc
 50
180.0
 51
270.0
  0
ARC
  5
2BA
330
1F
100
AcDbEntity
  8
0-0_通り芯
  6
Continuous
 62
     3
370
     9
100
AcDbCircle
 10
100.1930498160346
 20
50.55965314581992
 30
0.0
 40
2.000000025774982
100
AcDbArc
 50
180.0
 51
270.0
  0
ARC
  5
2BB
330
1F
100
AcDbEntity
  8
0-0_通り芯
  6
Continuous
 62
     3
370
     9
100
AcDbCircle
 10
121.6930465168371
 20
50.55965314581992
 30
0.0
 40
2.000000025774982
100
AcDbArc
 50
270.0
 51
0.0
  0
ARC
  5
2BC
330
1F
100
AcDbEntity
  8
0-0_通り芯
  6
Continuous
 62
     3
370
     9
100
AcDbCircle
 10
121.6930465168371
 20
73.05965314581992
 30
0.0
 40
2.000000025774982
100
AcDbArc
 50
1.403289794921875
 51
90.0
  0
ARC
  5
2BD
330
1F
100
AcDbEntity
  8
0-0_通り芯
  6
Continuous
 62
     3
370
     9
100
AcDbCircle
 10
100.1930498160346
 20
73.05965314581992
 30
0.0
 40
2.000000025774982
100
AcDbArc
 50
89.99998474121094
 51
180.0
  0
ARC
  5
2BE
330
1F
100
AcDbEntity
  8
0-0_通り芯
  6
Continuous
 62
     3
370
     9
100
AcDbCircle
 10
60.69309270560392
 20
73.05965314581992
 30
0.0
 40
2.000000025774982
100
AcDbArc
 50
89.99998474121094
 51
180.0
  0
ARC
  5
2BF
330
1F
100
AcDbEntity
  8
0-0_通り芯
  6
Continuous
 62
     3
370
     9
100
AcDbCircle
 10
82.19303991844173
 20
73.05965314581992
 30
0.0
 40
2.000000025774982
100
AcDbArc
 50
1.403289794921875
 51
90.0
  0
ARC
  5
2C0
330
1F
100
AcDbEntity
  8
0-0_通り芯
  6
Continuous
 62
     3
370
     9
100
AcDbCircle
 10
82.19303991844173
 20
50.55965314581992
 30
0.0
 40
2.000000025774982
100
AcDbArc
 50
270.0
 51
0.0
  0
ARC
  5
2C1
330
1F
100
AcDbEntity
  8
0-0_通り芯
  6
Continuous
 62
     3
370
     9
100
AcDbCircle
 10
60.69309270560392
 20
50.55965314581992
 30
0.0
 40
2.000000025774982
100
AcDbArc
 50
180.0
 51
270.0
  0
ARC
  5
2C2
330
1F
100
AcDbEntity
  8
0-0_通り芯
  6
Continuous
 62
     3
370
     9
100
AcDbCircle
 10
21.1930861072086
 20
50.55965314581992
 30
0.0
 40
2.000000025774982
100
AcDbArc
 50
180.0
 51
270.0
  0
ARC
  5
2C3
330
1F
100
AcDbEntity
  8
0-0_通り芯
  6
Continuous
 62
     3
370
     9
100
AcDbCircle
 10
42.69303332004641
 20
50.55965314581992
 30
0.0
 40
2.000000025774982
100
AcDbArc
 50
270.0
 51
0.0
  0
ARC
  5
2C4
330
1F
100
AcDbEntity
  8
0-0_通り芯
  6
Continuous
 62
     3
370
     9
100
AcDbCircle
 10
42.69303332004641
 20
73.05965314581992
 30
0.0
 40
2.000000025774982
100
AcDbArc
 50
1.403289794921875
 51
90.0
  0
ARC
  5
2C5
330
1F
100
AcDbEntity
  8
0-0_通り芯
  6
Continuous
 62
     3
370
     9
100
AcDbCircle
 10
21.1930861072086
 20
73.05965314581992
 30
0.0
 40
2.000000025774982
100
AcDbArc
 50
89.99998474121094
 51
180.0
  0
ARC
  5
2C6
330
1F
100
AcDbEntity
  8
0-0_通り芯
  6
Continuous
 62
     3
370
     9
100
AcDbCircle
 10
-18.30696997915119
 20
73.05965314581992
 30
0.0
 40
2.000000025774982
100
AcDbArc
 50
89.99998474121094
 51
180.0
  0
ARC
  5
2C7
330
1F
100
AcDbEntity
  8
0-0_通り芯
  6
Continuous
 62
     3
370
     9
100
AcDbCircle
 10
3.193026721651208
 20
73.05965314581992
 30
0.0
 40
2.000000025774982
100
AcDbArc
 50
1.403289794921875
 51
90.0
  0
ARC
  5
2C8
330
1F
100
AcDbEntity
  8
0-0_通り芯
  6
Continuous
 62
     3
370
     9
100
AcDbCircle
 10
3.193026721651208
 20
50.55965314581992
 30
0.0
 40
2.000000025774982
100
AcDbArc
 50
270.0
 51
0.0
  0
ARC
  5
2C9
330
1F
100
AcDbEntity
  8
0-0_通り芯
  6
Continuous
 62
     3
370
     9
100
AcDbCircle
 10
-18.30696997915119
 20
50.55965314581992
 30
0.0
 40
2.000000025774982
100
AcDbArc
 50
180.0
 51
270.0
  0
ARC
  5
2CA
330
1F
100
AcDbEntity
  8
0-0_通り芯
  6
Continuous
 62
     3
370
     9
100
AcDbCircle
 10
-57.80697657754651
 20
50.55965314581992
 30
0.0
 40
2.000000025774982
100
AcDbArc
 50
180.0
 51
270.0
  0
ARC
  5
2CB
330
1F
100
AcDbEntity
  8
0-0_通り芯
  6
Continuous
 62
     3
370
     9
100
AcDbCircle
 10
-36.30693038877952
 20
50.55965314581992
 30
0.0
 40
2.000000025774982
100
AcDbArc
 50
270.0
 51
0.0
  0
ARC
  5
2CC
330
1F
100
AcDbEntity
  8
0-0_通り芯
  6
Continuous
 62
     3
370
     9
100
AcDbCircle
 10
-36.30693038877952
 20
73.05965314581992
 30
0.0
 40
2.000000025774982
100
AcDbArc
 50
1.403289794921875
 51
90.0
  0
ARC
  5
2CD
330
1F
100
AcDbEntity
  8
0-0_通り芯
  6
Continuous
 62
     3
370
     9
100
AcDbCircle
 10
-57.80697657754651
 20
73.05965314581992
 30
0.0
 40
2.000000025774982
100
AcDbArc
 50
89.99998474121094
 51
180.0
  0
ARC
  5
2CE
330
1F
100
AcDbEntity
  8
0-0_通り芯
  6
Continuous
 62
     3
370
     9
100
AcDbCircle
 10
-97.30698317594171
 20
73.05965314581992
 30
0.0
 40
2.000000025774982
100
AcDbArc
 50
89.99998474121094
 51
180.0
  0
ARC
  5
2CF
330
1F
100
AcDbEntity
  8
0-0_通り芯
  6
Continuous
 62
     3
370
     9
100
AcDbCircle
 10
-75.80693698717484
 20
73.05965314581992
 30
0.0
 40
2.000000025774982
100
AcDbArc
 50
1.403289794921875
 51
90.0
  0
ARC
  5
2D0
330
1F
100
AcDbEntity
  8
0-0_通り芯
  6
Continuous
 62
     3
370
     9
100
AcDbCircle
 10
-75.80693698717484
 20
50.55965314581992
 30
0.0
 40
2.000000025774982
100
AcDbArc
 50
270.0
 51
0.0
  0
ARC
  5
2D1
330
1F
100
AcDbEntity
  8
0-0_通り芯
  6
Continuous
 62
     3
370
     9
100
AcDbCircle
 10
-97.30698317594171
 20
50.55965314581992
 30
0.0
 40
2.000000025774982
100
AcDbArc
 50
180.0
 51
270.0
  0
ARC
  5
2D2
330
1F
100
AcDbEntity
  8
0-0_通り芯
  6
Continuous
 62
     3
370
     9
100
AcDbCircle
 10
-115.3069435855701
 20
50.55965314581992
 30
0.0
 40
2.000000025774982
100
AcDbArc
 50
270.0
 51
0.0
  0
ARC
  5
2D3
330
1F
100
AcDbEntity
  8
0-0_通り芯
  6
Continuous
 62
     3
370
     9
100
AcDbCircle
 10
-136.806989774337
 20
50.55965314581992
 30
0.0
 40
2.000000025774982
100
AcDbArc
 50
180.0
 51
270.0
  0
ARC
  5
2D4
330
1F
100
AcDbEntity
  8
0-0_通り芯
  6
Continuous
 62
     3
370
     9
100
AcDbCircle
 10
-136.806989774337
 20
73.05965314581992
 30
0.0
 40
2.000000025774982
100
AcDbArc
 50
90.0
 51
180.0
  0
ARC
  5
2D5
330
1F
100
AcDbEntity
  8
0-0_通り芯
  6
Continuous
 62
     3
370
     9
100
AcDbCircle
 10
-115.3069435855701
 20
73.05965314581992
 30
0.0
 40
2.000000025774982
100
AcDbArc
 50
7.016464233398438
 51
90.0
  0
ARC
  5
2D6
330
1F
100
AcDbEntity
  8
0-0_通り芯
  6
Continuous
 62
     3
370
     9
100
AcDbCircle
 10
-154.8069501839653
 20
73.05965314581992
 30
0.0
 40
2.000000025774982
100
AcDbArc
 50
7.016464233398438
 51
90.0
  0
ARC
  5
2D7
330
1F
100
AcDbEntity
  8
0-0_通り芯
  6
Continuous
 62
     3
370
     9
100
AcDbCircle
 10
-176.3069963727323
 20
73.05965314581992
 30
0.0
 40
2.000000025774982
100
AcDbArc
 50
90.0
 51
180.0
  0
ARC
  5
2D8
330
1F
100
AcDbEntity
  8
0-0_通り芯
  6
Continuous
 62
     3
370
     9
100
AcDbCircle
 10
-176.3069963727323
 20
50.55965314581992
 30
0.0
 40
2.000000025774982
100
AcDbArc
 50
180.0
 51
270.0
  0
ARC
  5
2D9
330
1F
100
AcDbEntity
  8
0-0_通り芯
  6
Continuous
 62
     3
370
     9
100
AcDbCircle
 10
-154.8069501839653
 20
50.55965314581992
 30
0.0
 40
2.000000025774982
100
AcDbArc
 50
270.0
 51
0.0
  0
ARC
  5
2DA
330
1F
100
AcDbEntity
  8
0-0_通り芯
  6
Continuous
 62
     3
370
     9
100
AcDbCircle
 10
-194.3070557582897
 20
50.55965314581992
 30
0.0
 40
2.000000025774982
100
AcDbArc
 50
270.0
 51
0.0
  0
ARC
  5
2DB
330
1F
100
AcDbEntity
  8
0-0_通り芯
  6
Continuous
 62
     3
370
     9
100
AcDbCircle
 10
-215.8070029711275
 20
50.55965314581992
 30
0.0
 40
2.000000025774982
100
AcDbArc
 50
180.0
 51
270.0
  0
ARC
  5
2DC
330
1F
100
AcDbEntity
  8
0-0_通り芯
  6
Continuous
 62
     3
370
     9
100
AcDbCircle
 10
-215.8070029711275
 20
73.05965314581992
 30
0.0
 40
2.000000025774982
100
AcDbArc
 50
90.0
 51
180.0
  0
ARC
  5
2DD
330
1F
100
AcDbEntity
  8
0-0_通り芯
  6
Continuous
 62
     3
370
     9
100
AcDbCircle
 10
-194.3070557582897
 20
73.05965314581992
 30
0.0
 40
2.000000025774982
100
AcDbArc
 50
7.016464233398438
 51
90.0
  0
ARC
  5
2DE
330
1F
100
AcDbEntity
  8
0-0_通り芯
  6
Continuous
 62
     3
370
     9
100
AcDbCircle
 10
-233.8069633807559
 20
73.05965314581992
 30
0.0
 40
2.000000025774982
100
AcDbArc
 50
7.016464233398438
 51
90.0
  0
ARC
  5
2DF
330
1F
100
AcDbEntity
  8
0-0_通り芯
  6
Continuous
 62
     3
370
     9
100
AcDbCircle
 10
-255.3069105935937
 20
73.05965314581992
 30
0.0
 40
2.000000025774982
100
AcDbArc
 50
90.0
 51
180.0
  0
ARC
  5
2E0
330
1F
100
AcDbEntity
  8
0-0_通り芯
  6
Continuous
 62
     3
370
     9
100
AcDbCircle
 10
-255.3069105935937
 20
50.55965314581992
 30
0.0
 40
2.000000025774982
100
AcDbArc
 50
180.0
 51
270.0
  0
ARC
  5
2E1
330
1F
100
AcDbEntity
  8
0-0_通り芯
  6
Continuous
 62
     3
370
     9
100
AcDbCircle
 10
-233.8069633807559
 20
50.55965314581992
 30
0.0
 40
2.000000025774982
100
AcDbArc
 50
270.0
 51
0.0
  0
ARC
  5
2E2
330
1F
100
AcDbEntity
  8
0-0_通り芯
  6
Continuous
 62
     3
370
     9
100
AcDbCircle
 10
-273.3069699791512
 20
50.55965314581992
 30
0.0
 40
2.000000025774982
100
AcDbArc
 50
270.0
 51
0.0
  0
ARC
  5
2E3
330
1F
100
AcDbEntity
  8
0-0_通り芯
  6
Continuous
 62
     3
370
     9
100
AcDbCircle
 10
-294.8070161679181
 20
50.55965314581992
 30
0.0
 40
2.000000025774982
100
AcDbArc
 50
180.0
 51
270.0
  0
ARC
  5
2E4
330
1F
100
AcDbEntity
  8
0-0_通り芯
  6
Continuous
 62
     3
370
     9
100
AcDbCircle
 10
-294.8070161679181
 20
73.05965314581992
 30
0.0
 40
2.000000025774982
100
AcDbArc
 50
90.0
 51
180.0
  0
ARC
  5
2E5
330
1F
100
AcDbEntity
  8
0-0_通り芯
  6
Continuous
 62
     3
370
     9
100
AcDbCircle
 10
-273.3069699791512
 20
73.05965314581992
 30
0.0
 40
2.000000025774982
100
AcDbArc
 50
7.016464233398438
 51
90.0
  0
ARC
  5
2E6
330
1F
100
AcDbEntity
  8
0-0_通り芯
  6
Continuous
 62
     3
370
     9
100
AcDbCircle
 10
-312.8069765775465
 20
73.05965314581992
 30
0.0
 40
2.000000025774982
100
AcDbArc
 50
7.016464233398438
 51
90.0
  0
ARC
  5
2E7
330
1F
100
AcDbEntity
  8
0-0_通り芯
  6
Continuous
 62
     3
370
     9
100
AcDbCircle
 10
-334.3069237903843
 20
73.05965314581992
 30
0.0
 40
2.000000025774982
100
AcDbArc
 50
90.0
 51
180.0
  0
ARC
  5
2E8
330
1F
100
AcDbEntity
  8
0-0_通り芯
  6
Continuous
 62
     3
370
     9
100
AcDbCircle
 10
-334.3069237903843
 20
50.55965314581992
 30
0.0
 40
2.000000025774982
100
AcDbArc
 50
180.0
 51
270.0
  0
ARC
  5
2E9
330
1F
100
AcDbEntity
  8
0-0_通り芯
  6
Continuous
 62
     3
370
     9
100
AcDbCircle
 10
-312.8069765775465
 20
50.55965314581992
 30
0.0
 40
2.000000025774982
100
AcDbArc
 50
270.0
 51
0.0
  0
ARC
  5
2EA
330
1F
100
AcDbEntity
  8
0-0_通り芯
  6
Continuous
 62
     3
370
     9
100
AcDbCircle
 10
-312.8069765775465
 20
10.05969273619159
 30
0.0
 40
2.000000025774982
100
AcDbArc
 50
270.0
 51
0.0
  0
ARC
  5
2EB
330
1F
100
AcDbEntity
  8
0-0_通り芯
  6
Continuous
 62
     3
370
     9
100
AcDbCircle
 10
-334.3069237903843
 20
10.05969273619159
 30
0.0
 40
2.000000025774982
100
AcDbArc
 50
180.0
 51
270.0
  0
ARC
  5
2EC
330
1F
100
AcDbEntity
  8
0-0_通り芯
  6
Continuous
 62
     3
370
     9
100
AcDbCircle
 10
-334.3069237903843
 20
32.55969273619159
 30
0.0
 40
2.000000025774982
100
AcDbArc
 50
90.0
 51
180.0
  0
ARC
  5
2ED
330
1F
100
AcDbEntity
  8
0-0_通り芯
  6
Continuous
 62
     3
370
     9
100
AcDbCircle
 10
-312.8069765775465
 20
32.55969273619159
 30
0.0
 40
2.000000025774982
100
AcDbArc
 50
7.016464233398438
 51
90.0
  0
ARC
  5
2EE
330
1F
100
AcDbEntity
  8
0-0_通り芯
  6
Continuous
 62
     3
370
     9
100
AcDbCircle
 10
-273.3069699791512
 20
32.55969273619159
 30
0.0
 40
2.000000025774982
100
AcDbArc
 50
7.016464233398438
 51
90.0
  0
ARC
  5
2EF
330
1F
100
AcDbEntity
  8
0-0_通り芯
  6
Continuous
 62
     3
370
     9
100
AcDbCircle
 10
-294.8070161679181
 20
32.55969273619159
 30
0.0
 40
2.000000025774982
100
AcDbArc
 50
90.0
 51
180.0
  0
ARC
  5
2F0
330
1F
100
AcDbEntity
  8
0-0_通り芯
  6
Continuous
 62
     3
370
     9
100
AcDbCircle
 10
-294.8070161679181
 20
10.05969273619159
 30
0.0
 40
2.000000025774982
100
AcDbArc
 50
180.0
 51
270.0
  0
ARC
  5
2F1
330
1F
100
AcDbEntity
  8
0-0_通り芯
  6
Continuous
 62
     3
370
     9
100
AcDbCircle
 10
-273.3069699791512
 20
10.05969273619159
 30
0.0
 40
2.000000025774982
100
AcDbArc
 50
270.0
 51
0.0
  0
ARC
  5
2F2
330
1F
100
AcDbEntity
  8
0-0_通り芯
  6
Continuous
 62
     3
370
     9
100
AcDbCircle
 10
-233.8069633807559
 20
10.05969273619159
 30
0.0
 40
2.000000025774982
100
AcDbArc
 50
270.0
 51
0.0
  0
ARC
  5
2F3
330
1F
100
AcDbEntity
  8
0-0_通り芯
  6
Continuous
 62
     3
370
     9
100
AcDbCircle
 10
-255.3069105935937
 20
10.05969273619159
 30
0.0
 40
2.000000025774982
100
AcDbArc
 50
180.0
 51
270.0
  0
ARC
  5
2F4
330
1F
100
AcDbEntity
  8
0-0_通り芯
  6
Continuous
 62
     3
370
     9
100
AcDbCircle
 10
-255.3069105935937
 20
32.55969273619159
 30
0.0
 40
2.000000025774982
100
AcDbArc
 50
90.0
 51
180.0
  0
ARC
  5
2F5
330
1F
100
AcDbEntity
  8
0-0_通り芯
  6
Continuous
 62
     3
370
     9
100
AcDbCircle
 10
-233.8069633807559
 20
32.55969273619159
 30
0.0
 40
2.000000025774982
100
AcDbArc
 50
7.016464233398438
 51
90.0
  0
ARC
  5
2F6
330
1F
100
AcDbEntity
  8
0-0_通り芯
  6
Continuous
 62
     3
370
     9
100
AcDbCircle
 10
-194.3070557582897
 20
32.55969273619159
 30
0.0
 40
2.000000025774982
100
AcDbArc
 50
7.016464233398438
 51
90.0
  0
ARC
  5
2F7
330
1F
100
AcDbEntity
  8
0-0_通り芯
  6
Continuous
 62
     3
370
     9
100
AcDbCircle
 10
-215.8070029711275
 20
32.55969273619159
 30
0.0
 40
2.000000025774982
100
AcDbArc
 50
90.0
 51
180.0
  0
ARC
  5
2F8
330
1F
100
AcDbEntity
  8
0-0_通り芯
  6
Continuous
 62
     3
370
     9
100
AcDbCircle
 10
-215.8070029711275
 20
10.05969273619159
 30
0.0
 40
2.000000025774982
100
AcDbArc
 50
180.0
 51
270.0
  0
ARC
  5
2F9
330
1F
100
AcDbEntity
  8
0-0_通り芯
  6
Continuous
 62
     3
370
     9
100
AcDbCircle
 10
-194.3070557582897
 20
10.05969273619159
 30
0.0
 40
2.000000025774982
100
AcDbArc
 50
270.0
 51
0.0
  0
ARC
  5
2FA
330
1F
100
AcDbEntity
  8
0-0_通り芯
  6
Continuous
 62
     3
370
     9
100
AcDbCircle
 10
-154.8069501839653
 20
10.05969273619159
 30
0.0
 40
2.000000025774982
100
AcDbArc
 50
270.0
 51
0.0
  0
ARC
  5
2FB
330
1F
100
AcDbEntity
  8
0-0_通り芯
  6
Continuous
 62
     3
370
     9
100
AcDbCircle
 10
-176.3069963727323
 20
10.05969273619159
 30
0.0
 40
2.000000025774982
100
AcDbArc
 50
180.0
 51
270.0
  0
ARC
  5
2FC
330
1F
100
AcDbEntity
  8
0-0_通り芯
  6
Continuous
 62
     3
370
     9
100
AcDbCircle
 10
-176.3069963727323
 20
32.55969273619159
 30
0.0
 40
2.000000025774982
100
AcDbArc
 50
90.0
 51
180.0
  0
ARC
  5
2FD
330
1F
100
AcDbEntity
  8
0-0_通り芯
  6
Continuous
 62
     3
370
     9
100
AcDbCircle
 10
-154.8069501839653
 20
32.55969273619159
 30
0.0
 40
2.000000025774982
100
AcDbArc
 50
7.016464233398438
 51
90.0
  0
ARC
  5
2FE
330
1F
100
AcDbEntity
  8
0-0_通り芯
  6
Continuous
 62
     3
370
     9
100
AcDbCircle
 10
-115.3069435855701
 20
32.55969273619159
 30
0.0
 40
2.000000025774982
100
AcDbArc
 50
7.016464233398438
 51
90.0
  0
ARC
  5
2FF
330
1F
100
AcDbEntity
  8
0-0_通り芯
  6
Continuous
 62
     3
370
     9
100
AcDbCircle
 10
-136.806989774337
 20
32.55969273619159
 30
0.0
 40
2.000000025774982
100
AcDbArc
 50
90.0
 51
180.0
  0
ARC
  5
300
330
1F
100
AcDbEntity
  8
0-0_通り芯
  6
Continuous
 62
     3
370
     9
100
AcDbCircle
 10
-136.806989774337
 20
10.05969273619159
 30
0.0
 40
2.000000025774982
100
AcDbArc
 50
180.0
 51
270.0
  0
ARC
  5
301
330
1F
100
AcDbEntity
  8
0-0_通り芯
  6
Continuous
 62
     3
370
     9
100
AcDbCircle
 10
-115.3069435855701
 20
10.05969273619159
 30
0.0
 40
2.000000025774982
100
AcDbArc
 50
270.0
 51
0.0
  0
ARC
  5
302
330
1F
100
AcDbEntity
  8
0-0_通り芯
  6
Continuous
 62
     3
370
     9
100
AcDbCircle
 10
-115.3069435855701
 20
-30.44036664936591
 30
0.0
 40
2.000000025774982
100
AcDbArc
 50
270.0
 51
0.0
  0
ARC
  5
303
330
1F
100
AcDbEntity
  8
0-0_通り芯
  6
Continuous
 62
     3
370
     9
100
AcDbCircle
 10
-136.806989774337
 20
-30.44036664936591
 30
0.0
 40
2.000000025774982
100
AcDbArc
 50
180.0
 51
270.0
  0
ARC
  5
304
330
1F
100
AcDbEntity
  8
0-0_通り芯
  6
Continuous
 62
     3
370
     9
100
AcDbCircle
 10
-136.806989774337
 20
-7.940366649365913
 30
0.0
 40
2.000000025774982
100
AcDbArc
 50
90.0
 51
180.0
  0
ARC
  5
305
330
1F
100
AcDbEntity
  8
0-0_通り芯
  6
Continuous
 62
     3
370
     9
100
AcDbCircle
 10
-115.3069435855701
 20
-7.940366649365913
 30
0.0
 40
2.000000025774982
100
AcDbArc
 50
7.016464233398438
 51
90.0
  0
ARC
  5
306
330
1F
100
AcDbEntity
  8
0-0_通り芯
  6
Continuous
 62
     3
370
     9
100
AcDbCircle
 10
-154.8069501839653
 20
-7.940366649365913
 30
0.0
 40
2.000000025774982
100
AcDbArc
 50
7.016464233398438
 51
90.0
  0
ARC
  5
307
330
1F
100
AcDbEntity
  8
0-0_通り芯
  6
Continuous
 62
     3
370
     9
100
AcDbCircle
 10
-176.3069963727323
 20
-7.940366649365913
 30
0.0
 40
2.000000025774982
100
AcDbArc
 50
90.0
 51
180.0
  0
ARC
  5
308
330
1F
100
AcDbEntity
  8
0-0_通り芯
  6
Continuous
 62
     3
370
     9
100
AcDbCircle
 10
-176.3069963727323
 20
-30.44036664936591
 30
0.0
 40
2.000000025774982
100
AcDbArc
 50
180.0
 51
270.0
  0
ARC
  5
309
330
1F
100
AcDbEntity
  8
0-0_通り芯
  6
Continuous
 62
     3
370
     9
100
AcDbCircle
 10
-154.8069501839653
 20
-30.44036664936591
 30
0.0
 40
2.000000025774982
100
AcDbArc
 50
270.0
 51
0.0
  0
ARC
  5
30A
330
1F
100
AcDbEntity
  8
0-0_通り芯
  6
Continuous
 62
     3
370
     9
100
AcDbCircle
 10
-194.3070557582897
 20
-30.44036664936591
 30
0.0
 40
2.000000025774982
100
AcDbArc
 50
270.0
 51
0.0
  0
ARC
  5
30B
330
1F
100
AcDbEntity
  8
0-0_通り芯
  6
Continuous
 62
     3
370
     9
100
AcDbCircle
 10
-215.8070029711275
 20
-30.44036664936591
 30
0.0
 40
2.000000025774982
100
AcDbArc
 50
180.0
 51
270.0
  0
ARC
  5
30C
330
1F
100
AcDbEntity
  8
0-0_通り芯
  6
Continuous
 62
     3
370
     9
100
AcDbCircle
 10
-215.8070029711275
 20
-7.940366649365913
 30
0.0
 40
2.000000025774982
100
AcDbArc
 50
90.0
 51
180.0
  0
ARC
  5
30D
330
1F
100
AcDbEntity
  8
0-0_通り芯
  6
Continuous
 62
     3
370
     9
100
AcDbCircle
 10
-194.3070557582897
 20
-7.940366649365913
 30
0.0
 40
2.000000025774982
100
AcDbArc
 50
7.016464233398438
 51
90.0
  0
ARC
  5
30E
330
1F
100
AcDbEntity
  8
0-0_通り芯
  6
Continuous
 62
     3
370
     9
100
AcDbCircle
 10
-233.8069633807559
 20
-7.940366649365913
 30
0.0
 40
2.000000025774982
100
AcDbArc
 50
7.016464233398438
 51
90.0
  0
ARC
  5
30F
330
1F
100
AcDbEntity
  8
0-0_通り芯
  6
Continuous
 62
     3
370
     9
100
AcDbCircle
 10
-255.3069105935937
 20
-7.940366649365913
 30
0.0
 40
2.000000025774982
100
AcDbArc
 50
90.0
 51
180.0
  0
ARC
  5
310
330
1F
100
AcDbEntity
  8
0-0_通り芯
  6
Continuous
 62
     3
370
     9
100
AcDbCircle
 10
-255.3069105935937
 20
-30.44036664936591
 30
0.0
 40
2.000000025774982
100
AcDbArc
 50
180.0
 51
270.0
  0
ARC
  5
311
330
1F
100
AcDbEntity
  8
0-0_通り芯
  6
Continuous
 62
     3
370
     9
100
AcDbCircle
 10
-233.8069633807559
 20
-30.44036664936591
 30
0.0
 40
2.000000025774982
100
AcDbArc
 50
270.0
 51
0.0
  0
ARC
  5
312
330
1F
100
AcDbEntity
  8
0-0_通り芯
  6
Continuous
 62
     3
370
     9
100
AcDbCircle
 10
-273.3069699791512
 20
-30.44036664936591
 30
0.0
 40
2.000000025774982
100
AcDbArc
 50
270.0
 51
0.0
  0
ARC
  5
313
330
1F
100
AcDbEntity
  8
0-0_通り芯
  6
Continuous
 62
     3
370
     9
100
AcDbCircle
 10
-294.8070161679181
 20
-30.44036664936591
 30
0.0
 40
2.000000025774982
100
AcDbArc
 50
180.0
 51
270.0
  0
ARC
  5
314
330
1F
100
AcDbEntity
  8
0-0_通り芯
  6
Continuous
 62
     3
370
     9
100
AcDbCircle
 10
-294.8070161679181
 20
-7.940366649365913
 30
0.0
 40
2.000000025774982
100
AcDbArc
 50
90.0
 51
180.0
  0
ARC
  5
315
330
1F
100
AcDbEntity
  8
0-0_通り芯
  6
Continuous
 62
     3
370
     9
100
AcDbCircle
 10
-273.3069699791512
 20
-7.940366649365913
 30
0.0
 40
2.000000025774982
100
AcDbArc
 50
7.016464233398438
 51
90.0
  0
ARC
  5
316
330
1F
100
AcDbEntity
  8
0-0_通り芯
  6
Continuous
 62
     3
370
     9
100
AcDbCircle
 10
-312.8069765775465
 20
-7.940366649365913
 30
0.0
 40
2.000000025774982
100
AcDbArc
 50
7.016464233398438
 51
90.0
  0
ARC
  5
317
330
1F
100
AcDbEntity
  8
0-0_通り芯
  6
Continuous
 62
     3
370
     9
100
AcDbCircle
 10
-334.3069237903843
 20
-7.940366649365913
 30
0.0
 40
2.000000025774982
100
AcDbArc
 50
90.0
 51
180.0
  0
ARC
  5
318
330
1F
100
AcDbEntity
  8
0-0_通り芯
  6
Continuous
 62
     3
370
     9
100
AcDbCircle
 10
-334.3069237903843
 20
-30.44036664936591
 30
0.0
 40
2.000000025774982
100
AcDbArc
 50
180.0
 51
270.0
  0
ARC
  5
319
330
1F
100
AcDbEntity
  8
0-0_通り芯
  6
Continuous
 62
     3
370
     9
100
AcDbCircle
 10
-312.8069765775465
 20
-30.44036664936591
 30
0.0
 40
2.000000025774982
100
AcDbArc
 50
270.0
 51
0.0
  0
ARC
  5
31A
330
1F
100
AcDbEntity
  8
0-0_通り芯
  6
Continuous
 62
     3
370
     9
100
AcDbCircle
 10
-312.8069765775465
 20
-70.94032705899424
 30
0.0
 40
2.000000025774982
100
AcDbArc
 50
270.0
 51
0.0
  0
ARC
  5
31B
330
1F
100
AcDbEntity
  8
0-0_通り芯
  6
Continuous
 62
     3
370
     9
100
AcDbCircle
 10
-334.3069237903843
 20
-70.94032705899424
 30
0.0
 40
2.000000025774982
100
AcDbArc
 50
180.0
 51
270.0
  0
ARC
  5
31C
330
1F
100
AcDbEntity
  8
0-0_通り芯
  6
Continuous
 62
     3
370
     9
100
AcDbCircle
 10
-334.3069237903843
 20
-48.44032705899424
 30
0.0
 40
2.000000025774982
100
AcDbArc
 50
90.0
 51
180.0
  0
ARC
  5
31D
330
1F
100
AcDbEntity
  8
0-0_通り芯
  6
Continuous
 62
     3
370
     9
100
AcDbCircle
 10
-312.8069765775465
 20
-48.44032705899424
 30
0.0
 40
2.000000025774982
100
AcDbArc
 50
7.016464233398438
 51
90.0
  0
ARC
  5
31E
330
1F
100
AcDbEntity
  8
0-0_通り芯
  6
Continuous
 62
     3
370
     9
100
AcDbCircle
 10
-273.3069699791512
 20
-48.44032705899424
 30
0.0
 40
2.000000025774982
100
AcDbArc
 50
7.016464233398438
 51
90.0
  0
ARC
  5
31F
330
1F
100
AcDbEntity
  8
0-0_通り芯
  6
Continuous
 62
     3
370
     9
100
AcDbCircle
 10
-294.8070161679181
 20
-48.44032705899424
 30
0.0
 40
2.000000025774982
100
AcDbArc
 50
90.0
 51
180.0
  0
ARC
  5
320
330
1F
100
AcDbEntity
  8
0-0_通り芯
  6
Continuous
 62
     3
370
     9
100
AcDbCircle
 10
-294.8070161679181
 20
-70.94032705899424
 30
0.0
 40
2.000000025774982
100
AcDbArc
 50
180.0
 51
270.0
  0
ARC
  5
321
330
1F
100
AcDbEntity
  8
0-0_通り芯
  6
Continuous
 62
     3
370
     9
100
AcDbCircle
 10
-273.3069699791512
 20
-70.94032705899424
 30
0.0
 40
2.000000025774982
100
AcDbArc
 50
270.0
 51
0.0
  0
ARC
  5
322
330
1F
100
AcDbEntity
  8
0-0_通り芯
  6
Continuous
 62
     3
370
     9
100
AcDbCircle
 10
-233.8069633807559
 20
-70.94032705899424
 30
0.0
 40
2.000000025774982
100
AcDbArc
 50
270.0
 51
0.0
  0
ARC
  5
323
330
1F
100
AcDbEntity
  8
0-0_通り芯
  6
Continuous
 62
     3
370
     9
100
AcDbCircle
 10
-255.3069105935937
 20
-70.94032705899424
 30
0.0
 40
2.000000025774982
100
AcDbArc
 50
180.0
 51
270.0
  0
ARC
  5
324
330
1F
100
AcDbEntity
  8
0-0_通り芯
  6
Continuous
 62
     3
370
     9
100
AcDbCircle
 10
-255.3069105935937
 20
-48.44032705899424
 30
0.0
 40
2.000000025774982
100
AcDbArc
 50
90.0
 51
180.0
  0
ARC
  5
325
330
1F
100
AcDbEntity
  8
0-0_通り芯
  6
Continuous
 62
     3
370
     9
100
AcDbCircle
 10
-233.8069633807559
 20
-48.44032705899424
 30
0.0
 40
2.000000025774982
100
AcDbArc
 50
7.016464233398438
 51
90.0
  0
ARC
  5
326
330
1F
100
AcDbEntity
  8
0-0_通り芯
  6
Continuous
 62
     3
370
     9
100
AcDbCircle
 10
-194.3070557582897
 20
-48.44032705899424
 30
0.0
 40
2.000000025774982
100
AcDbArc
 50
7.016464233398438
 51
90.0
  0
ARC
  5
327
330
1F
100
AcDbEntity
  8
0-0_通り芯
  6
Continuous
 62
     3
370
     9
100
AcDbCircle
 10
-215.8070029711275
 20
-48.44032705899424
 30
0.0
 40
2.000000025774982
100
AcDbArc
 50
90.0
 51
180.0
  0
ARC
  5
328
330
1F
100
AcDbEntity
  8
0-0_通り芯
  6
Continuous
 62
     3
370
     9
100
AcDbCircle
 10
-215.8070029711275
 20
-70.94032705899424
 30
0.0
 40
2.000000025774982
100
AcDbArc
 50
180.0
 51
270.0
  0
ARC
  5
329
330
1F
100
AcDbEntity
  8
0-0_通り芯
  6
Continuous
 62
     3
370
     9
100
AcDbCircle
 10
-194.3070557582897
 20
-70.94032705899424
 30
0.0
 40
2.000000025774982
100
AcDbArc
 50
270.0
 51
0.0
  0
ARC
  5
32A
330
1F
100
AcDbEntity
  8
0-0_通り芯
  6
Continuous
 62
     3
370
     9
100
AcDbCircle
 10
-154.8069501839653
 20
-70.94032705899424
 30
0.0
 40
2.000000025774982
100
AcDbArc
 50
270.0
 51
0.0
  0
ARC
  5
32B
330
1F
100
AcDbEntity
  8
0-0_通り芯
  6
Continuous
 62
     3
370
     9
100
AcDbCircle
 10
-176.3069963727323
 20
-70.94032705899424
 30
0.0
 40
2.000000025774982
100
AcDbArc
 50
180.0
 51
270.0
  0
ARC
  5
32C
330
1F
100
AcDbEntity
  8
0-0_通り芯
  6
Continuous
 62
     3
370
     9
100
AcDbCircle
 10
-176.3069963727323
 20
-48.44032705899424
 30
0.0
 40
2.000000025774982
100
AcDbArc
 50
90.0
 51
180.0
  0
ARC
  5
32D
330
1F
100
AcDbEntity
  8
0-0_通り芯
  6
Continuous
 62
     3
370
     9
100
AcDbCircle
 10
-154.8069501839653
 20
-48.44032705899424
 30
0.0
 40
2.000000025774982
100
AcDbArc
 50
7.016464233398438
 51
90.0
  0
ARC
  5
32E
330
1F
100
AcDbEntity
  8
0-0_通り芯
  6
Continuous
 62
     3
370
     9
100
AcDbCircle
 10
-115.3069435855701
 20
-48.44032705899424
 30
0.0
 40
2.000000025774982
100
AcDbArc
 50
7.016464233398438
 51
90.0
  0
ARC
  5
32F
330
1F
100
AcDbEntity
  8
0-0_通り芯
  6
Continuous
 62
     3
370
     9
100
AcDbCircle
 10
-136.806989774337
 20
-48.44032705899424
 30
0.0
 40
2.000000025774982
100
AcDbArc
 50
90.0
 51
180.0
  0
ARC
  5
330
330
1F
100
AcDbEntity
  8
0-0_通り芯
  6
Continuous
 62
     3
370
     9
100
AcDbCircle
 10
-136.806989774337
 20
-70.94032705899424
 30
0.0
 40
2.000000025774982
100
AcDbArc
 50
180.0
 51
270.0
  0
ARC
  5
331
330
1F
100
AcDbEntity
  8
0-0_通り芯
  6
Continuous
 62
     3
370
     9
100
AcDbCircle
 10
-115.3069435855701
 20
-70.94032705899424
 30
0.0
 40
2.000000025774982
100
AcDbArc
 50
270.0
 51
0.0
  0
ARC
  5
332
330
1F
100
AcDbEntity
  8
0-0_通り芯
  6
Continuous
 62
     3
370
     9
100
AcDbCircle
 10
-115.3069435855701
 20
235.0595937602625
 30
0.0
 40
2.000000025774982
100
AcDbArc
 50
1.403289794921875
 51
90.0
  0
ARC
  5
333
330
1F
100
AcDbEntity
  8
0-0_通り芯
  6
Continuous
 62
     3
370
     9
100
AcDbCircle
 10
-136.806989774337
 20
235.0595937602625
 30
0.0
 40
2.000000025774982
100
AcDbArc
 50
89.99998474121094
 51
180.0
  0
ARC
  5
334
330
1F
100
AcDbEntity
  8
0-0_通り芯
  6
Continuous
 62
     3
370
     9
100
AcDbCircle
 10
-136.806989774337
 20
212.5595937602625
 30
0.0
 40
2.000000025774982
100
AcDbArc
 50
180.0
 51
270.0
  0
ARC
  5
335
330
1F
100
AcDbEntity
  8
0-0_通り芯
  6
Continuous
 62
     3
370
     9
100
AcDbCircle
 10
-115.3069435855701
 20
212.5595937602625
 30
0.0
 40
2.000000025774982
100
AcDbArc
 50
270.0
 51
0.0
  0
ARC
  5
336
330
1F
100
AcDbEntity
  8
0-0_通り芯
  6
Continuous
 62
     3
370
     9
100
AcDbCircle
 10
-154.8069501839653
 20
212.5595937602625
 30
0.0
 40
2.000000025774982
100
AcDbArc
 50
270.0
 51
0.0
  0
ARC
  5
337
330
1F
100
AcDbEntity
  8
0-0_通り芯
  6
Continuous
 62
     3
370
     9
100
AcDbCircle
 10
-176.3069963727323
 20
212.5595937602625
 30
0.0
 40
2.000000025774982
100
AcDbArc
 50
180.0
 51
270.0
  0
ARC
  5
338
330
1F
100
AcDbEntity
  8
0-0_通り芯
  6
Continuous
 62
     3
370
     9
100
AcDbCircle
 10
-176.3069963727323
 20
235.0595937602625
 30
0.0
 40
2.000000025774982
100
AcDbArc
 50
89.99998474121094
 51
180.0
  0
ARC
  5
339
330
1F
100
AcDbEntity
  8
0-0_通り芯
  6
Continuous
 62
     3
370
     9
100
AcDbCircle
 10
-154.8069501839653
 20
235.0595937602625
 30
0.0
 40
2.000000025774982
100
AcDbArc
 50
1.403289794921875
 51
90.0
  0
ARC
  5
33A
330
1F
100
AcDbEntity
  8
0-0_通り芯
  6
Continuous
 62
     3
370
     9
100
AcDbCircle
 10
-194.3070557582897
 20
235.0595937602625
 30
0.0
 40
2.000000025774982
100
AcDbArc
 50
1.403289794921875
 51
90.0
  0
ARC
  5
33B
330
1F
100
AcDbEntity
  8
0-0_通り芯
  6
Continuous
 62
     3
370
     9
100
AcDbCircle
 10
-215.8070029711275
 20
235.0595937602625
 30
0.0
 40
2.000000025774982
100
AcDbArc
 50
89.99998474121094
 51
180.0
  0
ARC
  5
33C
330
1F
100
AcDbEntity
  8
0-0_通り芯
  6
Continuous
 62
     3
370
     9
100
AcDbCircle
 10
-215.8070029711275
 20
212.5595937602625
 30
0.0
 40
2.000000025774982
100
AcDbArc
 50
180.0
 51
270.0
  0
ARC
  5
33D
330
1F
100
AcDbEntity
  8
0-0_通り芯
  6
Continuous
 62
     3
370
     9
100
AcDbCircle
 10
-194.3070557582897
 20
212.5595937602625
 30
0.0
 40
2.000000025774982
100
AcDbArc
 50
270.0
 51
0.0
  0
ARC
  5
33E
330
1F
100
AcDbEntity
  8
0-0_通り芯
  6
Continuous
 62
     3
370
     9
100
AcDbCircle
 10
-233.8069633807559
 20
212.5595937602625
 30
0.0
 40
2.000000025774982
100
AcDbArc
 50
270.0
 51
0.0
  0
ARC
  5
33F
330
1F
100
AcDbEntity
  8
0-0_通り芯
  6
Continuous
 62
     3
370
     9
100
AcDbCircle
 10
-255.3069105935937
 20
212.5595937602625
 30
0.0
 40
2.000000025774982
100
AcDbArc
 50
180.0
 51
270.0
  0
ARC
  5
340
330
1F
100
AcDbEntity
  8
0-0_通り芯
  6
Continuous
 62
     3
370
     9
100
AcDbCircle
 10
-255.3069105935937
 20
235.0595937602625
 30
0.0
 40
2.000000025774982
100
AcDbArc
 50
89.99998474121094
 51
180.0
  0
ARC
  5
341
330
1F
100
AcDbEntity
  8
0-0_通り芯
  6
Continuous
 62
     3
370
     9
100
AcDbCircle
 10
-233.8069633807559
 20
235.0595937602625
 30
0.0
 40
2.000000025774982
100
AcDbArc
 50
1.403289794921875
 51
90.0
  0
ARC
  5
342
330
1F
100
AcDbEntity
  8
0-0_通り芯
  6
Continuous
 62
     3
370
     9
100
AcDbCircle
 10
-273.3069699791512
 20
235.0595937602625
 30
0.0
 40
2.000000025774982
100
AcDbArc
 50
1.403289794921875
 51
90.0
  0
ARC
  5
343
330
1F
100
AcDbEntity
  8
0-0_通り芯
  6
Continuous
 62
     3
370
     9
100
AcDbCircle
 10
-294.8070161679181
 20
235.0595937602625
 30
0.0
 40
2.000000025774982
100
AcDbArc
 50
89.99998474121094
 51
180.0
  0
ARC
  5
344
330
1F
100
AcDbEntity
  8
0-0_通り芯
  6
Continuous
 62
     3
370
     9
100
AcDbCircle
 10
-294.8070161679181
 20
212.5595937602625
 30
0.0
 40
2.000000025774982
100
AcDbArc
 50
180.0
 51
270.0
  0
ARC
  5
345
330
1F
100
AcDbEntity
  8
0-0_通り芯
  6
Continuous
 62
     3
370
     9
100
AcDbCircle
 10
-273.3069699791512
 20
212.5595937602625
 30
0.0
 40
2.000000025774982
100
AcDbArc
 50
270.0
 51
0.0
  0
ARC
  5
346
330
1F
100
AcDbEntity
  8
0-0_通り芯
  6
Continuous
 62
     3
370
     9
100
AcDbCircle
 10
-312.8069765775465
 20
212.5595937602625
 30
0.0
 40
2.000000025774982
100
AcDbArc
 50
270.0
 51
0.0
  0
ARC
  5
347
330
1F
100
AcDbEntity
  8
0-0_通り芯
  6
Continuous
 62
     3
370
     9
100
AcDbCircle
 10
-334.3069237903843
 20
212.5595937602625
 30
0.0
 40
2.000000025774982
100
AcDbArc
 50
180.0
 51
270.0
  0
ARC
  5
348
330
1F
100
AcDbEntity
  8
0-0_通り芯
  6
Continuous
 62
     3
370
     9
100
AcDbCircle
 10
-334.3069237903843
 20
235.0595937602625
 30
0.0
 40
2.000000025774982
100
AcDbArc
 50
89.99998474121094
 51
180.0
  0
ARC
  5
349
330
1F
100
AcDbEntity
  8
0-0_通り芯
  6
Continuous
 62
     3
370
     9
100
AcDbCircle
 10
-312.8069765775465
 20
235.0595937602625
 30
0.0
 40
2.000000025774982
100
AcDbArc
 50
1.403289794921875
 51
90.0
  0
ARC
  5
34A
330
1F
100
AcDbEntity
  8
0-0_通り芯
  6
Continuous
 62
     3
370
     9
100
AcDbCircle
 10
-312.8069765775465
 20
194.5596333506342
 30
0.0
 40
2.000000025774982
100
AcDbArc
 50
1.403289794921875
 51
90.0
  0
ARC
  5
34B
330
1F
100
AcDbEntity
  8
0-0_通り芯
  6
Continuous
 62
     3
370
     9
100
AcDbCircle
 10
-334.3069237903843
 20
194.5596333506342
 30
0.0
 40
2.000000025774982
100
AcDbArc
 50
89.99998474121094
 51
180.0
  0
ARC
  5
34C
330
1F
100
AcDbEntity
  8
0-0_通り芯
  6
Continuous
 62
     3
370
     9
100
AcDbCircle
 10
-334.3069237903843
 20
172.0596333506341
 30
0.0
 40
2.000000025774982
100
AcDbArc
 50
180.0
 51
270.0
  0
ARC
  5
34D
330
1F
100
AcDbEntity
  8
0-0_通り芯
  6
Continuous
 62
     3
370
     9
100
AcDbCircle
 10
-312.8069765775465
 20
172.0596333506341
 30
0.0
 40
2.000000025774982
100
AcDbArc
 50
270.0
 51
0.0
  0
ARC
  5
34E
330
1F
100
AcDbEntity
  8
0-0_通り芯
  6
Continuous
 62
     3
370
     9
100
AcDbCircle
 10
-273.3069699791512
 20
172.0596333506341
 30
0.0
 40
2.000000025774982
100
AcDbArc
 50
270.0
 51
0.0
  0
ARC
  5
34F
330
1F
100
AcDbEntity
  8
0-0_通り芯
  6
Continuous
 62
     3
370
     9
100
AcDbCircle
 10
-294.8070161679181
 20
172.0596333506341
 30
0.0
 40
2.000000025774982
100
AcDbArc
 50
180.0
 51
270.0
  0
ARC
  5
350
330
1F
100
AcDbEntity
  8
0-0_通り芯
  6
Continuous
 62
     3
370
     9
100
AcDbCircle
 10
-294.8070161679181
 20
194.5596333506342
 30
0.0
 40
2.000000025774982
100
AcDbArc
 50
89.99998474121094
 51
180.0
  0
ARC
  5
351
330
1F
100
AcDbEntity
  8
0-0_通り芯
  6
Continuous
 62
     3
370
     9
100
AcDbCircle
 10
-273.3069699791512
 20
194.5596333506342
 30
0.0
 40
2.000000025774982
100
AcDbArc
 50
1.403289794921875
 51
90.0
  0
ARC
  5
352
330
1F
100
AcDbEntity
  8
0-0_通り芯
  6
Continuous
 62
     3
370
     9
100
AcDbCircle
 10
-233.8069633807559
 20
194.5596333506342
 30
0.0
 40
2.000000025774982
100
AcDbArc
 50
1.403289794921875
 51
90.0
  0
ARC
  5
353
330
1F
100
AcDbEntity
  8
0-0_通り芯
  6
Continuous
 62
     3
370
     9
100
AcDbCircle
 10
-255.3069105935937
 20
194.5596333506342
 30
0.0
 40
2.000000025774982
100
AcDbArc
 50
89.99998474121094
 51
180.0
  0
ARC
  5
354
330
1F
100
AcDbEntity
  8
0-0_通り芯
  6
Continuous
 62
     3
370
     9
100
AcDbCircle
 10
-255.3069105935937
 20
172.0596333506341
 30
0.0
 40
2.000000025774982
100
AcDbArc
 50
180.0
 51
270.0
  0
ARC
  5
355
330
1F
100
AcDbEntity
  8
0-0_通り芯
  6
Continuous
 62
     3
370
     9
100
AcDbCircle
 10
-233.8069633807559
 20
172.0596333506341
 30
0.0
 40
2.000000025774982
100
AcDbArc
 50
270.0
 51
0.0
  0
ARC
  5
356
330
1F
100
AcDbEntity
  8
0-0_通り芯
  6
Continuous
 62
     3
370
     9
100
AcDbCircle
 10
-194.3070557582897
 20
172.0596333506341
 30
0.0
 40
2.000000025774982
100
AcDbArc
 50
270.0
 51
0.0
  0
ARC
  5
357
330
1F
100
AcDbEntity
  8
0-0_通り芯
  6
Continuous
 62
     3
370
     9
100
AcDbCircle
 10
-215.8070029711275
 20
172.0596333506341
 30
0.0
 40
2.000000025774982
100
AcDbArc
 50
180.0
 51
270.0
  0
ARC
  5
358
330
1F
100
AcDbEntity
  8
0-0_通り芯
  6
Continuous
 62
     3
370
     9
100
AcDbCircle
 10
-215.8070029711275
 20
194.5596333506342
 30
0.0
 40
2.000000025774982
100
AcDbArc
 50
89.99998474121094
 51
180.0
  0
ARC
  5
359
330
1F
100
AcDbEntity
  8
0-0_通り芯
  6
Continuous
 62
     3
370
     9
100
AcDbCircle
 10
-194.3070557582897
 20
194.5596333506342
 30
0.0
 40
2.000000025774982
100
AcDbArc
 50
1.403289794921875
 51
90.0
  0
ARC
  5
35A
330
1F
100
AcDbEntity
  8
0-0_通り芯
  6
Continuous
 62
     3
370
     9
100
AcDbCircle
 10
-154.8069501839653
 20
194.5596333506342
 30
0.0
 40
2.000000025774982
100
AcDbArc
 50
1.403289794921875
 51
90.0
  0
ARC
  5
35B
330
1F
100
AcDbEntity
  8
0-0_通り芯
  6
Continuous
 62
     3
370
     9
100
AcDbCircle
 10
-176.3069963727323
 20
194.5596333506342
 30
0.0
 40
2.000000025774982
100
AcDbArc
 50
89.99998474121094
 51
180.0
  0
ARC
  5
35C
330
1F
100
AcDbEntity
  8
0-0_通り芯
  6
Continuous
 62
     3
370
     9
100
AcDbCircle
 10
-176.3069963727323
 20
172.0596333506341
 30
0.0
 40
2.000000025774982
100
AcDbArc
 50
180.0
 51
270.0
  0
ARC
  5
35D
330
1F
100
AcDbEntity
  8
0-0_通り芯
  6
Continuous
 62
     3
370
     9
100
AcDbCircle
 10
-154.8069501839653
 20
172.0596333506341
 30
0.0
 40
2.000000025774982
100
AcDbArc
 50
270.0
 51
0.0
  0
ARC
  5
35E
330
1F
100
AcDbEntity
  8
0-0_通り芯
  6
Continuous
 62
     3
370
     9
100
AcDbCircle
 10
-115.3069435855701
 20
172.0596333506341
 30
0.0
 40
2.000000025774982
100
AcDbArc
 50
270.0
 51
0.0
  0
ARC
  5
35F
330
1F
100
AcDbEntity
  8
0-0_通り芯
  6
Continuous
 62
     3
370
     9
100
AcDbCircle
 10
-136.806989774337
 20
172.0596333506341
 30
0.0
 40
2.000000025774982
100
AcDbArc
 50
180.0
 51
270.0
  0
ARC
  5
360
330
1F
100
AcDbEntity
  8
0-0_通り芯
  6
Continuous
 62
     3
370
     9
100
AcDbCircle
 10
-136.806989774337
 20
194.5596333506342
 30
0.0
 40
2.000000025774982
100
AcDbArc
 50
89.99998474121094
 51
180.0
  0
ARC
  5
361
330
1F
100
AcDbEntity
  8
0-0_通り芯
  6
Continuous
 62
     3
370
     9
100
AcDbCircle
 10
-115.3069435855701
 20
194.5596333506342
 30
0.0
 40
2.000000025774982
100
AcDbArc
 50
1.403289794921875
 51
90.0
  0
ARC
  5
362
330
1F
100
AcDbEntity
  8
0-0_通り芯
  6
Continuous
 62
     3
370
     9
100
AcDbCircle
 10
-115.3069435855701
 20
154.0596729410058
 30
0.0
 40
2.000000025774982
100
AcDbArc
 50
1.403289794921875
 51
90.0
  0
ARC
  5
363
330
1F
100
AcDbEntity
  8
0-0_通り芯
  6
Continuous
 62
     3
370
     9
100
AcDbCircle
 10
-136.806989774337
 20
154.0596729410058
 30
0.0
 40
2.000000025774982
100
AcDbArc
 50
89.99998474121094
 51
180.0
  0
ARC
  5
364
330
1F
100
AcDbEntity
  8
0-0_通り芯
  6
Continuous
 62
     3
370
     9
100
AcDbCircle
 10
-136.806989774337
 20
131.5596729410058
 30
0.0
 40
2.000000025774982
100
AcDbArc
 50
180.0
 51
270.0
  0
ARC
  5
365
330
1F
100
AcDbEntity
  8
0-0_通り芯
  6
Continuous
 62
     3
370
     9
100
AcDbCircle
 10
-115.3069435855701
 20
131.5596729410058
 30
0.0
 40
2.000000025774982
100
AcDbArc
 50
270.0
 51
0.0
  0
ARC
  5
366
330
1F
100
AcDbEntity
  8
0-0_通り芯
  6
Continuous
 62
     3
370
     9
100
AcDbCircle
 10
-154.8069501839653
 20
131.5596729410058
 30
0.0
 40
2.000000025774982
100
AcDbArc
 50
270.0
 51
0.0
  0
ARC
  5
367
330
1F
100
AcDbEntity
  8
0-0_通り芯
  6
Continuous
 62
     3
370
     9
100
AcDbCircle
 10
-176.3069963727323
 20
131.5596729410058
 30
0.0
 40
2.000000025774982
100
AcDbArc
 50
180.0
 51
270.0
  0
ARC
  5
368
330
1F
100
AcDbEntity
  8
0-0_通り芯
  6
Continuous
 62
     3
370
     9
100
AcDbCircle
 10
-176.3069963727323
 20
154.0596729410058
 30
0.0
 40
2.000000025774982
100
AcDbArc
 50
89.99998474121094
 51
180.0
  0
ARC
  5
369
330
1F
100
AcDbEntity
  8
0-0_通り芯
  6
Continuous
 62
     3
370
     9
100
AcDbCircle
 10
-154.8069501839653
 20
154.0596729410058
 30
0.0
 40
2.000000025774982
100
AcDbArc
 50
1.403289794921875
 51
90.0
  0
ARC
  5
36A
330
1F
100
AcDbEntity
  8
0-0_通り芯
  6
Continuous
 62
     3
370
     9
100
AcDbCircle
 10
-194.3070557582897
 20
154.0596729410058
 30
0.0
 40
2.000000025774982
100
AcDbArc
 50
1.403289794921875
 51
90.0
  0
ARC
  5
36B
330
1F
100
AcDbEntity
  8
0-0_通り芯
  6
Continuous
 62
     3
370
     9
100
AcDbCircle
 10
-215.8070029711275
 20
154.0596729410058
 30
0.0
 40
2.000000025774982
100
AcDbArc
 50
89.99998474121094
 51
180.0
  0
ARC
  5
36C
330
1F
100
AcDbEntity
  8
0-0_通り芯
  6
Continuous
 62
     3
370
     9
100
AcDbCircle
 10
-215.8070029711275
 20
131.5596729410058
 30
0.0
 40
2.000000025774982
100
AcDbArc
 50
180.0
 51
270.0
  0
ARC
  5
36D
330
1F
100
AcDbEntity
  8
0-0_通り芯
  6
Continuous
 62
     3
370
     9
100
AcDbCircle
 10
-194.3070557582897
 20
131.5596729410058
 30
0.0
 40
2.000000025774982
100
AcDbArc
 50
270.0
 51
0.0
  0
ARC
  5
36E
330
1F
100
AcDbEntity
  8
0-0_通り芯
  6
Continuous
 62
     3
370
     9
100
AcDbCircle
 10
-233.8069633807559
 20
131.5596729410058
 30
0.0
 40
2.000000025774982
100
AcDbArc
 50
270.0
 51
0.0
  0
ARC
  5
36F
330
1F
100
AcDbEntity
  8
0-0_通り芯
  6
Continuous
 62
     3
370
     9
100
AcDbCircle
 10
-255.3069105935937
 20
131.5596729410058
 30
0.0
 40
2.000000025774982
100
AcDbArc
 50
180.0
 51
270.0
  0
ARC
  5
370
330
1F
100
AcDbEntity
  8
0-0_通り芯
  6
Continuous
 62
     3
370
     9
100
AcDbCircle
 10
-255.3069105935937
 20
154.0596729410058
 30
0.0
 40
2.000000025774982
100
AcDbArc
 50
89.99998474121094
 51
180.0
  0
ARC
  5
371
330
1F
100
AcDbEntity
  8
0-0_通り芯
  6
Continuous
 62
     3
370
     9
100
AcDbCircle
 10
-233.8069633807559
 20
154.0596729410058
 30
0.0
 40
2.000000025774982
100
AcDbArc
 50
1.403289794921875
 51
90.0
  0
ARC
  5
372
330
1F
100
AcDbEntity
  8
0-0_通り芯
  6
Continuous
 62
     3
370
     9
100
AcDbCircle
 10
-273.3069699791512
 20
154.0596729410058
 30
0.0
 40
2.000000025774982
100
AcDbArc
 50
1.403289794921875
 51
90.0
  0
ARC
  5
373
330
1F
100
AcDbEntity
  8
0-0_通り芯
  6
Continuous
 62
     3
370
     9
100
AcDbCircle
 10
-294.8070161679181
 20
154.0596729410058
 30
0.0
 40
2.000000025774982
100
AcDbArc
 50
89.99998474121094
 51
180.0
  0
ARC
  5
374
330
1F
100
AcDbEntity
  8
0-0_通り芯
  6
Continuous
 62
     3
370
     9
100
AcDbCircle
 10
-294.8070161679181
 20
131.5596729410058
 30
0.0
 40
2.000000025774982
100
AcDbArc
 50
180.0
 51
270.0
  0
ARC
  5
375
330
1F
100
AcDbEntity
  8
0-0_通り芯
  6
Continuous
 62
     3
370
     9
100
AcDbCircle
 10
-273.3069699791512
 20
131.5596729410058
 30
0.0
 40
2.000000025774982
100
AcDbArc
 50
270.0
 51
0.0
  0
ARC
  5
376
330
1F
100
AcDbEntity
  8
0-0_通り芯
  6
Continuous
 62
     3
370
     9
100
AcDbCircle
 10
-312.8069765775465
 20
131.5596729410058
 30
0.0
 40
2.000000025774982
100
AcDbArc
 50
270.0
 51
0.0
  0
ARC
  5
377
330
1F
100
AcDbEntity
  8
0-0_通り芯
  6
Continuous
 62
     3
370
     9
100
AcDbCircle
 10
-334.3069237903843
 20
131.5596729410058
 30
0.0
 40
2.000000025774982
100
AcDbArc
 50
180.0
 51
270.0
  0
ARC
  5
378
330
1F
100
AcDbEntity
  8
0-0_通り芯
  6
Continuous
 62
     3
370
     9
100
AcDbCircle
 10
-334.3069237903843
 20
154.0596729410058
 30
0.0
 40
2.000000025774982
100
AcDbArc
 50
89.99998474121094
 51
180.0
  0
ARC
  5
379
330
1F
100
AcDbEntity
  8
0-0_通り芯
  6
Continuous
 62
     3
370
     9
100
AcDbCircle
 10
-312.8069765775465
 20
154.0596729410058
 30
0.0
 40
2.000000025774982
100
AcDbArc
 50
1.403289794921875
 51
90.0
  0
ARC
  5
37A
330
1F
100
AcDbEntity
  8
0-0_通り芯
  6
Continuous
 62
     3
370
     9
100
AcDbCircle
 10
-312.8069765775465
 20
113.5597125313774
 30
0.0
 40
2.000000025774982
100
AcDbArc
 50
1.403289794921875
 51
90.0
  0
ARC
  5
37B
330
1F
100
AcDbEntity
  8
0-0_通り芯
  6
Continuous
 62
     3
370
     9
100
AcDbCircle
 10
-334.3069237903843
 20
113.5597125313774
 30
0.0
 40
2.000000025774982
100
AcDbArc
 50
89.99998474121094
 51
180.0
  0
ARC
  5
37C
330
1F
100
AcDbEntity
  8
0-0_通り芯
  6
Continuous
 62
     3
370
     9
100
AcDbCircle
 10
-334.3069237903843
 20
91.05966304341284
 30
0.0
 40
2.000000025774982
100
AcDbArc
 50
180.0
 51
270.0
  0
ARC
  5
37D
330
1F
100
AcDbEntity
  8
0-0_通り芯
  6
Continuous
 62
     3
370
     9
100
AcDbCircle
 10
-312.8069765775465
 20
91.05966304341284
 30
0.0
 40
2.000000025774982
100
AcDbArc
 50
270.0
 51
0.0
  0
ARC
  5
37E
330
1F
100
AcDbEntity
  8
0-0_通り芯
  6
Continuous
 62
     3
370
     9
100
AcDbCircle
 10
-273.3069699791512
 20
91.05966304341284
 30
0.0
 40
2.000000025774982
100
AcDbArc
 50
270.0
 51
0.0
  0
ARC
  5
37F
330
1F
100
AcDbEntity
  8
0-0_通り芯
  6
Continuous
 62
     3
370
     9
100
AcDbCircle
 10
-294.8070161679181
 20
91.05966304341284
 30
0.0
 40
2.000000025774982
100
AcDbArc
 50
180.0
 51
270.0
  0
ARC
  5
380
330
1F
100
AcDbEntity
  8
0-0_通り芯
  6
Continuous
 62
     3
370
     9
100
AcDbCircle
 10
-294.8070161679181
 20
113.5597125313774
 30
0.0
 40
2.000000025774982
100
AcDbArc
 50
89.99998474121094
 51
180.0
  0
ARC
  5
381
330
1F
100
AcDbEntity
  8
0-0_通り芯
  6
Continuous
 62
     3
370
     9
100
AcDbCircle
 10
-273.3069699791512
 20
113.5597125313774
 30
0.0
 40
2.000000025774982
100
AcDbArc
 50
1.403289794921875
 51
90.0
  0
ARC
  5
382
330
1F
100
AcDbEntity
  8
0-0_通り芯
  6
Continuous
 62
     3
370
     9
100
AcDbCircle
 10
-233.8069633807559
 20
113.5597125313774
 30
0.0
 40
2.000000025774982
100
AcDbArc
 50
1.403289794921875
 51
90.0
  0
ARC
  5
383
330
1F
100
AcDbEntity
  8
0-0_通り芯
  6
Continuous
 62
     3
370
     9
100
AcDbCircle
 10
-255.3069105935937
 20
113.5597125313774
 30
0.0
 40
2.000000025774982
100
AcDbArc
 50
89.99998474121094
 51
180.0
  0
ARC
  5
384
330
1F
100
AcDbEntity
  8
0-0_通り芯
  6
Continuous
 62
     3
370
     9
100
AcDbCircle
 10
-255.3069105935937
 20
91.05966304341284
 30
0.0
 40
2.000000025774982
100
AcDbArc
 50
180.0
 51
270.0
  0
ARC
  5
385
330
1F
100
AcDbEntity
  8
0-0_通り芯
  6
Continuous
 62
     3
370
     9
100
AcDbCircle
 10
-233.8069633807559
 20
91.05966304341284
 30
0.0
 40
2.000000025774982
100
AcDbArc
 50
270.0
 51
0.0
  0
ARC
  5
386
330
1F
100
AcDbEntity
  8
0-0_通り芯
  6
Continuous
 62
     3
370
     9
100
AcDbCircle
 10
-194.3070557582897
 20
91.05966304341284
 30
0.0
 40
2.000000025774982
100
AcDbArc
 50
270.0
 51
0.0
  0
ARC
  5
387
330
1F
100
AcDbEntity
  8
0-0_通り芯
  6
Continuous
 62
     3
370
     9
100
AcDbCircle
 10
-215.8070029711275
 20
91.05966304341284
 30
0.0
 40
2.000000025774982
100
AcDbArc
 50
180.0
 51
270.0
  0
ARC
  5
388
330
1F
100
AcDbEntity
  8
0-0_通り芯
  6
Continuous
 62
     3
370
     9
100
AcDbCircle
 10
-215.8070029711275
 20
113.5597125313774
 30
0.0
 40
2.000000025774982
100
AcDbArc
 50
89.99998474121094
 51
180.0
  0
ARC
  5
389
330
1F
100
AcDbEntity
  8
0-0_通り芯
  6
Continuous
 62
     3
370
     9
100
AcDbCircle
 10
-194.3070557582897
 20
113.5597125313774
 30
0.0
 40
2.000000025774982
100
AcDbArc
 50
1.403289794921875
 51
90.0
  0
ARC
  5
38A
330
1F
100
AcDbEntity
  8
0-0_通り芯
  6
Continuous
 62
     3
370
     9
100
AcDbCircle
 10
-154.8069501839653
 20
113.5597125313774
 30
0.0
 40
2.000000025774982
100
AcDbArc
 50
1.403289794921875
 51
90.0
  0
ARC
  5
38B
330
1F
100
AcDbEntity
  8
0-0_通り芯
  6
Continuous
 62
     3
370
     9
100
AcDbCircle
 10
-176.3069963727323
 20
113.5597125313774
 30
0.0
 40
2.000000025774982
100
AcDbArc
 50
89.99998474121094
 51
180.0
  0
ARC
  5
38C
330
1F
100
AcDbEntity
  8
0-0_通り芯
  6
Continuous
 62
     3
370
     9
100
AcDbCircle
 10
-176.3069963727323
 20
91.05966304341284
 30
0.0
 40
2.000000025774982
100
AcDbArc
 50
180.0
 51
270.0
  0
ARC
  5
38D
330
1F
100
AcDbEntity
  8
0-0_通り芯
  6
Continuous
 62
     3
370
     9
100
AcDbCircle
 10
-154.8069501839653
 20
91.05966304341284
 30
0.0
 40
2.000000025774982
100
AcDbArc
 50
270.0
 51
0.0
  0
ARC
  5
38E
330
1F
100
AcDbEntity
  8
0-0_通り芯
  6
Continuous
 62
     3
370
     9
100
AcDbCircle
 10
-115.3069435855701
 20
91.05966304341284
 30
0.0
 40
2.000000025774982
100
AcDbArc
 50
270.0
 51
0.0
  0
ARC
  5
38F
330
1F
100
AcDbEntity
  8
0-0_通り芯
  6
Continuous
 62
     3
370
     9
100
AcDbCircle
 10
-136.806989774337
 20
91.05966304341284
 30
0.0
 40
2.000000025774982
100
AcDbArc
 50
180.0
 51
270.0
  0
ARC
  5
390
330
1F
100
AcDbEntity
  8
0-0_通り芯
  6
Continuous
 62
     3
370
     9
100
AcDbCircle
 10
-136.806989774337
 20
113.5597125313774
 30
0.0
 40
2.000000025774982
100
AcDbArc
 50
89.99998474121094
 51
180.0
  0
ARC
  5
391
330
1F
100
AcDbEntity
  8
0-0_通り芯
  6
Continuous
 62
     3
370
     9
100
AcDbCircle
 10
-115.3069435855701
 20
113.5597125313774
 30
0.0
 40
2.000000025774982
100
AcDbArc
 50
1.403289794921875
 51
90.0
  0
LINE
  5
392
330
1F
100
AcDbEntity
  8
0-0_通り芯
  6
JWW_CENTER1
 62
     3
370
     9
100
AcDbLine
 10
-373.9309262166406
 20
82.05963335063409
 30
0.0
 11
155.7268445839874
 21
82.05963335063409
 31
0.0
  0
LINE
  5
393
330
1F
100
AcDbEntity
  8
0-0_通り芯
  6
Continuous
 62
     3
370
     9
100
AcDbLine
 10
286.28427487055
 20
-92.94039964134227
 30
0.0
 11
286.28427487055
 21
257.0596663426106
 31
0.0
  0
LINE
  5
394
330
1F
100
AcDbEntity
  8
0-0_通り芯
  6
Continuous
 62
     3
370
     9
100
AcDbLine
 10
286.28427487055
 20
156.0596795394011
 30
0.0
 11
301.28427487055
 21
158.7046132915125
 31
0.0
  0
LINE
  5
395
330
1F
100
AcDbEntity
  8
0-0_通り芯
  6
Continuous
 62
     3
370
     9
100
AcDbLine
 10
286.28427487055
 20
170.059725728168
 30
0.0
 11
301.28427487055
 21
167.4146930001274
 31
0.0
  0
LINE
  5
396
330
1F
100
AcDbEntity
  8
0-0_通り芯
  6
Continuous
 62
     3
370
     9
100
AcDbLine
 10
286.28427487055
 20
129.5596663426105
 30
0.0
 11
301.28427487055
 21
126.914732590499
 31
0.0
  0
LINE
  5
397
330
1F
100
AcDbEntity
  8
0-0_通り芯
  6
Continuous
 62
     3
370
     9
100
AcDbLine
 10
286.28427487055
 20
115.5596201538436
 30
0.0
 11
301.28427487055
 21
118.2045539059551
 31
0.0
  0
LINE
  5
398
330
1F
100
AcDbEntity
  8
0-0_通り芯
  6
Continuous
 62
     3
370
     9
100
AcDbLine
 10
286.28427487055
 20
210.5596861377963
 30
0.0
 11
301.28427487055
 21
207.9147523856848
 31
0.0
  0
LINE
  5
399
330
1F
100
AcDbEntity
  8
0-0_通り芯
  6
Continuous
 62
     3
370
     9
100
AcDbLine
 10
286.28427487055
 20
196.5596399490294
 30
0.0
 11
301.28427487055
 21
199.2045737011409
 31
0.0
  0
LINE
  5
39A
330
1F
100
AcDbEntity
  8
0-0_通り芯
  6
Continuous
 62
     3
370
     9
100
AcDbLine
 10
286.28427487055
 20
75.05961025625065
 30
0.0
 11
301.28427487055
 21
77.70454400836222
 31
0.0
  0
LINE
  5
39B
330
1F
100
AcDbEntity
  8
0-0_通り芯
  6
Continuous
 62
     3
370
     9
100
AcDbLine
 10
286.28427487055
 20
89.05960695705305
 30
0.0
 11
301.28427487055
 21
86.41477218087066
 31
0.0
  0
LINE
  5
39C
330
1F
100
AcDbEntity
  8
0-0_通り芯
  6
Continuous
 62
     3
370
     9
100
AcDbLine
 10
286.28427487055
 20
-32.44037324776112
 30
0.0
 11
301.28427487055
 21
-35.08530699987257
 31
0.0
  0
LINE
  5
39D
330
1F
100
AcDbEntity
  8
0-0_通り芯
  6
Continuous
 62
     3
370
     9
100
AcDbLine
 10
286.28427487055
 20
-46.44036994856351
 30
0.0
 11
301.28427487055
 21
-43.79548568441653
 31
0.0
  0
LINE
  5
39E
330
1F
100
AcDbEntity
  8
0-0_通り芯
  6
Continuous
 62
     3
370
     9
100
AcDbLine
 10
286.28427487055
 20
48.55964654742472
 30
0.0
 11
301.28427487055
 21
45.91476228327774
 31
0.0
  0
LINE
  5
39F
330
1F
100
AcDbEntity
  8
0-0_通り芯
  6
Continuous
 62
     3
370
     9
100
AcDbLine
 10
286.28427487055
 20
34.55964984662232
 30
0.0
 11
301.28427487055
 21
37.2045341107693
 31
0.0
  0
LINE
  5
3A0
330
1F
100
AcDbEntity
  8
0-0_通り芯
  6
Continuous
 62
     3
370
     9
100
AcDbLine
 10
286.28427487055
 20
-5.940360050970597
 30
0.0
 11
301.28427487055
 21
-3.295426298859141
 31
0.0
  0
LINE
  5
3A1
330
1F
100
AcDbEntity
  8
0-0_通り芯
  6
Continuous
 62
     3
370
     9
100
AcDbLine
 10
286.28427487055
 20
8.059686137796277
 30
0.0
 11
301.28427487055
 21
5.414702897720232
 31
0.0
  0
LINE
  5
3A2
330
1F
100
AcDbEntity
  8
0-0_通り芯
  6
JWW_CENTER1
 62
     3
370
     9
100
AcDbLine
 10
261.6002409826381
 20
82.05963335063409
 30
0.0
 11
323.9518411184386
 21
82.05963335063409
 31
0.0
  0
LINE
  5
3A3
330
1F
100
AcDbEntity
  8
0-0_通り芯
  6
Continuous
 62
     3
370
     9
100
AcDbLine
 10
-356.3069963727323
 20
-166.7454140440721
 30
0.0
 11
-352.7804359869237
 21
-186.7454222920662
 31
0.0
  0
LINE
  5
3A4
330
1F
100
AcDbEntity
  8
0-0_通り芯
  6
Continuous
 62
     3
370
     9
100
AcDbLine
 10
-336.3069798767441
 20
-166.7454140440721
 30
0.0
 11
-339.8335402625527
 21
-186.7454222920662
 31
0.0
  0
LINE
  5
3A5
330
1F
100
AcDbEntity
  8
0-0_通り芯
  6
Continuous
 62
     3
370
     9
100
AcDbLine
 10
143.6929706352913
 20
-166.7454140440721
 30
0.0
 11
140.1664597374269
 21
-186.7454222920662
 31
0.0
  0
LINE
  5
3A6
330
1F
100
AcDbEntity
  8
0-0_通り芯
  6
Continuous
 62
     3
370
     9
100
AcDbLine
 10
123.6929541393031
 20
-166.7454140440721
 30
0.0
 11
127.2194650371675
 21
-186.7454222920662
 31
0.0
  0
LINE
  5
3A7
330
1F
100
AcDbEntity
  8
0-0_通り芯
  6
Continuous
 62
     3
370
     9
100
AcDbLine
 10
126.3378376762843
 20
-181.7454222920662
 30
0.0
 11
-338.9519005296886
 21
-181.7454222920662
 31
0.0
  0
LINE
  5
3A8
330
1F
100
AcDbEntity
  8
0-0_通り芯
  6
Continuous
 62
     3
370
     9
100
AcDbLine
 10
140.1664597374269
 20
-186.7454222920662
 30
0.0
 11
-352.7804359869237
 21
-186.7454222920662
 31
0.0
  0
LINE
  5
3A9
330
1F
100
AcDbEntity
  8
0-0_通り芯
  6
Continuous
 62
     3
370
     9
100
AcDbLine
 10
286.28427487055
 20
-92.94039964134227
 30
0.0
 11
306.28427487055
 21
-89.41382130519351
 31
0.0
  0
LINE
  5
3AA
330
1F
100
AcDbEntity
  8
0-0_通り芯
  6
Continuous
 62
     3
370
     9
100
AcDbLine
 10
286.28427487055
 20
-72.94033365738956
 30
0.0
 11
306.28427487055
 21
-76.46691199353816
 31
0.0
  0
LINE
  5
3AB
330
1F
100
AcDbEntity
  8
0-0_通り芯
  6
Continuous
 62
     3
370
     9
100
AcDbLine
 10
306.28427487055
 20
-89.41382130519351
 30
0.0
 11
306.28427487055
 21
253.5330880064619
 31
0.0
  0
LINE
  5
3AC
330
1F
100
AcDbEntity
  8
0-0_通り芯
  6
Continuous
 62
     3
370
     9
100
AcDbLine
 10
286.28427487055
 20
257.0596663426106
 30
0.0
 11
306.28427487055
 21
253.5330880064618
 31
0.0
  0
LINE
  5
3AD
330
1F
100
AcDbEntity
  8
0-0_通り芯
  6
Continuous
 62
     3
370
     9
100
AcDbLine
 10
286.28427487055
 20
237.0596993345868
 30
0.0
 11
306.28427487055
 21
240.5861457028302
 31
0.0
  0
LINE
  5
3AE
330
1F
100
AcDbEntity
  8
0-0_通り芯
  6
Continuous
 62
     3
370
     9
100
AcDbLine
 10
301.28427487055
 20
-75.58526740950101
 30
0.0
 11
301.28427487055
 21
239.7045341107693
 31
0.0
  0
LINE
  5
3AF
330
1F
100
AcDbEntity
  8
0-4_寸法
  6
Continuous
 62
     7
370
     9
100
AcDbLine
 10
286.28427487055
 20
-134.0121261633311
 30
0.0
 11
306.28427487055
 21
-134.0121261633311
 31
0.0
  0
LINE
  5
3B0
330
1F
100
AcDbEntity
  8
0-4_寸法
  6
Continuous
 62
     7
370
     9
100
AcDbLine
 10
286.28427487055
 20
-134.0121261633311
 30
0.0
 11
291.2414991774191
 21
-133.3594952022308
 31
0.0
  0
LINE
  5
3B1
330
1F
100
AcDbEntity
  8
0-4_寸法
  6
Continuous
 62
     7
370
     9
100
AcDbLine
 10
286.28427487055
 20
-134.0121261633311
 30
0.0
 11
291.2414991774191
 21
-134.6647571244314
 31
0.0
  0
LINE
  5
3B2
330
1F
100
AcDbEntity
  8
0-4_寸法
  6
Continuous
 62
     7
370
     9
100
AcDbLine
 10
306.28427487055
 20
-134.0121261633311
 30
0.0
 11
301.3270505636809
 21
-133.3594952022308
 31
0.0
  0
LINE
  5
3B3
330
1F
100
AcDbEntity
  8
0-4_寸法
  6
Continuous
 62
     7
370
     9
100
AcDbLine
 10
306.28427487055
 20
-134.0121261633311
 30
0.0
 11
301.3270505636809
 21
-134.6647571244314
 31
0.0
  0
LINE
  5
3B4
330
1F
100
AcDbEntity
  8
0-4_寸法
  6
Continuous
 62
     7
370
     9
100
AcDbLine
 10
286.28427487055
 20
-134.6121261633311
 30
0.0
 11
286.28427487055
 21
-96.94039964134227
 31
0.0
  0
LINE
  5
3B5
330
1F
100
AcDbEntity
  8
0-4_寸法
  6
Continuous
 62
     7
370
     9
100
AcDbLine
 10
306.28427487055
 20
-134.6121261633311
 30
0.0
 11
306.28427487055
 21
-93.41382130519351
 31
0.0
  0
TEXT
  5
3B6
330
1F
100
AcDbEntity
  8
0-4_寸法
  6
Continuous
 62
     2
370
   211
100
AcDbText
 10
292.03427487055
 20
-130.8841261633311
 30
0.0
 40
6.096
  1
20
 41
1.0625
  7
ＭＳ ゴシック
100
AcDbText
  0
TEXT
  5
3B7
330
1F
100
AcDbEntity
  8
F-5ﾚｲﾔ
  6
Continuous
 62
     6
370
     5
100
AcDbText
 10
-156.8726797886049
 20
-271.6361005567013
 30
0.0
 40
6.096
  1
格子型　側溝用　鋳鉄製みぞ蓋　　ＧＦ　３５０×５００×２０
 41
0.9232758620689657
  7
ＭＳ ゴシック
100
AcDbText
  0
ENDSEC
  0
SECTION
  2
OBJECTS
  0
DICTIONARY
  5
C
330
0
100
AcDbDictionary
281
     1
  3
ACAD_GROUP
350
D
  3
ACAD_LAYOUT
350
1A
  3
ACAD_MLEADERSTYLE
350
3B9
  3
ACAD_MLINESTYLE
350
17
  3
ACAD_PLOTSETTINGS
350
19
  3
ACAD_PLOTSTYLENAME
350
E
  3
ACAD_TABLESTYLE
350
3B8
  3
ACAD_VISUALSTYLE
350
2A
  0
DICTIONARY
  5
D
102
{ACAD_REACTORS
330
C
102
}
330
C
100
AcDbDictionary
281
     1
  0
DICTIONARY
  5
1A
102
{ACAD_REACTORS
330
C
102
}
330
C
100
AcDbDictionary
281
     1
  3
Layout1
350
1E
  3
Layout2
350
26
  3
Model
350
22
  0
DICTIONARY
  5
3B9
102
{ACAD_REACTORS
330
C
102
}
330
C
100
AcDbDictionary
281
     1
  0
DICTIONARY
  5
17
102
{ACAD_REACTORS
330
C
102
}
330
C
100
AcDbDictionary
281
     1
  3
Standard
350
18
  0
DICTIONARY
  5
19
102
{ACAD_REACTORS
330
C
102
}
330
C
100
AcDbDictionary
281
     1
  0
ACDBDICTIONARYWDFLT
  5
E
102
{ACAD_REACTORS
330
C
102
}
330
C
100
AcDbDictionary
281
     1
  3
Normal
350
F
100
AcDbDictionaryWithDefault
340
F
  0
DICTIONARY
  5
3B8
102
{ACAD_REACTORS
330
C
102
}
330
C
100
AcDbDictionary
281
     1
  0
DICTIONARY
  5
2A
102
{ACAD_REACTORS
330
C
102
}
330
C
100
AcDbDictionary
281
     1
  3
2dWireframe
350
2F
  3
3D Hidden
350
31
  3
3dWireframe
350
30
  3
Basic
350
32
  3
Brighten
350
36
  3
ColorChange
350
3A
  3
Conceptual
350
34
  3
Dim
350
35
  3
Facepattern
350
39
  3
Flat
350
2B
  3
FlatWithEdges
350
2C
  3
Gouraud
350
2D
  3
GouraudWithEdges
350
2E
  3
Linepattern
350
38
  3
Realistic
350
33
  3
Thicken
350
37
  0
LAYOUT
  5
1E
102
{ACAD_REACTORS
330
1A
102
}
330
1A
100
AcDbPlotSettings
  1

  2
none_device
  4

  6

 40
0.0
 41
0.0
 42
0.0
 43
0.0
 44
0.0
 45
0.0
 46
0.0
 47
0.0
 48
0.0
 49
0.0
140
0.0
141
0.0
142
1.0
143
1.0
 70
   688
 72
     0
 73
     0
 74
     5
  7

 75
    16
 76
     0
 77
     5
 78
   300
147
1.0
148
0.0
149
0.0
100
AcDbLayout
  1
Layout1
 70
     1
 71
     1
 10
0.0
 20
0.0
 11
420.0
 21
297.0
 12
0.0
 22
0.0
 32
0.0
 14
1.000000000000000E+20
 24
1.000000000000000E+20
 34
1.000000000000000E+20
 15
-1.000000000000000E+20
 25
-1.000000000000000E+20
 35
-1.000000000000000E+20
146
0.0
 13
0.0
 23
0.0
 33
0.0
 16
1.0
 26
0.0
 36
0.0
 17
0.0
 27
1.0
 37
0.0
 76
     0
330
1B
  0
LAYOUT
  5
26
102
{ACAD_REACTORS
330
1A
102
}
330
1A
100
AcDbPlotSettings
  1

  2
none_device
  4

  6

 40
0.0
 41
0.0
 42
0.0
 43
0.0
 44
0.0
 45
0.0
 46
0.0
 47
0.0
 48
0.0
 49
0.0
140
0.0
141
0.0
142
1.0
143
1.0
 70
   688
 72
     0
 73
     0
 74
     5
  7

 75
    16
 76
     0
 77
     5
 78
   300
147
1.0
148
0.0
149
0.0
100
AcDbLayout
  1
Layout2
 70
     1
 71
     2
 10
0.0
 20
0.0
 11
0.0
 21
0.0
 12
0.0
 22
0.0
 32
0.0
 14
0.0
 24
0.0
 34
0.0
 15
0.0
 25
0.0
 35
0.0
146
0.0
 13
0.0
 23
0.0
 33
0.0
 16
1.0
 26
0.0
 36
0.0
 17
0.0
 27
1.0
 37
0.0
 76
     0
330
23
  0
LAYOUT
  5
22
102
{ACAD_REACTORS
330
1A
102
}
330
1A
100
AcDbPlotSettings
  1

  2
none_device
  4

  6

 40
0.0
 41
0.0
 42
0.0
 43
0.0
 44
0.0
 45
0.0
 46
0.0
 47
0.0
 48
0.0
 49
0.0
140
0.0
141
0.0
142
1.0
143
1.0
 70
  1712
 72
     0
 73
     0
 74
     0
  7

 75
     0
 76
     0
 77
     5
 78
   300
147
1.0
148
0.0
149
0.0
100
AcDbLayout
  1
Model
 70
     1
 71
     0
 10
-420.0
 20
-297.0
 11
420.0
 21
297.0
 12
0.0
 22
0.0
 32
0.0
 14
-420.0
 24
-297.0
 34
0.0
 15
420.0
 25
297.0
 35
0.0
146
0.0
 13
0.0
 23
0.0
 33
0.0
 16
1.0
 26
0.0
 36
0.0
 17
0.0
 27
1.0
 37
0.0
 76
     0
330
1F
331
29
  0
MLINESTYLE
  5
18
102
{ACAD_REACTORS
330
17
102
}
330
17
100
AcDbMlineStyle
  2
Standard
 70
     0
  3

 62
   256
 51
90.0
 52
90.0
 71
     2
 49
0.5
 62
   256
  6
BYLAYER
 49
-0.5
 62
   256
  6
BYLAYER
  0
ACDBPLACEHOLDER
  5
F
102
{ACAD_REACTORS
330
E
102
}
330
E
  0
VISUALSTYLE
  5
2F
102
{ACAD_REACTORS
330
2A
102
}
330
2A
100
AcDbVisualStyle
  2
2dWireframe
 70
     4
 71
     0
 72
     2
 73
     0
 90
        0
 40
-0.6
 41
-30.0
 62
     5
 63
     7
421
 16777215
 74
     1
 91
        4
 64
     7
 65
   257
 75
     1
175
     1
 42
1.0
 92
        0
 66
   257
 43
1.0
 76
     1
 77
     6
 78
     2
 67
     7
 79
     5
170
     0
171
     0
290
     0
174
     0
 93
        1
 44
0.0
173
     0
291
     0
 45
0.0
1001
ACAD
1000
AcDbSavedByObjectVersion
1070
     0
  0
VISUALSTYLE
  5
31
102
{ACAD_REACTORS
330
2A
102
}
330
2A
100
AcDbVisualStyle
  2
3D Hidden
 70
     6
 71
     1
 72
     2
 73
     2
 90
        0
 40
-0.6
 41
-30.0
 62
     5
 63
     7
421
 16777215
 74
     2
 91
        2
 64
     7
 65
   257
 75
     2
175
     1
 42
40.0
 92
        0
 66
   257
 43
1.0
 76
     1
 77
     6
 78
     2
 67
     7
 79
     3
170
     0
171
     0
290
     0
174
     0
 93
        1
 44
0.0
173
     0
291
     0
 45
0.0
1001
ACAD
1000
AcDbSavedByObjectVersion
1070
     0
  0
VISUALSTYLE
  5
30
102
{ACAD_REACTORS
330
2A
102
}
330
2A
100
AcDbVisualStyle
  2
3dWireframe
 70
     5
 71
     0
 72
     2
 73
     0
 90
        0
 40
-0.6
 41
-30.0
 62
     5
 63
     7
421
 16777215
 74
     1
 91
        4
 64
     7
 65
   257
 75
     1
175
     1
 42
1.0
 92
        0
 66
   257
 43
1.0
 76
     1
 77
     6
 78
     2
 67
     7
 79
     5
170
     0
171
     0
290
     0
174
     0
 93
        1
 44
0.0
173
     0
291
     0
 45
0.0
1001
ACAD
1000
AcDbSavedByObjectVersion
1070
     0
  0
VISUALSTYLE
  5
32
102
{ACAD_REACTORS
330
2A
102
}
330
2A
100
AcDbVisualStyle
  2
Basic
 70
     7
 71
     1
 72
     0
 73
     1
 90
        0
 40
-0.6
 41
-30.0
 62
     5
 63
     7
421
 16777215
 74
     0
 91
        4
 64
     7
 65
   257
 75
     1
175
     1
 42
1.0
 92
        8
 66
     7
 43
1.0
 76
     1
 77
     6
 78
     2
 67
     7
 79
     5
170
     0
171
     0
290
     0
174
     0
 93
        1
 44
0.0
173
     0
291
     1
 45
0.0
1001
ACAD
1000
AcDbSavedByObjectVersion
1070
     0
  0
VISUALSTYLE
  5
36
102
{ACAD_REACTORS
330
2A
102
}
330
2A
100
AcDbVisualStyle
  2
Brighten
 70
    12
 71
     2
 72
     2
 73
     0
 90
        0
 40
-0.6
 41
-30.0
 62
     5
 63
     7
421
 16777215
 74
     1
 91
        4
 64
     7
 65
   257
 75
     1
175
     1
 42
1.0
 92
        8
 66
     7
 43
1.0
 76
     1
 77
     6
 78
     2
 67
     7
 79
     5
170
     0
171
     0
290
     0
174
     0
 93
        1
 44
50.0
173
     0
291
     1
 45
0.0
1001
ACAD
1000
AcDbSavedByObjectVersion
1070
     0
  0
VISUALSTYLE
  5
3A
102
{ACAD_REACTORS
330
2A
102
}
330
2A
100
AcDbVisualStyle
  2
ColorChange
 70
    16
 71
     2
 72
     2
 73
     3
 90
        0
 40
-0.6
 41
-30.0
 62
     5
 63
     8
421
  8421504
 74
     1
 91
        4
 64
     7
 65
   257
 75
     1
175
     1
 42
1.0
 92
        8
 66
     8
424
  8421504
 43
1.0
 76
     1
 77
     6
 78
     2
 67
     7
 79
     5
170
     0
171
     0
290
     0
174
     0
 93
        1
 44
0.0
173
     0
291
     1
 45
0.0
1001
ACAD
1000
AcDbSavedByObjectVersion
1070
     0
  0
VISUALSTYLE
  5
34
102
{ACAD_REACTORS
330
2A
102
}
330
2A
100
AcDbVisualStyle
  2
Conceptual
 70
     9
 71
     3
 72
     2
 73
     0
 90
        0
 40
-0.6
 41
-30.0
 62
     5
 63
     7
421
 16777215
 74
     2
 91
        2
 64
     7
 65
   257
 75
     1
175
     1
 42
40.0
 92
        8
 66
     7
 43
1.0
 76
     1
 77
     6
 78
     2
 67
     7
 79
     3
170
     0
171
     0
290
     0
174
     0
 93
        1
 44
0.0
173
     0
291
     0
 45
0.0
1001
ACAD
1000
AcDbSavedByObjectVersion
1070
     0
  0
VISUALSTYLE
  5
35
102
{ACAD_REACTORS
330
2A
102
}
330
2A
100
AcDbVisualStyle
  2
Dim
 70
    11
 71
     2
 72
     2
 73
     0
 90
        0
 40
-0.6
 41
-30.0
 62
     5
 63
     7
421
 16777215
 74
     1
 91
        4
 64
     7
 65
   257
 75
     1
175
     1
 42
1.0
 92
        8
 66
     7
 43
1.0
 76
     1
 77
     6
 78
     2
 67
     7
 79
     5
170
     0
171
     0
290
     0
174
     0
 93
        1
 44
-50.0
173
     0
291
     1
 45
0.0
1001
ACAD
1000
AcDbSavedByObjectVersion
1070
     0
  0
VISUALSTYLE
  5
39
102
{ACAD_REACTORS
330
2A
102
}
330
2A
100
AcDbVisualStyle
  2
Facepattern
 70
    15
 71
     2
 72
     2
 73
     0
 90
        0
 40
-0.6
 41
-30.0
 62
     5
 63
     7
421
 16777215
 74
     1
 91
        4
 64
     7
 65
   257
 75
     1
175
     1
 42
1.0
 92
        8
 66
     7
 43
1.0
 76
     1
 77
     6
 78
     2
 67
     7
 79
     5
170
     0
171
     0
290
     0
174
     0
 93
        1
 44
0.0
173
     0
291
     1
 45
0.0
1001
ACAD
1000
AcDbSavedByObjectVersion
1070
     0
  0
VISUALSTYLE
  5
2B
102
{ACAD_REACTORS
330
2A
102
}
330
2A
100
AcDbVisualStyle
  2
Flat
 70
     0
 71
     2
 72
     1
 73
     1
 90
        2
 40
-0.6
 41
30.0
 62
     5
 63
     7
421
 16777215
 74
     0
 91
        4
 64
     7
 65
   257
 75
     1
175
     1
 42
1.0
 92
        8
 66
     7
 43
1.0
 76
     1
 77
     6
 78
     2
 67
     7
 79
     5
170
     0
171
     0
290
     0
174
     0
 93
       13
 44
0.0
173
     0
291
     1
 45
0.0
1001
ACAD
1000
AcDbSavedByObjectVersion
1070
     0
  0
VISUALSTYLE
  5
2C
102
{ACAD_REACTORS
330
2A
102
}
330
2A
100
AcDbVisualStyle
  2
FlatWithEdges
 70
     1
 71
     2
 72
     1
 73
     1
 90
        2
 40
-0.6
 41
30.0
 62
     5
 63
     7
421
 16777215
 74
     1
 91
        4
 64
     7
 65
   257
 75
     1
175
     1
 42
1.0
 92
        0
 66
   257
 43
1.0
 76
     1
 77
     6
 78
     2
 67
     7
 79
     5
170
     0
171
     0
290
     0
174
     0
 93
       13
 44
0.0
173
     0
291
     1
 45
0.0
1001
ACAD
1000
AcDbSavedByObjectVersion
1070
     0
  0
VISUALSTYLE
  5
2D
102
{ACAD_REACTORS
330
2A
102
}
330
2A
100
AcDbVisualStyle
  2
Gouraud
 70
     2
 71
     2
 72
     2
 73
     1
 90
        2
 40
-0.6
 41
30.0
 62
     5
 63
     7
421
 16777215
 74
     0
 91
        4
 64
     7
 65
   257
 75
     1
175
     1
 42
1.0
 92
        0
 66
     7
 43
1.0
 76
     1
 77
     6
 78
     2
 67
     7
 79
     5
170
     0
171
     0
290
     0
174
     0
 93
       13
 44
0.0
173
     0
291
     1
 45
0.0
1001
ACAD
1000
AcDbSavedByObjectVersion
1070
     0
  0
VISUALSTYLE
  5
2E
102
{ACAD_REACTORS
330
2A
102
}
330
2A
100
AcDbVisualStyle
  2
GouraudWithEdges
 70
     3
 71
     2
 72
     2
 73
     1
 90
        2
 40
-0.6
 41
30.0
 62
     5
 63
     7
421
 16777215
 74
     1
 91
        4
 64
     7
 65
   257
 75
     1
175
     1
 42
1.0
 92
        0
 66
   257
 43
1.0
 76
     1
 77
     6
 78
     2
 67
     7
 79
     5
170
     0
171
     0
290
     0
174
     0
 93
       13
 44
0.0
173
     0
291
     1
 45
0.0
1001
ACAD
1000
AcDbSavedByObjectVersion
1070
     0
  0
VISUALSTYLE
  5
38
102
{ACAD_REACTORS
330
2A
102
}
330
2A
100
AcDbVisualStyle
  2
Linepattern
 70
    14
 71
     2
 72
     2
 73
     0
 90
        0
 40
-0.6
 41
-30.0
 62
     5
 63
     7
421
 16777215
 74
     1
 91
        4
 64
     7
 65
   257
 75
     7
175
     7
 42
1.0
 92
        8
 66
     7
 43
1.0
 76
     1
 77
     6
 78
     2
 67
     7
 79
     5
170
     0
171
     0
290
     0
174
     0
 93
        1
 44
0.0
173
     0
291
     1
 45
0.0
1001
ACAD
1000
AcDbSavedByObjectVersion
1070
     0
  0
VISUALSTYLE
  5
33
102
{ACAD_REACTORS
330
2A
102
}
330
2A
100
AcDbVisualStyle
  2
Realistic
 70
     8
 71
     2
 72
     2
 73
     0
 90
        0
 40
-0.6
 41
-30.0
 62
     5
 63
     7
421
 16777215
 74
     1
 91
        0
 64
     7
 65
   257
 75
     1
175
     1
 42
1.0
 92
        8
 66
     8
424
  7895160
 43
1.0
 76
     1
 77
     6
 78
     2
 67
     7
 79
     5
170
     0
171
     0
290
     0
174
     0
 93
       13
 44
0.0
173
     0
291
     0
 45
0.0
1001
ACAD
1000
AcDbSavedByObjectVersion
1070
     0
  0
VISUALSTYLE
  5
37
102
{ACAD_REACTORS
330
2A
102
}
330
2A
100
AcDbVisualStyle
  2
Thicken
 70
    13
 71
     2
 72
     2
 73
     0
 90
        0
 40
-0.6
 41
-30.0
 62
     5
 63
     7
421
 16777215
 74
     1
 91
        4
 64
     7
 65
   257
 75
     1
175
     1
 42
1.0
 92
       12
 66
     7
 43
1.0
 76
     1
 77
     6
 78
     2
 67
     7
 79
     5
170
     0
171
     0
290
     0
174
     0
 93
        1
 44
0.0
173
     0
291
     1
 45
0.0
1001
ACAD
1000
AcDbSavedByObjectVersion
1070
     0
  0
ENDSEC
  0
EOF
