  0
SECTION
  2
HEADER
  9
$ACADVER
  1
AC1018
  9
$ACADMAINTVER
 70
     0
  9
$DWGCODEPAGE
  3
ANSI_932
  9
$INSBASE
 10
0.0
 20
0.0
 30
0.0
  9
$EXTMIN
 10
-630.0
 20
-445.5
 30
0.0
  9
$EXTMAX
 10
630.0
 20
445.5
 30
0.0
  9
$LIMMIN
 10
-630.0
 20
-445.5
  9
$LIMMAX
 10
630.0
 20
445.5
  9
$ORTHOMODE
 70
     0
  9
$REGENMODE
 70
     1
  9
$FILLMODE
 70
     1
  9
$QTEXTMODE
 70
     0
  9
$MIRRTEXT
 70
     1
  9
$LTSCALE
 40
3.0
  9
$ATTMODE
 70
     1
  9
$TEXTSIZE
 40
2.5
  9
$TRACEWID
 40
1.0
  9
$TEXTSTYLE
  7
Standard
  9
$CLAYER
  8
0
  9
$CELTYPE
  6
ByLayer
  9
$CECOLOR
 62
   256
  9
$CELTSCALE
 40
1.0
  9
$DISPSILH
 70
     0
  9
$DIMSCALE
 40
1.0
  9
$DIMASZ
 40
2.5
  9
$DIMEXO
 40
0.625
  9
$DIMDLI
 40
3.75
  9
$DIMRND
 40
0.0
  9
$DIMDLE
 40
0.0
  9
$DIMEXE
 40
1.25
  9
$DIMTP
 40
0.0
  9
$DIMTM
 40
0.0
  9
$DIMTXT
 40
2.5
  9
$DIMCEN
 40
2.5
  9
$DIMTSZ
 40
0.0
  9
$DIMTOL
 70
     0
  9
$DIMLIM
 70
     0
  9
$DIMTIH
 70
     0
  9
$DIMTOH
 70
     0
  9
$DIMSE1
 70
     0
  9
$DIMSE2
 70
     0
  9
$DIMTAD
 70
     1
  9
$DIMZIN
 70
     8
  9
$DIMBLK
  1

  9
$DIMASO
 70
     1
  9
$DIMSHO
 70
     1
  9
$DIMPOST
  1

  9
$DIMAPOST
  1

  9
$DIMALT
 70
     0
  9
$DIMALTD
 70
     3
  9
$DIMALTF
 40
0.03937007874016
  9
$DIMLFAC
 40
1.0
  9
$DIMTOFL
 70
     1
  9
$DIMTVP
 40
0.0
  9
$DIMTIX
 70
     0
  9
$DIMSOXD
 70
     0
  9
$DIMSAH
 70
     0
  9
$DIMBLK1
  1

  9
$DIMBLK2
  1

  9
$DIMSTYLE
  2
ISO-25
  9
$DIMCLRD
 70
     0
  9
$DIMCLRE
 70
     0
  9
$DIMCLRT
 70
     0
  9
$DIMTFAC
 40
1.0
  9
$DIMGAP
 40
0.625
  9
$DIMJUST
 70
     0
  9
$DIMSD1
 70
     0
  9
$DIMSD2
 70
     0
  9
$DIMTOLJ
 70
     0
  9
$DIMTZIN
 70
     8
  9
$DIMALTZ
 70
     0
  9
$DIMALTTZ
 70
     0
  9
$DIMUPT
 70
     0
  9
$DIMDEC
 70
     2
  9
$DIMTDEC
 70
     2
  9
$DIMALTU
 70
     2
  9
$DIMALTTD
 70
     3
  9
$DIMTXSTY
  7
Standard
  9
$DIMAUNIT
 70
     0
  9
$DIMADEC
 70
     0
  9
$DIMALTRND
 40
0.0
  9
$DIMAZIN
 70
     0
  9
$DIMDSEP
 70
    44
  9
$DIMATFIT
 70
     3
  9
$DIMFRAC
 70
     0
  9
$DIMLDRBLK
  1

  9
$DIMLUNIT
 70
     2
  9
$DIMLWD
 70
    -2
  9
$DIMLWE
 70
    -2
  9
$DIMTMOVE
 70
     0
  9
$LUNITS
 70
     2
  9
$LUPREC
 70
     4
  9
$SKETCHINC
 40
1.0
  9
$FILLETRAD
 40
10.0
  9
$AUNITS
 70
     0
  9
$AUPREC
 70
     0
  9
$MENU
  1
.
  9
$ELEVATION
 40
0.0
  9
$PELEVATION
 40
0.0
  9
$THICKNESS
 40
0.0
  9
$LIMCHECK
 70
     0
  9
$CHAMFERA
 40
10.0
  9
$CHAMFERB
 40
10.0
  9
$CHAMFERC
 40
20.0
  9
$CHAMFERD
 40
0.0
  9
$SKPOLY
 70
     0
  9
$TDCREATE
 40
2456498.823577465
  9
$TDUCREATE
 40
2456498.448577465
  9
$TDUPDATE
 40
2456498.823577477
  9
$TDUUPDATE
 40
2456498.448577477
  9
$TDINDWG
 40
0.0000000116
  9
$TDUSRTIMER
 40
0.0000000116
  9
$USRTIMER
 70
     1
  9
$ANGBASE
 50
0.0
  9
$ANGDIR
 70
     0
  9
$PDMODE
 70
     0
  9
$PDSIZE
 40
0.0
  9
$PLINEWID
 40
0.0
  9
$SPLFRAME
 70
     0
  9
$SPLINETYPE
 70
     6
  9
$SPLINESEGS
 70
     8
  9
$HANDSEED
  5
203
  9
$SURFTAB1
 70
     6
  9
$SURFTAB2
 70
     6
  9
$SURFTYPE
 70
     6
  9
$SURFU
 70
     6
  9
$SURFV
 70
     6
  9
$UCSBASE
  2

  9
$UCSNAME
  2

  9
$UCSORG
 10
0.0
 20
0.0
 30
0.0
  9
$UCSXDIR
 10
1.0
 20
0.0
 30
0.0
  9
$UCSYDIR
 10
0.0
 20
1.0
 30
0.0
  9
$UCSORTHOREF
  2

  9
$UCSORTHOVIEW
 70
     0
  9
$UCSORGTOP
 10
0.0
 20
0.0
 30
0.0
  9
$UCSORGBOTTOM
 10
0.0
 20
0.0
 30
0.0
  9
$UCSORGLEFT
 10
0.0
 20
0.0
 30
0.0
  9
$UCSORGRIGHT
 10
0.0
 20
0.0
 30
0.0
  9
$UCSORGFRONT
 10
0.0
 20
0.0
 30
0.0
  9
$UCSORGBACK
 10
0.0
 20
0.0
 30
0.0
  9
$PUCSBASE
  2

  9
$PUCSNAME
  2

  9
$PUCSORG
 10
0.0
 20
0.0
 30
0.0
  9
$PUCSXDIR
 10
1.0
 20
0.0
 30
0.0
  9
$PUCSYDIR
 10
0.0
 20
1.0
 30
0.0
  9
$PUCSORTHOREF
  2

  9
$PUCSORTHOVIEW
 70
     0
  9
$PUCSORGTOP
 10
0.0
 20
0.0
 30
0.0
  9
$PUCSORGBOTTOM
 10
0.0
 20
0.0
 30
0.0
  9
$PUCSORGLEFT
 10
0.0
 20
0.0
 30
0.0
  9
$PUCSORGRIGHT
 10
0.0
 20
0.0
 30
0.0
  9
$PUCSORGFRONT
 10
0.0
 20
0.0
 30
0.0
  9
$PUCSORGBACK
 10
0.0
 20
0.0
 30
0.0
  9
$USERI1
 70
     0
  9
$USERI2
 70
     0
  9
$USERI3
 70
     0
  9
$USERI4
 70
     0
  9
$USERI5
 70
     0
  9
$USERR1
 40
0.0
  9
$USERR2
 40
0.0
  9
$USERR3
 40
0.0
  9
$USERR4
 40
0.0
  9
$USERR5
 40
0.0
  9
$WORLDVIEW
 70
     1
  9
$SHADEDGE
 70
     3
  9
$SHADEDIF
 70
    70
  9
$TILEMODE
 70
     1
  9
$MAXACTVP
 70
    64
  9
$PINSBASE
 10
0.0
 20
0.0
 30
0.0
  9
$PLIMCHECK
 70
     0
  9
$PEXTMIN
 10
1.000000000000000E+20
 20
1.000000000000000E+20
 30
1.000000000000000E+20
  9
$PEXTMAX
 10
-1.000000000000000E+20
 20
-1.000000000000000E+20
 30
-1.000000000000000E+20
  9
$PLIMMIN
 10
0.0
 20
0.0
  9
$PLIMMAX
 10
420.0
 20
297.0
  9
$UNITMODE
 70
     0
  9
$VISRETAIN
 70
     1
  9
$PLINEGEN
 70
     0
  9
$PSLTSCALE
 70
     1
  9
$TREEDEPTH
 70
  3020
  9
$CMLSTYLE
  2
Standard
  9
$CMLJUST
 70
     0
  9
$CMLSCALE
 40
20.0
  9
$PROXYGRAPHICS
 70
     1
  9
$MEASUREMENT
 70
     1
  9
$CELWEIGHT
370
    -1
  9
$ENDCAPS
280
     0
  9
$JOINSTYLE
280
     0
  9
$LWDISPLAY
290
     0
  9
$INSUNITS
 70
     4
  9
$HYPERLINKBASE
  1

  9
$STYLESHEET
  1

  9
$XEDIT
290
     1
  9
$CEPSNTYPE
380
     0
  9
$PSTYLEMODE
290
     1
  9
$FINGERPRINTGUID
  2
{1FC706AF-1E3B-4C56-81F7-B2B924D4949E}
  9
$VERSIONGUID
  2
{FAEB1C32-E019-11D5-929B-00C0DF256EC4}
  9
$EXTNAMES
290
     1
  9
$PSVPSCALE
 40
0.0
  9
$OLESTARTUP
290
     0
  9
$SORTENTS
280
   127
  9
$INDEXCTL
280
     0
  9
$HIDETEXT
280
     1
  9
$XCLIPFRAME
290
     0
  9
$HALOGAP
280
     0
  9
$OBSCOLOR
 70
   257
  9
$OBSLTYPE
280
     0
  9
$INTERSECTIONDISPLAY
280
     0
  9
$INTERSECTIONCOLOR
 70
   257
  9
$DIMASSOC
280
     2
  9
$PROJECTNAME
  1

  0
ENDSEC
  0
SECTION
  2
CLASSES
  0
CLASS
  1
ACDBDICTIONARYWDFLT
  2
AcDbDictionaryWithDefault
  3
ObjectDBX Classes
 90
        0
 91
        4
280
     0
281
     0
  0
CLASS
  1
VISUALSTYLE
  2
AcDbVisualStyle
  3
ObjectDBX Classes
 90
     4095
 91
        4
280
     0
281
     0
  0
ENDSEC
  0
SECTION
  2
TABLES
  0
TABLE
  2
VPORT
  5
8
330
0
100
AcDbSymbolTable
 70
     1
  0
VPORT
  5
29
330
8
100
AcDbSymbolTableRecord
100
AcDbViewportTableRecord
  2
*Active
 70
     0
 10
0.0
 20
0.0
 11
1.0
 21
1.0
 12
0.0
 22
0.0
 13
0.0
 23
0.0
 14
10.0
 24
10.0
 15
10.0
 25
10.0
 16
0.0
 26
0.0
 36
1.0
 17
0.0
 27
0.0
 37
0.0
 40
980.1
 41
1.414141414141414
 42
50.0
 43
0.0
 44
0.0
 50
0.0
 51
0.0
 71
     0
 72
 10000
 73
     1
 74
     3
 75
     0
 76
     0
 77
     0
 78
     0
281
     0
 65
     1
110
0.0
120
0.0
130
0.0
111
1.0
121
0.0
131
0.0
112
0.0
122
1.0
132
0.0
 79
     0
146
0.0
  0
ENDTAB
  0
TABLE
  2
LTYPE
  5
5
330
0
100
AcDbSymbolTable
 70
     2
  0
LTYPE
  5
14
330
5
100
AcDbSymbolTableRecord
100
AcDbLinetypeTableRecord
  2
ByBlock
 70
     0
  3

 72
    65
 73
     0
 40
0.0
  0
LTYPE
  5
15
330
5
100
AcDbSymbolTableRecord
100
AcDbLinetypeTableRecord
  2
ByLayer
 70
     0
  3

 72
    65
 73
     0
 40
0.0
  0
LTYPE
  5
16
330
5
100
AcDbSymbolTableRecord
100
AcDbLinetypeTableRecord
  2
Continuous
 70
     0
  3
Solid line
 72
    65
 73
     0
 40
0.0
  0
LTYPE
  5
3C
330
5
100
AcDbSymbolTableRecord
100
AcDbLinetypeTableRecord
  2
JWW_CENTER1
 70
     0
  3
-----  --  ----------  --  -----
 72
    65
 73
     4
 40
6.773333333333333
 49
4.233333333333333
 74
     0
 49
-0.8466666666666667
 74
     0
 49
0.8466666666666667
 74
     0
 49
-0.8466666666666667
 74
     0
  0
ENDTAB
  0
TABLE
  2
LAYER
  5
2
330
0
100
AcDbSymbolTable
 70
     5
  0
LAYER
  5
10
330
2
100
AcDbSymbolTableRecord
100
AcDbLayerTableRecord
  2
0
 70
     0
 62
     7
  6
Continuous
370
    -3
390
F
  0
LAYER
  5
3D
330
2
100
AcDbSymbolTableRecord
100
AcDbLayerTableRecord
  2
F-Fﾚｲﾔ
 70
     0
 62
     7
  6
Continuous
370
    -3
390
F
  0
LAYER
  5
3E
330
2
100
AcDbSymbolTableRecord
100
AcDbLayerTableRecord
  2
通り芯
 70
     0
 62
     7
  6
Continuous
370
    -3
390
F
  0
LAYER
  5
3F
330
2
100
AcDbSymbolTableRecord
100
AcDbLayerTableRecord
  2
0-F
 70
     0
 62
     7
  6
Continuous
370
    -3
390
F
  0
LAYER
  5
40
330
2
100
AcDbSymbolTableRecord
100
AcDbLayerTableRecord
  2
F-5ﾚｲﾔ
 70
     0
 62
     7
  6
Continuous
370
    -3
390
F
  0
ENDTAB
  0
TABLE
  2
STYLE
  5
3
330
0
100
AcDbSymbolTable
 70
     2
  0
STYLE
  5
11
330
3
100
AcDbSymbolTableRecord
100
AcDbTextStyleTableRecord
  2
Standard
 70
     0
 40
0.0
 41
1.0
 50
0.0
 71
     0
 42
2.5
  3
txt
  4

1001
ACAD
1000

1071
        0
  0
STYLE
  5
3B
330
3
100
AcDbSymbolTableRecord
100
AcDbTextStyleTableRecord
  2
ＭＳ ゴシック
 70
     0
 40
1.0
 41
1.0
 50
0.0
 71
     0
 42
10.0
  3

  4

1001
ACAD
1000
MS Gothic
1071
    32817
  0
ENDTAB
  0
TABLE
  2
VIEW
  5
6
330
0
100
AcDbSymbolTable
 70
     0
  0
ENDTAB
  0
TABLE
  2
UCS
  5
7
330
0
100
AcDbSymbolTable
 70
     0
  0
ENDTAB
  0
TABLE
  2
APPID
  5
9
330
0
100
AcDbSymbolTable
 70
     1
  0
APPID
  5
12
330
9
100
AcDbSymbolTableRecord
100
AcDbRegAppTableRecord
  2
ACAD
 70
     0
  0
ENDTAB
  0
TABLE
  2
DIMSTYLE
  5
A
330
0
100
AcDbSymbolTable
 70
     1
100
AcDbDimStyleTable
  0
DIMSTYLE
105
27
330
A
100
AcDbSymbolTableRecord
100
AcDbDimStyleTableRecord
  2
ISO-25
 70
     0
 41
2.5
 42
0.625
 43
3.75
 44
1.25
 73
     0
 74
     0
 77
     1
 78
     8
140
2.5
141
2.5
143
0.03937007874016
147
0.625
171
     3
172
     1
271
     2
272
     2
274
     3
278
    44
283
     0
284
     8
340
11
  0
ENDTAB
  0
TABLE
  2
BLOCK_RECORD
  5
1
330
0
100
AcDbSymbolTable
 70
     1
  0
BLOCK_RECORD
  5
1F
330
1
100
AcDbSymbolTableRecord
100
AcDbBlockTableRecord
  2
*Model_Space
340
22
  0
BLOCK_RECORD
  5
1B
330
1
100
AcDbSymbolTableRecord
100
AcDbBlockTableRecord
  2
*Paper_Space
340
1E
  0
BLOCK_RECORD
  5
23
330
1
100
AcDbSymbolTableRecord
100
AcDbBlockTableRecord
  2
*Paper_Space0
340
26
  0
ENDTAB
  0
ENDSEC
  0
SECTION
  2
BLOCKS
  0
BLOCK
  5
20
330
1F
100
AcDbEntity
  8
0
100
AcDbBlockBegin
  2
*Model_Space
 70
     0
 10
0.0
 20
0.0
 30
0.0
  3
*Model_Space
  1

  0
ENDBLK
  5
21
330
1F
100
AcDbEntity
  8
0
100
AcDbBlockEnd
  0
BLOCK
  5
1C
330
1B
100
AcDbEntity
 67
     1
  8
0
100
AcDbBlockBegin
  2
*Paper_Space
 70
     0
 10
0.0
 20
0.0
 30
0.0
  3
*Paper_Space
  1

  0
ENDBLK
  5
1D
330
1B
100
AcDbEntity
 67
     1
  8
0
100
AcDbBlockEnd
  0
BLOCK
  5
24
330
23
100
AcDbEntity
  8
0
100
AcDbBlockBegin
  2
*Paper_Space0
 70
     0
 10
0.0
 20
0.0
 30
0.0
  3
*Paper_Space0
  1

  0
ENDBLK
  5
25
330
23
100
AcDbEntity
  8
0
100
AcDbBlockEnd
  0
ENDSEC
  0
SECTION
  2
ENTITIES
  0
TEXT
  5
41
330
1F
100
AcDbEntity
  8
F-Fﾚｲﾔ
  6
Continuous
 62
     2
370
     0
100
AcDbText
 10
359.1732806215186
 20
-238.9978216020511
 30
0.0
 40
9.144
  1
仕様
 50
359.9999583021999
 41
1.062499999999997
  7
ＭＳ ゴシック
100
AcDbText
  0
TEXT
  5
42
330
1F
100
AcDbEntity
  8
F-Fﾚｲﾔ
  6
Continuous
 62
     2
370
     0
100
AcDbText
 10
358.4705242081857
 20
-259.6505206029193
 30
0.0
 40
9.144
  1
材　　質：ＦＣ２００
 50
0.0000079647517186
 41
1.1125
  7
ＭＳ ゴシック
100
AcDbText
  0
TEXT
  5
43
330
1F
100
AcDbEntity
  8
F-Fﾚｲﾔ
  6
Continuous
 62
     2
370
     0
100
AcDbText
 10
358.4705242081857
 20
-276.3059080568577
 30
0.0
 40
9.144
  1
表面処理：樹脂系塗装
 50
0.0000079647517186
 41
1.1125
  7
ＭＳ ゴシック
100
AcDbText
  0
TEXT
  5
44
330
1F
100
AcDbEntity
  8
F-Fﾚｲﾔ
  6
Continuous
 62
     2
370
     0
100
AcDbText
 10
358.4705242081856
 20
-293.6234412133778
 30
0.0
 40
9.144
  1
適用荷重：歩行用
 50
0.000007964751722
 41
1.109375
  7
ＭＳ ゴシック
100
AcDbText
  0
LINE
  5
45
330
1F
100
AcDbEntity
  8
通り芯
  6
Continuous
 62
     3
370
     9
100
AcDbLine
 10
-371.8498776410077
 20
353.2297346785263
 30
0.0
 11
128.150089367016
 21
353.2297346785263
 31
0.0
  0
LINE
  5
46
330
1F
100
AcDbEntity
  8
通り芯
  6
Continuous
 62
     3
370
     9
100
AcDbLine
 10
-371.8498776410077
 20
-46.77026119747663
 30
0.0
 11
128.150089367016
 21
-46.77026119747663
 31
0.0
  0
LINE
  5
47
330
1F
100
AcDbEntity
  8
通り芯
  6
Continuous
 62
     3
370
     9
100
AcDbLine
 10
128.150089367016
 20
-46.77026119747663
 30
0.0
 11
128.150089367016
 21
353.2297346785263
 31
0.0
  0
LINE
  5
48
330
1F
100
AcDbEntity
  8
通り芯
  6
Continuous
 62
     3
370
     9
100
AcDbLine
 10
-95.5998817650046
 20
226.2297115841429
 30
0.0
 11
-95.5998817650046
 21
332.2297396273227
 31
0.0
  0
LINE
  5
49
330
1F
100
AcDbEntity
  8
通り芯
  6
Continuous
 62
     3
370
     9
100
AcDbLine
 10
-75.09987599140874
 20
226.2297115841429
 30
0.0
 11
-75.09987599140874
 21
332.2297396273227
 31
0.0
  0
LINE
  5
4A
330
1F
100
AcDbEntity
  8
通り芯
  6
Continuous
 62
     3
370
     9
100
AcDbLine
 10
-93.59988753860054
 20
224.2297544737121
 30
0.0
 11
-77.09990733378632
 21
224.2297544737121
 31
0.0
  0
LINE
  5
4B
330
1F
100
AcDbEntity
  8
通り芯
  6
Continuous
 62
     3
370
     9
100
AcDbLine
 10
-93.59988753860054
 20
334.2296967377536
 30
0.0
 11
-77.09990733378632
 21
334.2296967377536
 31
0.0
  0
LINE
  5
4C
330
1F
100
AcDbEntity
  8
通り芯
  6
Continuous
 62
     3
370
     9
100
AcDbLine
 10
-57.09989083779811
 20
334.2296967377536
 30
0.0
 11
-40.59983640103718
 21
334.2296967377536
 31
0.0
  0
LINE
  5
4D
330
1F
100
AcDbEntity
  8
通り芯
  6
Continuous
 62
     3
370
     9
100
AcDbLine
 10
-57.09989083779811
 20
224.2297544737121
 30
0.0
 11
-40.59983640103718
 21
224.2297544737121
 31
0.0
  0
LINE
  5
4E
330
1F
100
AcDbEntity
  8
通り芯
  6
Continuous
 62
     3
370
     9
100
AcDbLine
 10
-38.59987929060648
 20
226.2297115841429
 30
0.0
 11
-38.59987929060648
 21
332.2297396273227
 31
0.0
  0
LINE
  5
4F
330
1F
100
AcDbEntity
  8
通り芯
  6
Continuous
 62
     3
370
     9
100
AcDbLine
 10
-59.0999221801757
 20
226.2297115841429
 30
0.0
 11
-59.0999221801757
 21
332.2297396273227
 31
0.0
  0
LINE
  5
50
330
1F
100
AcDbEntity
  8
通り芯
  6
Continuous
 62
     3
370
     9
100
AcDbLine
 10
-22.59992547937335
 20
226.2297115841429
 30
0.0
 11
-22.59992547937335
 21
332.2297396273227
 31
0.0
  0
LINE
  5
51
330
1F
100
AcDbEntity
  8
通り芯
  6
Continuous
 62
     3
370
     9
100
AcDbLine
 10
-2.099882589804054
 20
226.2297115841429
 30
0.0
 11
-2.099882589804054
 21
332.2297396273227
 31
0.0
  0
LINE
  5
52
330
1F
100
AcDbEntity
  8
通り芯
  6
Continuous
 62
     3
370
     9
100
AcDbLine
 10
-20.59989413699586
 20
224.2297544737121
 30
0.0
 11
-4.099839700234753
 21
224.2297544737121
 31
0.0
  0
LINE
  5
53
330
1F
100
AcDbEntity
  8
通り芯
  6
Continuous
 62
     3
370
     9
100
AcDbLine
 10
-20.59989413699586
 20
334.2296967377536
 30
0.0
 11
-4.099839700234753
 21
334.2296967377536
 31
0.0
  0
LINE
  5
54
330
1F
100
AcDbEntity
  8
通り芯
  6
Continuous
 62
     3
370
     9
100
AcDbLine
 10
15.90010256380657
 20
334.2296967377536
 30
0.0
 11
32.40008276862071
 21
334.2296967377536
 31
0.0
  0
LINE
  5
55
330
1F
100
AcDbEntity
  8
通り芯
  6
Continuous
 62
     3
370
     9
100
AcDbLine
 10
15.90010256380657
 20
224.2297544737121
 30
0.0
 11
32.40008276862071
 21
224.2297544737121
 31
0.0
  0
LINE
  5
56
330
1F
100
AcDbEntity
  8
通り芯
  6
Continuous
 62
     3
370
     9
100
AcDbLine
 10
34.40011411099837
 20
226.2297115841429
 30
0.0
 11
34.40011411099837
 21
332.2297396273227
 31
0.0
  0
LINE
  5
57
330
1F
100
AcDbEntity
  8
通り芯
  6
Continuous
 62
     3
370
     9
100
AcDbLine
 10
13.90007122142907
 20
226.2297115841429
 30
0.0
 11
13.90007122142907
 21
332.2297396273227
 31
0.0
  0
LINE
  5
58
330
1F
100
AcDbEntity
  8
通り芯
  6
Continuous
 62
     3
370
     9
100
AcDbLine
 10
50.40006792223133
 20
226.2297115841429
 30
0.0
 11
50.40006792223133
 21
332.2297396273227
 31
0.0
  0
LINE
  5
59
330
1F
100
AcDbEntity
  8
通り芯
  6
Continuous
 62
     3
370
     9
100
AcDbLine
 10
70.90011081180063
 20
226.2297115841429
 30
0.0
 11
70.90011081180063
 21
332.2297396273227
 31
0.0
  0
LINE
  5
5A
330
1F
100
AcDbEntity
  8
通り芯
  6
Continuous
 62
     3
370
     9
100
AcDbLine
 10
52.400099264609
 20
224.2297544737121
 30
0.0
 11
68.90007946942313
 21
224.2297544737121
 31
0.0
  0
LINE
  5
5B
330
1F
100
AcDbEntity
  8
通り芯
  6
Continuous
 62
     3
370
     9
100
AcDbLine
 10
52.400099264609
 20
334.2296967377536
 30
0.0
 11
68.90007946942313
 21
334.2296967377536
 31
0.0
  0
LINE
  5
5C
330
1F
100
AcDbEntity
  8
通り芯
  6
Continuous
 62
     3
370
     9
100
AcDbLine
 10
88.90009596541125
 20
334.2296967377536
 30
0.0
 11
105.4000761702256
 21
334.2296967377536
 31
0.0
  0
LINE
  5
5D
330
1F
100
AcDbEntity
  8
通り芯
  6
Continuous
 62
     3
370
     9
100
AcDbLine
 10
88.90009596541125
 20
224.2297544737121
 30
0.0
 11
105.4000761702256
 21
224.2297544737121
 31
0.0
  0
LINE
  5
5E
330
1F
100
AcDbEntity
  8
通り芯
  6
Continuous
 62
     3
370
     9
100
AcDbLine
 10
107.4001075126031
 20
226.2297115841429
 30
0.0
 11
107.4001075126031
 21
332.2297396273227
 31
0.0
  0
LINE
  5
5F
330
1F
100
AcDbEntity
  8
通り芯
  6
Continuous
 62
     3
370
     9
100
AcDbLine
 10
86.90006462303376
 20
226.2297115841429
 30
0.0
 11
86.90006462303376
 21
332.2297396273227
 31
0.0
  0
LINE
  5
60
330
1F
100
AcDbEntity
  8
通り芯
  6
Continuous
 62
     3
370
     9
100
AcDbLine
 10
86.90006462303376
 20
100.2297412769216
 30
0.0
 11
86.90006462303376
 21
206.2296950881547
 31
0.0
  0
LINE
  5
61
330
1F
100
AcDbEntity
  8
通り芯
  6
Continuous
 62
     3
370
     9
100
AcDbLine
 10
107.4001075126031
 20
100.2297412769216
 30
0.0
 11
107.4001075126031
 21
206.2296950881547
 31
0.0
  0
LINE
  5
62
330
1F
100
AcDbEntity
  8
通り芯
  6
Continuous
 62
     3
370
     9
100
AcDbLine
 10
88.90009596541125
 20
98.22974705051743
 30
0.0
 11
105.4000761702256
 21
98.22974705051743
 31
0.0
  0
LINE
  5
63
330
1F
100
AcDbEntity
  8
通り芯
  6
Continuous
 62
     3
370
     9
100
AcDbLine
 10
88.90009596541125
 20
208.2297264305322
 30
0.0
 11
105.4000761702256
 21
208.2297264305322
 31
0.0
  0
LINE
  5
64
330
1F
100
AcDbEntity
  8
通り芯
  6
Continuous
 62
     3
370
     9
100
AcDbLine
 10
52.400099264609
 20
208.2297264305322
 30
0.0
 11
68.90007946942313
 21
208.2297264305322
 31
0.0
  0
LINE
  5
65
330
1F
100
AcDbEntity
  8
通り芯
  6
Continuous
 62
     3
370
     9
100
AcDbLine
 10
52.400099264609
 20
98.22974705051743
 30
0.0
 11
68.90007946942313
 21
98.22974705051743
 31
0.0
  0
LINE
  5
66
330
1F
100
AcDbEntity
  8
通り芯
  6
Continuous
 62
     3
370
     9
100
AcDbLine
 10
70.90011081180063
 20
100.2297412769216
 30
0.0
 11
70.90011081180063
 21
206.2296950881547
 31
0.0
  0
LINE
  5
67
330
1F
100
AcDbEntity
  8
通り芯
  6
Continuous
 62
     3
370
     9
100
AcDbLine
 10
50.40006792223133
 20
100.2297412769216
 30
0.0
 11
50.40006792223133
 21
206.2296950881547
 31
0.0
  0
LINE
  5
68
330
1F
100
AcDbEntity
  8
通り芯
  6
Continuous
 62
     3
370
     9
100
AcDbLine
 10
13.90007122142907
 20
100.2297412769216
 30
0.0
 11
13.90007122142907
 21
206.2296950881547
 31
0.0
  0
LINE
  5
69
330
1F
100
AcDbEntity
  8
通り芯
  6
Continuous
 62
     3
370
     9
100
AcDbLine
 10
34.40011411099837
 20
100.2297412769216
 30
0.0
 11
34.40011411099837
 21
206.2296950881547
 31
0.0
  0
LINE
  5
6A
330
1F
100
AcDbEntity
  8
通り芯
  6
Continuous
 62
     3
370
     9
100
AcDbLine
 10
15.90010256380657
 20
98.22974705051743
 30
0.0
 11
32.40008276862071
 21
98.22974705051743
 31
0.0
  0
LINE
  5
6B
330
1F
100
AcDbEntity
  8
通り芯
  6
Continuous
 62
     3
370
     9
100
AcDbLine
 10
15.90010256380657
 20
208.2297264305322
 30
0.0
 11
32.40008276862071
 21
208.2297264305322
 31
0.0
  0
LINE
  5
6C
330
1F
100
AcDbEntity
  8
通り芯
  6
Continuous
 62
     3
370
     9
100
AcDbLine
 10
-20.59989413699586
 20
208.2297264305322
 30
0.0
 11
-4.099839700234753
 21
208.2297264305322
 31
0.0
  0
LINE
  5
6D
330
1F
100
AcDbEntity
  8
通り芯
  6
Continuous
 62
     3
370
     9
100
AcDbLine
 10
-20.59989413699586
 20
98.22974705051743
 30
0.0
 11
-4.099839700234753
 21
98.22974705051743
 31
0.0
  0
LINE
  5
6E
330
1F
100
AcDbEntity
  8
通り芯
  6
Continuous
 62
     3
370
     9
100
AcDbLine
 10
-2.099882589804054
 20
100.2297412769216
 30
0.0
 11
-2.099882589804054
 21
206.2296950881547
 31
0.0
  0
LINE
  5
6F
330
1F
100
AcDbEntity
  8
通り芯
  6
Continuous
 62
     3
370
     9
100
AcDbLine
 10
-22.59992547937335
 20
100.2297412769216
 30
0.0
 11
-22.59992547937335
 21
206.2296950881547
 31
0.0
  0
LINE
  5
70
330
1F
100
AcDbEntity
  8
通り芯
  6
Continuous
 62
     3
370
     9
100
AcDbLine
 10
-59.0999221801757
 20
100.2297412769216
 30
0.0
 11
-59.0999221801757
 21
206.2296950881547
 31
0.0
  0
LINE
  5
71
330
1F
100
AcDbEntity
  8
通り芯
  6
Continuous
 62
     3
370
     9
100
AcDbLine
 10
-38.59987929060648
 20
100.2297412769216
 30
0.0
 11
-38.59987929060648
 21
206.2296950881547
 31
0.0
  0
LINE
  5
72
330
1F
100
AcDbEntity
  8
通り芯
  6
Continuous
 62
     3
370
     9
100
AcDbLine
 10
-57.09989083779811
 20
98.22974705051743
 30
0.0
 11
-40.59983640103718
 21
98.22974705051743
 31
0.0
  0
LINE
  5
73
330
1F
100
AcDbEntity
  8
通り芯
  6
Continuous
 62
     3
370
     9
100
AcDbLine
 10
-57.09989083779811
 20
208.2297264305322
 30
0.0
 11
-40.59983640103718
 21
208.2297264305322
 31
0.0
  0
LINE
  5
74
330
1F
100
AcDbEntity
  8
通り芯
  6
Continuous
 62
     3
370
     9
100
AcDbLine
 10
-93.59988753860054
 20
208.2297264305322
 30
0.0
 11
-77.09990733378632
 21
208.2297264305322
 31
0.0
  0
LINE
  5
75
330
1F
100
AcDbEntity
  8
通り芯
  6
Continuous
 62
     3
370
     9
100
AcDbLine
 10
-93.59988753860054
 20
98.22974705051743
 30
0.0
 11
-77.09990733378632
 21
98.22974705051743
 31
0.0
  0
LINE
  5
76
330
1F
100
AcDbEntity
  8
通り芯
  6
Continuous
 62
     3
370
     9
100
AcDbLine
 10
-75.09987599140874
 20
100.2297412769216
 30
0.0
 11
-75.09987599140874
 21
206.2296950881547
 31
0.0
  0
LINE
  5
77
330
1F
100
AcDbEntity
  8
通り芯
  6
Continuous
 62
     3
370
     9
100
AcDbLine
 10
-95.5998817650046
 20
100.2297412769216
 30
0.0
 11
-95.5998817650046
 21
206.2296950881547
 31
0.0
  0
LINE
  5
78
330
1F
100
AcDbEntity
  8
通り芯
  6
Continuous
 62
     3
370
     9
100
AcDbLine
 10
-95.5998817650046
 20
-25.77026614627312
 30
0.0
 11
-95.5998817650046
 21
80.22972478093345
 31
0.0
  0
LINE
  5
79
330
1F
100
AcDbEntity
  8
通り芯
  6
Continuous
 62
     3
370
     9
100
AcDbLine
 10
-75.09987599140874
 20
-25.77026614627312
 30
0.0
 11
-75.09987599140874
 21
80.22972478093345
 31
0.0
  0
LINE
  5
7A
330
1F
100
AcDbEntity
  8
通り芯
  6
Continuous
 62
     3
370
     9
100
AcDbLine
 10
-93.59988753860054
 20
-27.77026037267726
 30
0.0
 11
-77.09990733378632
 21
-27.77026037267726
 31
0.0
  0
LINE
  5
7B
330
1F
100
AcDbEntity
  8
通り芯
  6
Continuous
 62
     3
370
     9
100
AcDbLine
 10
-93.59988753860054
 20
82.22975612331095
 30
0.0
 11
-77.09990733378632
 21
82.22975612331095
 31
0.0
  0
LINE
  5
7C
330
1F
100
AcDbEntity
  8
通り芯
  6
Continuous
 62
     3
370
     9
100
AcDbLine
 10
-57.09989083779811
 20
82.22975612331095
 30
0.0
 11
-40.59983640103718
 21
82.22975612331095
 31
0.0
  0
LINE
  5
7D
330
1F
100
AcDbEntity
  8
通り芯
  6
Continuous
 62
     3
370
     9
100
AcDbLine
 10
-57.09989083779811
 20
-27.77026037267726
 30
0.0
 11
-40.59983640103718
 21
-27.77026037267726
 31
0.0
  0
LINE
  5
7E
330
1F
100
AcDbEntity
  8
通り芯
  6
Continuous
 62
     3
370
     9
100
AcDbLine
 10
-38.59987929060648
 20
-25.77026614627312
 30
0.0
 11
-38.59987929060648
 21
80.22972478093345
 31
0.0
  0
LINE
  5
7F
330
1F
100
AcDbEntity
  8
通り芯
  6
Continuous
 62
     3
370
     9
100
AcDbLine
 10
-59.0999221801757
 20
-25.77026614627312
 30
0.0
 11
-59.0999221801757
 21
80.22972478093345
 31
0.0
  0
LINE
  5
80
330
1F
100
AcDbEntity
  8
通り芯
  6
Continuous
 62
     3
370
     9
100
AcDbLine
 10
-22.59992547937335
 20
-25.77026614627312
 30
0.0
 11
-22.59992547937335
 21
80.22972478093345
 31
0.0
  0
LINE
  5
81
330
1F
100
AcDbEntity
  8
通り芯
  6
Continuous
 62
     3
370
     9
100
AcDbLine
 10
-2.099882589804054
 20
-25.77026614627312
 30
0.0
 11
-2.099882589804054
 21
80.22972478093345
 31
0.0
  0
LINE
  5
82
330
1F
100
AcDbEntity
  8
通り芯
  6
Continuous
 62
     3
370
     9
100
AcDbLine
 10
-20.59989413699586
 20
-27.77026037267726
 30
0.0
 11
-4.099839700234753
 21
-27.77026037267726
 31
0.0
  0
LINE
  5
83
330
1F
100
AcDbEntity
  8
通り芯
  6
Continuous
 62
     3
370
     9
100
AcDbLine
 10
-20.59989413699586
 20
82.22975612331095
 30
0.0
 11
-4.099839700234753
 21
82.22975612331095
 31
0.0
  0
LINE
  5
84
330
1F
100
AcDbEntity
  8
通り芯
  6
Continuous
 62
     3
370
     9
100
AcDbLine
 10
15.90010256380657
 20
82.22975612331095
 30
0.0
 11
32.40008276862071
 21
82.22975612331095
 31
0.0
  0
LINE
  5
85
330
1F
100
AcDbEntity
  8
通り芯
  6
Continuous
 62
     3
370
     9
100
AcDbLine
 10
15.90010256380657
 20
-27.77026037267726
 30
0.0
 11
32.40008276862071
 21
-27.77026037267726
 31
0.0
  0
LINE
  5
86
330
1F
100
AcDbEntity
  8
通り芯
  6
Continuous
 62
     3
370
     9
100
AcDbLine
 10
34.40011411099837
 20
-25.77026614627312
 30
0.0
 11
34.40011411099837
 21
80.22972478093345
 31
0.0
  0
LINE
  5
87
330
1F
100
AcDbEntity
  8
通り芯
  6
Continuous
 62
     3
370
     9
100
AcDbLine
 10
13.90007122142907
 20
-25.77026614627312
 30
0.0
 11
13.90007122142907
 21
80.22972478093345
 31
0.0
  0
LINE
  5
88
330
1F
100
AcDbEntity
  8
通り芯
  6
Continuous
 62
     3
370
     9
100
AcDbLine
 10
50.40006792223133
 20
-25.77026614627312
 30
0.0
 11
50.40006792223133
 21
80.22972478093345
 31
0.0
  0
LINE
  5
89
330
1F
100
AcDbEntity
  8
通り芯
  6
Continuous
 62
     3
370
     9
100
AcDbLine
 10
70.90011081180063
 20
-25.77026614627312
 30
0.0
 11
70.90011081180063
 21
80.22972478093345
 31
0.0
  0
LINE
  5
8A
330
1F
100
AcDbEntity
  8
通り芯
  6
Continuous
 62
     3
370
     9
100
AcDbLine
 10
52.400099264609
 20
-27.77026037267726
 30
0.0
 11
68.90007946942313
 21
-27.77026037267726
 31
0.0
  0
LINE
  5
8B
330
1F
100
AcDbEntity
  8
通り芯
  6
Continuous
 62
     3
370
     9
100
AcDbLine
 10
52.400099264609
 20
82.22975612331095
 30
0.0
 11
68.90007946942313
 21
82.22975612331095
 31
0.0
  0
LINE
  5
8C
330
1F
100
AcDbEntity
  8
通り芯
  6
Continuous
 62
     3
370
     9
100
AcDbLine
 10
88.90009596541125
 20
82.22975612331095
 30
0.0
 11
105.4000761702256
 21
82.22975612331095
 31
0.0
  0
LINE
  5
8D
330
1F
100
AcDbEntity
  8
通り芯
  6
Continuous
 62
     3
370
     9
100
AcDbLine
 10
88.90009596541125
 20
-27.77026037267726
 30
0.0
 11
105.4000761702256
 21
-27.77026037267726
 31
0.0
  0
LINE
  5
8E
330
1F
100
AcDbEntity
  8
通り芯
  6
Continuous
 62
     3
370
     9
100
AcDbLine
 10
107.4001075126031
 20
-25.77026614627312
 30
0.0
 11
107.4001075126031
 21
80.22972478093345
 31
0.0
  0
LINE
  5
8F
330
1F
100
AcDbEntity
  8
通り芯
  6
Continuous
 62
     3
370
     9
100
AcDbLine
 10
86.90006462303376
 20
-25.77026614627312
 30
0.0
 11
86.90006462303376
 21
80.22972478093345
 31
0.0
  0
LINE
  5
90
330
1F
100
AcDbEntity
  8
通り芯
  6
Continuous
 62
     3
370
     9
100
AcDbLine
 10
-330.5998900129987
 20
-25.77026614627312
 30
0.0
 11
-330.5998900129987
 21
80.22972478093345
 31
0.0
  0
LINE
  5
91
330
1F
100
AcDbEntity
  8
通り芯
  6
Continuous
 62
     3
370
     9
100
AcDbLine
 10
-351.0998957865946
 20
-25.77026614627312
 30
0.0
 11
-351.0998957865946
 21
80.22972478093345
 31
0.0
  0
LINE
  5
92
330
1F
100
AcDbEntity
  8
通り芯
  6
Continuous
 62
     3
370
     9
100
AcDbLine
 10
-332.5998842394029
 20
-27.77026037267726
 30
0.0
 11
-349.0999015601905
 21
-27.77026037267726
 31
0.0
  0
LINE
  5
93
330
1F
100
AcDbEntity
  8
通り芯
  6
Continuous
 62
     3
370
     9
100
AcDbLine
 10
-332.5998842394029
 20
82.22975612331095
 30
0.0
 11
-349.0999015601905
 21
82.22975612331095
 31
0.0
  0
LINE
  5
94
330
1F
100
AcDbEntity
  8
通り芯
  6
Continuous
 62
     3
370
     9
100
AcDbLine
 10
-296.0998875386005
 20
82.22975612331095
 30
0.0
 11
-312.5999048593881
 21
82.22975612331095
 31
0.0
  0
LINE
  5
95
330
1F
100
AcDbEntity
  8
通り芯
  6
Continuous
 62
     3
370
     9
100
AcDbLine
 10
-296.0998875386005
 20
-27.77026037267726
 30
0.0
 11
-312.5999048593881
 21
-27.77026037267726
 31
0.0
  0
LINE
  5
96
330
1F
100
AcDbEntity
  8
通り芯
  6
Continuous
 62
     3
370
     9
100
AcDbLine
 10
-314.5998990857922
 20
-25.77026614627312
 30
0.0
 11
-314.5998990857922
 21
80.22972478093345
 31
0.0
  0
LINE
  5
97
330
1F
100
AcDbEntity
  8
通り芯
  6
Continuous
 62
     3
370
     9
100
AcDbLine
 10
-294.0998933121964
 20
-25.77026614627312
 30
0.0
 11
-294.0998933121964
 21
80.22972478093345
 31
0.0
  0
LINE
  5
98
330
1F
100
AcDbEntity
  8
通り芯
  6
Continuous
 62
     3
370
     9
100
AcDbLine
 10
-257.599896611394
 20
-25.77026614627312
 30
0.0
 11
-257.599896611394
 21
80.22972478093345
 31
0.0
  0
LINE
  5
99
330
1F
100
AcDbEntity
  8
通り芯
  6
Continuous
 62
     3
370
     9
100
AcDbLine
 10
-278.0999023849899
 20
-25.77026614627312
 30
0.0
 11
-278.0999023849899
 21
80.22972478093345
 31
0.0
  0
LINE
  5
9A
330
1F
100
AcDbEntity
  8
通り芯
  6
Continuous
 62
     3
370
     9
100
AcDbLine
 10
-259.5998908377981
 20
-27.77026037267726
 30
0.0
 11
-276.0998710426124
 21
-27.77026037267726
 31
0.0
  0
LINE
  5
9B
330
1F
100
AcDbEntity
  8
通り芯
  6
Continuous
 62
     3
370
     9
100
AcDbLine
 10
-259.5998908377981
 20
82.22975612331095
 30
0.0
 11
-276.0998710426124
 21
82.22975612331095
 31
0.0
  0
LINE
  5
9C
330
1F
100
AcDbEntity
  8
通り芯
  6
Continuous
 62
     3
370
     9
100
AcDbLine
 10
-223.0998941369958
 20
82.22975612331095
 30
0.0
 11
-239.59987434181
 21
82.22975612331095
 31
0.0
  0
LINE
  5
9D
330
1F
100
AcDbEntity
  8
通り芯
  6
Continuous
 62
     3
370
     9
100
AcDbLine
 10
-223.0998941369958
 20
-27.77026037267726
 30
0.0
 11
-239.59987434181
 21
-27.77026037267726
 31
0.0
  0
LINE
  5
9E
330
1F
100
AcDbEntity
  8
通り芯
  6
Continuous
 62
     3
370
     9
100
AcDbLine
 10
-241.5999056841875
 20
-25.77026614627312
 30
0.0
 11
-241.5999056841875
 21
80.22972478093345
 31
0.0
  0
LINE
  5
9F
330
1F
100
AcDbEntity
  8
通り芯
  6
Continuous
 62
     3
370
     9
100
AcDbLine
 10
-221.0998627946183
 20
-25.77026614627312
 30
0.0
 11
-221.0998627946183
 21
80.22972478093345
 31
0.0
  0
LINE
  5
A0
330
1F
100
AcDbEntity
  8
通り芯
  6
Continuous
 62
     3
370
     9
100
AcDbLine
 10
-184.5998660938158
 20
-25.77026614627312
 30
0.0
 11
-184.5998660938158
 21
80.22972478093345
 31
0.0
  0
LINE
  5
A1
330
1F
100
AcDbEntity
  8
通り芯
  6
Continuous
 62
     3
370
     9
100
AcDbLine
 10
-205.0999089833852
 20
-25.77026614627312
 30
0.0
 11
-205.0999089833852
 21
80.22972478093345
 31
0.0
  0
LINE
  5
A2
330
1F
100
AcDbEntity
  8
通り芯
  6
Continuous
 62
     3
370
     9
100
AcDbLine
 10
-186.5998974361934
 20
-27.77026037267726
 30
0.0
 11
-203.0998776410076
 21
-27.77026037267726
 31
0.0
  0
LINE
  5
A3
330
1F
100
AcDbEntity
  8
通り芯
  6
Continuous
 62
     3
370
     9
100
AcDbLine
 10
-186.5998974361934
 20
82.22975612331095
 30
0.0
 11
-203.0998776410076
 21
82.22975612331095
 31
0.0
  0
LINE
  5
A4
330
1F
100
AcDbEntity
  8
通り芯
  6
Continuous
 62
     3
370
     9
100
AcDbLine
 10
-150.099900735391
 20
82.22975612331095
 30
0.0
 11
-166.5998809402052
 21
82.22975612331095
 31
0.0
  0
LINE
  5
A5
330
1F
100
AcDbEntity
  8
通り芯
  6
Continuous
 62
     3
370
     9
100
AcDbLine
 10
-150.099900735391
 20
-27.77026037267726
 30
0.0
 11
-166.5998809402052
 21
-27.77026037267726
 31
0.0
  0
LINE
  5
A6
330
1F
100
AcDbEntity
  8
通り芯
  6
Continuous
 62
     3
370
     9
100
AcDbLine
 10
-168.5998751666094
 20
-25.77026614627312
 30
0.0
 11
-168.5998751666094
 21
80.22972478093345
 31
0.0
  0
LINE
  5
A7
330
1F
100
AcDbEntity
  8
通り芯
  6
Continuous
 62
     3
370
     9
100
AcDbLine
 10
-148.0998693930135
 20
-25.77026614627312
 30
0.0
 11
-148.0998693930135
 21
80.22972478093345
 31
0.0
  0
LINE
  5
A8
330
1F
100
AcDbEntity
  8
通り芯
  6
Continuous
 62
     3
370
     9
100
AcDbLine
 10
-148.0998693930135
 20
100.2297412769216
 30
0.0
 11
-148.0998693930135
 21
206.2296950881547
 31
0.0
  0
LINE
  5
A9
330
1F
100
AcDbEntity
  8
通り芯
  6
Continuous
 62
     3
370
     9
100
AcDbLine
 10
-168.5998751666094
 20
100.2297412769216
 30
0.0
 11
-168.5998751666094
 21
206.2296950881547
 31
0.0
  0
LINE
  5
AA
330
1F
100
AcDbEntity
  8
通り芯
  6
Continuous
 62
     3
370
     9
100
AcDbLine
 10
-150.099900735391
 20
98.22974705051743
 30
0.0
 11
-166.5998809402052
 21
98.22974705051743
 31
0.0
  0
LINE
  5
AB
330
1F
100
AcDbEntity
  8
通り芯
  6
Continuous
 62
     3
370
     9
100
AcDbLine
 10
-150.099900735391
 20
208.2297264305322
 30
0.0
 11
-166.5998809402052
 21
208.2297264305322
 31
0.0
  0
LINE
  5
AC
330
1F
100
AcDbEntity
  8
通り芯
  6
Continuous
 62
     3
370
     9
100
AcDbLine
 10
-186.5998974361934
 20
208.2297264305322
 30
0.0
 11
-203.0998776410076
 21
208.2297264305322
 31
0.0
  0
LINE
  5
AD
330
1F
100
AcDbEntity
  8
通り芯
  6
Continuous
 62
     3
370
     9
100
AcDbLine
 10
-186.5998974361934
 20
98.22974705051743
 30
0.0
 11
-203.0998776410076
 21
98.22974705051743
 31
0.0
  0
LINE
  5
AE
330
1F
100
AcDbEntity
  8
通り芯
  6
Continuous
 62
     3
370
     9
100
AcDbLine
 10
-205.0999089833852
 20
100.2297412769216
 30
0.0
 11
-205.0999089833852
 21
206.2296950881547
 31
0.0
  0
LINE
  5
AF
330
1F
100
AcDbEntity
  8
通り芯
  6
Continuous
 62
     3
370
     9
100
AcDbLine
 10
-184.5998660938158
 20
100.2297412769216
 30
0.0
 11
-184.5998660938158
 21
206.2296950881547
 31
0.0
  0
LINE
  5
B0
330
1F
100
AcDbEntity
  8
通り芯
  6
Continuous
 62
     3
370
     9
100
AcDbLine
 10
-221.0998627946183
 20
100.2297412769216
 30
0.0
 11
-221.0998627946183
 21
206.2296950881547
 31
0.0
  0
LINE
  5
B1
330
1F
100
AcDbEntity
  8
通り芯
  6
Continuous
 62
     3
370
     9
100
AcDbLine
 10
-241.5999056841875
 20
100.2297412769216
 30
0.0
 11
-241.5999056841875
 21
206.2296950881547
 31
0.0
  0
LINE
  5
B2
330
1F
100
AcDbEntity
  8
通り芯
  6
Continuous
 62
     3
370
     9
100
AcDbLine
 10
-223.0998941369958
 20
98.22974705051743
 30
0.0
 11
-239.59987434181
 21
98.22974705051743
 31
0.0
  0
LINE
  5
B3
330
1F
100
AcDbEntity
  8
通り芯
  6
Continuous
 62
     3
370
     9
100
AcDbLine
 10
-223.0998941369958
 20
208.2297264305322
 30
0.0
 11
-239.59987434181
 21
208.2297264305322
 31
0.0
  0
LINE
  5
B4
330
1F
100
AcDbEntity
  8
通り芯
  6
Continuous
 62
     3
370
     9
100
AcDbLine
 10
-259.5998908377981
 20
208.2297264305322
 30
0.0
 11
-276.0998710426124
 21
208.2297264305322
 31
0.0
  0
LINE
  5
B5
330
1F
100
AcDbEntity
  8
通り芯
  6
Continuous
 62
     3
370
     9
100
AcDbLine
 10
-259.5998908377981
 20
98.22974705051743
 30
0.0
 11
-276.0998710426124
 21
98.22974705051743
 31
0.0
  0
LINE
  5
B6
330
1F
100
AcDbEntity
  8
通り芯
  6
Continuous
 62
     3
370
     9
100
AcDbLine
 10
-278.0999023849899
 20
100.2297412769216
 30
0.0
 11
-278.0999023849899
 21
206.2296950881547
 31
0.0
  0
LINE
  5
B7
330
1F
100
AcDbEntity
  8
通り芯
  6
Continuous
 62
     3
370
     9
100
AcDbLine
 10
-257.599896611394
 20
100.2297412769216
 30
0.0
 11
-257.599896611394
 21
206.2296950881547
 31
0.0
  0
LINE
  5
B8
330
1F
100
AcDbEntity
  8
通り芯
  6
Continuous
 62
     3
370
     9
100
AcDbLine
 10
-294.0998933121964
 20
100.2297412769216
 30
0.0
 11
-294.0998933121964
 21
206.2296950881547
 31
0.0
  0
LINE
  5
B9
330
1F
100
AcDbEntity
  8
通り芯
  6
Continuous
 62
     3
370
     9
100
AcDbLine
 10
-314.5998990857922
 20
100.2297412769216
 30
0.0
 11
-314.5998990857922
 21
206.2296950881547
 31
0.0
  0
LINE
  5
BA
330
1F
100
AcDbEntity
  8
通り芯
  6
Continuous
 62
     3
370
     9
100
AcDbLine
 10
-296.0998875386005
 20
98.22974705051743
 30
0.0
 11
-312.5999048593881
 21
98.22974705051743
 31
0.0
  0
LINE
  5
BB
330
1F
100
AcDbEntity
  8
通り芯
  6
Continuous
 62
     3
370
     9
100
AcDbLine
 10
-296.0998875386005
 20
208.2297264305322
 30
0.0
 11
-312.5999048593881
 21
208.2297264305322
 31
0.0
  0
LINE
  5
BC
330
1F
100
AcDbEntity
  8
通り芯
  6
Continuous
 62
     3
370
     9
100
AcDbLine
 10
-332.5998842394029
 20
208.2297264305322
 30
0.0
 11
-349.0999015601905
 21
208.2297264305322
 31
0.0
  0
LINE
  5
BD
330
1F
100
AcDbEntity
  8
通り芯
  6
Continuous
 62
     3
370
     9
100
AcDbLine
 10
-332.5998842394029
 20
98.22974705051743
 30
0.0
 11
-349.0999015601905
 21
98.22974705051743
 31
0.0
  0
LINE
  5
BE
330
1F
100
AcDbEntity
  8
通り芯
  6
Continuous
 62
     3
370
     9
100
AcDbLine
 10
-351.0998957865946
 20
100.2297412769216
 30
0.0
 11
-351.0998957865946
 21
206.2296950881547
 31
0.0
  0
LINE
  5
BF
330
1F
100
AcDbEntity
  8
通り芯
  6
Continuous
 62
     3
370
     9
100
AcDbLine
 10
-330.5998900129987
 20
100.2297412769216
 30
0.0
 11
-330.5998900129987
 21
206.2296950881547
 31
0.0
  0
LINE
  5
C0
330
1F
100
AcDbEntity
  8
通り芯
  6
Continuous
 62
     3
370
     9
100
AcDbLine
 10
-330.5998900129987
 20
226.2297115841429
 30
0.0
 11
-330.5998900129987
 21
332.2297396273227
 31
0.0
  0
LINE
  5
C1
330
1F
100
AcDbEntity
  8
通り芯
  6
Continuous
 62
     3
370
     9
100
AcDbLine
 10
-351.0998957865946
 20
226.2297115841429
 30
0.0
 11
-351.0998957865946
 21
332.2297396273227
 31
0.0
  0
LINE
  5
C2
330
1F
100
AcDbEntity
  8
通り芯
  6
Continuous
 62
     3
370
     9
100
AcDbLine
 10
-332.5998842394029
 20
224.2297544737121
 30
0.0
 11
-349.0999015601905
 21
224.2297544737121
 31
0.0
  0
LINE
  5
C3
330
1F
100
AcDbEntity
  8
通り芯
  6
Continuous
 62
     3
370
     9
100
AcDbLine
 10
-332.5998842394029
 20
334.2296967377536
 30
0.0
 11
-349.0999015601905
 21
334.2296967377536
 31
0.0
  0
LINE
  5
C4
330
1F
100
AcDbEntity
  8
通り芯
  6
Continuous
 62
     3
370
     9
100
AcDbLine
 10
-296.0998875386005
 20
334.2296967377536
 30
0.0
 11
-312.5999048593881
 21
334.2296967377536
 31
0.0
  0
LINE
  5
C5
330
1F
100
AcDbEntity
  8
通り芯
  6
Continuous
 62
     3
370
     9
100
AcDbLine
 10
-296.0998875386005
 20
224.2297544737121
 30
0.0
 11
-312.5999048593881
 21
224.2297544737121
 31
0.0
  0
LINE
  5
C6
330
1F
100
AcDbEntity
  8
通り芯
  6
Continuous
 62
     3
370
     9
100
AcDbLine
 10
-314.5998990857922
 20
226.2297115841429
 30
0.0
 11
-314.5998990857922
 21
332.2297396273227
 31
0.0
  0
LINE
  5
C7
330
1F
100
AcDbEntity
  8
通り芯
  6
Continuous
 62
     3
370
     9
100
AcDbLine
 10
-294.0998933121964
 20
226.2297115841429
 30
0.0
 11
-294.0998933121964
 21
332.2297396273227
 31
0.0
  0
LINE
  5
C8
330
1F
100
AcDbEntity
  8
通り芯
  6
Continuous
 62
     3
370
     9
100
AcDbLine
 10
-257.599896611394
 20
226.2297115841429
 30
0.0
 11
-257.599896611394
 21
332.2297396273227
 31
0.0
  0
LINE
  5
C9
330
1F
100
AcDbEntity
  8
通り芯
  6
Continuous
 62
     3
370
     9
100
AcDbLine
 10
-278.0999023849899
 20
226.2297115841429
 30
0.0
 11
-278.0999023849899
 21
332.2297396273227
 31
0.0
  0
LINE
  5
CA
330
1F
100
AcDbEntity
  8
通り芯
  6
Continuous
 62
     3
370
     9
100
AcDbLine
 10
-259.5998908377981
 20
224.2297544737121
 30
0.0
 11
-276.0998710426124
 21
224.2297544737121
 31
0.0
  0
LINE
  5
CB
330
1F
100
AcDbEntity
  8
通り芯
  6
Continuous
 62
     3
370
     9
100
AcDbLine
 10
-259.5998908377981
 20
334.2296967377536
 30
0.0
 11
-276.0998710426124
 21
334.2296967377536
 31
0.0
  0
LINE
  5
CC
330
1F
100
AcDbEntity
  8
通り芯
  6
Continuous
 62
     3
370
     9
100
AcDbLine
 10
-223.0998941369958
 20
334.2296967377536
 30
0.0
 11
-239.59987434181
 21
334.2296967377536
 31
0.0
  0
LINE
  5
CD
330
1F
100
AcDbEntity
  8
通り芯
  6
Continuous
 62
     3
370
     9
100
AcDbLine
 10
-223.0998941369958
 20
224.2297544737121
 30
0.0
 11
-239.59987434181
 21
224.2297544737121
 31
0.0
  0
LINE
  5
CE
330
1F
100
AcDbEntity
  8
通り芯
  6
Continuous
 62
     3
370
     9
100
AcDbLine
 10
-241.5999056841875
 20
226.2297115841429
 30
0.0
 11
-241.5999056841875
 21
332.2297396273227
 31
0.0
  0
LINE
  5
CF
330
1F
100
AcDbEntity
  8
通り芯
  6
Continuous
 62
     3
370
     9
100
AcDbLine
 10
-221.0998627946183
 20
226.2297115841429
 30
0.0
 11
-221.0998627946183
 21
332.2297396273227
 31
0.0
  0
LINE
  5
D0
330
1F
100
AcDbEntity
  8
通り芯
  6
Continuous
 62
     3
370
     9
100
AcDbLine
 10
-184.5998660938158
 20
226.2297115841429
 30
0.0
 11
-184.5998660938158
 21
332.2297396273227
 31
0.0
  0
LINE
  5
D1
330
1F
100
AcDbEntity
  8
通り芯
  6
Continuous
 62
     3
370
     9
100
AcDbLine
 10
-205.0999089833852
 20
226.2297115841429
 30
0.0
 11
-205.0999089833852
 21
332.2297396273227
 31
0.0
  0
LINE
  5
D2
330
1F
100
AcDbEntity
  8
通り芯
  6
Continuous
 62
     3
370
     9
100
AcDbLine
 10
-186.5998974361934
 20
224.2297544737121
 30
0.0
 11
-203.0998776410076
 21
224.2297544737121
 31
0.0
  0
LINE
  5
D3
330
1F
100
AcDbEntity
  8
通り芯
  6
Continuous
 62
     3
370
     9
100
AcDbLine
 10
-186.5998974361934
 20
334.2296967377536
 30
0.0
 11
-203.0998776410076
 21
334.2296967377536
 31
0.0
  0
LINE
  5
D4
330
1F
100
AcDbEntity
  8
通り芯
  6
Continuous
 62
     3
370
     9
100
AcDbLine
 10
-150.099900735391
 20
334.2296967377536
 30
0.0
 11
-166.5998809402052
 21
334.2296967377536
 31
0.0
  0
LINE
  5
D5
330
1F
100
AcDbEntity
  8
通り芯
  6
Continuous
 62
     3
370
     9
100
AcDbLine
 10
-150.099900735391
 20
224.2297544737121
 30
0.0
 11
-166.5998809402052
 21
224.2297544737121
 31
0.0
  0
LINE
  5
D6
330
1F
100
AcDbEntity
  8
通り芯
  6
Continuous
 62
     3
370
     9
100
AcDbLine
 10
-168.5998751666094
 20
226.2297115841429
 30
0.0
 11
-168.5998751666094
 21
332.2297396273227
 31
0.0
  0
LINE
  5
D7
330
1F
100
AcDbEntity
  8
通り芯
  6
Continuous
 62
     3
370
     9
100
AcDbLine
 10
-148.0998693930135
 20
226.2297115841429
 30
0.0
 11
-148.0998693930135
 21
332.2297396273227
 31
0.0
  0
LINE
  5
D8
330
1F
100
AcDbEntity
  8
通り芯
  6
Continuous
 62
     3
370
     9
100
AcDbLine
 10
-371.8498776410077
 20
-46.77026119747663
 30
0.0
 11
-371.8498776410077
 21
353.2297346785263
 31
0.0
  0
LINE
  5
D9
330
1F
100
AcDbEntity
  8
通り芯
  6
Continuous
 62
     3
370
     9
100
AcDbLine
 10
-111.5998726922112
 20
226.2297115841429
 30
0.0
 11
-111.5998726922112
 21
332.2297396273227
 31
0.0
  0
LINE
  5
DA
330
1F
100
AcDbEntity
  8
通り芯
  6
Continuous
 62
     3
370
     9
100
AcDbLine
 10
-132.0998784658071
 20
226.2297115841429
 30
0.0
 11
-132.0998784658071
 21
332.2297396273227
 31
0.0
  0
LINE
  5
DB
330
1F
100
AcDbEntity
  8
通り芯
  6
Continuous
 62
     3
370
     9
100
AcDbLine
 10
-113.5999040345887
 20
224.2297544737121
 30
0.0
 11
-130.0998842394029
 21
224.2297544737121
 31
0.0
  0
LINE
  5
DC
330
1F
100
AcDbEntity
  8
通り芯
  6
Continuous
 62
     3
370
     9
100
AcDbLine
 10
-113.5999040345887
 20
334.2296967377536
 30
0.0
 11
-130.0998842394029
 21
334.2296967377536
 31
0.0
  0
LINE
  5
DD
330
1F
100
AcDbEntity
  8
通り芯
  6
Continuous
 62
     3
370
     9
100
AcDbLine
 10
-113.5999040345887
 20
208.2297264305322
 30
0.0
 11
-130.0998842394029
 21
208.2297264305322
 31
0.0
  0
LINE
  5
DE
330
1F
100
AcDbEntity
  8
通り芯
  6
Continuous
 62
     3
370
     9
100
AcDbLine
 10
-113.5999040345887
 20
98.22974705051743
 30
0.0
 11
-130.0998842394029
 21
98.22974705051743
 31
0.0
  0
LINE
  5
DF
330
1F
100
AcDbEntity
  8
通り芯
  6
Continuous
 62
     3
370
     9
100
AcDbLine
 10
-132.0998784658071
 20
100.2297412769216
 30
0.0
 11
-132.0998784658071
 21
206.2296950881547
 31
0.0
  0
LINE
  5
E0
330
1F
100
AcDbEntity
  8
通り芯
  6
Continuous
 62
     3
370
     9
100
AcDbLine
 10
-111.5998726922112
 20
100.2297412769216
 30
0.0
 11
-111.5998726922112
 21
206.2296950881547
 31
0.0
  0
LINE
  5
E1
330
1F
100
AcDbEntity
  8
通り芯
  6
Continuous
 62
     3
370
     9
100
AcDbLine
 10
-111.5998726922112
 20
-25.77026614627312
 30
0.0
 11
-111.5998726922112
 21
80.22972478093345
 31
0.0
  0
LINE
  5
E2
330
1F
100
AcDbEntity
  8
通り芯
  6
Continuous
 62
     3
370
     9
100
AcDbLine
 10
-132.0998784658071
 20
-25.77026614627312
 30
0.0
 11
-132.0998784658071
 21
80.22972478093345
 31
0.0
  0
LINE
  5
E3
330
1F
100
AcDbEntity
  8
通り芯
  6
Continuous
 62
     3
370
     9
100
AcDbLine
 10
-113.5999040345887
 20
-27.77026037267726
 30
0.0
 11
-130.0998842394029
 21
-27.77026037267726
 31
0.0
  0
LINE
  5
E4
330
1F
100
AcDbEntity
  8
通り芯
  6
Continuous
 62
     3
370
     9
100
AcDbLine
 10
-113.5999040345887
 20
82.22975612331095
 30
0.0
 11
-130.0998842394029
 21
82.22975612331095
 31
0.0
  0
LINE
  5
E5
330
1F
100
AcDbEntity
  8
通り芯
  6
Continuous
 62
     3
370
     9
100
AcDbLine
 10
293.1501141109984
 20
-46.77026119747663
 30
0.0
 11
293.1501141109984
 21
353.2297346785263
 31
0.0
  0
LINE
  5
E6
330
1F
100
AcDbEntity
  8
通り芯
  6
Continuous
 62
     3
370
     9
100
AcDbLine
 10
128.150089367016
 20
-211.7702488254855
 30
0.0
 11
-371.8498776410077
 21
-211.7702488254855
 31
0.0
  0
LINE
  5
E7
330
1F
100
AcDbEntity
  8
通り芯
  6
Continuous
 62
     3
370
     9
100
AcDbLine
 10
313.1501306069865
 20
-43.24376121727187
 30
0.0
 11
313.1501306069865
 21
349.7031975823481
 31
0.0
  0
LINE
  5
E8
330
1F
100
AcDbEntity
  8
通り芯
  6
Continuous
 62
     3
370
     9
100
AcDbLine
 10
124.6235522708378
 20
-231.7703395534205
 30
0.0
 11
-368.3233405448294
 21
-231.7703395534205
 31
0.0
  0
LINE
  5
E9
330
1F
100
AcDbEntity
  8
通り芯
  6
Continuous
 62
     3
370
     9
100
AcDbLine
 10
308.1500893670162
 20
-30.41518175279757
 30
0.0
 11
308.1500893670162
 21
336.8746552338473
 31
0.0
  0
LINE
  5
EA
330
1F
100
AcDbEntity
  8
通り芯
  6
Continuous
 62
     3
370
     9
100
AcDbLine
 10
110.04499177675
 20
-226.7702611974767
 30
0.0
 11
-353.7447800507416
 21
-226.7702611974767
 31
0.0
  0
LINE
  5
EB
330
1F
100
AcDbEntity
  8
通り芯
  6
Continuous
 62
     3
370
     9
100
AcDbLine
 10
293.1501141109984
 20
-27.77026037267726
 30
0.0
 11
313.1501306069865
 21
-31.29683458482882
 31
0.0
  0
LINE
  5
EC
330
1F
100
AcDbEntity
  8
通り芯
  6
Continuous
 62
     3
370
     9
100
AcDbLine
 10
293.1501141109984
 20
98.22974705051743
 30
0.0
 11
308.1500893670162
 21
95.58475143845033
 31
0.0
  0
LINE
  5
ED
330
1F
100
AcDbEntity
  8
通り芯
  6
Continuous
 62
     3
370
     9
100
AcDbLine
 10
293.1501141109984
 20
82.22975612331095
 30
0.0
 11
308.1500893670162
 21
84.87464038745794
 31
0.0
  0
LINE
  5
EE
330
1F
100
AcDbEntity
  8
通り芯
  6
Continuous
 62
     3
370
     9
100
AcDbLine
 10
293.1501141109984
 20
-46.77026119747663
 30
0.0
 11
313.1501306069865
 21
-43.24376121727187
 31
0.0
  0
LINE
  5
EF
330
1F
100
AcDbEntity
  8
通り芯
  6
Continuous
 62
     3
370
     9
100
AcDbLine
 10
293.1501141109984
 20
353.2297346785263
 30
0.0
 11
313.1501306069865
 21
349.7031975823481
 31
0.0
  0
LINE
  5
F0
330
1F
100
AcDbEntity
  8
通り芯
  6
Continuous
 62
     3
370
     9
100
AcDbLine
 10
293.1501141109984
 20
224.2297544737121
 30
0.0
 11
308.1500893670162
 21
221.5848702095652
 31
0.0
  0
LINE
  5
F1
330
1F
100
AcDbEntity
  8
通り芯
  6
Continuous
 62
     3
370
     9
100
AcDbLine
 10
293.1501141109984
 20
208.2297264305322
 30
0.0
 11
308.1500893670162
 21
210.8746106946792
 31
0.0
  0
LINE
  5
F2
330
1F
100
AcDbEntity
  8
通り芯
  6
Continuous
 62
     3
370
     9
100
AcDbLine
 10
293.1501141109984
 20
334.2296967377536
 30
0.0
 11
313.1501306069865
 21
337.7563080658786
 31
0.0
  0
LINE
  5
F3
330
1F
100
AcDbEntity
  8
通り芯
  6
Continuous
 62
     3
370
     9
100
AcDbLine
 10
-278.0999023849899
 20
-211.7702488254855
 30
0.0
 11
-280.7447866491369
 21
-226.7702611974767
 31
0.0
  0
LINE
  5
F4
330
1F
100
AcDbEntity
  8
通り芯
  6
Continuous
 62
     3
370
     9
100
AcDbLine
 10
-294.0998933121964
 20
-211.7702488254855
 30
0.0
 11
-291.454971932076
 21
-226.7702611974767
 31
0.0
  0
LINE
  5
F5
330
1F
100
AcDbEntity
  8
通り芯
  6
Continuous
 62
     3
370
     9
100
AcDbLine
 10
-257.599896611394
 20
-211.7702488254855
 30
0.0
 11
-254.9549752312737
 21
-226.7702611974767
 31
0.0
  0
LINE
  5
F6
330
1F
100
AcDbEntity
  8
通り芯
  6
Continuous
 62
     3
370
     9
100
AcDbLine
 10
-241.5999056841875
 20
-211.7702488254855
 30
0.0
 11
-244.2447899483344
 21
-226.7702611974767
 31
0.0
  0
LINE
  5
F7
330
1F
100
AcDbEntity
  8
通り芯
  6
Continuous
 62
     3
370
     9
100
AcDbLine
 10
-371.8498776410077
 20
-211.7702488254855
 30
0.0
 11
-368.3233405448294
 21
-231.7703395534205
 31
0.0
  0
LINE
  5
F8
330
1F
100
AcDbEntity
  8
通り芯
  6
Continuous
 62
     3
370
     9
100
AcDbLine
 10
-330.5998900129987
 20
-211.7702488254855
 30
0.0
 11
-327.9550057488518
 21
-226.7702611974767
 31
0.0
  0
LINE
  5
F9
330
1F
100
AcDbEntity
  8
通り芯
  6
Continuous
 62
     3
370
     9
100
AcDbLine
 10
-314.5998990857922
 20
-211.7702488254855
 30
0.0
 11
-317.2447833499392
 21
-226.7702611974767
 31
0.0
  0
LINE
  5
FA
330
1F
100
AcDbEntity
  8
通り芯
  6
Continuous
 62
     3
370
     9
100
AcDbLine
 10
-351.0998957865946
 20
-211.7702488254855
 30
0.0
 11
-354.6264328827728
 21
-231.7703395534205
 31
0.0
  0
LINE
  5
FB
330
1F
100
AcDbEntity
  8
通り芯
  6
Continuous
 62
     3
370
     9
100
AcDbLine
 10
-205.0999089833852
 20
-211.7702488254855
 30
0.0
 11
-207.7447932475321
 21
-226.7702611974767
 31
0.0
  0
LINE
  5
FC
330
1F
100
AcDbEntity
  8
通り芯
  6
Continuous
 62
     3
370
     9
100
AcDbLine
 10
-221.0998627946183
 20
-211.7702488254855
 30
0.0
 11
-218.4549785304712
 21
-226.7702611974767
 31
0.0
  0
LINE
  5
FD
330
1F
100
AcDbEntity
  8
通り芯
  6
Continuous
 62
     3
370
     9
100
AcDbLine
 10
-184.5998660938158
 20
-211.7702488254855
 30
0.0
 11
-181.954981829669
 21
-226.7702611974767
 31
0.0
  0
LINE
  5
FE
330
1F
100
AcDbEntity
  8
通り芯
  6
Continuous
 62
     3
370
     9
100
AcDbLine
 10
-168.5998751666094
 20
-211.7702488254855
 30
0.0
 11
-171.2447965467297
 21
-226.7702611974767
 31
0.0
  0
LINE
  5
FF
330
1F
100
AcDbEntity
  8
通り芯
  6
Continuous
 62
     3
370
     9
100
AcDbLine
 10
-132.0998784658071
 20
-211.7702488254855
 30
0.0
 11
-134.7447998459274
 21
-226.7702611974767
 31
0.0
  0
LINE
  5
100
330
1F
100
AcDbEntity
  8
通り芯
  6
Continuous
 62
     3
370
     9
100
AcDbLine
 10
-148.0998693930135
 20
-211.7702488254855
 30
0.0
 11
-145.4549851288666
 21
-226.7702611974767
 31
0.0
  0
LINE
  5
101
330
1F
100
AcDbEntity
  8
通り芯
  6
Continuous
 62
     3
370
     9
100
AcDbLine
 10
-95.5998817650046
 20
-211.7702488254855
 30
0.0
 11
-98.24480314512499
 21
-226.7702611974767
 31
0.0
  0
LINE
  5
102
330
1F
100
AcDbEntity
  8
通り芯
  6
Continuous
 62
     3
370
     9
100
AcDbLine
 10
-111.5998726922112
 20
-211.7702488254855
 30
0.0
 11
-108.9549884280643
 21
-226.7702611974767
 31
0.0
  0
LINE
  5
103
330
1F
100
AcDbEntity
  8
通り芯
  6
Continuous
 62
     3
370
     9
100
AcDbLine
 10
-75.09987599140874
 20
-211.7702488254855
 30
0.0
 11
-72.45499172726178
 21
-226.7702611974767
 31
0.0
  0
LINE
  5
104
330
1F
100
AcDbEntity
  8
通り芯
  6
Continuous
 62
     3
370
     9
100
AcDbLine
 10
-59.0999221801757
 20
-211.7702488254855
 30
0.0
 11
-61.74480644432273
 21
-226.7702611974767
 31
0.0
  0
LINE
  5
105
330
1F
100
AcDbEntity
  8
通り芯
  6
Continuous
 62
     3
370
     9
100
AcDbLine
 10
-22.59992547937335
 20
-211.7702488254855
 30
0.0
 11
-25.24480974352022
 21
-226.7702611974767
 31
0.0
  0
LINE
  5
106
330
1F
100
AcDbEntity
  8
通り芯
  6
Continuous
 62
     3
370
     9
100
AcDbLine
 10
-38.59987929060648
 20
-211.7702488254855
 30
0.0
 11
-35.95499502645944
 21
-226.7702611974767
 31
0.0
  0
LINE
  5
107
330
1F
100
AcDbEntity
  8
通り芯
  6
Continuous
 62
     3
370
     9
100
AcDbLine
 10
107.4001075126031
 20
-211.7702488254855
 30
0.0
 11
110.9266446087813
 21
-231.7703395534205
 31
0.0
  0
LINE
  5
108
330
1F
100
AcDbEntity
  8
通り芯
  6
Continuous
 62
     3
370
     9
100
AcDbLine
 10
70.90011081180063
 20
-211.7702488254855
 30
0.0
 11
73.54499507594758
 21
-226.7702611974767
 31
0.0
  0
LINE
  5
109
330
1F
100
AcDbEntity
  8
通り芯
  6
Continuous
 62
     3
370
     9
100
AcDbLine
 10
86.90006462303376
 20
-211.7702488254855
 30
0.0
 11
84.25518035888689
 21
-226.7702611974767
 31
0.0
  0
LINE
  5
10A
330
1F
100
AcDbEntity
  8
通り芯
  6
Continuous
 62
     3
370
     9
100
AcDbLine
 10
128.150089367016
 20
-211.7702488254855
 30
0.0
 11
124.6235522708378
 21
-231.7703395534205
 31
0.0
  0
LINE
  5
10B
330
1F
100
AcDbEntity
  8
通り芯
  6
Continuous
 62
     3
370
     9
100
AcDbLine
 10
-2.099882589804054
 20
-211.7702488254855
 30
0.0
 11
0.5450016743428989
 21
-226.7702611974767
 31
0.0
  0
LINE
  5
10C
330
1F
100
AcDbEntity
  8
通り芯
  6
Continuous
 62
     3
370
     9
100
AcDbLine
 10
13.90007122142907
 20
-211.7702488254855
 30
0.0
 11
11.25518695728212
 21
-226.7702611974767
 31
0.0
  0
LINE
  5
10D
330
1F
100
AcDbEntity
  8
通り芯
  6
Continuous
 62
     3
370
     9
100
AcDbLine
 10
50.40006792223133
 20
-211.7702488254855
 30
0.0
 11
47.75518365808438
 21
-226.7702611974767
 31
0.0
  0
LINE
  5
10E
330
1F
100
AcDbEntity
  8
通り芯
  6
Continuous
 62
     3
370
     9
100
AcDbLine
 10
34.40011411099837
 20
-211.7702488254855
 30
0.0
 11
37.04499837514533
 21
-226.7702611974767
 31
0.0
  0
LINE
  5
10F
330
1F
100
AcDbEntity
  8
通り芯
  6
JWW_CENTER1
 62
     3
370
     9
100
AcDbLine
 10
-121.8498941369959
 20
-246.7703333674248
 30
0.0
 11
-121.8498941369959
 21
-196.770255011481
 31
0.0
  0
LINE
  5
110
330
1F
100
AcDbEntity
  8
通り芯
  6
JWW_CENTER1
 62
     3
370
     9
100
AcDbLine
 10
-121.8498941369959
 20
-61.7702735694678
 30
0.0
 11
-121.8498941369959
 21
368.2297099345441
 31
0.0
  0
LINE
  5
111
330
1F
100
AcDbEntity
  8
通り芯
  6
JWW_CENTER1
 62
     3
370
     9
100
AcDbLine
 10
278.1501388549806
 20
153.2297181825381
 30
0.0
 11
328.1501058630043
 21
153.2297181825381
 31
0.0
  0
LINE
  5
112
330
1F
100
AcDbEntity
  8
通り芯
  6
JWW_CENTER1
 62
     3
370
     9
100
AcDbLine
 10
-386.8498528970253
 20
153.2297181825381
 30
0.0
 11
143.1500646230338
 21
153.2297181825381
 31
0.0
  0
LINE
  5
113
330
1F
100
AcDbEntity
  8
0-F
  6
Continuous
 62
     7
370
     9
100
AcDbLine
 10
-371.8498776410077
 20
-121.7702488254855
 30
0.0
 11
128.1500151350691
 21
-121.7702488254855
 31
0.0
  0
LINE
  5
114
330
1F
100
AcDbEntity
  8
0-F
  6
Continuous
 62
     7
370
     9
100
AcDbLine
 10
-371.8498776410077
 20
-49.77027109506952
 30
0.0
 11
-371.8498776410077
 21
-122.6702369483741
 31
0.0
  0
LINE
  5
115
330
1F
100
AcDbEntity
  8
0-F
  6
Continuous
 62
     7
370
     9
100
AcDbLine
 10
-371.8498776410077
 20
-121.7702488254855
 30
0.0
 11
-362.9269007089975
 21
-120.5955282675251
 31
0.0
  0
LINE
  5
116
330
1F
100
AcDbEntity
  8
0-F
  6
Continuous
 62
     7
370
     9
100
AcDbLine
 10
-371.8498776410077
 20
-121.7702488254855
 30
0.0
 11
-362.9269007089975
 21
-122.9449693834457
 31
0.0
  0
ARC
  5
117
330
1F
100
AcDbEntity
  8
通り芯
  6
Continuous
 62
     3
370
     9
100
AcDbCircle
 10
-93.59988753860054
 20
332.2297396273227
 30
0.0
 40
2.000000025774982
100
AcDbArc
 50
90.0
 51
180.0
  0
ARC
  5
118
330
1F
100
AcDbEntity
  8
通り芯
  6
Continuous
 62
     3
370
     9
100
AcDbCircle
 10
-77.09990733378632
 20
332.2297396273227
 30
0.0
 40
2.000000025774982
100
AcDbArc
 50
0.0
 51
90.0
  0
ARC
  5
119
330
1F
100
AcDbEntity
  8
通り芯
  6
Continuous
 62
     3
370
     9
100
AcDbCircle
 10
-77.09990733378632
 20
226.2297115841429
 30
0.0
 40
2.000000025774982
100
AcDbArc
 50
270.0
 51
0.0
  0
ARC
  5
11A
330
1F
100
AcDbEntity
  8
通り芯
  6
Continuous
 62
     3
370
     9
100
AcDbCircle
 10
-93.59988753860054
 20
226.2297115841429
 30
0.0
 40
2.000000025774982
100
AcDbArc
 50
180.0
 51
270.0
  0
ARC
  5
11B
330
1F
100
AcDbEntity
  8
通り芯
  6
Continuous
 62
     3
370
     9
100
AcDbCircle
 10
-57.09989083779811
 20
226.2297115841429
 30
0.0
 40
2.000000025774982
100
AcDbArc
 50
180.0
 51
270.0
  0
ARC
  5
11C
330
1F
100
AcDbEntity
  8
通り芯
  6
Continuous
 62
     3
370
     9
100
AcDbCircle
 10
-40.59983640103718
 20
226.2297115841429
 30
0.0
 40
2.000000025774982
100
AcDbArc
 50
270.0
 51
0.0
  0
ARC
  5
11D
330
1F
100
AcDbEntity
  8
通り芯
  6
Continuous
 62
     3
370
     9
100
AcDbCircle
 10
-40.59983640103718
 20
332.2297396273227
 30
0.0
 40
2.000000025774982
100
AcDbArc
 50
0.0
 51
90.0
  0
ARC
  5
11E
330
1F
100
AcDbEntity
  8
通り芯
  6
Continuous
 62
     3
370
     9
100
AcDbCircle
 10
-57.09989083779811
 20
332.2297396273227
 30
0.0
 40
2.000000025774982
100
AcDbArc
 50
90.0
 51
180.0
  0
ARC
  5
11F
330
1F
100
AcDbEntity
  8
通り芯
  6
Continuous
 62
     3
370
     9
100
AcDbCircle
 10
-20.59989413699586
 20
332.2297396273227
 30
0.0
 40
2.000000025774982
100
AcDbArc
 50
90.0
 51
180.0
  0
ARC
  5
120
330
1F
100
AcDbEntity
  8
通り芯
  6
Continuous
 62
     3
370
     9
100
AcDbCircle
 10
-4.099839700234753
 20
332.2297396273227
 30
0.0
 40
2.000000025774982
100
AcDbArc
 50
0.0
 51
90.0
  0
ARC
  5
121
330
1F
100
AcDbEntity
  8
通り芯
  6
Continuous
 62
     3
370
     9
100
AcDbCircle
 10
-4.099839700234753
 20
226.2297115841429
 30
0.0
 40
2.000000025774982
100
AcDbArc
 50
270.0
 51
0.0
  0
ARC
  5
122
330
1F
100
AcDbEntity
  8
通り芯
  6
Continuous
 62
     3
370
     9
100
AcDbCircle
 10
-20.59989413699586
 20
226.2297115841429
 30
0.0
 40
2.000000025774982
100
AcDbArc
 50
180.0
 51
270.0
  0
ARC
  5
123
330
1F
100
AcDbEntity
  8
通り芯
  6
Continuous
 62
     3
370
     9
100
AcDbCircle
 10
15.90010256380657
 20
226.2297115841429
 30
0.0
 40
2.000000025774982
100
AcDbArc
 50
180.0
 51
270.0
  0
ARC
  5
124
330
1F
100
AcDbEntity
  8
通り芯
  6
Continuous
 62
     3
370
     9
100
AcDbCircle
 10
32.40008276862071
 20
226.2297115841429
 30
0.0
 40
2.000000025774982
100
AcDbArc
 50
270.0
 51
0.0
  0
ARC
  5
125
330
1F
100
AcDbEntity
  8
通り芯
  6
Continuous
 62
     3
370
     9
100
AcDbCircle
 10
32.40008276862071
 20
332.2297396273227
 30
0.0
 40
2.000000025774982
100
AcDbArc
 50
0.0
 51
90.0
  0
ARC
  5
126
330
1F
100
AcDbEntity
  8
通り芯
  6
Continuous
 62
     3
370
     9
100
AcDbCircle
 10
15.90010256380657
 20
332.2297396273227
 30
0.0
 40
2.000000025774982
100
AcDbArc
 50
90.0
 51
180.0
  0
ARC
  5
127
330
1F
100
AcDbEntity
  8
通り芯
  6
Continuous
 62
     3
370
     9
100
AcDbCircle
 10
52.400099264609
 20
332.2297396273227
 30
0.0
 40
2.000000025774982
100
AcDbArc
 50
90.0
 51
180.0
  0
ARC
  5
128
330
1F
100
AcDbEntity
  8
通り芯
  6
Continuous
 62
     3
370
     9
100
AcDbCircle
 10
68.90007946942313
 20
332.2297396273227
 30
0.0
 40
2.000000025774982
100
AcDbArc
 50
0.0
 51
90.0
  0
ARC
  5
129
330
1F
100
AcDbEntity
  8
通り芯
  6
Continuous
 62
     3
370
     9
100
AcDbCircle
 10
68.90007946942313
 20
226.2297115841429
 30
0.0
 40
2.000000025774982
100
AcDbArc
 50
270.0
 51
0.0
  0
ARC
  5
12A
330
1F
100
AcDbEntity
  8
通り芯
  6
Continuous
 62
     3
370
     9
100
AcDbCircle
 10
52.400099264609
 20
226.2297115841429
 30
0.0
 40
2.000000025774982
100
AcDbArc
 50
180.0
 51
270.0
  0
ARC
  5
12B
330
1F
100
AcDbEntity
  8
通り芯
  6
Continuous
 62
     3
370
     9
100
AcDbCircle
 10
88.90009596541125
 20
226.2297115841429
 30
0.0
 40
2.000000025774982
100
AcDbArc
 50
180.0
 51
270.0
  0
ARC
  5
12C
330
1F
100
AcDbEntity
  8
通り芯
  6
Continuous
 62
     3
370
     9
100
AcDbCircle
 10
105.4000761702256
 20
226.2297115841429
 30
0.0
 40
2.000000025774982
100
AcDbArc
 50
270.0
 51
0.0
  0
ARC
  5
12D
330
1F
100
AcDbEntity
  8
通り芯
  6
Continuous
 62
     3
370
     9
100
AcDbCircle
 10
105.4000761702256
 20
332.2297396273227
 30
0.0
 40
2.000000025774982
100
AcDbArc
 50
0.0
 51
90.0
  0
ARC
  5
12E
330
1F
100
AcDbEntity
  8
通り芯
  6
Continuous
 62
     3
370
     9
100
AcDbCircle
 10
88.90009596541125
 20
332.2297396273227
 30
0.0
 40
2.000000025774982
100
AcDbArc
 50
90.0
 51
180.0
  0
ARC
  5
12F
330
1F
100
AcDbEntity
  8
通り芯
  6
Continuous
 62
     3
370
     9
100
AcDbCircle
 10
88.90009596541125
 20
206.2296950881547
 30
0.0
 40
2.000000025774982
100
AcDbArc
 50
90.0
 51
180.0
  0
ARC
  5
130
330
1F
100
AcDbEntity
  8
通り芯
  6
Continuous
 62
     3
370
     9
100
AcDbCircle
 10
105.4000761702256
 20
206.2296950881547
 30
0.0
 40
2.000000025774982
100
AcDbArc
 50
0.0
 51
90.0
  0
ARC
  5
131
330
1F
100
AcDbEntity
  8
通り芯
  6
Continuous
 62
     3
370
     9
100
AcDbCircle
 10
105.4000761702256
 20
100.2297412769216
 30
0.0
 40
2.000000025774982
100
AcDbArc
 50
270.0
 51
0.0
  0
ARC
  5
132
330
1F
100
AcDbEntity
  8
通り芯
  6
Continuous
 62
     3
370
     9
100
AcDbCircle
 10
88.90009596541125
 20
100.2297412769216
 30
0.0
 40
2.000000025774982
100
AcDbArc
 50
180.0
 51
270.0
  0
ARC
  5
133
330
1F
100
AcDbEntity
  8
通り芯
  6
Continuous
 62
     3
370
     9
100
AcDbCircle
 10
52.400099264609
 20
100.2297412769216
 30
0.0
 40
2.000000025774982
100
AcDbArc
 50
180.0
 51
270.0
  0
ARC
  5
134
330
1F
100
AcDbEntity
  8
通り芯
  6
Continuous
 62
     3
370
     9
100
AcDbCircle
 10
68.90007946942313
 20
100.2297412769216
 30
0.0
 40
2.000000025774982
100
AcDbArc
 50
270.0
 51
0.0
  0
ARC
  5
135
330
1F
100
AcDbEntity
  8
通り芯
  6
Continuous
 62
     3
370
     9
100
AcDbCircle
 10
68.90007946942313
 20
206.2296950881547
 30
0.0
 40
2.000000025774982
100
AcDbArc
 50
0.0
 51
90.0
  0
ARC
  5
136
330
1F
100
AcDbEntity
  8
通り芯
  6
Continuous
 62
     3
370
     9
100
AcDbCircle
 10
52.400099264609
 20
206.2296950881547
 30
0.0
 40
2.000000025774982
100
AcDbArc
 50
90.0
 51
180.0
  0
ARC
  5
137
330
1F
100
AcDbEntity
  8
通り芯
  6
Continuous
 62
     3
370
     9
100
AcDbCircle
 10
15.90010256380657
 20
206.2296950881547
 30
0.0
 40
2.000000025774982
100
AcDbArc
 50
90.0
 51
180.0
  0
ARC
  5
138
330
1F
100
AcDbEntity
  8
通り芯
  6
Continuous
 62
     3
370
     9
100
AcDbCircle
 10
32.40008276862071
 20
206.2296950881547
 30
0.0
 40
2.000000025774982
100
AcDbArc
 50
0.0
 51
90.0
  0
ARC
  5
139
330
1F
100
AcDbEntity
  8
通り芯
  6
Continuous
 62
     3
370
     9
100
AcDbCircle
 10
32.40008276862071
 20
100.2297412769216
 30
0.0
 40
2.000000025774982
100
AcDbArc
 50
270.0
 51
0.0
  0
ARC
  5
13A
330
1F
100
AcDbEntity
  8
通り芯
  6
Continuous
 62
     3
370
     9
100
AcDbCircle
 10
15.90010256380657
 20
100.2297412769216
 30
0.0
 40
2.000000025774982
100
AcDbArc
 50
180.0
 51
270.0
  0
ARC
  5
13B
330
1F
100
AcDbEntity
  8
通り芯
  6
Continuous
 62
     3
370
     9
100
AcDbCircle
 10
-20.59989413699586
 20
100.2297412769216
 30
0.0
 40
2.000000025774982
100
AcDbArc
 50
180.0
 51
270.0
  0
ARC
  5
13C
330
1F
100
AcDbEntity
  8
通り芯
  6
Continuous
 62
     3
370
     9
100
AcDbCircle
 10
-4.099839700234753
 20
100.2297412769216
 30
0.0
 40
2.000000025774982
100
AcDbArc
 50
270.0
 51
0.0
  0
ARC
  5
13D
330
1F
100
AcDbEntity
  8
通り芯
  6
Continuous
 62
     3
370
     9
100
AcDbCircle
 10
-4.099839700234753
 20
206.2296950881547
 30
0.0
 40
2.000000025774982
100
AcDbArc
 50
0.0
 51
90.0
  0
ARC
  5
13E
330
1F
100
AcDbEntity
  8
通り芯
  6
Continuous
 62
     3
370
     9
100
AcDbCircle
 10
-20.59989413699586
 20
206.2296950881547
 30
0.0
 40
2.000000025774982
100
AcDbArc
 50
90.0
 51
180.0
  0
ARC
  5
13F
330
1F
100
AcDbEntity
  8
通り芯
  6
Continuous
 62
     3
370
     9
100
AcDbCircle
 10
-57.09989083779811
 20
206.2296950881547
 30
0.0
 40
2.000000025774982
100
AcDbArc
 50
90.0
 51
180.0
  0
ARC
  5
140
330
1F
100
AcDbEntity
  8
通り芯
  6
Continuous
 62
     3
370
     9
100
AcDbCircle
 10
-40.59983640103718
 20
206.2296950881547
 30
0.0
 40
2.000000025774982
100
AcDbArc
 50
0.0
 51
90.0
  0
ARC
  5
141
330
1F
100
AcDbEntity
  8
通り芯
  6
Continuous
 62
     3
370
     9
100
AcDbCircle
 10
-40.59983640103718
 20
100.2297412769216
 30
0.0
 40
2.000000025774982
100
AcDbArc
 50
270.0
 51
0.0
  0
ARC
  5
142
330
1F
100
AcDbEntity
  8
通り芯
  6
Continuous
 62
     3
370
     9
100
AcDbCircle
 10
-57.09989083779811
 20
100.2297412769216
 30
0.0
 40
2.000000025774982
100
AcDbArc
 50
180.0
 51
270.0
  0
ARC
  5
143
330
1F
100
AcDbEntity
  8
通り芯
  6
Continuous
 62
     3
370
     9
100
AcDbCircle
 10
-93.59988753860054
 20
100.2297412769216
 30
0.0
 40
2.000000025774982
100
AcDbArc
 50
180.0
 51
270.0
  0
ARC
  5
144
330
1F
100
AcDbEntity
  8
通り芯
  6
Continuous
 62
     3
370
     9
100
AcDbCircle
 10
-77.09990733378632
 20
100.2297412769216
 30
0.0
 40
2.000000025774982
100
AcDbArc
 50
270.0
 51
0.0
  0
ARC
  5
145
330
1F
100
AcDbEntity
  8
通り芯
  6
Continuous
 62
     3
370
     9
100
AcDbCircle
 10
-77.09990733378632
 20
206.2296950881547
 30
0.0
 40
2.000000025774982
100
AcDbArc
 50
0.0
 51
90.0
  0
ARC
  5
146
330
1F
100
AcDbEntity
  8
通り芯
  6
Continuous
 62
     3
370
     9
100
AcDbCircle
 10
-93.59988753860054
 20
206.2296950881547
 30
0.0
 40
2.000000025774982
100
AcDbArc
 50
90.0
 51
180.0
  0
ARC
  5
147
330
1F
100
AcDbEntity
  8
通り芯
  6
Continuous
 62
     3
370
     9
100
AcDbCircle
 10
-93.59988753860054
 20
80.22972478093345
 30
0.0
 40
2.000000025774982
100
AcDbArc
 50
90.0
 51
180.0
  0
ARC
  5
148
330
1F
100
AcDbEntity
  8
通り芯
  6
Continuous
 62
     3
370
     9
100
AcDbCircle
 10
-77.09990733378632
 20
80.22972478093345
 30
0.0
 40
2.000000025774982
100
AcDbArc
 50
0.0
 51
90.0
  0
ARC
  5
149
330
1F
100
AcDbEntity
  8
通り芯
  6
Continuous
 62
     3
370
     9
100
AcDbCircle
 10
-77.09990733378632
 20
-25.77026614627312
 30
0.0
 40
2.000000025774982
100
AcDbArc
 50
270.0
 51
0.0
  0
ARC
  5
14A
330
1F
100
AcDbEntity
  8
通り芯
  6
Continuous
 62
     3
370
     9
100
AcDbCircle
 10
-93.59988753860054
 20
-25.77026614627312
 30
0.0
 40
2.000000025774982
100
AcDbArc
 50
180.0
 51
270.0
  0
ARC
  5
14B
330
1F
100
AcDbEntity
  8
通り芯
  6
Continuous
 62
     3
370
     9
100
AcDbCircle
 10
-57.09989083779811
 20
-25.77026614627312
 30
0.0
 40
2.000000025774982
100
AcDbArc
 50
180.0
 51
270.0
  0
ARC
  5
14C
330
1F
100
AcDbEntity
  8
通り芯
  6
Continuous
 62
     3
370
     9
100
AcDbCircle
 10
-40.59983640103718
 20
-25.77026614627312
 30
0.0
 40
2.000000025774982
100
AcDbArc
 50
270.0
 51
0.0
  0
ARC
  5
14D
330
1F
100
AcDbEntity
  8
通り芯
  6
Continuous
 62
     3
370
     9
100
AcDbCircle
 10
-40.59983640103718
 20
80.22972478093345
 30
0.0
 40
2.000000025774982
100
AcDbArc
 50
0.0
 51
90.0
  0
ARC
  5
14E
330
1F
100
AcDbEntity
  8
通り芯
  6
Continuous
 62
     3
370
     9
100
AcDbCircle
 10
-57.09989083779811
 20
80.22972478093345
 30
0.0
 40
2.000000025774982
100
AcDbArc
 50
90.0
 51
180.0
  0
ARC
  5
14F
330
1F
100
AcDbEntity
  8
通り芯
  6
Continuous
 62
     3
370
     9
100
AcDbCircle
 10
-20.59989413699586
 20
80.22972478093345
 30
0.0
 40
2.000000025774982
100
AcDbArc
 50
90.0
 51
180.0
  0
ARC
  5
150
330
1F
100
AcDbEntity
  8
通り芯
  6
Continuous
 62
     3
370
     9
100
AcDbCircle
 10
-4.099839700234753
 20
80.22972478093345
 30
0.0
 40
2.000000025774982
100
AcDbArc
 50
0.0
 51
90.0
  0
ARC
  5
151
330
1F
100
AcDbEntity
  8
通り芯
  6
Continuous
 62
     3
370
     9
100
AcDbCircle
 10
-4.099839700234753
 20
-25.77026614627312
 30
0.0
 40
2.000000025774982
100
AcDbArc
 50
270.0
 51
0.0
  0
ARC
  5
152
330
1F
100
AcDbEntity
  8
通り芯
  6
Continuous
 62
     3
370
     9
100
AcDbCircle
 10
-20.59989413699586
 20
-25.77026614627312
 30
0.0
 40
2.000000025774982
100
AcDbArc
 50
180.0
 51
270.0
  0
ARC
  5
153
330
1F
100
AcDbEntity
  8
通り芯
  6
Continuous
 62
     3
370
     9
100
AcDbCircle
 10
15.90010256380657
 20
-25.77026614627312
 30
0.0
 40
2.000000025774982
100
AcDbArc
 50
180.0
 51
270.0
  0
ARC
  5
154
330
1F
100
AcDbEntity
  8
通り芯
  6
Continuous
 62
     3
370
     9
100
AcDbCircle
 10
32.40008276862071
 20
-25.77026614627312
 30
0.0
 40
2.000000025774982
100
AcDbArc
 50
270.0
 51
0.0
  0
ARC
  5
155
330
1F
100
AcDbEntity
  8
通り芯
  6
Continuous
 62
     3
370
     9
100
AcDbCircle
 10
32.40008276862071
 20
80.22972478093345
 30
0.0
 40
2.000000025774982
100
AcDbArc
 50
0.0
 51
90.0
  0
ARC
  5
156
330
1F
100
AcDbEntity
  8
通り芯
  6
Continuous
 62
     3
370
     9
100
AcDbCircle
 10
15.90010256380657
 20
80.22972478093345
 30
0.0
 40
2.000000025774982
100
AcDbArc
 50
90.0
 51
180.0
  0
ARC
  5
157
330
1F
100
AcDbEntity
  8
通り芯
  6
Continuous
 62
     3
370
     9
100
AcDbCircle
 10
52.400099264609
 20
80.22972478093345
 30
0.0
 40
2.000000025774982
100
AcDbArc
 50
90.0
 51
180.0
  0
ARC
  5
158
330
1F
100
AcDbEntity
  8
通り芯
  6
Continuous
 62
     3
370
     9
100
AcDbCircle
 10
68.90007946942313
 20
80.22972478093345
 30
0.0
 40
2.000000025774982
100
AcDbArc
 50
0.0
 51
90.0
  0
ARC
  5
159
330
1F
100
AcDbEntity
  8
通り芯
  6
Continuous
 62
     3
370
     9
100
AcDbCircle
 10
68.90007946942313
 20
-25.77026614627312
 30
0.0
 40
2.000000025774982
100
AcDbArc
 50
270.0
 51
0.0
  0
ARC
  5
15A
330
1F
100
AcDbEntity
  8
通り芯
  6
Continuous
 62
     3
370
     9
100
AcDbCircle
 10
52.400099264609
 20
-25.77026614627312
 30
0.0
 40
2.000000025774982
100
AcDbArc
 50
180.0
 51
270.0
  0
ARC
  5
15B
330
1F
100
AcDbEntity
  8
通り芯
  6
Continuous
 62
     3
370
     9
100
AcDbCircle
 10
88.90009596541125
 20
-25.77026614627312
 30
0.0
 40
2.000000025774982
100
AcDbArc
 50
180.0
 51
270.0
  0
ARC
  5
15C
330
1F
100
AcDbEntity
  8
通り芯
  6
Continuous
 62
     3
370
     9
100
AcDbCircle
 10
105.4000761702256
 20
-25.77026614627312
 30
0.0
 40
2.000000025774982
100
AcDbArc
 50
270.0
 51
0.0
  0
ARC
  5
15D
330
1F
100
AcDbEntity
  8
通り芯
  6
Continuous
 62
     3
370
     9
100
AcDbCircle
 10
105.4000761702256
 20
80.22972478093345
 30
0.0
 40
2.000000025774982
100
AcDbArc
 50
0.0
 51
90.0
  0
ARC
  5
15E
330
1F
100
AcDbEntity
  8
通り芯
  6
Continuous
 62
     3
370
     9
100
AcDbCircle
 10
88.90009596541125
 20
80.22972478093345
 30
0.0
 40
2.000000025774982
100
AcDbArc
 50
90.0
 51
180.0
  0
ARC
  5
15F
330
1F
100
AcDbEntity
  8
通り芯
  6
Continuous
 62
     3
370
     9
100
AcDbCircle
 10
-332.5998842394029
 20
80.22972478093345
 30
0.0
 40
2.000000025774982
100
AcDbArc
 50
7.016464233398438
 51
90.0
  0
ARC
  5
160
330
1F
100
AcDbEntity
  8
通り芯
  6
Continuous
 62
     3
370
     9
100
AcDbCircle
 10
-349.0999015601905
 20
80.22972478093345
 30
0.0
 40
2.000000025774982
100
AcDbArc
 50
90.0
 51
180.0
  0
ARC
  5
161
330
1F
100
AcDbEntity
  8
通り芯
  6
Continuous
 62
     3
370
     9
100
AcDbCircle
 10
-349.0999015601905
 20
-25.77026614627312
 30
0.0
 40
2.000000025774982
100
AcDbArc
 50
180.0
 51
270.0
  0
ARC
  5
162
330
1F
100
AcDbEntity
  8
通り芯
  6
Continuous
 62
     3
370
     9
100
AcDbCircle
 10
-332.5998842394029
 20
-25.77026614627312
 30
0.0
 40
2.000000025774982
100
AcDbArc
 50
270.0
 51
0.0
  0
ARC
  5
163
330
1F
100
AcDbEntity
  8
通り芯
  6
Continuous
 62
     3
370
     9
100
AcDbCircle
 10
-296.0998875386005
 20
-25.77026614627312
 30
0.0
 40
2.000000025774982
100
AcDbArc
 50
270.0
 51
0.0
  0
ARC
  5
164
330
1F
100
AcDbEntity
  8
通り芯
  6
Continuous
 62
     3
370
     9
100
AcDbCircle
 10
-312.5999048593881
 20
-25.77026614627312
 30
0.0
 40
2.000000025774982
100
AcDbArc
 50
180.0
 51
270.0
  0
ARC
  5
165
330
1F
100
AcDbEntity
  8
通り芯
  6
Continuous
 62
     3
370
     9
100
AcDbCircle
 10
-312.5999048593881
 20
80.22972478093345
 30
0.0
 40
2.000000025774982
100
AcDbArc
 50
90.0
 51
180.0
  0
ARC
  5
166
330
1F
100
AcDbEntity
  8
通り芯
  6
Continuous
 62
     3
370
     9
100
AcDbCircle
 10
-296.0998875386005
 20
80.22972478093345
 30
0.0
 40
2.000000025774982
100
AcDbArc
 50
7.016464233398438
 51
90.0
  0
ARC
  5
167
330
1F
100
AcDbEntity
  8
通り芯
  6
Continuous
 62
     3
370
     9
100
AcDbCircle
 10
-259.5998908377981
 20
80.22972478093345
 30
0.0
 40
2.000000025774982
100
AcDbArc
 50
7.016464233398438
 51
90.0
  0
ARC
  5
168
330
1F
100
AcDbEntity
  8
通り芯
  6
Continuous
 62
     3
370
     9
100
AcDbCircle
 10
-276.0998710426124
 20
80.22972478093345
 30
0.0
 40
2.000000025774982
100
AcDbArc
 50
90.0
 51
180.0
  0
ARC
  5
169
330
1F
100
AcDbEntity
  8
通り芯
  6
Continuous
 62
     3
370
     9
100
AcDbCircle
 10
-276.0998710426124
 20
-25.77026614627312
 30
0.0
 40
2.000000025774982
100
AcDbArc
 50
180.0
 51
270.0
  0
ARC
  5
16A
330
1F
100
AcDbEntity
  8
通り芯
  6
Continuous
 62
     3
370
     9
100
AcDbCircle
 10
-259.5998908377981
 20
-25.77026614627312
 30
0.0
 40
2.000000025774982
100
AcDbArc
 50
270.0
 51
0.0
  0
ARC
  5
16B
330
1F
100
AcDbEntity
  8
通り芯
  6
Continuous
 62
     3
370
     9
100
AcDbCircle
 10
-223.0998941369958
 20
-25.77026614627312
 30
0.0
 40
2.000000025774982
100
AcDbArc
 50
270.0
 51
0.0
  0
ARC
  5
16C
330
1F
100
AcDbEntity
  8
通り芯
  6
Continuous
 62
     3
370
     9
100
AcDbCircle
 10
-239.59987434181
 20
-25.77026614627312
 30
0.0
 40
2.000000025774982
100
AcDbArc
 50
180.0
 51
270.0
  0
ARC
  5
16D
330
1F
100
AcDbEntity
  8
通り芯
  6
Continuous
 62
     3
370
     9
100
AcDbCircle
 10
-239.59987434181
 20
80.22972478093345
 30
0.0
 40
2.000000025774982
100
AcDbArc
 50
90.0
 51
180.0
  0
ARC
  5
16E
330
1F
100
AcDbEntity
  8
通り芯
  6
Continuous
 62
     3
370
     9
100
AcDbCircle
 10
-223.0998941369958
 20
80.22972478093345
 30
0.0
 40
2.000000025774982
100
AcDbArc
 50
7.016464233398438
 51
90.0
  0
ARC
  5
16F
330
1F
100
AcDbEntity
  8
通り芯
  6
Continuous
 62
     3
370
     9
100
AcDbCircle
 10
-186.5998974361934
 20
80.22972478093345
 30
0.0
 40
2.000000025774982
100
AcDbArc
 50
7.016464233398438
 51
90.0
  0
ARC
  5
170
330
1F
100
AcDbEntity
  8
通り芯
  6
Continuous
 62
     3
370
     9
100
AcDbCircle
 10
-203.0998776410076
 20
80.22972478093345
 30
0.0
 40
2.000000025774982
100
AcDbArc
 50
90.0
 51
180.0
  0
ARC
  5
171
330
1F
100
AcDbEntity
  8
通り芯
  6
Continuous
 62
     3
370
     9
100
AcDbCircle
 10
-203.0998776410076
 20
-25.77026614627312
 30
0.0
 40
2.000000025774982
100
AcDbArc
 50
180.0
 51
270.0
  0
ARC
  5
172
330
1F
100
AcDbEntity
  8
通り芯
  6
Continuous
 62
     3
370
     9
100
AcDbCircle
 10
-186.5998974361934
 20
-25.77026614627312
 30
0.0
 40
2.000000025774982
100
AcDbArc
 50
270.0
 51
0.0
  0
ARC
  5
173
330
1F
100
AcDbEntity
  8
通り芯
  6
Continuous
 62
     3
370
     9
100
AcDbCircle
 10
-150.099900735391
 20
-25.77026614627312
 30
0.0
 40
2.000000025774982
100
AcDbArc
 50
270.0
 51
0.0
  0
ARC
  5
174
330
1F
100
AcDbEntity
  8
通り芯
  6
Continuous
 62
     3
370
     9
100
AcDbCircle
 10
-166.5998809402052
 20
-25.77026614627312
 30
0.0
 40
2.000000025774982
100
AcDbArc
 50
180.0
 51
270.0
  0
ARC
  5
175
330
1F
100
AcDbEntity
  8
通り芯
  6
Continuous
 62
     3
370
     9
100
AcDbCircle
 10
-166.5998809402052
 20
80.22972478093345
 30
0.0
 40
2.000000025774982
100
AcDbArc
 50
90.0
 51
180.0
  0
ARC
  5
176
330
1F
100
AcDbEntity
  8
通り芯
  6
Continuous
 62
     3
370
     9
100
AcDbCircle
 10
-150.099900735391
 20
80.22972478093345
 30
0.0
 40
2.000000025774982
100
AcDbArc
 50
7.016464233398438
 51
90.0
  0
ARC
  5
177
330
1F
100
AcDbEntity
  8
通り芯
  6
Continuous
 62
     3
370
     9
100
AcDbCircle
 10
-150.099900735391
 20
206.2296950881547
 30
0.0
 40
2.000000025774982
100
AcDbArc
 50
7.016464233398438
 51
90.0
  0
ARC
  5
178
330
1F
100
AcDbEntity
  8
通り芯
  6
Continuous
 62
     3
370
     9
100
AcDbCircle
 10
-166.5998809402052
 20
206.2296950881547
 30
0.0
 40
2.000000025774982
100
AcDbArc
 50
90.0
 51
180.0
  0
ARC
  5
179
330
1F
100
AcDbEntity
  8
通り芯
  6
Continuous
 62
     3
370
     9
100
AcDbCircle
 10
-166.5998809402052
 20
100.2297412769216
 30
0.0
 40
2.000000025774982
100
AcDbArc
 50
180.0
 51
270.0
  0
ARC
  5
17A
330
1F
100
AcDbEntity
  8
通り芯
  6
Continuous
 62
     3
370
     9
100
AcDbCircle
 10
-150.099900735391
 20
100.2297412769216
 30
0.0
 40
2.000000025774982
100
AcDbArc
 50
270.0
 51
0.0
  0
ARC
  5
17B
330
1F
100
AcDbEntity
  8
通り芯
  6
Continuous
 62
     3
370
     9
100
AcDbCircle
 10
-186.5998974361934
 20
100.2297412769216
 30
0.0
 40
2.000000025774982
100
AcDbArc
 50
270.0
 51
0.0
  0
ARC
  5
17C
330
1F
100
AcDbEntity
  8
通り芯
  6
Continuous
 62
     3
370
     9
100
AcDbCircle
 10
-203.0998776410076
 20
100.2297412769216
 30
0.0
 40
2.000000025774982
100
AcDbArc
 50
180.0
 51
270.0
  0
ARC
  5
17D
330
1F
100
AcDbEntity
  8
通り芯
  6
Continuous
 62
     3
370
     9
100
AcDbCircle
 10
-203.0998776410076
 20
206.2296950881547
 30
0.0
 40
2.000000025774982
100
AcDbArc
 50
90.0
 51
180.0
  0
ARC
  5
17E
330
1F
100
AcDbEntity
  8
通り芯
  6
Continuous
 62
     3
370
     9
100
AcDbCircle
 10
-186.5998974361934
 20
206.2296950881547
 30
0.0
 40
2.000000025774982
100
AcDbArc
 50
7.016464233398438
 51
90.0
  0
ARC
  5
17F
330
1F
100
AcDbEntity
  8
通り芯
  6
Continuous
 62
     3
370
     9
100
AcDbCircle
 10
-223.0998941369958
 20
206.2296950881547
 30
0.0
 40
2.000000025774982
100
AcDbArc
 50
7.016464233398438
 51
90.0
  0
ARC
  5
180
330
1F
100
AcDbEntity
  8
通り芯
  6
Continuous
 62
     3
370
     9
100
AcDbCircle
 10
-239.59987434181
 20
206.2296950881547
 30
0.0
 40
2.000000025774982
100
AcDbArc
 50
90.0
 51
180.0
  0
ARC
  5
181
330
1F
100
AcDbEntity
  8
通り芯
  6
Continuous
 62
     3
370
     9
100
AcDbCircle
 10
-239.59987434181
 20
100.2297412769216
 30
0.0
 40
2.000000025774982
100
AcDbArc
 50
180.0
 51
270.0
  0
ARC
  5
182
330
1F
100
AcDbEntity
  8
通り芯
  6
Continuous
 62
     3
370
     9
100
AcDbCircle
 10
-223.0998941369958
 20
100.2297412769216
 30
0.0
 40
2.000000025774982
100
AcDbArc
 50
270.0
 51
0.0
  0
ARC
  5
183
330
1F
100
AcDbEntity
  8
通り芯
  6
Continuous
 62
     3
370
     9
100
AcDbCircle
 10
-259.5998908377981
 20
100.2297412769216
 30
0.0
 40
2.000000025774982
100
AcDbArc
 50
270.0
 51
0.0
  0
ARC
  5
184
330
1F
100
AcDbEntity
  8
通り芯
  6
Continuous
 62
     3
370
     9
100
AcDbCircle
 10
-276.0998710426124
 20
100.2297412769216
 30
0.0
 40
2.000000025774982
100
AcDbArc
 50
180.0
 51
270.0
  0
ARC
  5
185
330
1F
100
AcDbEntity
  8
通り芯
  6
Continuous
 62
     3
370
     9
100
AcDbCircle
 10
-276.0998710426124
 20
206.2296950881547
 30
0.0
 40
2.000000025774982
100
AcDbArc
 50
90.0
 51
180.0
  0
ARC
  5
186
330
1F
100
AcDbEntity
  8
通り芯
  6
Continuous
 62
     3
370
     9
100
AcDbCircle
 10
-259.5998908377981
 20
206.2296950881547
 30
0.0
 40
2.000000025774982
100
AcDbArc
 50
7.016464233398438
 51
90.0
  0
ARC
  5
187
330
1F
100
AcDbEntity
  8
通り芯
  6
Continuous
 62
     3
370
     9
100
AcDbCircle
 10
-296.0998875386005
 20
206.2296950881547
 30
0.0
 40
2.000000025774982
100
AcDbArc
 50
7.016464233398438
 51
90.0
  0
ARC
  5
188
330
1F
100
AcDbEntity
  8
通り芯
  6
Continuous
 62
     3
370
     9
100
AcDbCircle
 10
-312.5999048593881
 20
206.2296950881547
 30
0.0
 40
2.000000025774982
100
AcDbArc
 50
90.0
 51
180.0
  0
ARC
  5
189
330
1F
100
AcDbEntity
  8
通り芯
  6
Continuous
 62
     3
370
     9
100
AcDbCircle
 10
-312.5999048593881
 20
100.2297412769216
 30
0.0
 40
2.000000025774982
100
AcDbArc
 50
180.0
 51
270.0
  0
ARC
  5
18A
330
1F
100
AcDbEntity
  8
通り芯
  6
Continuous
 62
     3
370
     9
100
AcDbCircle
 10
-296.0998875386005
 20
100.2297412769216
 30
0.0
 40
2.000000025774982
100
AcDbArc
 50
270.0
 51
0.0
  0
ARC
  5
18B
330
1F
100
AcDbEntity
  8
通り芯
  6
Continuous
 62
     3
370
     9
100
AcDbCircle
 10
-332.5998842394029
 20
100.2297412769216
 30
0.0
 40
2.000000025774982
100
AcDbArc
 50
270.0
 51
0.0
  0
ARC
  5
18C
330
1F
100
AcDbEntity
  8
通り芯
  6
Continuous
 62
     3
370
     9
100
AcDbCircle
 10
-349.0999015601905
 20
100.2297412769216
 30
0.0
 40
2.000000025774982
100
AcDbArc
 50
180.0
 51
270.0
  0
ARC
  5
18D
330
1F
100
AcDbEntity
  8
通り芯
  6
Continuous
 62
     3
370
     9
100
AcDbCircle
 10
-349.0999015601905
 20
206.2296950881547
 30
0.0
 40
2.000000025774982
100
AcDbArc
 50
90.0
 51
180.0
  0
ARC
  5
18E
330
1F
100
AcDbEntity
  8
通り芯
  6
Continuous
 62
     3
370
     9
100
AcDbCircle
 10
-332.5998842394029
 20
206.2296950881547
 30
0.0
 40
2.000000025774982
100
AcDbArc
 50
7.016464233398438
 51
90.0
  0
ARC
  5
18F
330
1F
100
AcDbEntity
  8
通り芯
  6
Continuous
 62
     3
370
     9
100
AcDbCircle
 10
-332.5998842394029
 20
332.2297396273227
 30
0.0
 40
2.000000025774982
100
AcDbArc
 50
7.016464233398438
 51
90.0
  0
ARC
  5
190
330
1F
100
AcDbEntity
  8
通り芯
  6
Continuous
 62
     3
370
     9
100
AcDbCircle
 10
-349.0999015601905
 20
332.2297396273227
 30
0.0
 40
2.000000025774982
100
AcDbArc
 50
90.0
 51
180.0
  0
ARC
  5
191
330
1F
100
AcDbEntity
  8
通り芯
  6
Continuous
 62
     3
370
     9
100
AcDbCircle
 10
-349.0999015601905
 20
226.2297115841429
 30
0.0
 40
2.000000025774982
100
AcDbArc
 50
180.0
 51
270.0
  0
ARC
  5
192
330
1F
100
AcDbEntity
  8
通り芯
  6
Continuous
 62
     3
370
     9
100
AcDbCircle
 10
-332.5998842394029
 20
226.2297115841429
 30
0.0
 40
2.000000025774982
100
AcDbArc
 50
270.0
 51
0.0
  0
ARC
  5
193
330
1F
100
AcDbEntity
  8
通り芯
  6
Continuous
 62
     3
370
     9
100
AcDbCircle
 10
-296.0998875386005
 20
226.2297115841429
 30
0.0
 40
2.000000025774982
100
AcDbArc
 50
270.0
 51
0.0
  0
ARC
  5
194
330
1F
100
AcDbEntity
  8
通り芯
  6
Continuous
 62
     3
370
     9
100
AcDbCircle
 10
-312.5999048593881
 20
226.2297115841429
 30
0.0
 40
2.000000025774982
100
AcDbArc
 50
180.0
 51
270.0
  0
ARC
  5
195
330
1F
100
AcDbEntity
  8
通り芯
  6
Continuous
 62
     3
370
     9
100
AcDbCircle
 10
-312.5999048593881
 20
332.2297396273227
 30
0.0
 40
2.000000025774982
100
AcDbArc
 50
90.0
 51
180.0
  0
ARC
  5
196
330
1F
100
AcDbEntity
  8
通り芯
  6
Continuous
 62
     3
370
     9
100
AcDbCircle
 10
-296.0998875386005
 20
332.2297396273227
 30
0.0
 40
2.000000025774982
100
AcDbArc
 50
7.016464233398438
 51
90.0
  0
ARC
  5
197
330
1F
100
AcDbEntity
  8
通り芯
  6
Continuous
 62
     3
370
     9
100
AcDbCircle
 10
-259.5998908377981
 20
332.2297396273227
 30
0.0
 40
2.000000025774982
100
AcDbArc
 50
7.016464233398438
 51
90.0
  0
ARC
  5
198
330
1F
100
AcDbEntity
  8
通り芯
  6
Continuous
 62
     3
370
     9
100
AcDbCircle
 10
-276.0998710426124
 20
332.2297396273227
 30
0.0
 40
2.000000025774982
100
AcDbArc
 50
90.0
 51
180.0
  0
ARC
  5
199
330
1F
100
AcDbEntity
  8
通り芯
  6
Continuous
 62
     3
370
     9
100
AcDbCircle
 10
-276.0998710426124
 20
226.2297115841429
 30
0.0
 40
2.000000025774982
100
AcDbArc
 50
180.0
 51
270.0
  0
ARC
  5
19A
330
1F
100
AcDbEntity
  8
通り芯
  6
Continuous
 62
     3
370
     9
100
AcDbCircle
 10
-259.5998908377981
 20
226.2297115841429
 30
0.0
 40
2.000000025774982
100
AcDbArc
 50
270.0
 51
0.0
  0
ARC
  5
19B
330
1F
100
AcDbEntity
  8
通り芯
  6
Continuous
 62
     3
370
     9
100
AcDbCircle
 10
-223.0998941369958
 20
226.2297115841429
 30
0.0
 40
2.000000025774982
100
AcDbArc
 50
270.0
 51
0.0
  0
ARC
  5
19C
330
1F
100
AcDbEntity
  8
通り芯
  6
Continuous
 62
     3
370
     9
100
AcDbCircle
 10
-239.59987434181
 20
226.2297115841429
 30
0.0
 40
2.000000025774982
100
AcDbArc
 50
180.0
 51
270.0
  0
ARC
  5
19D
330
1F
100
AcDbEntity
  8
通り芯
  6
Continuous
 62
     3
370
     9
100
AcDbCircle
 10
-239.59987434181
 20
332.2297396273227
 30
0.0
 40
2.000000025774982
100
AcDbArc
 50
90.0
 51
180.0
  0
ARC
  5
19E
330
1F
100
AcDbEntity
  8
通り芯
  6
Continuous
 62
     3
370
     9
100
AcDbCircle
 10
-223.0998941369958
 20
332.2297396273227
 30
0.0
 40
2.000000025774982
100
AcDbArc
 50
7.016464233398438
 51
90.0
  0
ARC
  5
19F
330
1F
100
AcDbEntity
  8
通り芯
  6
Continuous
 62
     3
370
     9
100
AcDbCircle
 10
-186.5998974361934
 20
332.2297396273227
 30
0.0
 40
2.000000025774982
100
AcDbArc
 50
7.016464233398438
 51
90.0
  0
ARC
  5
1A0
330
1F
100
AcDbEntity
  8
通り芯
  6
Continuous
 62
     3
370
     9
100
AcDbCircle
 10
-203.0998776410076
 20
332.2297396273227
 30
0.0
 40
2.000000025774982
100
AcDbArc
 50
90.0
 51
180.0
  0
ARC
  5
1A1
330
1F
100
AcDbEntity
  8
通り芯
  6
Continuous
 62
     3
370
     9
100
AcDbCircle
 10
-203.0998776410076
 20
226.2297115841429
 30
0.0
 40
2.000000025774982
100
AcDbArc
 50
180.0
 51
270.0
  0
ARC
  5
1A2
330
1F
100
AcDbEntity
  8
通り芯
  6
Continuous
 62
     3
370
     9
100
AcDbCircle
 10
-186.5998974361934
 20
226.2297115841429
 30
0.0
 40
2.000000025774982
100
AcDbArc
 50
270.0
 51
0.0
  0
ARC
  5
1A3
330
1F
100
AcDbEntity
  8
通り芯
  6
Continuous
 62
     3
370
     9
100
AcDbCircle
 10
-150.099900735391
 20
226.2297115841429
 30
0.0
 40
2.000000025774982
100
AcDbArc
 50
270.0
 51
0.0
  0
ARC
  5
1A4
330
1F
100
AcDbEntity
  8
通り芯
  6
Continuous
 62
     3
370
     9
100
AcDbCircle
 10
-166.5998809402052
 20
226.2297115841429
 30
0.0
 40
2.000000025774982
100
AcDbArc
 50
180.0
 51
270.0
  0
ARC
  5
1A5
330
1F
100
AcDbEntity
  8
通り芯
  6
Continuous
 62
     3
370
     9
100
AcDbCircle
 10
-166.5998809402052
 20
332.2297396273227
 30
0.0
 40
2.000000025774982
100
AcDbArc
 50
90.0
 51
180.0
  0
ARC
  5
1A6
330
1F
100
AcDbEntity
  8
通り芯
  6
Continuous
 62
     3
370
     9
100
AcDbCircle
 10
-150.099900735391
 20
332.2297396273227
 30
0.0
 40
2.000000025774982
100
AcDbArc
 50
7.016464233398438
 51
90.0
  0
ARC
  5
1A7
330
1F
100
AcDbEntity
  8
通り芯
  6
Continuous
 62
     3
370
     9
100
AcDbCircle
 10
-113.5999040345887
 20
332.2297396273227
 30
0.0
 40
2.000000025774982
100
AcDbArc
 50
7.016464233398438
 51
90.0
  0
ARC
  5
1A8
330
1F
100
AcDbEntity
  8
通り芯
  6
Continuous
 62
     3
370
     9
100
AcDbCircle
 10
-130.0998842394029
 20
332.2297396273227
 30
0.0
 40
2.000000025774982
100
AcDbArc
 50
90.0
 51
180.0
  0
ARC
  5
1A9
330
1F
100
AcDbEntity
  8
通り芯
  6
Continuous
 62
     3
370
     9
100
AcDbCircle
 10
-130.0998842394029
 20
226.2297115841429
 30
0.0
 40
2.000000025774982
100
AcDbArc
 50
180.0
 51
270.0
  0
ARC
  5
1AA
330
1F
100
AcDbEntity
  8
通り芯
  6
Continuous
 62
     3
370
     9
100
AcDbCircle
 10
-113.5999040345887
 20
226.2297115841429
 30
0.0
 40
2.000000025774982
100
AcDbArc
 50
270.0
 51
0.0
  0
ARC
  5
1AB
330
1F
100
AcDbEntity
  8
通り芯
  6
Continuous
 62
     3
370
     9
100
AcDbCircle
 10
-113.5999040345887
 20
100.2297412769216
 30
0.0
 40
2.000000025774982
100
AcDbArc
 50
270.0
 51
0.0
  0
ARC
  5
1AC
330
1F
100
AcDbEntity
  8
通り芯
  6
Continuous
 62
     3
370
     9
100
AcDbCircle
 10
-130.0998842394029
 20
100.2297412769216
 30
0.0
 40
2.000000025774982
100
AcDbArc
 50
180.0
 51
270.0
  0
ARC
  5
1AD
330
1F
100
AcDbEntity
  8
通り芯
  6
Continuous
 62
     3
370
     9
100
AcDbCircle
 10
-130.0998842394029
 20
206.2296950881547
 30
0.0
 40
2.000000025774982
100
AcDbArc
 50
90.0
 51
180.0
  0
ARC
  5
1AE
330
1F
100
AcDbEntity
  8
通り芯
  6
Continuous
 62
     3
370
     9
100
AcDbCircle
 10
-113.5999040345887
 20
206.2296950881547
 30
0.0
 40
2.000000025774982
100
AcDbArc
 50
7.016464233398438
 51
90.0
  0
ARC
  5
1AF
330
1F
100
AcDbEntity
  8
通り芯
  6
Continuous
 62
     3
370
     9
100
AcDbCircle
 10
-113.5999040345887
 20
80.22972478093345
 30
0.0
 40
2.000000025774982
100
AcDbArc
 50
7.016464233398438
 51
90.0
  0
ARC
  5
1B0
330
1F
100
AcDbEntity
  8
通り芯
  6
Continuous
 62
     3
370
     9
100
AcDbCircle
 10
-130.0998842394029
 20
80.22972478093345
 30
0.0
 40
2.000000025774982
100
AcDbArc
 50
90.0
 51
180.0
  0
ARC
  5
1B1
330
1F
100
AcDbEntity
  8
通り芯
  6
Continuous
 62
     3
370
     9
100
AcDbCircle
 10
-130.0998842394029
 20
-25.77026614627312
 30
0.0
 40
2.000000025774982
100
AcDbArc
 50
180.0
 51
270.0
  0
ARC
  5
1B2
330
1F
100
AcDbEntity
  8
通り芯
  6
Continuous
 62
     3
370
     9
100
AcDbCircle
 10
-113.5999040345887
 20
-25.77026614627312
 30
0.0
 40
2.000000025774982
100
AcDbArc
 50
270.0
 51
0.0
  0
LINE
  5
1B3
330
1F
100
AcDbEntity
  8
0-F
  6
Continuous
 62
     7
370
     9
100
AcDbLine
 10
-95.5998817650046
 20
-30.77027027027015
 30
0.0
 11
-95.5998817650046
 21
-92.67024932036506
 31
0.0
  0
LINE
  5
1B4
330
1F
100
AcDbEntity
  8
0-F
  6
Continuous
 62
     7
370
     9
100
AcDbLine
 10
-111.5998726922112
 20
-30.77027027027015
 30
0.0
 11
-111.5998726922112
 21
-92.67024932036506
 31
0.0
  0
LINE
  5
1B5
330
1F
100
AcDbEntity
  8
0-F
  6
Continuous
 62
     7
370
     9
100
AcDbLine
 10
-111.5998726922112
 20
-91.77026119747663
 30
0.0
 11
-120.5228867401947
 21
-90.59554063951632
 31
0.0
  0
LINE
  5
1B6
330
1F
100
AcDbEntity
  8
0-F
  6
Continuous
 62
     7
370
     9
100
AcDbLine
 10
-111.5998726922112
 20
-91.77026119747663
 30
0.0
 11
-120.5228867401947
 21
-92.94498175543694
 31
0.0
  0
LINE
  5
1B7
330
1F
100
AcDbEntity
  8
0-F
  6
Continuous
 62
     7
370
     9
100
AcDbLine
 10
-75.09987599140874
 20
-30.77027027027015
 30
0.0
 11
-75.09987599140874
 21
-92.67024932036506
 31
0.0
  0
LINE
  5
1B8
330
1F
100
AcDbEntity
  8
0-F
  6
Continuous
 62
     7
370
     9
100
AcDbLine
 10
-75.09987599140874
 20
-91.77026119747663
 30
0.0
 11
-66.17689905939875
 21
-90.59554063951632
 31
0.0
  0
LINE
  5
1B9
330
1F
100
AcDbEntity
  8
0-F
  6
Continuous
 62
     7
370
     9
100
AcDbLine
 10
-75.09987599140874
 20
-91.77026119747663
 30
0.0
 11
-66.17689905939875
 21
-92.94498175543694
 31
0.0
  0
LINE
  5
1BA
330
1F
100
AcDbEntity
  8
0-F
  6
Continuous
 62
     7
370
     9
100
AcDbLine
 10
-37.99837782576273
 20
-91.77026119747663
 30
0.0
 11
-125.7395739168734
 21
-91.77026119747663
 31
0.0
  0
LINE
  5
1BB
330
1F
100
AcDbEntity
  8
0-F
  6
Continuous
 62
     7
370
     9
100
AcDbLine
 10
128.1500151350691
 20
-49.77027109506952
 30
0.0
 11
128.1500151350691
 21
-122.6702369483741
 31
0.0
  0
LINE
  5
1BC
330
1F
100
AcDbEntity
  8
0-F
  6
Continuous
 62
     7
370
     9
100
AcDbLine
 10
128.1500151350691
 20
-121.7702488254855
 30
0.0
 11
119.2270382030591
 21
-120.5955282675251
 31
0.0
  0
LINE
  5
1BD
330
1F
100
AcDbEntity
  8
0-F
  6
Continuous
 62
     7
370
     9
100
AcDbLine
 10
128.1500151350691
 20
-121.7702488254855
 30
0.0
 11
119.2270382030591
 21
-122.9449693834457
 31
0.0
  0
LINE
  5
1BE
330
1F
100
AcDbEntity
  8
0-F
  6
Continuous
 62
     7
370
     9
100
AcDbLine
 10
308.1500893670162
 20
-91.77026119747663
 30
0.0
 11
317.0730662990262
 21
-90.59554063951632
 31
0.0
  0
LINE
  5
1BF
330
1F
100
AcDbEntity
  8
0-F
  6
Continuous
 62
     7
370
     9
100
AcDbLine
 10
308.1500893670162
 20
-91.77026119747663
 30
0.0
 11
317.0730662990262
 21
-92.94498175543694
 31
0.0
  0
LINE
  5
1C0
330
1F
100
AcDbEntity
  8
0-F
  6
Continuous
 62
     7
370
     9
100
AcDbLine
 10
293.1501141109984
 20
-91.77026119747663
 30
0.0
 11
284.2271371789881
 21
-90.59554063951632
 31
0.0
  0
LINE
  5
1C1
330
1F
100
AcDbEntity
  8
0-F
  6
Continuous
 62
     7
370
     9
100
AcDbLine
 10
293.1501141109984
 20
-91.77026119747663
 30
0.0
 11
284.2271371789881
 21
-92.94498175543694
 31
0.0
  0
LINE
  5
1C2
330
1F
100
AcDbEntity
  8
0-F
  6
Continuous
 62
     7
370
     9
100
AcDbLine
 10
313.1501306069865
 20
-121.7702488254855
 30
0.0
 11
322.0731075389969
 21
-120.5955282675251
 31
0.0
  0
LINE
  5
1C3
330
1F
100
AcDbEntity
  8
0-F
  6
Continuous
 62
     7
370
     9
100
AcDbLine
 10
313.1501306069865
 20
-121.7702488254855
 30
0.0
 11
322.0731075389969
 21
-122.9449693834457
 31
0.0
  0
LINE
  5
1C4
330
1F
100
AcDbEntity
  8
0-F
  6
Continuous
 62
     7
370
     9
100
AcDbLine
 10
293.1501141109984
 20
-121.7702488254855
 30
0.0
 11
284.2271371789881
 21
-120.5955282675251
 31
0.0
  0
LINE
  5
1C5
330
1F
100
AcDbEntity
  8
0-F
  6
Continuous
 62
     7
370
     9
100
AcDbLine
 10
293.1501141109984
 20
-121.7702488254855
 30
0.0
 11
284.2271371789881
 21
-122.9449693834457
 31
0.0
  0
LINE
  5
1C6
330
1F
100
AcDbEntity
  8
0-F
  6
Continuous
 62
     7
370
     9
100
AcDbLine
 10
293.1501141109984
 20
-49.77027109506952
 30
0.0
 11
293.1501141109984
 21
-122.6702369483741
 31
0.0
  0
LINE
  5
1C7
330
1F
100
AcDbEntity
  8
0-F
  6
Continuous
 62
     7
370
     9
100
AcDbLine
 10
173.150089367016
 20
-27.77026037267726
 30
0.0
 11
173.150089367016
 21
334.2297709697003
 31
0.0
  0
LINE
  5
1C8
330
1F
100
AcDbEntity
  8
0-F
  6
Continuous
 62
     7
370
     9
100
AcDbLine
 10
110.4001174101959
 20
-27.77026037267726
 30
0.0
 11
174.0500774899045
 21
-27.77026037267726
 31
0.0
  0
LINE
  5
1C9
330
1F
100
AcDbEntity
  8
0-F
  6
Continuous
 62
     7
370
     9
100
AcDbLine
 10
110.4001174101959
 20
82.22975612331095
 30
0.0
 11
174.0500774899045
 21
82.22975612331095
 31
0.0
  0
LINE
  5
1CA
330
1F
100
AcDbEntity
  8
0-F
  6
Continuous
 62
     7
370
     9
100
AcDbLine
 10
173.150089367016
 20
-27.77026037267726
 30
0.0
 11
171.9753688090557
 21
-18.84724632469374
 31
0.0
  0
LINE
  5
1CB
330
1F
100
AcDbEntity
  8
0-F
  6
Continuous
 62
     7
370
     9
100
AcDbLine
 10
173.150089367016
 20
-27.77026037267726
 30
0.0
 11
174.3248099249763
 21
-18.84724632469374
 31
0.0
  0
LINE
  5
1CC
330
1F
100
AcDbEntity
  8
0-F
  6
Continuous
 62
     7
370
     9
100
AcDbLine
 10
173.150089367016
 20
82.22975612331095
 30
0.0
 11
171.9753688090557
 21
73.30674207532743
 31
0.0
  0
LINE
  5
1CD
330
1F
100
AcDbEntity
  8
0-F
  6
Continuous
 62
     7
370
     9
100
AcDbLine
 10
173.150089367016
 20
82.22975612331095
 30
0.0
 11
174.3248099249763
 21
73.30674207532743
 31
0.0
  0
LINE
  5
1CE
330
1F
100
AcDbEntity
  8
0-F
  6
Continuous
 62
     7
370
     9
100
AcDbLine
 10
110.4001174101959
 20
98.22974705051743
 30
0.0
 11
174.0500774899045
 21
98.22974705051743
 31
0.0
  0
LINE
  5
1CF
330
1F
100
AcDbEntity
  8
0-F
  6
Continuous
 62
     7
370
     9
100
AcDbLine
 10
173.150089367016
 20
98.22974705051743
 30
0.0
 11
171.9753688090557
 21
107.1527610985009
 31
0.0
  0
LINE
  5
1D0
330
1F
100
AcDbEntity
  8
0-F
  6
Continuous
 62
     7
370
     9
100
AcDbLine
 10
173.150089367016
 20
98.22974705051743
 30
0.0
 11
174.3248099249763
 21
107.1527610985009
 31
0.0
  0
LINE
  5
1D1
330
1F
100
AcDbEntity
  8
0-F
  6
Continuous
 62
     7
370
     9
100
AcDbLine
 10
110.4001174101959
 20
208.2297264305322
 30
0.0
 11
174.0500774899045
 21
208.2297264305322
 31
0.0
  0
LINE
  5
1D2
330
1F
100
AcDbEntity
  8
0-F
  6
Continuous
 62
     7
370
     9
100
AcDbLine
 10
173.150089367016
 20
208.2297264305322
 30
0.0
 11
171.9753688090557
 21
199.3067494985221
 31
0.0
  0
LINE
  5
1D3
330
1F
100
AcDbEntity
  8
0-F
  6
Continuous
 62
     7
370
     9
100
AcDbLine
 10
173.150089367016
 20
208.2297264305322
 30
0.0
 11
174.3248099249763
 21
199.3067494985221
 31
0.0
  0
LINE
  5
1D4
330
1F
100
AcDbEntity
  8
0-F
  6
Continuous
 62
     7
370
     9
100
AcDbLine
 10
110.4001174101959
 20
224.2296802417653
 30
0.0
 11
174.0500774899045
 21
224.2296802417653
 31
0.0
  0
LINE
  5
1D5
330
1F
100
AcDbEntity
  8
0-F
  6
Continuous
 62
     7
370
     9
100
AcDbLine
 10
173.150089367016
 20
224.2296802417653
 30
0.0
 11
171.9753688090557
 21
233.1526571737755
 31
0.0
  0
LINE
  5
1D6
330
1F
100
AcDbEntity
  8
0-F
  6
Continuous
 62
     7
370
     9
100
AcDbLine
 10
173.150089367016
 20
224.2296802417653
 30
0.0
 11
174.3248099249763
 21
233.1526571737755
 31
0.0
  0
LINE
  5
1D7
330
1F
100
AcDbEntity
  8
0-F
  6
Continuous
 62
     7
370
     9
100
AcDbLine
 10
110.4001174101959
 20
334.2297709697003
 30
0.0
 11
174.0500774899045
 21
334.2297709697003
 31
0.0
  0
LINE
  5
1D8
330
1F
100
AcDbEntity
  8
0-F
  6
Continuous
 62
     7
370
     9
100
AcDbLine
 10
173.150089367016
 20
334.2297709697003
 30
0.0
 11
171.9753688090557
 21
325.3067940376902
 31
0.0
  0
LINE
  5
1D9
330
1F
100
AcDbEntity
  8
0-F
  6
Continuous
 62
     7
370
     9
100
AcDbLine
 10
173.150089367016
 20
334.2297709697003
 30
0.0
 11
174.3248099249763
 21
325.3067940376902
 31
0.0
  0
LINE
  5
1DA
330
1F
100
AcDbEntity
  8
0-F
  6
Continuous
 62
     7
370
     9
100
AcDbLine
 10
203.1501141109984
 20
-46.77026119747663
 30
0.0
 11
203.1501141109984
 21
353.2297346785263
 31
0.0
  0
LINE
  5
1DB
330
1F
100
AcDbEntity
  8
0-F
  6
Continuous
 62
     7
370
     9
100
AcDbLine
 10
131.1500992646088
 20
-46.77026119747663
 30
0.0
 11
204.0501022338868
 21
-46.77026119747663
 31
0.0
  0
LINE
  5
1DC
330
1F
100
AcDbEntity
  8
0-F
  6
Continuous
 62
     7
370
     9
100
AcDbLine
 10
131.1500992646088
 20
353.2297346785263
 30
0.0
 11
204.0501022338868
 21
353.2297346785263
 31
0.0
  0
LINE
  5
1DD
330
1F
100
AcDbEntity
  8
0-F
  6
Continuous
 62
     7
370
     9
100
AcDbLine
 10
203.1501141109984
 20
-46.77026119747663
 30
0.0
 11
201.9753935530381
 21
-37.84724714949311
 31
0.0
  0
LINE
  5
1DE
330
1F
100
AcDbEntity
  8
0-F
  6
Continuous
 62
     7
370
     9
100
AcDbLine
 10
203.1501141109984
 20
-46.77026119747663
 30
0.0
 11
204.3248346689587
 21
-37.84724714949311
 31
0.0
  0
LINE
  5
1DF
330
1F
100
AcDbEntity
  8
0-F
  6
Continuous
 62
     7
370
     9
100
AcDbLine
 10
203.1501141109984
 20
353.2297346785263
 30
0.0
 11
201.9753935530381
 21
344.3067577465163
 31
0.0
  0
LINE
  5
1E0
330
1F
100
AcDbEntity
  8
0-F
  6
Continuous
 62
     7
370
     9
100
AcDbLine
 10
203.1501141109984
 20
353.2297346785263
 30
0.0
 11
204.3248346689587
 21
344.3067577465163
 31
0.0
  0
LINE
  5
1E1
330
1F
100
AcDbEntity
  8
0-F
  6
Continuous
 62
     7
370
     9
100
AcDbLine
 10
203.1501141109984
 20
-211.7702488254855
 30
0.0
 11
201.9753935530381
 21
-202.8472533354887
 31
0.0
  0
LINE
  5
1E2
330
1F
100
AcDbEntity
  8
0-F
  6
Continuous
 62
     7
370
     9
100
AcDbLine
 10
203.1501141109984
 20
-211.7702488254855
 30
0.0
 11
204.3248346689587
 21
-202.8472533354887
 31
0.0
  0
LINE
  5
1E3
330
1F
100
AcDbEntity
  8
0-F
  6
Continuous
 62
     7
370
     9
100
AcDbLine
 10
203.1501141109984
 20
-231.7703395534205
 30
0.0
 11
201.9753935530381
 21
-240.6933350434172
 31
0.0
  0
LINE
  5
1E4
330
1F
100
AcDbEntity
  8
0-F
  6
Continuous
 62
     7
370
     9
100
AcDbLine
 10
203.1501141109984
 20
-231.7703395534205
 30
0.0
 11
204.3248346689587
 21
-240.6933350434172
 31
0.0
  0
LINE
  5
1E5
330
1F
100
AcDbEntity
  8
0-F
  6
Continuous
 62
     7
370
     9
100
AcDbLine
 10
173.150089367016
 20
-211.7702488254855
 30
0.0
 11
171.9753688090557
 21
-202.8472533354887
 31
0.0
  0
LINE
  5
1E6
330
1F
100
AcDbEntity
  8
0-F
  6
Continuous
 62
     7
370
     9
100
AcDbLine
 10
173.150089367016
 20
-211.7702488254855
 30
0.0
 11
174.3248099249763
 21
-202.8472533354887
 31
0.0
  0
LINE
  5
1E7
330
1F
100
AcDbEntity
  8
0-F
  6
Continuous
 62
     7
370
     9
100
AcDbLine
 10
173.150089367016
 20
-226.7702611974767
 30
0.0
 11
171.9753688090557
 21
-235.6932566874735
 31
0.0
  0
LINE
  5
1E8
330
1F
100
AcDbEntity
  8
0-F
  6
Continuous
 62
     7
370
     9
100
AcDbLine
 10
173.150089367016
 20
-226.7702611974767
 30
0.0
 11
174.3248099249763
 21
-235.6932566874735
 31
0.0
  0
LINE
  5
1E9
330
1F
100
AcDbEntity
  8
0-F
  6
Continuous
 62
     7
370
     9
100
AcDbLine
 10
131.1500992646088
 20
-211.7702488254855
 30
0.0
 11
204.0501022338868
 21
-211.7702488254855
 31
0.0
  0
LINE
  5
1EA
330
1F
100
AcDbEntity
  8
0-F
  6
Continuous
 62
     7
370
     9
100
AcDbLine
 10
113.0450016743429
 20
-226.7702611974767
 30
0.0
 11
174.0500774899045
 21
-226.7702611974767
 31
0.0
  0
LINE
  5
1EB
330
1F
100
AcDbEntity
  8
0-F
  6
Continuous
 62
     7
370
     9
100
AcDbLine
 10
127.6235621684307
 20
-231.7703395534205
 30
0.0
 11
204.0501022338868
 21
-231.7703395534205
 31
0.0
  0
LINE
  5
1EC
330
1F
100
AcDbEntity
  8
0-F
  6
Continuous
 62
     7
370
     9
100
AcDbLine
 10
308.1500893670162
 20
-33.41519165039045
 30
0.0
 11
308.1500893670162
 21
-92.67024932036506
 31
0.0
  0
LINE
  5
1ED
330
1F
100
AcDbEntity
  8
0-F
  6
Continuous
 62
     7
370
     9
100
AcDbLine
 10
313.1501306069865
 20
-46.24377111486476
 30
0.0
 11
313.1501306069865
 21
-122.6702369483741
 31
0.0
  0
LINE
  5
1EE
330
1F
100
AcDbEntity
  8
0-F
  6
Continuous
 62
     7
370
     9
100
AcDbLine
 10
173.150089367016
 20
-196.133047980231
 30
0.0
 11
173.150089367016
 21
-240.2608782794023
 31
0.0
  0
LINE
  5
1EF
330
1F
100
AcDbEntity
  8
0-F
  6
Continuous
 62
     7
370
     9
100
AcDbLine
 10
203.1501141109984
 20
-196.133047980231
 30
0.0
 11
203.1501141109984
 21
-244.7868186332083
 31
0.0
  0
LINE
  5
1F0
330
1F
100
AcDbEntity
  8
0-F
  6
Continuous
 62
     7
370
     9
100
AcDbLine
 10
323.4289540471259
 20
-91.77026119747663
 30
0.0
 11
277.0571476704368
 21
-91.77026119747663
 31
0.0
  0
LINE
  5
1F1
330
1F
100
AcDbEntity
  8
0-F
  6
Continuous
 62
     7
370
     9
100
AcDbLine
 10
328.5059738159181
 20
-121.7702488254855
 30
0.0
 11
277.0571476704368
 21
-121.7702488254855
 31
0.0
  0
TEXT
  5
1F2
330
1F
100
AcDbEntity
  8
0-F
  6
Continuous
 62
     2
370
     9
100
AcDbText
 10
-109.9748586706212
 20
-88.57825624868013
 30
0.0
 40
9.144
  1
16
 41
1.0625
  7
ＭＳ ゴシック
100
AcDbText
  0
TEXT
  5
1F3
330
1F
100
AcDbEntity
  8
0-F
  6
Continuous
 62
     2
370
     9
100
AcDbText
 10
-65.47302555393523
 20
-88.57825624868013
 30
0.0
 40
9.144
  1
20.5
 41
1.09375
  7
ＭＳ ゴシック
100
AcDbText
  0
TEXT
  5
1F4
330
1F
100
AcDbEntity
  8
0-F
  6
Continuous
 62
     2
370
     9
100
AcDbText
 10
-131.5999312529691
 20
-118.578243876689
 30
0.0
 40
9.144
  1
500
 41
1.083333333333333
  7
ＭＳ ゴシック
100
AcDbText
  0
TEXT
  5
1F5
330
1F
100
AcDbEntity
  8
0-F
  6
Continuous
 62
     2
370
     9
100
AcDbText
 10
294.2751017390071
 20
-88.57825624868013
 30
0.0
 40
9.144
  1
15
 41
1.0625
  7
ＭＳ ゴシック
100
AcDbText
  0
TEXT
  5
1F6
330
1F
100
AcDbEntity
  8
0-F
  6
Continuous
 62
     2
370
     9
100
AcDbText
 10
296.7751594749659
 20
-118.578243876689
 30
0.0
 40
9.144
  1
20
 41
1.0625
  7
ＭＳ ゴシック
100
AcDbText
  0
TEXT
  5
1F7
330
1F
100
AcDbEntity
  8
0-F
  6
Continuous
 62
     2
370
     9
100
AcDbText
 10
169.9580848444056
 20
17.47974780135707
 30
0.0
 40
9.144
  1
110
 50
90.00000250447748
 41
1.083333333333333
  7
ＭＳ ゴシック
100
AcDbText
  0
TEXT
  5
1F8
330
1F
100
AcDbEntity
  8
0-F
  6
Continuous
 62
     2
370
     9
100
AcDbText
 10
169.95808469688
 20
83.85477007094127
 30
0.0
 40
9.144
  1
16
 50
90.00000250447981
 41
1.062499999999999
  7
ＭＳ ゴシック
100
AcDbText
  0
TEXT
  5
1F9
330
1F
100
AcDbEntity
  8
0-F
  6
Continuous
 62
     2
370
     9
100
AcDbText
 10
169.9580848444056
 20
143.4797552245519
 30
0.0
 40
9.144
  1
110
 50
90.00000250447748
 41
1.083333333333333
  7
ＭＳ ゴシック
100
AcDbText
  0
TEXT
  5
1FA
330
1F
100
AcDbEntity
  8
0-F
  6
Continuous
 62
     2
370
     9
100
AcDbText
 10
169.95808469688
 20
209.8547403781626
 30
0.0
 40
9.144
  1
16
 50
90.00000250447981
 41
1.062500000000001
  7
ＭＳ ゴシック
100
AcDbText
  0
TEXT
  5
1FB
330
1F
100
AcDbEntity
  8
0-F
  6
Continuous
 62
     2
370
     9
100
AcDbText
 10
169.9580848444056
 20
269.4797626477465
 30
0.0
 40
9.144
  1
110
 50
90.00000250447748
 41
1.083333333333334
  7
ＭＳ ゴシック
100
AcDbText
  0
TEXT
  5
1FC
330
1F
100
AcDbEntity
  8
0-F
  6
Continuous
 62
     2
370
     9
100
AcDbText
 10
199.9581095883879
 20
143.4797181085785
 30
0.0
 40
9.144
  1
400
 50
90.00000250447822
 41
1.083333333333333
  7
ＭＳ ゴシック
100
AcDbText
  0
TEXT
  5
1FD
330
1F
100
AcDbEntity
  8
0-F
  6
Continuous
 62
     2
370
     9
100
AcDbText
 10
199.9581094408622
 20
-228.1452942634125
 30
0.0
 40
9.144
  1
20
 50
90.00000250448097
 41
1.062500000000001
  7
ＭＳ ゴシック
100
AcDbText
  0
TEXT
  5
1FE
330
1F
100
AcDbEntity
  8
0-F
  6
Continuous
 62
     2
370
     9
100
AcDbText
 10
169.95808469688
 20
-225.6452550854407
 30
0.0
 40
9.144
  1
15
 50
90.00000250447981
 41
1.062500000000001
  7
ＭＳ ゴシック
100
AcDbText
  0
LWPOLYLINE
  5
1FF
330
1F
100
AcDbEntity
  8
0-F
  6
Continuous
 62
     7
370
     9
100
AcDbPolyline
 90
        4
 70
     1
 43
0.3
 10
-95.44988176500459
 20
-91.77026119747663
 42
0.4142135623731
 10
-95.5998817650046
 20
-91.62026119747662
 42
0.4142135623731
 10
-95.7498817650046
 20
-91.77026119747663
 42
0.4142135623731
 10
-95.5998817650046
 20
-91.92026119747663
 42
0.4142135623731
  0
TEXT
  5
200
330
1F
100
AcDbEntity
  8
F-5ﾚｲﾔ
  6
Continuous
 62
     2
370
     0
100
AcDbText
 10
-220.7512543292273
 20
-404.3380211679955
 30
0.0
 40
9.144
  1
立目型　側溝用　鋳鉄製みぞ蓋　ＧＫ－４００×５００×２０
 41
0.8991071428571429
  7
ＭＳ ゴシック
100
AcDbText
  0
ENDSEC
  0
SECTION
  2
OBJECTS
  0
DICTIONARY
  5
C
330
0
100
AcDbDictionary
281
     1
  3
ACAD_GROUP
350
D
  3
ACAD_LAYOUT
350
1A
  3
ACAD_MLEADERSTYLE
350
202
  3
ACAD_MLINESTYLE
350
17
  3
ACAD_PLOTSETTINGS
350
19
  3
ACAD_PLOTSTYLENAME
350
E
  3
ACAD_TABLESTYLE
350
201
  3
ACAD_VISUALSTYLE
350
2A
  0
DICTIONARY
  5
D
102
{ACAD_REACTORS
330
C
102
}
330
C
100
AcDbDictionary
281
     1
  0
DICTIONARY
  5
1A
102
{ACAD_REACTORS
330
C
102
}
330
C
100
AcDbDictionary
281
     1
  3
Layout1
350
1E
  3
Layout2
350
26
  3
Model
350
22
  0
DICTIONARY
  5
202
102
{ACAD_REACTORS
330
C
102
}
330
C
100
AcDbDictionary
281
     1
  0
DICTIONARY
  5
17
102
{ACAD_REACTORS
330
C
102
}
330
C
100
AcDbDictionary
281
     1
  3
Standard
350
18
  0
DICTIONARY
  5
19
102
{ACAD_REACTORS
330
C
102
}
330
C
100
AcDbDictionary
281
     1
  0
ACDBDICTIONARYWDFLT
  5
E
102
{ACAD_REACTORS
330
C
102
}
330
C
100
AcDbDictionary
281
     1
  3
Normal
350
F
100
AcDbDictionaryWithDefault
340
F
  0
DICTIONARY
  5
201
102
{ACAD_REACTORS
330
C
102
}
330
C
100
AcDbDictionary
281
     1
  0
DICTIONARY
  5
2A
102
{ACAD_REACTORS
330
C
102
}
330
C
100
AcDbDictionary
281
     1
  3
2dWireframe
350
2F
  3
3D Hidden
350
31
  3
3dWireframe
350
30
  3
Basic
350
32
  3
Brighten
350
36
  3
ColorChange
350
3A
  3
Conceptual
350
34
  3
Dim
350
35
  3
Facepattern
350
39
  3
Flat
350
2B
  3
FlatWithEdges
350
2C
  3
Gouraud
350
2D
  3
GouraudWithEdges
350
2E
  3
Linepattern
350
38
  3
Realistic
350
33
  3
Thicken
350
37
  0
LAYOUT
  5
1E
102
{ACAD_REACTORS
330
1A
102
}
330
1A
100
AcDbPlotSettings
  1

  2
none_device
  4

  6

 40
0.0
 41
0.0
 42
0.0
 43
0.0
 44
0.0
 45
0.0
 46
0.0
 47
0.0
 48
0.0
 49
0.0
140
0.0
141
0.0
142
1.0
143
1.0
 70
   688
 72
     0
 73
     0
 74
     5
  7

 75
    16
 76
     0
 77
     5
 78
   300
147
1.0
148
0.0
149
0.0
100
AcDbLayout
  1
Layout1
 70
     1
 71
     1
 10
0.0
 20
0.0
 11
420.0
 21
297.0
 12
0.0
 22
0.0
 32
0.0
 14
1.000000000000000E+20
 24
1.000000000000000E+20
 34
1.000000000000000E+20
 15
-1.000000000000000E+20
 25
-1.000000000000000E+20
 35
-1.000000000000000E+20
146
0.0
 13
0.0
 23
0.0
 33
0.0
 16
1.0
 26
0.0
 36
0.0
 17
0.0
 27
1.0
 37
0.0
 76
     0
330
1B
  0
LAYOUT
  5
26
102
{ACAD_REACTORS
330
1A
102
}
330
1A
100
AcDbPlotSettings
  1

  2
none_device
  4

  6

 40
0.0
 41
0.0
 42
0.0
 43
0.0
 44
0.0
 45
0.0
 46
0.0
 47
0.0
 48
0.0
 49
0.0
140
0.0
141
0.0
142
1.0
143
1.0
 70
   688
 72
     0
 73
     0
 74
     5
  7

 75
    16
 76
     0
 77
     5
 78
   300
147
1.0
148
0.0
149
0.0
100
AcDbLayout
  1
Layout2
 70
     1
 71
     2
 10
0.0
 20
0.0
 11
0.0
 21
0.0
 12
0.0
 22
0.0
 32
0.0
 14
0.0
 24
0.0
 34
0.0
 15
0.0
 25
0.0
 35
0.0
146
0.0
 13
0.0
 23
0.0
 33
0.0
 16
1.0
 26
0.0
 36
0.0
 17
0.0
 27
1.0
 37
0.0
 76
     0
330
23
  0
LAYOUT
  5
22
102
{ACAD_REACTORS
330
1A
102
}
330
1A
100
AcDbPlotSettings
  1

  2
none_device
  4

  6

 40
0.0
 41
0.0
 42
0.0
 43
0.0
 44
0.0
 45
0.0
 46
0.0
 47
0.0
 48
0.0
 49
0.0
140
0.0
141
0.0
142
1.0
143
1.0
 70
  1712
 72
     0
 73
     0
 74
     0
  7

 75
     0
 76
     0
 77
     5
 78
   300
147
1.0
148
0.0
149
0.0
100
AcDbLayout
  1
Model
 70
     1
 71
     0
 10
-630.0
 20
-445.5
 11
630.0
 21
445.5
 12
0.0
 22
0.0
 32
0.0
 14
-630.0
 24
-445.5
 34
0.0
 15
630.0
 25
445.5
 35
0.0
146
0.0
 13
0.0
 23
0.0
 33
0.0
 16
1.0
 26
0.0
 36
0.0
 17
0.0
 27
1.0
 37
0.0
 76
     0
330
1F
331
29
  0
MLINESTYLE
  5
18
102
{ACAD_REACTORS
330
17
102
}
330
17
100
AcDbMlineStyle
  2
Standard
 70
     0
  3

 62
   256
 51
90.0
 52
90.0
 71
     2
 49
0.5
 62
   256
  6
BYLAYER
 49
-0.5
 62
   256
  6
BYLAYER
  0
ACDBPLACEHOLDER
  5
F
102
{ACAD_REACTORS
330
E
102
}
330
E
  0
VISUALSTYLE
  5
2F
102
{ACAD_REACTORS
330
2A
102
}
330
2A
100
AcDbVisualStyle
  2
2dWireframe
 70
     4
 71
     0
 72
     2
 73
     0
 90
        0
 40
-0.6
 41
-30.0
 62
     5
 63
     7
421
 16777215
 74
     1
 91
        4
 64
     7
 65
   257
 75
     1
175
     1
 42
1.0
 92
        0
 66
   257
 43
1.0
 76
     1
 77
     6
 78
     2
 67
     7
 79
     5
170
     0
171
     0
290
     0
174
     0
 93
        1
 44
0.0
173
     0
291
     0
 45
0.0
1001
ACAD
1000
AcDbSavedByObjectVersion
1070
     0
  0
VISUALSTYLE
  5
31
102
{ACAD_REACTORS
330
2A
102
}
330
2A
100
AcDbVisualStyle
  2
3D Hidden
 70
     6
 71
     1
 72
     2
 73
     2
 90
        0
 40
-0.6
 41
-30.0
 62
     5
 63
     7
421
 16777215
 74
     2
 91
        2
 64
     7
 65
   257
 75
     2
175
     1
 42
40.0
 92
        0
 66
   257
 43
1.0
 76
     1
 77
     6
 78
     2
 67
     7
 79
     3
170
     0
171
     0
290
     0
174
     0
 93
        1
 44
0.0
173
     0
291
     0
 45
0.0
1001
ACAD
1000
AcDbSavedByObjectVersion
1070
     0
  0
VISUALSTYLE
  5
30
102
{ACAD_REACTORS
330
2A
102
}
330
2A
100
AcDbVisualStyle
  2
3dWireframe
 70
     5
 71
     0
 72
     2
 73
     0
 90
        0
 40
-0.6
 41
-30.0
 62
     5
 63
     7
421
 16777215
 74
     1
 91
        4
 64
     7
 65
   257
 75
     1
175
     1
 42
1.0
 92
        0
 66
   257
 43
1.0
 76
     1
 77
     6
 78
     2
 67
     7
 79
     5
170
     0
171
     0
290
     0
174
     0
 93
        1
 44
0.0
173
     0
291
     0
 45
0.0
1001
ACAD
1000
AcDbSavedByObjectVersion
1070
     0
  0
VISUALSTYLE
  5
32
102
{ACAD_REACTORS
330
2A
102
}
330
2A
100
AcDbVisualStyle
  2
Basic
 70
     7
 71
     1
 72
     0
 73
     1
 90
        0
 40
-0.6
 41
-30.0
 62
     5
 63
     7
421
 16777215
 74
     0
 91
        4
 64
     7
 65
   257
 75
     1
175
     1
 42
1.0
 92
        8
 66
     7
 43
1.0
 76
     1
 77
     6
 78
     2
 67
     7
 79
     5
170
     0
171
     0
290
     0
174
     0
 93
        1
 44
0.0
173
     0
291
     1
 45
0.0
1001
ACAD
1000
AcDbSavedByObjectVersion
1070
     0
  0
VISUALSTYLE
  5
36
102
{ACAD_REACTORS
330
2A
102
}
330
2A
100
AcDbVisualStyle
  2
Brighten
 70
    12
 71
     2
 72
     2
 73
     0
 90
        0
 40
-0.6
 41
-30.0
 62
     5
 63
     7
421
 16777215
 74
     1
 91
        4
 64
     7
 65
   257
 75
     1
175
     1
 42
1.0
 92
        8
 66
     7
 43
1.0
 76
     1
 77
     6
 78
     2
 67
     7
 79
     5
170
     0
171
     0
290
     0
174
     0
 93
        1
 44
50.0
173
     0
291
     1
 45
0.0
1001
ACAD
1000
AcDbSavedByObjectVersion
1070
     0
  0
VISUALSTYLE
  5
3A
102
{ACAD_REACTORS
330
2A
102
}
330
2A
100
AcDbVisualStyle
  2
ColorChange
 70
    16
 71
     2
 72
     2
 73
     3
 90
        0
 40
-0.6
 41
-30.0
 62
     5
 63
     8
421
  8421504
 74
     1
 91
        4
 64
     7
 65
   257
 75
     1
175
     1
 42
1.0
 92
        8
 66
     8
424
  8421504
 43
1.0
 76
     1
 77
     6
 78
     2
 67
     7
 79
     5
170
     0
171
     0
290
     0
174
     0
 93
        1
 44
0.0
173
     0
291
     1
 45
0.0
1001
ACAD
1000
AcDbSavedByObjectVersion
1070
     0
  0
VISUALSTYLE
  5
34
102
{ACAD_REACTORS
330
2A
102
}
330
2A
100
AcDbVisualStyle
  2
Conceptual
 70
     9
 71
     3
 72
     2
 73
     0
 90
        0
 40
-0.6
 41
-30.0
 62
     5
 63
     7
421
 16777215
 74
     2
 91
        2
 64
     7
 65
   257
 75
     1
175
     1
 42
40.0
 92
        8
 66
     7
 43
1.0
 76
     1
 77
     6
 78
     2
 67
     7
 79
     3
170
     0
171
     0
290
     0
174
     0
 93
        1
 44
0.0
173
     0
291
     0
 45
0.0
1001
ACAD
1000
AcDbSavedByObjectVersion
1070
     0
  0
VISUALSTYLE
  5
35
102
{ACAD_REACTORS
330
2A
102
}
330
2A
100
AcDbVisualStyle
  2
Dim
 70
    11
 71
     2
 72
     2
 73
     0
 90
        0
 40
-0.6
 41
-30.0
 62
     5
 63
     7
421
 16777215
 74
     1
 91
        4
 64
     7
 65
   257
 75
     1
175
     1
 42
1.0
 92
        8
 66
     7
 43
1.0
 76
     1
 77
     6
 78
     2
 67
     7
 79
     5
170
     0
171
     0
290
     0
174
     0
 93
        1
 44
-50.0
173
     0
291
     1
 45
0.0
1001
ACAD
1000
AcDbSavedByObjectVersion
1070
     0
  0
VISUALSTYLE
  5
39
102
{ACAD_REACTORS
330
2A
102
}
330
2A
100
AcDbVisualStyle
  2
Facepattern
 70
    15
 71
     2
 72
     2
 73
     0
 90
        0
 40
-0.6
 41
-30.0
 62
     5
 63
     7
421
 16777215
 74
     1
 91
        4
 64
     7
 65
   257
 75
     1
175
     1
 42
1.0
 92
        8
 66
     7
 43
1.0
 76
     1
 77
     6
 78
     2
 67
     7
 79
     5
170
     0
171
     0
290
     0
174
     0
 93
        1
 44
0.0
173
     0
291
     1
 45
0.0
1001
ACAD
1000
AcDbSavedByObjectVersion
1070
     0
  0
VISUALSTYLE
  5
2B
102
{ACAD_REACTORS
330
2A
102
}
330
2A
100
AcDbVisualStyle
  2
Flat
 70
     0
 71
     2
 72
     1
 73
     1
 90
        2
 40
-0.6
 41
30.0
 62
     5
 63
     7
421
 16777215
 74
     0
 91
        4
 64
     7
 65
   257
 75
     1
175
     1
 42
1.0
 92
        8
 66
     7
 43
1.0
 76
     1
 77
     6
 78
     2
 67
     7
 79
     5
170
     0
171
     0
290
     0
174
     0
 93
       13
 44
0.0
173
     0
291
     1
 45
0.0
1001
ACAD
1000
AcDbSavedByObjectVersion
1070
     0
  0
VISUALSTYLE
  5
2C
102
{ACAD_REACTORS
330
2A
102
}
330
2A
100
AcDbVisualStyle
  2
FlatWithEdges
 70
     1
 71
     2
 72
     1
 73
     1
 90
        2
 40
-0.6
 41
30.0
 62
     5
 63
     7
421
 16777215
 74
     1
 91
        4
 64
     7
 65
   257
 75
     1
175
     1
 42
1.0
 92
        0
 66
   257
 43
1.0
 76
     1
 77
     6
 78
     2
 67
     7
 79
     5
170
     0
171
     0
290
     0
174
     0
 93
       13
 44
0.0
173
     0
291
     1
 45
0.0
1001
ACAD
1000
AcDbSavedByObjectVersion
1070
     0
  0
VISUALSTYLE
  5
2D
102
{ACAD_REACTORS
330
2A
102
}
330
2A
100
AcDbVisualStyle
  2
Gouraud
 70
     2
 71
     2
 72
     2
 73
     1
 90
        2
 40
-0.6
 41
30.0
 62
     5
 63
     7
421
 16777215
 74
     0
 91
        4
 64
     7
 65
   257
 75
     1
175
     1
 42
1.0
 92
        0
 66
     7
 43
1.0
 76
     1
 77
     6
 78
     2
 67
     7
 79
     5
170
     0
171
     0
290
     0
174
     0
 93
       13
 44
0.0
173
     0
291
     1
 45
0.0
1001
ACAD
1000
AcDbSavedByObjectVersion
1070
     0
  0
VISUALSTYLE
  5
2E
102
{ACAD_REACTORS
330
2A
102
}
330
2A
100
AcDbVisualStyle
  2
GouraudWithEdges
 70
     3
 71
     2
 72
     2
 73
     1
 90
        2
 40
-0.6
 41
30.0
 62
     5
 63
     7
421
 16777215
 74
     1
 91
        4
 64
     7
 65
   257
 75
     1
175
     1
 42
1.0
 92
        0
 66
   257
 43
1.0
 76
     1
 77
     6
 78
     2
 67
     7
 79
     5
170
     0
171
     0
290
     0
174
     0
 93
       13
 44
0.0
173
     0
291
     1
 45
0.0
1001
ACAD
1000
AcDbSavedByObjectVersion
1070
     0
  0
VISUALSTYLE
  5
38
102
{ACAD_REACTORS
330
2A
102
}
330
2A
100
AcDbVisualStyle
  2
Linepattern
 70
    14
 71
     2
 72
     2
 73
     0
 90
        0
 40
-0.6
 41
-30.0
 62
     5
 63
     7
421
 16777215
 74
     1
 91
        4
 64
     7
 65
   257
 75
     7
175
     7
 42
1.0
 92
        8
 66
     7
 43
1.0
 76
     1
 77
     6
 78
     2
 67
     7
 79
     5
170
     0
171
     0
290
     0
174
     0
 93
        1
 44
0.0
173
     0
291
     1
 45
0.0
1001
ACAD
1000
AcDbSavedByObjectVersion
1070
     0
  0
VISUALSTYLE
  5
33
102
{ACAD_REACTORS
330
2A
102
}
330
2A
100
AcDbVisualStyle
  2
Realistic
 70
     8
 71
     2
 72
     2
 73
     0
 90
        0
 40
-0.6
 41
-30.0
 62
     5
 63
     7
421
 16777215
 74
     1
 91
        0
 64
     7
 65
   257
 75
     1
175
     1
 42
1.0
 92
        8
 66
     8
424
  7895160
 43
1.0
 76
     1
 77
     6
 78
     2
 67
     7
 79
     5
170
     0
171
     0
290
     0
174
     0
 93
       13
 44
0.0
173
     0
291
     0
 45
0.0
1001
ACAD
1000
AcDbSavedByObjectVersion
1070
     0
  0
VISUALSTYLE
  5
37
102
{ACAD_REACTORS
330
2A
102
}
330
2A
100
AcDbVisualStyle
  2
Thicken
 70
    13
 71
     2
 72
     2
 73
     0
 90
        0
 40
-0.6
 41
-30.0
 62
     5
 63
     7
421
 16777215
 74
     1
 91
        4
 64
     7
 65
   257
 75
     1
175
     1
 42
1.0
 92
       12
 66
     7
 43
1.0
 76
     1
 77
     6
 78
     2
 67
     7
 79
     5
170
     0
171
     0
290
     0
174
     0
 93
        1
 44
0.0
173
     0
291
     1
 45
0.0
1001
ACAD
1000
AcDbSavedByObjectVersion
1070
     0
  0
ENDSEC
  0
EOF
