  0
SECTION
  2
HEADER
  9
$ACADVER
  1
AC1027
  9
$ACADMAINTVER
 70
   105
  9
$DWGCODEPAGE
  3
ANSI_932
  9
$REQUIREDVERSIONS
160
                 0
  9
$INSBASE
 10
0.0
 20
0.0
 30
0.0
  9
$EXTMIN
 10
-840.0
 20
-594.0
 30
0.0
  9
$EXTMAX
 10
840.0
 20
594.0
 30
0.0
  9
$LIMMIN
 10
-840.0
 20
-594.0
  9
$LIMMAX
 10
840.0
 20
594.0
  9
$ORTHOMODE
 70
     0
  9
$REGENMODE
 70
     1
  9
$FILLMODE
 70
     1
  9
$QTEXTMODE
 70
     0
  9
$MIRRTEXT
 70
     1
  9
$LTSCALE
 40
4.0
  9
$ATTMODE
 70
     1
  9
$TEXTSIZE
 40
2.5
  9
$TRACEWID
 40
1.0
  9
$TEXTSTYLE
  7
Standard
  9
$CLAYER
  8
0
  9
$CELTYPE
  6
ByLayer
  9
$CECOLOR
 62
   256
  9
$CELTSCALE
 40
1.0
  9
$DISPSILH
 70
     0
  9
$DIMSCALE
 40
1.0
  9
$DIMASZ
 40
2.5
  9
$DIMEXO
 40
0.625
  9
$DIMDLI
 40
3.75
  9
$DIMRND
 40
0.0
  9
$DIMDLE
 40
0.0
  9
$DIMEXE
 40
1.25
  9
$DIMTP
 40
0.0
  9
$DIMTM
 40
0.0
  9
$DIMTXT
 40
2.5
  9
$DIMCEN
 40
2.5
  9
$DIMTSZ
 40
0.0
  9
$DIMTOL
 70
     0
  9
$DIMLIM
 70
     0
  9
$DIMTIH
 70
     0
  9
$DIMTOH
 70
     0
  9
$DIMSE1
 70
     0
  9
$DIMSE2
 70
     0
  9
$DIMTAD
 70
     1
  9
$DIMZIN
 70
     8
  9
$DIMBLK
  1

  9
$DIMASO
 70
     1
  9
$DIMSHO
 70
     1
  9
$DIMPOST
  1

  9
$DIMAPOST
  1

  9
$DIMALT
 70
     0
  9
$DIMALTD
 70
     3
  9
$DIMALTF
 40
0.03937007874016
  9
$DIMLFAC
 40
1.0
  9
$DIMTOFL
 70
     1
  9
$DIMTVP
 40
0.0
  9
$DIMTIX
 70
     0
  9
$DIMSOXD
 70
     0
  9
$DIMSAH
 70
     0
  9
$DIMBLK1
  1

  9
$DIMBLK2
  1

  9
$DIMSTYLE
  2
ISO-25
  9
$DIMCLRD
 70
     0
  9
$DIMCLRE
 70
     0
  9
$DIMCLRT
 70
     0
  9
$DIMTFAC
 40
1.0
  9
$DIMGAP
 40
0.625
  9
$DIMJUST
 70
     0
  9
$DIMSD1
 70
     0
  9
$DIMSD2
 70
     0
  9
$DIMTOLJ
 70
     0
  9
$DIMTZIN
 70
     8
  9
$DIMALTZ
 70
     0
  9
$DIMALTTZ
 70
     0
  9
$DIMUPT
 70
     0
  9
$DIMDEC
 70
     2
  9
$DIMTDEC
 70
     2
  9
$DIMALTU
 70
     2
  9
$DIMALTTD
 70
     3
  9
$DIMTXSTY
  7
Standard
  9
$DIMAUNIT
 70
     0
  9
$DIMADEC
 70
     0
  9
$DIMALTRND
 40
0.0
  9
$DIMAZIN
 70
     0
  9
$DIMDSEP
 70
    44
  9
$DIMATFIT
 70
     3
  9
$DIMFRAC
 70
     0
  9
$DIMLDRBLK
  1

  9
$DIMLUNIT
 70
     2
  9
$DIMLWD
 70
    -2
  9
$DIMLWE
 70
    -2
  9
$DIMTMOVE
 70
     0
  9
$DIMFXL
 40
1.0
  9
$DIMFXLON
 70
     0
  9
$DIMJOGANG
 40
0.7853981633974483
  9
$DIMTFILL
 70
     0
  9
$DIMTFILLCLR
 70
     0
  9
$DIMARCSYM
 70
     0
  9
$DIMLTYPE
  6

  9
$DIMLTEX1
  6

  9
$DIMLTEX2
  6

  9
$DIMTXTDIRECTION
 70
     0
  9
$LUNITS
 70
     2
  9
$LUPREC
 70
     4
  9
$SKETCHINC
 40
1.0
  9
$FILLETRAD
 40
10.0
  9
$AUNITS
 70
     0
  9
$AUPREC
 70
     0
  9
$MENU
  1
.
  9
$ELEVATION
 40
0.0
  9
$PELEVATION
 40
0.0
  9
$THICKNESS
 40
0.0
  9
$LIMCHECK
 70
     0
  9
$CHAMFERA
 40
0.0
  9
$CHAMFERB
 40
0.0
  9
$CHAMFERC
 40
0.0
  9
$CHAMFERD
 40
0.0
  9
$SKPOLY
 70
     0
  9
$TDCREATE
 40
2458817.408168681
  9
$TDUCREATE
 40
2458817.033168681
  9
$TDUPDATE
 40
2458817.408168796
  9
$TDUUPDATE
 40
2458817.033168796
  9
$TDINDWG
 40
0.0000000116
  9
$TDUSRTIMER
 40
0.0000000116
  9
$USRTIMER
 70
     1
  9
$ANGBASE
 50
0.0
  9
$ANGDIR
 70
     0
  9
$PDMODE
 70
     0
  9
$PDSIZE
 40
0.0
  9
$PLINEWID
 40
0.0
  9
$SPLFRAME
 70
     0
  9
$SPLINETYPE
 70
     6
  9
$SPLINESEGS
 70
     8
  9
$HANDSEED
  5
42E
  9
$SURFTAB1
 70
     6
  9
$SURFTAB2
 70
     6
  9
$SURFTYPE
 70
     6
  9
$SURFU
 70
     6
  9
$SURFV
 70
     6
  9
$UCSBASE
  2

  9
$UCSNAME
  2

  9
$UCSORG
 10
0.0
 20
0.0
 30
0.0
  9
$UCSXDIR
 10
1.0
 20
0.0
 30
0.0
  9
$UCSYDIR
 10
0.0
 20
1.0
 30
0.0
  9
$UCSORTHOREF
  2

  9
$UCSORTHOVIEW
 70
     0
  9
$UCSORGTOP
 10
0.0
 20
0.0
 30
0.0
  9
$UCSORGBOTTOM
 10
0.0
 20
0.0
 30
0.0
  9
$UCSORGLEFT
 10
0.0
 20
0.0
 30
0.0
  9
$UCSORGRIGHT
 10
0.0
 20
0.0
 30
0.0
  9
$UCSORGFRONT
 10
0.0
 20
0.0
 30
0.0
  9
$UCSORGBACK
 10
0.0
 20
0.0
 30
0.0
  9
$PUCSBASE
  2

  9
$PUCSNAME
  2

  9
$PUCSORG
 10
0.0
 20
0.0
 30
0.0
  9
$PUCSXDIR
 10
1.0
 20
0.0
 30
0.0
  9
$PUCSYDIR
 10
0.0
 20
1.0
 30
0.0
  9
$PUCSORTHOREF
  2

  9
$PUCSORTHOVIEW
 70
     0
  9
$PUCSORGTOP
 10
0.0
 20
0.0
 30
0.0
  9
$PUCSORGBOTTOM
 10
0.0
 20
0.0
 30
0.0
  9
$PUCSORGLEFT
 10
0.0
 20
0.0
 30
0.0
  9
$PUCSORGRIGHT
 10
0.0
 20
0.0
 30
0.0
  9
$PUCSORGFRONT
 10
0.0
 20
0.0
 30
0.0
  9
$PUCSORGBACK
 10
0.0
 20
0.0
 30
0.0
  9
$USERI1
 70
     0
  9
$USERI2
 70
     0
  9
$USERI3
 70
     0
  9
$USERI4
 70
     0
  9
$USERI5
 70
     0
  9
$USERR1
 40
0.0
  9
$USERR2
 40
0.0
  9
$USERR3
 40
0.0
  9
$USERR4
 40
0.0
  9
$USERR5
 40
0.0
  9
$WORLDVIEW
 70
     1
  9
$SHADEDGE
 70
     3
  9
$SHADEDIF
 70
    70
  9
$TILEMODE
 70
     1
  9
$MAXACTVP
 70
    64
  9
$PINSBASE
 10
0.0
 20
0.0
 30
0.0
  9
$PLIMCHECK
 70
     0
  9
$PEXTMIN
 10
1.000000000000000E+20
 20
1.000000000000000E+20
 30
1.000000000000000E+20
  9
$PEXTMAX
 10
-1.000000000000000E+20
 20
-1.000000000000000E+20
 30
-1.000000000000000E+20
  9
$PLIMMIN
 10
0.0
 20
0.0
  9
$PLIMMAX
 10
420.0
 20
297.0
  9
$UNITMODE
 70
     0
  9
$VISRETAIN
 70
     1
  9
$PLINEGEN
 70
     0
  9
$PSLTSCALE
 70
     1
  9
$TREEDEPTH
 70
  3020
  9
$CMLSTYLE
  2
Standard
  9
$CMLJUST
 70
     0
  9
$CMLSCALE
 40
20.0
  9
$PROXYGRAPHICS
 70
     1
  9
$MEASUREMENT
 70
     1
  9
$CELWEIGHT
370
    -1
  9
$ENDCAPS
280
     0
  9
$JOINSTYLE
280
     0
  9
$LWDISPLAY
290
     0
  9
$INSUNITS
 70
     4
  9
$HYPERLINKBASE
  1

  9
$STYLESHEET
  1

  9
$XEDIT
290
     1
  9
$CEPSNTYPE
380
     0
  9
$PSTYLEMODE
290
     1
  9
$FINGERPRINTGUID
  2
{65E0A363-641B-414B-8155-96AF51519984}
  9
$VERSIONGUID
  2
{FAEB1C32-E019-11D5-929B-00C0DF256EC4}
  9
$EXTNAMES
290
     1
  9
$PSVPSCALE
 40
0.0
  9
$OLESTARTUP
290
     0
  9
$SORTENTS
280
   127
  9
$INDEXCTL
280
     0
  9
$HIDETEXT
280
     1
  9
$XCLIPFRAME
280
     2
  9
$HALOGAP
280
     0
  9
$OBSCOLOR
 70
   257
  9
$OBSLTYPE
280
     0
  9
$INTERSECTIONDISPLAY
280
     0
  9
$INTERSECTIONCOLOR
 70
   257
  9
$DIMASSOC
280
     2
  9
$PROJECTNAME
  1

  9
$CAMERADISPLAY
290
     0
  9
$LENSLENGTH
 40
50.0
  9
$CAMERAHEIGHT
 40
0.0
  9
$STEPSPERSEC
 40
2.0
  9
$STEPSIZE
 40
6.0
  9
$3DDWFPREC
 40
2.0
  9
$PSOLWIDTH
 40
5.0
  9
$PSOLHEIGHT
 40
80.0
  9
$LOFTANG1
 40
1.570796326794897
  9
$LOFTANG2
 40
1.570796326794897
  9
$LOFTMAG1
 40
0.0
  9
$LOFTMAG2
 40
0.0
  9
$LOFTPARAM
 70
     7
  9
$LOFTNORMALS
280
     1
  9
$LATITUDE
 40
37.795
  9
$LONGITUDE
 40
-122.394
  9
$NORTHDIRECTION
 40
0.0
  9
$TIMEZONE
 70
 -8000
  9
$LIGHTGLYPHDISPLAY
280
     1
  9
$TILEMODELIGHTSYNCH
280
     1
  9
$CMATERIAL
347
44
  9
$SOLIDHIST
280
     0
  9
$SHOWHIST
280
     1
  9
$DWFFRAME
280
     2
  9
$DGNFRAME
280
     2
  9
$REALWORLDSCALE
290
     1
  9
$INTERFERECOLOR
 62
   256
  9
$CSHADOW
280
     0
  9
$SHADOWPLANELOCATION
 40
0.0
  0
ENDSEC
  0
SECTION
  2
CLASSES
  0
CLASS
  1
ACDBDICTIONARYWDFLT
  2
AcDbDictionaryWithDefault
  3
ObjectDBX Classes
 90
        0
 91
        4
280
     0
281
     0
  0
CLASS
  1
VISUALSTYLE
  2
AcDbVisualStyle
  3
ObjectDBX Classes
 90
     4095
 91
        4
280
     0
281
     0
  0
CLASS
  1
MATERIAL
  2
AcDbMaterial
  3
ObjectDBX Classes
 90
     1153
 91
        4
280
     0
281
     0
  0
CLASS
  1
SCALE
  2
AcDbScale
  3
ObjectDBX Classes
 90
     1153
 91
        4
280
     0
281
     0
  0
CLASS
  1
TABLESTYLE
  2
AcDbTableStyle
  3
ObjectDBX Classes
 90
     4095
 91
        4
280
     0
281
     0
  0
CLASS
  1
MLEADERSTYLE
  2
AcDbMLeaderStyle
  3
ACDB_MLEADERSTYLE_CLASS
 90
     4095
 91
        4
280
     0
281
     0
  0
CLASS
  1
SUN
  2
AcDbSun
  3
SCENEOE
 90
     1153
 91
        4
280
     0
281
     0
  0
CLASS
  1
DICTIONARYVAR
  2
AcDbDictionaryVar
  3
ObjectDBX Classes
 90
        0
 91
        4
280
     0
281
     0
  0
CLASS
  1
CELLSTYLEMAP
  2
AcDbCellStyleMap
  3
ObjectDBX Classes
 90
     1152
 91
        4
280
     0
281
     0
  0
ENDSEC
  0
SECTION
  2
TABLES
  0
TABLE
  2
VPORT
  5
8
330
0
100
AcDbSymbolTable
 70
     1
  0
VPORT
  5
29
330
8
100
AcDbSymbolTableRecord
100
AcDbViewportTableRecord
  2
*Active
 70
     0
 10
0.0
 20
0.0
 11
1.0
 21
1.0
 12
0.0
 22
0.0
 13
0.0
 23
0.0
 14
10.0
 24
10.0
 15
10.0
 25
10.0
 16
0.0
 26
0.0
 36
1.0
 17
0.0
 27
0.0
 37
0.0
 40
1306.8
 41
1.414141414141414
 42
50.0
 43
0.0
 44
0.0
 50
0.0
 51
0.0
 71
     0
 72
 10000
 73
     1
 74
     3
 75
     0
 76
     0
 77
     0
 78
     0
281
     0
 65
     1
110
0.0
120
0.0
130
0.0
111
1.0
121
0.0
131
0.0
112
0.0
122
1.0
132
0.0
 79
     0
146
0.0
348
2F
 60
     3
 61
     5
292
     1
282
     1
141
0.0
142
0.0
 63
   250
361
6D
  0
ENDTAB
  0
TABLE
  2
LTYPE
  5
5
330
0
100
AcDbSymbolTable
 70
     5
  0
LTYPE
  5
14
330
5
100
AcDbSymbolTableRecord
100
AcDbLinetypeTableRecord
  2
ByBlock
 70
     0
  3

 72
    65
 73
     0
 40
0.0
  0
LTYPE
  5
15
330
5
100
AcDbSymbolTableRecord
100
AcDbLinetypeTableRecord
  2
ByLayer
 70
     0
  3

 72
    65
 73
     0
 40
0.0
  0
LTYPE
  5
16
330
5
100
AcDbSymbolTableRecord
100
AcDbLinetypeTableRecord
  2
Continuous
 70
     0
  3
Solid line
 72
    65
 73
     0
 40
0.0
  0
LTYPE
  5
6F
330
5
100
AcDbSymbolTableRecord
100
AcDbLinetypeTableRecord
  2
JWW_DASHED3
 70
     0
  3
---  ------  ------  ------  ---
 72
    65
 73
     2
 40
3.386666666666667
 49
2.54
 74
     0
 49
-0.8466666666666667
 74
     0
  0
LTYPE
  5
70
330
5
100
AcDbSymbolTableRecord
100
AcDbLinetypeTableRecord
  2
JWW_CENTER1
 70
     0
  3
-----  --  ----------  --  -----
 72
    65
 73
     4
 40
6.773333333333333
 49
4.233333333333333
 74
     0
 49
-0.8466666666666667
 74
     0
 49
0.8466666666666667
 74
     0
 49
-0.8466666666666667
 74
     0
  0
LTYPE
  5
71
330
5
100
AcDbSymbolTableRecord
100
AcDbLinetypeTableRecord
  2
JWW_PHANTOM2
 70
     0
  3
------------  -  -  ------------
 72
    65
 73
     6
 40
13.54666666666667
 49
10.16
 74
     0
 49
-0.8466666666666667
 74
     0
 49
0.4233333333333333
 74
     0
 49
-0.8466666666666667
 74
     0
 49
0.4233333333333333
 74
     0
 49
-0.8466666666666667
 74
     0
  0
LTYPE
  5
72
330
5
100
AcDbSymbolTableRecord
100
AcDbLinetypeTableRecord
  2
JWW_DASHED1
 70
     0
  3
-  --  --  --  --  --  --  --  -
 72
    65
 73
     2
 40
1.693333333333333
 49
0.8466666666666667
 74
     0
 49
-0.8466666666666667
 74
     0
  0
ENDTAB
  0
TABLE
  2
LAYER
  5
2
330
0
100
AcDbSymbolTable
 70
     9
  0
LAYER
  5
10
330
2
100
AcDbSymbolTableRecord
100
AcDbLayerTableRecord
  2
0
 70
     0
 62
     7
  6
Continuous
370
    -3
390
F
347
46
348
0
  0
LAYER
  5
73
330
2
100
AcDbSymbolTableRecord
100
AcDbLayerTableRecord
  2
0-1
 70
     0
 62
     7
  6
Continuous
370
    -3
390
F
347
46
348
0
  0
LAYER
  5
74
330
2
100
AcDbSymbolTableRecord
100
AcDbLayerTableRecord
  2
0-2
 70
     0
 62
     7
  6
Continuous
370
    -3
390
F
347
46
348
0
  0
LAYER
  5
75
330
2
100
AcDbSymbolTableRecord
100
AcDbLayerTableRecord
  2
0-F
 70
     0
 62
     7
  6
Continuous
370
    -3
390
F
347
46
348
0
  0
LAYER
  5
76
330
2
100
AcDbSymbolTableRecord
100
AcDbLayerTableRecord
  2
0-E
 70
     0
 62
     7
  6
Continuous
370
    -3
390
F
347
46
348
0
  0
LAYER
  5
77
330
2
100
AcDbSymbolTableRecord
100
AcDbLayerTableRecord
  2
0-4
 70
     0
 62
     7
  6
Continuous
370
    -3
390
F
347
46
348
0
  0
LAYER
  5
78
330
2
100
AcDbSymbolTableRecord
100
AcDbLayerTableRecord
  2
1-3
 70
     0
 62
     7
  6
Continuous
370
    -3
390
F
347
46
348
0
  0
LAYER
  5
79
330
2
100
AcDbSymbolTableRecord
100
AcDbLayerTableRecord
  2
1-F
 70
     0
 62
     7
  6
Continuous
370
    -3
390
F
347
46
348
0
  0
LAYER
  5
7A
330
2
100
AcDbSymbolTableRecord
100
AcDbLayerTableRecord
  2
F-5
 70
     0
 62
     7
  6
Continuous
370
    -3
390
F
347
46
348
0
  0
ENDTAB
  0
TABLE
  2
STYLE
  5
3
330
0
100
AcDbSymbolTable
 70
     2
  0
STYLE
  5
11
330
3
100
AcDbSymbolTableRecord
100
AcDbTextStyleTableRecord
  2
Standard
 70
     0
 40
0.0
 41
1.0
 50
0.0
 71
     0
 42
2.5
  3
txt
  4

  0
STYLE
  5
6E
330
3
100
AcDbSymbolTableRecord
100
AcDbTextStyleTableRecord
  2
ＭＳ ゴシック
 70
     0
 40
1.0
 41
1.0
 50
0.0
 71
     0
 42
2.5
  3

  4

1001
ACAD
1000
MS Gothic
1071
    32817
  0
ENDTAB
  0
TABLE
  2
VIEW
  5
6
330
0
100
AcDbSymbolTable
 70
     0
  0
ENDTAB
  0
TABLE
  2
UCS
  5
7
330
0
100
AcDbSymbolTable
 70
     0
  0
ENDTAB
  0
TABLE
  2
APPID
  5
9
330
0
100
AcDbSymbolTable
 70
     1
  0
APPID
  5
12
330
9
100
AcDbSymbolTableRecord
100
AcDbRegAppTableRecord
  2
ACAD
 70
     0
  0
ENDTAB
  0
TABLE
  2
DIMSTYLE
  5
A
330
0
100
AcDbSymbolTable
 70
     1
100
AcDbDimStyleTable
  0
DIMSTYLE
105
27
330
A
100
AcDbSymbolTableRecord
100
AcDbDimStyleTableRecord
  2
ISO-25
 70
     0
 41
2.5
 42
0.625
 43
3.75
 44
1.25
 73
     0
 74
     0
 77
     1
 78
     8
140
2.5
141
2.5
143
0.03937007874016
147
0.625
171
     3
172
     1
178
     0
271
     2
272
     2
274
     3
278
    44
283
     0
284
     8
340
11
  0
ENDTAB
  0
TABLE
  2
BLOCK_RECORD
  5
1
330
0
100
AcDbSymbolTable
 70
     1
  0
BLOCK_RECORD
  5
1F
330
1
100
AcDbSymbolTableRecord
100
AcDbBlockTableRecord
  2
*Model_Space
340
22
 70
     0
280
     1
281
     0
  0
BLOCK_RECORD
  5
1B
330
1
100
AcDbSymbolTableRecord
100
AcDbBlockTableRecord
  2
*Paper_Space
340
1E
 70
     0
280
     1
281
     0
  0
BLOCK_RECORD
  5
23
330
1
100
AcDbSymbolTableRecord
100
AcDbBlockTableRecord
  2
*Paper_Space0
340
26
 70
     0
280
     1
281
     0
  0
ENDTAB
  0
ENDSEC
  0
SECTION
  2
BLOCKS
  0
BLOCK
  5
20
330
1F
100
AcDbEntity
  8
0
100
AcDbBlockBegin
  2
*Model_Space
 70
     0
 10
0.0
 20
0.0
 30
0.0
  3
*Model_Space
  1

  0
ENDBLK
  5
21
330
1F
100
AcDbEntity
  8
0
100
AcDbBlockEnd
  0
BLOCK
  5
1C
330
1B
100
AcDbEntity
 67
     1
  8
0
100
AcDbBlockBegin
  2
*Paper_Space
 70
     0
 10
0.0
 20
0.0
 30
0.0
  3
*Paper_Space
  1

  0
ENDBLK
  5
1D
330
1B
100
AcDbEntity
 67
     1
  8
0
100
AcDbBlockEnd
  0
BLOCK
  5
24
330
23
100
AcDbEntity
  8
0
100
AcDbBlockBegin
  2
*Paper_Space0
 70
     0
 10
0.0
 20
0.0
 30
0.0
  3
*Paper_Space0
  1

  0
ENDBLK
  5
25
330
23
100
AcDbEntity
  8
0
100
AcDbBlockEnd
  0
ENDSEC
  0
SECTION
  2
ENTITIES
  0
LINE
  5
7B
330
1F
100
AcDbEntity
  8
0-1
  6
Continuous
 62
     2
370
     9
100
AcDbLine
 10
444.9591176677285
 20
272.8146764320037
 30
0.0
 11
488.9591638564954
 21
272.8146764320037
 31
0.0
  0
LINE
  5
7C
330
1F
100
AcDbEntity
  8
0-1
  6
Continuous
 62
     2
370
     9
100
AcDbLine
 10
493.7591994878297
 20
329.8148149983043
 30
0.0
 11
496.9591902500764
 21
329.8148149983043
 31
0.0
  0
LINE
  5
7D
330
1F
100
AcDbEntity
  8
0-1
  6
Continuous
 62
     2
370
     9
100
AcDbLine
 10
440.1590820363939
 20
281.014832154132
 30
0.0
 11
440.1590820363939
 21
321.8147886047233
 31
0.0
  0
LINE
  5
7E
330
1F
100
AcDbEntity
  8
0-1
  6
Continuous
 62
     2
370
     9
100
AcDbLine
 10
496.9591902500764
 20
280.8147028255847
 30
0.0
 11
496.9591902500764
 21
329.8148149983043
 31
0.0
  0
LINE
  5
7F
330
1F
100
AcDbEntity
  8
0-1
  6
Continuous
 62
     2
370
     9
100
AcDbLine
 10
493.7591994878297
 20
281.014832154132
 30
0.0
 11
493.7591994878297
 21
329.8148149983043
 31
0.0
  0
LINE
  5
80
330
1F
100
AcDbEntity
  8
0-1
  6
Continuous
 62
     2
370
     9
100
AcDbLine
 10
445.1590490444177
 20
276.0147661701793
 30
0.0
 11
488.759232479806
 21
276.0147661701793
 31
0.0
  0
LINE
  5
81
330
1F
100
AcDbEntity
  8
0-1
  6
Continuous
 62
     2
370
     9
100
AcDbLine
 10
386.9592232420526
 20
326.6148242360578
 30
0.0
 11
386.9592232420526
 21
329.8148149983043
 31
0.0
  0
LINE
  5
82
330
1F
100
AcDbEntity
  8
0-1
  6
Continuous
 62
     2
370
     9
100
AcDbLine
 10
386.9592232420526
 20
326.6148242360578
 30
0.0
 11
431.9591242661237
 21
326.6148242360578
 31
0.0
  0
LINE
  5
83
330
1F
100
AcDbEntity
  8
0-1
  6
Continuous
 62
     2
370
     9
100
AcDbLine
 10
386.9592232420526
 20
329.8148149983043
 30
0.0
 11
432.1590556428129
 21
329.8148149983043
 31
0.0
  0
LINE
  5
84
330
1F
100
AcDbEntity
  8
0-1
  6
Continuous
 62
     2
370
     9
100
AcDbLine
 10
450.1591150283704
 20
276.0147661701793
 30
0.0
 11
440.1590820363939
 21
286.0147001862267
 31
0.0
  0
LINE
  5
85
330
1F
100
AcDbEntity
  8
0-1
  6
Continuous
 62
     2
370
     9
100
AcDbLine
 10
483.7591664958535
 20
276.0147661701793
 30
0.0
 11
493.7591994878297
 21
286.0147001862267
 31
0.0
  0
LINE
  5
86
330
1F
100
AcDbEntity
  8
0-1
  6
Continuous
 62
     2
370
     9
100
AcDbLine
 10
440.1590820363939
 20
320.0148123589463
 30
0.0
 11
493.7591994878297
 21
320.0148123589463
 31
0.0
  0
LINE
  5
87
330
1F
100
AcDbEntity
  8
0-1
  6
Continuous
 62
     2
370
     9
100
AcDbLine
 10
493.7591994878297
 20
296.814854588676
 30
0.0
 11
496.9591902500764
 21
296.814854588676
 31
0.0
  0
LINE
  5
88
330
1F
100
AcDbEntity
  8
0-1
  6
Continuous
 62
     2
370
     9
100
AcDbLine
 10
475.4461782146035
 20
303.1147714488956
 30
0.0
 11
475.4461782146035
 21
312.9148730641828
 31
0.0
  0
LINE
  5
89
330
1F
100
AcDbEntity
  8
0-1
  6
Continuous
 62
     2
370
     9
100
AcDbLine
 10
475.4461782146035
 20
312.9148730641828
 30
0.0
 11
466.9591902500764
 21
317.8147754079328
 31
0.0
  0
LINE
  5
8A
330
1F
100
AcDbEntity
  8
0-1
  6
Continuous
 62
     2
370
     9
100
AcDbLine
 10
466.9591902500764
 20
317.8147754079328
 30
0.0
 11
458.4721033096204
 21
312.9148730641828
 31
0.0
  0
LINE
  5
8B
330
1F
100
AcDbEntity
  8
0-1
  6
Continuous
 62
     2
370
     9
100
AcDbLine
 10
458.4721033096204
 20
312.9148730641828
 30
0.0
 11
458.4721033096204
 21
303.1147714488956
 31
0.0
  0
LINE
  5
8C
330
1F
100
AcDbEntity
  8
0-1
  6
Continuous
 62
     2
370
     9
100
AcDbLine
 10
458.4721033096204
 20
303.1147714488956
 30
0.0
 11
466.9591902500764
 21
298.2148691051456
 31
0.0
  0
LINE
  5
8D
330
1F
100
AcDbEntity
  8
0-1
  6
Continuous
 62
     2
370
     9
100
AcDbLine
 10
466.9591902500764
 20
298.2148691051456
 30
0.0
 11
475.4461782146035
 21
303.1147714488956
 31
0.0
  0
LINE
  5
8E
330
1F
100
AcDbEntity
  8
0-1
  6
Continuous
 62
     2
370
     9
100
AcDbLine
 10
466.9591902500764
 20
47.41481367862522
 30
0.0
 11
475.4461782146035
 21
42.51481235894627
 31
0.0
  0
LINE
  5
8F
330
1F
100
AcDbEntity
  8
0-1
  6
Continuous
 62
     2
370
     9
100
AcDbLine
 10
458.4721033096204
 20
42.51481235894627
 30
0.0
 11
466.9591902500764
 21
47.41481367862522
 31
0.0
  0
LINE
  5
90
330
1F
100
AcDbEntity
  8
0-1
  6
Continuous
 62
     2
370
     9
100
AcDbLine
 10
458.4721033096204
 20
32.71480971958815
 30
0.0
 11
458.4721033096204
 21
42.51481235894627
 31
0.0
  0
LINE
  5
91
330
1F
100
AcDbEntity
  8
0-1
  6
Continuous
 62
     2
370
     9
100
AcDbLine
 10
466.9591902500764
 20
27.81480839990908
 30
0.0
 11
458.4721033096204
 21
32.71480971958815
 31
0.0
  0
LINE
  5
92
330
1F
100
AcDbEntity
  8
0-1
  6
Continuous
 62
     2
370
     9
100
AcDbLine
 10
475.4461782146035
 20
32.71480971958815
 30
0.0
 11
466.9591902500764
 21
27.81480839990908
 31
0.0
  0
LINE
  5
93
330
1F
100
AcDbEntity
  8
0-1
  6
Continuous
 62
     2
370
     9
100
AcDbLine
 10
475.4461782146035
 20
42.51481235894627
 30
0.0
 11
475.4461782146035
 21
32.71480971958815
 31
0.0
  0
LINE
  5
94
330
1F
100
AcDbEntity
  8
0-1
  6
Continuous
 62
     2
370
     9
100
AcDbLine
 10
493.7591994878297
 20
48.81477870713033
 30
0.0
 11
496.9591902500764
 21
48.81477870713033
 31
0.0
  0
LINE
  5
95
330
1F
100
AcDbEntity
  8
0-1
  6
Continuous
 62
     2
370
     9
100
AcDbLine
 10
440.1590820363939
 20
25.61477144889554
 30
0.0
 11
493.7591994878297
 21
25.61477144889554
 31
0.0
  0
LINE
  5
96
330
1F
100
AcDbEntity
  8
0-1
  6
Continuous
 62
     2
370
     9
100
AcDbLine
 10
483.7591664958535
 20
69.61476814969794
 30
0.0
 11
493.7591994878297
 21
59.61478464568606
 31
0.0
  0
LINE
  5
97
330
1F
100
AcDbEntity
  8
0-1
  6
Continuous
 62
     2
370
     9
100
AcDbLine
 10
450.1591150283704
 20
69.61476814969794
 30
0.0
 11
440.1590820363939
 21
59.61478464568606
 31
0.0
  0
LINE
  5
98
330
1F
100
AcDbEntity
  8
0-1
  6
Continuous
 62
     2
370
     9
100
AcDbLine
 10
386.9592232420526
 20
15.814818297502
 30
0.0
 11
432.1590556428129
 21
15.814818297502
 31
0.0
  0
LINE
  5
99
330
1F
100
AcDbEntity
  8
0-1
  6
Continuous
 62
     2
370
     9
100
AcDbLine
 10
386.9592232420526
 20
19.01480905974856
 30
0.0
 11
431.9591242661237
 21
19.01480905974856
 31
0.0
  0
LINE
  5
9A
330
1F
100
AcDbEntity
  8
0-1
  6
Continuous
 62
     2
370
     9
100
AcDbLine
 10
386.9592232420526
 20
19.01480905974856
 30
0.0
 11
386.9592232420526
 21
15.814818297502
 31
0.0
  0
LINE
  5
9B
330
1F
100
AcDbEntity
  8
0-1
  6
Continuous
 62
     2
370
     9
100
AcDbLine
 10
445.1590490444177
 20
69.61476814969794
 30
0.0
 11
488.759232479806
 21
69.61476814969794
 31
0.0
  0
LINE
  5
9C
330
1F
100
AcDbEntity
  8
0-1
  6
Continuous
 62
     2
370
     9
100
AcDbLine
 10
493.7591994878297
 20
64.61480114167429
 30
0.0
 11
493.7591994878297
 21
15.814818297502
 31
0.0
  0
LINE
  5
9D
330
1F
100
AcDbEntity
  8
0-1
  6
Continuous
 62
     2
370
     9
100
AcDbLine
 10
496.9591902500764
 20
64.81478200632793
 30
0.0
 11
496.9591902500764
 21
15.814818297502
 31
0.0
  0
LINE
  5
9E
330
1F
100
AcDbEntity
  8
0-1
  6
Continuous
 62
     2
370
     9
100
AcDbLine
 10
440.1590820363939
 20
64.61480114167429
 30
0.0
 11
440.1590820363939
 21
23.81479520311856
 31
0.0
  0
LINE
  5
9F
330
1F
100
AcDbEntity
  8
0-1
  6
Continuous
 62
     2
370
     9
100
AcDbLine
 10
493.7591994878297
 20
15.814818297502
 30
0.0
 11
496.9591902500764
 21
15.814818297502
 31
0.0
  0
LINE
  5
A0
330
1F
100
AcDbEntity
  8
0-1
  6
Continuous
 62
     2
370
     9
100
AcDbLine
 10
444.9591176677285
 20
72.81480839990908
 30
0.0
 11
488.9591638564954
 21
72.81480839990908
 31
0.0
  0
LINE
  5
A1
330
1F
100
AcDbEntity
  8
0-1
  6
Continuous
 62
     2
370
     9
100
AcDbLine
 10
166.9591902500763
 20
192.81470942398
 30
0.0
 11
176.9592232420526
 21
192.81470942398
 31
0.0
  0
LINE
  5
A2
330
1F
100
AcDbEntity
  8
0-1
  6
Continuous
 62
     2
370
     9
100
AcDbLine
 10
176.9592232420526
 20
192.81470942398
 30
0.0
 11
156.9591572580999
 21
152.8146764320037
 31
0.0
  0
LINE
  5
A3
330
1F
100
AcDbEntity
  8
0-1
  6
Continuous
 62
     2
370
     9
100
AcDbLine
 10
156.9591572580999
 20
152.8146764320037
 30
0.0
 11
166.9591902500763
 21
152.8146764320037
 31
0.0
  0
LINE
  5
A4
330
1F
100
AcDbEntity
  8
0-1
  6
Continuous
 62
     2
370
     9
100
AcDbLine
 10
-663.0408757338764
 20
272.8146764320037
 30
0.0
 11
-663.0408757338764
 21
329.8148149983043
 31
0.0
  0
LINE
  5
A5
330
1F
100
AcDbEntity
  8
0-1
  6
Continuous
 62
     2
370
     9
100
AcDbLine
 10
-663.0408757338764
 20
272.8146764320037
 30
0.0
 11
-662.0408229467142
 21
272.8146764320037
 31
0.0
  0
LINE
  5
A6
330
1F
100
AcDbEntity
  8
0-1
  6
Continuous
 62
     2
370
     9
100
AcDbLine
 10
-663.0408757338764
 20
15.814818297502
 30
0.0
 11
-663.0408757338764
 21
72.81480839990908
 31
0.0
  0
LINE
  5
A7
330
1F
100
AcDbEntity
  8
0-1
  6
Continuous
 62
     2
370
     9
100
AcDbLine
 10
-663.0408757338764
 20
72.81480839990908
 30
0.0
 11
-662.0408229467142
 21
72.81480839990908
 31
0.0
  0
LINE
  5
A8
330
1F
100
AcDbEntity
  8
0-1
  6
JWW_DASHED3
 62
     2
370
     9
100
AcDbLine
 10
-662.0408229467142
 20
72.81480839990908
 30
0.0
 11
166.9591902500763
 21
72.81480839990908
 31
0.0
  0
LINE
  5
A9
330
1F
100
AcDbEntity
  8
0-2
  6
JWW_CENTER1
 62
     3
370
     9
100
AcDbLine
 10
186.9591572580999
 20
172.8147424159564
 30
0.0
 11
-682.0407899547379
 21
172.8147424159564
 31
0.0
  0
LINE
  5
AA
330
1F
100
AcDbEntity
  8
0-1
  6
Continuous
 62
     2
370
     9
100
AcDbLine
 10
166.9591902500763
 20
192.81470942398
 30
0.0
 11
166.9591902500763
 21
349.8147820063281
 31
0.0
  0
LINE
  5
AB
330
1F
100
AcDbEntity
  8
0-1
  6
Continuous
 62
     2
370
     9
100
AcDbLine
 10
166.9591902500763
 20
-4.185198198486233
 30
0.0
 11
166.9591902500763
 21
152.8146764320037
 31
0.0
  0
LINE
  5
AC
330
1F
100
AcDbEntity
  8
0-1
  6
Continuous
 62
     2
370
     9
100
AcDbLine
 10
-663.0408757338764
 20
329.8148149983043
 30
0.0
 11
166.9591902500763
 21
329.8148149983043
 31
0.0
  0
LINE
  5
AD
330
1F
100
AcDbEntity
  8
0-1
  6
Continuous
 62
     2
370
     9
100
AcDbLine
 10
-663.0408757338764
 20
326.6148242360578
 30
0.0
 11
166.9591902500763
 21
326.6148242360578
 31
0.0
  0
LINE
  5
AE
330
1F
100
AcDbEntity
  8
0-1
  6
JWW_DASHED3
 62
     2
370
     9
100
AcDbLine
 10
-662.0408229467142
 20
272.8146764320037
 30
0.0
 11
166.9591902500763
 21
272.8146764320037
 31
0.0
  0
LINE
  5
AF
330
1F
100
AcDbEntity
  8
0-1
  6
Continuous
 62
     2
370
     9
100
AcDbLine
 10
-663.0408757338764
 20
19.01480905974856
 30
0.0
 11
166.9591902500763
 21
19.01480905974856
 31
0.0
  0
LINE
  5
B0
330
1F
100
AcDbEntity
  8
0-1
  6
Continuous
 62
     2
370
     9
100
AcDbLine
 10
-663.0408757338764
 20
15.814818297502
 30
0.0
 11
166.9591902500763
 21
15.814818297502
 31
0.0
  0
LINE
  5
B1
330
1F
100
AcDbEntity
  8
0-1
  6
JWW_CENTER1
 62
     2
370
     9
100
AcDbLine
 10
466.9591902500764
 20
294.214855908355
 30
0.0
 11
466.9591902500764
 21
321.8147886047233
 31
0.0
  0
LINE
  5
B2
330
1F
100
AcDbEntity
  8
0-1
  6
JWW_CENTER1
 62
     2
370
     9
100
AcDbLine
 10
450.9591374629141
 20
308.0148717445037
 30
0.0
 11
482.9591440613095
 21
308.0148717445037
 31
0.0
  0
LINE
  5
B3
330
1F
100
AcDbEntity
  8
0-1
  6
JWW_CENTER1
 62
     2
370
     9
100
AcDbLine
 10
466.9591902500764
 20
23.81474571515398
 30
0.0
 11
466.9591902500764
 21
51.41462892355773
 31
0.0
  0
LINE
  5
B4
330
1F
100
AcDbEntity
  8
0-1
  6
JWW_CENTER1
 62
     2
370
     9
100
AcDbLine
 10
450.9591374629141
 20
37.61476155130262
 30
0.0
 11
482.9591440613095
 21
37.61476155130262
 31
0.0
  0
LINE
  5
B5
330
1F
100
AcDbEntity
  8
0-1
  6
Continuous
 62
     2
370
     9
100
AcDbLine
 10
436.9590912741472
 20
321.614758252105
 30
0.0
 11
436.9590912741472
 21
280.8147028255847
 31
0.0
  0
LINE
  5
B6
330
1F
100
AcDbEntity
  8
0-1
  6
Continuous
 62
     2
370
     9
100
AcDbLine
 10
436.9590912741472
 20
64.81478200632793
 30
0.0
 11
436.9590912741472
 21
24.01482555573679
 31
0.0
  0
LINE
  5
B7
330
1F
100
AcDbEntity
  8
0-F
  6
Continuous
 62
     7
370
     9
100
AcDbLine
 10
-663.0408757338764
 20
429.8148479902807
 30
0.0
 11
166.9591902500763
 21
429.8148479902807
 31
0.0
  0
LINE
  5
B8
330
1F
100
AcDbEntity
  8
0-F
  6
Continuous
 62
     7
370
     9
100
AcDbLine
 10
-663.0408757338764
 20
429.8148479902807
 30
0.0
 11
-651.1435731578629
 21
431.3811420675611
 31
0.0
  0
LINE
  5
B9
330
1F
100
AcDbEntity
  8
0-F
  6
Continuous
 62
     7
370
     9
100
AcDbLine
 10
-663.0408757338764
 20
429.8148479902807
 30
0.0
 11
-651.1435731578629
 21
428.2485539130003
 31
0.0
  0
LINE
  5
BA
330
1F
100
AcDbEntity
  8
0-F
  6
Continuous
 62
     7
370
     9
100
AcDbLine
 10
-663.0408757338764
 20
333.8148281950949
 30
0.0
 11
-663.0408757338764
 21
431.0148321541321
 31
0.0
  0
LINE
  5
BB
330
1F
100
AcDbEntity
  8
0-F
  6
Continuous
 62
     7
370
     9
100
AcDbLine
 10
-662.0408229467142
 20
-44.185181702498
 30
0.0
 11
166.9591902500763
 21
-44.185181702498
 31
0.0
  0
LINE
  5
BC
330
1F
100
AcDbEntity
  8
0-F
  6
Continuous
 62
     7
370
     9
100
AcDbLine
 10
-64.04092852103847
 20
11.81480510071137
 30
0.0
 11
-64.04092852103847
 21
-45.38516586634935
 31
0.0
  0
LINE
  5
BD
330
1F
100
AcDbEntity
  8
0-F
  6
Continuous
 62
     7
370
     9
100
AcDbLine
 10
-662.0408229467142
 20
-44.185181702498
 30
0.0
 11
-650.1436193466297
 21
-42.61893711318217
 31
0.0
  0
LINE
  5
BE
330
1F
100
AcDbEntity
  8
0-F
  6
Continuous
 62
     7
370
     9
100
AcDbLine
 10
-662.0408229467142
 20
-44.185181702498
 30
0.0
 11
-650.1436193466297
 21
-45.75147577977842
 31
0.0
  0
LINE
  5
BF
330
1F
100
AcDbEntity
  8
0-F
  6
Continuous
 62
     7
370
     9
100
AcDbLine
 10
-64.04092852103847
 20
-44.185181702498
 30
0.0
 11
-75.93823109705201
 21
-42.61893711318217
 31
0.0
  0
LINE
  5
C0
330
1F
100
AcDbEntity
  8
0-F
  6
Continuous
 62
     7
370
     9
100
AcDbLine
 10
-64.04092852103847
 20
-44.185181702498
 30
0.0
 11
-75.93823109705201
 21
-45.75147577977842
 31
0.0
  0
LINE
  5
C1
330
1F
100
AcDbEntity
  8
0-F
  6
Continuous
 62
     7
370
     9
100
AcDbLine
 10
-62.04082294671421
 20
-44.185181702498
 30
0.0
 11
-50.14352037070066
 21
-42.61893711318217
 31
0.0
  0
LINE
  5
C2
330
1F
100
AcDbEntity
  8
0-F
  6
Continuous
 62
     7
370
     9
100
AcDbLine
 10
-62.04082294671421
 20
-44.185181702498
 30
0.0
 11
-50.14352037070066
 21
-45.75147577977842
 31
0.0
  0
LINE
  5
C3
330
1F
100
AcDbEntity
  8
0-F
  6
Continuous
 62
     7
370
     9
100
AcDbLine
 10
-62.04082294671421
 20
11.81480510071137
 30
0.0
 11
-62.04082294671421
 21
-45.38516586634935
 31
0.0
  0
LINE
  5
C4
330
1F
100
AcDbEntity
  8
0-F
  6
Continuous
 62
     7
370
     9
100
AcDbLine
 10
-662.0408229467142
 20
11.81480510071137
 30
0.0
 11
-662.0408229467142
 21
-45.38516586634935
 31
0.0
  0
LINE
  5
C5
330
1F
100
AcDbEntity
  8
0-F
  6
Continuous
 62
     7
370
     9
100
AcDbLine
 10
382.9592100452622
 20
19.01480905974856
 30
0.0
 11
325.7592390782014
 21
19.01480905974856
 31
0.0
  0
LINE
  5
C6
330
1F
100
AcDbEntity
  8
0-F
  6
Continuous
 62
     7
370
     9
100
AcDbLine
 10
326.9592232420526
 20
15.814818297502
 30
0.0
 11
325.3929291647722
 21
3.917466233523868
 31
0.0
  0
LINE
  5
C7
330
1F
100
AcDbEntity
  8
0-F
  6
Continuous
 62
     7
370
     9
100
AcDbLine
 10
326.9592232420526
 20
15.814818297502
 30
0.0
 11
328.5255173193331
 21
3.917466233523868
 31
0.0
  0
LINE
  5
C8
330
1F
100
AcDbEntity
  8
0-F
  6
Continuous
 62
     7
370
     9
100
AcDbLine
 10
326.9592232420526
 20
-25.52524979793728
 30
0.0
 11
326.9592232420526
 21
363.7359443796388
 31
0.0
  0
LINE
  5
C9
330
1F
100
AcDbEntity
  8
0-F
  6
Continuous
 62
     7
370
     9
100
AcDbLine
 10
382.9592100452622
 20
22.81479190392085
 30
0.0
 11
325.7592390782014
 21
22.81479190392085
 31
0.0
  0
LINE
  5
CA
330
1F
100
AcDbEntity
  8
0-F
  6
Continuous
 62
     7
370
     9
100
AcDbLine
 10
382.9592100452622
 20
322.8148413918855
 30
0.0
 11
325.7592390782014
 21
322.8148413918855
 31
0.0
  0
LINE
  5
CB
330
1F
100
AcDbEntity
  8
0-F
  6
Continuous
 62
     7
370
     9
100
AcDbLine
 10
326.9592232420526
 20
22.81479190392085
 30
0.0
 11
325.3929291647722
 21
34.71214396789887
 31
0.0
  0
LINE
  5
CC
330
1F
100
AcDbEntity
  8
0-F
  6
Continuous
 62
     7
370
     9
100
AcDbLine
 10
326.9592232420526
 20
22.81479190392085
 30
0.0
 11
328.5255173193331
 21
34.71214396789887
 31
0.0
  0
LINE
  5
CD
330
1F
100
AcDbEntity
  8
0-F
  6
Continuous
 62
     7
370
     9
100
AcDbLine
 10
326.9592232420526
 20
322.8148413918855
 30
0.0
 11
325.3929291647722
 21
310.9174398399429
 31
0.0
  0
LINE
  5
CE
330
1F
100
AcDbEntity
  8
0-F
  6
Continuous
 62
     7
370
     9
100
AcDbLine
 10
326.9592232420526
 20
322.8148413918855
 30
0.0
 11
328.5255173193331
 21
310.9174398399429
 31
0.0
  0
LINE
  5
CF
330
1F
100
AcDbEntity
  8
0-F
  6
Continuous
 62
     7
370
     9
100
AcDbLine
 10
382.9592100452622
 20
326.6148242360578
 30
0.0
 11
325.7592390782014
 21
326.6148242360578
 31
0.0
  0
LINE
  5
D0
330
1F
100
AcDbEntity
  8
0-F
  6
Continuous
 62
     7
370
     9
100
AcDbLine
 10
326.9592232420526
 20
329.8148149983043
 30
0.0
 11
325.3929291647722
 21
341.7121175743179
 31
0.0
  0
LINE
  5
D1
330
1F
100
AcDbEntity
  8
0-F
  6
Continuous
 62
     7
370
     9
100
AcDbLine
 10
326.9592232420526
 20
329.8148149983043
 30
0.0
 11
328.5255173193331
 21
341.7121175743179
 31
0.0
  0
LINE
  5
D2
330
1F
100
AcDbEntity
  8
0-F
  6
Continuous
 62
     7
370
     9
100
AcDbLine
 10
286.9591902500764
 20
15.81471932157294
 30
0.0
 11
286.9591902500764
 21
329.8150129501624
 31
0.0
  0
LINE
  5
D3
330
1F
100
AcDbEntity
  8
0-F
  6
Continuous
 62
     7
370
     9
100
AcDbLine
 10
286.9591902500764
 20
15.81471932157294
 30
0.0
 11
285.392896172796
 21
27.71207138555096
 31
0.0
  0
LINE
  5
D4
330
1F
100
AcDbEntity
  8
0-F
  6
Continuous
 62
     7
370
     9
100
AcDbLine
 10
286.9591902500764
 20
15.81471932157294
 30
0.0
 11
288.5254843273568
 21
27.71207138555096
 31
0.0
  0
LINE
  5
D5
330
1F
100
AcDbEntity
  8
0-F
  6
Continuous
 62
     7
370
     9
100
AcDbLine
 10
286.9591902500764
 20
329.8150129501624
 30
0.0
 11
285.392896172796
 21
317.917710374149
 31
0.0
  0
LINE
  5
D6
330
1F
100
AcDbEntity
  8
0-F
  6
Continuous
 62
     7
370
     9
100
AcDbLine
 10
286.9591902500764
 20
329.8150129501624
 30
0.0
 11
288.5254843273568
 21
317.917710374149
 31
0.0
  0
LINE
  5
D7
330
1F
100
AcDbEntity
  8
0-F
  6
Continuous
 62
     7
370
     9
100
AcDbLine
 10
382.9592100452622
 20
329.8148149983043
 30
0.0
 11
285.7592060862249
 21
329.8150129501624
 31
0.0
  0
LINE
  5
D8
330
1F
100
AcDbEntity
  8
0-F
  6
Continuous
 62
     7
370
     9
100
AcDbLine
 10
382.9592100452622
 20
15.814818297502
 30
0.0
 11
285.7592060862249
 21
15.81471932157294
 31
0.0
  0
LINE
  5
D9
330
1F
100
AcDbEntity
  8
0-F
  6
Continuous
 62
     7
370
     9
100
AcDbLine
 10
603.7152211833535
 20
15.814818297502
 30
0.0
 11
603.7152211833535
 21
329.8148149983043
 31
0.0
  0
LINE
  5
DA
330
1F
100
AcDbEntity
  8
0-F
  6
Continuous
 62
     7
370
     9
100
AcDbLine
 10
500.9592034468668
 20
15.814818297502
 30
0.0
 11
604.9152053472047
 21
15.814818297502
 31
0.0
  0
LINE
  5
DB
330
1F
100
AcDbEntity
  8
0-F
  6
Continuous
 62
     7
370
     9
100
AcDbLine
 10
500.9592034468668
 20
72.81480839990908
 30
0.0
 11
604.9152053472047
 21
72.81480839990908
 31
0.0
  0
LINE
  5
DC
330
1F
100
AcDbEntity
  8
0-F
  6
Continuous
 62
     7
370
     9
100
AcDbLine
 10
603.7152211833535
 20
15.814818297502
 30
0.0
 11
602.1489271060731
 21
27.71221984944449
 31
0.0
  0
LINE
  5
DD
330
1F
100
AcDbEntity
  8
0-F
  6
Continuous
 62
     7
370
     9
100
AcDbLine
 10
603.7152211833535
 20
15.814818297502
 30
0.0
 11
605.2815152606337
 21
27.71221984944449
 31
0.0
  0
LINE
  5
DE
330
1F
100
AcDbEntity
  8
0-F
  6
Continuous
 62
     7
370
     9
100
AcDbLine
 10
605.2815152606337
 20
84.7121604638871
 30
0.0
 11
602.1489271060731
 21
60.91745633593106
 31
0.0
  0
LINE
  5
DF
330
1F
100
AcDbEntity
  8
0-F
  6
Continuous
 62
     7
370
     9
100
AcDbLine
 10
602.1489271060731
 20
84.7121604638871
 30
0.0
 11
605.2815152606337
 21
60.91745633593106
 31
0.0
  0
LINE
  5
E0
330
1F
100
AcDbEntity
  8
0-F
  6
Continuous
 62
     7
370
     9
100
AcDbLine
 10
500.9592034468668
 20
272.8146764320037
 30
0.0
 11
604.9152053472047
 21
272.8146764320037
 31
0.0
  0
LINE
  5
E1
330
1F
100
AcDbEntity
  8
0-F
  6
Continuous
 62
     7
370
     9
100
AcDbLine
 10
605.2815152606337
 20
284.7120779839463
 30
0.0
 11
602.1489271060731
 21
260.9173738559901
 31
0.0
  0
LINE
  5
E2
330
1F
100
AcDbEntity
  8
0-F
  6
Continuous
 62
     7
370
     9
100
AcDbLine
 10
602.1489271060731
 20
284.7120779839463
 30
0.0
 11
605.2815152606337
 21
260.9173738559901
 31
0.0
  0
LINE
  5
E3
330
1F
100
AcDbEntity
  8
0-F
  6
Continuous
 62
     7
370
     9
100
AcDbLine
 10
500.9592034468668
 20
329.8148149983043
 30
0.0
 11
604.9152053472047
 21
329.8148149983043
 31
0.0
  0
LINE
  5
E4
330
1F
100
AcDbEntity
  8
0-F
  6
Continuous
 62
     7
370
     9
100
AcDbLine
 10
603.7152211833535
 20
329.8148149983043
 30
0.0
 11
602.1489271060731
 21
317.9175124222909
 31
0.0
  0
LINE
  5
E5
330
1F
100
AcDbEntity
  8
0-F
  6
Continuous
 62
     7
370
     9
100
AcDbLine
 10
603.7152211833535
 20
329.8148149983043
 30
0.0
 11
605.2815152606337
 21
317.9175124222909
 31
0.0
  0
LINE
  5
E6
330
1F
100
AcDbEntity
  8
0-F
  6
Continuous
 62
     7
370
     9
100
AcDbLine
 10
386.9592232420526
 20
389.8148149983044
 30
0.0
 11
436.9590912741472
 21
389.8148149983044
 31
0.0
  0
LINE
  5
E7
330
1F
100
AcDbEntity
  8
0-F
  6
Continuous
 62
     7
370
     9
100
AcDbLine
 10
436.9590912741472
 20
333.8148281950949
 30
0.0
 11
436.9590912741472
 21
391.0147991621557
 31
0.0
  0
LINE
  5
E8
330
1F
100
AcDbEntity
  8
0-F
  6
Continuous
 62
     7
370
     9
100
AcDbLine
 10
386.9592232420526
 20
389.8148149983044
 30
0.0
 11
398.8565258180662
 21
391.3811090755847
 31
0.0
  0
LINE
  5
E9
330
1F
100
AcDbEntity
  8
0-F
  6
Continuous
 62
     7
370
     9
100
AcDbLine
 10
386.9592232420526
 20
389.8148149983044
 30
0.0
 11
398.8565258180662
 21
388.248520921024
 31
0.0
  0
LINE
  5
EA
330
1F
100
AcDbEntity
  8
0-F
  6
Continuous
 62
     7
370
     9
100
AcDbLine
 10
436.9590912741472
 20
389.8148149983044
 30
0.0
 11
425.0617886981337
 21
391.3811090755847
 31
0.0
  0
LINE
  5
EB
330
1F
100
AcDbEntity
  8
0-F
  6
Continuous
 62
     7
370
     9
100
AcDbLine
 10
436.9590912741472
 20
389.8148149983044
 30
0.0
 11
425.0617886981337
 21
388.248520921024
 31
0.0
  0
LINE
  5
EC
330
1F
100
AcDbEntity
  8
0-F
  6
Continuous
 62
     7
370
     9
100
AcDbLine
 10
386.9592232420526
 20
429.8148479902807
 30
0.0
 11
440.1590820363939
 21
429.8148479902807
 31
0.0
  0
LINE
  5
ED
330
1F
100
AcDbEntity
  8
0-F
  6
Continuous
 62
     7
370
     9
100
AcDbLine
 10
440.1590820363939
 20
333.8148281950949
 30
0.0
 11
440.1590820363939
 21
431.0148321541321
 31
0.0
  0
LINE
  5
EE
330
1F
100
AcDbEntity
  8
0-F
  6
Continuous
 62
     7
370
     9
100
AcDbLine
 10
386.9592232420526
 20
429.8148479902807
 30
0.0
 11
398.8565258180662
 21
431.3811420675611
 31
0.0
  0
LINE
  5
EF
330
1F
100
AcDbEntity
  8
0-F
  6
Continuous
 62
     7
370
     9
100
AcDbLine
 10
386.9592232420526
 20
429.8148479902807
 30
0.0
 11
398.8565258180662
 21
428.2485539130003
 31
0.0
  0
LINE
  5
F0
330
1F
100
AcDbEntity
  8
0-F
  6
Continuous
 62
     7
370
     9
100
AcDbLine
 10
440.1590820363939
 20
429.8148479902807
 30
0.0
 11
428.2617794603804
 21
431.3811420675611
 31
0.0
  0
LINE
  5
F1
330
1F
100
AcDbEntity
  8
0-F
  6
Continuous
 62
     7
370
     9
100
AcDbLine
 10
440.1590820363939
 20
429.8148479902807
 30
0.0
 11
428.2617794603804
 21
428.2485539130003
 31
0.0
  0
LINE
  5
F2
330
1F
100
AcDbEntity
  8
0-F
  6
Continuous
 62
     7
370
     9
100
AcDbLine
 10
386.9592232420526
 20
469.8148809822571
 30
0.0
 11
496.9591902500764
 21
469.8148809822571
 31
0.0
  0
LINE
  5
F3
330
1F
100
AcDbEntity
  8
0-F
  6
Continuous
 62
     7
370
     9
100
AcDbLine
 10
496.9591902500764
 20
333.8148281950949
 30
0.0
 11
496.9591902500764
 21
471.0148651461084
 31
0.0
  0
LINE
  5
F4
330
1F
100
AcDbEntity
  8
0-F
  6
Continuous
 62
     7
370
     9
100
AcDbLine
 10
386.9592232420526
 20
469.8148809822571
 30
0.0
 11
398.8565258180662
 21
471.3811750595376
 31
0.0
  0
LINE
  5
F5
330
1F
100
AcDbEntity
  8
0-F
  6
Continuous
 62
     7
370
     9
100
AcDbLine
 10
386.9592232420526
 20
469.8148809822571
 30
0.0
 11
398.8565258180662
 21
468.2485869049767
 31
0.0
  0
LINE
  5
F6
330
1F
100
AcDbEntity
  8
0-F
  6
Continuous
 62
     7
370
     9
100
AcDbLine
 10
496.9591902500764
 20
469.8148809822571
 30
0.0
 11
485.0618876740629
 21
471.3811750595376
 31
0.0
  0
LINE
  5
F7
330
1F
100
AcDbEntity
  8
0-F
  6
Continuous
 62
     7
370
     9
100
AcDbLine
 10
496.9591902500764
 20
469.8148809822571
 30
0.0
 11
485.0618876740629
 21
468.2485869049767
 31
0.0
  0
LINE
  5
F8
330
1F
100
AcDbEntity
  8
0-F
  6
Continuous
 62
     7
370
     9
100
AcDbLine
 10
386.9592232420526
 20
333.8148281950949
 30
0.0
 11
386.9592232420526
 21
471.0148651461084
 31
0.0
  0
LINE
  5
F9
330
1F
100
AcDbEntity
  8
0-E
  6
Continuous
 62
     7
370
     9
100
AcDbLine
 10
216.3870763881677
 20
-77.78647036909436
 30
0.0
 11
363.6021906723737
 21
-77.78647036909436
 31
0.0
  0
LINE
  5
FA
330
1F
100
AcDbEntity
  8
0-E
  6
Continuous
 62
     7
370
     9
100
AcDbLine
 10
386.9592232420526
 20
259.3687964700105
 30
0.0
 11
382.1424606787081
 21
270.3596774877469
 31
0.0
  0
LINE
  5
FB
330
1F
100
AcDbEntity
  8
0-E
  6
Continuous
 62
     7
370
     9
100
AcDbLine
 10
386.9592232420526
 20
259.3687964700105
 30
0.0
 11
385.1512299460222
 21
271.2318533745713
 31
0.0
  0
LINE
  5
FC
330
1F
100
AcDbEntity
  8
0-E
  6
Continuous
 62
     7
370
     9
100
AcDbLine
 10
386.9592232420526
 20
259.3687964700105
 30
0.0
 11
338.777543026681
 21
425.5847157584395
 31
0.0
  0
LINE
  5
FD
330
1F
100
AcDbEntity
  8
0-E
  6
Continuous
 62
     7
370
     9
100
AcDbLine
 10
363.6021906723737
 20
-77.78647036909436
 30
0.0
 11
417.6429489599581
 21
15.814818297502
 31
0.0
  0
LINE
  5
FE
330
1F
100
AcDbEntity
  8
0-E
  6
Continuous
 62
     7
370
     9
100
AcDbLine
 10
417.6429489599581
 20
15.814818297502
 30
0.0
 11
413.0507627796372
 21
4.728227556370229
 31
0.0
  0
LINE
  5
FF
330
1F
100
AcDbEntity
  8
0-E
  6
Continuous
 62
     7
370
     9
100
AcDbLine
 10
417.6429489599581
 20
15.814818297502
 30
0.0
 11
410.3378325642656
 21
6.294571121615121
 31
0.0
  0
LINE
  5
100
330
1F
100
AcDbEntity
  8
0-2
  6
Continuous
 62
     3
370
     9
100
AcDbLine
 10
-662.0408229467142
 20
-227.5635765768646
 30
0.0
 11
-661.0407701595522
 21
-222.5635600808764
 31
0.0
  0
LINE
  5
101
330
1F
100
AcDbEntity
  8
0-2
  6
Continuous
 62
     3
370
     9
100
AcDbLine
 10
-657.8987792917311
 20
-237.4101968788071
 30
0.0
 11
-655.1947569099744
 21
-272.5635765768646
 31
0.0
  0
LINE
  5
102
330
1F
100
AcDbEntity
  8
0-2
  6
Continuous
 62
     3
370
     9
100
AcDbLine
 10
-438.1612304636061
 20
-264.9869692077767
 30
0.0
 11
-436.1409337997548
 21
-272.5635765768646
 31
0.0
  0
LINE
  5
103
330
1F
100
AcDbEntity
  8
0-2
  6
Continuous
 62
     3
370
     9
100
AcDbLine
 10
-436.1409337997548
 20
-272.5635765768646
 30
0.0
 11
-405.540743765971
 21
-272.5635765768646
 31
0.0
  0
LINE
  5
104
330
1F
100
AcDbEntity
  8
0-2
  6
Continuous
 62
     3
370
     9
100
AcDbLine
 10
-403.5204471021196
 20
-264.9869692077767
 30
0.0
 11
-405.540743765971
 21
-272.5635765768646
 31
0.0
  0
LINE
  5
105
330
1F
100
AcDbEntity
  8
0-2
  6
Continuous
 62
     3
370
     9
100
AcDbLine
 10
-509.4580460780487
 20
-257.5635765768646
 30
0.0
 11
-447.8236565615791
 21
-257.5635765768646
 31
0.0
  0
LINE
  5
106
330
1F
100
AcDbEntity
  8
0-2
  6
Continuous
 62
     3
370
     9
100
AcDbLine
 10
-660.8210435970522
 20
-234.0690664417294
 30
0.0
 11
-662.0408229467142
 21
-227.5635765768646
 31
0.0
  0
LINE
  5
107
330
1F
100
AcDbEntity
  8
0-2
  6
Continuous
 62
     3
370
     9
100
AcDbLine
 10
-646.0407701595522
 20
-235.5636029704457
 30
0.0
 11
-648.8870209513595
 21
-272.5635765768646
 31
0.0
  0
LINE
  5
108
330
1F
100
AcDbEntity
  8
0-2
  6
Continuous
 62
     3
370
     9
100
AcDbLine
 10
-655.1947569099744
 20
-272.5635765768646
 30
0.0
 11
-632.2408532993325
 21
-272.5635765768646
 31
0.0
  0
LINE
  5
109
330
1F
100
AcDbEntity
  8
0-2
  6
Continuous
 62
     3
370
     9
100
AcDbLine
 10
-630.2204576595522
 20
-264.9869692077767
 30
0.0
 11
-632.2408532993325
 21
-272.5635765768646
 31
0.0
  0
LINE
  5
10A
330
1F
100
AcDbEntity
  8
0-2
  6
Continuous
 62
     3
370
     9
100
AcDbLine
 10
-644.3650087047379
 20
-235.5636029704457
 30
0.0
 11
-659.1990260717142
 21
-235.5636029704457
 31
0.0
  0
LINE
  5
10B
330
1F
100
AcDbEntity
  8
0-2
  6
Continuous
 62
     3
370
     9
100
AcDbLine
 10
-642.4788244247547
 20
-231.0674234413071
 30
0.0
 11
-642.876608683623
 21
-234.249598536324
 31
0.0
  0
LINE
  5
10C
330
1F
100
AcDbEntity
  8
0-2
  6
Continuous
 62
     3
370
     9
100
AcDbLine
 10
-610.6421281092987
 20
-255.3627973063832
 30
0.0
 11
-639.4395705712919
 21
-237.7643327529626
 31
0.0
  0
LINE
  5
10D
330
1F
100
AcDbEntity
  8
0-2
  6
Continuous
 62
     3
370
     9
100
AcDbLine
 10
-553.7612555375082
 20
-264.9869692077767
 30
0.0
 11
-551.7408598977278
 21
-272.5635765768646
 31
0.0
  0
LINE
  5
10E
330
1F
100
AcDbEntity
  8
0-2
  6
Continuous
 62
     3
370
     9
100
AcDbLine
 10
-551.7408598977278
 20
-272.5635765768646
 30
0.0
 11
-521.140867815802
 21
-272.5635765768646
 31
0.0
  0
LINE
  5
10F
330
1F
100
AcDbEntity
  8
0-2
  6
Continuous
 62
     3
370
     9
100
AcDbLine
 10
-519.1203732000926
 20
-264.9869692077767
 30
0.0
 11
-521.140867815802
 21
-272.5635765768646
 31
0.0
  0
LINE
  5
110
330
1F
100
AcDbEntity
  8
0-2
  6
Continuous
 62
     3
370
     9
100
AcDbLine
 10
-528.7650826067648
 20
-235.5636029704457
 30
0.0
 11
-544.1166451067648
 21
-235.5636029704457
 31
0.0
  0
LINE
  5
111
330
1F
100
AcDbEntity
  8
0-2
  6
Continuous
 62
     3
370
     9
100
AcDbLine
 10
-542.2266007655487
 20
-235.5636029704457
 30
0.0
 11
-539.5836465320183
 21
-272.5635765768646
 31
0.0
  0
LINE
  5
112
330
1F
100
AcDbEntity
  8
0-2
  6
Continuous
 62
     3
370
     9
100
AcDbLine
 10
-530.6551269479811
 20
-235.5636029704457
 30
0.0
 11
-533.2979822055825
 21
-272.5635765768646
 31
0.0
  0
LINE
  5
113
330
1F
100
AcDbEntity
  8
0-2
  6
Continuous
 62
     3
370
     9
100
AcDbLine
 10
-545.8158638567648
 20
-232.5635435848883
 30
0.0
 11
-640.9009501637751
 21
-232.5635435848883
 31
0.0
  0
LINE
  5
114
330
1F
100
AcDbEntity
  8
0-2
  6
Continuous
 62
     3
370
     9
100
AcDbLine
 10
-546.4407978728121
 20
-227.5635765768646
 30
0.0
 11
-545.6051441038088
 21
-234.249598536324
 31
0.0
  0
LINE
  5
115
330
1F
100
AcDbEntity
  8
0-2
  6
Continuous
 62
     3
370
     9
100
AcDbLine
 10
-526.4408308647886
 20
-227.5635765768646
 30
0.0
 11
-527.2766825856501
 21
-234.249598536324
 31
0.0
  0
LINE
  5
116
330
1F
100
AcDbEntity
  8
0-2
  6
Continuous
 62
     3
370
     9
100
AcDbLine
 10
-413.1649585569338
 20
-235.5636029704457
 30
0.0
 11
-428.5166200328629
 21
-235.5636029704457
 31
0.0
  0
LINE
  5
117
330
1F
100
AcDbEntity
  8
0-2
  6
Continuous
 62
     3
370
     9
100
AcDbLine
 10
-426.6265756916467
 20
-235.5636029704457
 30
0.0
 11
-423.9838194099744
 21
-272.5635765768646
 31
0.0
  0
LINE
  5
118
330
1F
100
AcDbEntity
  8
0-2
  6
Continuous
 62
     3
370
     9
100
AcDbLine
 10
-415.0551018740791
 20
-235.5636029704457
 30
0.0
 11
-417.6980561076095
 21
-272.5635765768646
 31
0.0
  0
LINE
  5
119
330
1F
100
AcDbEntity
  8
0-2
  6
Continuous
 62
     3
370
     9
100
AcDbLine
 10
-430.8406738229811
 20
-227.5635765768646
 30
0.0
 11
-430.0051190299068
 21
-234.249598536324
 31
0.0
  0
LINE
  5
11A
330
1F
100
AcDbEntity
  8
0-2
  6
Continuous
 62
     3
370
     9
100
AcDbLine
 10
-410.8410037427446
 20
-227.5635765768646
 30
0.0
 11
-411.676558535819
 21
-234.249598536324
 31
0.0
  0
LINE
  5
11B
330
1F
100
AcDbEntity
  8
0-2
  6
Continuous
 62
     3
370
     9
100
AcDbLine
 10
-527.0658638567648
 20
-232.5635435848883
 30
0.0
 11
-430.2158387828629
 21
-232.5635435848883
 31
0.0
  0
LINE
  5
11C
330
1F
100
AcDbEntity
  8
0-2
  6
Continuous
 62
     3
370
     9
100
AcDbLine
 10
-585.0407173723898
 20
-281.4569597060876
 30
0.0
 11
-585.0407173723898
 21
-305.4570388868308
 31
0.0
  0
LINE
  5
11D
330
1F
100
AcDbEntity
  8
0-2
  6
Continuous
 62
     3
370
     9
100
AcDbLine
 10
-590.0406843804136
 20
-281.4569597060876
 30
0.0
 11
-590.0406843804136
 21
-305.4570388868308
 31
0.0
  0
LINE
  5
11E
330
1F
100
AcDbEntity
  8
0-2
  6
Continuous
 62
     3
370
     9
100
AcDbLine
 10
-598.0407107739946
 20
-281.4569597060876
 30
0.0
 11
-598.0407107739946
 21
-305.4570388868308
 31
0.0
  0
LINE
  5
11F
330
1F
100
AcDbEntity
  8
0-2
  6
Continuous
 62
     3
370
     9
100
AcDbLine
 10
-603.0406777820183
 20
-281.4569597060876
 30
0.0
 11
-603.0406777820183
 21
-305.4569399109017
 31
0.0
  0
LINE
  5
120
330
1F
100
AcDbEntity
  8
0-2
  6
Continuous
 62
     3
370
     9
100
AcDbLine
 10
-591.5404666333696
 20
-306.9570190916451
 30
0.0
 11
-591.5404666333696
 21
-326.9569860996687
 31
0.0
  0
LINE
  5
121
330
1F
100
AcDbEntity
  8
0-2
  6
Continuous
 62
     3
370
     9
100
AcDbLine
 10
-596.5406315932514
 20
-306.9570190916451
 30
0.0
 11
-596.5406315932514
 21
-321.6008047229794
 31
0.0
  0
LINE
  5
122
330
1F
100
AcDbEntity
  8
0-2
  6
Continuous
 62
     3
370
     9
100
AcDbLine
 10
-587.5211531304136
 20
-331.2628349172362
 30
0.0
 11
-600.3314096760217
 21
-317.5398223538916
 31
0.0
  0
LINE
  5
123
330
1F
100
AcDbEntity
  8
0-2
  6
Continuous
 62
     3
370
     9
100
AcDbLine
 10
-598.5408361435047
 20
-248.0635699784693
 30
0.0
 11
-598.5408361435047
 21
-239.0635897736552
 31
0.0
  0
LINE
  5
124
330
1F
100
AcDbEntity
  8
0-2
  6
Continuous
 62
     3
370
     9
100
AcDbLine
 10
-598.5408361435047
 20
-239.0635897736552
 30
0.0
 11
-589.5409549146196
 21
-239.0635897736552
 31
0.0
  0
LINE
  5
125
330
1F
100
AcDbEntity
  8
0-2
  6
Continuous
 62
     3
370
     9
100
AcDbLine
 10
-589.5409549146196
 20
-239.0635897736552
 30
0.0
 11
-589.5409549146196
 21
-248.0635699784693
 31
0.0
  0
LINE
  5
126
330
1F
100
AcDbEntity
  8
0-2
  6
Continuous
 62
     3
370
     9
100
AcDbLine
 10
-589.5409549146196
 20
-248.0635699784693
 30
0.0
 11
-598.5408361435047
 21
-248.0635699784693
 31
0.0
  0
LINE
  5
127
330
1F
100
AcDbEntity
  8
0-2
  6
Continuous
 62
     3
370
     9
100
AcDbLine
 10
-597.0406579868326
 20
-248.0635699784693
 30
0.0
 11
-597.0406579868326
 21
-277.456946509297
 31
0.0
  0
LINE
  5
128
330
1F
100
AcDbEntity
  8
0-2
  6
Continuous
 62
     3
370
     9
100
AcDbLine
 10
-591.0408361435049
 20
-248.0635699784693
 30
0.0
 11
-591.0408361435049
 21
-277.456946509297
 31
0.0
  0
LINE
  5
129
330
1F
100
AcDbEntity
  8
0-2
  6
Continuous
 62
     3
370
     9
100
AcDbLine
 10
-620.5580315615791
 20
-257.5635765768646
 30
0.0
 11
-597.0406579868326
 21
-257.5635765768646
 31
0.0
  0
LINE
  5
12A
330
1F
100
AcDbEntity
  8
0-2
  6
Continuous
 62
     3
370
     9
100
AcDbLine
 10
-591.0408361435049
 20
-257.5635765768646
 30
0.0
 11
-563.4235826595522
 21
-257.5635765768646
 31
0.0
  0
LINE
  5
12B
330
1F
100
AcDbEntity
  8
0-2
  6
Continuous
 62
     3
370
     9
100
AcDbLine
 10
-612.0407569627615
 20
-232.5635435848883
 30
0.0
 11
-608.5831318571873
 21
-246.2401364375065
 31
0.0
  0
LINE
  5
12C
330
1F
100
AcDbEntity
  8
0-2
  6
Continuous
 62
     3
370
     9
100
AcDbLine
 10
-576.0408361435049
 20
-232.5635435848883
 30
0.0
 11
-579.4983622731501
 21
-246.2400374615775
 31
0.0
  0
LINE
  5
12D
330
1F
100
AcDbEntity
  8
0-2
  6
Continuous
 62
     3
370
     9
100
AcDbLine
 10
-600.04071737239
 20
-232.5635435848883
 30
0.0
 11
-598.5408361435047
 21
-240.3497324837481
 31
0.0
  0
LINE
  5
12E
330
1F
100
AcDbEntity
  8
0-2
  6
Continuous
 62
     3
370
     9
100
AcDbLine
 10
-588.0406777820183
 20
-232.5635435848883
 30
0.0
 11
-589.5409549146196
 21
-240.350474803216
 31
0.0
  0
LINE
  5
12F
330
1F
100
AcDbEntity
  8
0-2
  6
JWW_CENTER1
 62
     3
370
     9
100
AcDbLine
 10
-594.0406975772041
 20
-218.5635963720504
 30
0.0
 11
-594.0406975772041
 21
-328.2787106562565
 31
0.0
  0
LINE
  5
130
330
1F
100
AcDbEntity
  8
0-2
  6
Continuous
 62
     3
370
     9
100
AcDbLine
 10
-661.0407701595522
 20
-222.5635600808764
 30
0.0
 11
-65.04078335634253
 21
-222.5635600808764
 31
0.0
  0
LINE
  5
131
330
1F
100
AcDbEntity
  8
0-2
  6
Continuous
 62
     3
370
     9
100
AcDbLine
 10
-87.57196077399462
 20
-227.5635765768646
 30
0.0
 11
-638.5096917178291
 21
-227.5635765768646
 31
0.0
  0
LINE
  5
132
330
1F
100
AcDbEntity
  8
0-2
  6
Continuous
 62
     3
370
     9
100
AcDbLine
 10
-411.4658387828629
 20
-232.5635435848883
 30
0.0
 11
-314.6159126848898
 21
-232.5635435848883
 31
0.0
  0
LINE
  5
133
330
1F
100
AcDbEntity
  8
0-2
  6
Continuous
 62
     3
370
     9
100
AcDbLine
 10
-393.8580210041467
 20
-257.5635765768646
 30
0.0
 11
-332.223532511748
 21
-257.5635765768646
 31
0.0
  0
LINE
  5
134
330
1F
100
AcDbEntity
  8
0-2
  6
Continuous
 62
     3
370
     9
100
AcDbLine
 10
-64.0408295451094
 20
-227.5635765768646
 30
0.0
 11
-65.04078335634253
 21
-222.5635600808764
 31
0.0
  0
LINE
  5
135
330
1F
100
AcDbEntity
  8
0-2
  6
Continuous
 62
     3
370
     9
100
AcDbLine
 10
-68.18287320009253
 20
-237.4101968788071
 30
0.0
 11
-70.88699455777837
 21
-272.5635765768646
 31
0.0
  0
LINE
  5
136
330
1F
100
AcDbEntity
  8
0-2
  6
Continuous
 62
     3
370
     9
100
AcDbLine
 10
-287.9204220282176
 20
-264.9869692077767
 30
0.0
 11
-289.940817667998
 21
-272.5635765768646
 31
0.0
  0
LINE
  5
137
330
1F
100
AcDbEntity
  8
0-2
  6
Continuous
 62
     3
370
     9
100
AcDbLine
 10
-289.940817667998
 20
-272.5635765768646
 30
0.0
 11
-320.5408097499237
 21
-272.5635765768646
 31
0.0
  0
LINE
  5
138
330
1F
100
AcDbEntity
  8
0-2
  6
Continuous
 62
     3
370
     9
100
AcDbLine
 10
-322.5612053897041
 20
-264.9869692077767
 30
0.0
 11
-320.5408097499237
 21
-272.5635765768646
 31
0.0
  0
LINE
  5
139
330
1F
100
AcDbEntity
  8
0-2
  6
Continuous
 62
     3
370
     9
100
AcDbLine
 10
-216.6236064137751
 20
-257.5635765768646
 30
0.0
 11
-278.2580949061737
 21
-257.5635765768646
 31
0.0
  0
LINE
  5
13A
330
1F
100
AcDbEntity
  8
0-2
  6
Continuous
 62
     3
370
     9
100
AcDbLine
 10
-65.2606088947716
 20
-234.0690664417294
 30
0.0
 11
-64.0408295451094
 21
-227.5635765768646
 31
0.0
  0
LINE
  5
13B
330
1F
100
AcDbEntity
  8
0-2
  6
Continuous
 62
     3
370
     9
100
AcDbLine
 10
-80.04078335634253
 20
-235.5636029704457
 30
0.0
 11
-77.1946315404642
 21
-272.5635765768646
 31
0.0
  0
LINE
  5
13C
330
1F
100
AcDbEntity
  8
0-2
  6
Continuous
 62
     3
370
     9
100
AcDbLine
 10
-70.88699455777837
 20
-272.5635765768646
 30
0.0
 11
-93.84079919249118
 21
-272.5635765768646
 31
0.0
  0
LINE
  5
13D
330
1F
100
AcDbEntity
  8
0-2
  6
Continuous
 62
     3
370
     9
100
AcDbLine
 10
-95.86129380820066
 20
-264.9869692077767
 30
0.0
 11
-93.84079919249118
 21
-272.5635765768646
 31
0.0
  0
LINE
  5
13E
330
1F
100
AcDbEntity
  8
0-2
  6
Continuous
 62
     3
370
     9
100
AcDbLine
 10
-81.71664378708576
 20
-235.5636029704457
 30
0.0
 11
-66.88252744418045
 21
-235.5636029704457
 31
0.0
  0
LINE
  5
13F
330
1F
100
AcDbEntity
  8
0-2
  6
Continuous
 62
     3
370
     9
100
AcDbLine
 10
-83.60282806706888
 20
-231.0674234413071
 30
0.0
 11
-83.20504380820066
 21
-234.249598536324
 31
0.0
  0
LINE
  5
140
330
1F
100
AcDbEntity
  8
0-2
  6
Continuous
 62
     3
370
     9
100
AcDbLine
 10
-115.4395243825251
 20
-255.3627973063832
 30
0.0
 11
-86.64208192053181
 21
-237.7643327529626
 31
0.0
  0
LINE
  5
141
330
1F
100
AcDbEntity
  8
0-2
  6
Continuous
 62
     3
370
     9
100
AcDbLine
 10
-172.3203969543156
 20
-264.9869692077767
 30
0.0
 11
-174.3408915700251
 21
-272.5635765768646
 31
0.0
  0
LINE
  5
142
330
1F
100
AcDbEntity
  8
0-2
  6
Continuous
 62
     3
370
     9
100
AcDbLine
 10
-174.3408915700251
 20
-272.5635765768646
 30
0.0
 11
-204.9408836519507
 21
-272.5635765768646
 31
0.0
  0
LINE
  5
143
330
1F
100
AcDbEntity
  8
0-2
  6
Continuous
 62
     3
370
     9
100
AcDbLine
 10
-206.9612792917311
 20
-264.9869692077767
 30
0.0
 11
-204.9408836519507
 21
-272.5635765768646
 31
0.0
  0
LINE
  5
144
330
1F
100
AcDbEntity
  8
0-2
  6
Continuous
 62
     3
370
     9
100
AcDbLine
 10
-197.3166688609879
 20
-235.5636029704457
 30
0.0
 11
-181.9650073850588
 21
-235.5636029704457
 31
0.0
  0
LINE
  5
145
330
1F
100
AcDbEntity
  8
0-2
  6
Continuous
 62
     3
370
     9
100
AcDbLine
 10
-183.8550517262751
 20
-235.5636029704457
 30
0.0
 11
-186.4979069838764
 21
-272.5635765768646
 31
0.0
  0
LINE
  5
146
330
1F
100
AcDbEntity
  8
0-2
  6
Continuous
 62
     3
370
     9
100
AcDbLine
 10
-195.4265255438426
 20
-235.5636029704457
 30
0.0
 11
-192.7836702862412
 21
-272.5635765768646
 31
0.0
  0
LINE
  5
147
330
1F
100
AcDbEntity
  8
0-2
  6
Continuous
 62
     3
370
     9
100
AcDbLine
 10
-180.2657886350588
 20
-232.5635435848883
 30
0.0
 11
-85.18080130397774
 21
-232.5635435848883
 31
0.0
  0
LINE
  5
148
330
1F
100
AcDbEntity
  8
0-2
  6
Continuous
 62
     3
370
     9
100
AcDbLine
 10
-179.6408546190115
 20
-227.5635765768646
 30
0.0
 11
-180.4766073639439
 21
-234.249598536324
 31
0.0
  0
LINE
  5
149
330
1F
100
AcDbEntity
  8
0-2
  6
Continuous
 62
     3
370
     9
100
AcDbLine
 10
-199.6408216270352
 20
-227.5635765768646
 30
0.0
 11
-198.8050688821028
 21
-234.249598536324
 31
0.0
  0
LINE
  5
14A
330
1F
100
AcDbEntity
  8
0-2
  6
Continuous
 62
     3
370
     9
100
AcDbLine
 10
-312.9166939348898
 20
-235.5636029704457
 30
0.0
 11
-297.5649334830318
 21
-235.5636029704457
 31
0.0
  0
LINE
  5
14B
330
1F
100
AcDbEntity
  8
0-2
  6
Continuous
 62
     3
370
     9
100
AcDbLine
 10
-299.455076800177
 20
-235.5636029704457
 30
0.0
 11
-302.0979320577784
 21
-272.5635765768646
 31
0.0
  0
LINE
  5
14C
330
1F
100
AcDbEntity
  8
0-2
  6
Continuous
 62
     3
370
     9
100
AcDbLine
 10
-311.0265506177446
 20
-235.5636029704457
 30
0.0
 11
-308.3836953601433
 21
-272.5635765768646
 31
0.0
  0
LINE
  5
14D
330
1F
100
AcDbEntity
  8
0-2
  6
Continuous
 62
     3
370
     9
100
AcDbLine
 10
-295.2407807169845
 20
-227.5635765768646
 30
0.0
 11
-296.0765334619169
 21
-234.249598536324
 31
0.0
  0
LINE
  5
14E
330
1F
100
AcDbEntity
  8
0-2
  6
Continuous
 62
     3
370
     9
100
AcDbLine
 10
-315.2408467009373
 20
-227.5635765768646
 30
0.0
 11
-314.4050939560047
 21
-234.249598536324
 31
0.0
  0
LINE
  5
14F
330
1F
100
AcDbEntity
  8
0-2
  6
Continuous
 62
     3
370
     9
100
AcDbLine
 10
-199.0157886350588
 20
-232.5635435848883
 30
0.0
 11
-295.8659126848898
 21
-232.5635435848883
 31
0.0
  0
LINE
  5
150
330
1F
100
AcDbEntity
  8
0-2
  6
Continuous
 62
     3
370
     9
100
AcDbLine
 10
-141.0410340953629
 20
-281.4569597060876
 30
0.0
 11
-141.0410340953629
 21
-305.4570388868308
 31
0.0
  0
LINE
  5
151
330
1F
100
AcDbEntity
  8
0-2
  6
Continuous
 62
     3
370
     9
100
AcDbLine
 10
-136.0409681114102
 20
-281.4569597060876
 30
0.0
 11
-136.0409681114102
 21
-305.4570388868308
 31
0.0
  0
LINE
  5
152
330
1F
100
AcDbEntity
  8
0-2
  6
Continuous
 62
     3
370
     9
100
AcDbLine
 10
-128.0409417178291
 20
-281.4569597060876
 30
0.0
 11
-128.0409417178291
 21
-305.4570388868308
 31
0.0
  0
LINE
  5
153
330
1F
100
AcDbEntity
  8
0-2
  6
Continuous
 62
     3
370
     9
100
AcDbLine
 10
-123.0409747098055
 20
-281.4569597060876
 30
0.0
 11
-123.0409747098055
 21
-305.4569399109017
 31
0.0
  0
LINE
  5
154
330
1F
100
AcDbEntity
  8
0-2
  6
Continuous
 62
     3
370
     9
100
AcDbLine
 10
-127.540915324248
 20
-248.0635699784693
 30
0.0
 11
-127.540915324248
 21
-239.0635897736552
 31
0.0
  0
LINE
  5
155
330
1F
100
AcDbEntity
  8
0-2
  6
Continuous
 62
     3
370
     9
100
AcDbLine
 10
-127.540915324248
 20
-239.0635897736552
 30
0.0
 11
-136.5407965531332
 21
-239.0635897736552
 31
0.0
  0
LINE
  5
156
330
1F
100
AcDbEntity
  8
0-2
  6
Continuous
 62
     3
370
     9
100
AcDbLine
 10
-136.5407965531332
 20
-239.0635897736552
 30
0.0
 11
-136.5407965531332
 21
-248.0635699784693
 31
0.0
  0
LINE
  5
157
330
1F
100
AcDbEntity
  8
0-2
  6
Continuous
 62
     3
370
     9
100
AcDbLine
 10
-136.5407965531332
 20
-248.0635699784693
 30
0.0
 11
-127.540915324248
 21
-248.0635699784693
 31
0.0
  0
LINE
  5
158
330
1F
100
AcDbEntity
  8
0-2
  6
Continuous
 62
     3
370
     9
100
AcDbLine
 10
-129.0409945049912
 20
-248.0635699784693
 30
0.0
 11
-129.0409945049912
 21
-277.456946509297
 31
0.0
  0
LINE
  5
159
330
1F
100
AcDbEntity
  8
0-2
  6
Continuous
 62
     3
370
     9
100
AcDbLine
 10
-135.040915324248
 20
-248.0635699784693
 30
0.0
 11
-135.040915324248
 21
-277.456946509297
 31
0.0
  0
LINE
  5
15A
330
1F
100
AcDbEntity
  8
0-2
  6
Continuous
 62
     3
370
     9
100
AcDbLine
 10
-105.5236209302446
 20
-257.5635765768646
 30
0.0
 11
-129.0409945049912
 21
-257.5635765768646
 31
0.0
  0
LINE
  5
15B
330
1F
100
AcDbEntity
  8
0-2
  6
Continuous
 62
     3
370
     9
100
AcDbLine
 10
-135.040915324248
 20
-257.5635765768646
 30
0.0
 11
-162.6580698322716
 21
-257.5635765768646
 31
0.0
  0
LINE
  5
15C
330
1F
100
AcDbEntity
  8
0-2
  6
Continuous
 62
     3
370
     9
100
AcDbLine
 10
-114.0408955290621
 20
-232.5635435848883
 30
0.0
 11
-117.4984216587074
 21
-246.2401364375065
 31
0.0
  0
LINE
  5
15D
330
1F
100
AcDbEntity
  8
0-2
  6
Continuous
 62
     3
370
     9
100
AcDbLine
 10
-150.040915324248
 20
-232.5635435848883
 30
0.0
 11
-146.5833891946028
 21
-246.2400374615775
 31
0.0
  0
LINE
  5
15E
330
1F
100
AcDbEntity
  8
0-2
  6
Continuous
 62
     3
370
     9
100
AcDbLine
 10
-126.0409351194338
 20
-232.5635435848883
 30
0.0
 11
-127.540915324248
 21
-240.3497324837481
 31
0.0
  0
LINE
  5
15F
330
1F
100
AcDbEntity
  8
0-2
  6
Continuous
 62
     3
370
     9
100
AcDbLine
 10
-138.0408757338764
 20
-232.5635435848883
 30
0.0
 11
-136.5407965531332
 21
-240.350474803216
 31
0.0
  0
LINE
  5
160
330
1F
100
AcDbEntity
  8
0-2
  6
JWW_CENTER1
 62
     3
370
     9
100
AcDbLine
 10
-132.0409549146196
 20
-218.5635963720504
 30
0.0
 11
-132.0409549146196
 21
-328.2787106562565
 31
0.0
  0
LINE
  5
161
330
1F
100
AcDbEntity
  8
0-2
  6
Continuous
 62
     3
370
     9
100
AcDbLine
 10
-125.5214104678291
 20
-331.2628349172362
 30
0.0
 11
-138.3316670134371
 21
-317.5398223538916
 31
0.0
  0
LINE
  5
162
330
1F
100
AcDbEntity
  8
0-2
  6
Continuous
 62
     3
370
     9
100
AcDbLine
 10
-134.5411858584541
 20
-306.9570190916451
 30
0.0
 11
-134.5411858584541
 21
-321.6004088192633
 31
0.0
  0
LINE
  5
163
330
1F
100
AcDbEntity
  8
0-2
  6
Continuous
 62
     3
370
     9
100
AcDbLine
 10
-129.5410208985724
 20
-306.9570190916451
 30
0.0
 11
-129.5410208985724
 21
-326.9567881478106
 31
0.0
  0
LINE
  5
164
330
1F
100
AcDbEntity
  8
0-F
  6
Continuous
 62
     7
370
     9
100
AcDbLine
 10
396.9591572580999
 20
88.81481169910668
 30
0.0
 11
408.8564598341135
 21
90.3811057763871
 31
0.0
  0
LINE
  5
165
330
1F
100
AcDbEntity
  8
0-F
  6
Continuous
 62
     7
370
     9
100
AcDbLine
 10
396.9591572580999
 20
88.81481169910668
 30
0.0
 11
408.8564598341135
 21
87.24851762182627
 31
0.0
  0
LINE
  5
166
330
1F
100
AcDbEntity
  8
0-F
  6
Continuous
 62
     7
370
     9
100
AcDbLine
 10
386.9593222179818
 20
88.81481169910668
 30
0.0
 11
375.0620196419683
 21
90.3811057763871
 31
0.0
  0
LINE
  5
167
330
1F
100
AcDbEntity
  8
0-F
  6
Continuous
 62
     7
370
     9
100
AcDbLine
 10
386.9593222179818
 20
88.81481169910668
 30
0.0
 11
375.0620196419683
 21
87.24851762182627
 31
0.0
  0
LINE
  5
168
330
1F
100
AcDbEntity
  8
0-F
  6
Continuous
 62
     7
370
     9
100
AcDbLine
 10
415.4948743716981
 20
88.81481169910668
 30
0.0
 11
357.6271128113095
 21
88.81481169910668
 31
0.0
  0
LINE
  5
169
330
1F
100
AcDbEntity
  8
0-F
  6
Continuous
 62
     7
370
     9
100
AcDbLine
 10
-666.0410340953629
 20
154.8147820063279
 30
0.0
 11
-703.2410380544001
 21
154.8147820063279
 31
0.0
  0
LINE
  5
16A
330
1F
100
AcDbEntity
  8
0-F
  6
Continuous
 62
     7
370
     9
100
AcDbLine
 10
-666.0410340953629
 20
134.8147655103398
 30
0.0
 11
-703.2410380544001
 21
134.8147655103398
 31
0.0
  0
LINE
  5
16B
330
1F
100
AcDbEntity
  8
0-F
  6
Continuous
 62
     7
370
     9
100
AcDbLine
 10
-702.0410538905487
 20
134.8147655103398
 30
0.0
 11
-703.6073479678291
 21
122.9174134463618
 31
0.0
  0
LINE
  5
16C
330
1F
100
AcDbEntity
  8
0-F
  6
Continuous
 62
     7
370
     9
100
AcDbLine
 10
-702.0410538905487
 20
134.8147655103398
 30
0.0
 11
-700.4746608373392
 21
122.9174134463618
 31
0.0
  0
LINE
  5
16D
330
1F
100
AcDbEntity
  8
0-F
  6
Continuous
 62
     7
370
     9
100
AcDbLine
 10
-666.0410340953629
 20
162.8147589119445
 30
0.0
 11
-703.2410380544001
 21
162.8147589119445
 31
0.0
  0
LINE
  5
16E
330
1F
100
AcDbEntity
  8
0-F
  6
Continuous
 62
     7
370
     9
100
AcDbLine
 10
-702.0410538905487
 20
162.8147589119445
 30
0.0
 11
-703.6073479678291
 21
174.7121109759226
 31
0.0
  0
LINE
  5
16F
330
1F
100
AcDbEntity
  8
0-F
  6
Continuous
 62
     7
370
     9
100
AcDbLine
 10
-702.0410538905487
 20
162.8147589119445
 30
0.0
 11
-700.4746608373392
 21
174.7121109759226
 31
0.0
  0
LINE
  5
170
330
1F
100
AcDbEntity
  8
0-F
  6
Continuous
 62
     7
370
     9
100
AcDbLine
 10
-702.0410538905487
 20
116.0170096245713
 30
0.0
 11
-702.0410538905487
 21
190.7005340914208
 31
0.0
  0
LINE
  5
171
330
1F
100
AcDbEntity
  8
0-2
  6
Continuous
 62
     3
370
     9
100
AcDbLine
 10
-588.0410736857344
 20
182.8147754079327
 30
0.0
 11
-588.0410736857344
 21
190.8147028255847
 31
0.0
  0
LINE
  5
172
330
1F
100
AcDbEntity
  8
0-2
  6
Continuous
 62
     3
370
     9
100
AcDbLine
 10
-600.0410143001772
 20
182.8147754079327
 30
0.0
 11
-600.0410143001772
 21
190.8147028255847
 31
0.0
  0
LINE
  5
173
330
1F
100
AcDbEntity
  8
0-2
  6
Continuous
 62
     3
370
     9
100
AcDbLine
 10
-126.0410340953629
 20
182.8147754079327
 30
0.0
 11
-126.0410340953629
 21
190.8147028255847
 31
0.0
  0
LINE
  5
174
330
1F
100
AcDbEntity
  8
0-2
  6
Continuous
 62
     3
370
     9
100
AcDbLine
 10
-138.0410736857345
 20
182.8147754079327
 30
0.0
 11
-138.0410736857345
 21
190.8147028255847
 31
0.0
  0
LINE
  5
175
330
1F
100
AcDbEntity
  8
0-2
  6
Continuous
 62
     3
370
     9
100
AcDbLine
 10
-138.0410736857345
 20
162.8147589119445
 30
0.0
 11
-138.0410736857345
 21
154.8147820063279
 31
0.0
  0
LINE
  5
176
330
1F
100
AcDbEntity
  8
0-2
  6
Continuous
 62
     3
370
     9
100
AcDbLine
 10
-126.0410340953629
 20
162.8147589119445
 30
0.0
 11
-126.0410340953629
 21
154.8147820063279
 31
0.0
  0
LINE
  5
177
330
1F
100
AcDbEntity
  8
0-2
  6
Continuous
 62
     3
370
     9
100
AcDbLine
 10
-600.0410143001772
 20
162.8147589119445
 30
0.0
 11
-600.0410143001772
 21
154.8147820063279
 31
0.0
  0
LINE
  5
178
330
1F
100
AcDbEntity
  8
0-2
  6
Continuous
 62
     3
370
     9
100
AcDbLine
 10
-588.0410736857344
 20
162.8147589119445
 30
0.0
 11
-588.0410736857344
 21
154.8147820063279
 31
0.0
  0
LINE
  5
179
330
1F
100
AcDbEntity
  8
0-2
  6
Continuous
 62
     3
370
     9
100
AcDbLine
 10
394.7597141626608
 20
223.001477002105
 30
0.0
 11
420.5589777817487
 21
224.7213817212773
 31
0.0
  0
LINE
  5
17A
330
1F
100
AcDbEntity
  8
0-2
  6
Continuous
 62
     3
370
     9
100
AcDbLine
 10
394.7597141626608
 20
234.6280804121556
 30
0.0
 11
420.5589777817487
 21
232.9080767170543
 31
0.0
  0
LINE
  5
17B
330
1F
100
AcDbEntity
  8
0-2
  6
Continuous
 62
     3
370
     9
100
AcDbLine
 10
435.5589777817487
 20
310.7214675004159
 30
0.0
 11
394.7597141626608
 21
308.0015099940814
 31
0.0
  0
LINE
  5
17C
330
1F
100
AcDbEntity
  8
0-2
  6
Continuous
 62
     3
370
     9
100
AcDbLine
 10
398.8098091795526
 20
319.6760177537942
 30
0.0
 11
435.5714487488095
 21
316.9188452981355
 31
0.0
  0
LINE
  5
17D
330
1F
100
AcDbEntity
  8
0-2
  6
Continuous
 62
     3
370
     9
100
AcDbLine
 10
421.9592892260054
 20
231.4114616938279
 30
0.0
 11
421.9592892260054
 21
226.2180957204327
 31
0.0
  0
LINE
  5
17E
330
1F
100
AcDbEntity
  8
0-2
  6
Continuous
 62
     3
370
     9
100
AcDbLine
 10
391.9592892260054
 20
322.8147424159564
 30
0.0
 11
396.9591572580999
 21
321.8147886047233
 31
0.0
  0
LINE
  5
17F
330
1F
100
AcDbEntity
  8
0-2
  6
Continuous
 62
     3
370
     9
100
AcDbLine
 10
396.9591572580999
 20
321.8147886047233
 30
0.0
 11
396.9591572580999
 21
321.6703827242334
 31
0.0
  0
LINE
  5
180
330
1F
100
AcDbEntity
  8
0-2
  6
JWW_PHANTOM2
 62
     3
370
     9
100
AcDbLine
 10
-62.04102089857233
 20
22.81474241595637
 30
0.0
 11
-62.04102089857233
 21
322.8147424159564
 31
0.0
  0
LINE
  5
181
330
1F
100
AcDbEntity
  8
0-2
  6
Continuous
 62
     3
370
     9
100
AcDbLine
 10
-176.0410011033865
 20
37.31471602237522
 30
0.0
 11
-176.0410011033865
 21
28.31478530552565
 31
0.0
  0
LINE
  5
182
330
1F
100
AcDbEntity
  8
0-2
  6
Continuous
 62
     3
370
     9
100
AcDbLine
 10
-175.0410472921534
 20
37.31471602237522
 30
0.0
 11
-175.0410472921534
 21
28.31478530552565
 31
0.0
  0
LINE
  5
183
330
1F
100
AcDbEntity
  8
0-2
  6
Continuous
 62
     3
370
     9
100
AcDbLine
 10
-85.04104729215337
 20
37.31471602237522
 30
0.0
 11
-85.04104729215337
 21
28.31478530552565
 31
0.0
  0
LINE
  5
184
330
1F
100
AcDbEntity
  8
0-2
  6
Continuous
 62
     3
370
     9
100
AcDbLine
 10
-84.04099450499118
 20
37.31471602237522
 30
0.0
 11
-84.04099450499118
 21
28.31478530552565
 31
0.0
  0
LINE
  5
185
330
1F
100
AcDbEntity
  8
0-2
  6
Continuous
 62
     3
370
     9
100
AcDbLine
 10
-86.54102749696753
 20
38.81474571515398
 30
0.0
 11
-173.5409681114102
 21
38.81474571515398
 31
0.0
  0
LINE
  5
186
330
1F
100
AcDbEntity
  8
0-2
  6
Continuous
 62
     3
370
     9
100
AcDbLine
 10
-86.54102749696753
 20
39.81474901435158
 30
0.0
 11
-173.5409681114102
 21
39.81474901435158
 31
0.0
  0
LINE
  5
187
330
1F
100
AcDbEntity
  8
0-2
  6
Continuous
 62
     3
370
     9
100
AcDbLine
 10
-86.54102749696753
 20
26.81475561274689
 30
0.0
 11
-173.5409681114102
 21
26.81475561274689
 31
0.0
  0
LINE
  5
188
330
1F
100
AcDbEntity
  8
0-2
  6
Continuous
 62
     3
370
     9
100
AcDbLine
 10
-86.54102749696753
 20
25.81475231354929
 30
0.0
 11
-173.5409681114102
 21
25.81475231354929
 31
0.0
  0
LINE
  5
189
330
1F
100
AcDbEntity
  8
0-2
  6
Continuous
 62
     3
370
     9
100
AcDbLine
 10
435.8505608687418
 20
272.5151752706861
 30
0.0
 11
411.045609432931
 21
265.8111396921388
 31
0.0
  0
LINE
  5
18A
330
1F
100
AcDbEntity
  8
0-2
  6
Continuous
 62
     3
370
     9
100
AcDbLine
 10
386.9592232420526
 20
264.5851248589463
 30
0.0
 11
386.9592232420526
 21
249.0445183344529
 31
0.0
  0
LINE
  5
18B
330
1F
100
AcDbEntity
  8
0-2
  6
Continuous
 62
     3
370
     9
100
AcDbLine
 10
391.9592892260054
 20
274.8553621372401
 30
0.0
 11
391.9592892260054
 21
266.7741754818347
 31
0.0
  0
LINE
  5
18C
330
1F
100
AcDbEntity
  8
0-2
  6
Continuous
 62
     3
370
     9
100
AcDbLine
 10
391.9592892260054
 20
305.0080819957706
 30
0.0
 11
391.9592892260054
 21
294.7741688834395
 31
0.0
  0
LINE
  5
18D
330
1F
100
AcDbEntity
  8
0-2
  6
Continuous
 62
     3
370
     9
100
AcDbLine
 10
396.9591572580999
 20
290.0850852685746
 30
0.0
 11
396.9591572580999
 21
279.5445447280341
 31
0.0
  0
LINE
  5
18E
330
1F
100
AcDbEntity
  8
0-2
  6
Continuous
 62
     3
370
     9
100
AcDbLine
 10
399.9593156195864
 20
94.29891946409825
 30
0.0
 11
399.9593156195864
 21
111.3480676112689
 31
0.0
  0
LINE
  5
18F
330
1F
100
AcDbEntity
  8
0-2
  6
Continuous
 62
     3
370
     9
100
AcDbLine
 10
395.7534324903635
 20
263.5558741727132
 30
0.0
 11
394.3709367133364
 21
263.8325118944192
 31
0.0
  0
LINE
  5
190
330
1F
100
AcDbEntity
  8
0-2
  6
Continuous
 62
     3
370
     9
100
AcDbLine
 10
394.3709367133364
 20
249.79713129898
 30
0.0
 11
395.7534324903635
 21
250.0735710688279
 31
0.0
  0
LINE
  5
191
330
1F
100
AcDbEntity
  8
0-2
  6
Continuous
 62
     3
370
     9
100
AcDbLine
 10
388.1651459616472
 20
247.5736370527806
 30
0.0
 11
391.9592892260054
 21
246.8147886047232
 31
0.0
  0
LINE
  5
192
330
1F
100
AcDbEntity
  8
0-2
  6
Continuous
 62
     3
370
     9
100
AcDbLine
 10
391.9592892260054
 20
246.8553687356354
 30
0.0
 11
391.9592892260054
 21
237.6214094345374
 31
0.0
  0
LINE
  5
193
330
1F
100
AcDbEntity
  8
0-2
  6
Continuous
 62
     3
370
     9
100
AcDbLine
 10
388.1651459616472
 20
266.0559071646895
 30
0.0
 11
391.9592892260054
 21
266.8147556127469
 31
0.0
  0
LINE
  5
194
330
1F
100
AcDbEntity
  8
0-2
  6
Continuous
 62
     3
370
     9
100
AcDbLine
 10
391.9592892260054
 20
302.8147754079328
 30
0.0
 11
388.1651459616472
 21
303.5736238559901
 31
0.0
  0
LINE
  5
195
330
1F
100
AcDbEntity
  8
0-2
  6
Continuous
 62
     3
370
     9
100
AcDbLine
 10
388.1651459616472
 20
322.055893967899
 30
0.0
 11
391.9592892260054
 21
322.8147424159564
 31
0.0
  0
LINE
  5
196
330
1F
100
AcDbEntity
  8
0-2
  6
Continuous
 62
     3
370
     9
100
AcDbLine
 10
396.9591572580999
 20
262.0850918669699
 30
0.0
 11
396.9591572580999
 21
251.5445513264293
 31
0.0
  0
LINE
  5
197
330
1F
100
AcDbEntity
  8
0-2
  6
Continuous
 62
     3
370
     9
100
AcDbLine
 10
421.9592892260054
 20
114.2180726260493
 30
0.0
 11
421.9592892260054
 21
119.4114385994445
 31
0.0
  0
LINE
  5
198
330
1F
100
AcDbEntity
  8
0-2
  6
Continuous
 62
     3
370
     9
100
AcDbLine
 10
388.1651459616472
 20
238.0559137630847
 30
0.0
 11
391.9592892260054
 21
238.8147622111422
 31
0.0
  0
LINE
  5
199
330
1F
100
AcDbEntity
  8
0-2
  6
Continuous
 62
     3
370
     9
100
AcDbLine
 10
391.9592892260054
 20
220.0081479797232
 30
0.0
 11
391.9592892260054
 21
210.7741886786253
 31
0.0
  0
LINE
  5
19A
330
1F
100
AcDbEntity
  8
0-2
  6
Continuous
 62
     3
370
     9
100
AcDbLine
 10
388.1651459616472
 20
219.5735941632115
 30
0.0
 11
391.9592892260054
 21
218.814745715154
 31
0.0
  0
LINE
  5
19B
330
1F
100
AcDbEntity
  8
0-2
  6
Continuous
 62
     3
370
     9
100
AcDbLine
 10
394.7597141626608
 20
111.0014539077216
 30
0.0
 11
420.5589777817487
 21
112.7214576028229
 31
0.0
  0
LINE
  5
19C
330
1F
100
AcDbEntity
  8
0-2
  6
Continuous
 62
     3
370
     9
100
AcDbLine
 10
394.7597141626608
 20
122.6280573177722
 30
0.0
 11
420.5589777817487
 21
120.9081031106354
 31
0.0
  0
LINE
  5
19D
330
1F
100
AcDbEntity
  8
0-2
  6
Continuous
 62
     3
370
     9
100
AcDbLine
 10
388.1651459616472
 20
294.0559005662942
 30
0.0
 11
391.9592892260054
 21
294.8147490143517
 31
0.0
  0
LINE
  5
19E
330
1F
100
AcDbEntity
  8
0-2
  6
Continuous
 62
     3
370
     9
100
AcDbLine
 10
388.1651459616472
 20
275.5736304543855
 30
0.0
 11
391.9592892260054
 21
274.814782006328
 31
0.0
  0
LINE
  5
19F
330
1F
100
AcDbEntity
  8
0-2
  6
Continuous
 62
     3
370
     9
100
AcDbLine
 10
394.3709367133364
 20
277.7971247005847
 30
0.0
 11
395.7534324903635
 21
278.0736634463618
 31
0.0
  0
LINE
  5
1A0
330
1F
100
AcDbEntity
  8
0-2
  6
Continuous
 62
     3
370
     9
100
AcDbLine
 10
395.7534324903635
 20
291.5559665502469
 30
0.0
 11
394.3709367133364
 21
291.832505296024
 31
0.0
  0
LINE
  5
1A1
330
1F
100
AcDbEntity
  8
0-2
  6
Continuous
 62
     3
370
     9
100
AcDbLine
 10
386.9592232420526
 20
236.5851314573415
 30
0.0
 11
386.9592232420526
 21
221.0445249328482
 31
0.0
  0
LINE
  5
1A2
330
1F
100
AcDbEntity
  8
0-2
  6
Continuous
 62
     3
370
     9
100
AcDbLine
 10
386.9592232420526
 20
208.5850885677722
 30
0.0
 11
386.9592232420526
 21
193.044482043279
 31
0.0
  0
LINE
  5
1A3
330
1F
100
AcDbEntity
  8
0-2
  6
Continuous
 62
     3
370
     9
100
AcDbLine
 10
386.9592232420526
 20
292.585118260551
 30
0.0
 11
386.9592232420526
 21
277.0445117360578
 31
0.0
  0
LINE
  5
1A4
330
1F
100
AcDbEntity
  8
0-2
  6
Continuous
 62
     3
370
     9
100
AcDbLine
 10
395.7534324903635
 20
207.5559368574681
 30
0.0
 11
394.3709367133364
 21
207.8324756032452
 31
0.0
  0
LINE
  5
1A5
330
1F
100
AcDbEntity
  8
0-2
  6
Continuous
 62
     3
370
     9
100
AcDbLine
 10
394.3709367133364
 20
193.7971444957705
 30
0.0
 11
395.7534324903635
 21
194.0735842656186
 31
0.0
  0
LINE
  5
1A6
330
1F
100
AcDbEntity
  8
0-2
  6
Continuous
 62
     3
370
     9
100
AcDbLine
 10
388.1651459616472
 20
191.5735512736422
 30
0.0
 11
391.9592892260054
 21
190.8147028255847
 31
0.0
  0
LINE
  5
1A7
330
1F
100
AcDbEntity
  8
0-2
  6
Continuous
 62
     3
370
     9
100
AcDbLine
 10
391.9592892260054
 20
190.8553324444615
 30
0.0
 11
391.9592892260054
 21
181.9843673631692
 31
0.0
  0
LINE
  5
1A8
330
1F
100
AcDbEntity
  8
0-2
  6
Continuous
 62
     3
370
     9
100
AcDbLine
 10
388.1651459616472
 20
210.05592036148
 30
0.0
 11
391.9592892260054
 21
210.8147688095374
 31
0.0
  0
LINE
  5
1A9
330
1F
100
AcDbEntity
  8
0-2
  6
Continuous
 62
     3
370
     9
100
AcDbLine
 10
396.9591572580999
 20
206.0851050637604
 30
0.0
 11
396.9591572580999
 21
195.5445150352553
 31
0.0
  0
LINE
  5
1AA
330
1F
100
AcDbEntity
  8
0-2
  6
Continuous
 62
     3
370
     9
100
AcDbLine
 10
410.4592760292149
 20
177.7347368733043
 30
0.0
 11
410.4592760292149
 21
189.5547392487266
 31
0.0
  0
LINE
  5
1AB
330
1F
100
AcDbEntity
  8
0-2
  6
Continuous
 62
     3
370
     9
100
AcDbLine
 10
388.1651459616472
 20
182.0559269598752
 30
0.0
 11
391.9592892260054
 21
182.8147754079327
 31
0.0
  0
LINE
  5
1AC
330
1F
100
AcDbEntity
  8
0-2
  6
Continuous
 62
     3
370
     9
100
AcDbLine
 10
386.9592232420526
 20
180.5850951661675
 30
0.0
 11
386.9592232420526
 21
165.0444886416743
 31
0.0
  0
LINE
  5
1AD
330
1F
100
AcDbEntity
  8
0-2
  6
Continuous
 62
     3
370
     9
100
AcDbLine
 10
386.9592232420526
 20
320.5851116621557
 30
0.0
 11
386.9592232420526
 21
305.0445051376624
 31
0.0
  0
LINE
  5
1AE
330
1F
100
AcDbEntity
  8
0-2
  6
Continuous
 62
     3
370
     9
100
AcDbLine
 10
386.9592232420526
 20
25.04452163365065
 30
0.0
 11
386.9592232420526
 21
40.58507867017929
 31
0.0
  0
LINE
  5
1AF
330
1F
100
AcDbEntity
  8
0-2
  6
Continuous
 62
     3
370
     9
100
AcDbLine
 10
399.9593156195864
 20
251.3306643437436
 30
0.0
 11
399.9593156195864
 21
234.2814667086083
 31
0.0
  0
LINE
  5
1B0
330
1F
100
AcDbEntity
  8
0-2
  6
Continuous
 62
     3
370
     9
100
AcDbLine
 10
388.1651459616472
 20
163.573607360002
 30
0.0
 11
391.9592892260054
 21
162.8147589119445
 31
0.0
  0
LINE
  5
1B1
330
1F
100
AcDbEntity
  8
0-2
  6
Continuous
 62
     3
370
     9
100
AcDbLine
 10
391.9592892260054
 20
154.7742018754159
 30
0.0
 11
391.9592892260054
 21
163.6452164446726
 31
0.0
  0
LINE
  5
1B2
330
1F
100
AcDbEntity
  8
0-2
  6
Continuous
 62
     3
370
     9
100
AcDbLine
 10
391.9592892260054
 20
125.621386340154
 30
0.0
 11
391.9592892260054
 21
134.855345641252
 31
0.0
  0
LINE
  5
1B3
330
1F
100
AcDbEntity
  8
0-2
  6
Continuous
 62
     3
370
     9
100
AcDbLine
 10
396.9591572580999
 20
139.5444787440814
 30
0.0
 11
396.9591572580999
 21
150.0850687725865
 31
0.0
  0
LINE
  5
1B4
330
1F
100
AcDbEntity
  8
0-2
  6
Continuous
 62
     3
370
     9
100
AcDbLine
 10
388.1651459616472
 20
135.5736139583972
 30
0.0
 11
391.9592892260054
 21
134.8147655103398
 31
0.0
  0
LINE
  5
1B5
330
1F
100
AcDbEntity
  8
0-2
  6
Continuous
 62
     3
370
     9
100
AcDbLine
 10
388.1651459616472
 20
154.0559335582705
 30
0.0
 11
391.9592892260054
 21
154.8147820063279
 31
0.0
  0
LINE
  5
1B6
330
1F
100
AcDbEntity
  8
0-2
  6
Continuous
 62
     3
370
     9
100
AcDbLine
 10
394.3709367133364
 20
151.8324888000357
 30
0.0
 11
395.7534324903635
 21
151.5559005662942
 31
0.0
  0
LINE
  5
1B7
330
1F
100
AcDbEntity
  8
0-2
  6
Continuous
 62
     3
370
     9
100
AcDbLine
 10
395.7534324903635
 20
138.0735974624091
 30
0.0
 11
394.3709367133364
 21
137.7971082045966
 31
0.0
  0
LINE
  5
1B8
330
1F
100
AcDbEntity
  8
0-2
  6
Continuous
 62
     3
370
     9
100
AcDbLine
 10
386.9592232420526
 20
53.04451503525533
 30
0.0
 11
386.9592232420526
 21
68.58507207178408
 31
0.0
  0
LINE
  5
1B9
330
1F
100
AcDbEntity
  8
0-2
  6
Continuous
 62
     3
370
     9
100
AcDbLine
 10
386.9592232420526
 20
137.0444952400695
 30
0.0
 11
386.9592232420526
 21
152.5851017645627
 31
0.0
  0
LINE
  5
1BA
330
1F
100
AcDbEntity
  8
0-2
  6
Continuous
 62
     3
370
     9
100
AcDbLine
 10
386.9592232420526
 20
109.0445018384648
 30
0.0
 11
386.9592232420526
 21
124.585108362958
 31
0.0
  0
LINE
  5
1BB
330
1F
100
AcDbEntity
  8
0-2
  6
Continuous
 62
     3
370
     9
100
AcDbLine
 10
391.9592892260054
 20
40.62135334817762
 30
0.0
 11
391.9592892260054
 21
50.85536543643772
 31
0.0
  0
LINE
  5
1BC
330
1F
100
AcDbEntity
  8
0-2
  6
Continuous
 62
     3
370
     9
100
AcDbLine
 10
395.7534324903635
 20
54.07356776963033
 30
0.0
 11
394.3709367133364
 21
53.79707851181783
 31
0.0
  0
LINE
  5
1BD
330
1F
100
AcDbEntity
  8
0-2
  6
Continuous
 62
     3
370
     9
100
AcDbLine
 10
394.3709367133364
 20
67.832459107257
 30
0.0
 11
395.7534324903635
 21
67.5559698494445
 31
0.0
  0
LINE
  5
1BE
330
1F
100
AcDbEntity
  8
0-2
  6
Continuous
 62
     3
370
     9
100
AcDbLine
 10
388.1651459616472
 20
70.05590386549179
 30
0.0
 11
391.9592892260054
 21
70.81475231354929
 31
0.0
  0
LINE
  5
1BF
330
1F
100
AcDbEntity
  8
0-2
  6
Continuous
 62
     3
370
     9
100
AcDbLine
 10
391.9592892260054
 20
70.77412269467251
 30
0.0
 11
391.9592892260054
 21
78.855408326007
 31
0.0
  0
LINE
  5
1C0
330
1F
100
AcDbEntity
  8
0-2
  6
Continuous
 62
     3
370
     9
100
AcDbLine
 10
388.1651459616472
 20
51.57363375358304
 30
0.0
 11
391.9592892260054
 21
50.81478530552565
 31
0.0
  0
LINE
  5
1C1
330
1F
100
AcDbEntity
  8
0-2
  6
Continuous
 62
     3
370
     9
100
AcDbLine
 10
391.9592892260054
 20
98.77416558424179
 30
0.0
 11
391.9592892260054
 21
108.0081248853398
 31
0.0
  0
LINE
  5
1C2
330
1F
100
AcDbEntity
  8
0-2
  6
Continuous
 62
     3
370
     9
100
AcDbLine
 10
388.1651459616472
 20
126.0559401566659
 30
0.0
 11
391.9592892260054
 21
126.8147886047232
 31
0.0
  0
LINE
  5
1C3
330
1F
100
AcDbEntity
  8
0-2
  6
Continuous
 62
     3
370
     9
100
AcDbLine
 10
388.1651459616472
 20
107.5736205567925
 30
0.0
 11
391.9592892260054
 21
106.8147721087351
 31
0.0
  0
LINE
  5
1C4
330
1F
100
AcDbEntity
  8
0-2
  6
Continuous
 62
     3
370
     9
100
AcDbLine
 10
396.9591572580999
 20
83.5444919408719
 30
0.0
 11
396.9591572580999
 21
94.085081969377
 31
0.0
  0
LINE
  5
1C5
330
1F
100
AcDbEntity
  8
0-2
  6
Continuous
 62
     3
370
     9
100
AcDbLine
 10
388.1651459616472
 20
23.57359086401377
 30
0.0
 11
391.9592892260054
 21
22.81474241595637
 31
0.0
  0
LINE
  5
1C6
330
1F
100
AcDbEntity
  8
0-2
  6
Continuous
 62
     3
370
     9
100
AcDbLine
 10
391.9592892260054
 20
42.81475891194449
 30
0.0
 11
388.1651459616472
 21
42.05586097592251
 31
0.0
  0
LINE
  5
1C7
330
1F
100
AcDbEntity
  8
0-2
  6
Continuous
 62
     3
370
     9
100
AcDbLine
 10
435.8505608687418
 20
73.11440853715564
 30
0.0
 11
411.045609432931
 21
79.81844411570293
 31
0.0
  0
LINE
  5
1C8
330
1F
100
AcDbEntity
  8
0-2
  6
Continuous
 62
     3
370
     9
100
AcDbLine
 10
396.9591572580999
 20
23.81474571515398
 30
0.0
 11
396.9591572580999
 21
23.95915159564387
 31
0.0
  0
LINE
  5
1C9
330
1F
100
AcDbEntity
  8
0-2
  6
Continuous
 62
     3
370
     9
100
AcDbLine
 10
388.1651459616472
 20
79.57362715518772
 30
0.0
 11
391.9592892260054
 21
78.81477870713033
 31
0.0
  0
LINE
  5
1CA
330
1F
100
AcDbEntity
  8
0-2
  6
Continuous
 62
     3
370
     9
100
AcDbLine
 10
388.1651459616472
 20
98.05589726709658
 30
0.0
 11
391.9592892260054
 21
98.81474571515398
 31
0.0
  0
LINE
  5
1CB
330
1F
100
AcDbEntity
  8
0-2
  6
Continuous
 62
     3
370
     9
100
AcDbLine
 10
394.3709367133364
 20
95.83245250886179
 30
0.0
 11
395.7534324903635
 21
95.5559137630847
 31
0.0
  0
LINE
  5
1CC
330
1F
100
AcDbEntity
  8
0-2
  6
Continuous
 62
     3
370
     9
100
AcDbLine
 10
395.7534324903635
 20
82.0736106591996
 30
0.0
 11
394.3709367133364
 21
81.7971214013871
 31
0.0
  0
LINE
  5
1CD
330
1F
100
AcDbEntity
  8
0-2
  6
Continuous
 62
     3
370
     9
100
AcDbLine
 10
396.9591572580999
 20
55.54444905130262
 30
0.0
 11
396.9591572580999
 21
66.08503907980773
 31
0.0
  0
LINE
  5
1CE
330
1F
100
AcDbEntity
  8
0-2
  6
Continuous
 62
     3
370
     9
100
AcDbLine
 10
386.9592232420526
 20
81.04450843686001
 30
0.0
 11
386.9592232420526
 21
96.58511496135336
 31
0.0
  0
LINE
  5
1CF
330
1F
100
AcDbEntity
  8
0-2
  6
Continuous
 62
     3
370
     9
100
AcDbLine
 10
-64.04102749696753
 20
320.3148083999091
 30
0.0
 11
-64.04102749696753
 21
25.31477540793273
 31
0.0
  0
LINE
  5
1D0
330
1F
100
AcDbEntity
  8
0-2
  6
Continuous
 62
     3
370
     9
100
AcDbLine
 10
-65.04098130820066
 20
40.31477540793273
 30
0.0
 11
-65.04098130820066
 21
25.31477540793273
 31
0.0
  0
LINE
  5
1D1
330
1F
100
AcDbEntity
  8
0-2
  6
Continuous
 62
     3
370
     9
100
AcDbLine
 10
-295.2409786688426
 20
70.81475231354929
 30
0.0
 11
-295.2409786688426
 21
78.81477870713033
 31
0.0
  0
LINE
  5
1D2
330
1F
100
AcDbEntity
  8
0-2
  6
Continuous
 62
     3
370
     9
100
AcDbLine
 10
-315.2411436287243
 20
70.81475231354929
 30
0.0
 11
-315.2411436287243
 21
78.81477870713033
 31
0.0
  0
LINE
  5
1D3
330
1F
100
AcDbEntity
  8
0-2
  6
Continuous
 62
     3
370
     9
100
AcDbLine
 10
-84.04099450499118
 20
50.81478530552565
 30
0.0
 11
-84.04099450499118
 21
42.81475891194449
 31
0.0
  0
LINE
  5
1D4
330
1F
100
AcDbEntity
  8
0-2
  6
Continuous
 62
     3
370
     9
100
AcDbLine
 10
-199.6409206029642
 20
42.81475891194449
 30
0.0
 11
-199.6409206029642
 21
50.81478530552565
 31
0.0
  0
LINE
  5
1D5
330
1F
100
AcDbEntity
  8
0-2
  6
Continuous
 62
     3
370
     9
100
AcDbLine
 10
-179.6410525708696
 20
42.81475891194449
 30
0.0
 11
-179.6410525708696
 21
50.81478530552565
 31
0.0
  0
LINE
  5
1D6
330
1F
100
AcDbEntity
  8
0-2
  6
Continuous
 62
     3
370
     9
100
AcDbLine
 10
-315.2411436287243
 20
42.81475891194449
 30
0.0
 11
-315.2411436287243
 21
50.81478530552565
 31
0.0
  0
LINE
  5
1D7
330
1F
100
AcDbEntity
  8
0-2
  6
Continuous
 62
     3
370
     9
100
AcDbLine
 10
-295.2409786688426
 20
42.81475891194449
 30
0.0
 11
-295.2409786688426
 21
50.81478530552565
 31
0.0
  0
LINE
  5
1D8
330
1F
100
AcDbEntity
  8
0-2
  6
Continuous
 62
     3
370
     9
100
AcDbLine
 10
-179.6410525708696
 20
70.81475231354929
 30
0.0
 11
-179.6410525708696
 21
78.81477870713033
 31
0.0
  0
LINE
  5
1D9
330
1F
100
AcDbEntity
  8
0-2
  6
Continuous
 62
     3
370
     9
100
AcDbLine
 10
-199.6409206029642
 20
70.81475231354929
 30
0.0
 11
-199.6409206029642
 21
78.81477870713033
 31
0.0
  0
LINE
  5
1DA
330
1F
100
AcDbEntity
  8
0-2
  6
Continuous
 62
     3
370
     9
100
AcDbLine
 10
-84.04099450499118
 20
78.81477870713033
 30
0.0
 11
-84.04099450499118
 21
70.81475231354929
 31
0.0
  0
LINE
  5
1DB
330
1F
100
AcDbEntity
  8
0-2
  6
Continuous
 62
     3
370
     9
100
AcDbLine
 10
-65.04098130820066
 20
68.314818297502
 30
0.0
 11
-65.04098130820066
 21
53.314818297502
 31
0.0
  0
LINE
  5
1DC
330
1F
100
AcDbEntity
  8
0-2
  6
Continuous
 62
     3
370
     9
100
AcDbLine
 10
403.459302422796
 20
178.2947426798922
 30
0.0
 11
403.459302422796
 21
189.5547392487266
 31
0.0
  0
LINE
  5
1DD
330
1F
100
AcDbEntity
  8
0-2
  6
Continuous
 62
     3
370
     9
100
AcDbLine
 10
-65.04098130820066
 20
96.31476221114221
 30
0.0
 11
-65.04098130820066
 21
81.31471272317762
 31
0.0
  0
LINE
  5
1DE
330
1F
100
AcDbEntity
  8
0-2
  6
Continuous
 62
     3
370
     9
100
AcDbLine
 10
-84.04099450499118
 20
106.8147721087351
 30
0.0
 11
-84.04099450499118
 21
98.81474571515398
 31
0.0
  0
LINE
  5
1DF
330
1F
100
AcDbEntity
  8
0-2
  6
Continuous
 62
     3
370
     9
100
AcDbLine
 10
-199.6409206029642
 20
98.81474571515398
 30
0.0
 11
-199.6409206029642
 21
106.8147721087351
 31
0.0
  0
LINE
  5
1E0
330
1F
100
AcDbEntity
  8
0-2
  6
Continuous
 62
     3
370
     9
100
AcDbLine
 10
-179.6410525708696
 20
98.81474571515398
 30
0.0
 11
-179.6410525708696
 21
106.8147721087351
 31
0.0
  0
LINE
  5
1E1
330
1F
100
AcDbEntity
  8
0-2
  6
Continuous
 62
     3
370
     9
100
AcDbLine
 10
-315.2411436287243
 20
98.81474571515398
 30
0.0
 11
-315.2411436287243
 21
106.8147721087351
 31
0.0
  0
LINE
  5
1E2
330
1F
100
AcDbEntity
  8
0-2
  6
Continuous
 62
     3
370
     9
100
AcDbLine
 10
-295.2409786688426
 20
98.81474571515398
 30
0.0
 11
-295.2409786688426
 21
106.8147721087351
 31
0.0
  0
LINE
  5
1E3
330
1F
100
AcDbEntity
  8
0-2
  6
Continuous
 62
     3
370
     9
100
AcDbLine
 10
-295.2409786688426
 20
126.8147886047232
 30
0.0
 11
-295.2409786688426
 21
134.8147655103398
 31
0.0
  0
LINE
  5
1E4
330
1F
100
AcDbEntity
  8
0-2
  6
Continuous
 62
     3
370
     9
100
AcDbLine
 10
-315.2411436287243
 20
126.8147886047232
 30
0.0
 11
-315.2411436287243
 21
134.8147655103398
 31
0.0
  0
LINE
  5
1E5
330
1F
100
AcDbEntity
  8
0-2
  6
Continuous
 62
     3
370
     9
100
AcDbLine
 10
-179.6410525708696
 20
126.8147886047232
 30
0.0
 11
-179.6410525708696
 21
134.8147655103398
 31
0.0
  0
LINE
  5
1E6
330
1F
100
AcDbEntity
  8
0-2
  6
Continuous
 62
     3
370
     9
100
AcDbLine
 10
-199.6409206029642
 20
126.8147886047232
 30
0.0
 11
-199.6409206029642
 21
134.8147655103398
 31
0.0
  0
LINE
  5
1E7
330
1F
100
AcDbEntity
  8
0-2
  6
Continuous
 62
     3
370
     9
100
AcDbLine
 10
-84.04099450499118
 20
134.8147655103398
 30
0.0
 11
-84.04099450499118
 21
126.8147886047232
 31
0.0
  0
LINE
  5
1E8
330
1F
100
AcDbEntity
  8
0-2
  6
Continuous
 62
     3
370
     9
100
AcDbLine
 10
-65.04098130820066
 20
124.3147556127469
 30
0.0
 11
-65.04098130820066
 21
109.3147556127469
 31
0.0
  0
LINE
  5
1E9
330
1F
100
AcDbEntity
  8
0-2
  6
Continuous
 62
     3
370
     9
100
AcDbLine
 10
-65.04098130820066
 20
152.3147490143516
 30
0.0
 11
-65.04098130820066
 21
137.3147490143516
 31
0.0
  0
LINE
  5
1EA
330
1F
100
AcDbEntity
  8
0-2
  6
Continuous
 62
     3
370
     9
100
AcDbLine
 10
-84.04099450499118
 20
162.8147589119445
 30
0.0
 11
-84.04099450499118
 21
154.8147820063279
 31
0.0
  0
LINE
  5
1EB
330
1F
100
AcDbEntity
  8
0-2
  6
Continuous
 62
     3
370
     9
100
AcDbLine
 10
-199.6409206029642
 20
154.8147820063279
 30
0.0
 11
-199.6409206029642
 21
162.8147589119445
 31
0.0
  0
LINE
  5
1EC
330
1F
100
AcDbEntity
  8
0-2
  6
Continuous
 62
     3
370
     9
100
AcDbLine
 10
-179.6410525708696
 20
154.8147820063279
 30
0.0
 11
-179.6410525708696
 21
162.8147589119445
 31
0.0
  0
LINE
  5
1ED
330
1F
100
AcDbEntity
  8
0-2
  6
Continuous
 62
     3
370
     9
100
AcDbLine
 10
-315.2411436287243
 20
154.8147820063279
 30
0.0
 11
-315.2411436287243
 21
162.8147589119445
 31
0.0
  0
LINE
  5
1EE
330
1F
100
AcDbEntity
  8
0-2
  6
Continuous
 62
     3
370
     9
100
AcDbLine
 10
-295.2409786688426
 20
154.8147820063279
 30
0.0
 11
-295.2409786688426
 21
162.8147589119445
 31
0.0
  0
LINE
  5
1EF
330
1F
100
AcDbEntity
  8
0-2
  6
Continuous
 62
     3
370
     9
100
AcDbLine
 10
-65.04098130820066
 20
180.3147424159564
 30
0.0
 11
-65.04098130820066
 21
165.3147424159564
 31
0.0
  0
LINE
  5
1F0
330
1F
100
AcDbEntity
  8
0-2
  6
Continuous
 62
     3
370
     9
100
AcDbLine
 10
-295.2409786688426
 20
190.8147028255847
 30
0.0
 11
-295.2409786688426
 21
182.8147754079327
 31
0.0
  0
LINE
  5
1F1
330
1F
100
AcDbEntity
  8
0-2
  6
Continuous
 62
     3
370
     9
100
AcDbLine
 10
-315.2411436287243
 20
190.8147028255847
 30
0.0
 11
-315.2411436287243
 21
182.8147754079327
 31
0.0
  0
LINE
  5
1F2
330
1F
100
AcDbEntity
  8
0-2
  6
Continuous
 62
     3
370
     9
100
AcDbLine
 10
-179.6410525708696
 20
190.8147028255847
 30
0.0
 11
-179.6410525708696
 21
182.8147754079327
 31
0.0
  0
LINE
  5
1F3
330
1F
100
AcDbEntity
  8
0-2
  6
Continuous
 62
     3
370
     9
100
AcDbLine
 10
-199.6409206029642
 20
190.8147028255847
 30
0.0
 11
-199.6409206029642
 21
182.8147754079327
 31
0.0
  0
LINE
  5
1F4
330
1F
100
AcDbEntity
  8
0-2
  6
Continuous
 62
     3
370
     9
100
AcDbLine
 10
-84.04099450499118
 20
182.8147754079327
 30
0.0
 11
-84.04099450499118
 21
190.8147028255847
 31
0.0
  0
LINE
  5
1F5
330
1F
100
AcDbEntity
  8
0-2
  6
Continuous
 62
     3
370
     9
100
AcDbLine
 10
-65.04098130820066
 20
193.3148347934901
 30
0.0
 11
-65.04098130820066
 21
208.3148347934901
 31
0.0
  0
LINE
  5
1F6
330
1F
100
AcDbEntity
  8
0-2
  6
Continuous
 62
     3
370
     9
100
AcDbLine
 10
-65.04098130820066
 20
221.3147787071303
 30
0.0
 11
-65.04098130820066
 21
236.3147292191659
 31
0.0
  0
LINE
  5
1F7
330
1F
100
AcDbEntity
  8
0-2
  6
Continuous
 62
     3
370
     9
100
AcDbLine
 10
-84.04099450499118
 20
210.8147688095374
 30
0.0
 11
-84.04099450499118
 21
218.814745715154
 31
0.0
  0
LINE
  5
1F8
330
1F
100
AcDbEntity
  8
0-2
  6
Continuous
 62
     3
370
     9
100
AcDbLine
 10
-199.6409206029642
 20
218.814745715154
 30
0.0
 11
-199.6409206029642
 21
210.8147688095374
 31
0.0
  0
LINE
  5
1F9
330
1F
100
AcDbEntity
  8
0-2
  6
Continuous
 62
     3
370
     9
100
AcDbLine
 10
-179.6410525708696
 20
218.814745715154
 30
0.0
 11
-179.6410525708696
 21
210.8147688095374
 31
0.0
  0
LINE
  5
1FA
330
1F
100
AcDbEntity
  8
0-2
  6
Continuous
 62
     3
370
     9
100
AcDbLine
 10
-315.2411436287243
 20
218.814745715154
 30
0.0
 11
-315.2411436287243
 21
210.8147688095374
 31
0.0
  0
LINE
  5
1FB
330
1F
100
AcDbEntity
  8
0-2
  6
Continuous
 62
     3
370
     9
100
AcDbLine
 10
-295.2409786688426
 20
218.814745715154
 30
0.0
 11
-295.2409786688426
 21
210.8147688095374
 31
0.0
  0
LINE
  5
1FC
330
1F
100
AcDbEntity
  8
0-2
  6
Continuous
 62
     3
370
     9
100
AcDbLine
 10
-295.2409786688426
 20
246.8147886047232
 30
0.0
 11
-295.2409786688426
 21
238.8147622111422
 31
0.0
  0
LINE
  5
1FD
330
1F
100
AcDbEntity
  8
0-2
  6
Continuous
 62
     3
370
     9
100
AcDbLine
 10
-315.2411436287243
 20
246.8147886047232
 30
0.0
 11
-315.2411436287243
 21
238.8147622111422
 31
0.0
  0
LINE
  5
1FE
330
1F
100
AcDbEntity
  8
0-2
  6
Continuous
 62
     3
370
     9
100
AcDbLine
 10
-179.6410525708696
 20
246.8147886047232
 30
0.0
 11
-179.6410525708696
 21
238.8147622111422
 31
0.0
  0
LINE
  5
1FF
330
1F
100
AcDbEntity
  8
0-2
  6
Continuous
 62
     3
370
     9
100
AcDbLine
 10
-199.6409206029642
 20
246.8147886047232
 30
0.0
 11
-199.6409206029642
 21
238.8147622111422
 31
0.0
  0
LINE
  5
200
330
1F
100
AcDbEntity
  8
0-2
  6
Continuous
 62
     3
370
     9
100
AcDbLine
 10
-84.04099450499118
 20
238.8147622111422
 30
0.0
 11
-84.04099450499118
 21
246.8147886047232
 31
0.0
  0
LINE
  5
201
330
1F
100
AcDbEntity
  8
0-2
  6
Continuous
 62
     3
370
     9
100
AcDbLine
 10
-65.04098130820066
 20
249.3147226207705
 30
0.0
 11
-65.04098130820066
 21
264.3147226207706
 31
0.0
  0
LINE
  5
202
330
1F
100
AcDbEntity
  8
0-2
  6
Continuous
 62
     3
370
     9
100
AcDbLine
 10
-65.04098130820066
 20
277.3148149983043
 30
0.0
 11
-65.04098130820066
 21
292.3148149983043
 31
0.0
  0
LINE
  5
203
330
1F
100
AcDbEntity
  8
0-2
  6
Continuous
 62
     3
370
     9
100
AcDbLine
 10
-84.04099450499118
 20
266.8147556127469
 30
0.0
 11
-84.04099450499118
 21
274.814782006328
 31
0.0
  0
LINE
  5
204
330
1F
100
AcDbEntity
  8
0-2
  6
Continuous
 62
     3
370
     9
100
AcDbLine
 10
-199.6409206029642
 20
274.814782006328
 30
0.0
 11
-199.6409206029642
 21
266.8147556127469
 31
0.0
  0
LINE
  5
205
330
1F
100
AcDbEntity
  8
0-2
  6
Continuous
 62
     3
370
     9
100
AcDbLine
 10
-179.6410525708696
 20
274.814782006328
 30
0.0
 11
-179.6410525708696
 21
266.8147556127469
 31
0.0
  0
LINE
  5
206
330
1F
100
AcDbEntity
  8
0-2
  6
Continuous
 62
     3
370
     9
100
AcDbLine
 10
-295.2409786688426
 20
302.8147754079328
 30
0.0
 11
-295.2409786688426
 21
294.8147490143517
 31
0.0
  0
LINE
  5
207
330
1F
100
AcDbEntity
  8
0-2
  6
Continuous
 62
     3
370
     9
100
AcDbLine
 10
-315.2411436287243
 20
302.8147754079328
 30
0.0
 11
-315.2411436287243
 21
294.8147490143517
 31
0.0
  0
LINE
  5
208
330
1F
100
AcDbEntity
  8
0-2
  6
Continuous
 62
     3
370
     9
100
AcDbLine
 10
-179.6410525708696
 20
302.8147754079328
 30
0.0
 11
-179.6410525708696
 21
294.8147490143517
 31
0.0
  0
LINE
  5
209
330
1F
100
AcDbEntity
  8
0-2
  6
Continuous
 62
     3
370
     9
100
AcDbLine
 10
-199.6409206029642
 20
302.8147754079328
 30
0.0
 11
-199.6409206029642
 21
294.8147490143517
 31
0.0
  0
LINE
  5
20A
330
1F
100
AcDbEntity
  8
0-2
  6
Continuous
 62
     3
370
     9
100
AcDbLine
 10
-84.04099450499118
 20
294.8147490143517
 30
0.0
 11
-84.04099450499118
 21
302.8147754079328
 31
0.0
  0
LINE
  5
20B
330
1F
100
AcDbEntity
  8
0-2
  6
Continuous
 62
     3
370
     9
100
AcDbLine
 10
-315.2411436287243
 20
274.814782006328
 30
0.0
 11
-315.2411436287243
 21
266.8147556127469
 31
0.0
  0
LINE
  5
20C
330
1F
100
AcDbEntity
  8
0-2
  6
Continuous
 62
     3
370
     9
100
AcDbLine
 10
-295.2409786688426
 20
274.814782006328
 30
0.0
 11
-295.2409786688426
 21
266.8147556127469
 31
0.0
  0
LINE
  5
20D
330
1F
100
AcDbEntity
  8
0-2
  6
Continuous
 62
     3
370
     9
100
AcDbLine
 10
-65.04098130820066
 20
305.3148083999091
 30
0.0
 11
-65.04098130820066
 21
320.3148083999091
 31
0.0
  0
LINE
  5
20E
330
1F
100
AcDbEntity
  8
0-2
  6
Continuous
 62
     3
370
     9
100
AcDbLine
 10
-659.5410868825251
 20
322.8147424159564
 30
0.0
 11
-66.54106048894388
 21
322.8147424159564
 31
0.0
  0
LINE
  5
20F
330
1F
100
AcDbEntity
  8
0-2
  6
Continuous
 62
     3
370
     9
100
AcDbLine
 10
-662.0410208985724
 20
25.31477540793273
 30
0.0
 11
-662.0410208985724
 21
320.3148083999091
 31
0.0
  0
LINE
  5
210
330
1F
100
AcDbEntity
  8
0-2
  6
Continuous
 62
     3
370
     9
100
AcDbLine
 10
-659.5410868825251
 20
321.8147886047233
 30
0.0
 11
-66.54106048894388
 21
321.8147886047233
 31
0.0
  0
LINE
  5
211
330
1F
100
AcDbEntity
  8
0-2
  6
Continuous
 62
     3
370
     9
100
AcDbLine
 10
-661.0408691354811
 20
305.3148083999091
 30
0.0
 11
-661.0408691354811
 21
320.3148083999091
 31
0.0
  0
LINE
  5
212
330
1F
100
AcDbEntity
  8
0-2
  6
Continuous
 62
     3
370
     9
100
AcDbLine
 10
-659.5410868825251
 20
303.8147292191659
 30
0.0
 11
-66.54106048894388
 21
303.8147292191659
 31
0.0
  0
LINE
  5
213
330
1F
100
AcDbEntity
  8
0-2
  6
Continuous
 62
     3
370
     9
100
AcDbLine
 10
-659.5410868825251
 20
302.8147754079328
 30
0.0
 11
-66.54106048894388
 21
302.8147754079328
 31
0.0
  0
LINE
  5
214
330
1F
100
AcDbEntity
  8
0-2
  6
Continuous
 62
     3
370
     9
100
AcDbLine
 10
-430.8409707507683
 20
274.814782006328
 30
0.0
 11
-430.8409707507683
 21
266.8147556127469
 31
0.0
  0
LINE
  5
215
330
1F
100
AcDbEntity
  8
0-2
  6
Continuous
 62
     3
370
     9
100
AcDbLine
 10
-410.8411027186737
 20
274.814782006328
 30
0.0
 11
-410.8411027186737
 21
266.8147556127469
 31
0.0
  0
LINE
  5
216
330
1F
100
AcDbEntity
  8
0-2
  6
Continuous
 62
     3
370
     9
100
AcDbLine
 10
-642.0410538905487
 20
294.8147490143517
 30
0.0
 11
-642.0410538905487
 21
302.8147754079328
 31
0.0
  0
LINE
  5
217
330
1F
100
AcDbEntity
  8
0-2
  6
Continuous
 62
     3
370
     9
100
AcDbLine
 10
-526.4410288166467
 20
302.8147754079328
 30
0.0
 11
-526.4410288166467
 21
294.8147490143517
 31
0.0
  0
LINE
  5
218
330
1F
100
AcDbEntity
  8
0-2
  6
Continuous
 62
     3
370
     9
100
AcDbLine
 10
-546.4410948005994
 20
302.8147754079328
 30
0.0
 11
-546.4410948005994
 21
294.8147490143517
 31
0.0
  0
LINE
  5
219
330
1F
100
AcDbEntity
  8
0-2
  6
Continuous
 62
     3
370
     9
100
AcDbLine
 10
-410.8411027186737
 20
302.8147754079328
 30
0.0
 11
-410.8411027186737
 21
294.8147490143517
 31
0.0
  0
LINE
  5
21A
330
1F
100
AcDbEntity
  8
0-2
  6
Continuous
 62
     3
370
     9
100
AcDbLine
 10
-430.8409707507683
 20
302.8147754079328
 30
0.0
 11
-430.8409707507683
 21
294.8147490143517
 31
0.0
  0
LINE
  5
21B
330
1F
100
AcDbEntity
  8
0-2
  6
Continuous
 62
     3
370
     9
100
AcDbLine
 10
-546.4410948005994
 20
274.814782006328
 30
0.0
 11
-546.4410948005994
 21
266.8147556127469
 31
0.0
  0
LINE
  5
21C
330
1F
100
AcDbEntity
  8
0-2
  6
Continuous
 62
     3
370
     9
100
AcDbLine
 10
-526.4410288166467
 20
274.814782006328
 30
0.0
 11
-526.4410288166467
 21
266.8147556127469
 31
0.0
  0
LINE
  5
21D
330
1F
100
AcDbEntity
  8
0-2
  6
Continuous
 62
     3
370
     9
100
AcDbLine
 10
-642.0410538905487
 20
266.8147556127469
 30
0.0
 11
-642.0410538905487
 21
274.814782006328
 31
0.0
  0
LINE
  5
21E
330
1F
100
AcDbEntity
  8
0-2
  6
Continuous
 62
     3
370
     9
100
AcDbLine
 10
-659.5410868825251
 20
274.814782006328
 30
0.0
 11
-66.54106048894388
 21
274.814782006328
 31
0.0
  0
LINE
  5
21F
330
1F
100
AcDbEntity
  8
0-2
  6
Continuous
 62
     3
370
     9
100
AcDbLine
 10
-659.5410868825251
 20
275.8147358175611
 30
0.0
 11
-66.54106048894388
 21
275.8147358175611
 31
0.0
  0
LINE
  5
220
330
1F
100
AcDbEntity
  8
0-2
  6
Continuous
 62
     3
370
     9
100
AcDbLine
 10
-661.0408691354811
 20
277.3148149983043
 30
0.0
 11
-661.0408691354811
 21
292.3148149983043
 31
0.0
  0
LINE
  5
221
330
1F
100
AcDbEntity
  8
0-2
  6
Continuous
 62
     3
370
     9
100
AcDbLine
 10
-659.5410868825251
 20
293.8147952031186
 30
0.0
 11
-66.54106048894388
 21
293.8147952031186
 31
0.0
  0
LINE
  5
222
330
1F
100
AcDbEntity
  8
0-2
  6
Continuous
 62
     3
370
     9
100
AcDbLine
 10
-659.5410868825251
 20
294.8147490143517
 30
0.0
 11
-66.54106048894388
 21
294.8147490143517
 31
0.0
  0
LINE
  5
223
330
1F
100
AcDbEntity
  8
0-2
  6
Continuous
 62
     3
370
     9
100
AcDbLine
 10
-659.5410868825251
 20
266.8147556127469
 30
0.0
 11
-66.54106048894388
 21
266.8147556127469
 31
0.0
  0
LINE
  5
224
330
1F
100
AcDbEntity
  8
0-2
  6
Continuous
 62
     3
370
     9
100
AcDbLine
 10
-659.5410868825251
 20
265.8148018015138
 30
0.0
 11
-66.54106048894388
 21
265.8148018015138
 31
0.0
  0
LINE
  5
225
330
1F
100
AcDbEntity
  8
0-2
  6
Continuous
 62
     3
370
     9
100
AcDbLine
 10
-661.0408691354811
 20
249.3147226207705
 30
0.0
 11
-661.0408691354811
 21
264.3147226207706
 31
0.0
  0
LINE
  5
226
330
1F
100
AcDbEntity
  8
0-2
  6
Continuous
 62
     3
370
     9
100
AcDbLine
 10
-659.5410868825251
 20
247.8147424159564
 30
0.0
 11
-66.54106048894388
 21
247.8147424159564
 31
0.0
  0
LINE
  5
227
330
1F
100
AcDbEntity
  8
0-2
  6
Continuous
 62
     3
370
     9
100
AcDbLine
 10
-659.5410868825251
 20
246.8147886047232
 30
0.0
 11
-66.54106048894388
 21
246.8147886047232
 31
0.0
  0
LINE
  5
228
330
1F
100
AcDbEntity
  8
0-2
  6
Continuous
 62
     3
370
     9
100
AcDbLine
 10
-642.0410538905487
 20
238.8147622111422
 30
0.0
 11
-642.0410538905487
 21
246.8147886047232
 31
0.0
  0
LINE
  5
229
330
1F
100
AcDbEntity
  8
0-2
  6
Continuous
 62
     3
370
     9
100
AcDbLine
 10
-526.4410288166467
 20
246.8147886047232
 30
0.0
 11
-526.4410288166467
 21
238.8147622111422
 31
0.0
  0
LINE
  5
22A
330
1F
100
AcDbEntity
  8
0-2
  6
Continuous
 62
     3
370
     9
100
AcDbLine
 10
-546.4410948005994
 20
246.8147886047232
 30
0.0
 11
-546.4410948005994
 21
238.8147622111422
 31
0.0
  0
LINE
  5
22B
330
1F
100
AcDbEntity
  8
0-2
  6
Continuous
 62
     3
370
     9
100
AcDbLine
 10
-410.8411027186737
 20
246.8147886047232
 30
0.0
 11
-410.8411027186737
 21
238.8147622111422
 31
0.0
  0
LINE
  5
22C
330
1F
100
AcDbEntity
  8
0-2
  6
Continuous
 62
     3
370
     9
100
AcDbLine
 10
-430.8409707507683
 20
246.8147886047232
 30
0.0
 11
-430.8409707507683
 21
238.8147622111422
 31
0.0
  0
LINE
  5
22D
330
1F
100
AcDbEntity
  8
0-2
  6
Continuous
 62
     3
370
     9
100
AcDbLine
 10
-430.8409707507683
 20
218.814745715154
 30
0.0
 11
-430.8409707507683
 21
210.8147688095374
 31
0.0
  0
LINE
  5
22E
330
1F
100
AcDbEntity
  8
0-2
  6
Continuous
 62
     3
370
     9
100
AcDbLine
 10
-410.8411027186737
 20
218.814745715154
 30
0.0
 11
-410.8411027186737
 21
210.8147688095374
 31
0.0
  0
LINE
  5
22F
330
1F
100
AcDbEntity
  8
0-2
  6
Continuous
 62
     3
370
     9
100
AcDbLine
 10
-546.4410948005994
 20
218.814745715154
 30
0.0
 11
-546.4410948005994
 21
210.8147688095374
 31
0.0
  0
LINE
  5
230
330
1F
100
AcDbEntity
  8
0-2
  6
Continuous
 62
     3
370
     9
100
AcDbLine
 10
-526.4410288166467
 20
218.814745715154
 30
0.0
 11
-526.4410288166467
 21
210.8147688095374
 31
0.0
  0
LINE
  5
231
330
1F
100
AcDbEntity
  8
0-2
  6
Continuous
 62
     3
370
     9
100
AcDbLine
 10
-642.0410538905487
 20
210.8147688095374
 30
0.0
 11
-642.0410538905487
 21
218.814745715154
 31
0.0
  0
LINE
  5
232
330
1F
100
AcDbEntity
  8
0-2
  6
Continuous
 62
     3
370
     9
100
AcDbLine
 10
-659.5410868825251
 20
218.814745715154
 30
0.0
 11
-66.54106048894388
 21
218.814745715154
 31
0.0
  0
LINE
  5
233
330
1F
100
AcDbEntity
  8
0-2
  6
Continuous
 62
     3
370
     9
100
AcDbLine
 10
-659.5410868825251
 20
219.8147490143516
 30
0.0
 11
-66.54106048894388
 21
219.8147490143516
 31
0.0
  0
LINE
  5
234
330
1F
100
AcDbEntity
  8
0-2
  6
Continuous
 62
     3
370
     9
100
AcDbLine
 10
-661.0408691354811
 20
221.3147787071303
 30
0.0
 11
-661.0408691354811
 21
236.3147292191659
 31
0.0
  0
LINE
  5
235
330
1F
100
AcDbEntity
  8
0-2
  6
Continuous
 62
     3
370
     9
100
AcDbLine
 10
-659.5410868825251
 20
237.8148083999091
 30
0.0
 11
-66.54106048894388
 21
237.8148083999091
 31
0.0
  0
LINE
  5
236
330
1F
100
AcDbEntity
  8
0-2
  6
Continuous
 62
     3
370
     9
100
AcDbLine
 10
-659.5410868825251
 20
238.8147622111422
 30
0.0
 11
-66.54106048894388
 21
238.8147622111422
 31
0.0
  0
LINE
  5
237
330
1F
100
AcDbEntity
  8
0-2
  6
Continuous
 62
     3
370
     9
100
AcDbLine
 10
-659.5410868825251
 20
210.8147688095374
 30
0.0
 11
-66.54106048894388
 21
210.8147688095374
 31
0.0
  0
LINE
  5
238
330
1F
100
AcDbEntity
  8
0-2
  6
Continuous
 62
     3
370
     9
100
AcDbLine
 10
-659.5410868825251
 20
209.8147655103398
 30
0.0
 11
-66.54106048894388
 21
209.8147655103398
 31
0.0
  0
LINE
  5
239
330
1F
100
AcDbEntity
  8
0-2
  6
Continuous
 62
     3
370
     9
100
AcDbLine
 10
-661.0408691354811
 20
193.3148347934901
 30
0.0
 11
-661.0408691354811
 21
208.3148347934901
 31
0.0
  0
LINE
  5
23A
330
1F
100
AcDbEntity
  8
0-2
  6
Continuous
 62
     3
370
     9
100
AcDbLine
 10
-659.5410868825251
 20
191.8147556127469
 30
0.0
 11
-66.54106048894388
 21
191.8147556127469
 31
0.0
  0
LINE
  5
23B
330
1F
100
AcDbEntity
  8
0-2
  6
Continuous
 62
     3
370
     9
100
AcDbLine
 10
-659.5410868825251
 20
190.8147028255847
 30
0.0
 11
-66.54106048894388
 21
190.8147028255847
 31
0.0
  0
LINE
  5
23C
330
1F
100
AcDbEntity
  8
0-2
  6
Continuous
 62
     3
370
     9
100
AcDbLine
 10
-642.0410538905487
 20
182.8147754079327
 30
0.0
 11
-642.0410538905487
 21
190.8147028255847
 31
0.0
  0
LINE
  5
23D
330
1F
100
AcDbEntity
  8
0-2
  6
Continuous
 62
     3
370
     9
100
AcDbLine
 10
-526.4410288166467
 20
190.8147028255847
 30
0.0
 11
-526.4410288166467
 21
182.8147754079327
 31
0.0
  0
LINE
  5
23E
330
1F
100
AcDbEntity
  8
0-2
  6
Continuous
 62
     3
370
     9
100
AcDbLine
 10
-546.4410948005994
 20
190.8147028255847
 30
0.0
 11
-546.4410948005994
 21
182.8147754079327
 31
0.0
  0
LINE
  5
23F
330
1F
100
AcDbEntity
  8
0-2
  6
Continuous
 62
     3
370
     9
100
AcDbLine
 10
-410.8411027186737
 20
190.8147028255847
 30
0.0
 11
-410.8411027186737
 21
182.8147754079327
 31
0.0
  0
LINE
  5
240
330
1F
100
AcDbEntity
  8
0-2
  6
Continuous
 62
     3
370
     9
100
AcDbLine
 10
-430.8409707507683
 20
190.8147028255847
 30
0.0
 11
-430.8409707507683
 21
182.8147754079327
 31
0.0
  0
LINE
  5
241
330
1F
100
AcDbEntity
  8
0-2
  6
Continuous
 62
     3
370
     9
100
AcDbLine
 10
-659.5410868825251
 20
162.8147589119445
 30
0.0
 11
-66.54106048894388
 21
162.8147589119445
 31
0.0
  0
LINE
  5
242
330
1F
100
AcDbEntity
  8
0-2
  6
Continuous
 62
     3
370
     9
100
AcDbLine
 10
-661.0408691354811
 20
165.3147424159564
 30
0.0
 11
-661.0408691354811
 21
180.3147424159564
 31
0.0
  0
LINE
  5
243
330
1F
100
AcDbEntity
  8
0-2
  6
Continuous
 62
     3
370
     9
100
AcDbLine
 10
-659.5410868825251
 20
163.8147622111422
 30
0.0
 11
-66.54106048894388
 21
163.8147622111422
 31
0.0
  0
LINE
  5
244
330
1F
100
AcDbEntity
  8
0-2
  6
Continuous
 62
     3
370
     9
100
AcDbLine
 10
-659.5410868825251
 20
181.8147721087351
 30
0.0
 11
-66.54106048894388
 21
181.8147721087351
 31
0.0
  0
LINE
  5
245
330
1F
100
AcDbEntity
  8
0-2
  6
Continuous
 62
     3
370
     9
100
AcDbLine
 10
-659.5410868825251
 20
182.8147754079327
 30
0.0
 11
-66.54106048894388
 21
182.8147754079327
 31
0.0
  0
LINE
  5
246
330
1F
100
AcDbEntity
  8
0-2
  6
Continuous
 62
     3
370
     9
100
AcDbLine
 10
-430.8409707507683
 20
154.8147820063279
 30
0.0
 11
-430.8409707507683
 21
162.8147589119445
 31
0.0
  0
LINE
  5
247
330
1F
100
AcDbEntity
  8
0-2
  6
Continuous
 62
     3
370
     9
100
AcDbLine
 10
-410.8411027186737
 20
154.8147820063279
 30
0.0
 11
-410.8411027186737
 21
162.8147589119445
 31
0.0
  0
LINE
  5
248
330
1F
100
AcDbEntity
  8
0-2
  6
Continuous
 62
     3
370
     9
100
AcDbLine
 10
-546.4410948005994
 20
154.8147820063279
 30
0.0
 11
-546.4410948005994
 21
162.8147589119445
 31
0.0
  0
LINE
  5
249
330
1F
100
AcDbEntity
  8
0-2
  6
Continuous
 62
     3
370
     9
100
AcDbLine
 10
-526.4410288166467
 20
154.8147820063279
 30
0.0
 11
-526.4410288166467
 21
162.8147589119445
 31
0.0
  0
LINE
  5
24A
330
1F
100
AcDbEntity
  8
0-2
  6
Continuous
 62
     3
370
     9
100
AcDbLine
 10
-642.0410538905487
 20
162.8147589119445
 30
0.0
 11
-642.0410538905487
 21
154.8147820063279
 31
0.0
  0
LINE
  5
24B
330
1F
100
AcDbEntity
  8
0-2
  6
Continuous
 62
     3
370
     9
100
AcDbLine
 10
-659.5410868825251
 20
154.8147820063279
 30
0.0
 11
-66.54106048894388
 21
154.8147820063279
 31
0.0
  0
LINE
  5
24C
330
1F
100
AcDbEntity
  8
0-2
  6
Continuous
 62
     3
370
     9
100
AcDbLine
 10
-659.5410868825251
 20
153.8147787071303
 30
0.0
 11
-66.54106048894388
 21
153.8147787071303
 31
0.0
  0
LINE
  5
24D
330
1F
100
AcDbEntity
  8
0-2
  6
Continuous
 62
     3
370
     9
100
AcDbLine
 10
-661.0408691354811
 20
152.3147490143516
 30
0.0
 11
-661.0408691354811
 21
137.3147490143516
 31
0.0
  0
LINE
  5
24E
330
1F
100
AcDbEntity
  8
0-2
  6
Continuous
 62
     3
370
     9
100
AcDbLine
 10
-659.5410868825251
 20
135.8147688095374
 30
0.0
 11
-66.54106048894388
 21
135.8147688095374
 31
0.0
  0
LINE
  5
24F
330
1F
100
AcDbEntity
  8
0-2
  6
Continuous
 62
     3
370
     9
100
AcDbLine
 10
-659.5410868825251
 20
134.8147655103398
 30
0.0
 11
-66.54106048894388
 21
134.8147655103398
 31
0.0
  0
LINE
  5
250
330
1F
100
AcDbEntity
  8
0-2
  6
Continuous
 62
     3
370
     9
100
AcDbLine
 10
-659.5410868825251
 20
106.8147721087351
 30
0.0
 11
-66.54106048894388
 21
106.8147721087351
 31
0.0
  0
LINE
  5
251
330
1F
100
AcDbEntity
  8
0-2
  6
Continuous
 62
     3
370
     9
100
AcDbLine
 10
-659.5410868825251
 20
107.8147754079327
 30
0.0
 11
-66.54106048894388
 21
107.8147754079327
 31
0.0
  0
LINE
  5
252
330
1F
100
AcDbEntity
  8
0-2
  6
Continuous
 62
     3
370
     9
100
AcDbLine
 10
-661.0408691354811
 20
124.3147556127469
 30
0.0
 11
-661.0408691354811
 21
109.3147556127469
 31
0.0
  0
LINE
  5
253
330
1F
100
AcDbEntity
  8
0-2
  6
Continuous
 62
     3
370
     9
100
AcDbLine
 10
-659.5410868825251
 20
125.8147853055256
 30
0.0
 11
-66.54106048894388
 21
125.8147853055256
 31
0.0
  0
LINE
  5
254
330
1F
100
AcDbEntity
  8
0-2
  6
Continuous
 62
     3
370
     9
100
AcDbLine
 10
-659.5410868825251
 20
126.8147886047232
 30
0.0
 11
-66.54106048894388
 21
126.8147886047232
 31
0.0
  0
LINE
  5
255
330
1F
100
AcDbEntity
  8
0-2
  6
Continuous
 62
     3
370
     9
100
AcDbLine
 10
-642.0410538905487
 20
134.8147655103398
 30
0.0
 11
-642.0410538905487
 21
126.8147886047232
 31
0.0
  0
LINE
  5
256
330
1F
100
AcDbEntity
  8
0-2
  6
Continuous
 62
     3
370
     9
100
AcDbLine
 10
-526.4410288166467
 20
126.8147886047232
 30
0.0
 11
-526.4410288166467
 21
134.8147655103398
 31
0.0
  0
LINE
  5
257
330
1F
100
AcDbEntity
  8
0-2
  6
Continuous
 62
     3
370
     9
100
AcDbLine
 10
-546.4410948005994
 20
126.8147886047232
 30
0.0
 11
-546.4410948005994
 21
134.8147655103398
 31
0.0
  0
LINE
  5
258
330
1F
100
AcDbEntity
  8
0-2
  6
Continuous
 62
     3
370
     9
100
AcDbLine
 10
-410.8411027186737
 20
126.8147886047232
 30
0.0
 11
-410.8411027186737
 21
134.8147655103398
 31
0.0
  0
LINE
  5
259
330
1F
100
AcDbEntity
  8
0-2
  6
Continuous
 62
     3
370
     9
100
AcDbLine
 10
-430.8409707507683
 20
126.8147886047232
 30
0.0
 11
-430.8409707507683
 21
134.8147655103398
 31
0.0
  0
LINE
  5
25A
330
1F
100
AcDbEntity
  8
0-2
  6
Continuous
 62
     3
370
     9
100
AcDbLine
 10
-430.8409707507683
 20
98.81474571515398
 30
0.0
 11
-430.8409707507683
 21
106.8147721087351
 31
0.0
  0
LINE
  5
25B
330
1F
100
AcDbEntity
  8
0-2
  6
Continuous
 62
     3
370
     9
100
AcDbLine
 10
-410.8411027186737
 20
98.81474571515398
 30
0.0
 11
-410.8411027186737
 21
106.8147721087351
 31
0.0
  0
LINE
  5
25C
330
1F
100
AcDbEntity
  8
0-2
  6
Continuous
 62
     3
370
     9
100
AcDbLine
 10
-546.4410948005994
 20
98.81474571515398
 30
0.0
 11
-546.4410948005994
 21
106.8147721087351
 31
0.0
  0
LINE
  5
25D
330
1F
100
AcDbEntity
  8
0-2
  6
Continuous
 62
     3
370
     9
100
AcDbLine
 10
-526.4410288166467
 20
98.81474571515398
 30
0.0
 11
-526.4410288166467
 21
106.8147721087351
 31
0.0
  0
LINE
  5
25E
330
1F
100
AcDbEntity
  8
0-2
  6
Continuous
 62
     3
370
     9
100
AcDbLine
 10
-642.0410538905487
 20
106.8147721087351
 30
0.0
 11
-642.0410538905487
 21
98.81474571515398
 31
0.0
  0
LINE
  5
25F
330
1F
100
AcDbEntity
  8
0-2
  6
Continuous
 62
     3
370
     9
100
AcDbLine
 10
-659.5410868825251
 20
98.81474571515398
 30
0.0
 11
-66.54106048894388
 21
98.81474571515398
 31
0.0
  0
LINE
  5
260
330
1F
100
AcDbEntity
  8
0-2
  6
Continuous
 62
     3
370
     9
100
AcDbLine
 10
-659.5410868825251
 20
97.81474241595637
 30
0.0
 11
-66.54106048894388
 21
97.81474241595637
 31
0.0
  0
LINE
  5
261
330
1F
100
AcDbEntity
  8
0-2
  6
Continuous
 62
     3
370
     9
100
AcDbLine
 10
-661.0408691354811
 20
96.31476221114221
 30
0.0
 11
-661.0408691354811
 21
81.31471272317762
 31
0.0
  0
LINE
  5
262
330
1F
100
AcDbEntity
  8
0-2
  6
Continuous
 62
     3
370
     9
100
AcDbLine
 10
-659.5410868825251
 20
79.81478200632793
 30
0.0
 11
-66.54106048894388
 21
79.81478200632793
 31
0.0
  0
LINE
  5
263
330
1F
100
AcDbEntity
  8
0-2
  6
Continuous
 62
     3
370
     9
100
AcDbLine
 10
-659.5410868825251
 20
78.81477870713033
 30
0.0
 11
-66.54106048894388
 21
78.81477870713033
 31
0.0
  0
LINE
  5
264
330
1F
100
AcDbEntity
  8
0-2
  6
Continuous
 62
     3
370
     9
100
AcDbLine
 10
-659.5410868825251
 20
50.81478530552565
 30
0.0
 11
-66.54106048894388
 21
50.81478530552565
 31
0.0
  0
LINE
  5
265
330
1F
100
AcDbEntity
  8
0-2
  6
Continuous
 62
     3
370
     9
100
AcDbLine
 10
-659.5410868825251
 20
51.81478860472325
 30
0.0
 11
-66.54106048894388
 21
51.81478860472325
 31
0.0
  0
LINE
  5
266
330
1F
100
AcDbEntity
  8
0-2
  6
Continuous
 62
     3
370
     9
100
AcDbLine
 10
-661.0408691354811
 20
68.314818297502
 30
0.0
 11
-661.0408691354811
 21
53.314818297502
 31
0.0
  0
LINE
  5
267
330
1F
100
AcDbEntity
  8
0-2
  6
Continuous
 62
     3
370
     9
100
AcDbLine
 10
-659.5410868825251
 20
69.81474901435158
 30
0.0
 11
-66.54106048894388
 21
69.81474901435158
 31
0.0
  0
LINE
  5
268
330
1F
100
AcDbEntity
  8
0-2
  6
Continuous
 62
     3
370
     9
100
AcDbLine
 10
-659.5410868825251
 20
70.81475231354929
 30
0.0
 11
-66.54106048894388
 21
70.81475231354929
 31
0.0
  0
LINE
  5
269
330
1F
100
AcDbEntity
  8
0-2
  6
Continuous
 62
     3
370
     9
100
AcDbLine
 10
-642.0410538905487
 20
78.81477870713033
 30
0.0
 11
-642.0410538905487
 21
70.81475231354929
 31
0.0
  0
LINE
  5
26A
330
1F
100
AcDbEntity
  8
0-2
  6
Continuous
 62
     3
370
     9
100
AcDbLine
 10
-526.4410288166467
 20
70.81475231354929
 30
0.0
 11
-526.4410288166467
 21
78.81477870713033
 31
0.0
  0
LINE
  5
26B
330
1F
100
AcDbEntity
  8
0-2
  6
Continuous
 62
     3
370
     9
100
AcDbLine
 10
-546.4410948005994
 20
70.81475231354929
 30
0.0
 11
-546.4410948005994
 21
78.81477870713033
 31
0.0
  0
LINE
  5
26C
330
1F
100
AcDbEntity
  8
0-2
  6
Continuous
 62
     3
370
     9
100
AcDbLine
 10
-430.8409707507683
 20
42.81475891194449
 30
0.0
 11
-430.8409707507683
 21
50.81478530552565
 31
0.0
  0
LINE
  5
26D
330
1F
100
AcDbEntity
  8
0-2
  6
Continuous
 62
     3
370
     9
100
AcDbLine
 10
-410.8411027186737
 20
42.81475891194449
 30
0.0
 11
-410.8411027186737
 21
50.81478530552565
 31
0.0
  0
LINE
  5
26E
330
1F
100
AcDbEntity
  8
0-2
  6
Continuous
 62
     3
370
     9
100
AcDbLine
 10
-546.4410948005994
 20
42.81475891194449
 30
0.0
 11
-546.4410948005994
 21
50.81478530552565
 31
0.0
  0
LINE
  5
26F
330
1F
100
AcDbEntity
  8
0-2
  6
Continuous
 62
     3
370
     9
100
AcDbLine
 10
-526.4410288166467
 20
42.81475891194449
 30
0.0
 11
-526.4410288166467
 21
50.81478530552565
 31
0.0
  0
LINE
  5
270
330
1F
100
AcDbEntity
  8
0-2
  6
Continuous
 62
     3
370
     9
100
AcDbLine
 10
-642.0410538905487
 20
50.81478530552565
 30
0.0
 11
-642.0410538905487
 21
42.81475891194449
 31
0.0
  0
LINE
  5
271
330
1F
100
AcDbEntity
  8
0-2
  6
Continuous
 62
     3
370
     9
100
AcDbLine
 10
-410.8411027186737
 20
70.81475231354929
 30
0.0
 11
-410.8411027186737
 21
78.81477870713033
 31
0.0
  0
LINE
  5
272
330
1F
100
AcDbEntity
  8
0-2
  6
Continuous
 62
     3
370
     9
100
AcDbLine
 10
-430.8409707507683
 20
70.81475231354929
 30
0.0
 11
-430.8409707507683
 21
78.81477870713033
 31
0.0
  0
LINE
  5
273
330
1F
100
AcDbEntity
  8
0-2
  6
Continuous
 62
     3
370
     9
100
AcDbLine
 10
-659.5410868825251
 20
42.81475891194449
 30
0.0
 11
-66.54106048894388
 21
42.81475891194449
 31
0.0
  0
LINE
  5
274
330
1F
100
AcDbEntity
  8
0-2
  6
Continuous
 62
     3
370
     9
100
AcDbLine
 10
-659.5410868825251
 20
41.81475561274689
 30
0.0
 11
-66.54106048894388
 21
41.81475561274689
 31
0.0
  0
LINE
  5
275
330
1F
100
AcDbEntity
  8
0-2
  6
Continuous
 62
     3
370
     9
100
AcDbLine
 10
-661.0408691354811
 20
40.31477540793273
 30
0.0
 11
-661.0408691354811
 21
25.31477540793273
 31
0.0
  0
LINE
  5
276
330
1F
100
AcDbEntity
  8
0-2
  6
Continuous
 62
     3
370
     9
100
AcDbLine
 10
-659.5410868825251
 20
23.81474571515398
 30
0.0
 11
-66.54106048894388
 21
23.81474571515398
 31
0.0
  0
LINE
  5
277
330
1F
100
AcDbEntity
  8
0-2
  6
Continuous
 62
     3
370
     9
100
AcDbLine
 10
-659.5410868825251
 20
22.81474241595637
 30
0.0
 11
-66.54106048894388
 21
22.81474241595637
 31
0.0
  0
LINE
  5
278
330
1F
100
AcDbEntity
  8
0-2
  6
Continuous
 62
     3
370
     9
100
AcDbLine
 10
399.9593156195864
 20
122.2814436142249
 30
0.0
 11
399.9593156195864
 21
167.0547392487266
 31
0.0
  0
LINE
  5
279
330
1F
100
AcDbEntity
  8
0-2
  6
Continuous
 62
     3
370
     9
100
AcDbLine
 10
399.9593156195864
 20
223.3480907056523
 30
0.0
 11
399.9593156195864
 21
178.5748445591151
 31
0.0
  0
LINE
  5
27A
330
1F
100
AcDbEntity
  8
0-2
  6
Continuous
 62
     3
370
     9
100
AcDbLine
 10
391.9592892260054
 20
22.81474241595637
 30
0.0
 11
396.9591572580999
 21
23.81474571515398
 31
0.0
  0
LINE
  5
27B
330
1F
100
AcDbEntity
  8
0-2
  6
Continuous
 62
     3
370
     9
100
AcDbLine
 10
398.8098091795526
 20
25.95356605404751
 30
0.0
 11
435.5714487488095
 21
28.71068902174179
 31
0.0
  0
LINE
  5
27C
330
1F
100
AcDbEntity
  8
0-2
  6
Continuous
 62
     3
370
     9
100
AcDbLine
 10
435.5589777817487
 20
34.90806681946137
 30
0.0
 11
394.7597141626608
 21
37.62807381376044
 31
0.0
  0
LINE
  5
27D
330
1F
100
AcDbEntity
  8
0-2
  6
Continuous
 62
     3
370
     9
100
AcDbLine
 10
421.9592892260054
 20
170.1996004184901
 30
0.0
 11
421.9592892260054
 21
175.4299833893516
 31
0.0
  0
LINE
  5
27E
330
1F
100
AcDbEntity
  8
0-2
  6
Continuous
 62
     3
370
     9
100
AcDbLine
 10
394.719925839181
 20
166.6356256771472
 30
0.0
 11
420.5789709194177
 21
168.7043710582705
 31
0.0
  0
LINE
  5
27F
330
1F
100
AcDbEntity
  8
0-2
  6
Continuous
 62
     3
370
     9
100
AcDbLine
 10
394.719925839181
 20
178.99390864273
 30
0.0
 11
420.5789709194177
 21
176.9251632616067
 31
0.0
  0
LINE
  5
280
330
1F
100
AcDbEntity
  8
0-2
  6
Continuous
 62
     3
370
     9
100
AcDbLine
 10
517.140580136056
 20
185.7399595031607
 30
0.0
 11
526.8624907673906
 21
160.9776666927722
 31
0.0
  0
LINE
  5
281
330
1F
100
AcDbEntity
  8
0-2
  6
Continuous
 62
     3
370
     9
100
AcDbLine
 10
404.4591572580999
 20
156.0699947385915
 30
0.0
 11
403.459302422796
 21
157.0699980377891
 31
0.0
  0
LINE
  5
282
330
1F
100
AcDbEntity
  8
0-2
  6
Continuous
 62
     3
370
     9
100
AcDbLine
 10
409.4592232420526
 20
156.0699947385915
 30
0.0
 11
410.4592760292149
 21
157.0699980377891
 31
0.0
  0
LINE
  5
283
330
1F
100
AcDbEntity
  8
0-2
  6
Continuous
 62
     3
370
     9
100
AcDbLine
 10
504.6049817935731
 20
170.3147589119445
 30
0.0
 11
523.1965213311574
 21
170.3147589119445
 31
0.0
  0
LINE
  5
284
330
1F
100
AcDbEntity
  8
0-2
  6
Continuous
 62
     3
370
     9
100
AcDbLine
 10
504.6049817935731
 20
175.3147754079327
 30
0.0
 11
521.2335317302285
 21
175.3147754079327
 31
0.0
  0
LINE
  5
285
330
1F
100
AcDbEntity
  8
0-2
  6
Continuous
 62
     3
370
     9
100
AcDbLine
 10
497.4592166436574
 20
175.3147754079327
 30
0.0
 11
499.0817290486406
 21
175.3147754079327
 31
0.0
  0
LINE
  5
286
330
1F
100
AcDbEntity
  8
0-2
  6
Continuous
 62
     3
370
     9
100
AcDbLine
 10
497.4592166436574
 20
170.3147589119445
 30
0.0
 11
499.0817290486406
 21
170.3147589119445
 31
0.0
  0
LINE
  5
287
330
1F
100
AcDbEntity
  8
0-2
  6
Continuous
 62
     3
370
     9
100
AcDbLine
 10
409.4592232420526
 20
156.0699947385915
 30
0.0
 11
409.4592232420526
 21
164.5595065893094
 31
0.0
  0
LINE
  5
288
330
1F
100
AcDbEntity
  8
0-2
  6
Continuous
 62
     3
370
     9
100
AcDbLine
 10
404.4591572580999
 20
156.0699947385915
 30
0.0
 11
404.4591572580999
 21
164.5595065893094
 31
0.0
  0
LINE
  5
289
330
1F
100
AcDbEntity
  8
0-2
  6
Continuous
 62
     3
370
     9
100
AcDbLine
 10
409.9592496356337
 20
198.5547689415053
 30
0.0
 11
403.959328816377
 21
198.5547689415053
 31
0.0
  0
LINE
  5
28A
330
1F
100
AcDbEntity
  8
0-2
  6
Continuous
 62
     3
370
     9
100
AcDbLine
 10
403.459302422796
 20
189.5547392487266
 30
0.0
 11
401.9592232420526
 21
190.5546930599597
 31
0.0
  0
LINE
  5
28B
330
1F
100
AcDbEntity
  8
0-2
  6
Continuous
 62
     3
370
     9
100
AcDbLine
 10
410.4592760292149
 20
189.5547392487266
 30
0.0
 11
411.9591572580999
 21
190.5546930599597
 31
0.0
  0
LINE
  5
28C
330
1F
100
AcDbEntity
  8
0-2
  6
Continuous
 62
     3
370
     9
100
AcDbLine
 10
411.9591572580999
 20
190.5546930599597
 30
0.0
 11
411.9591572580999
 21
196.5547623431101
 31
0.0
  0
LINE
  5
28D
330
1F
100
AcDbEntity
  8
0-2
  6
Continuous
 62
     3
370
     9
100
AcDbLine
 10
401.9592232420526
 20
190.5546930599597
 30
0.0
 11
401.9592232420526
 21
196.5547623431101
 31
0.0
  0
LINE
  5
28E
330
1F
100
AcDbEntity
  8
0-2
  6
Continuous
 62
     3
370
     9
100
AcDbLine
 10
495.9592364388433
 20
163.8147622111422
 30
0.0
 11
471.9593552099581
 21
163.8147622111422
 31
0.0
  0
LINE
  5
28F
330
1F
100
AcDbEntity
  8
0-2
  6
Continuous
 62
     3
370
     9
100
AcDbLine
 10
409.4592232420526
 20
156.0699947385915
 30
0.0
 11
404.4591572580999
 21
156.0699947385915
 31
0.0
  0
LINE
  5
290
330
1F
100
AcDbEntity
  8
0-2
  6
Continuous
 62
     3
370
     9
100
AcDbLine
 10
495.9592364388433
 20
181.8147721087351
 30
0.0
 11
471.9593552099581
 21
181.8147721087351
 31
0.0
  0
LINE
  5
291
330
1F
100
AcDbEntity
  8
0-2
  6
Continuous
 62
     3
370
     9
100
AcDbLine
 10
495.9592364388433
 20
168.8147787071303
 30
0.0
 11
471.9593552099581
 21
168.8147787071303
 31
0.0
  0
LINE
  5
292
330
1F
100
AcDbEntity
  8
0-2
  6
Continuous
 62
     3
370
     9
100
AcDbLine
 10
495.9592364388433
 20
176.8147556127469
 30
0.0
 11
471.9593552099581
 21
176.8147556127469
 31
0.0
  0
LINE
  5
293
330
1F
100
AcDbEntity
  8
0-2
  6
Continuous
 62
     3
370
     9
100
AcDbLine
 10
403.459302422796
 20
157.0699980377891
 30
0.0
 11
403.459302422796
 21
167.3347916399851
 31
0.0
  0
LINE
  5
294
330
1F
100
AcDbEntity
  8
0-2
  6
Continuous
 62
     3
370
     9
100
AcDbLine
 10
410.4592760292149
 20
157.0699980377891
 30
0.0
 11
410.4592760292149
 21
167.8947974465729
 31
0.0
  0
LINE
  5
295
330
1F
100
AcDbEntity
  8
0-2
  6
Continuous
 62
     3
370
     9
100
AcDbLine
 10
435.4976127057352
 20
175.3147754079327
 30
0.0
 11
433.459302422796
 21
175.3147754079327
 31
0.0
  0
LINE
  5
296
330
1F
100
AcDbEntity
  8
0-2
  6
Continuous
 62
     3
370
     9
100
AcDbLine
 10
435.4976127057352
 20
170.3147589119445
 30
0.0
 11
433.459302422796
 21
170.3147589119445
 31
0.0
  0
LINE
  5
297
330
1F
100
AcDbEntity
  8
0-2
  6
Continuous
 62
     3
370
     9
100
AcDbLine
 10
470.4592760292149
 20
170.3147589119445
 30
0.0
 11
468.8366646483026
 21
170.3147589119445
 31
0.0
  0
LINE
  5
298
330
1F
100
AcDbEntity
  8
0-2
  6
Continuous
 62
     3
370
     9
100
AcDbLine
 10
470.4592760292149
 20
175.3147754079327
 30
0.0
 11
468.8366646483026
 21
175.3147754079327
 31
0.0
  0
LINE
  5
299
330
1F
100
AcDbEntity
  8
0-2
  6
Continuous
 62
     3
370
     9
100
AcDbLine
 10
463.3134119033704
 20
175.3147754079327
 30
0.0
 11
442.7343367344514
 21
175.3147754079327
 31
0.0
  0
LINE
  5
29A
330
1F
100
AcDbEntity
  8
0-2
  6
Continuous
 62
     3
370
     9
100
AcDbLine
 10
463.3134119033704
 20
170.3147589119445
 30
0.0
 11
442.7343367344514
 21
170.3147589119445
 31
0.0
  0
LINE
  5
29B
330
1F
100
AcDbEntity
  8
0-2
  6
Continuous
 62
     3
370
     9
100
AcDbLine
 10
411.459328816377
 20
181.0001507246556
 30
0.0
 11
411.459328816377
 21
188.0001243310746
 31
0.0
  0
LINE
  5
29C
330
1F
100
AcDbEntity
  8
0-2
  6
Continuous
 62
     3
370
     9
100
AcDbLine
 10
402.4592496356337
 20
181.6294396815814
 30
0.0
 11
402.4592496356337
 21
188.6294627759648
 31
0.0
  0
LINE
  5
29D
330
1F
100
AcDbEntity
  8
0-2
  6
Continuous
 62
     3
370
     9
100
AcDbLine
 10
410.4592760292149
 20
164.5595065893094
 30
0.0
 11
409.4592232420526
 21
164.5595065893094
 31
0.0
  0
LINE
  5
29E
330
1F
100
AcDbEntity
  8
0-2
  6
Continuous
 62
     3
370
     9
100
AcDbLine
 10
404.4591572580999
 20
164.5595065893094
 30
0.0
 11
403.459302422796
 21
164.5595065893094
 31
0.0
  0
LINE
  5
29F
330
1F
100
AcDbEntity
  8
0-2
  6
Continuous
 62
     3
370
     9
100
AcDbLine
 10
-641.0410011033865
 20
308.3147688095374
 30
0.0
 11
-641.0410011033865
 21
317.3147490143517
 31
0.0
  0
LINE
  5
2A0
330
1F
100
AcDbEntity
  8
0-2
  6
Continuous
 62
     3
370
     9
100
AcDbLine
 10
-517.541014300177
 20
318.8147292191659
 30
0.0
 11
-639.5410208985724
 21
318.8147292191659
 31
0.0
  0
LINE
  5
2A1
330
1F
100
AcDbEntity
  8
0-2
  6
Continuous
 62
     3
370
     9
100
AcDbLine
 10
-516.0410340953629
 20
308.3147688095374
 30
0.0
 11
-516.0410340953629
 21
317.3147490143517
 31
0.0
  0
LINE
  5
2A2
330
1F
100
AcDbEntity
  8
0-2
  6
Continuous
 62
     3
370
     9
100
AcDbLine
 10
-517.541014300177
 20
306.8147886047233
 30
0.0
 11
-639.5410208985724
 21
306.8147886047233
 31
0.0
  0
LINE
  5
2A3
330
1F
100
AcDbEntity
  8
0-2
  6
Continuous
 62
     3
370
     9
100
AcDbLine
 10
-515.0410802841297
 20
308.3147688095374
 30
0.0
 11
-515.0410802841297
 21
317.3147490143517
 31
0.0
  0
LINE
  5
2A4
330
1F
100
AcDbEntity
  8
0-2
  6
Continuous
 62
     3
370
     9
100
AcDbLine
 10
-639.5410208985724
 20
319.8147820063281
 30
0.0
 11
-517.541014300177
 21
319.8147820063281
 31
0.0
  0
LINE
  5
2A5
330
1F
100
AcDbEntity
  8
0-2
  6
Continuous
 62
     3
370
     9
100
AcDbLine
 10
-642.0410538905487
 20
308.3147688095374
 30
0.0
 11
-642.0410538905487
 21
317.3147490143517
 31
0.0
  0
LINE
  5
2A6
330
1F
100
AcDbEntity
  8
0-2
  6
Continuous
 62
     3
370
     9
100
AcDbLine
 10
-639.5410208985724
 20
305.8147358175611
 30
0.0
 11
-517.541014300177
 21
305.8147358175611
 31
0.0
  0
LINE
  5
2A7
330
1F
100
AcDbEntity
  8
0-2
  6
Continuous
 62
     3
370
     9
100
AcDbLine
 10
436.9592892260054
 20
30.20651223753575
 30
0.0
 11
436.9592892260054
 21
71.66634120713033
 31
0.0
  0
LINE
  5
2A8
330
1F
100
AcDbEntity
  8
0-2
  6
Continuous
 62
     3
370
     9
100
AcDbLine
 10
436.9592892260054
 20
315.4230220823415
 30
0.0
 11
436.9592892260054
 21
273.9631931127469
 31
0.0
  0
LINE
  5
2A9
330
1F
100
AcDbEntity
  8
0-2
  6
JWW_CENTER1
 62
     3
370
     9
100
AcDbLine
 10
406.9592892260054
 20
152.069981541801
 30
0.0
 11
406.9592892260054
 21
202.5547821382958
 31
0.0
  0
LINE
  5
2AA
330
1F
100
AcDbEntity
  8
0-2
  6
Continuous
 62
     3
370
     9
100
AcDbLine
 10
399.9593156195864
 20
163.8252536596219
 30
0.0
 11
404.4591572580999
 21
164.1398981380847
 31
0.0
  0
LINE
  5
2AB
330
1F
100
AcDbEntity
  8
0-2
  6
Continuous
 62
     3
370
     9
100
AcDbLine
 10
409.4592232420526
 20
164.4895800954327
 30
0.0
 11
428.9592628324243
 21
165.8531714700104
 31
0.0
  0
LINE
  5
2AC
330
1F
100
AcDbEntity
  8
0-2
  6
Continuous
 62
     3
370
     9
100
AcDbLine
 10
399.9593156195864
 20
156.8253295411675
 30
0.0
 11
404.4591572580999
 21
157.1399740196303
 31
0.0
  0
LINE
  5
2AD
330
1F
100
AcDbEntity
  8
0-2
  6
Continuous
 62
     3
370
     9
100
AcDbLine
 10
409.4592232420526
 20
157.4896064890138
 30
0.0
 11
428.9592628324243
 21
158.853148375627
 31
0.0
  0
LINE
  5
2AE
330
1F
100
AcDbEntity
  8
0-2
  6
Continuous
 62
     3
370
     9
100
AcDbLine
 10
399.9593156195864
 20
188.8042047787097
 30
0.0
 11
403.459302422796
 21
188.5594867941236
 31
0.0
  0
LINE
  5
2AF
330
1F
100
AcDbEntity
  8
0-2
  6
Continuous
 62
     3
370
     9
100
AcDbLine
 10
410.4592760292149
 20
188.0700013369868
 30
0.0
 11
428.9592628324243
 21
186.7763859442502
 31
0.0
  0
LINE
  5
2B0
330
1F
100
AcDbEntity
  8
0-2
  6
Continuous
 62
     3
370
     9
100
AcDbLine
 10
399.9593156195864
 20
181.8042806602553
 30
0.0
 11
403.459302422796
 21
181.5595131877047
 31
0.0
  0
LINE
  5
2B1
330
1F
100
AcDbEntity
  8
0-2
  6
Continuous
 62
     3
370
     9
100
AcDbLine
 10
410.4592760292149
 20
181.0700277305678
 30
0.0
 11
428.9592628324243
 21
179.7763133619023
 31
0.0
  0
LINE
  5
2B2
330
1F
100
AcDbEntity
  8
0-2
  6
JWW_CENTER1
 62
     3
370
     9
100
AcDbLine
 10
366.9592562340291
 20
172.8147424159564
 30
0.0
 11
542.2151420026102
 21
172.8147424159564
 31
0.0
  0
LINE
  5
2B3
330
1F
100
AcDbEntity
  8
0-2
  6
JWW_CENTER1
 62
     3
370
     9
100
AcDbLine
 10
-132.0409549146196
 20
195.8147688095374
 30
0.0
 11
-132.0409549146196
 21
149.8147655103398
 31
0.0
  0
LINE
  5
2B4
330
1F
100
AcDbEntity
  8
0-2
  6
JWW_PHANTOM2
 62
     3
370
     9
100
AcDbLine
 10
-62.04102089857233
 20
322.8147424159564
 30
0.0
 11
166.9591902500763
 21
322.8147424159564
 31
0.0
  0
LINE
  5
2B5
330
1F
100
AcDbEntity
  8
0-2
  6
JWW_PHANTOM2
 62
     3
370
     9
100
AcDbLine
 10
-62.04102089857233
 20
22.81474241595637
 30
0.0
 11
166.9591902500763
 21
22.81474241595637
 31
0.0
  0
LINE
  5
2B6
330
1F
100
AcDbEntity
  8
0-2
  6
JWW_CENTER1
 62
     3
370
     9
100
AcDbLine
 10
-594.0409945049913
 20
195.8147688095374
 30
0.0
 11
-594.0409945049913
 21
149.8147655103398
 31
0.0
  0
LINE
  5
2B7
330
1F
100
AcDbEntity
  8
0-E
  6
Continuous
 62
     7
370
     9
100
AcDbLine
 10
210.3932920765122
 20
425.5847157584395
 30
0.0
 11
338.777543026681
 21
425.5847157584395
 31
0.0
  0
LINE
  5
2B8
330
1F
100
AcDbEntity
  8
0-E
  6
Continuous
 62
     7
370
     9
100
AcDbLine
 10
496.9591902500764
 20
32.31479850231617
 30
0.0
 11
503.0468037424749
 21
24.38128393305939
 31
0.0
  0
LINE
  5
2B9
330
1F
100
AcDbEntity
  8
0-E
  6
Continuous
 62
     7
370
     9
100
AcDbLine
 10
496.9591902500764
 20
32.31479850231617
 30
0.0
 11
500.7859955710222
 21
23.07598938069449
 31
0.0
  0
LINE
  5
2BA
330
1F
100
AcDbEntity
  8
0-E
  6
Continuous
 62
     7
370
     9
100
AcDbLine
 10
496.9591902500764
 20
32.31479850231617
 30
0.0
 11
537.2995024861406
 21
-37.55666475781894
 31
0.0
  0
LINE
  5
2BB
330
1F
100
AcDbEntity
  8
0-1
  6
JWW_DASHED1
 62
     2
370
     9
100
AcDbLine
 10
-421.0408691354811
 20
15.814818297502
 30
0.0
 11
-421.0408691354811
 21
40.81480180151377
 31
0.0
  0
LINE
  5
2BC
330
1F
100
AcDbEntity
  8
0-1
  6
JWW_DASHED1
 62
     2
370
     9
100
AcDbLine
 10
-405.040915324248
 20
15.814818297502
 30
0.0
 11
-405.040915324248
 21
40.81480180151377
 31
0.0
  0
LINE
  5
2BD
330
1F
100
AcDbEntity
  8
0-1
  6
JWW_DASHED1
 62
     2
370
     9
100
AcDbLine
 10
78.95909787254256
 20
15.814818297502
 30
0.0
 11
78.95909787254256
 21
40.81480180151377
 31
0.0
  0
LINE
  5
2BE
330
1F
100
AcDbEntity
  8
0-1
  6
JWW_DASHED1
 62
     2
370
     9
100
AcDbLine
 10
94.95915065970475
 20
15.814818297502
 30
0.0
 11
94.95915065970475
 21
40.81480180151377
 31
0.0
  0
LINE
  5
2BF
330
1F
100
AcDbEntity
  8
0-1
  6
JWW_DASHED1
 62
     2
370
     9
100
AcDbLine
 10
-421.0408691354811
 20
329.8147160223754
 30
0.0
 11
-421.0408691354811
 21
304.814683030399
 31
0.0
  0
LINE
  5
2C0
330
1F
100
AcDbEntity
  8
0-1
  6
JWW_DASHED1
 62
     2
370
     9
100
AcDbLine
 10
-405.040915324248
 20
329.8147160223754
 30
0.0
 11
-405.040915324248
 21
304.814683030399
 31
0.0
  0
LINE
  5
2C1
330
1F
100
AcDbEntity
  8
0-1
  6
JWW_DASHED1
 62
     2
370
     9
100
AcDbLine
 10
78.95909787254256
 20
329.8147160223754
 30
0.0
 11
78.95909787254256
 21
304.814683030399
 31
0.0
  0
LINE
  5
2C2
330
1F
100
AcDbEntity
  8
0-1
  6
JWW_DASHED1
 62
     2
370
     9
100
AcDbLine
 10
94.95915065970475
 20
329.8147160223754
 30
0.0
 11
94.95915065970475
 21
304.814683030399
 31
0.0
  0
LINE
  5
2C3
330
1F
100
AcDbEntity
  8
0-F
  6
Continuous
 62
     7
370
     9
100
AcDbLine
 10
-663.0408757338764
 20
389.8148149983044
 30
0.0
 11
166.9591902500763
 21
389.8148149983044
 31
0.0
  0
LINE
  5
2C4
330
1F
100
AcDbEntity
  8
0-F
  6
Continuous
 62
     7
370
     9
100
AcDbLine
 10
-413.0408922298646
 20
339.8148479902807
 30
0.0
 11
-413.0408922298646
 21
391.0147991621557
 31
0.0
  0
LINE
  5
2C5
330
1F
100
AcDbEntity
  8
0-F
  6
Continuous
 62
     7
370
     9
100
AcDbLine
 10
86.9591242661236
 20
339.8147490143517
 30
0.0
 11
86.9591242661236
 21
391.0147991621557
 31
0.0
  0
LINE
  5
2C6
330
1F
100
AcDbEntity
  8
0-F
  6
Continuous
 62
     7
370
     9
100
AcDbLine
 10
77.04470545277901
 20
388.5095204459395
 30
0.0
 11
96.87354307946829
 21
391.1201095506692
 31
0.0
  0
LINE
  5
2C7
330
1F
100
AcDbEntity
  8
0-F
  6
Continuous
 62
     7
370
     9
100
AcDbLine
 10
77.04470545277901
 20
391.1201095506692
 30
0.0
 11
96.87354307946829
 21
388.5095204459395
 31
0.0
  0
LINE
  5
2C8
330
1F
100
AcDbEntity
  8
0-F
  6
Continuous
 62
     7
370
     9
100
AcDbLine
 10
-422.9553605311737
 20
388.5095204459395
 30
0.0
 11
-403.1264239285554
 21
391.1201095506692
 31
0.0
  0
LINE
  5
2C9
330
1F
100
AcDbEntity
  8
0-F
  6
Continuous
 62
     7
370
     9
100
AcDbLine
 10
-422.9553605311737
 20
391.1201095506692
 30
0.0
 11
-403.1264239285554
 21
388.5095204459395
 31
0.0
  0
LINE
  5
2CA
330
1F
100
AcDbEntity
  8
0-F
  6
Continuous
 62
     7
370
     9
100
AcDbLine
 10
-663.0408757338764
 20
389.8148149983044
 30
0.0
 11
-653.1264321765495
 21
391.1201095506692
 31
0.0
  0
LINE
  5
2CB
330
1F
100
AcDbEntity
  8
0-F
  6
Continuous
 62
     7
370
     9
100
AcDbLine
 10
-663.0408757338764
 20
389.8148149983044
 30
0.0
 11
-653.1264321765495
 21
388.5095204459395
 31
0.0
  0
LINE
  5
2CC
330
1F
100
AcDbEntity
  8
0-E
  6
Continuous
 62
     7
370
     9
100
AcDbLine
 10
537.2995024861406
 20
-37.55666475781894
 30
0.0
 11
709.5959090000764
 21
-37.55666475781894
 31
0.0
  0
ARC
  5
2CD
330
1F
100
AcDbEntity
  8
0-1
  6
Continuous
 62
     2
370
     9
100
AcDbCircle
 10
445.1590490444177
 20
281.014832154132
 30
0.0
 40
5.000000257749815
100
AcDbArc
 50
180.0
 51
270.0
  0
ARC
  5
2CE
330
1F
100
AcDbEntity
  8
0-1
  6
Continuous
 62
     2
370
     9
100
AcDbCircle
 10
488.759232479806
 20
281.014832154132
 30
0.0
 40
5.000000257749815
100
AcDbArc
 50
270.0
 51
0.0
  0
ARC
  5
2CF
330
1F
100
AcDbEntity
  8
0-1
  6
Continuous
 62
     2
370
     9
100
AcDbCircle
 10
444.9591176677285
 20
280.8147028255847
 30
0.0
 40
8.000000103099927
100
AcDbArc
 50
180.0
 51
270.0
  0
ARC
  5
2D0
330
1F
100
AcDbEntity
  8
0-1
  6
Continuous
 62
     2
370
     9
100
AcDbCircle
 10
488.9591638564954
 20
280.8147028255847
 30
0.0
 40
8.000000103099927
100
AcDbArc
 50
270.0
 51
0.0
  0
ARC
  5
2D1
330
1F
100
AcDbEntity
  8
0-1
  6
Continuous
 62
     2
370
     9
100
AcDbCircle
 10
432.1590556428129
 20
321.8147886047233
 30
0.0
 40
8.000000103099927
100
AcDbArc
 50
0.0
 51
90.0
  0
ARC
  5
2D2
330
1F
100
AcDbEntity
  8
0-1
  6
Continuous
 62
     2
370
     9
100
AcDbCircle
 10
431.9591242661237
 20
321.614758252105
 30
0.0
 40
5.000000257749815
100
AcDbArc
 50
0.0
 51
90.0
  0
CIRCLE
  5
2D3
330
1F
100
AcDbEntity
  8
0-1
  6
Continuous
 62
     2
370
     9
100
AcDbCircle
 10
466.9591902500764
 20
37.61476155130262
 30
0.0
 40
8.500000206199852
  0
ARC
  5
2D4
330
1F
100
AcDbEntity
  8
0-1
  6
Continuous
 62
     2
370
     9
100
AcDbCircle
 10
472.9591110693331
 20
37.61476155130262
 30
0.0
 40
6.000000077324945
100
AcDbArc
 50
276.1359710693359
 51
83.86401367187499
  0
ARC
  5
2D5
330
1F
100
AcDbEntity
  8
0-1
  6
Continuous
 62
     2
370
     9
100
AcDbCircle
 10
460.9591704548906
 20
37.61476155130262
 30
0.0
 40
6.000000077324945
100
AcDbArc
 50
96.13597106933595
 51
263.8640136718749
  0
ARC
  5
2D6
330
1F
100
AcDbEntity
  8
0-1
  6
Continuous
 62
     2
370
     9
100
AcDbCircle
 10
460.9591704548906
 20
308.0148717445037
 30
0.0
 40
6.000000077324945
100
AcDbArc
 50
96.13597106933595
 51
263.8640136718749
  0
ARC
  5
2D7
330
1F
100
AcDbEntity
  8
0-1
  6
Continuous
 62
     2
370
     9
100
AcDbCircle
 10
472.9591110693331
 20
308.0148717445037
 30
0.0
 40
6.000000077324945
100
AcDbArc
 50
276.1359710693359
 51
83.86401367187499
  0
CIRCLE
  5
2D8
330
1F
100
AcDbEntity
  8
0-1
  6
Continuous
 62
     2
370
     9
100
AcDbCircle
 10
466.9591902500764
 20
308.0148717445037
 30
0.0
 40
8.500000206199852
  0
ARC
  5
2D9
330
1F
100
AcDbEntity
  8
0-1
  6
Continuous
 62
     2
370
     9
100
AcDbCircle
 10
431.9591242661237
 20
24.01482555573679
 30
0.0
 40
5.000000257749815
100
AcDbArc
 50
270.0
 51
0.0
  0
ARC
  5
2DA
330
1F
100
AcDbEntity
  8
0-1
  6
Continuous
 62
     2
370
     9
100
AcDbCircle
 10
432.1590556428129
 20
23.81479520311856
 30
0.0
 40
8.000000103099927
100
AcDbArc
 50
270.0
 51
0.0
  0
ARC
  5
2DB
330
1F
100
AcDbEntity
  8
0-1
  6
Continuous
 62
     2
370
     9
100
AcDbCircle
 10
488.9591638564954
 20
64.81478200632793
 30
0.0
 40
8.000000103099927
100
AcDbArc
 50
0.0
 51
90.0
  0
ARC
  5
2DC
330
1F
100
AcDbEntity
  8
0-1
  6
Continuous
 62
     2
370
     9
100
AcDbCircle
 10
444.9591176677285
 20
64.81478200632793
 30
0.0
 40
8.000000103099927
100
AcDbArc
 50
89.99998474121092
 51
180.0
  0
ARC
  5
2DD
330
1F
100
AcDbEntity
  8
0-1
  6
Continuous
 62
     2
370
     9
100
AcDbCircle
 10
488.759232479806
 20
64.61480114167429
 30
0.0
 40
5.000000257749815
100
AcDbArc
 50
0.0
 51
90.0
  0
ARC
  5
2DE
330
1F
100
AcDbEntity
  8
0-1
  6
Continuous
 62
     2
370
     9
100
AcDbCircle
 10
445.1590490444177
 20
64.61480114167429
 30
0.0
 40
5.000000257749815
100
AcDbArc
 50
90.0
 51
180.0
  0
ARC
  5
2DF
330
1F
100
AcDbEntity
  8
0-2
  6
Continuous
 62
     3
370
     9
100
AcDbCircle
 10
-659.8928473343832
 20
-237.563609568841
 30
0.0
 40
2.000000025774982
100
AcDbArc
 50
4.398574829101562
 51
74.96568298339844
  0
ARC
  5
2E0
330
1F
100
AcDbEntity
  8
0-2
  6
Continuous
 62
     3
370
     9
100
AcDbCircle
 10
-620.5580315615791
 20
-267.563609568841
 30
0.0
 40
10.00000051549963
100
AcDbArc
 50
90.0
 51
165.0685119628907
  0
ARC
  5
2E1
330
1F
100
AcDbEntity
  8
0-2
  6
Continuous
 62
     3
370
     9
100
AcDbCircle
 10
-563.4235826595522
 20
-267.563609568841
 30
0.0
 40
10.00000051549963
100
AcDbArc
 50
14.93148803710938
 51
90.0
  0
ARC
  5
2E2
330
1F
100
AcDbEntity
  8
0-2
  6
Continuous
 62
     3
370
     9
100
AcDbCircle
 10
-509.4580460780487
 20
-267.563609568841
 30
0.0
 40
10.00000051549963
100
AcDbArc
 50
90.0
 51
165.0685119628907
  0
ARC
  5
2E3
330
1F
100
AcDbEntity
  8
0-2
  6
Continuous
 62
     3
370
     9
100
AcDbCircle
 10
-447.8236565615791
 20
-267.563609568841
 30
0.0
 40
10.00000051549963
100
AcDbArc
 50
14.93148803710938
 51
90.0
  0
ARC
  5
2E4
330
1F
100
AcDbEntity
  8
0-2
  6
Continuous
 62
     3
370
     9
100
AcDbCircle
 10
-393.8580210041467
 20
-267.563609568841
 30
0.0
 40
10.00000051549963
100
AcDbArc
 50
90.0
 51
165.0685119628907
  0
ARC
  5
2E5
330
1F
100
AcDbEntity
  8
0-2
  6
Continuous
 62
     3
370
     9
100
AcDbCircle
 10
-659.1990260717142
 20
-234.0635732776669
 30
0.0
 40
1.500000019331236
100
AcDbArc
 50
226.5640411376953
 51
270.0
  0
ARC
  5
2E6
330
1F
100
AcDbEntity
  8
0-2
  6
Continuous
 62
     3
370
     9
100
AcDbCircle
 10
-638.5096917178291
 20
-231.5635897736552
 30
0.0
 40
4.000000051549963
100
AcDbArc
 50
90.0
 51
172.8753356933594
  0
ARC
  5
2E7
330
1F
100
AcDbEntity
  8
0-2
  6
Continuous
 62
     3
370
     9
100
AcDbCircle
 10
-658.8552826701095
 20
-233.7004800819321
 30
0.0
 40
2.000000025774982
100
AcDbArc
 50
190.6199645996094
 51
254.9656829833985
  0
ARC
  5
2E8
330
1F
100
AcDbEntity
  8
0-2
  6
Continuous
 62
     3
370
     9
100
AcDbCircle
 10
-644.3650087047379
 20
-234.0635732776669
 30
0.0
 40
1.500000019331236
100
AcDbArc
 50
270.0
 51
351.7868957519531
  0
ARC
  5
2E9
330
1F
100
AcDbEntity
  8
0-2
  6
Continuous
 62
     3
370
     9
100
AcDbCircle
 10
-640.9009501637751
 20
-234.563500695319
 30
0.0
 40
2.000000025774982
100
AcDbArc
 50
90.0
 51
171.7866973876953
  0
ARC
  5
2EA
330
1F
100
AcDbEntity
  8
0-2
  6
Continuous
 62
     3
370
     9
100
AcDbCircle
 10
-647.2613413166467
 20
-250.5636029704457
 30
0.0
 40
15.0
100
AcDbArc
 50
58.57043457031251
 51
85.34748840332031
  0
ARC
  5
2EB
330
1F
100
AcDbEntity
  8
0-2
  6
Continuous
 62
     3
370
     9
100
AcDbCircle
 10
-602.820357363944
 20
-242.5635765768646
 30
0.0
 40
15.0
100
AcDbArc
 50
238.5704345703125
 51
270.0
  0
ARC
  5
2EC
330
1F
100
AcDbEntity
  8
0-2
  6
Continuous
 62
     3
370
     9
100
AcDbCircle
 10
-544.1166451067648
 20
-234.0635732776669
 30
0.0
 40
1.500000019331236
100
AcDbArc
 50
187.1248931884766
 51
270.0
  0
ARC
  5
2ED
330
1F
100
AcDbEntity
  8
0-2
  6
Continuous
 62
     3
370
     9
100
AcDbCircle
 10
-528.7650826067648
 20
-234.0635732776669
 30
0.0
 40
1.500000019331236
100
AcDbArc
 50
270.0009460449219
 51
352.8751068115234
  0
ARC
  5
2EE
330
1F
100
AcDbEntity
  8
0-2
  6
Continuous
 62
     3
370
     9
100
AcDbCircle
 10
-549.9719620936737
 20
-231.5635897736552
 30
0.0
 40
4.000000051549963
100
AcDbArc
 50
7.124664306640625
 51
90.0
  0
ARC
  5
2EF
330
1F
100
AcDbEntity
  8
0-2
  6
Continuous
 62
     3
370
     9
100
AcDbCircle
 10
-522.909666643927
 20
-231.5635897736552
 30
0.0
 40
4.000000051549963
100
AcDbArc
 50
90.0
 51
172.8753356933594
  0
ARC
  5
2F0
330
1F
100
AcDbEntity
  8
0-2
  6
Continuous
 62
     3
370
     9
100
AcDbCircle
 10
-428.5166200328629
 20
-234.0635732776669
 30
0.0
 40
1.500000019331236
100
AcDbArc
 50
187.1248931884766
 51
270.0
  0
ARC
  5
2F1
330
1F
100
AcDbEntity
  8
0-2
  6
Continuous
 62
     3
370
     9
100
AcDbCircle
 10
-413.1650575328629
 20
-234.0635732776669
 30
0.0
 40
1.500000019331236
100
AcDbArc
 50
270.0009460449219
 51
352.8751068115234
  0
ARC
  5
2F2
330
1F
100
AcDbEntity
  8
0-2
  6
Continuous
 62
     3
370
     9
100
AcDbCircle
 10
-434.3721349716298
 20
-231.5635897736552
 30
0.0
 40
4.000000051549963
100
AcDbArc
 50
7.124664306640625
 51
90.0
  0
ARC
  5
2F3
330
1F
100
AcDbEntity
  8
0-2
  6
Continuous
 62
     3
370
     9
100
AcDbCircle
 10
-407.309542594096
 20
-231.5635897736552
 30
0.0
 40
4.000000051549963
100
AcDbArc
 50
90.0
 51
172.8753356933594
  0
ARC
  5
2F4
330
1F
100
AcDbEntity
  8
0-2
  6
Continuous
 62
     3
370
     9
100
AcDbCircle
 10
-594.0407965531332
 20
-277.456946509297
 30
0.0
 40
3.000004098222063
100
AcDbArc
 50
180.0
 51
0.0
  0
ARC
  5
2F5
330
1F
100
AcDbEntity
  8
0-2
  6
Continuous
 62
     3
370
     9
100
AcDbCircle
 10
-594.0407965531332
 20
-281.4569597060876
 30
0.0
 40
9.00000185579867
100
AcDbArc
 50
109.4712677001953
 51
180.0
  0
ARC
  5
2F6
330
1F
100
AcDbEntity
  8
0-2
  6
Continuous
 62
     3
370
     9
100
AcDbCircle
 10
-594.0407965531332
 20
-281.4569597060876
 30
0.0
 40
9.00000185579867
100
AcDbArc
 50
0.0
 51
70.52873229980467
  0
ARC
  5
2F7
330
1F
100
AcDbEntity
  8
0-2
  6
Continuous
 62
     3
370
     9
100
AcDbCircle
 10
-594.0407965531332
 20
-281.4569597060876
 30
0.0
 40
4.000000438174686
100
AcDbArc
 50
359.9996185302735
 51
45.95120239257818
  0
ARC
  5
2F8
330
1F
100
AcDbEntity
  8
0-2
  6
Continuous
 62
     3
370
     9
100
AcDbCircle
 10
-594.0407965531332
 20
-281.4569597060876
 30
0.0
 40
4.000000438174686
100
AcDbArc
 50
134.0487976074219
 51
180.0003814697266
  0
ARC
  5
2F9
330
1F
100
AcDbEntity
  8
0-2
  6
Continuous
 62
     3
370
     9
100
AcDbCircle
 10
-594.0407965531332
 20
-306.9570190916451
 30
0.0
 40
2.500000515499631
100
AcDbArc
 50
0.0
 51
180.0
  0
ARC
  5
2FA
330
1F
100
AcDbEntity
  8
0-2
  6
Continuous
 62
     3
370
     9
100
AcDbCircle
 10
-594.0407965531332
 20
-305.4570388868308
 30
0.0
 40
9.000000309299779
100
AcDbArc
 50
179.9998321533203
 51
253.8724060058594
  0
ARC
  5
2FB
330
1F
100
AcDbEntity
  8
0-2
  6
Continuous
 62
     3
370
     9
100
AcDbCircle
 10
-594.0407965531332
 20
-305.4570388868308
 30
0.0
 40
4.000000824799409
100
AcDbArc
 50
180.0
 51
231.3177947998047
  0
ARC
  5
2FC
330
1F
100
AcDbEntity
  8
0-2
  6
Continuous
 62
     3
370
     9
100
AcDbCircle
 10
-594.0407965531332
 20
-305.4570388868308
 30
0.0
 40
4.000000824799409
100
AcDbArc
 50
308.6822052001953
 51
0.0
  0
ARC
  5
2FD
330
1F
100
AcDbEntity
  8
0-2
  6
Continuous
 62
     3
370
     9
100
AcDbCircle
 10
-594.0407965531332
 20
-305.4570388868308
 30
0.0
 40
9.000000309299779
100
AcDbArc
 50
286.1275939941406
 51
0.0
  0
ARC
  5
2FE
330
1F
100
AcDbEntity
  8
0-2
  6
Continuous
 62
     3
370
     9
100
AcDbCircle
 10
-594.0406975772041
 20
-242.5635765768646
 30
0.0
 40
15.0
100
AcDbArc
 50
194.187973022461
 51
258.4631805419922
  0
ARC
  5
2FF
330
1F
100
AcDbEntity
  8
0-2
  6
Continuous
 62
     3
370
     9
100
AcDbCircle
 10
-594.0406975772041
 20
-242.5635765768646
 30
0.0
 40
15.0
100
AcDbArc
 50
281.5368194580078
 51
345.8123016357422
  0
ARC
  5
300
330
1F
100
AcDbEntity
  8
0-2
  6
Continuous
 62
     3
370
     9
100
AcDbCircle
 10
-66.18870618151149
 20
-237.563609568841
 30
0.0
 40
2.000000025774982
100
AcDbArc
 50
105.0343170166016
 51
175.6014251708985
  0
ARC
  5
301
330
1F
100
AcDbEntity
  8
0-2
  6
Continuous
 62
     3
370
     9
100
AcDbCircle
 10
-105.5236209302446
 20
-267.563609568841
 30
0.0
 40
10.00000051549963
100
AcDbArc
 50
14.93148803710938
 51
90.0
  0
ARC
  5
302
330
1F
100
AcDbEntity
  8
0-2
  6
Continuous
 62
     3
370
     9
100
AcDbCircle
 10
-162.6580698322716
 20
-267.563609568841
 30
0.0
 40
10.00000051549963
100
AcDbArc
 50
90.0
 51
165.0685119628907
  0
ARC
  5
303
330
1F
100
AcDbEntity
  8
0-2
  6
Continuous
 62
     3
370
     9
100
AcDbCircle
 10
-216.6236064137751
 20
-267.563609568841
 30
0.0
 40
10.00000051549963
100
AcDbArc
 50
14.93148803710938
 51
90.0
  0
ARC
  5
304
330
1F
100
AcDbEntity
  8
0-2
  6
Continuous
 62
     3
370
     9
100
AcDbCircle
 10
-278.2580949061737
 20
-267.563609568841
 30
0.0
 40
10.00000051549963
100
AcDbArc
 50
90.0
 51
165.0685119628907
  0
ARC
  5
305
330
1F
100
AcDbEntity
  8
0-2
  6
Continuous
 62
     3
370
     9
100
AcDbCircle
 10
-332.223532511748
 20
-267.563609568841
 30
0.0
 40
10.00000051549963
100
AcDbArc
 50
14.93148803710938
 51
90.0
  0
ARC
  5
306
330
1F
100
AcDbEntity
  8
0-2
  6
Continuous
 62
     3
370
     9
100
AcDbCircle
 10
-66.88252744418045
 20
-234.0635732776669
 30
0.0
 40
1.500000019331236
100
AcDbArc
 50
270.0
 51
313.4359588623047
  0
ARC
  5
307
330
1F
100
AcDbEntity
  8
0-2
  6
Continuous
 62
     3
370
     9
100
AcDbCircle
 10
-87.57196077399462
 20
-231.5635897736552
 30
0.0
 40
4.000000051549963
100
AcDbArc
 50
7.124664306640625
 51
90.0
  0
ARC
  5
308
330
1F
100
AcDbEntity
  8
0-2
  6
Continuous
 62
     3
370
     9
100
AcDbCircle
 10
-67.2263698217142
 20
-233.7004800819321
 30
0.0
 40
2.000000025774982
100
AcDbArc
 50
285.0343170166016
 51
349.3800354003907
  0
ARC
  5
309
330
1F
100
AcDbEntity
  8
0-2
  6
Continuous
 62
     3
370
     9
100
AcDbCircle
 10
-81.71664378708576
 20
-234.0635732776669
 30
0.0
 40
1.500000019331236
100
AcDbArc
 50
188.2131042480469
 51
270.0
  0
ARC
  5
30A
330
1F
100
AcDbEntity
  8
0-2
  6
Continuous
 62
     3
370
     9
100
AcDbCircle
 10
-85.18080130397774
 20
-234.563500695319
 30
0.0
 40
2.000000025774982
100
AcDbArc
 50
8.213302612304688
 51
90.00000000000001
  0
ARC
  5
30B
330
1F
100
AcDbEntity
  8
0-2
  6
Continuous
 62
     3
370
     9
100
AcDbCircle
 10
-78.82031117517701
 20
-250.5636029704457
 30
0.0
 40
15.0
100
AcDbArc
 50
94.65251159667969
 51
121.4295654296875
  0
ARC
  5
30C
330
1F
100
AcDbEntity
  8
0-2
  6
Continuous
 62
     3
370
     9
100
AcDbCircle
 10
-123.2612951278797
 20
-242.5635765768646
 30
0.0
 40
15.0
100
AcDbArc
 50
270.0
 51
301.4295654296875
  0
ARC
  5
30D
330
1F
100
AcDbEntity
  8
0-2
  6
Continuous
 62
     3
370
     9
100
AcDbCircle
 10
-181.9650073850588
 20
-234.0635732776669
 30
0.0
 40
1.500000019331236
100
AcDbArc
 50
270.0
 51
352.8751068115234
  0
ARC
  5
30E
330
1F
100
AcDbEntity
  8
0-2
  6
Continuous
 62
     3
370
     9
100
AcDbCircle
 10
-197.3166688609879
 20
-234.0635732776669
 30
0.0
 40
1.500000019331236
100
AcDbArc
 50
187.1248931884766
 51
269.9990539550781
  0
ARC
  5
30F
330
1F
100
AcDbEntity
  8
0-2
  6
Continuous
 62
     3
370
     9
100
AcDbCircle
 10
-176.1096903981501
 20
-231.5635897736552
 30
0.0
 40
4.000000051549963
100
AcDbArc
 50
90.0
 51
172.8753356933594
  0
ARC
  5
310
330
1F
100
AcDbEntity
  8
0-2
  6
Continuous
 62
     3
370
     9
100
AcDbCircle
 10
-203.1719858478966
 20
-231.5635897736552
 30
0.0
 40
4.000000051549963
100
AcDbArc
 50
7.124664306640625
 51
90.0
  0
ARC
  5
311
330
1F
100
AcDbEntity
  8
0-2
  6
Continuous
 62
     3
370
     9
100
AcDbCircle
 10
-297.5649334830318
 20
-234.0635732776669
 30
0.0
 40
1.500000019331236
100
AcDbArc
 50
270.0
 51
352.8751068115234
  0
ARC
  5
312
330
1F
100
AcDbEntity
  8
0-2
  6
Continuous
 62
     3
370
     9
100
AcDbCircle
 10
-312.9166939348898
 20
-234.0635732776669
 30
0.0
 40
1.500000019331236
100
AcDbArc
 50
187.1248931884766
 51
269.9990539550781
  0
ARC
  5
313
330
1F
100
AcDbEntity
  8
0-2
  6
Continuous
 62
     3
370
     9
100
AcDbCircle
 10
-291.709715472052
 20
-231.5635897736552
 30
0.0
 40
4.000000051549963
100
AcDbArc
 50
90.0
 51
172.8753356933594
  0
ARC
  5
314
330
1F
100
AcDbEntity
  8
0-2
  6
Continuous
 62
     3
370
     9
100
AcDbCircle
 10
-318.7719119458696
 20
-231.5635897736552
 30
0.0
 40
4.000000051549963
100
AcDbArc
 50
7.124664306640625
 51
90.0
  0
ARC
  5
315
330
1F
100
AcDbEntity
  8
0-2
  6
Continuous
 62
     3
370
     9
100
AcDbCircle
 10
-132.0408559386906
 20
-277.456946509297
 30
0.0
 40
3.000004098222063
100
AcDbArc
 50
180.0
 51
0.0
  0
ARC
  5
316
330
1F
100
AcDbEntity
  8
0-2
  6
Continuous
 62
     3
370
     9
100
AcDbCircle
 10
-132.0408559386906
 20
-281.4569597060876
 30
0.0
 40
9.00000185579867
100
AcDbArc
 50
0.0
 51
70.52873229980467
  0
ARC
  5
317
330
1F
100
AcDbEntity
  8
0-2
  6
Continuous
 62
     3
370
     9
100
AcDbCircle
 10
-132.0408559386906
 20
-281.4569597060876
 30
0.0
 40
9.00000185579867
100
AcDbArc
 50
109.4712677001953
 51
180.0
  0
ARC
  5
318
330
1F
100
AcDbEntity
  8
0-2
  6
Continuous
 62
     3
370
     9
100
AcDbCircle
 10
-132.0408559386906
 20
-281.4569597060876
 30
0.0
 40
4.000000438174686
100
AcDbArc
 50
134.0487976074219
 51
180.0003814697266
  0
ARC
  5
319
330
1F
100
AcDbEntity
  8
0-2
  6
Continuous
 62
     3
370
     9
100
AcDbCircle
 10
-132.0408559386906
 20
-281.4569597060876
 30
0.0
 40
4.000000438174686
100
AcDbArc
 50
359.9996185302735
 51
45.95120239257818
  0
ARC
  5
31A
330
1F
100
AcDbEntity
  8
0-2
  6
Continuous
 62
     3
370
     9
100
AcDbCircle
 10
-132.0408559386906
 20
-306.9570190916451
 30
0.0
 40
2.500000515499631
100
AcDbArc
 50
0.0
 51
180.0
  0
ARC
  5
31B
330
1F
100
AcDbEntity
  8
0-2
  6
Continuous
 62
     3
370
     9
100
AcDbCircle
 10
-132.0408559386906
 20
-305.4570388868308
 30
0.0
 40
9.000000309299779
100
AcDbArc
 50
286.1275939941406
 51
0.000167846679685
  0
ARC
  5
31C
330
1F
100
AcDbEntity
  8
0-2
  6
Continuous
 62
     3
370
     9
100
AcDbCircle
 10
-132.0408559386906
 20
-305.4570388868308
 30
0.0
 40
4.000000824799409
100
AcDbArc
 50
308.6822052001953
 51
0.0
  0
ARC
  5
31D
330
1F
100
AcDbEntity
  8
0-2
  6
Continuous
 62
     3
370
     9
100
AcDbCircle
 10
-132.0408559386906
 20
-305.4570388868308
 30
0.0
 40
4.000000824799409
100
AcDbArc
 50
180.0
 51
231.3177947998047
  0
ARC
  5
31E
330
1F
100
AcDbEntity
  8
0-2
  6
Continuous
 62
     3
370
     9
100
AcDbCircle
 10
-132.0408559386906
 20
-305.4570388868308
 30
0.0
 40
9.000000309299779
100
AcDbArc
 50
180.0
 51
253.8724060058594
  0
ARC
  5
31F
330
1F
100
AcDbEntity
  8
0-2
  6
Continuous
 62
     3
370
     9
100
AcDbCircle
 10
-132.0409549146196
 20
-242.5635765768646
 30
0.0
 40
15.0
100
AcDbArc
 50
281.5368194580078
 51
345.8120269775391
  0
ARC
  5
320
330
1F
100
AcDbEntity
  8
0-2
  6
Continuous
 62
     3
370
     9
100
AcDbCircle
 10
-132.0409549146196
 20
-242.5635765768646
 30
0.0
 40
15.0
100
AcDbArc
 50
194.1876983642578
 51
258.4631805419922
  0
ARC
  5
321
330
1F
100
AcDbEntity
  8
0-2
  6
Continuous
 62
     3
370
     9
100
AcDbCircle
 10
394.9592496356337
 20
181.9843673631692
 30
0.0
 40
3.000000038662472
100
AcDbArc
 50
180.0
 51
265.4260711669922
  0
ARC
  5
322
330
1F
100
AcDbEntity
  8
0-2
  6
Continuous
 62
     3
370
     9
100
AcDbCircle
 10
394.9592496356337
 20
108.0081248853398
 30
0.0
 40
3.000000038662472
100
AcDbArc
 50
93.81407165527344
 51
180.0
  0
ARC
  5
323
330
1F
100
AcDbEntity
  8
0-2
  6
Continuous
 62
     3
370
     9
100
AcDbCircle
 10
394.9592496356337
 20
125.621386340154
 30
0.0
 40
3.000000038662472
100
AcDbArc
 50
180.0
 51
266.1859130859375
  0
ARC
  5
324
330
1F
100
AcDbEntity
  8
0-2
  6
Continuous
 62
     3
370
     9
100
AcDbCircle
 10
420.4592100452622
 20
114.2180726260493
 30
0.0
 40
1.500000019331236
100
AcDbArc
 50
273.8140716552734
 51
0.0000000000000127
  0
ARC
  5
325
330
1F
100
AcDbEntity
  8
0-2
  6
Continuous
 62
     3
370
     9
100
AcDbCircle
 10
420.4592100452622
 20
119.4114385994445
 30
0.0
 40
1.500000019331236
100
AcDbArc
 50
1.403289794921875
 51
86.1859130859375
  0
ARC
  5
326
330
1F
100
AcDbEntity
  8
0-2
  6
Continuous
 62
     3
370
     9
100
AcDbCircle
 10
398.9592628324243
 20
23.95915159564387
 30
0.0
 40
2.000000025774982
100
AcDbArc
 50
94.28913879394531
 51
180.0
  0
ARC
  5
327
330
1F
100
AcDbEntity
  8
0-2
  6
Continuous
 62
     3
370
     9
100
AcDbCircle
 10
394.9592496356337
 20
40.62135334817762
 30
0.0
 40
3.000000038662472
100
AcDbArc
 50
180.0
 51
266.1859130859375
  0
ARC
  5
328
330
1F
100
AcDbEntity
  8
0-2
  6
Continuous
 62
     3
370
     9
100
AcDbCircle
 10
394.9592496356337
 20
163.6452164446726
 30
0.0
 40
3.000000038662472
100
AcDbArc
 50
94.57391357421876
 51
180.0
  0
ARC
  5
329
330
1F
100
AcDbEntity
  8
0-2
  6
Continuous
 62
     3
370
     9
100
AcDbCircle
 10
414.9593156195864
 20
94.29891946409825
 30
0.0
 40
15.0
100
AcDbArc
 50
180.0
 51
254.8759918212891
  0
ARC
  5
32A
330
1F
100
AcDbEntity
  8
0-2
  6
Continuous
 62
     3
370
     9
100
AcDbCircle
 10
394.9592496356337
 20
266.7741754818347
 30
0.0
 40
3.000000038662472
100
AcDbArc
 50
180.0
 51
258.6900634765626
  0
ARC
  5
32B
330
1F
100
AcDbEntity
  8
0-2
  6
Continuous
 62
     3
370
     9
100
AcDbCircle
 10
394.9592496356337
 20
246.8553687356354
 30
0.0
 40
3.000000038662472
100
AcDbArc
 50
101.3099212646484
 51
180.0
  0
ARC
  5
32C
330
1F
100
AcDbEntity
  8
0-2
  6
Continuous
 62
     3
370
     9
100
AcDbCircle
 10
435.4592100452622
 20
71.66634120713033
 30
0.0
 40
1.500000019331236
100
AcDbArc
 50
359.999984741211
 51
74.87599182128909
  0
ARC
  5
32D
330
1F
100
AcDbEntity
  8
0-2
  6
Continuous
 62
     3
370
     9
100
AcDbCircle
 10
435.4592100452622
 20
30.20651223753575
 30
0.0
 40
1.500000019331236
100
AcDbArc
 50
274.2891387939453
 51
0.0
  0
ARC
  5
32E
330
1F
100
AcDbEntity
  8
0-2
  6
Continuous
 62
     3
370
     9
100
AcDbCircle
 10
420.4592100452622
 20
226.2180957204327
 30
0.0
 40
1.500000019331236
100
AcDbArc
 50
273.8140716552734
 51
0.0000000000000127
  0
ARC
  5
32F
330
1F
100
AcDbEntity
  8
0-2
  6
Continuous
 62
     3
370
     9
100
AcDbCircle
 10
420.4592100452622
 20
231.4114616938279
 30
0.0
 40
1.500000019331236
100
AcDbArc
 50
0.0
 51
86.1859130859375
  0
ARC
  5
330
330
1F
100
AcDbEntity
  8
0-2
  6
Continuous
 62
     3
370
     9
100
AcDbCircle
 10
394.9592496356337
 20
274.8553621372401
 30
0.0
 40
3.000000038662472
100
AcDbArc
 50
101.3099212646484
 51
180.0
  0
ARC
  5
331
330
1F
100
AcDbEntity
  8
0-2
  6
Continuous
 62
     3
370
     9
100
AcDbCircle
 10
394.9592496356337
 20
294.7741688834395
 30
0.0
 40
3.000000038662472
100
AcDbArc
 50
180.0
 51
258.6900634765626
  0
ARC
  5
332
330
1F
100
AcDbEntity
  8
0-2
  6
Continuous
 62
     3
370
     9
100
AcDbCircle
 10
394.9592496356337
 20
210.7741886786253
 30
0.0
 40
3.000000038662472
100
AcDbArc
 50
180.0
 51
258.6900634765626
  0
ARC
  5
333
330
1F
100
AcDbEntity
  8
0-2
  6
Continuous
 62
     3
370
     9
100
AcDbCircle
 10
394.9592496356337
 20
190.8553324444615
 30
0.0
 40
3.000000038662472
100
AcDbArc
 50
101.3099212646484
 51
180.0
  0
ARC
  5
334
330
1F
100
AcDbEntity
  8
0-2
  6
Continuous
 62
     3
370
     9
100
AcDbCircle
 10
435.4592100452622
 20
312.2180825236422
 30
0.0
 40
1.500000019331236
100
AcDbArc
 50
273.8140716552734
 51
0.0000000000000127
  0
ARC
  5
335
330
1F
100
AcDbEntity
  8
0-2
  6
Continuous
 62
     3
370
     9
100
AcDbCircle
 10
435.4592100452622
 20
315.4230220823415
 30
0.0
 40
1.500000019331236
100
AcDbArc
 50
0.0
 51
85.71084594726562
  0
ARC
  5
336
330
1F
100
AcDbEntity
  8
0-2
  6
Continuous
 62
     3
370
     9
100
AcDbCircle
 10
435.4592100452622
 20
273.9631931127469
 30
0.0
 40
1.500000019331236
100
AcDbArc
 50
285.1239929199219
 51
0.0000000000000254
  0
ARC
  5
337
330
1F
100
AcDbEntity
  8
0-2
  6
Continuous
 62
     3
370
     9
100
AcDbCircle
 10
435.4592100452622
 20
33.41145179623501
 30
0.0
 40
1.500000019331236
100
AcDbArc
 50
1.403289794921875
 51
86.1859130859375
  0
ARC
  5
338
330
1F
100
AcDbEntity
  8
0-2
  6
Continuous
 62
     3
370
     9
100
AcDbCircle
 10
394.9592496356337
 20
154.7742018754159
 30
0.0
 40
3.000000038662472
100
AcDbArc
 50
180.0
 51
258.6900634765626
  0
ARC
  5
339
330
1F
100
AcDbEntity
  8
0-2
  6
Continuous
 62
     3
370
     9
100
AcDbCircle
 10
394.9592496356337
 20
134.855345641252
 30
0.0
 40
3.000000038662472
100
AcDbArc
 50
101.3099212646484
 51
180.0
  0
ARC
  5
33A
330
1F
100
AcDbEntity
  8
0-2
  6
Continuous
 62
     3
370
     9
100
AcDbCircle
 10
394.9592496356337
 20
50.85536543643772
 30
0.0
 40
3.000000038662472
100
AcDbArc
 50
101.3099212646484
 51
180.0
  0
ARC
  5
33B
330
1F
100
AcDbEntity
  8
0-2
  6
Continuous
 62
     3
370
     9
100
AcDbCircle
 10
394.9592496356337
 20
70.77412269467251
 30
0.0
 40
3.000000038662472
100
AcDbArc
 50
180.0
 51
258.6900634765626
  0
ARC
  5
33C
330
1F
100
AcDbEntity
  8
0-2
  6
Continuous
 62
     3
370
     9
100
AcDbCircle
 10
414.9593156195864
 20
251.3306643437436
 30
0.0
 40
15.0
100
AcDbArc
 50
105.1239929199219
 51
180.0
  0
ARC
  5
33D
330
1F
100
AcDbEntity
  8
0-2
  6
Continuous
 62
     3
370
     9
100
AcDbCircle
 10
394.9592496356337
 20
98.77416558424179
 30
0.0
 40
3.000000038662472
100
AcDbArc
 50
180.0
 51
258.6900634765626
  0
ARC
  5
33E
330
1F
100
AcDbEntity
  8
0-2
  6
Continuous
 62
     3
370
     9
100
AcDbCircle
 10
394.9592496356337
 20
78.855408326007
 30
0.0
 40
3.000000038662472
100
AcDbArc
 50
101.3099212646484
 51
180.0
  0
ARC
  5
33F
330
1F
100
AcDbEntity
  8
0-2
  6
Continuous
 62
     3
370
     9
100
AcDbCircle
 10
-173.5409681114102
 20
37.31471602237522
 30
0.0
 40
1.500000019331236
100
AcDbArc
 50
90.0
 51
180.0
  0
ARC
  5
340
330
1F
100
AcDbEntity
  8
0-2
  6
Continuous
 62
     3
370
     9
100
AcDbCircle
 10
-173.5409681114102
 20
28.31478530552565
 30
0.0
 40
1.500000019331236
100
AcDbArc
 50
180.0
 51
270.0
  0
ARC
  5
341
330
1F
100
AcDbEntity
  8
0-2
  6
Continuous
 62
     3
370
     9
100
AcDbCircle
 10
-86.54102749696753
 20
28.31478530552565
 30
0.0
 40
1.500000019331236
100
AcDbArc
 50
270.0
 51
0.0
  0
ARC
  5
342
330
1F
100
AcDbEntity
  8
0-2
  6
Continuous
 62
     3
370
     9
100
AcDbCircle
 10
-86.54102749696753
 20
37.31471602237522
 30
0.0
 40
1.500000019331236
100
AcDbArc
 50
0.0
 51
90.0
  0
ARC
  5
343
330
1F
100
AcDbEntity
  8
0-2
  6
Continuous
 62
     3
370
     9
100
AcDbCircle
 10
-66.54106048894388
 20
40.31477540793273
 30
0.0
 40
1.500000019331236
100
AcDbArc
 50
1.403289794921875
 51
90.0
  0
ARC
  5
344
330
1F
100
AcDbEntity
  8
0-2
  6
Continuous
 62
     3
370
     9
100
AcDbCircle
 10
-66.54106048894388
 20
25.31477540793273
 30
0.0
 40
1.500000019331236
100
AcDbArc
 50
270.0
 51
0.0
  0
ARC
  5
345
330
1F
100
AcDbEntity
  8
0-2
  6
Continuous
 62
     3
370
     9
100
AcDbCircle
 10
-66.54106048894388
 20
40.31477540793273
 30
0.0
 40
2.500000128874908
100
AcDbArc
 50
1.403289794921875
 51
90.0
  0
ARC
  5
346
330
1F
100
AcDbEntity
  8
0-2
  6
Continuous
 62
     3
370
     9
100
AcDbCircle
 10
-66.54106048894388
 20
25.31477540793273
 30
0.0
 40
2.500000128874908
100
AcDbArc
 50
270.0
 51
0.0
  0
ARC
  5
347
330
1F
100
AcDbEntity
  8
0-2
  6
Continuous
 62
     3
370
     9
100
AcDbCircle
 10
-66.54106048894388
 20
53.314818297502
 30
0.0
 40
2.500000128874908
100
AcDbArc
 50
270.0
 51
0.0
  0
ARC
  5
348
330
1F
100
AcDbEntity
  8
0-2
  6
Continuous
 62
     3
370
     9
100
AcDbCircle
 10
-66.54106048894388
 20
68.314818297502
 30
0.0
 40
2.500000128874908
100
AcDbArc
 50
1.403289794921875
 51
90.0
  0
ARC
  5
349
330
1F
100
AcDbEntity
  8
0-2
  6
Continuous
 62
     3
370
     9
100
AcDbCircle
 10
-66.54106048894388
 20
53.314818297502
 30
0.0
 40
1.500000019331236
100
AcDbArc
 50
270.0
 51
0.0
  0
ARC
  5
34A
330
1F
100
AcDbEntity
  8
0-2
  6
Continuous
 62
     3
370
     9
100
AcDbCircle
 10
-66.54106048894388
 20
68.314818297502
 30
0.0
 40
1.500000019331236
100
AcDbArc
 50
1.403289794921875
 51
90.0
  0
ARC
  5
34B
330
1F
100
AcDbEntity
  8
0-2
  6
Continuous
 62
     3
370
     9
100
AcDbCircle
 10
-173.5409681114102
 20
37.31471602237522
 30
0.0
 40
2.500000128874908
100
AcDbArc
 50
90.0
 51
180.0
  0
ARC
  5
34C
330
1F
100
AcDbEntity
  8
0-2
  6
Continuous
 62
     3
370
     9
100
AcDbCircle
 10
-173.5409681114102
 20
28.31478530552565
 30
0.0
 40
2.500000128874908
100
AcDbArc
 50
180.0
 51
270.0
  0
ARC
  5
34D
330
1F
100
AcDbEntity
  8
0-2
  6
Continuous
 62
     3
370
     9
100
AcDbCircle
 10
-86.54102749696753
 20
28.31478530552565
 30
0.0
 40
2.500000128874908
100
AcDbArc
 50
270.0
 51
0.0
  0
ARC
  5
34E
330
1F
100
AcDbEntity
  8
0-2
  6
Continuous
 62
     3
370
     9
100
AcDbCircle
 10
-86.54102749696753
 20
37.31471602237522
 30
0.0
 40
2.500000128874908
100
AcDbArc
 50
0.0
 51
90.0
  0
ARC
  5
34F
330
1F
100
AcDbEntity
  8
0-2
  6
Continuous
 62
     3
370
     9
100
AcDbCircle
 10
-66.54106048894388
 20
96.31476221114221
 30
0.0
 40
1.500000019331236
100
AcDbArc
 50
1.403289794921875
 51
90.0
  0
ARC
  5
350
330
1F
100
AcDbEntity
  8
0-2
  6
Continuous
 62
     3
370
     9
100
AcDbCircle
 10
-66.54106048894388
 20
81.31471272317762
 30
0.0
 40
1.500000019331236
100
AcDbArc
 50
270.0
 51
0.0
  0
ARC
  5
351
330
1F
100
AcDbEntity
  8
0-2
  6
Continuous
 62
     3
370
     9
100
AcDbCircle
 10
-66.54106048894388
 20
96.31476221114221
 30
0.0
 40
2.500000128874908
100
AcDbArc
 50
1.403289794921875
 51
90.0
  0
ARC
  5
352
330
1F
100
AcDbEntity
  8
0-2
  6
Continuous
 62
     3
370
     9
100
AcDbCircle
 10
-66.54106048894388
 20
81.31471272317762
 30
0.0
 40
2.500000128874908
100
AcDbArc
 50
270.0
 51
0.0
  0
ARC
  5
353
330
1F
100
AcDbEntity
  8
0-2
  6
Continuous
 62
     3
370
     9
100
AcDbCircle
 10
-66.54106048894388
 20
109.3147556127469
 30
0.0
 40
2.500000128874908
100
AcDbArc
 50
270.0
 51
0.0
  0
ARC
  5
354
330
1F
100
AcDbEntity
  8
0-2
  6
Continuous
 62
     3
370
     9
100
AcDbCircle
 10
-66.54106048894388
 20
124.3147556127469
 30
0.0
 40
2.500000128874908
100
AcDbArc
 50
1.403289794921875
 51
90.0
  0
ARC
  5
355
330
1F
100
AcDbEntity
  8
0-2
  6
Continuous
 62
     3
370
     9
100
AcDbCircle
 10
-66.54106048894388
 20
109.3147556127469
 30
0.0
 40
1.500000019331236
100
AcDbArc
 50
270.0
 51
0.0
  0
ARC
  5
356
330
1F
100
AcDbEntity
  8
0-2
  6
Continuous
 62
     3
370
     9
100
AcDbCircle
 10
-66.54106048894388
 20
124.3147556127469
 30
0.0
 40
1.500000019331236
100
AcDbArc
 50
1.403289794921875
 51
90.0
  0
ARC
  5
357
330
1F
100
AcDbEntity
  8
0-2
  6
Continuous
 62
     3
370
     9
100
AcDbCircle
 10
-66.54106048894388
 20
152.3147490143516
 30
0.0
 40
1.500000019331236
100
AcDbArc
 50
1.403289794921875
 51
90.0
  0
ARC
  5
358
330
1F
100
AcDbEntity
  8
0-2
  6
Continuous
 62
     3
370
     9
100
AcDbCircle
 10
-66.54106048894388
 20
137.3147490143516
 30
0.0
 40
1.500000019331236
100
AcDbArc
 50
270.0
 51
0.0
  0
ARC
  5
359
330
1F
100
AcDbEntity
  8
0-2
  6
Continuous
 62
     3
370
     9
100
AcDbCircle
 10
-66.54106048894388
 20
152.3147490143516
 30
0.0
 40
2.500000128874908
100
AcDbArc
 50
1.403289794921875
 51
90.0
  0
ARC
  5
35A
330
1F
100
AcDbEntity
  8
0-2
  6
Continuous
 62
     3
370
     9
100
AcDbCircle
 10
-66.54106048894388
 20
137.3147490143516
 30
0.0
 40
2.500000128874908
100
AcDbArc
 50
270.0
 51
0.0
  0
ARC
  5
35B
330
1F
100
AcDbEntity
  8
0-2
  6
Continuous
 62
     3
370
     9
100
AcDbCircle
 10
-66.54106048894388
 20
165.3147424159564
 30
0.0
 40
2.500000128874908
100
AcDbArc
 50
270.0
 51
0.0
  0
ARC
  5
35C
330
1F
100
AcDbEntity
  8
0-2
  6
Continuous
 62
     3
370
     9
100
AcDbCircle
 10
-66.54106048894388
 20
165.3147424159564
 30
0.0
 40
1.500000019331236
100
AcDbArc
 50
270.0
 51
0.0
  0
ARC
  5
35D
330
1F
100
AcDbEntity
  8
0-2
  6
Continuous
 62
     3
370
     9
100
AcDbCircle
 10
-66.54106048894388
 20
180.3147424159564
 30
0.0
 40
1.500000019331236
100
AcDbArc
 50
7.016464233398438
 51
90.0
  0
ARC
  5
35E
330
1F
100
AcDbEntity
  8
0-2
  6
Continuous
 62
     3
370
     9
100
AcDbCircle
 10
-66.54106048894388
 20
180.3147424159564
 30
0.0
 40
2.500000128874908
100
AcDbArc
 50
7.016464233398438
 51
90.0
  0
ARC
  5
35F
330
1F
100
AcDbEntity
  8
0-2
  6
Continuous
 62
     3
370
     9
100
AcDbCircle
 10
-66.54106048894388
 20
208.3148347934901
 30
0.0
 40
2.500000128874908
100
AcDbArc
 50
7.016464233398438
 51
90.0
  0
ARC
  5
360
330
1F
100
AcDbEntity
  8
0-2
  6
Continuous
 62
     3
370
     9
100
AcDbCircle
 10
-66.54106048894388
 20
193.3148347934901
 30
0.0
 40
2.500000128874908
100
AcDbArc
 50
270.0
 51
0.0
  0
ARC
  5
361
330
1F
100
AcDbEntity
  8
0-2
  6
Continuous
 62
     3
370
     9
100
AcDbCircle
 10
-66.54106048894388
 20
208.3148347934901
 30
0.0
 40
1.500000019331236
100
AcDbArc
 50
7.016464233398438
 51
90.0
  0
ARC
  5
362
330
1F
100
AcDbEntity
  8
0-2
  6
Continuous
 62
     3
370
     9
100
AcDbCircle
 10
-66.54106048894388
 20
193.3148347934901
 30
0.0
 40
1.500000019331236
100
AcDbArc
 50
270.0
 51
0.0
  0
ARC
  5
363
330
1F
100
AcDbEntity
  8
0-2
  6
Continuous
 62
     3
370
     9
100
AcDbCircle
 10
-66.54106048894388
 20
221.3147787071303
 30
0.0
 40
1.500000019331236
100
AcDbArc
 50
270.0
 51
0.0
  0
ARC
  5
364
330
1F
100
AcDbEntity
  8
0-2
  6
Continuous
 62
     3
370
     9
100
AcDbCircle
 10
-66.54106048894388
 20
236.3147292191659
 30
0.0
 40
1.500000019331236
100
AcDbArc
 50
7.016464233398438
 51
90.0
  0
ARC
  5
365
330
1F
100
AcDbEntity
  8
0-2
  6
Continuous
 62
     3
370
     9
100
AcDbCircle
 10
-66.54106048894388
 20
221.3147787071303
 30
0.0
 40
2.500000128874908
100
AcDbArc
 50
270.0
 51
0.0
  0
ARC
  5
366
330
1F
100
AcDbEntity
  8
0-2
  6
Continuous
 62
     3
370
     9
100
AcDbCircle
 10
-66.54106048894388
 20
236.3147292191659
 30
0.0
 40
2.500000128874908
100
AcDbArc
 50
7.016464233398438
 51
90.0
  0
ARC
  5
367
330
1F
100
AcDbEntity
  8
0-2
  6
Continuous
 62
     3
370
     9
100
AcDbCircle
 10
-66.54106048894388
 20
264.3147226207706
 30
0.0
 40
2.500000128874908
100
AcDbArc
 50
7.016464233398438
 51
90.0
  0
ARC
  5
368
330
1F
100
AcDbEntity
  8
0-2
  6
Continuous
 62
     3
370
     9
100
AcDbCircle
 10
-66.54106048894388
 20
249.3147226207705
 30
0.0
 40
2.500000128874908
100
AcDbArc
 50
270.0
 51
0.0
  0
ARC
  5
369
330
1F
100
AcDbEntity
  8
0-2
  6
Continuous
 62
     3
370
     9
100
AcDbCircle
 10
-66.54106048894388
 20
264.3147226207706
 30
0.0
 40
1.500000019331236
100
AcDbArc
 50
7.016464233398438
 51
90.0
  0
ARC
  5
36A
330
1F
100
AcDbEntity
  8
0-2
  6
Continuous
 62
     3
370
     9
100
AcDbCircle
 10
-66.54106048894388
 20
249.3147226207705
 30
0.0
 40
1.500000019331236
100
AcDbArc
 50
270.0
 51
0.0
  0
ARC
  5
36B
330
1F
100
AcDbEntity
  8
0-2
  6
Continuous
 62
     3
370
     9
100
AcDbCircle
 10
-66.54106048894388
 20
277.3148149983043
 30
0.0
 40
1.500000019331236
100
AcDbArc
 50
270.0
 51
0.0
  0
ARC
  5
36C
330
1F
100
AcDbEntity
  8
0-2
  6
Continuous
 62
     3
370
     9
100
AcDbCircle
 10
-66.54106048894388
 20
292.3148149983043
 30
0.0
 40
1.500000019331236
100
AcDbArc
 50
7.016464233398438
 51
90.0
  0
ARC
  5
36D
330
1F
100
AcDbEntity
  8
0-2
  6
Continuous
 62
     3
370
     9
100
AcDbCircle
 10
-66.54106048894388
 20
277.3148149983043
 30
0.0
 40
2.500000128874908
100
AcDbArc
 50
270.0
 51
0.0
  0
ARC
  5
36E
330
1F
100
AcDbEntity
  8
0-2
  6
Continuous
 62
     3
370
     9
100
AcDbCircle
 10
-66.54106048894388
 20
292.3148149983043
 30
0.0
 40
2.500000128874908
100
AcDbArc
 50
7.016464233398438
 51
90.0
  0
ARC
  5
36F
330
1F
100
AcDbEntity
  8
0-2
  6
Continuous
 62
     3
370
     9
100
AcDbCircle
 10
-66.54106048894388
 20
320.3148083999091
 30
0.0
 40
2.500000128874908
100
AcDbArc
 50
7.016464233398438
 51
90.0
  0
ARC
  5
370
330
1F
100
AcDbEntity
  8
0-2
  6
Continuous
 62
     3
370
     9
100
AcDbCircle
 10
-66.54106048894388
 20
305.3148083999091
 30
0.0
 40
2.500000128874908
100
AcDbArc
 50
270.0
 51
0.0
  0
ARC
  5
371
330
1F
100
AcDbEntity
  8
0-2
  6
Continuous
 62
     3
370
     9
100
AcDbCircle
 10
-66.54106048894388
 20
320.3148083999091
 30
0.0
 40
1.500000019331236
100
AcDbArc
 50
7.016464233398438
 51
90.0
  0
ARC
  5
372
330
1F
100
AcDbEntity
  8
0-2
  6
Continuous
 62
     3
370
     9
100
AcDbCircle
 10
-66.54106048894388
 20
305.3148083999091
 30
0.0
 40
1.500000019331236
100
AcDbArc
 50
270.0
 51
0.0
  0
ARC
  5
373
330
1F
100
AcDbEntity
  8
0-2
  6
Continuous
 62
     3
370
     9
100
AcDbCircle
 10
-659.5410868825251
 20
305.3148083999091
 30
0.0
 40
1.500000019331236
100
AcDbArc
 50
180.0
 51
270.0
  0
ARC
  5
374
330
1F
100
AcDbEntity
  8
0-2
  6
Continuous
 62
     3
370
     9
100
AcDbCircle
 10
-659.5410868825251
 20
320.3148083999091
 30
0.0
 40
1.500000019331236
100
AcDbArc
 50
90.0
 51
180.0
  0
ARC
  5
375
330
1F
100
AcDbEntity
  8
0-2
  6
Continuous
 62
     3
370
     9
100
AcDbCircle
 10
-659.5410868825251
 20
305.3148083999091
 30
0.0
 40
2.500000128874908
100
AcDbArc
 50
180.0
 51
270.0
  0
ARC
  5
376
330
1F
100
AcDbEntity
  8
0-2
  6
Continuous
 62
     3
370
     9
100
AcDbCircle
 10
-659.5410868825251
 20
320.3148083999091
 30
0.0
 40
2.500000128874908
100
AcDbArc
 50
90.0
 51
180.0
  0
ARC
  5
377
330
1F
100
AcDbEntity
  8
0-2
  6
Continuous
 62
     3
370
     9
100
AcDbCircle
 10
-659.5410868825251
 20
292.3148149983043
 30
0.0
 40
2.500000128874908
100
AcDbArc
 50
90.0
 51
180.0
  0
ARC
  5
378
330
1F
100
AcDbEntity
  8
0-2
  6
Continuous
 62
     3
370
     9
100
AcDbCircle
 10
-659.5410868825251
 20
277.3148149983043
 30
0.0
 40
2.500000128874908
100
AcDbArc
 50
180.0
 51
270.0
  0
ARC
  5
379
330
1F
100
AcDbEntity
  8
0-2
  6
Continuous
 62
     3
370
     9
100
AcDbCircle
 10
-659.5410868825251
 20
292.3148149983043
 30
0.0
 40
1.500000019331236
100
AcDbArc
 50
90.0
 51
180.0
  0
ARC
  5
37A
330
1F
100
AcDbEntity
  8
0-2
  6
Continuous
 62
     3
370
     9
100
AcDbCircle
 10
-659.5410868825251
 20
277.3148149983043
 30
0.0
 40
1.500000019331236
100
AcDbArc
 50
180.0
 51
270.0
  0
ARC
  5
37B
330
1F
100
AcDbEntity
  8
0-2
  6
Continuous
 62
     3
370
     9
100
AcDbCircle
 10
-659.5410868825251
 20
249.3147226207705
 30
0.0
 40
1.500000019331236
100
AcDbArc
 50
180.0
 51
270.0
  0
ARC
  5
37C
330
1F
100
AcDbEntity
  8
0-2
  6
Continuous
 62
     3
370
     9
100
AcDbCircle
 10
-659.5410868825251
 20
264.3147226207706
 30
0.0
 40
1.500000019331236
100
AcDbArc
 50
90.0
 51
180.0
  0
ARC
  5
37D
330
1F
100
AcDbEntity
  8
0-2
  6
Continuous
 62
     3
370
     9
100
AcDbCircle
 10
-659.5410868825251
 20
249.3147226207705
 30
0.0
 40
2.500000128874908
100
AcDbArc
 50
180.0
 51
270.0
  0
ARC
  5
37E
330
1F
100
AcDbEntity
  8
0-2
  6
Continuous
 62
     3
370
     9
100
AcDbCircle
 10
-659.5410868825251
 20
264.3147226207706
 30
0.0
 40
2.500000128874908
100
AcDbArc
 50
90.0
 51
180.0
  0
ARC
  5
37F
330
1F
100
AcDbEntity
  8
0-2
  6
Continuous
 62
     3
370
     9
100
AcDbCircle
 10
-659.5410868825251
 20
236.3147292191659
 30
0.0
 40
2.500000128874908
100
AcDbArc
 50
90.0
 51
180.0
  0
ARC
  5
380
330
1F
100
AcDbEntity
  8
0-2
  6
Continuous
 62
     3
370
     9
100
AcDbCircle
 10
-659.5410868825251
 20
221.3147787071303
 30
0.0
 40
2.500000128874908
100
AcDbArc
 50
180.0
 51
270.0
  0
ARC
  5
381
330
1F
100
AcDbEntity
  8
0-2
  6
Continuous
 62
     3
370
     9
100
AcDbCircle
 10
-659.5410868825251
 20
236.3147292191659
 30
0.0
 40
1.500000019331236
100
AcDbArc
 50
90.0
 51
180.0
  0
ARC
  5
382
330
1F
100
AcDbEntity
  8
0-2
  6
Continuous
 62
     3
370
     9
100
AcDbCircle
 10
-659.5410868825251
 20
221.3147787071303
 30
0.0
 40
1.500000019331236
100
AcDbArc
 50
180.0
 51
270.0
  0
ARC
  5
383
330
1F
100
AcDbEntity
  8
0-2
  6
Continuous
 62
     3
370
     9
100
AcDbCircle
 10
-659.5410868825251
 20
193.3148347934901
 30
0.0
 40
1.500000019331236
100
AcDbArc
 50
180.0
 51
270.0
  0
ARC
  5
384
330
1F
100
AcDbEntity
  8
0-2
  6
Continuous
 62
     3
370
     9
100
AcDbCircle
 10
-659.5410868825251
 20
208.3148347934901
 30
0.0
 40
1.500000019331236
100
AcDbArc
 50
90.0
 51
180.0
  0
ARC
  5
385
330
1F
100
AcDbEntity
  8
0-2
  6
Continuous
 62
     3
370
     9
100
AcDbCircle
 10
-659.5410868825251
 20
193.3148347934901
 30
0.0
 40
2.500000128874908
100
AcDbArc
 50
180.0
 51
270.0
  0
ARC
  5
386
330
1F
100
AcDbEntity
  8
0-2
  6
Continuous
 62
     3
370
     9
100
AcDbCircle
 10
-659.5410868825251
 20
208.3148347934901
 30
0.0
 40
2.500000128874908
100
AcDbArc
 50
90.0
 51
180.0
  0
ARC
  5
387
330
1F
100
AcDbEntity
  8
0-2
  6
Continuous
 62
     3
370
     9
100
AcDbCircle
 10
-659.5410868825251
 20
180.3147424159564
 30
0.0
 40
2.500000128874908
100
AcDbArc
 50
90.0
 51
180.0
  0
ARC
  5
388
330
1F
100
AcDbEntity
  8
0-2
  6
Continuous
 62
     3
370
     9
100
AcDbCircle
 10
-659.5410868825251
 20
180.3147424159564
 30
0.0
 40
1.500000019331236
100
AcDbArc
 50
90.0
 51
180.0
  0
ARC
  5
389
330
1F
100
AcDbEntity
  8
0-2
  6
Continuous
 62
     3
370
     9
100
AcDbCircle
 10
-659.5410868825251
 20
165.3147424159564
 30
0.0
 40
1.500000019331236
100
AcDbArc
 50
180.0
 51
270.0
  0
ARC
  5
38A
330
1F
100
AcDbEntity
  8
0-2
  6
Continuous
 62
     3
370
     9
100
AcDbCircle
 10
-659.5410868825251
 20
165.3147424159564
 30
0.0
 40
2.500000128874908
100
AcDbArc
 50
180.0
 51
270.0
  0
ARC
  5
38B
330
1F
100
AcDbEntity
  8
0-2
  6
Continuous
 62
     3
370
     9
100
AcDbCircle
 10
-659.5410868825251
 20
137.3147490143516
 30
0.0
 40
2.500000128874908
100
AcDbArc
 50
180.0
 51
270.0
  0
ARC
  5
38C
330
1F
100
AcDbEntity
  8
0-2
  6
Continuous
 62
     3
370
     9
100
AcDbCircle
 10
-659.5410868825251
 20
152.3147490143516
 30
0.0
 40
2.500000128874908
100
AcDbArc
 50
90.0
 51
180.0
  0
ARC
  5
38D
330
1F
100
AcDbEntity
  8
0-2
  6
Continuous
 62
     3
370
     9
100
AcDbCircle
 10
-659.5410868825251
 20
137.3147490143516
 30
0.0
 40
1.500000019331236
100
AcDbArc
 50
180.0
 51
270.0
  0
ARC
  5
38E
330
1F
100
AcDbEntity
  8
0-2
  6
Continuous
 62
     3
370
     9
100
AcDbCircle
 10
-659.5410868825251
 20
152.3147490143516
 30
0.0
 40
1.500000019331236
100
AcDbArc
 50
90.0
 51
180.0
  0
ARC
  5
38F
330
1F
100
AcDbEntity
  8
0-2
  6
Continuous
 62
     3
370
     9
100
AcDbCircle
 10
-659.5410868825251
 20
124.3147556127469
 30
0.0
 40
1.500000019331236
100
AcDbArc
 50
90.0
 51
180.0
  0
ARC
  5
390
330
1F
100
AcDbEntity
  8
0-2
  6
Continuous
 62
     3
370
     9
100
AcDbCircle
 10
-659.5410868825251
 20
109.3147556127469
 30
0.0
 40
1.500000019331236
100
AcDbArc
 50
180.0
 51
270.0
  0
ARC
  5
391
330
1F
100
AcDbEntity
  8
0-2
  6
Continuous
 62
     3
370
     9
100
AcDbCircle
 10
-659.5410868825251
 20
124.3147556127469
 30
0.0
 40
2.500000128874908
100
AcDbArc
 50
90.0
 51
180.0
  0
ARC
  5
392
330
1F
100
AcDbEntity
  8
0-2
  6
Continuous
 62
     3
370
     9
100
AcDbCircle
 10
-659.5410868825251
 20
109.3147556127469
 30
0.0
 40
2.500000128874908
100
AcDbArc
 50
180.0
 51
270.0
  0
ARC
  5
393
330
1F
100
AcDbEntity
  8
0-2
  6
Continuous
 62
     3
370
     9
100
AcDbCircle
 10
-659.5410868825251
 20
81.31471272317762
 30
0.0
 40
2.500000128874908
100
AcDbArc
 50
180.0
 51
270.0
  0
ARC
  5
394
330
1F
100
AcDbEntity
  8
0-2
  6
Continuous
 62
     3
370
     9
100
AcDbCircle
 10
-659.5410868825251
 20
96.31476221114221
 30
0.0
 40
2.500000128874908
100
AcDbArc
 50
90.0
 51
180.0
  0
ARC
  5
395
330
1F
100
AcDbEntity
  8
0-2
  6
Continuous
 62
     3
370
     9
100
AcDbCircle
 10
-659.5410868825251
 20
81.31471272317762
 30
0.0
 40
1.500000019331236
100
AcDbArc
 50
180.0
 51
270.0
  0
ARC
  5
396
330
1F
100
AcDbEntity
  8
0-2
  6
Continuous
 62
     3
370
     9
100
AcDbCircle
 10
-659.5410868825251
 20
96.31476221114221
 30
0.0
 40
1.500000019331236
100
AcDbArc
 50
90.0
 51
180.0
  0
ARC
  5
397
330
1F
100
AcDbEntity
  8
0-2
  6
Continuous
 62
     3
370
     9
100
AcDbCircle
 10
-659.5410868825251
 20
68.314818297502
 30
0.0
 40
1.500000019331236
100
AcDbArc
 50
90.0
 51
180.0
  0
ARC
  5
398
330
1F
100
AcDbEntity
  8
0-2
  6
Continuous
 62
     3
370
     9
100
AcDbCircle
 10
-659.5410868825251
 20
53.314818297502
 30
0.0
 40
1.500000019331236
100
AcDbArc
 50
180.0
 51
270.0
  0
ARC
  5
399
330
1F
100
AcDbEntity
  8
0-2
  6
Continuous
 62
     3
370
     9
100
AcDbCircle
 10
-659.5410868825251
 20
68.314818297502
 30
0.0
 40
2.500000128874908
100
AcDbArc
 50
90.0
 51
180.0
  0
ARC
  5
39A
330
1F
100
AcDbEntity
  8
0-2
  6
Continuous
 62
     3
370
     9
100
AcDbCircle
 10
-659.5410868825251
 20
53.314818297502
 30
0.0
 40
2.500000128874908
100
AcDbArc
 50
180.0
 51
270.0
  0
ARC
  5
39B
330
1F
100
AcDbEntity
  8
0-2
  6
Continuous
 62
     3
370
     9
100
AcDbCircle
 10
-659.5410868825251
 20
25.31477540793273
 30
0.0
 40
2.500000128874908
100
AcDbArc
 50
180.0
 51
270.0
  0
ARC
  5
39C
330
1F
100
AcDbEntity
  8
0-2
  6
Continuous
 62
     3
370
     9
100
AcDbCircle
 10
-659.5410868825251
 20
40.31477540793273
 30
0.0
 40
2.500000128874908
100
AcDbArc
 50
90.0
 51
180.0
  0
ARC
  5
39D
330
1F
100
AcDbEntity
  8
0-2
  6
Continuous
 62
     3
370
     9
100
AcDbCircle
 10
-659.5410868825251
 20
25.31477540793273
 30
0.0
 40
1.500000019331236
100
AcDbArc
 50
180.0
 51
270.0
  0
ARC
  5
39E
330
1F
100
AcDbEntity
  8
0-2
  6
Continuous
 62
     3
370
     9
100
AcDbCircle
 10
-659.5410868825251
 20
40.31477540793273
 30
0.0
 40
1.500000019331236
100
AcDbArc
 50
90.0
 51
180.0
  0
ARC
  5
39F
330
1F
100
AcDbEntity
  8
0-2
  6
Continuous
 62
     3
370
     9
100
AcDbCircle
 10
394.9592496356337
 20
305.0080819957706
 30
0.0
 40
3.000000038662472
100
AcDbArc
 50
93.81407165527344
 51
180.0
  0
ARC
  5
3A0
330
1F
100
AcDbEntity
  8
0-2
  6
Continuous
 62
     3
370
     9
100
AcDbCircle
 10
388.459302422796
 20
165.0444886416743
 30
0.0
 40
1.500000019331236
100
AcDbArc
 50
180.0
 51
258.6900634765626
  0
ARC
  5
3A1
330
1F
100
AcDbEntity
  8
0-2
  6
Continuous
 62
     3
370
     9
100
AcDbCircle
 10
388.459302422796
 20
152.5851017645627
 30
0.0
 40
1.500000019331236
100
AcDbArc
 50
101.3099212646484
 51
180.0
  0
ARC
  5
3A2
330
1F
100
AcDbEntity
  8
0-2
  6
Continuous
 62
     3
370
     9
100
AcDbCircle
 10
388.459302422796
 20
137.0444952400695
 30
0.0
 40
1.500000019331236
100
AcDbArc
 50
180.0
 51
258.6900634765626
  0
ARC
  5
3A3
330
1F
100
AcDbEntity
  8
0-2
  6
Continuous
 62
     3
370
     9
100
AcDbCircle
 10
395.4592760292149
 20
150.0850687725865
 30
0.0
 40
1.500000019331236
100
AcDbArc
 50
0.0
 51
78.6900634765625
  0
ARC
  5
3A4
330
1F
100
AcDbEntity
  8
0-2
  6
Continuous
 62
     3
370
     9
100
AcDbCircle
 10
395.4592760292149
 20
139.5444787440814
 30
0.0
 40
1.500000019331236
100
AcDbArc
 50
281.3099212646484
 51
0.0
  0
ARC
  5
3A5
330
1F
100
AcDbEntity
  8
0-2
  6
Continuous
 62
     3
370
     9
100
AcDbCircle
 10
388.459302422796
 20
124.585108362958
 30
0.0
 40
1.500000019331236
100
AcDbArc
 50
101.3099212646484
 51
180.0
  0
ARC
  5
3A6
330
1F
100
AcDbEntity
  8
0-2
  6
Continuous
 62
     3
370
     9
100
AcDbCircle
 10
388.459302422796
 20
109.0445018384648
 30
0.0
 40
1.500000019331236
100
AcDbArc
 50
180.0
 51
258.6900634765626
  0
ARC
  5
3A7
330
1F
100
AcDbEntity
  8
0-2
  6
Continuous
 62
     3
370
     9
100
AcDbCircle
 10
388.459302422796
 20
96.58511496135336
 30
0.0
 40
1.500000019331236
100
AcDbArc
 50
101.3099212646484
 51
180.0
  0
ARC
  5
3A8
330
1F
100
AcDbEntity
  8
0-2
  6
Continuous
 62
     3
370
     9
100
AcDbCircle
 10
388.459302422796
 20
81.04450843686001
 30
0.0
 40
1.500000019331236
100
AcDbArc
 50
180.0
 51
258.6900634765626
  0
ARC
  5
3A9
330
1F
100
AcDbEntity
  8
0-2
  6
Continuous
 62
     3
370
     9
100
AcDbCircle
 10
395.4592760292149
 20
94.085081969377
 30
0.0
 40
1.500000019331236
100
AcDbArc
 50
0.0
 51
78.6900634765625
  0
ARC
  5
3AA
330
1F
100
AcDbEntity
  8
0-2
  6
Continuous
 62
     3
370
     9
100
AcDbCircle
 10
395.4592760292149
 20
83.5444919408719
 30
0.0
 40
1.500000019331236
100
AcDbArc
 50
281.3099212646484
 51
0.0
  0
ARC
  5
3AB
330
1F
100
AcDbEntity
  8
0-2
  6
Continuous
 62
     3
370
     9
100
AcDbCircle
 10
388.459302422796
 20
68.58507207178408
 30
0.0
 40
1.500000019331236
100
AcDbArc
 50
101.3099212646484
 51
180.0
  0
ARC
  5
3AC
330
1F
100
AcDbEntity
  8
0-2
  6
Continuous
 62
     3
370
     9
100
AcDbCircle
 10
388.459302422796
 20
53.04451503525533
 30
0.0
 40
1.500000019331236
100
AcDbArc
 50
180.0
 51
258.6900634765626
  0
ARC
  5
3AD
330
1F
100
AcDbEntity
  8
0-2
  6
Continuous
 62
     3
370
     9
100
AcDbCircle
 10
395.4592760292149
 20
55.54444905130262
 30
0.0
 40
1.500000019331236
100
AcDbArc
 50
281.3099212646484
 51
0.0
  0
ARC
  5
3AE
330
1F
100
AcDbEntity
  8
0-2
  6
Continuous
 62
     3
370
     9
100
AcDbCircle
 10
395.4592760292149
 20
66.08503907980773
 30
0.0
 40
1.500000019331236
100
AcDbArc
 50
0.0
 51
78.6900634765625
  0
ARC
  5
3AF
330
1F
100
AcDbEntity
  8
0-2
  6
Continuous
 62
     3
370
     9
100
AcDbCircle
 10
388.459302422796
 20
40.58507867017929
 30
0.0
 40
1.500000019331236
100
AcDbArc
 50
101.3099212646484
 51
180.0
  0
ARC
  5
3B0
330
1F
100
AcDbEntity
  8
0-2
  6
Continuous
 62
     3
370
     9
100
AcDbCircle
 10
388.459302422796
 20
25.04452163365065
 30
0.0
 40
1.500000019331236
100
AcDbArc
 50
180.0
 51
258.6900634765626
  0
ARC
  5
3B1
330
1F
100
AcDbEntity
  8
0-2
  6
Continuous
 62
     3
370
     9
100
AcDbCircle
 10
420.4592100452622
 20
170.1996004184901
 30
0.0
 40
1.500000019331236
100
AcDbArc
 50
274.5739135742188
 51
0.0000000000000127
  0
ARC
  5
3B2
330
1F
100
AcDbEntity
  8
0-2
  6
Continuous
 62
     3
370
     9
100
AcDbCircle
 10
420.4592100452622
 20
175.4299833893516
 30
0.0
 40
1.500000019331236
100
AcDbArc
 50
0.0
 51
85.42607116699217
  0
CIRCLE
  5
3B3
330
1F
100
AcDbEntity
  8
0-2
  6
Continuous
 62
     3
370
     9
100
AcDbCircle
 10
497.4592166436574
 20
172.8147424159564
 30
0.0
 40
2.500000128874908
  0
ARC
  5
3B4
330
1F
100
AcDbEntity
  8
0-2
  6
Continuous
 62
     3
370
     9
100
AcDbCircle
 10
495.9592364388433
 20
172.8147424159564
 30
0.0
 40
9.000000309299779
100
AcDbArc
 50
270.0
 51
90.0
  0
CIRCLE
  5
3B5
330
1F
100
AcDbEntity
  8
0-2
  6
Continuous
 62
     3
370
     9
100
AcDbCircle
 10
406.9592892260054
 20
193.5547524455172
 30
0.0
 40
2.500000128874908
  0
ARC
  5
3B6
330
1F
100
AcDbEntity
  8
0-2
  6
Continuous
 62
     3
370
     9
100
AcDbCircle
 10
495.9592364388433
 20
172.8147424159564
 30
0.0
 40
4.000000051549963
100
AcDbArc
 50
270.0
 51
90.0
  0
ARC
  5
3B7
330
1F
100
AcDbEntity
  8
0-2
  6
Continuous
 62
     3
370
     9
100
AcDbCircle
 10
409.9592496356337
 20
196.5547623431101
 30
0.0
 40
2.000000025774982
100
AcDbArc
 50
0.0
 51
90.0
  0
ARC
  5
3B8
330
1F
100
AcDbEntity
  8
0-2
  6
Continuous
 62
     3
370
     9
100
AcDbCircle
 10
471.9593552099581
 20
172.8147424159564
 30
0.0
 40
9.000000309299779
100
AcDbArc
 50
90.0
 51
270.0
  0
ARC
  5
3B9
330
1F
100
AcDbEntity
  8
0-2
  6
Continuous
 62
     3
370
     9
100
AcDbCircle
 10
471.9593552099581
 20
172.8147424159564
 30
0.0
 40
4.000000051549963
100
AcDbArc
 50
90.0
 51
270.0
  0
ARC
  5
3BA
330
1F
100
AcDbEntity
  8
0-2
  6
Continuous
 62
     3
370
     9
100
AcDbCircle
 10
403.959328816377
 20
196.5547623431101
 30
0.0
 40
2.000000025774982
100
AcDbArc
 50
90.0
 51
180.0
  0
ARC
  5
3BB
330
1F
100
AcDbEntity
  8
0-2
  6
Continuous
 62
     3
370
     9
100
AcDbCircle
 10
428.9592628324243
 20
172.8147424159564
 30
0.0
 40
13.99999979380015
100
AcDbArc
 50
270.0
 51
90.0
  0
ARC
  5
3BC
330
1F
100
AcDbEntity
  8
0-2
  6
Continuous
 62
     3
370
     9
100
AcDbCircle
 10
428.9592628324243
 20
172.8147424159564
 30
0.0
 40
6.999999896900074
100
AcDbArc
 50
270.0
 51
90.0
  0
CIRCLE
  5
3BD
330
1F
100
AcDbEntity
  8
0-2
  6
Continuous
 62
     3
370
     9
100
AcDbCircle
 10
470.4592760292149
 20
172.8147424159564
 30
0.0
 40
2.500000128874908
  0
CIRCLE
  5
3BE
330
1F
100
AcDbEntity
  8
0-2
  6
Continuous
 62
     3
370
     9
100
AcDbCircle
 10
433.459302422796
 20
172.8147424159564
 30
0.0
 40
2.500000128874908
  0
ARC
  5
3BF
330
1F
100
AcDbEntity
  8
0-2
  6
Continuous
 62
     3
370
     9
100
AcDbCircle
 10
398.9592628324243
 20
321.6703827242334
 30
0.0
 40
2.000000025774982
100
AcDbArc
 50
180.0
 51
265.7108459472656
  0
ARC
  5
3C0
330
1F
100
AcDbEntity
  8
0-2
  6
Continuous
 62
     3
370
     9
100
AcDbCircle
 10
388.459302422796
 20
320.5851116621557
 30
0.0
 40
1.500000019331236
100
AcDbArc
 50
101.3099212646484
 51
180.0
  0
ARC
  5
3C1
330
1F
100
AcDbEntity
  8
0-2
  6
Continuous
 62
     3
370
     9
100
AcDbCircle
 10
388.459302422796
 20
305.0445051376624
 30
0.0
 40
1.500000019331236
100
AcDbArc
 50
180.0
 51
258.6900634765626
  0
ARC
  5
3C2
330
1F
100
AcDbEntity
  8
0-2
  6
Continuous
 62
     3
370
     9
100
AcDbCircle
 10
388.459302422796
 20
292.585118260551
 30
0.0
 40
1.500000019331236
100
AcDbArc
 50
101.3099212646484
 51
180.0
  0
ARC
  5
3C3
330
1F
100
AcDbEntity
  8
0-2
  6
Continuous
 62
     3
370
     9
100
AcDbCircle
 10
388.459302422796
 20
277.0445117360578
 30
0.0
 40
1.500000019331236
100
AcDbArc
 50
180.0
 51
258.6900634765626
  0
ARC
  5
3C4
330
1F
100
AcDbEntity
  8
0-2
  6
Continuous
 62
     3
370
     9
100
AcDbCircle
 10
395.4592760292149
 20
290.0850852685746
 30
0.0
 40
1.500000019331236
100
AcDbArc
 50
0.0
 51
78.6900634765625
  0
ARC
  5
3C5
330
1F
100
AcDbEntity
  8
0-2
  6
Continuous
 62
     3
370
     9
100
AcDbCircle
 10
395.4592760292149
 20
279.5445447280341
 30
0.0
 40
1.500000019331236
100
AcDbArc
 50
281.3099212646484
 51
0.0
  0
ARC
  5
3C6
330
1F
100
AcDbEntity
  8
0-2
  6
Continuous
 62
     3
370
     9
100
AcDbCircle
 10
388.459302422796
 20
264.5851248589463
 30
0.0
 40
1.500000019331236
100
AcDbArc
 50
101.3099212646484
 51
180.0
  0
ARC
  5
3C7
330
1F
100
AcDbEntity
  8
0-2
  6
Continuous
 62
     3
370
     9
100
AcDbCircle
 10
388.459302422796
 20
249.0445183344529
 30
0.0
 40
1.500000019331236
100
AcDbArc
 50
180.0
 51
258.6900634765626
  0
ARC
  5
3C8
330
1F
100
AcDbEntity
  8
0-2
  6
Continuous
 62
     3
370
     9
100
AcDbCircle
 10
395.4592760292149
 20
262.0850918669699
 30
0.0
 40
1.500000019331236
100
AcDbArc
 50
0.0
 51
78.6900634765625
  0
ARC
  5
3C9
330
1F
100
AcDbEntity
  8
0-2
  6
Continuous
 62
     3
370
     9
100
AcDbCircle
 10
395.4592760292149
 20
251.5445513264293
 30
0.0
 40
1.500000019331236
100
AcDbArc
 50
281.3099212646484
 51
0.0
  0
ARC
  5
3CA
330
1F
100
AcDbEntity
  8
0-2
  6
Continuous
 62
     3
370
     9
100
AcDbCircle
 10
388.459302422796
 20
236.5851314573415
 30
0.0
 40
1.500000019331236
100
AcDbArc
 50
101.3099212646484
 51
180.0
  0
ARC
  5
3CB
330
1F
100
AcDbEntity
  8
0-2
  6
Continuous
 62
     3
370
     9
100
AcDbCircle
 10
388.459302422796
 20
221.0445249328482
 30
0.0
 40
1.500000019331236
100
AcDbArc
 50
180.0
 51
258.6900634765626
  0
ARC
  5
3CC
330
1F
100
AcDbEntity
  8
0-2
  6
Continuous
 62
     3
370
     9
100
AcDbCircle
 10
394.9592496356337
 20
220.0081479797232
 30
0.0
 40
3.000000038662472
100
AcDbArc
 50
93.81407165527344
 51
180.0
  0
ARC
  5
3CD
330
1F
100
AcDbEntity
  8
0-2
  6
Continuous
 62
     3
370
     9
100
AcDbCircle
 10
394.9592496356337
 20
237.6214094345374
 30
0.0
 40
3.000000038662472
100
AcDbArc
 50
180.0
 51
266.1859130859375
  0
ARC
  5
3CE
330
1F
100
AcDbEntity
  8
0-2
  6
Continuous
 62
     3
370
     9
100
AcDbCircle
 10
388.459302422796
 20
208.5850885677722
 30
0.0
 40
1.500000019331236
100
AcDbArc
 50
101.3099212646484
 51
180.0
  0
ARC
  5
3CF
330
1F
100
AcDbEntity
  8
0-2
  6
Continuous
 62
     3
370
     9
100
AcDbCircle
 10
388.459302422796
 20
193.044482043279
 30
0.0
 40
1.500000019331236
100
AcDbArc
 50
180.0
 51
258.6900634765626
  0
ARC
  5
3D0
330
1F
100
AcDbEntity
  8
0-2
  6
Continuous
 62
     3
370
     9
100
AcDbCircle
 10
395.4592760292149
 20
206.0851050637604
 30
0.0
 40
1.500000019331236
100
AcDbArc
 50
0.0
 51
78.6900634765625
  0
ARC
  5
3D1
330
1F
100
AcDbEntity
  8
0-2
  6
Continuous
 62
     3
370
     9
100
AcDbCircle
 10
395.4592760292149
 20
195.5445150352553
 30
0.0
 40
1.500000019331236
100
AcDbArc
 50
281.3099212646484
 51
0.0
  0
ARC
  5
3D2
330
1F
100
AcDbEntity
  8
0-2
  6
Continuous
 62
     3
370
     9
100
AcDbCircle
 10
388.459302422796
 20
180.5850951661675
 30
0.0
 40
1.500000019331236
100
AcDbArc
 50
101.3099212646484
 51
180.0
  0
ARC
  5
3D3
330
1F
100
AcDbEntity
  8
0-2
  6
Continuous
 62
     3
370
     9
100
AcDbCircle
 10
-639.5410208985724
 20
317.3147490143517
 30
0.0
 40
1.500000019331236
100
AcDbArc
 50
90.0
 51
180.0
  0
ARC
  5
3D4
330
1F
100
AcDbEntity
  8
0-2
  6
Continuous
 62
     3
370
     9
100
AcDbCircle
 10
-639.5410208985724
 20
308.3147688095374
 30
0.0
 40
1.500000019331236
100
AcDbArc
 50
180.0
 51
270.0
  0
ARC
  5
3D5
330
1F
100
AcDbEntity
  8
0-2
  6
Continuous
 62
     3
370
     9
100
AcDbCircle
 10
-517.541014300177
 20
317.3147490143517
 30
0.0
 40
1.500000019331236
100
AcDbArc
 50
0.0
 51
90.0
  0
ARC
  5
3D6
330
1F
100
AcDbEntity
  8
0-2
  6
Continuous
 62
     3
370
     9
100
AcDbCircle
 10
-517.541014300177
 20
308.3147688095374
 30
0.0
 40
1.500000019331236
100
AcDbArc
 50
270.0
 51
0.0
  0
ARC
  5
3D7
330
1F
100
AcDbEntity
  8
0-2
  6
Continuous
 62
     3
370
     9
100
AcDbCircle
 10
-517.541014300177
 20
317.3147490143517
 30
0.0
 40
2.500000128874908
100
AcDbArc
 50
0.0
 51
90.0
  0
ARC
  5
3D8
330
1F
100
AcDbEntity
  8
0-2
  6
Continuous
 62
     3
370
     9
100
AcDbCircle
 10
-517.541014300177
 20
308.3147688095374
 30
0.0
 40
2.500000128874908
100
AcDbArc
 50
270.0
 51
0.0
  0
ARC
  5
3D9
330
1F
100
AcDbEntity
  8
0-2
  6
Continuous
 62
     3
370
     9
100
AcDbCircle
 10
-639.5410208985724
 20
317.3147490143517
 30
0.0
 40
2.500000128874908
100
AcDbArc
 50
90.0
 51
180.0
  0
ARC
  5
3DA
330
1F
100
AcDbEntity
  8
0-2
  6
Continuous
 62
     3
370
     9
100
AcDbCircle
 10
-639.5410208985724
 20
308.3147688095374
 30
0.0
 40
2.500000128874908
100
AcDbArc
 50
180.0
 51
270.0
  0
ARC
  5
3DB
330
1F
100
AcDbEntity
  8
0-1
  6
JWW_DASHED1
 62
     2
370
     9
100
AcDbCircle
 10
-413.0409417178291
 20
40.81480180151377
 30
0.0
 40
8.000000103099927
100
AcDbArc
 50
0.0
 51
180.0
  0
ARC
  5
3DC
330
1F
100
AcDbEntity
  8
0-1
  6
JWW_DASHED1
 62
     2
370
     9
100
AcDbCircle
 10
86.9591242661236
 20
40.81480180151377
 30
0.0
 40
8.000000103099927
100
AcDbArc
 50
0.0
 51
180.0
  0
ARC
  5
3DD
330
1F
100
AcDbEntity
  8
0-1
  6
JWW_DASHED1
 62
     2
370
     9
100
AcDbCircle
 10
-413.0409417178291
 20
304.814683030399
 30
0.0
 40
8.000000103099927
100
AcDbArc
 50
180.0
 51
0.0
  0
ARC
  5
3DE
330
1F
100
AcDbEntity
  8
0-1
  6
JWW_DASHED1
 62
     2
370
     9
100
AcDbCircle
 10
86.9591242661236
 20
304.814683030399
 30
0.0
 40
8.000000103099927
100
AcDbArc
 50
180.0
 51
0.0
  0
TEXT
  5
3DF
330
1F
100
AcDbEntity
  8
0-F
  6
Continuous
 62
     2
370
     9
100
AcDbText
 10
-262.0408806826728
 20
436.0708611870713
 30
0.0
 40
12.192
  1
2000
 41
1.09375
  7
ＭＳ ゴシック
100
AcDbText
  0
TEXT
  5
3E0
330
1F
100
AcDbEntity
  8
0-F
  6
Continuous
 62
     2
370
     9
100
AcDbText
 10
-373.5408427419001
 20
-37.92921799367207
 30
0.0
 40
12.192
  1
598
 41
1.083333333333333
  7
ＭＳ ゴシック
100
AcDbText
  0
TEXT
  5
3E1
330
1F
100
AcDbEntity
  8
0-F
  6
Continuous
 62
     2
370
     9
100
AcDbText
 10
-78.78766066578092
 20
-37.92921799367207
 30
0.0
 40
12.192
  1
2
  7
ＭＳ ゴシック
100
AcDbText
  0
TEXT
  5
3E2
330
1F
100
AcDbEntity
  8
0-F
  6
Continuous
 62
     2
370
     9
100
AcDbText
 10
140.9591968484716
 20
-37.92921799367207
 30
0.0
 40
12.192
  1
598
 41
1.083333333333333
  7
ＭＳ ゴシック
100
AcDbText
  0
TEXT
  5
3E3
330
1F
100
AcDbEntity
  8
0-F
  6
Continuous
 62
     2
370
     9
100
AcDbText
 10
320.7032100452623
 20
-20.69988292716025
 30
0.0
 40
12.192
  1
3.2
 50
90.0
 41
1.083333333333333
  7
ＭＳ ゴシック
100
AcDbText
  0
TEXT
  5
3E4
330
1F
100
AcDbEntity
  8
0-F
  6
Continuous
 62
     2
370
     9
100
AcDbText
 10
320.7032100452623
 20
34.42268226498507
 30
0.0
 40
12.192
  1
3.8
 50
90.0
 41
1.083333333333333
  7
ＭＳ ゴシック
100
AcDbText
  0
TEXT
  5
3E5
330
1F
100
AcDbEntity
  8
0-F
  6
Continuous
 62
     2
370
     9
100
AcDbText
 10
320.7032100452623
 20
288.0213315734733
 30
0.0
 40
12.192
  1
3.8
 50
90.0
 41
1.083333333333333
  7
ＭＳ ゴシック
100
AcDbText
  0
TEXT
  5
3E6
330
1F
100
AcDbEntity
  8
0-F
  6
Continuous
 62
     2
370
     9
100
AcDbText
 10
320.7032100452623
 20
337.516224415534
 30
0.0
 40
12.192
  1
3.2
 50
90.0
 41
1.083333333333333
  7
ＭＳ ゴシック
100
AcDbText
  0
TEXT
  5
3E7
330
1F
100
AcDbEntity
  8
0-F
  6
Continuous
 62
     2
370
     9
100
AcDbText
 10
597.4592079865629
 20
35.81483809268778
 30
0.0
 40
12.192
  1
57
 50
90.0
 41
1.0625
  7
ＭＳ ゴシック
100
AcDbText
  0
TEXT
  5
3E8
330
1F
100
AcDbEntity
  8
0-F
  6
Continuous
 62
     2
370
     9
100
AcDbText
 10
597.4592079865629
 20
292.814745715154
 30
0.0
 40
12.192
  1
57
 50
90.0
 41
1.0625
  7
ＭＳ ゴシック
100
AcDbText
  0
TEXT
  5
3E9
330
1F
100
AcDbEntity
  8
0-F
  6
Continuous
 62
     2
370
     9
100
AcDbText
 10
403.4592067460645
 20
396.0708281950949
 30
0.0
 40
12.192
  1
50
 41
1.0625
  7
ＭＳ ゴシック
100
AcDbText
  0
TEXT
  5
3EA
330
1F
100
AcDbEntity
  8
0-F
  6
Continuous
 62
     2
370
     9
100
AcDbText
 10
396.0591526392233
 20
436.0708611870713
 30
0.0
 40
12.192
  1
53.2
 41
1.09375
  7
ＭＳ ゴシック
100
AcDbText
  0
TEXT
  5
3EB
330
1F
100
AcDbEntity
  8
0-F
  6
Continuous
 62
     2
370
     9
100
AcDbText
 10
428.9591572581
 20
476.0708941790475
 30
0.0
 40
12.192
  1
110
 41
1.083333333333333
  7
ＭＳ ゴシック
100
AcDbText
  0
TEXT
  5
3EC
330
1F
100
AcDbEntity
  8
0-E
  6
Continuous
 62
     7
370
     9
100
AcDbText
 10
235.8407787477537
 20
-71.94168782580883
 30
0.0
 40
9.144
  1
受枠：ＬＨ－５０
 41
1.145833333333333
  7
ＭＳ ゴシック
100
AcDbText
  0
TEXT
  5
3ED
330
1F
100
AcDbEntity
  8
0-E
  6
Continuous
 62
     7
370
     9
100
AcDbText
 10
220.4491276972891
 20
-93.63231216596935
 30
0.0
 40
9.144
  1
ＳＰＨＣ，樹脂系塗装
 41
1.15
  7
ＭＳ ゴシック
100
AcDbText
  0
TEXT
  5
3EE
330
1F
100
AcDbEntity
  8
0-F
  6
Continuous
 62
     2
370
     9
100
AcDbText
 10
358.712585124443
 20
95.0708248958972
 30
0.0
 40
12.192
  1
10
 41
1.0625
  7
ＭＳ ゴシック
100
AcDbText
  0
TEXT
  5
3EF
330
1F
100
AcDbEntity
  8
0-F
  6
Continuous
 62
     2
370
     9
100
AcDbText
 10
-708.297054715348
 20
178.8428598278018
 30
0.0
 40
12.192
  1
8
 50
90.0
  7
ＭＳ ゴシック
100
AcDbText
  0
TEXT
  5
3F0
330
1F
100
AcDbEntity
  8
0-2
  6
Continuous
 62
     6
370
     5
100
AcDbText
 10
-163.0409978041889
 20
29.22475891194449
 30
0.0
 40
7.620000000000001
  1
ＫＡＮＥＳＯ
 41
1.1
  7
ＭＳ ゴシック
100
AcDbText
  0
TEXT
  5
3F1
330
1F
100
AcDbEntity
  8
0-F
  6
Continuous
 62
     2
370
     9
100
AcDbText
 10
-708.297054715348
 20
136.3147490143516
 30
0.0
 40
12.192
  1
20
 50
90.0
 41
1.0625
  7
ＭＳ ゴシック
100
AcDbText
  0
TEXT
  5
3F2
330
1F
100
AcDbEntity
  8
0-F
  6
Continuous
 62
     2
370
     9
100
AcDbText
 10
280.7031770532858
 20
159.8148413918854
 30
0.0
 40
12.192
  1
314
 50
90.0
 41
1.083333333333333
  7
ＭＳ ゴシック
100
AcDbText
  0
TEXT
  5
3F3
330
1F
100
AcDbEntity
  8
0-F
  6
Continuous
 62
     2
370
     9
100
AcDbText
 10
320.7032100452623
 20
159.8147919039209
 30
0.0
 40
12.192
  1
300
 50
90.0
 41
1.083333333333333
  7
ＭＳ ゴシック
100
AcDbText
  0
TEXT
  5
3F4
330
1F
100
AcDbEntity
  8
0-F
  6
Continuous
 62
     2
370
     9
100
AcDbText
 10
597.4592079865629
 20
159.8147424159563
 30
0.0
 40
12.192
  1
200
 50
90.0
 41
1.083333333333333
  7
ＭＳ ゴシック
100
AcDbText
  0
TEXT
  5
3F5
330
1F
100
AcDbEntity
  8
0-2
  6
Continuous
 62
     6
370
     5
100
AcDbText
 10
-528.741034175083
 20
316.4046764320055
 30
0.0
 40
7.620000000000001
  1
ＧＲＭ－６－３００
 50
179.9998291896634
 41
1.106666666666668
  7
ＭＳ ゴシック
100
AcDbText
  0
TEXT
  5
3F6
330
1F
100
AcDbEntity
  8
0-E
  6
Continuous
 62
     7
370
     9
100
AcDbText
 10
212.9827828123651
 20
431.6843118310746
 30
0.0
 40
9.144
  1
蓋：ＦＣＤ５００
 41
1.145833333333333
  7
ＭＳ ゴシック
100
AcDbText
  0
TEXT
  5
3F7
330
1F
100
AcDbEntity
  8
0-F
  6
Continuous
 62
     2
370
     9
100
AcDbText
 10
317.0348144582689
 20
-349.2924464565099
 30
0.0
 40
12.192
  1
仕様
 41
1.0625
  7
ＭＳ ゴシック
100
AcDbText
  0
TEXT
  5
3F8
330
1F
100
AcDbEntity
  8
0-F
  6
Continuous
 62
     2
370
     9
100
AcDbText
 10
317.0347946630832
 20
-373.292426661324
 30
0.0
 40
12.192
  1
適応荷重：Ｔ－６
 41
1.109375
  7
ＭＳ ゴシック
100
AcDbText
  0
TEXT
  5
3F9
330
1F
100
AcDbEntity
  8
0-F
  6
Continuous
 62
     2
370
     9
100
AcDbText
 10
317.0348342534547
 20
-421.2924860468815
 30
0.0
 40
12.192
  1
接触圧子：φ１７０ｍｍ
 41
1.113636363636364
  7
ＭＳ ゴシック
100
AcDbText
  0
TEXT
  5
3FA
330
1F
100
AcDbEntity
  8
0-F
  6
Continuous
 62
     2
370
     9
100
AcDbText
 10
317.0347946630832
 20
-445.2924662516957
 30
0.0
 40
12.192
  1
蓋質量：１６ｋｇ
 41
1.109375
  7
ＭＳ ゴシック
100
AcDbText
  0
TEXT
  5
3FB
330
1F
100
AcDbEntity
  8
0-E
  6
Continuous
 62
     7
370
     9
100
AcDbText
 10
235.0784958349582
 20
410.6273808766828
 30
0.0
 40
9.144
  1
樹脂系塗装
 41
1.133333333333333
  7
ＭＳ ゴシック
100
AcDbText
  0
TEXT
  5
3FC
330
1F
100
AcDbEntity
  8
0-F
  6
Continuous
 62
     2
370
     9
100
AcDbText
 10
-551.0408963538616
 20
396.0708281950949
 30
0.0
 40
12.192
  1
250
 41
1.083333333333333
  7
ＭＳ ゴシック
100
AcDbText
  0
TEXT
  5
3FD
330
1F
100
AcDbEntity
  8
0-F
  6
Continuous
 62
     2
370
     9
100
AcDbText
 10
-176.0409087258527
 20
396.0708281950949
 30
0.0
 40
12.192
  1
500
 41
1.083333333333333
  7
ＭＳ ゴシック
100
AcDbText
  0
TEXT
  5
3FE
330
1F
100
AcDbEntity
  8
0-F
  6
Continuous
 62
     2
370
     9
100
AcDbText
 10
140.9591968484716
 20
396.0708281950949
 30
0.0
 40
12.192
  1
500
 41
1.083333333333333
  7
ＭＳ ゴシック
100
AcDbText
  0
TEXT
  5
3FF
330
1F
100
AcDbEntity
  8
0-F
  6
Continuous
 62
     2
370
     9
100
AcDbText
 10
317.0348342534547
 20
-397.2925058420674
 30
0.0
 40
12.192
  1
破壊荷重：６０ｋＮ（６，１２３ｋｇｆ）以上
 41
1.119047619047619
  7
ＭＳ ゴシック
100
AcDbText
  0
TEXT
  5
400
330
1F
100
AcDbEntity
  8
0-E
  6
Continuous
 62
     7
370
     9
100
AcDbText
 10
543.5958826064953
 20
-30.88053389844394
 30
0.0
 40
9.144
  1
アンカー用切欠：＠５００
 41
1.152777777777778
  7
ＭＳ ゴシック
100
AcDbText
  0
LWPOLYLINE
  5
401
330
1F
100
AcDbEntity
  8
0-F
  6
Continuous
 62
     7
370
     9
100
AcDbPolyline
 90
        4
 70
     1
 43
0.8
 10
327.3592232420526
 20
19.01480905974856
 42
0.4142135623731
 10
326.9592232420526
 20
19.41480905974856
 42
0.4142135623731
 10
326.5592232420527
 20
19.01480905974856
 42
0.4142135623731
 10
326.9592232420526
 20
18.61480905974856
 42
0.4142135623731
  0
LWPOLYLINE
  5
402
330
1F
100
AcDbEntity
  8
0-F
  6
Continuous
 62
     7
370
     9
100
AcDbPolyline
 90
        4
 70
     1
 43
0.8
 10
327.3592232420526
 20
326.6148242360578
 42
0.4142135623731
 10
326.9592232420526
 20
327.0148242360577
 42
0.4142135623731
 10
326.5592232420527
 20
326.6148242360578
 42
0.4142135623731
 10
326.9592232420526
 20
326.2148242360578
 42
0.4142135623731
  0
LWPOLYLINE
  5
403
330
1F
100
AcDbEntity
  8
0-F
  6
Continuous
 62
     7
370
     9
100
AcDbPolyline
 90
        4
 70
     1
 43
0.8
 10
-701.6410538905487
 20
154.8147820063279
 42
0.4142135623731
 10
-702.0410538905487
 20
155.2147820063279
 42
0.4142135623731
 10
-702.4410538905487
 20
154.8147820063279
 42
0.4142135623731
 10
-702.0410538905487
 20
154.4147820063279
 42
0.4142135623731
  0
LINE
  5
404
330
1F
100
AcDbEntity
  8
0-F
  6
Continuous
 62
     7
370
     9
100
AcDbLine
 10
485.6042851313927
 20
181.8147721087351
 30
0.0
 11
489.7221786596867
 21
193.0861014214463
 31
0.0
  0
LINE
  5
405
330
1F
100
AcDbEntity
  8
0-E
  6
Continuous
 62
     7
370
     9
100
AcDbLine
 10
540.5258314382454
 20
428.1354109824039
 30
0.0
 11
485.6042851313927
 21
181.8147721087351
 31
0.0
  0
LINE
  5
406
330
1F
100
AcDbEntity
  8
0-F
  6
Continuous
 62
     7
370
     9
100
AcDbLine
 10
485.6042851313927
 20
181.8147721087351
 30
0.0
 11
486.6646142593488
 21
193.7678476207707
 31
0.0
  0
LINE
  5
407
330
1F
100
AcDbEntity
  8
0-E
  6
Continuous
 62
     7
370
     9
100
AcDbLine
 10
540.5258314382454
 20
428.1354109824039
 30
0.0
 11
743.3898729283126
 21
428.1354109824039
 31
0.0
  0
TEXT
  5
408
330
1F
100
AcDbEntity
  8
0-4
  6
Continuous
 62
     7
370
     9
100
AcDbText
 10
-143.3833591240007
 20
-547.7329600984139
 30
0.0
 40
9.144
  1
鋳鉄製みぞ蓋　ＧＲＭ－６－３００＋ＬＨ－５０
 41
1.159090909090909
  7
ＭＳ ゴシック
100
AcDbText
  0
LINE
  5
409
330
1F
100
AcDbEntity
  8
1-3
  6
Continuous
 62
     4
370
     9
100
AcDbLine
 10
87.25583564121018
 20
-342.7180031239513
 30
0.0
 11
87.25583564121018
 21
-292.7180361159276
 31
0.0
  0
LINE
  5
40A
330
1F
100
AcDbEntity
  8
1-3
  6
Continuous
 62
     4
370
     9
100
AcDbLine
 10
119.2557432636764
 20
-342.7180031239513
 30
0.0
 11
119.2557432636764
 21
-292.7180361159276
 31
0.0
  0
LINE
  5
40B
330
1F
100
AcDbEntity
  8
1-F
  6
Continuous
 62
     7
370
     9
100
AcDbLine
 10
60.19462892668321
 20
-342.7180031239513
 30
0.0
 11
60.19462892668321
 21
-276.7180823046945
 31
0.0
  0
LINE
  5
40C
330
1F
100
AcDbEntity
  8
1-F
  6
Continuous
 62
     7
370
     9
100
AcDbLine
 10
95.25576305886227
 20
-276.7180823046945
 30
0.0
 11
58.99464476283185
 21
-276.7180823046945
 31
0.0
  0
LINE
  5
40D
330
1F
100
AcDbEntity
  8
1-F
  6
Continuous
 62
     7
370
     9
100
AcDbLine
 10
60.19462892668321
 20
-342.7180031239513
 30
0.0
 11
58.62833484940279
 21
-330.8207005479377
 31
0.0
  0
LINE
  5
40E
330
1F
100
AcDbEntity
  8
1-F
  6
Continuous
 62
     7
370
     9
100
AcDbLine
 10
60.19462892668321
 20
-342.7180031239513
 30
0.0
 11
61.76092300396351
 21
-330.8207005479377
 31
0.0
  0
LINE
  5
40F
330
1F
100
AcDbEntity
  8
1-F
  6
Continuous
 62
     7
370
     9
100
AcDbLine
 10
60.19462892668321
 20
-276.7180823046945
 30
0.0
 11
58.62833484940279
 21
-288.615384880708
 31
0.0
  0
LINE
  5
410
330
1F
100
AcDbEntity
  8
1-F
  6
Continuous
 62
     7
370
     9
100
AcDbLine
 10
60.19462892668321
 20
-276.7180823046945
 30
0.0
 11
61.76092300396351
 21
-288.615384880708
 31
0.0
  0
LINE
  5
411
330
1F
100
AcDbEntity
  8
1-F
  6
Continuous
 62
     7
370
     9
100
AcDbLine
 10
87.25583564121018
 20
-379.2662505901675
 30
0.0
 11
119.2557432636764
 21
-379.2662505901675
 31
0.0
  0
LINE
  5
412
330
1F
100
AcDbEntity
  8
1-F
  6
Continuous
 62
     7
370
     9
100
AcDbLine
 10
87.25583564121018
 20
-350.7180295175324
 30
0.0
 11
87.25583564121018
 21
-380.4662347540188
 31
0.0
  0
LINE
  5
413
330
1F
100
AcDbEntity
  8
1-F
  6
Continuous
 62
     7
370
     9
100
AcDbLine
 10
119.2557432636764
 20
-350.7180295175324
 30
0.0
 11
119.2557432636764
 21
-380.4662347540188
 31
0.0
  0
LINE
  5
414
330
1F
100
AcDbEntity
  8
1-F
  6
Continuous
 62
     7
370
     9
100
AcDbLine
 10
87.25583564121018
 20
-379.2662505901675
 30
0.0
 11
99.15313821722373
 21
-377.699857536958
 31
0.0
  0
LINE
  5
415
330
1F
100
AcDbEntity
  8
1-F
  6
Continuous
 62
     7
370
     9
100
AcDbLine
 10
87.25583564121018
 20
-379.2662505901675
 30
0.0
 11
99.15313821722373
 21
-380.8325446674479
 31
0.0
  0
LINE
  5
416
330
1F
100
AcDbEntity
  8
1-F
  6
Continuous
 62
     7
370
     9
100
AcDbLine
 10
119.2557432636764
 20
-379.2662505901675
 30
0.0
 11
107.3584406876629
 21
-377.699857536958
 31
0.0
  0
LINE
  5
417
330
1F
100
AcDbEntity
  8
1-F
  6
Continuous
 62
     7
370
     9
100
AcDbLine
 10
119.2557432636764
 20
-379.2662505901675
 30
0.0
 11
107.3584406876629
 21
-380.8325446674479
 31
0.0
  0
LINE
  5
418
330
1F
100
AcDbEntity
  8
1-F
  6
Continuous
 62
     7
370
     9
100
AcDbLine
 10
-36.8557234276243
 20
-423.0853687806236
 30
0.0
 11
243.3673023325108
 21
-423.0853687806236
 31
0.0
  0
LINE
  5
419
330
1F
100
AcDbEntity
  8
1-F
  6
Continuous
 62
     7
370
     9
100
AcDbLine
 10
-36.8557234276243
 20
-419.8814189812148
 30
0.0
 11
243.3673023325108
 21
-419.8814189812148
 31
0.0
  0
LINE
  5
41A
330
1F
100
AcDbEntity
  8
1-3
  6
Continuous
 62
     4
370
     9
100
AcDbLine
 10
33.25575646046696
 20
-342.7180031239513
 30
0.0
 11
87.25583564121018
 21
-342.7180031239513
 31
0.0
  0
LINE
  5
41B
330
1F
100
AcDbEntity
  8
1-3
  6
Continuous
 62
     4
370
     9
100
AcDbLine
 10
119.2557432636764
 20
-342.7180031239513
 30
0.0
 11
173.2558224444197
 21
-342.7180031239513
 31
0.0
  0
ARC
  5
41C
330
1F
100
AcDbEntity
  8
1-3
  6
Continuous
 62
     4
370
     9
100
AcDbCircle
 10
103.2557894524433
 20
-292.7180361159276
 30
0.0
 40
16.00000020619985
100
AcDbArc
 50
0.0
 51
180.0
  0
TEXT
  5
41D
330
1F
100
AcDbEntity
  8
1-F
  6
Continuous
 62
     7
370
     9
100
AcDbText
 10
-34.6326118883506
 20
-413.1162097856911
 30
0.0
 40
9.144
  1
アンカーボルト用切欠部詳細図　Ｓ＝１：２
 41
1.158333333333333
  7
ＭＳ ゴシック
100
AcDbText
  0
TEXT
  5
41E
330
1F
100
AcDbEntity
  8
1-F
  6
Continuous
 62
     2
370
     9
100
AcDbText
 10
94.75583894040784
 20
-373.0102621373592
 30
0.0
 40
12.192
  1
16
 41
1.0625
  7
ＭＳ ゴシック
100
AcDbText
  0
TEXT
  5
41F
330
1F
100
AcDbEntity
  8
1-F
  6
Continuous
 62
     2
370
     9
100
AcDbText
 10
53.93861572989258
 20
-318.2180427143229
 30
0.0
 40
12.192
  1
33
 50
90.0
 41
1.0625
  7
ＭＳ ゴシック
100
AcDbText
  0
TEXT
  5
420
330
1F
100
AcDbEntity
  8
0-E
  6
Continuous
 62
     7
370
     9
100
AcDbText
 10
546.8653769228156
 20
433.2043686870817
 30
0.0
 40
9.144
  1
鎖：φ６×３００（両シャックル付）
  7
ＭＳ ゴシック
100
AcDbText
  0
TEXT
  5
421
330
1F
100
AcDbEntity
  8
0-E
  6
Continuous
 62
     7
370
     9
100
AcDbText
 10
560.8482311884138
 20
413.1357857494747
 30
0.0
 40
9.144
  1
ＳＷＲＭ，溶融亜鉛めっき
 41
1.152777777777778
  7
ＭＳ ゴシック
100
AcDbText
  0
TEXT
  5
422
330
1F
100
AcDbEntity
  8
F-5
  6
Continuous
 62
     7
370
     9
100
AcDbText
 10
-335.06215895236
 20
-528.8182589318166
 30
0.0
 40
9.144
  1
インターロッキングブロック用　細目タイプ［スリット幅８mm］　側溝用
 41
1.161616161616162
  7
ＭＳ ゴシック
100
AcDbText
  0
ENDSEC
  0
SECTION
  2
OBJECTS
  0
DICTIONARY
  5
C
330
0
100
AcDbDictionary
281
     1
  3
ACAD_DETAILVIEWSTYLE
350
42A
  3
ACAD_GROUP
350
D
  3
ACAD_LAYOUT
350
1A
  3
ACAD_MATERIAL
350
43
  3
ACAD_MLEADERSTYLE
350
6B
  3
ACAD_MLINESTYLE
350
17
  3
ACAD_PLOTSETTINGS
350
19
  3
ACAD_PLOTSTYLENAME
350
E
  3
ACAD_SCALELIST
350
47
  3
ACAD_SECTIONVIEWSTYLE
350
42B
  3
ACAD_TABLESTYLE
350
69
  3
ACAD_VISUALSTYLE
350
2A
  3
ACDB_RECOMPOSE_DATA
350
427
  3
AcDbVariableDictionary
350
423
  0
SUN
  5
6D
330
29
100
AcDbSun
 90
        1
290
     0
 63
     7
421
 16777215
 40
1.0
291
     1
 91
  2455826
 92
 54000000
292
     0
 70
     2
 71
   256
280
     1
  0
DICTIONARY
  5
42A
102
{ACAD_REACTORS
330
C
102
}
330
C
100
AcDbDictionary
281
     1
  0
DICTIONARY
  5
D
102
{ACAD_REACTORS
330
C
102
}
330
C
100
AcDbDictionary
281
     1
  0
DICTIONARY
  5
1A
102
{ACAD_REACTORS
330
C
102
}
330
C
100
AcDbDictionary
281
     1
  3
Layout1
350
1E
  3
Layout2
350
26
  3
Model
350
22
  0
DICTIONARY
  5
43
102
{ACAD_REACTORS
330
C
102
}
330
C
100
AcDbDictionary
281
     1
  3
ByBlock
350
45
  3
ByLayer
350
44
  3
Global
350
46
  0
DICTIONARY
  5
6B
102
{ACAD_REACTORS
330
C
102
}
330
C
100
AcDbDictionary
281
     1
  3
Standard
350
6C
  0
DICTIONARY
  5
17
102
{ACAD_REACTORS
330
C
102
}
330
C
100
AcDbDictionary
281
     1
  3
Standard
350
18
  0
DICTIONARY
  5
19
102
{ACAD_REACTORS
330
C
102
}
330
C
100
AcDbDictionary
281
     1
  0
ACDBDICTIONARYWDFLT
  5
E
102
{ACAD_REACTORS
330
C
102
}
330
C
100
AcDbDictionary
281
     1
  3
Normal
350
F
100
AcDbDictionaryWithDefault
340
F
  0
DICTIONARY
  5
47
102
{ACAD_REACTORS
330
C
102
}
330
C
100
AcDbDictionary
281
     1
  3
A0
350
48
  3
A1
350
49
  3
A2
350
4A
  3
A3
350
4B
  3
A4
350
4C
  3
A5
350
4D
  3
A6
350
4E
  3
A7
350
4F
  3
A8
350
50
  3
A9
350
51
  3
B0
350
52
  3
B1
350
53
  3
B2
350
54
  3
B3
350
55
  3
B4
350
56
  3
B5
350
57
  3
B6
350
58
  3
B7
350
59
  3
B8
350
5A
  3
B9
350
5B
  3
C0
350
5C
  3
C1
350
5D
  3
C2
350
5E
  3
C3
350
5F
  3
C4
350
60
  3
C5
350
61
  3
C6
350
62
  3
C7
350
63
  3
C8
350
64
  3
C9
350
65
  3
D0
350
66
  3
D1
350
67
  3
D2
350
68
  0
DICTIONARY
  5
42B
102
{ACAD_REACTORS
330
C
102
}
330
C
100
AcDbDictionary
281
     1
  0
DICTIONARY
  5
69
102
{ACAD_REACTORS
330
C
102
}
330
C
100
AcDbDictionary
281
     1
  3
Standard
350
6A
  0
DICTIONARY
  5
2A
102
{ACAD_REACTORS
330
C
102
}
330
C
100
AcDbDictionary
281
     1
  3
2dWireframe
350
2F
  3
Basic
350
32
  3
Brighten
350
36
  3
ColorChange
350
3A
  3
Conceptual
350
34
  3
Dim
350
35
  3
EdgeColorOff
350
3D
  3
Facepattern
350
39
  3
Flat
350
2B
  3
FlatWithEdges
350
2C
  3
Gouraud
350
2D
  3
GouraudWithEdges
350
2E
  3
Hidden
350
31
  3
JitterOff
350
3B
  3
Linepattern
350
38
  3
OverhangOff
350
3C
  3
Realistic
350
33
  3
Shaded
350
42
  3
Shaded with edges
350
41
  3
Shades of Gray
350
3E
  3
Sketchy
350
3F
  3
Thicken
350
37
  3
Wireframe
350
30
  3
X-Ray
350
40
  0
XRECORD
  5
427
102
{ACAD_REACTORS
330
C
102
}
330
C
100
AcDbXrecord
280
     1
 90
        1
330
6A
  0
DICTIONARY
  5
423
102
{ACAD_REACTORS
330
C
102
}
330
C
100
AcDbDictionary
281
     1
  3
CANNOSCALE
350
424
  3
CENTEREXE
350
42C
  3
CENTERLTYPEFILE
350
42D
  3
CMLEADERSTYLE
350
429
  3
CTABLESTYLE
350
428
  0
LAYOUT
  5
1E
102
{ACAD_REACTORS
330
1A
102
}
330
1A
100
AcDbPlotSettings
  1

  2
none_device
  4

  6

 40
0.0
 41
0.0
 42
0.0
 43
0.0
 44
0.0
 45
0.0
 46
0.0
 47
0.0
 48
0.0
 49
0.0
140
0.0
141
0.0
142
1.0
143
1.0
 70
   688
 72
     1
 73
     0
 74
     5
  7

 75
    16
 76
     0
 77
     5
 78
   300
147
1.0
148
0.0
149
0.0
100
AcDbLayout
  1
Layout1
 70
     1
 71
     1
 10
0.0
 20
0.0
 11
420.0
 21
297.0
 12
0.0
 22
0.0
 32
0.0
 14
1.000000000000000E+20
 24
1.000000000000000E+20
 34
1.000000000000000E+20
 15
-1.000000000000000E+20
 25
-1.000000000000000E+20
 35
-1.000000000000000E+20
146
0.0
 13
0.0
 23
0.0
 33
0.0
 16
1.0
 26
0.0
 36
0.0
 17
0.0
 27
1.0
 37
0.0
 76
     0
330
1B
  0
LAYOUT
  5
26
102
{ACAD_REACTORS
330
1A
102
}
330
1A
100
AcDbPlotSettings
  1

  2
none_device
  4

  6

 40
0.0
 41
0.0
 42
0.0
 43
0.0
 44
0.0
 45
0.0
 46
0.0
 47
0.0
 48
0.0
 49
0.0
140
0.0
141
0.0
142
1.0
143
1.0
 70
   688
 72
     1
 73
     0
 74
     5
  7

 75
    16
 76
     0
 77
     5
 78
   300
147
1.0
148
0.0
149
0.0
100
AcDbLayout
  1
Layout2
 70
     1
 71
     2
 10
0.0
 20
0.0
 11
0.0
 21
0.0
 12
0.0
 22
0.0
 32
0.0
 14
0.0
 24
0.0
 34
0.0
 15
0.0
 25
0.0
 35
0.0
146
0.0
 13
0.0
 23
0.0
 33
0.0
 16
1.0
 26
0.0
 36
0.0
 17
0.0
 27
1.0
 37
0.0
 76
     0
330
23
  0
LAYOUT
  5
22
102
{ACAD_REACTORS
330
1A
102
}
330
1A
100
AcDbPlotSettings
  1

  2
none_device
  4
Letter_(8.50_x_11.00_Inches)
  6

 40
6.35
 41
6.35
 42
6.35000508
 43
6.35000508
 44
215.9
 45
279.4
 46
0.0
 47
0.0
 48
0.0
 49
0.0
140
0.0
141
0.0
142
1.0
143
1.0
 70
  1712
 72
     1
 73
     0
 74
     0
  7

 75
     0
 76
     0
 77
     5
 78
   300
147
1.0
148
0.0
149
0.0
100
AcDbLayout
  1
Model
 70
     1
 71
     0
 10
-840.0
 20
-594.0
 11
840.0
 21
594.0
 12
0.0
 22
0.0
 32
0.0
 14
-840.0
 24
-594.0
 34
0.0
 15
840.0
 25
594.0
 35
0.0
146
0.0
 13
0.0
 23
0.0
 33
0.0
 16
1.0
 26
0.0
 36
0.0
 17
0.0
 27
1.0
 37
0.0
 76
     0
330
1F
331
29
  0
MATERIAL
  5
45
102
{ACAD_REACTORS
330
43
102
}
330
43
100
AcDbMaterial
  1
ByBlock
 72
     1
 94
      127
  0
MATERIAL
  5
44
102
{ACAD_REACTORS
330
43
102
}
330
43
100
AcDbMaterial
  1
ByLayer
 72
     1
 94
      127
  0
MATERIAL
  5
46
102
{ACAD_REACTORS
330
43
102
}
330
43
100
AcDbMaterial
  1
Global
 72
     1
 94
      127
  0
MLEADERSTYLE
  5
6C
102
{ACAD_REACTORS
330
6B
102
}
330
6B
100
AcDbMLeaderStyle
179
     2
170
     2
171
     1
172
     0
 90
        2
 40
0.0
 41
0.0
173
     1
 91
-1056964608
340
14
 92
       -2
290
     1
 42
2.0
291
     1
 43
8.0
  3
Standard
341
0
 44
4.0
300

342
11
174
     1
178
     6
175
     1
176
     0
 93
-1056964608
 45
4.0
292
     0
297
     0
 46
4.0
343
0
 94
-1056964608
 47
1.0
 49
1.0
140
1.0
293
     1
141
0.0
294
     1
177
     0
142
1.0
295
     0
296
     0
143
3.75
271
     0
272
     9
273
     9
298
     0
  0
MLINESTYLE
  5
18
102
{ACAD_REACTORS
330
17
102
}
330
17
100
AcDbMlineStyle
  2
Standard
 70
     0
  3

 62
   256
 51
90.0
 52
90.0
 71
     2
 49
0.5
 62
   256
  6
BYLAYER
 49
-0.5
 62
   256
  6
BYLAYER
  0
ACDBPLACEHOLDER
  5
F
102
{ACAD_REACTORS
330
E
102
}
330
E
  0
SCALE
  5
48
102
{ACAD_REACTORS
330
47
102
}
330
47
100
AcDbScale
 70
     0
300
1:1
140
1.0
141
1.0
290
     1
  0
SCALE
  5
49
102
{ACAD_REACTORS
330
47
102
}
330
47
100
AcDbScale
 70
     0
300
1:2
140
1.0
141
2.0
290
     0
  0
SCALE
  5
4A
102
{ACAD_REACTORS
330
47
102
}
330
47
100
AcDbScale
 70
     0
300
1:4
140
1.0
141
4.0
290
     0
  0
SCALE
  5
4B
102
{ACAD_REACTORS
330
47
102
}
330
47
100
AcDbScale
 70
     0
300
1:5
140
1.0
141
5.0
290
     0
  0
SCALE
  5
4C
102
{ACAD_REACTORS
330
47
102
}
330
47
100
AcDbScale
 70
     0
300
1:8
140
1.0
141
8.0
290
     0
  0
SCALE
  5
4D
102
{ACAD_REACTORS
330
47
102
}
330
47
100
AcDbScale
 70
     0
300
1:10
140
1.0
141
10.0
290
     0
  0
SCALE
  5
4E
102
{ACAD_REACTORS
330
47
102
}
330
47
100
AcDbScale
 70
     0
300
1:16
140
1.0
141
16.0
290
     0
  0
SCALE
  5
4F
102
{ACAD_REACTORS
330
47
102
}
330
47
100
AcDbScale
 70
     0
300
1:20
140
1.0
141
20.0
290
     0
  0
SCALE
  5
50
102
{ACAD_REACTORS
330
47
102
}
330
47
100
AcDbScale
 70
     0
300
1:30
140
1.0
141
30.0
290
     0
  0
SCALE
  5
51
102
{ACAD_REACTORS
330
47
102
}
330
47
100
AcDbScale
 70
     0
300
1:40
140
1.0
141
40.0
290
     0
  0
SCALE
  5
52
102
{ACAD_REACTORS
330
47
102
}
330
47
100
AcDbScale
 70
     0
300
1:50
140
1.0
141
50.0
290
     0
  0
SCALE
  5
53
102
{ACAD_REACTORS
330
47
102
}
330
47
100
AcDbScale
 70
     0
300
1:100
140
1.0
141
100.0
290
     0
  0
SCALE
  5
54
102
{ACAD_REACTORS
330
47
102
}
330
47
100
AcDbScale
 70
     0
300
2:1
140
2.0
141
1.0
290
     0
  0
SCALE
  5
55
102
{ACAD_REACTORS
330
47
102
}
330
47
100
AcDbScale
 70
     0
300
4:1
140
4.0
141
1.0
290
     0
  0
SCALE
  5
56
102
{ACAD_REACTORS
330
47
102
}
330
47
100
AcDbScale
 70
     0
300
8:1
140
8.0
141
1.0
290
     0
  0
SCALE
  5
57
102
{ACAD_REACTORS
330
47
102
}
330
47
100
AcDbScale
 70
     0
300
10:1
140
10.0
141
1.0
290
     0
  0
SCALE
  5
58
102
{ACAD_REACTORS
330
47
102
}
330
47
100
AcDbScale
 70
     0
300
100:1
140
100.0
141
1.0
290
     0
  0
SCALE
  5
59
102
{ACAD_REACTORS
330
47
102
}
330
47
100
AcDbScale
 70
     0
300
1/128" = 1'-0"
140
0.0078125
141
12.0
290
     0
  0
SCALE
  5
5A
102
{ACAD_REACTORS
330
47
102
}
330
47
100
AcDbScale
 70
     0
300
1/64" = 1'-0"
140
0.015625
141
12.0
290
     0
  0
SCALE
  5
5B
102
{ACAD_REACTORS
330
47
102
}
330
47
100
AcDbScale
 70
     0
300
1/32" = 1'-0"
140
0.03125
141
12.0
290
     0
  0
SCALE
  5
5C
102
{ACAD_REACTORS
330
47
102
}
330
47
100
AcDbScale
 70
     0
300
1/16" = 1'-0"
140
0.0625
141
12.0
290
     0
  0
SCALE
  5
5D
102
{ACAD_REACTORS
330
47
102
}
330
47
100
AcDbScale
 70
     0
300
3/32" = 1'-0"
140
0.09375
141
12.0
290
     0
  0
SCALE
  5
5E
102
{ACAD_REACTORS
330
47
102
}
330
47
100
AcDbScale
 70
     0
300
1/8" = 1'-0"
140
0.125
141
12.0
290
     0
  0
SCALE
  5
5F
102
{ACAD_REACTORS
330
47
102
}
330
47
100
AcDbScale
 70
     0
300
3/16" = 1'-0"
140
0.1875
141
12.0
290
     0
  0
SCALE
  5
60
102
{ACAD_REACTORS
330
47
102
}
330
47
100
AcDbScale
 70
     0
300
1/4" = 1'-0"
140
0.25
141
12.0
290
     0
  0
SCALE
  5
61
102
{ACAD_REACTORS
330
47
102
}
330
47
100
AcDbScale
 70
     0
300
3/8" = 1'-0"
140
0.375
141
12.0
290
     0
  0
SCALE
  5
62
102
{ACAD_REACTORS
330
47
102
}
330
47
100
AcDbScale
 70
     0
300
1/2" = 1'-0"
140
0.5
141
12.0
290
     0
  0
SCALE
  5
63
102
{ACAD_REACTORS
330
47
102
}
330
47
100
AcDbScale
 70
     0
300
3/4" = 1'-0"
140
0.75
141
12.0
290
     0
  0
SCALE
  5
64
102
{ACAD_REACTORS
330
47
102
}
330
47
100
AcDbScale
 70
     0
300
1" = 1'-0"
140
1.0
141
12.0
290
     0
  0
SCALE
  5
65
102
{ACAD_REACTORS
330
47
102
}
330
47
100
AcDbScale
 70
     0
300
1-1/2" = 1'-0"
140
1.5
141
12.0
290
     0
  0
SCALE
  5
66
102
{ACAD_REACTORS
330
47
102
}
330
47
100
AcDbScale
 70
     0
300
3" = 1'-0"
140
3.0
141
12.0
290
     0
  0
SCALE
  5
67
102
{ACAD_REACTORS
330
47
102
}
330
47
100
AcDbScale
 70
     0
300
6" = 1'-0"
140
6.0
141
12.0
290
     0
  0
SCALE
  5
68
102
{ACAD_REACTORS
330
47
102
}
330
47
100
AcDbScale
 70
     0
300
1'-0" = 1'-0"
140
12.0
141
12.0
290
     0
  0
TABLESTYLE
  5
6A
102
{ACAD_REACTORS
330
69
102
}
102
{ACAD_XDICTIONARY
360
425
102
}
330
69
100
AcDbTableStyle
  3
Standard
 70
     0
 71
     0
 40
0.06
 41
0.06
280
     0
281
     0
  7
Standard
140
4.5
170
     2
 62
     0
 63
   257
283
     0
 90
        4
 91
        0
  1

274
    -2
284
     1
 64
     0
275
    -2
285
     1
 65
     0
276
    -2
286
     1
 66
     0
277
    -2
287
     1
 67
     0
278
    -2
288
     1
 68
     0
279
    -2
289
     1
 69
     0
  7
Standard
140
6.0
170
     5
 62
     0
 63
   257
283
     0
 90
        4
 91
        0
  1

274
    -2
284
     1
 64
     0
275
    -2
285
     1
 65
     0
276
    -2
286
     1
 66
     0
277
    -2
287
     1
 67
     0
278
    -2
288
     1
 68
     0
279
    -2
289
     1
 69
     0
  7
Standard
140
4.5
170
     5
 62
     0
 63
   257
283
     0
 90
        4
 91
        0
  1

274
    -2
284
     1
 64
     0
275
    -2
285
     1
 65
     0
276
    -2
286
     1
 66
     0
277
    -2
287
     1
 67
     0
278
    -2
288
     1
 68
     0
279
    -2
289
     1
 69
     0
  0
VISUALSTYLE
  5
2F
102
{ACAD_REACTORS
330
2A
102
}
330
2A
100
AcDbVisualStyle
  2
2dWireframe
 70
     4
177
     3
291
     0
 70
    58
 90
        0
176
     1
 90
        2
176
     1
 90
        0
176
     1
 90
        0
176
     1
 40
0.6
176
     1
 40
30.0
176
     1
 62
     7
420
 16777215
176
     1
 90
        1
176
     1
 90
        4
176
     1
 62
     7
176
     1
 62
   257
176
     1
 90
        1
176
     1
 90
        1
176
     1
 40
1.0
176
     1
 90
        0
176
     1
 62
   257
176
     1
 40
1.0
176
     1
 90
        1
176
     1
 90
        6
176
     1
 90
        2
176
     1
 62
     7
176
     1
 90
        5
176
     1
 90
        0
176
     1
 90
        0
176
     1
290
     0
176
     1
 90
        1
176
     1
 40
0.0
176
     1
 90
        0
176
     1
290
     1
176
     1
290
     1
176
     1
290
     0
176
     1
290
     0
176
     1
290
     0
176
     1
290
     0
176
     1
290
     0
176
     1
290
     0
176
     1
290
     0
176
     1
 90
       50
176
     1
 40
0.0
176
     1
 40
1.0
176
     1
 90
        0
176
     1
 62
    18
420
        0
176
     1
 90
       50
176
     1
 90
        3
176
     1
 62
     5
420
      255
176
     1
290
     0
176
     1
 90
       50
176
     1
 90
       50
176
     1
 90
       50
176
     1
290
     0
176
     1
 90
       50
176
     1
 62
   256
176
     0
 40
1.0
176
     0
 90
        2
176
     1
  1
strokes_ogs.tif
176
     1
290
     0
176
     1
 40
1.0
176
     1
 40
1.0
176
     1
  0
VISUALSTYLE
  5
32
102
{ACAD_REACTORS
330
2A
102
}
330
2A
100
AcDbVisualStyle
  2
Basic
 70
     7
177
     3
291
     1
 70
    58
 90
        1
176
     1
 90
        0
176
     1
 90
        1
176
     1
 90
        0
176
     1
 40
0.6
176
     1
 40
30.0
176
     1
 62
     7
420
 16777215
176
     1
 90
        0
176
     1
 90
        4
176
     1
 62
     7
176
     1
 62
   257
176
     1
 90
        1
176
     1
 90
        1
176
     1
 40
1.0
176
     1
 90
        8
176
     1
 62
     7
176
     1
 40
1.0
176
     1
 90
        1
176
     1
 90
        6
176
     1
 90
        2
176
     1
 62
     7
176
     1
 90
        5
176
     1
 90
        0
176
     1
 90
        0
176
     1
290
     0
176
     1
 90
        1
176
     1
 40
0.0
176
     1
 90
        0
176
     1
290
     0
176
     1
290
     1
176
     1
290
     1
176
     1
290
     0
176
     1
290
     0
176
     1
290
     0
176
     1
290
     0
176
     1
290
     0
176
     1
290
     0
176
     1
 90
       50
176
     1
 40
0.0
176
     1
 40
1.0
176
     1
 90
        0
176
     1
 62
    18
420
        0
176
     1
 90
       50
176
     1
 90
        3
176
     1
 62
     5
420
      255
176
     1
290
     0
176
     1
 90
       50
176
     1
 90
       50
176
     1
 90
       50
176
     1
290
     0
176
     1
 90
       50
176
     1
 62
   256
176
     0
 40
1.0
176
     0
 90
        2
176
     1
  1
strokes_ogs.tif
176
     1
290
     0
176
     1
 40
1.0
176
     1
 40
1.0
176
     1
  0
VISUALSTYLE
  5
36
102
{ACAD_REACTORS
330
2A
102
}
330
2A
100
AcDbVisualStyle
  2
Brighten
 70
    12
177
     3
291
     1
 70
    58
 90
        2
176
     1
 90
        2
176
     1
 90
        0
176
     1
 90
        0
176
     1
 40
0.6
176
     1
 40
30.0
176
     1
 62
     7
420
 16777215
176
     1
 90
        1
176
     1
 90
        4
176
     1
 62
     7
176
     1
 62
   257
176
     1
 90
        1
176
     1
 90
        1
176
     1
 40
1.0
176
     1
 90
        8
176
     1
 62
     7
176
     1
 40
1.0
176
     1
 90
        1
176
     1
 90
        6
176
     1
 90
        2
176
     1
 62
     7
176
     1
 90
        5
176
     1
 90
        0
176
     1
 90
        0
176
     1
290
     0
176
     1
 90
        1
176
     1
 40
50.0
176
     1
 90
        0
176
     1
290
     0
176
     1
290
     1
176
     1
290
     1
176
     1
290
     0
176
     1
290
     0
176
     1
290
     0
176
     1
290
     0
176
     1
290
     0
176
     1
290
     0
176
     1
 90
       50
176
     1
 40
0.0
176
     1
 40
1.0
176
     1
 90
        0
176
     1
 62
    18
420
        0
176
     1
 90
       50
176
     1
 90
        3
176
     1
 62
     5
420
      255
176
     1
290
     0
176
     1
 90
       50
176
     1
 90
       50
176
     1
 90
       50
176
     1
290
     0
176
     1
 90
       50
176
     1
 62
   256
176
     0
 40
1.0
176
     0
 90
        2
176
     1
  1
strokes_ogs.tif
176
     1
290
     0
176
     1
 40
1.0
176
     1
 40
1.0
176
     1
  0
VISUALSTYLE
  5
3A
102
{ACAD_REACTORS
330
2A
102
}
330
2A
100
AcDbVisualStyle
  2
ColorChange
 70
    16
177
     3
291
     1
 70
    58
 90
        2
176
     1
 90
        2
176
     1
 90
        3
176
     1
 90
        0
176
     1
 40
0.6
176
     1
 40
30.0
176
     1
 62
     8
420
  8421504
176
     1
 90
        1
176
     1
 90
        4
176
     1
 62
     7
176
     1
 62
   257
176
     1
 90
        1
176
     1
 90
        1
176
     1
 40
1.0
176
     1
 90
        8
176
     1
 62
     8
420
  8421504
176
     1
 40
1.0
176
     1
 90
        1
176
     1
 90
        6
176
     1
 90
        2
176
     1
 62
     7
176
     1
 90
        5
176
     1
 90
        0
176
     1
 90
        0
176
     1
290
     0
176
     1
 90
        1
176
     1
 40
0.0
176
     1
 90
        0
176
     1
290
     0
176
     1
290
     1
176
     1
290
     1
176
     1
290
     0
176
     1
290
     0
176
     1
290
     0
176
     1
290
     0
176
     1
290
     0
176
     1
290
     0
176
     1
 90
       50
176
     1
 40
0.0
176
     1
 40
1.0
176
     1
 90
        0
176
     1
 62
    18
420
        0
176
     1
 90
       50
176
     1
 90
        3
176
     1
 62
     5
420
      255
176
     1
290
     0
176
     1
 90
       50
176
     1
 90
       50
176
     1
 90
       50
176
     1
290
     0
176
     1
 90
       50
176
     1
 62
   256
176
     0
 40
1.0
176
     0
 90
        2
176
     1
  1
strokes_ogs.tif
176
     1
290
     0
176
     1
 40
1.0
176
     1
 40
1.0
176
     1
  0
VISUALSTYLE
  5
34
102
{ACAD_REACTORS
330
2A
102
}
330
2A
100
AcDbVisualStyle
  2
Conceptual
 70
     9
177
     3
291
     0
 70
    58
 90
        3
176
     1
 90
        2
176
     1
 90
        0
176
     1
 90
        0
176
     1
 40
0.6
176
     1
 40
30.0
176
     1
 62
     7
420
 16777215
176
     1
 90
        2
176
     1
 90
        2
176
     1
 62
     7
176
     1
 62
   257
176
     1
 90
        1
176
     1
 90
        1
176
     1
 40
179.0
176
     1
 90
        8
176
     1
 62
     7
176
     1
 40
1.0
176
     1
 90
        1
176
     1
 90
        6
176
     1
 90
        2
176
     1
 62
     7
176
     1
 90
        3
176
     1
 90
        0
176
     1
 90
        0
176
     1
290
     0
176
     1
 90
        1
176
     1
 40
0.0
176
     1
 90
        0
176
     1
290
     0
176
     1
290
     1
176
     1
290
     1
176
     1
290
     0
176
     1
290
     0
176
     1
290
     0
176
     1
290
     0
176
     1
290
     0
176
     1
290
     0
176
     1
 90
       50
176
     1
 40
0.0
176
     1
 40
1.0
176
     1
 90
        0
176
     1
 62
    18
420
        0
176
     1
 90
       50
176
     1
 90
        3
176
     1
 62
     5
420
      255
176
     1
290
     0
176
     1
 90
       50
176
     1
 90
       50
176
     1
 90
       50
176
     1
290
     0
176
     1
 90
       50
176
     1
 62
   256
176
     0
 40
1.0
176
     0
 90
        2
176
     1
  1
strokes_ogs.tif
176
     1
290
     0
176
     1
 40
1.0
176
     1
 40
1.0
176
     1
  0
VISUALSTYLE
  5
35
102
{ACAD_REACTORS
330
2A
102
}
330
2A
100
AcDbVisualStyle
  2
Dim
 70
    11
177
     3
291
     1
 70
    58
 90
        2
176
     1
 90
        2
176
     1
 90
        0
176
     1
 90
        0
176
     1
 40
0.6
176
     1
 40
30.0
176
     1
 62
     7
420
 16777215
176
     1
 90
        1
176
     1
 90
        4
176
     1
 62
     7
176
     1
 62
   257
176
     1
 90
        1
176
     1
 90
        1
176
     1
 40
1.0
176
     1
 90
        8
176
     1
 62
     7
176
     1
 40
1.0
176
     1
 90
        1
176
     1
 90
        6
176
     1
 90
        2
176
     1
 62
     7
176
     1
 90
        5
176
     1
 90
        0
176
     1
 90
        0
176
     1
290
     0
176
     1
 90
        1
176
     1
 40
-50.0
176
     1
 90
        0
176
     1
290
     0
176
     1
290
     1
176
     1
290
     1
176
     1
290
     0
176
     1
290
     0
176
     1
290
     0
176
     1
290
     0
176
     1
290
     0
176
     1
290
     0
176
     1
 90
       50
176
     1
 40
0.0
176
     1
 40
1.0
176
     1
 90
        0
176
     1
 62
    18
420
        0
176
     1
 90
       50
176
     1
 90
        3
176
     1
 62
     5
420
      255
176
     1
290
     0
176
     1
 90
       50
176
     1
 90
       50
176
     1
 90
       50
176
     1
290
     0
176
     1
 90
       50
176
     1
 62
   256
176
     0
 40
1.0
176
     0
 90
        2
176
     1
  1
strokes_ogs.tif
176
     1
290
     0
176
     1
 40
1.0
176
     1
 40
1.0
176
     1
  0
VISUALSTYLE
  5
3D
102
{ACAD_REACTORS
330
2A
102
}
330
2A
100
AcDbVisualStyle
  2
EdgeColorOff
 70
    22
177
     3
291
     1
 70
    58
 90
        2
176
     0
 90
        2
176
     0
 90
        0
176
     0
 90
        0
176
     0
 40
0.6
176
     0
 40
30.0
176
     0
 62
     7
420
 16777215
176
     0
 90
        1
176
     0
 90
        4
176
     0
 62
     7
176
     0
 62
   257
176
     0
 90
        1
176
     0
 90
        1
176
     0
 40
1.0
176
     0
 90
        8
176
     2
 62
     7
176
     0
 40
1.0
176
     0
 90
        1
176
     0
 90
        6
176
     0
 90
        2
176
     0
 62
     7
176
     0
 90
        5
176
     0
 90
        0
176
     0
 90
        0
176
     0
290
     0
176
     0
 90
        1
176
     0
 40
0.0
176
     0
 90
        0
176
     0
290
     0
176
     0
290
     1
176
     0
290
     1
176
     0
290
     0
176
     0
290
     0
176
     0
290
     0
176
     0
290
     0
176
     0
290
     0
176
     0
290
     0
176
     0
 90
       50
176
     0
 40
0.0
176
     0
 40
1.0
176
     0
 90
        0
176
     0
 62
    18
420
        0
176
     0
 90
       50
176
     0
 90
        3
176
     0
 62
     5
420
      255
176
     0
290
     0
176
     0
 90
       50
176
     0
 90
       50
176
     0
 90
       50
176
     0
290
     0
176
     0
 90
       50
176
     0
 62
   256
176
     0
 40
1.0
176
     0
 90
        2
176
     0
  1
strokes_ogs.tif
176
     0
290
     0
176
     0
 40
1.0
176
     0
 40
1.0
176
     0
  0
VISUALSTYLE
  5
39
102
{ACAD_REACTORS
330
2A
102
}
330
2A
100
AcDbVisualStyle
  2
Facepattern
 70
    15
177
     3
291
     1
 70
    58
 90
        2
176
     1
 90
        2
176
     1
 90
        0
176
     1
 90
        0
176
     1
 40
0.6
176
     1
 40
30.0
176
     1
 62
     7
420
 16777215
176
     1
 90
        1
176
     1
 90
        4
176
     1
 62
     7
176
     1
 62
   257
176
     1
 90
        1
176
     1
 90
        1
176
     1
 40
1.0
176
     1
 90
        8
176
     1
 62
     7
176
     1
 40
1.0
176
     1
 90
        1
176
     1
 90
        6
176
     1
 90
        2
176
     1
 62
     7
176
     1
 90
        5
176
     1
 90
        0
176
     1
 90
        0
176
     1
290
     0
176
     1
 90
        1
176
     1
 40
0.0
176
     1
 90
        0
176
     1
290
     0
176
     1
290
     1
176
     1
290
     1
176
     1
290
     0
176
     1
290
     0
176
     1
290
     0
176
     1
290
     0
176
     1
290
     0
176
     1
290
     0
176
     1
 90
       50
176
     1
 40
0.0
176
     1
 40
1.0
176
     1
 90
        0
176
     1
 62
    18
420
        0
176
     1
 90
       50
176
     1
 90
        3
176
     1
 62
     5
420
      255
176
     1
290
     0
176
     1
 90
       50
176
     1
 90
       50
176
     1
 90
       50
176
     1
290
     0
176
     1
 90
       50
176
     1
 62
   256
176
     0
 40
1.0
176
     0
 90
        2
176
     1
  1
strokes_ogs.tif
176
     1
290
     0
176
     1
 40
1.0
176
     1
 40
1.0
176
     1
  0
VISUALSTYLE
  5
2B
102
{ACAD_REACTORS
330
2A
102
}
330
2A
100
AcDbVisualStyle
  2
Flat
 70
     0
177
     3
291
     1
 70
    58
 90
        2
176
     1
 90
        1
176
     1
 90
        1
176
     1
 90
        2
176
     1
 40
0.6
176
     1
 40
30.0
176
     1
 62
     7
420
 16777215
176
     1
 90
        0
176
     1
 90
        0
176
     1
 62
     7
176
     1
 62
   257
176
     1
 90
        1
176
     1
 90
        1
176
     1
 40
1.0
176
     1
 90
        8
176
     1
 62
     7
176
     1
 40
1.0
176
     1
 90
        1
176
     1
 90
        6
176
     1
 90
        2
176
     1
 62
     7
176
     1
 90
        5
176
     1
 90
        0
176
     1
 90
        0
176
     1
290
     0
176
     1
 90
       13
176
     1
 40
0.0
176
     1
 90
        0
176
     1
290
     0
176
     1
290
     1
176
     1
290
     1
176
     1
290
     0
176
     1
290
     0
176
     1
290
     0
176
     1
290
     0
176
     1
290
     0
176
     1
290
     0
176
     1
 90
       50
176
     1
 40
0.0
176
     1
 40
1.0
176
     1
 90
        0
176
     1
 62
    18
420
        0
176
     1
 90
       50
176
     1
 90
        3
176
     1
 62
     5
420
      255
176
     1
290
     0
176
     1
 90
       50
176
     1
 90
       50
176
     1
 90
       50
176
     1
290
     0
176
     1
 90
       50
176
     1
 62
   256
176
     0
 40
1.0
176
     0
 90
        2
176
     1
  1
strokes_ogs.tif
176
     1
290
     0
176
     1
 40
1.0
176
     1
 40
1.0
176
     1
  0
VISUALSTYLE
  5
2C
102
{ACAD_REACTORS
330
2A
102
}
330
2A
100
AcDbVisualStyle
  2
FlatWithEdges
 70
     1
177
     3
291
     1
 70
    58
 90
        2
176
     1
 90
        1
176
     1
 90
        1
176
     1
 90
        2
176
     1
 40
0.6
176
     1
 40
30.0
176
     1
 62
     7
420
 16777215
176
     1
 90
        1
176
     1
 90
        0
176
     1
 62
     7
176
     1
 62
   257
176
     1
 90
        1
176
     1
 90
        1
176
     1
 40
1.0
176
     1
 90
        0
176
     1
 62
   257
176
     1
 40
1.0
176
     1
 90
        1
176
     1
 90
        6
176
     1
 90
        2
176
     1
 62
     7
176
     1
 90
        5
176
     1
 90
        0
176
     1
 90
        0
176
     1
290
     0
176
     1
 90
       13
176
     1
 40
0.0
176
     1
 90
        0
176
     1
290
     0
176
     1
290
     1
176
     1
290
     1
176
     1
290
     0
176
     1
290
     0
176
     1
290
     0
176
     1
290
     0
176
     1
290
     0
176
     1
290
     0
176
     1
 90
       50
176
     1
 40
0.0
176
     1
 40
1.0
176
     1
 90
        0
176
     1
 62
    18
420
        0
176
     1
 90
       50
176
     1
 90
        3
176
     1
 62
     5
420
      255
176
     1
290
     0
176
     1
 90
       50
176
     1
 90
       50
176
     1
 90
       50
176
     1
290
     0
176
     1
 90
       50
176
     1
 62
   256
176
     0
 40
1.0
176
     0
 90
        2
176
     1
  1
strokes_ogs.tif
176
     1
290
     0
176
     1
 40
1.0
176
     1
 40
1.0
176
     1
  0
VISUALSTYLE
  5
2D
102
{ACAD_REACTORS
330
2A
102
}
330
2A
100
AcDbVisualStyle
  2
Gouraud
 70
     2
177
     3
291
     1
 70
    58
 90
        2
176
     1
 90
        2
176
     1
 90
        1
176
     1
 90
        2
176
     1
 40
0.6
176
     1
 40
30.0
176
     1
 62
     7
420
 16777215
176
     1
 90
        0
176
     1
 90
        0
176
     1
 62
     7
176
     1
 62
   257
176
     1
 90
        1
176
     1
 90
        1
176
     1
 40
1.0
176
     1
 90
        0
176
     1
 62
     7
176
     1
 40
1.0
176
     1
 90
        1
176
     1
 90
        6
176
     1
 90
        2
176
     1
 62
     7
176
     1
 90
        5
176
     1
 90
        0
176
     1
 90
        0
176
     1
290
     0
176
     1
 90
       13
176
     1
 40
0.0
176
     1
 90
        0
176
     1
290
     0
176
     1
290
     1
176
     1
290
     1
176
     1
290
     0
176
     1
290
     0
176
     1
290
     0
176
     1
290
     0
176
     1
290
     0
176
     1
290
     0
176
     1
 90
       50
176
     1
 40
0.0
176
     1
 40
1.0
176
     1
 90
        0
176
     1
 62
    18
420
        0
176
     1
 90
       50
176
     1
 90
        3
176
     1
 62
     5
420
      255
176
     1
290
     0
176
     1
 90
       50
176
     1
 90
       50
176
     1
 90
       50
176
     1
290
     0
176
     1
 90
       50
176
     1
 62
   256
176
     0
 40
1.0
176
     0
 90
        2
176
     1
  1
strokes_ogs.tif
176
     1
290
     0
176
     1
 40
1.0
176
     1
 40
1.0
176
     1
  0
VISUALSTYLE
  5
2E
102
{ACAD_REACTORS
330
2A
102
}
330
2A
100
AcDbVisualStyle
  2
GouraudWithEdges
 70
     3
177
     3
291
     1
 70
    58
 90
        2
176
     1
 90
        2
176
     1
 90
        1
176
     1
 90
        2
176
     1
 40
0.6
176
     1
 40
30.0
176
     1
 62
     7
420
 16777215
176
     1
 90
        1
176
     1
 90
        0
176
     1
 62
     7
176
     1
 62
   257
176
     1
 90
        1
176
     1
 90
        1
176
     1
 40
1.0
176
     1
 90
        0
176
     1
 62
   257
176
     1
 40
1.0
176
     1
 90
        1
176
     1
 90
        6
176
     1
 90
        2
176
     1
 62
     7
176
     1
 90
        5
176
     1
 90
        0
176
     1
 90
        0
176
     1
290
     0
176
     1
 90
       13
176
     1
 40
0.0
176
     1
 90
        0
176
     1
290
     0
176
     1
290
     1
176
     1
290
     1
176
     1
290
     0
176
     1
290
     0
176
     1
290
     0
176
     1
290
     0
176
     1
290
     0
176
     1
290
     0
176
     1
 90
       50
176
     1
 40
0.0
176
     1
 40
1.0
176
     1
 90
        0
176
     1
 62
    18
420
        0
176
     1
 90
       50
176
     1
 90
        3
176
     1
 62
     5
420
      255
176
     1
290
     0
176
     1
 90
       50
176
     1
 90
       50
176
     1
 90
       50
176
     1
290
     0
176
     1
 90
       50
176
     1
 62
   256
176
     0
 40
1.0
176
     0
 90
        2
176
     1
  1
strokes_ogs.tif
176
     1
290
     0
176
     1
 40
1.0
176
     1
 40
1.0
176
     1
  0
VISUALSTYLE
  5
31
102
{ACAD_REACTORS
330
2A
102
}
330
2A
100
AcDbVisualStyle
  2
Hidden
 70
     6
177
     3
291
     0
 70
    58
 90
        1
176
     1
 90
        2
176
     1
 90
        2
176
     1
 90
        0
176
     1
 40
0.6
176
     1
 40
30.0
176
     1
 62
     7
420
 16777215
176
     1
 90
        2
176
     1
 90
        2
176
     1
 62
     7
176
     1
 62
   257
176
     1
 90
        2
176
     1
 90
        1
176
     1
 40
40.0
176
     1
 90
        0
176
     1
 62
   257
176
     1
 40
1.0
176
     1
 90
        1
176
     1
 90
        6
176
     1
 90
        2
176
     1
 62
     7
176
     1
 90
        3
176
     1
 90
        0
176
     1
 90
        0
176
     1
290
     0
176
     1
 90
        1
176
     1
 40
0.0
176
     1
 90
        0
176
     1
290
     0
176
     1
290
     1
176
     1
290
     1
176
     1
290
     0
176
     1
290
     0
176
     1
290
     0
176
     1
290
     0
176
     1
290
     0
176
     1
290
     0
176
     1
 90
       50
176
     1
 40
0.0
176
     1
 40
1.0
176
     1
 90
        0
176
     1
 62
    18
420
        0
176
     1
 90
       50
176
     1
 90
        3
176
     1
 62
     5
420
      255
176
     1
290
     0
176
     1
 90
       50
176
     1
 90
       50
176
     1
 90
       50
176
     1
290
     0
176
     1
 90
       50
176
     1
 62
   256
176
     0
 40
1.0
176
     0
 90
        2
176
     1
  1
strokes_ogs.tif
176
     1
290
     0
176
     1
 40
1.0
176
     1
 40
1.0
176
     1
  0
VISUALSTYLE
  5
3B
102
{ACAD_REACTORS
330
2A
102
}
330
2A
100
AcDbVisualStyle
  2
JitterOff
 70
    20
177
     3
291
     1
 70
    58
 90
        2
176
     0
 90
        2
176
     0
 90
        0
176
     0
 90
        0
176
     0
 40
0.6
176
     0
 40
30.0
176
     0
 62
     7
420
 16777215
176
     0
 90
        1
176
     0
 90
        4
176
     0
 62
     7
176
     0
 62
   257
176
     0
 90
        1
176
     0
 90
        1
176
     0
 40
1.0
176
     0
 90
       10
176
     2
 62
     7
176
     0
 40
1.0
176
     0
 90
        1
176
     0
 90
        6
176
     0
 90
        2
176
     0
 62
     7
176
     0
 90
        5
176
     0
 90
        0
176
     0
 90
        0
176
     0
290
     0
176
     0
 90
        1
176
     0
 40
0.0
176
     0
 90
        0
176
     0
290
     0
176
     0
290
     1
176
     0
290
     1
176
     0
290
     0
176
     0
290
     0
176
     0
290
     0
176
     0
290
     0
176
     0
290
     0
176
     0
290
     0
176
     0
 90
       50
176
     0
 40
0.0
176
     0
 40
1.0
176
     0
 90
        0
176
     0
 62
    18
420
        0
176
     0
 90
       50
176
     0
 90
        3
176
     0
 62
     5
420
      255
176
     0
290
     0
176
     0
 90
       50
176
     0
 90
       50
176
     0
 90
       50
176
     0
290
     0
176
     0
 90
       50
176
     0
 62
   256
176
     0
 40
1.0
176
     0
 90
        2
176
     0
  1
strokes_ogs.tif
176
     0
290
     0
176
     0
 40
1.0
176
     0
 40
1.0
176
     0
  0
VISUALSTYLE
  5
38
102
{ACAD_REACTORS
330
2A
102
}
330
2A
100
AcDbVisualStyle
  2
Linepattern
 70
    14
177
     3
291
     1
 70
    58
 90
        2
176
     1
 90
        2
176
     1
 90
        0
176
     1
 90
        0
176
     1
 40
0.6
176
     1
 40
30.0
176
     1
 62
     7
420
 16777215
176
     1
 90
        1
176
     1
 90
        4
176
     1
 62
     7
176
     1
 62
   257
176
     1
 90
        7
176
     1
 90
        7
176
     1
 40
1.0
176
     1
 90
        8
176
     1
 62
     7
176
     1
 40
1.0
176
     1
 90
        1
176
     1
 90
        6
176
     1
 90
        2
176
     1
 62
     7
176
     1
 90
        5
176
     1
 90
        0
176
     1
 90
        0
176
     1
290
     0
176
     1
 90
        1
176
     1
 40
0.0
176
     1
 90
        0
176
     1
290
     0
176
     1
290
     1
176
     1
290
     1
176
     1
290
     0
176
     1
290
     0
176
     1
290
     0
176
     1
290
     0
176
     1
290
     0
176
     1
290
     0
176
     1
 90
       50
176
     1
 40
0.0
176
     1
 40
1.0
176
     1
 90
        0
176
     1
 62
    18
420
        0
176
     1
 90
       50
176
     1
 90
        3
176
     1
 62
     5
420
      255
176
     1
290
     0
176
     1
 90
       50
176
     1
 90
       50
176
     1
 90
       50
176
     1
290
     0
176
     1
 90
       50
176
     1
 62
   256
176
     0
 40
1.0
176
     0
 90
        2
176
     1
  1
strokes_ogs.tif
176
     1
290
     0
176
     1
 40
1.0
176
     1
 40
1.0
176
     1
  0
VISUALSTYLE
  5
3C
102
{ACAD_REACTORS
330
2A
102
}
330
2A
100
AcDbVisualStyle
  2
OverhangOff
 70
    21
177
     3
291
     1
 70
    58
 90
        2
176
     0
 90
        2
176
     0
 90
        0
176
     0
 90
        0
176
     0
 40
0.6
176
     0
 40
30.0
176
     0
 62
     7
420
 16777215
176
     0
 90
        1
176
     0
 90
        4
176
     0
 62
     7
176
     0
 62
   257
176
     0
 90
        1
176
     0
 90
        1
176
     0
 40
1.0
176
     0
 90
        9
176
     2
 62
     7
176
     0
 40
1.0
176
     0
 90
        1
176
     0
 90
        6
176
     0
 90
        2
176
     0
 62
     7
176
     0
 90
        5
176
     0
 90
        0
176
     0
 90
        0
176
     0
290
     0
176
     0
 90
        1
176
     0
 40
0.0
176
     0
 90
        0
176
     0
290
     0
176
     0
290
     1
176
     0
290
     1
176
     0
290
     0
176
     0
290
     0
176
     0
290
     0
176
     0
290
     0
176
     0
290
     0
176
     0
290
     0
176
     0
 90
       50
176
     0
 40
0.0
176
     0
 40
1.0
176
     0
 90
        0
176
     0
 62
    18
420
        0
176
     0
 90
       50
176
     0
 90
        3
176
     0
 62
     5
420
      255
176
     0
290
     0
176
     0
 90
       50
176
     0
 90
       50
176
     0
 90
       50
176
     0
290
     0
176
     0
 90
       50
176
     0
 62
   256
176
     0
 40
1.0
176
     0
 90
        2
176
     0
  1
strokes_ogs.tif
176
     0
290
     0
176
     0
 40
1.0
176
     0
 40
1.0
176
     0
  0
VISUALSTYLE
  5
33
102
{ACAD_REACTORS
330
2A
102
}
330
2A
100
AcDbVisualStyle
  2
Realistic
 70
     8
177
     3
291
     0
 70
    58
 90
        2
176
     1
 90
        3
176
     1
 90
        0
176
     1
 90
        2
176
     1
 40
0.6
176
     1
 40
30.0
176
     1
 62
     7
420
 16777215
176
     1
 90
        0
176
     1
 90
        0
176
     1
 62
     7
176
     1
 62
   257
176
     1
 90
        1
176
     1
 90
        1
176
     1
 40
1.0
176
     1
 90
        8
176
     1
 62
   257
176
     1
 40
1.0
176
     1
 90
        1
176
     1
 90
        6
176
     1
 90
        2
176
     1
 62
     7
176
     1
 90
        3
176
     1
 90
        0
176
     1
 90
        0
176
     1
290
     0
176
     1
 90
       13
176
     1
 40
0.0
176
     1
 90
        0
176
     1
290
     0
176
     1
290
     1
176
     1
290
     1
176
     1
290
     0
176
     1
290
     0
176
     1
290
     0
176
     1
290
     0
176
     1
290
     0
176
     1
290
     0
176
     1
 90
       50
176
     1
 40
0.0
176
     1
 40
1.0
176
     1
 90
        0
176
     1
 62
    18
420
        0
176
     1
 90
       50
176
     1
 90
        3
176
     1
 62
     5
420
      255
176
     1
290
     0
176
     1
 90
       50
176
     1
 90
       50
176
     1
 90
       50
176
     1
290
     0
176
     1
 90
       50
176
     1
 62
   256
176
     0
 40
1.0
176
     0
 90
        2
176
     1
  1
strokes_ogs.tif
176
     1
290
     0
176
     1
 40
1.0
176
     1
 40
1.0
176
     1
  0
VISUALSTYLE
  5
42
102
{ACAD_REACTORS
330
2A
102
}
330
2A
100
AcDbVisualStyle
  2
Shaded
 70
    27
177
     3
291
     0
 70
    58
 90
        2
176
     1
 90
        2
176
     1
 90
        1
176
     1
 90
        2
176
     1
 40
0.6
176
     1
 40
30.0
176
     1
 62
     7
420
 16777215
176
     1
 90
        0
176
     1
 90
        4
176
     1
 62
     7
176
     1
 62
   257
176
     1
 90
        1
176
     1
 90
        1
176
     1
 40
1.0
176
     1
 90
        8
176
     1
 62
   257
176
     1
 40
1.0
176
     1
 90
        1
176
     1
 90
        6
176
     1
 90
        2
176
     1
 62
     8
420
  7895160
176
     1
 90
        3
176
     1
 90
        0
176
     1
 90
        0
176
     1
290
     0
176
     1
 90
        5
176
     1
 40
0.0
176
     1
 90
        0
176
     1
290
     0
176
     1
290
     1
176
     1
290
     1
176
     1
290
     0
176
     1
290
     0
176
     1
290
     0
176
     1
290
     0
176
     1
290
     0
176
     1
290
     0
176
     1
 90
       50
176
     1
 40
0.0
176
     1
 40
1.0
176
     1
 90
        0
176
     1
 62
    18
420
        0
176
     1
 90
       50
176
     1
 90
        3
176
     1
 62
     5
420
      255
176
     1
290
     0
176
     1
 90
       50
176
     1
 90
       50
176
     1
 90
       50
176
     1
290
     0
176
     1
 90
       50
176
     1
 62
   256
176
     0
 40
1.0
176
     0
 90
        2
176
     1
  1
strokes_ogs.tif
176
     1
290
     0
176
     1
 40
1.0
176
     1
 40
1.0
176
     1
  0
VISUALSTYLE
  5
41
102
{ACAD_REACTORS
330
2A
102
}
330
2A
100
AcDbVisualStyle
  2
Shaded with edges
 70
    26
177
     3
291
     0
 70
    58
 90
        2
176
     1
 90
        2
176
     1
 90
        1
176
     1
 90
        2
176
     1
 40
0.6
176
     1
 40
30.0
176
     1
 62
     7
420
 16777215
176
     1
 90
        1
176
     1
 90
       10
176
     1
 62
     7
176
     1
 62
   257
176
     1
 90
        2
176
     1
 90
        1
176
     1
 40
1.0
176
     1
 90
        8
176
     1
 62
   257
176
     1
 40
1.0
176
     1
 90
        1
176
     1
 90
        6
176
     1
 90
        2
176
     1
 62
     7
176
     1
 90
        3
176
     1
 90
        0
176
     1
 90
        0
176
     1
290
     0
176
     1
 90
        5
176
     1
 40
0.0
176
     1
 90
        0
176
     1
290
     0
176
     1
290
     1
176
     1
290
     1
176
     1
290
     0
176
     1
290
     0
176
     1
290
     0
176
     1
290
     0
176
     1
290
     0
176
     1
290
     0
176
     1
 90
       50
176
     1
 40
0.0
176
     1
 40
1.0
176
     1
 90
        0
176
     1
 62
    18
420
        0
176
     1
 90
       50
176
     1
 90
        3
176
     1
 62
     5
420
      255
176
     1
290
     0
176
     1
 90
       50
176
     1
 90
       50
176
     1
 90
       50
176
     1
290
     0
176
     1
 90
       50
176
     1
 62
   256
176
     0
 40
1.0
176
     0
 90
        2
176
     1
  1
strokes_ogs.tif
176
     1
290
     0
176
     1
 40
1.0
176
     1
 40
1.0
176
     1
  0
VISUALSTYLE
  5
3E
102
{ACAD_REACTORS
330
2A
102
}
330
2A
100
AcDbVisualStyle
  2
Shades of Gray
 70
    23
177
     3
291
     0
 70
    58
 90
        2
176
     1
 90
        2
176
     1
 90
        3
176
     1
 90
        0
176
     1
 40
0.6
176
     1
 40
30.0
176
     1
 62
     7
420
 16777215
176
     1
 90
        2
176
     1
 90
        2
176
     1
 62
     7
176
     1
 62
     7
176
     1
 90
        1
176
     1
 90
        1
176
     1
 40
40.0
176
     1
 90
        8
176
     1
 62
     7
176
     1
 40
1.0
176
     1
 90
        1
176
     1
 90
        6
176
     1
 90
        2
176
     1
 62
     7
176
     1
 90
        3
176
     1
 90
        0
176
     1
 90
        0
176
     1
290
     0
176
     1
 90
        1
176
     1
 40
0.0
176
     1
 90
        0
176
     1
290
     0
176
     1
290
     1
176
     1
290
     1
176
     1
290
     0
176
     1
290
     0
176
     1
290
     0
176
     1
290
     0
176
     1
290
     0
176
     1
290
     0
176
     1
 90
       50
176
     1
 40
0.0
176
     1
 40
1.0
176
     1
 90
        0
176
     1
 62
    18
420
        0
176
     1
 90
       50
176
     1
 90
        3
176
     1
 62
     5
420
      255
176
     1
290
     0
176
     1
 90
       50
176
     1
 90
       50
176
     1
 90
       50
176
     1
290
     0
176
     1
 90
       50
176
     1
 62
   256
176
     0
 40
1.0
176
     0
 90
        2
176
     1
  1
strokes_ogs.tif
176
     1
290
     0
176
     1
 40
1.0
176
     1
 40
1.0
176
     1
  0
VISUALSTYLE
  5
3F
102
{ACAD_REACTORS
330
2A
102
}
330
2A
100
AcDbVisualStyle
  2
Sketchy
 70
    24
177
     3
291
     0
 70
    58
 90
        1
176
     1
 90
        2
176
     1
 90
        2
176
     1
 90
        0
176
     1
 40
0.6
176
     1
 40
30.0
176
     1
 62
     7
420
 16777215
176
     1
 90
        2
176
     1
 90
        2
176
     1
 62
     7
176
     1
 62
     7
176
     1
 90
        1
176
     1
 90
        1
176
     1
 40
40.0
176
     1
 90
       11
176
     1
 62
     7
176
     1
 40
1.0
176
     1
 90
        1
176
     1
 90
        6
176
     1
 90
        2
176
     1
 62
     7
176
     1
 90
        6
176
     1
 90
        0
176
     1
 90
        0
176
     1
290
     0
176
     1
 90
        1
176
     1
 40
0.0
176
     1
 90
        0
176
     1
290
     0
176
     1
290
     1
176
     1
290
     1
176
     1
290
     0
176
     1
290
     0
176
     1
290
     0
176
     1
290
     0
176
     1
290
     0
176
     1
290
     0
176
     1
 90
       50
176
     1
 40
0.0
176
     1
 40
1.0
176
     1
 90
        0
176
     1
 62
    18
420
        0
176
     1
 90
       50
176
     1
 90
        3
176
     1
 62
     5
420
      255
176
     1
290
     0
176
     1
 90
       50
176
     1
 90
       50
176
     1
 90
       50
176
     1
290
     0
176
     1
 90
       50
176
     1
 62
   256
176
     0
 40
1.0
176
     0
 90
        2
176
     1
  1
strokes_ogs.tif
176
     1
290
     0
176
     1
 40
1.0
176
     1
 40
1.0
176
     1
  0
VISUALSTYLE
  5
37
102
{ACAD_REACTORS
330
2A
102
}
330
2A
100
AcDbVisualStyle
  2
Thicken
 70
    13
177
     3
291
     1
 70
    58
 90
        2
176
     1
 90
        2
176
     1
 90
        0
176
     1
 90
        0
176
     1
 40
0.6
176
     1
 40
30.0
176
     1
 62
     7
420
 16777215
176
     1
 90
        1
176
     1
 90
        4
176
     1
 62
     7
176
     1
 62
   257
176
     1
 90
        1
176
     1
 90
        1
176
     1
 40
1.0
176
     1
 90
       12
176
     1
 62
     7
176
     1
 40
1.0
176
     1
 90
        1
176
     1
 90
        6
176
     1
 90
        2
176
     1
 62
     7
176
     1
 90
        5
176
     1
 90
        0
176
     1
 90
        0
176
     1
290
     0
176
     1
 90
        1
176
     1
 40
0.0
176
     1
 90
        0
176
     1
290
     0
176
     1
290
     1
176
     1
290
     1
176
     1
290
     0
176
     1
290
     0
176
     1
290
     0
176
     1
290
     0
176
     1
290
     0
176
     1
290
     0
176
     1
 90
       50
176
     1
 40
0.0
176
     1
 40
1.0
176
     1
 90
        0
176
     1
 62
    18
420
        0
176
     1
 90
       50
176
     1
 90
        3
176
     1
 62
     5
420
      255
176
     1
290
     0
176
     1
 90
       50
176
     1
 90
       50
176
     1
 90
       50
176
     1
290
     0
176
     1
 90
       50
176
     1
 62
   256
176
     0
 40
1.0
176
     0
 90
        2
176
     1
  1
strokes_ogs.tif
176
     1
290
     0
176
     1
 40
1.0
176
     1
 40
1.0
176
     1
  0
VISUALSTYLE
  5
30
102
{ACAD_REACTORS
330
2A
102
}
330
2A
100
AcDbVisualStyle
  2
Wireframe
 70
     5
177
     3
291
     0
 70
    58
 90
        0
176
     1
 90
        2
176
     1
 90
        0
176
     1
 90
        0
176
     1
 40
0.6
176
     1
 40
30.0
176
     1
 62
     7
420
 16777215
176
     1
 90
        1
176
     1
 90
        4
176
     1
 62
     7
176
     1
 62
   257
176
     1
 90
        1
176
     1
 90
        1
176
     1
 40
1.0
176
     1
 90
        0
176
     1
 62
   257
176
     1
 40
1.0
176
     1
 90
        1
176
     1
 90
        6
176
     1
 90
        2
176
     1
 62
     7
176
     1
 90
        3
176
     1
 90
        0
176
     1
 90
        0
176
     1
290
     0
176
     1
 90
        1
176
     1
 40
0.0
176
     1
 90
        0
176
     1
290
     0
176
     1
290
     1
176
     1
290
     1
176
     1
290
     0
176
     1
290
     0
176
     1
290
     0
176
     1
290
     0
176
     1
290
     0
176
     1
290
     0
176
     1
 90
       50
176
     1
 40
0.0
176
     1
 40
1.0
176
     1
 90
        0
176
     1
 62
    18
420
        0
176
     1
 90
       50
176
     1
 90
        3
176
     1
 62
     5
420
      255
176
     1
290
     0
176
     1
 90
       50
176
     1
 90
       50
176
     1
 90
       50
176
     1
290
     0
176
     1
 90
       50
176
     1
 62
   256
176
     0
 40
1.0
176
     0
 90
        2
176
     1
  1
strokes_ogs.tif
176
     1
290
     0
176
     1
 40
1.0
176
     1
 40
1.0
176
     1
  0
VISUALSTYLE
  5
40
102
{ACAD_REACTORS
330
2A
102
}
330
2A
100
AcDbVisualStyle
  2
X-Ray
 70
    25
177
     3
291
     0
 70
    58
 90
        2
176
     1
 90
        2
176
     1
 90
        1
176
     1
 90
        1
176
     1
 40
0.5
176
     1
 40
30.0
176
     1
 62
     7
420
 16777215
176
     1
 90
        1
176
     1
 90
        0
176
     1
 62
     7
176
     1
 62
   257
176
     1
 90
        1
176
     1
 90
        1
176
     1
 40
1.0
176
     1
 90
        8
176
     1
 62
     7
176
     1
 40
1.0
176
     1
 90
        1
176
     1
 90
        6
176
     1
 90
        2
176
     1
 62
     7
176
     1
 90
        3
176
     1
 90
        0
176
     1
 90
        0
176
     1
290
     0
176
     1
 90
       13
176
     1
 40
0.0
176
     1
 90
        0
176
     1
290
     0
176
     1
290
     1
176
     1
290
     1
176
     1
290
     0
176
     1
290
     0
176
     1
290
     0
176
     1
290
     0
176
     1
290
     0
176
     1
290
     0
176
     1
 90
       50
176
     1
 40
0.0
176
     1
 40
1.0
176
     1
 90
        0
176
     1
 62
    18
420
        0
176
     1
 90
       50
176
     1
 90
        3
176
     1
 62
     5
420
      255
176
     1
290
     0
176
     1
 90
       50
176
     1
 90
       50
176
     1
 90
       50
176
     1
290
     0
176
     1
 90
       50
176
     1
 62
   256
176
     0
 40
1.0
176
     0
 90
        2
176
     1
  1
strokes_ogs.tif
176
     1
290
     0
176
     1
 40
1.0
176
     1
 40
1.0
176
     1
  0
DICTIONARYVAR
  5
424
102
{ACAD_REACTORS
330
423
102
}
330
423
100
DictionaryVariables
280
     0
  1
1:1
  0
DICTIONARYVAR
  5
42C
102
{ACAD_REACTORS
330
423
102
}
330
423
100
DictionaryVariables
280
     0
  1
3.500000
  0
DICTIONARYVAR
  5
42D
102
{ACAD_REACTORS
330
423
102
}
330
423
100
DictionaryVariables
280
     0
  1
acadiso.lin
  0
DICTIONARYVAR
  5
429
102
{ACAD_REACTORS
330
423
102
}
330
423
100
DictionaryVariables
280
     0
  1
Standard
  0
DICTIONARYVAR
  5
428
102
{ACAD_REACTORS
330
423
102
}
330
423
100
DictionaryVariables
280
     0
  1
Standard
  0
DICTIONARY
  5
425
330
6A
100
AcDbDictionary
280
     1
281
     1
  3
ACAD_ROUNDTRIP_2008_TABLESTYLE_CELLSTYLEMAP
360
426
  0
CELLSTYLEMAP
  5
426
102
{ACAD_REACTORS
330
425
102
}
330
425
100
AcDbCellStyleMap
 90
        3
300
CELLSTYLE
  1
TABLEFORMAT_BEGIN
 90
        5
170
     1
 91
        0
 92
    32768
 62
   257
 93
        1
300
CONTENTFORMAT
  1
CONTENTFORMAT_BEGIN
 90
        0
 91
        0
 92
        4
 93
        0
300

 40
0.0
140
1.0
 94
        5
 62
     0
340
11
144
6.0
309
CONTENTFORMAT_END
171
     1
301
MARGIN
  1
CELLMARGIN_BEGIN
 40
1.5
 40
1.5
 40
1.5
 40
1.5
 40
1.5
 40
1.5
309
CELLMARGIN_END
 94
        6
 95
        1
302
GRIDFORMAT
  1
GRIDFORMAT_BEGIN
 90
        0
 91
        1
 62
     0
 92
       -2
340
14
 93
        0
 40
0.045
309
GRIDFORMAT_END
 95
        2
302
GRIDFORMAT
  1
GRIDFORMAT_BEGIN
 90
        0
 91
        1
 62
     0
 92
       -2
340
14
 93
        0
 40
0.045
309
GRIDFORMAT_END
 95
        4
302
GRIDFORMAT
  1
GRIDFORMAT_BEGIN
 90
        0
 91
        1
 62
     0
 92
       -2
340
14
 93
        0
 40
0.045
309
GRIDFORMAT_END
 95
        8
302
GRIDFORMAT
  1
GRIDFORMAT_BEGIN
 90
        0
 91
        1
 62
     0
 92
       -2
340
14
 93
        0
 40
0.045
309
GRIDFORMAT_END
 95
       16
302
GRIDFORMAT
  1
GRIDFORMAT_BEGIN
 90
        0
 91
        1
 62
     0
 92
       -2
340
14
 93
        0
 40
0.045
309
GRIDFORMAT_END
 95
       32
302
GRIDFORMAT
  1
GRIDFORMAT_BEGIN
 90
        0
 91
        1
 62
     0
 92
       -2
340
14
 93
        0
 40
0.045
309
GRIDFORMAT_END
309
TABLEFORMAT_END
  1
CELLSTYLE_BEGIN
 90
        1
 91
        1
300
_TITLE
309
CELLSTYLE_END
300
CELLSTYLE
  1
TABLEFORMAT_BEGIN
 90
        5
170
     1
 91
        0
 92
        0
 62
   257
 93
        1
300
CONTENTFORMAT
  1
CONTENTFORMAT_BEGIN
 90
        0
 91
        0
 92
        4
 93
        0
300

 40
0.0
140
1.0
 94
        5
 62
     0
340
11
144
4.5
309
CONTENTFORMAT_END
171
     1
301
MARGIN
  1
CELLMARGIN_BEGIN
 40
1.5
 40
1.5
 40
1.5
 40
1.5
 40
1.5
 40
1.5
309
CELLMARGIN_END
 94
        6
 95
        1
302
GRIDFORMAT
  1
GRIDFORMAT_BEGIN
 90
        0
 91
        1
 62
     0
 92
       -2
340
14
 93
        0
 40
0.045
309
GRIDFORMAT_END
 95
        2
302
GRIDFORMAT
  1
GRIDFORMAT_BEGIN
 90
        0
 91
        1
 62
     0
 92
       -2
340
14
 93
        0
 40
0.045
309
GRIDFORMAT_END
 95
        4
302
GRIDFORMAT
  1
GRIDFORMAT_BEGIN
 90
        0
 91
        1
 62
     0
 92
       -2
340
14
 93
        0
 40
0.045
309
GRIDFORMAT_END
 95
        8
302
GRIDFORMAT
  1
GRIDFORMAT_BEGIN
 90
        0
 91
        1
 62
     0
 92
       -2
340
14
 93
        0
 40
0.045
309
GRIDFORMAT_END
 95
       16
302
GRIDFORMAT
  1
GRIDFORMAT_BEGIN
 90
        0
 91
        1
 62
     0
 92
       -2
340
14
 93
        0
 40
0.045
309
GRIDFORMAT_END
 95
       32
302
GRIDFORMAT
  1
GRIDFORMAT_BEGIN
 90
        0
 91
        1
 62
     0
 92
       -2
340
14
 93
        0
 40
0.045
309
GRIDFORMAT_END
309
TABLEFORMAT_END
  1
CELLSTYLE_BEGIN
 90
        2
 91
        1
300
_HEADER
309
CELLSTYLE_END
300
CELLSTYLE
  1
TABLEFORMAT_BEGIN
 90
        5
170
     1
 91
        0
 92
        0
 62
   257
 93
        1
300
CONTENTFORMAT
  1
CONTENTFORMAT_BEGIN
 90
        0
 91
        0
 92
        4
 93
        0
300

 40
0.0
140
1.0
 94
        2
 62
     0
340
11
144
4.5
309
CONTENTFORMAT_END
171
     1
301
MARGIN
  1
CELLMARGIN_BEGIN
 40
1.5
 40
1.5
 40
1.5
 40
1.5
 40
1.5
 40
1.5
309
CELLMARGIN_END
 94
        6
 95
        1
302
GRIDFORMAT
  1
GRIDFORMAT_BEGIN
 90
        0
 91
        1
 62
     0
 92
       -2
340
14
 93
        0
 40
0.045
309
GRIDFORMAT_END
 95
        2
302
GRIDFORMAT
  1
GRIDFORMAT_BEGIN
 90
        0
 91
        1
 62
     0
 92
       -2
340
14
 93
        0
 40
0.045
309
GRIDFORMAT_END
 95
        4
302
GRIDFORMAT
  1
GRIDFORMAT_BEGIN
 90
        0
 91
        1
 62
     0
 92
       -2
340
14
 93
        0
 40
0.045
309
GRIDFORMAT_END
 95
        8
302
GRIDFORMAT
  1
GRIDFORMAT_BEGIN
 90
        0
 91
        1
 62
     0
 92
       -2
340
14
 93
        0
 40
0.045
309
GRIDFORMAT_END
 95
       16
302
GRIDFORMAT
  1
GRIDFORMAT_BEGIN
 90
        0
 91
        1
 62
     0
 92
       -2
340
14
 93
        0
 40
0.045
309
GRIDFORMAT_END
 95
       32
302
GRIDFORMAT
  1
GRIDFORMAT_BEGIN
 90
        0
 91
        1
 62
     0
 92
       -2
340
14
 93
        0
 40
0.045
309
GRIDFORMAT_END
309
TABLEFORMAT_END
  1
CELLSTYLE_BEGIN
 90
        3
 91
        2
300
_DATA
309
CELLSTYLE_END
  0
ENDSEC
  0
EOF
