  0
SECTION
  2
HEADER
  9
$ACADVER
  1
AC1027
  9
$ACADMAINTVER
 70
   105
  9
$DWGCODEPAGE
  3
ANSI_932
  9
$REQUIREDVERSIONS
160
                 0
  9
$INSBASE
 10
0.0
 20
0.0
 30
0.0
  9
$EXTMIN
 10
-840.0
 20
-594.0
 30
0.0
  9
$EXTMAX
 10
840.0
 20
594.0
 30
0.0
  9
$LIMMIN
 10
-840.0
 20
-594.0
  9
$LIMMAX
 10
840.0
 20
594.0
  9
$ORTHOMODE
 70
     0
  9
$REGENMODE
 70
     1
  9
$FILLMODE
 70
     1
  9
$QTEXTMODE
 70
     0
  9
$MIRRTEXT
 70
     1
  9
$LTSCALE
 40
4.0
  9
$ATTMODE
 70
     1
  9
$TEXTSIZE
 40
2.5
  9
$TRACEWID
 40
1.0
  9
$TEXTSTYLE
  7
Standard
  9
$CLAYER
  8
0
  9
$CELTYPE
  6
ByLayer
  9
$CECOLOR
 62
   256
  9
$CELTSCALE
 40
1.0
  9
$DISPSILH
 70
     0
  9
$DIMSCALE
 40
1.0
  9
$DIMASZ
 40
2.5
  9
$DIMEXO
 40
0.625
  9
$DIMDLI
 40
3.75
  9
$DIMRND
 40
0.0
  9
$DIMDLE
 40
0.0
  9
$DIMEXE
 40
1.25
  9
$DIMTP
 40
0.0
  9
$DIMTM
 40
0.0
  9
$DIMTXT
 40
2.5
  9
$DIMCEN
 40
2.5
  9
$DIMTSZ
 40
0.0
  9
$DIMTOL
 70
     0
  9
$DIMLIM
 70
     0
  9
$DIMTIH
 70
     0
  9
$DIMTOH
 70
     0
  9
$DIMSE1
 70
     0
  9
$DIMSE2
 70
     0
  9
$DIMTAD
 70
     1
  9
$DIMZIN
 70
     8
  9
$DIMBLK
  1

  9
$DIMASO
 70
     1
  9
$DIMSHO
 70
     1
  9
$DIMPOST
  1

  9
$DIMAPOST
  1

  9
$DIMALT
 70
     0
  9
$DIMALTD
 70
     3
  9
$DIMALTF
 40
0.03937007874016
  9
$DIMLFAC
 40
1.0
  9
$DIMTOFL
 70
     1
  9
$DIMTVP
 40
0.0
  9
$DIMTIX
 70
     0
  9
$DIMSOXD
 70
     0
  9
$DIMSAH
 70
     0
  9
$DIMBLK1
  1

  9
$DIMBLK2
  1

  9
$DIMSTYLE
  2
ISO-25
  9
$DIMCLRD
 70
     0
  9
$DIMCLRE
 70
     0
  9
$DIMCLRT
 70
     0
  9
$DIMTFAC
 40
1.0
  9
$DIMGAP
 40
0.625
  9
$DIMJUST
 70
     0
  9
$DIMSD1
 70
     0
  9
$DIMSD2
 70
     0
  9
$DIMTOLJ
 70
     0
  9
$DIMTZIN
 70
     8
  9
$DIMALTZ
 70
     0
  9
$DIMALTTZ
 70
     0
  9
$DIMUPT
 70
     0
  9
$DIMDEC
 70
     2
  9
$DIMTDEC
 70
     2
  9
$DIMALTU
 70
     2
  9
$DIMALTTD
 70
     3
  9
$DIMTXSTY
  7
Standard
  9
$DIMAUNIT
 70
     0
  9
$DIMADEC
 70
     0
  9
$DIMALTRND
 40
0.0
  9
$DIMAZIN
 70
     0
  9
$DIMDSEP
 70
    44
  9
$DIMATFIT
 70
     3
  9
$DIMFRAC
 70
     0
  9
$DIMLDRBLK
  1

  9
$DIMLUNIT
 70
     2
  9
$DIMLWD
 70
    -2
  9
$DIMLWE
 70
    -2
  9
$DIMTMOVE
 70
     0
  9
$DIMFXL
 40
1.0
  9
$DIMFXLON
 70
     0
  9
$DIMJOGANG
 40
0.7853981633974483
  9
$DIMTFILL
 70
     0
  9
$DIMTFILLCLR
 70
     0
  9
$DIMARCSYM
 70
     0
  9
$DIMLTYPE
  6

  9
$DIMLTEX1
  6

  9
$DIMLTEX2
  6

  9
$DIMTXTDIRECTION
 70
     0
  9
$LUNITS
 70
     2
  9
$LUPREC
 70
     4
  9
$SKETCHINC
 40
1.0
  9
$FILLETRAD
 40
10.0
  9
$AUNITS
 70
     0
  9
$AUPREC
 70
     0
  9
$MENU
  1
.
  9
$ELEVATION
 40
0.0
  9
$PELEVATION
 40
0.0
  9
$THICKNESS
 40
0.0
  9
$LIMCHECK
 70
     0
  9
$CHAMFERA
 40
0.0
  9
$CHAMFERB
 40
0.0
  9
$CHAMFERC
 40
0.0
  9
$CHAMFERD
 40
0.0
  9
$SKPOLY
 70
     0
  9
$TDCREATE
 40
2458817.40817728
  9
$TDUCREATE
 40
2458817.03317728
  9
$TDUPDATE
 40
2458817.408177384
  9
$TDUUPDATE
 40
2458817.033177384
  9
$TDINDWG
 40
0.0000000116
  9
$TDUSRTIMER
 40
0.0000000116
  9
$USRTIMER
 70
     1
  9
$ANGBASE
 50
0.0
  9
$ANGDIR
 70
     0
  9
$PDMODE
 70
     0
  9
$PDSIZE
 40
0.0
  9
$PLINEWID
 40
0.0
  9
$SPLFRAME
 70
     0
  9
$SPLINETYPE
 70
     6
  9
$SPLINESEGS
 70
     8
  9
$HANDSEED
  5
4AB
  9
$SURFTAB1
 70
     6
  9
$SURFTAB2
 70
     6
  9
$SURFTYPE
 70
     6
  9
$SURFU
 70
     6
  9
$SURFV
 70
     6
  9
$UCSBASE
  2

  9
$UCSNAME
  2

  9
$UCSORG
 10
0.0
 20
0.0
 30
0.0
  9
$UCSXDIR
 10
1.0
 20
0.0
 30
0.0
  9
$UCSYDIR
 10
0.0
 20
1.0
 30
0.0
  9
$UCSORTHOREF
  2

  9
$UCSORTHOVIEW
 70
     0
  9
$UCSORGTOP
 10
0.0
 20
0.0
 30
0.0
  9
$UCSORGBOTTOM
 10
0.0
 20
0.0
 30
0.0
  9
$UCSORGLEFT
 10
0.0
 20
0.0
 30
0.0
  9
$UCSORGRIGHT
 10
0.0
 20
0.0
 30
0.0
  9
$UCSORGFRONT
 10
0.0
 20
0.0
 30
0.0
  9
$UCSORGBACK
 10
0.0
 20
0.0
 30
0.0
  9
$PUCSBASE
  2

  9
$PUCSNAME
  2

  9
$PUCSORG
 10
0.0
 20
0.0
 30
0.0
  9
$PUCSXDIR
 10
1.0
 20
0.0
 30
0.0
  9
$PUCSYDIR
 10
0.0
 20
1.0
 30
0.0
  9
$PUCSORTHOREF
  2

  9
$PUCSORTHOVIEW
 70
     0
  9
$PUCSORGTOP
 10
0.0
 20
0.0
 30
0.0
  9
$PUCSORGBOTTOM
 10
0.0
 20
0.0
 30
0.0
  9
$PUCSORGLEFT
 10
0.0
 20
0.0
 30
0.0
  9
$PUCSORGRIGHT
 10
0.0
 20
0.0
 30
0.0
  9
$PUCSORGFRONT
 10
0.0
 20
0.0
 30
0.0
  9
$PUCSORGBACK
 10
0.0
 20
0.0
 30
0.0
  9
$USERI1
 70
     0
  9
$USERI2
 70
     0
  9
$USERI3
 70
     0
  9
$USERI4
 70
     0
  9
$USERI5
 70
     0
  9
$USERR1
 40
0.0
  9
$USERR2
 40
0.0
  9
$USERR3
 40
0.0
  9
$USERR4
 40
0.0
  9
$USERR5
 40
0.0
  9
$WORLDVIEW
 70
     1
  9
$SHADEDGE
 70
     3
  9
$SHADEDIF
 70
    70
  9
$TILEMODE
 70
     1
  9
$MAXACTVP
 70
    64
  9
$PINSBASE
 10
0.0
 20
0.0
 30
0.0
  9
$PLIMCHECK
 70
     0
  9
$PEXTMIN
 10
1.000000000000000E+20
 20
1.000000000000000E+20
 30
1.000000000000000E+20
  9
$PEXTMAX
 10
-1.000000000000000E+20
 20
-1.000000000000000E+20
 30
-1.000000000000000E+20
  9
$PLIMMIN
 10
0.0
 20
0.0
  9
$PLIMMAX
 10
420.0
 20
297.0
  9
$UNITMODE
 70
     0
  9
$VISRETAIN
 70
     1
  9
$PLINEGEN
 70
     0
  9
$PSLTSCALE
 70
     1
  9
$TREEDEPTH
 70
  3020
  9
$CMLSTYLE
  2
Standard
  9
$CMLJUST
 70
     0
  9
$CMLSCALE
 40
20.0
  9
$PROXYGRAPHICS
 70
     1
  9
$MEASUREMENT
 70
     1
  9
$CELWEIGHT
370
    -1
  9
$ENDCAPS
280
     0
  9
$JOINSTYLE
280
     0
  9
$LWDISPLAY
290
     0
  9
$INSUNITS
 70
     4
  9
$HYPERLINKBASE
  1

  9
$STYLESHEET
  1

  9
$XEDIT
290
     1
  9
$CEPSNTYPE
380
     0
  9
$PSTYLEMODE
290
     1
  9
$FINGERPRINTGUID
  2
{6EC1591C-B596-4659-B33A-E1298F7745A2}
  9
$VERSIONGUID
  2
{FAEB1C32-E019-11D5-929B-00C0DF256EC4}
  9
$EXTNAMES
290
     1
  9
$PSVPSCALE
 40
0.0
  9
$OLESTARTUP
290
     0
  9
$SORTENTS
280
   127
  9
$INDEXCTL
280
     0
  9
$HIDETEXT
280
     1
  9
$XCLIPFRAME
280
     2
  9
$HALOGAP
280
     0
  9
$OBSCOLOR
 70
   257
  9
$OBSLTYPE
280
     0
  9
$INTERSECTIONDISPLAY
280
     0
  9
$INTERSECTIONCOLOR
 70
   257
  9
$DIMASSOC
280
     2
  9
$PROJECTNAME
  1

  9
$CAMERADISPLAY
290
     0
  9
$LENSLENGTH
 40
50.0
  9
$CAMERAHEIGHT
 40
0.0
  9
$STEPSPERSEC
 40
2.0
  9
$STEPSIZE
 40
6.0
  9
$3DDWFPREC
 40
2.0
  9
$PSOLWIDTH
 40
5.0
  9
$PSOLHEIGHT
 40
80.0
  9
$LOFTANG1
 40
1.570796326794897
  9
$LOFTANG2
 40
1.570796326794897
  9
$LOFTMAG1
 40
0.0
  9
$LOFTMAG2
 40
0.0
  9
$LOFTPARAM
 70
     7
  9
$LOFTNORMALS
280
     1
  9
$LATITUDE
 40
37.795
  9
$LONGITUDE
 40
-122.394
  9
$NORTHDIRECTION
 40
0.0
  9
$TIMEZONE
 70
 -8000
  9
$LIGHTGLYPHDISPLAY
280
     1
  9
$TILEMODELIGHTSYNCH
280
     1
  9
$CMATERIAL
347
44
  9
$SOLIDHIST
280
     0
  9
$SHOWHIST
280
     1
  9
$DWFFRAME
280
     2
  9
$DGNFRAME
280
     2
  9
$REALWORLDSCALE
290
     1
  9
$INTERFERECOLOR
 62
   256
  9
$CSHADOW
280
     0
  9
$SHADOWPLANELOCATION
 40
0.0
  0
ENDSEC
  0
SECTION
  2
CLASSES
  0
CLASS
  1
ACDBDICTIONARYWDFLT
  2
AcDbDictionaryWithDefault
  3
ObjectDBX Classes
 90
        0
 91
        4
280
     0
281
     0
  0
CLASS
  1
VISUALSTYLE
  2
AcDbVisualStyle
  3
ObjectDBX Classes
 90
     4095
 91
        4
280
     0
281
     0
  0
CLASS
  1
MATERIAL
  2
AcDbMaterial
  3
ObjectDBX Classes
 90
     1153
 91
        4
280
     0
281
     0
  0
CLASS
  1
SCALE
  2
AcDbScale
  3
ObjectDBX Classes
 90
     1153
 91
        4
280
     0
281
     0
  0
CLASS
  1
TABLESTYLE
  2
AcDbTableStyle
  3
ObjectDBX Classes
 90
     4095
 91
        4
280
     0
281
     0
  0
CLASS
  1
MLEADERSTYLE
  2
AcDbMLeaderStyle
  3
ACDB_MLEADERSTYLE_CLASS
 90
     4095
 91
        4
280
     0
281
     0
  0
CLASS
  1
SUN
  2
AcDbSun
  3
SCENEOE
 90
     1153
 91
        4
280
     0
281
     0
  0
CLASS
  1
DICTIONARYVAR
  2
AcDbDictionaryVar
  3
ObjectDBX Classes
 90
        0
 91
        4
280
     0
281
     0
  0
CLASS
  1
CELLSTYLEMAP
  2
AcDbCellStyleMap
  3
ObjectDBX Classes
 90
     1152
 91
        4
280
     0
281
     0
  0
ENDSEC
  0
SECTION
  2
TABLES
  0
TABLE
  2
VPORT
  5
8
330
0
100
AcDbSymbolTable
 70
     1
  0
VPORT
  5
29
330
8
100
AcDbSymbolTableRecord
100
AcDbViewportTableRecord
  2
*Active
 70
     0
 10
0.0
 20
0.0
 11
1.0
 21
1.0
 12
0.0
 22
0.0
 13
0.0
 23
0.0
 14
10.0
 24
10.0
 15
10.0
 25
10.0
 16
0.0
 26
0.0
 36
1.0
 17
0.0
 27
0.0
 37
0.0
 40
1306.8
 41
1.414141414141414
 42
50.0
 43
0.0
 44
0.0
 50
0.0
 51
0.0
 71
     0
 72
 10000
 73
     1
 74
     3
 75
     0
 76
     0
 77
     0
 78
     0
281
     0
 65
     1
110
0.0
120
0.0
130
0.0
111
1.0
121
0.0
131
0.0
112
0.0
122
1.0
132
0.0
 79
     0
146
0.0
348
2F
 60
     3
 61
     5
292
     1
282
     1
141
0.0
142
0.0
 63
   250
361
6D
  0
ENDTAB
  0
TABLE
  2
LTYPE
  5
5
330
0
100
AcDbSymbolTable
 70
     4
  0
LTYPE
  5
14
330
5
100
AcDbSymbolTableRecord
100
AcDbLinetypeTableRecord
  2
ByBlock
 70
     0
  3

 72
    65
 73
     0
 40
0.0
  0
LTYPE
  5
15
330
5
100
AcDbSymbolTableRecord
100
AcDbLinetypeTableRecord
  2
ByLayer
 70
     0
  3

 72
    65
 73
     0
 40
0.0
  0
LTYPE
  5
16
330
5
100
AcDbSymbolTableRecord
100
AcDbLinetypeTableRecord
  2
Continuous
 70
     0
  3
Solid line
 72
    65
 73
     0
 40
0.0
  0
LTYPE
  5
6F
330
5
100
AcDbSymbolTableRecord
100
AcDbLinetypeTableRecord
  2
JWW_DASHED1
 70
     0
  3
-  --  --  --  --  --  --  --  -
 72
    65
 73
     2
 40
1.693333333333333
 49
0.8466666666666667
 74
     0
 49
-0.8466666666666667
 74
     0
  0
LTYPE
  5
70
330
5
100
AcDbSymbolTableRecord
100
AcDbLinetypeTableRecord
  2
JWW_CENTER1
 70
     0
  3
-----  --  ----------  --  -----
 72
    65
 73
     4
 40
6.773333333333333
 49
4.233333333333333
 74
     0
 49
-0.8466666666666667
 74
     0
 49
0.8466666666666667
 74
     0
 49
-0.8466666666666667
 74
     0
  0
LTYPE
  5
71
330
5
100
AcDbSymbolTableRecord
100
AcDbLinetypeTableRecord
  2
JWW_PHANTOM2
 70
     0
  3
------------  -  -  ------------
 72
    65
 73
     6
 40
13.54666666666667
 49
10.16
 74
     0
 49
-0.8466666666666667
 74
     0
 49
0.4233333333333333
 74
     0
 49
-0.8466666666666667
 74
     0
 49
0.4233333333333333
 74
     0
 49
-0.8466666666666667
 74
     0
  0
ENDTAB
  0
TABLE
  2
LAYER
  5
2
330
0
100
AcDbSymbolTable
 70
     8
  0
LAYER
  5
10
330
2
100
AcDbSymbolTableRecord
100
AcDbLayerTableRecord
  2
0
 70
     0
 62
     7
  6
Continuous
370
    -3
390
F
347
46
348
0
  0
LAYER
  5
72
330
2
100
AcDbSymbolTableRecord
100
AcDbLayerTableRecord
  2
1-3
 70
     0
 62
     7
  6
Continuous
370
    -3
390
F
347
46
348
0
  0
LAYER
  5
73
330
2
100
AcDbSymbolTableRecord
100
AcDbLayerTableRecord
  2
1-F
 70
     0
 62
     7
  6
Continuous
370
    -3
390
F
347
46
348
0
  0
LAYER
  5
74
330
2
100
AcDbSymbolTableRecord
100
AcDbLayerTableRecord
  2
0-1
 70
     0
 62
     7
  6
Continuous
370
    -3
390
F
347
46
348
0
  0
LAYER
  5
75
330
2
100
AcDbSymbolTableRecord
100
AcDbLayerTableRecord
  2
0-F
 70
     0
 62
     7
  6
Continuous
370
    -3
390
F
347
46
348
0
  0
LAYER
  5
76
330
2
100
AcDbSymbolTableRecord
100
AcDbLayerTableRecord
  2
0-E
 70
     0
 62
     7
  6
Continuous
370
    -3
390
F
347
46
348
0
  0
LAYER
  5
77
330
2
100
AcDbSymbolTableRecord
100
AcDbLayerTableRecord
  2
0-4
 70
     0
 62
     7
  6
Continuous
370
    -3
390
F
347
46
348
0
  0
LAYER
  5
78
330
2
100
AcDbSymbolTableRecord
100
AcDbLayerTableRecord
  2
F-5
 70
     0
 62
     7
  6
Continuous
370
    -3
390
F
347
46
348
0
  0
ENDTAB
  0
TABLE
  2
STYLE
  5
3
330
0
100
AcDbSymbolTable
 70
     2
  0
STYLE
  5
11
330
3
100
AcDbSymbolTableRecord
100
AcDbTextStyleTableRecord
  2
Standard
 70
     0
 40
0.0
 41
1.0
 50
0.0
 71
     0
 42
2.5
  3
txt
  4

  0
STYLE
  5
6E
330
3
100
AcDbSymbolTableRecord
100
AcDbTextStyleTableRecord
  2
ＭＳ ゴシック
 70
     0
 40
1.0
 41
1.0
 50
0.0
 71
     0
 42
2.5
  3

  4

1001
ACAD
1000
MS Gothic
1071
    32817
  0
ENDTAB
  0
TABLE
  2
VIEW
  5
6
330
0
100
AcDbSymbolTable
 70
     0
  0
ENDTAB
  0
TABLE
  2
UCS
  5
7
330
0
100
AcDbSymbolTable
 70
     0
  0
ENDTAB
  0
TABLE
  2
APPID
  5
9
330
0
100
AcDbSymbolTable
 70
     1
  0
APPID
  5
12
330
9
100
AcDbSymbolTableRecord
100
AcDbRegAppTableRecord
  2
ACAD
 70
     0
  0
ENDTAB
  0
TABLE
  2
DIMSTYLE
  5
A
330
0
100
AcDbSymbolTable
 70
     1
100
AcDbDimStyleTable
  0
DIMSTYLE
105
27
330
A
100
AcDbSymbolTableRecord
100
AcDbDimStyleTableRecord
  2
ISO-25
 70
     0
 41
2.5
 42
0.625
 43
3.75
 44
1.25
 73
     0
 74
     0
 77
     1
 78
     8
140
2.5
141
2.5
143
0.03937007874016
147
0.625
171
     3
172
     1
178
     0
271
     2
272
     2
274
     3
278
    44
283
     0
284
     8
340
11
  0
ENDTAB
  0
TABLE
  2
BLOCK_RECORD
  5
1
330
0
100
AcDbSymbolTable
 70
     1
  0
BLOCK_RECORD
  5
1F
330
1
100
AcDbSymbolTableRecord
100
AcDbBlockTableRecord
  2
*Model_Space
340
22
 70
     0
280
     1
281
     0
  0
BLOCK_RECORD
  5
1B
330
1
100
AcDbSymbolTableRecord
100
AcDbBlockTableRecord
  2
*Paper_Space
340
1E
 70
     0
280
     1
281
     0
  0
BLOCK_RECORD
  5
23
330
1
100
AcDbSymbolTableRecord
100
AcDbBlockTableRecord
  2
*Paper_Space0
340
26
 70
     0
280
     1
281
     0
  0
ENDTAB
  0
ENDSEC
  0
SECTION
  2
BLOCKS
  0
BLOCK
  5
20
330
1F
100
AcDbEntity
  8
0
100
AcDbBlockBegin
  2
*Model_Space
 70
     0
 10
0.0
 20
0.0
 30
0.0
  3
*Model_Space
  1

  0
ENDBLK
  5
21
330
1F
100
AcDbEntity
  8
0
100
AcDbBlockEnd
  0
BLOCK
  5
1C
330
1B
100
AcDbEntity
 67
     1
  8
0
100
AcDbBlockBegin
  2
*Paper_Space
 70
     0
 10
0.0
 20
0.0
 30
0.0
  3
*Paper_Space
  1

  0
ENDBLK
  5
1D
330
1B
100
AcDbEntity
 67
     1
  8
0
100
AcDbBlockEnd
  0
BLOCK
  5
24
330
23
100
AcDbEntity
  8
0
100
AcDbBlockBegin
  2
*Paper_Space0
 70
     0
 10
0.0
 20
0.0
 30
0.0
  3
*Paper_Space0
  1

  0
ENDBLK
  5
25
330
23
100
AcDbEntity
  8
0
100
AcDbBlockEnd
  0
ENDSEC
  0
SECTION
  2
ENTITIES
  0
LINE
  5
79
330
1F
100
AcDbEntity
  8
1-3
  6
Continuous
 62
     4
370
     9
100
AcDbLine
 10
74.29001425201506
 20
-333.456702131669
 30
0.0
 11
74.29001425201506
 21
-283.4567351236454
 31
0.0
  0
LINE
  5
7A
330
1F
100
AcDbEntity
  8
1-3
  6
Continuous
 62
     4
370
     9
100
AcDbLine
 10
106.2899218744813
 20
-333.456702131669
 30
0.0
 11
106.2899218744813
 21
-283.4567351236454
 31
0.0
  0
LINE
  5
7B
330
1F
100
AcDbEntity
  8
1-F
  6
Continuous
 62
     7
370
     9
100
AcDbLine
 10
47.22880753748808
 20
-333.456702131669
 30
0.0
 11
47.22880753748808
 21
-267.4567813124123
 31
0.0
  0
LINE
  5
7C
330
1F
100
AcDbEntity
  8
1-F
  6
Continuous
 62
     7
370
     9
100
AcDbLine
 10
82.28994166966714
 20
-267.4567813124123
 30
0.0
 11
46.02882337363673
 21
-267.4567813124123
 31
0.0
  0
LINE
  5
7D
330
1F
100
AcDbEntity
  8
1-F
  6
Continuous
 62
     7
370
     9
100
AcDbLine
 10
47.22880753748808
 20
-333.456702131669
 30
0.0
 11
45.66251346020766
 21
-321.5593995556555
 31
0.0
  0
LINE
  5
7E
330
1F
100
AcDbEntity
  8
1-F
  6
Continuous
 62
     7
370
     9
100
AcDbLine
 10
47.22880753748808
 20
-333.456702131669
 30
0.0
 11
48.79510161476838
 21
-321.5593995556555
 31
0.0
  0
LINE
  5
7F
330
1F
100
AcDbEntity
  8
1-F
  6
Continuous
 62
     7
370
     9
100
AcDbLine
 10
47.22880753748808
 20
-267.4567813124123
 30
0.0
 11
45.66251346020766
 21
-279.3540838884257
 31
0.0
  0
LINE
  5
80
330
1F
100
AcDbEntity
  8
1-F
  6
Continuous
 62
     7
370
     9
100
AcDbLine
 10
47.22880753748808
 20
-267.4567813124123
 30
0.0
 11
48.79510161476838
 21
-279.3540838884257
 31
0.0
  0
LINE
  5
81
330
1F
100
AcDbEntity
  8
1-F
  6
Continuous
 62
     7
370
     9
100
AcDbLine
 10
74.29001425201506
 20
-370.0049495978852
 30
0.0
 11
106.2899218744813
 21
-370.0049495978852
 31
0.0
  0
LINE
  5
82
330
1F
100
AcDbEntity
  8
1-F
  6
Continuous
 62
     7
370
     9
100
AcDbLine
 10
74.29001425201506
 20
-341.4567285252501
 30
0.0
 11
74.29001425201506
 21
-371.2049337617366
 31
0.0
  0
LINE
  5
83
330
1F
100
AcDbEntity
  8
1-F
  6
Continuous
 62
     7
370
     9
100
AcDbLine
 10
106.2899218744813
 20
-341.4567285252501
 30
0.0
 11
106.2899218744813
 21
-371.2049337617366
 31
0.0
  0
LINE
  5
84
330
1F
100
AcDbEntity
  8
1-F
  6
Continuous
 62
     7
370
     9
100
AcDbLine
 10
74.29001425201506
 20
-370.0049495978852
 30
0.0
 11
86.1873168280286
 21
-368.4385565446757
 31
0.0
  0
LINE
  5
85
330
1F
100
AcDbEntity
  8
1-F
  6
Continuous
 62
     7
370
     9
100
AcDbLine
 10
74.29001425201506
 20
-370.0049495978852
 30
0.0
 11
86.1873168280286
 21
-371.5712436751656
 31
0.0
  0
LINE
  5
86
330
1F
100
AcDbEntity
  8
1-F
  6
Continuous
 62
     7
370
     9
100
AcDbLine
 10
106.2899218744813
 20
-370.0049495978852
 30
0.0
 11
94.39261929846776
 21
-368.4385565446757
 31
0.0
  0
LINE
  5
87
330
1F
100
AcDbEntity
  8
1-F
  6
Continuous
 62
     7
370
     9
100
AcDbLine
 10
106.2899218744813
 20
-370.0049495978852
 30
0.0
 11
94.39261929846776
 21
-371.5712436751656
 31
0.0
  0
LINE
  5
88
330
1F
100
AcDbEntity
  8
1-F
  6
Continuous
 62
     7
370
     9
100
AcDbLine
 10
-49.82154481681943
 20
-413.8240677883413
 30
0.0
 11
230.4014809433157
 21
-413.8240677883413
 31
0.0
  0
LINE
  5
89
330
1F
100
AcDbEntity
  8
1-F
  6
Continuous
 62
     7
370
     9
100
AcDbLine
 10
-49.82154481681943
 20
-410.6201179889325
 30
0.0
 11
230.4014809433157
 21
-410.6201179889325
 31
0.0
  0
LINE
  5
8A
330
1F
100
AcDbEntity
  8
1-3
  6
Continuous
 62
     4
370
     9
100
AcDbLine
 10
20.28993507127183
 20
-333.456702131669
 30
0.0
 11
74.29001425201506
 21
-333.456702131669
 31
0.0
  0
LINE
  5
8B
330
1F
100
AcDbEntity
  8
1-3
  6
Continuous
 62
     4
370
     9
100
AcDbLine
 10
106.2899218744813
 20
-333.456702131669
 30
0.0
 11
160.2900010552245
 21
-333.456702131669
 31
0.0
  0
ARC
  5
8C
330
1F
100
AcDbEntity
  8
1-3
  6
Continuous
 62
     4
370
     9
100
AcDbCircle
 10
90.28996806324818
 20
-283.4567351236454
 30
0.0
 40
16.00000020619985
100
AcDbArc
 50
0.0
 51
180.0
  0
TEXT
  5
8D
330
1F
100
AcDbEntity
  8
1-F
  6
Continuous
 62
     7
370
     9
100
AcDbText
 10
-47.59843327754572
 20
-403.8549087934089
 30
0.0
 40
9.144
  1
アンカーボルト用切欠部詳細図　Ｓ＝１：２
 41
1.158333333333333
  7
ＭＳ ゴシック
100
AcDbText
  0
TEXT
  5
8E
330
1F
100
AcDbEntity
  8
1-F
  6
Continuous
 62
     2
370
     9
100
AcDbText
 10
81.79001755121271
 20
-363.7489611450769
 30
0.0
 40
12.192
  1
16
 41
1.0625
  7
ＭＳ ゴシック
100
AcDbText
  0
TEXT
  5
8F
330
1F
100
AcDbEntity
  8
1-F
  6
Continuous
 62
     2
370
     9
100
AcDbText
 10
40.97279434069745
 20
-308.9567417220406
 30
0.0
 40
12.192
  1
33
 50
90.0
 41
1.0625
  7
ＭＳ ゴシック
100
AcDbText
  0
LINE
  5
90
330
1F
100
AcDbEntity
  8
0-1
  6
Continuous
 62
     2
370
     9
100
AcDbLine
 10
427.8591904290471
 20
293.4215396800287
 30
0.0
 11
471.859236617814
 21
293.4215396800287
 31
0.0
  0
LINE
  5
91
330
1F
100
AcDbEntity
  8
0-1
  6
Continuous
 62
     2
370
     9
100
AcDbLine
 10
476.6592722491484
 20
350.4216782463294
 30
0.0
 11
479.8592630113951
 21
350.4216782463294
 31
0.0
  0
LINE
  5
92
330
1F
100
AcDbEntity
  8
0-1
  6
Continuous
 62
     2
370
     9
100
AcDbLine
 10
423.0591547977125
 20
301.6215964262281
 30
0.0
 11
423.0591547977125
 21
342.4216518527484
 31
0.0
  0
LINE
  5
93
330
1F
100
AcDbEntity
  8
0-1
  6
Continuous
 62
     2
370
     9
100
AcDbLine
 10
479.8592630113951
 20
301.4215660736098
 30
0.0
 11
479.8592630113951
 21
350.4216782463294
 31
0.0
  0
LINE
  5
94
330
1F
100
AcDbEntity
  8
0-1
  6
Continuous
 62
     2
370
     9
100
AcDbLine
 10
476.6592722491484
 20
301.6215964262281
 30
0.0
 11
476.6592722491484
 21
350.4216782463294
 31
0.0
  0
LINE
  5
95
330
1F
100
AcDbEntity
  8
0-1
  6
Continuous
 62
     2
370
     9
100
AcDbLine
 10
428.0591218057363
 20
296.6216294182044
 30
0.0
 11
471.6593052411249
 21
296.6216294182044
 31
0.0
  0
LINE
  5
96
330
1F
100
AcDbEntity
  8
0-1
  6
Continuous
 62
     2
370
     9
100
AcDbLine
 10
369.8592960033715
 20
347.2216874840827
 30
0.0
 11
369.8592960033715
 21
350.4216782463294
 31
0.0
  0
LINE
  5
97
330
1F
100
AcDbEntity
  8
0-1
  6
Continuous
 62
     2
370
     9
100
AcDbLine
 10
369.8592960033715
 20
347.2216874840827
 30
0.0
 11
414.8591970274423
 21
347.2216874840827
 31
0.0
  0
LINE
  5
98
330
1F
100
AcDbEntity
  8
0-1
  6
Continuous
 62
     2
370
     9
100
AcDbLine
 10
369.8592960033715
 20
350.4216782463294
 30
0.0
 11
415.0591284041315
 21
350.4216782463294
 31
0.0
  0
LINE
  5
99
330
1F
100
AcDbEntity
  8
0-1
  6
Continuous
 62
     2
370
     9
100
AcDbLine
 10
433.059187789689
 20
296.6216294182044
 30
0.0
 11
423.0591547977125
 21
306.6215634342517
 31
0.0
  0
LINE
  5
9A
330
1F
100
AcDbEntity
  8
0-1
  6
Continuous
 62
     2
370
     9
100
AcDbLine
 10
466.6592392571721
 20
296.6216294182044
 30
0.0
 11
476.6592722491484
 21
306.6215634342517
 31
0.0
  0
LINE
  5
9B
330
1F
100
AcDbEntity
  8
0-1
  6
Continuous
 62
     2
370
     9
100
AcDbLine
 10
423.0591547977125
 20
340.6216756069713
 30
0.0
 11
476.6592722491484
 21
340.6216756069713
 31
0.0
  0
LINE
  5
9C
330
1F
100
AcDbEntity
  8
0-1
  6
Continuous
 62
     2
370
     9
100
AcDbLine
 10
476.6592722491484
 20
317.4217178367011
 30
0.0
 11
479.8592630113951
 21
317.4217178367011
 31
0.0
  0
LINE
  5
9D
330
1F
100
AcDbEntity
  8
0-1
  6
Continuous
 62
     2
370
     9
100
AcDbLine
 10
458.3462509759221
 20
323.7216346969207
 30
0.0
 11
458.3462509759221
 21
333.5217363122077
 31
0.0
  0
LINE
  5
9E
330
1F
100
AcDbEntity
  8
0-1
  6
Continuous
 62
     2
370
     9
100
AcDbLine
 10
458.3462509759221
 20
333.5217363122077
 30
0.0
 11
449.8592630113951
 21
338.4216386559577
 31
0.0
  0
LINE
  5
9F
330
1F
100
AcDbEntity
  8
0-1
  6
Continuous
 62
     2
370
     9
100
AcDbLine
 10
449.8592630113951
 20
338.4216386559577
 30
0.0
 11
441.372176070939
 21
333.5217363122077
 31
0.0
  0
LINE
  5
A0
330
1F
100
AcDbEntity
  8
0-1
  6
Continuous
 62
     2
370
     9
100
AcDbLine
 10
441.372176070939
 20
333.5217363122077
 30
0.0
 11
441.372176070939
 21
323.7216346969207
 31
0.0
  0
LINE
  5
A1
330
1F
100
AcDbEntity
  8
0-1
  6
Continuous
 62
     2
370
     9
100
AcDbLine
 10
441.372176070939
 20
323.7216346969207
 30
0.0
 11
449.8592630113951
 21
318.8217323531707
 31
0.0
  0
LINE
  5
A2
330
1F
100
AcDbEntity
  8
0-1
  6
Continuous
 62
     2
370
     9
100
AcDbLine
 10
449.8592630113951
 20
318.8217323531707
 30
0.0
 11
458.3462509759221
 21
323.7216346969207
 31
0.0
  0
LINE
  5
A3
330
1F
100
AcDbEntity
  8
0-1
  6
Continuous
 62
     2
370
     9
100
AcDbLine
 10
449.8592630113951
 20
-31.97835606532604
 30
0.0
 11
458.3462509759221
 21
-36.8783573850051
 31
0.0
  0
LINE
  5
A4
330
1F
100
AcDbEntity
  8
0-1
  6
Continuous
 62
     2
370
     9
100
AcDbLine
 10
441.372176070939
 20
-36.8783573850051
 30
0.0
 11
449.8592630113951
 21
-31.97835606532604
 31
0.0
  0
LINE
  5
A5
330
1F
100
AcDbEntity
  8
0-1
  6
Continuous
 62
     2
370
     9
100
AcDbLine
 10
441.372176070939
 20
-46.67836002436323
 30
0.0
 11
441.372176070939
 21
-36.8783573850051
 31
0.0
  0
LINE
  5
A6
330
1F
100
AcDbEntity
  8
0-1
  6
Continuous
 62
     2
370
     9
100
AcDbLine
 10
449.8592630113951
 20
-51.57836134404229
 30
0.0
 11
441.372176070939
 21
-46.67836002436323
 31
0.0
  0
LINE
  5
A7
330
1F
100
AcDbEntity
  8
0-1
  6
Continuous
 62
     2
370
     9
100
AcDbLine
 10
458.3462509759221
 20
-46.67836002436323
 30
0.0
 11
449.8592630113951
 21
-51.57836134404229
 31
0.0
  0
LINE
  5
A8
330
1F
100
AcDbEntity
  8
0-1
  6
Continuous
 62
     2
370
     9
100
AcDbLine
 10
458.3462509759221
 20
-36.8783573850051
 30
0.0
 11
458.3462509759221
 21
-46.67836002436323
 31
0.0
  0
LINE
  5
A9
330
1F
100
AcDbEntity
  8
0-1
  6
Continuous
 62
     2
370
     9
100
AcDbLine
 10
476.6592722491484
 20
-30.57839103682093
 30
0.0
 11
479.8592630113951
 21
-30.57839103682093
 31
0.0
  0
LINE
  5
AA
330
1F
100
AcDbEntity
  8
0-1
  6
Continuous
 62
     2
370
     9
100
AcDbLine
 10
423.0591547977125
 20
-53.77839829505584
 30
0.0
 11
476.6592722491484
 21
-53.77839829505584
 31
0.0
  0
LINE
  5
AB
330
1F
100
AcDbEntity
  8
0-1
  6
Continuous
 62
     2
370
     9
100
AcDbLine
 10
466.6592392571721
 20
-9.778401594253438
 30
0.0
 11
476.6592722491484
 21
-19.77833561030073
 31
0.0
  0
LINE
  5
AC
330
1F
100
AcDbEntity
  8
0-1
  6
Continuous
 62
     2
370
     9
100
AcDbLine
 10
433.059187789689
 20
-9.778401594253438
 30
0.0
 11
423.0591547977125
 21
-19.77833561030073
 31
0.0
  0
LINE
  5
AD
330
1F
100
AcDbEntity
  8
0-1
  6
Continuous
 62
     2
370
     9
100
AcDbLine
 10
369.8592960033715
 20
-63.57835144644937
 30
0.0
 11
415.0591284041315
 21
-63.57835144644937
 31
0.0
  0
LINE
  5
AE
330
1F
100
AcDbEntity
  8
0-1
  6
Continuous
 62
     2
370
     9
100
AcDbLine
 10
369.8592960033715
 20
-60.37831119623823
 30
0.0
 11
414.8591970274423
 21
-60.37831119623823
 31
0.0
  0
LINE
  5
AF
330
1F
100
AcDbEntity
  8
0-1
  6
Continuous
 62
     2
370
     9
100
AcDbLine
 10
369.8592960033715
 20
-60.37831119623823
 30
0.0
 11
369.8592960033715
 21
-63.57835144644937
 31
0.0
  0
LINE
  5
B0
330
1F
100
AcDbEntity
  8
0-1
  6
Continuous
 62
     2
370
     9
100
AcDbLine
 10
428.0591218057363
 20
-9.778401594253438
 30
0.0
 11
471.6593052411249
 21
-9.778401594253438
 31
0.0
  0
LINE
  5
B1
330
1F
100
AcDbEntity
  8
0-1
  6
Continuous
 62
     2
370
     9
100
AcDbLine
 10
476.6592722491484
 20
-14.77836860227708
 30
0.0
 11
476.6592722491484
 21
-63.57835144644937
 31
0.0
  0
LINE
  5
B2
330
1F
100
AcDbEntity
  8
0-1
  6
Continuous
 62
     2
370
     9
100
AcDbLine
 10
479.8592630113951
 20
-14.57838773762333
 30
0.0
 11
479.8592630113951
 21
-63.57835144644937
 31
0.0
  0
LINE
  5
B3
330
1F
100
AcDbEntity
  8
0-1
  6
Continuous
 62
     2
370
     9
100
AcDbLine
 10
423.0591547977125
 20
-14.77836860227708
 30
0.0
 11
423.0591547977125
 21
-55.57842402879729
 31
0.0
  0
LINE
  5
B4
330
1F
100
AcDbEntity
  8
0-1
  6
Continuous
 62
     2
370
     9
100
AcDbLine
 10
476.6592722491484
 20
-63.57835144644937
 30
0.0
 11
479.8592630113951
 21
-63.57835144644937
 31
0.0
  0
LINE
  5
B5
330
1F
100
AcDbEntity
  8
0-1
  6
Continuous
 62
     2
370
     9
100
AcDbLine
 10
427.8591904290471
 20
-6.578361344042293
 30
0.0
 11
471.859236617814
 21
-6.578361344042293
 31
0.0
  0
LINE
  5
B6
330
1F
100
AcDbEntity
  8
0-1
  6
Continuous
 62
     2
370
     9
100
AcDbLine
 10
123.9133170654491
 20
163.4215066880523
 30
0.0
 11
133.9133500574254
 21
163.4215066880523
 31
0.0
  0
LINE
  5
B7
330
1F
100
AcDbEntity
  8
0-1
  6
Continuous
 62
     2
370
     9
100
AcDbLine
 10
133.9133500574254
 20
163.4215066880523
 30
0.0
 11
113.9132840734727
 21
123.4214736960759
 31
0.0
  0
LINE
  5
B8
330
1F
100
AcDbEntity
  8
0-1
  6
Continuous
 62
     2
370
     9
100
AcDbLine
 10
113.9132840734727
 20
123.4214736960759
 30
0.0
 11
123.9133170654491
 21
123.4214736960759
 31
0.0
  0
LINE
  5
B9
330
1F
100
AcDbEntity
  8
0-1
  6
Continuous
 62
     2
370
     9
100
AcDbLine
 10
-706.0867489185036
 20
293.4215396800287
 30
0.0
 11
-706.0867489185036
 21
350.4216782463294
 31
0.0
  0
LINE
  5
BA
330
1F
100
AcDbEntity
  8
0-1
  6
Continuous
 62
     2
370
     9
100
AcDbLine
 10
-706.0867489185036
 20
293.4215396800287
 30
0.0
 11
-705.0866961313415
 21
293.4215396800287
 31
0.0
  0
LINE
  5
BB
330
1F
100
AcDbEntity
  8
0-1
  6
Continuous
 62
     2
370
     9
100
AcDbLine
 10
-706.0867489185036
 20
-63.57835144644937
 30
0.0
 11
-706.0867489185036
 21
-6.578361344042293
 31
0.0
  0
LINE
  5
BC
330
1F
100
AcDbEntity
  8
0-1
  6
Continuous
 62
     2
370
     9
100
AcDbLine
 10
-706.0867489185036
 20
-6.578361344042293
 30
0.0
 11
-705.0866961313415
 21
-6.578361344042293
 31
0.0
  0
LINE
  5
BD
330
1F
100
AcDbEntity
  8
0-1
  6
JWW_DASHED1
 62
     2
370
     9
100
AcDbLine
 10
-705.0866961313415
 20
-6.578361344042293
 30
0.0
 11
123.9133170654491
 21
-6.578361344042293
 31
0.0
  0
LINE
  5
BE
330
1F
100
AcDbEntity
  8
0-1
  6
Continuous
 62
     2
370
     9
100
AcDbLine
 10
123.9133170654491
 20
163.4215066880523
 30
0.0
 11
123.9133170654491
 21
370.4216452543531
 31
0.0
  0
LINE
  5
BF
330
1F
100
AcDbEntity
  8
0-1
  6
Continuous
 62
     2
370
     9
100
AcDbLine
 10
123.9133170654491
 20
-83.57836794243755
 30
0.0
 11
123.9133170654491
 21
123.4214736960759
 31
0.0
  0
LINE
  5
C0
330
1F
100
AcDbEntity
  8
0-1
  6
Continuous
 62
     2
370
     9
100
AcDbLine
 10
-706.0867489185036
 20
350.4216782463294
 30
0.0
 11
123.9133170654491
 21
350.4216782463294
 31
0.0
  0
LINE
  5
C1
330
1F
100
AcDbEntity
  8
0-1
  6
Continuous
 62
     2
370
     9
100
AcDbLine
 10
-706.0867489185036
 20
347.2216874840827
 30
0.0
 11
123.9133170654491
 21
347.2216874840827
 31
0.0
  0
LINE
  5
C2
330
1F
100
AcDbEntity
  8
0-1
  6
JWW_DASHED1
 62
     2
370
     9
100
AcDbLine
 10
-705.0866961313415
 20
293.4215396800287
 30
0.0
 11
123.9133170654491
 21
293.4215396800287
 31
0.0
  0
LINE
  5
C3
330
1F
100
AcDbEntity
  8
0-1
  6
Continuous
 62
     2
370
     9
100
AcDbLine
 10
-706.0867489185036
 20
-60.37831119623823
 30
0.0
 11
123.9133170654491
 21
-60.37831119623823
 31
0.0
  0
LINE
  5
C4
330
1F
100
AcDbEntity
  8
0-1
  6
Continuous
 62
     2
370
     9
100
AcDbLine
 10
-706.0867489185036
 20
-63.57835144644937
 30
0.0
 11
123.9133170654491
 21
-63.57835144644937
 31
0.0
  0
LINE
  5
C5
330
1F
100
AcDbEntity
  8
0-1
  6
JWW_CENTER1
 62
     2
370
     9
100
AcDbLine
 10
449.8592630113951
 20
314.82171915638
 30
0.0
 11
449.8592630113951
 21
342.4216518527484
 31
0.0
  0
LINE
  5
C6
330
1F
100
AcDbEntity
  8
0-1
  6
JWW_CENTER1
 62
     2
370
     9
100
AcDbLine
 10
433.8592102242329
 20
328.6217349925287
 30
0.0
 11
465.8592168226282
 21
328.6217349925287
 31
0.0
  0
LINE
  5
C7
330
1F
100
AcDbEntity
  8
0-1
  6
JWW_CENTER1
 62
     2
370
     9
100
AcDbLine
 10
449.8592630113951
 20
-55.57842402879729
 30
0.0
 11
449.8592630113951
 21
-27.97849133242906
 31
0.0
  0
LINE
  5
C8
330
1F
100
AcDbEntity
  8
0-1
  6
JWW_CENTER1
 62
     2
370
     9
100
AcDbLine
 10
433.8592102242329
 20
-41.77840819264864
 30
0.0
 11
465.8592168226282
 21
-41.77840819264864
 31
0.0
  0
LINE
  5
C9
330
1F
100
AcDbEntity
  8
0-1
  6
Continuous
 62
     2
370
     9
100
AcDbLine
 10
419.8591640354661
 20
342.22162150013
 30
0.0
 11
419.8591640354661
 21
301.4215660736098
 31
0.0
  0
LINE
  5
CA
330
1F
100
AcDbEntity
  8
0-1
  6
Continuous
 62
     2
370
     9
100
AcDbLine
 10
419.8591640354661
 20
-14.57838773762333
 30
0.0
 11
419.8591640354661
 21
-55.37834418821458
 31
0.0
  0
LINE
  5
CB
330
1F
100
AcDbEntity
  8
0-F
  6
Continuous
 62
     7
370
     9
100
AcDbLine
 10
-705.0866961313415
 20
-123.5783514464494
 30
0.0
 11
-107.0868017056658
 21
-123.5783514464494
 31
0.0
  0
LINE
  5
CC
330
1F
100
AcDbEntity
  8
0-F
  6
Continuous
 62
     7
370
     9
100
AcDbLine
 10
-107.0868017056658
 20
-67.5783646432399
 30
0.0
 11
-107.0868017056658
 21
-124.7783356103007
 31
0.0
  0
LINE
  5
CD
330
1F
100
AcDbEntity
  8
0-F
  6
Continuous
 62
     7
370
     9
100
AcDbLine
 10
-705.0866961313415
 20
-123.5783514464494
 30
0.0
 11
-693.189492531257
 21
-122.012057369169
 31
0.0
  0
LINE
  5
CE
330
1F
100
AcDbEntity
  8
0-F
  6
Continuous
 62
     7
370
     9
100
AcDbLine
 10
-705.0866961313415
 20
-123.5783514464494
 30
0.0
 11
-693.189492531257
 21
-125.1446455237298
 31
0.0
  0
LINE
  5
CF
330
1F
100
AcDbEntity
  8
0-F
  6
Continuous
 62
     7
370
     9
100
AcDbLine
 10
-107.0868017056658
 20
-123.5783514464494
 30
0.0
 11
-118.9841042816794
 21
-122.012057369169
 31
0.0
  0
LINE
  5
D0
330
1F
100
AcDbEntity
  8
0-F
  6
Continuous
 62
     7
370
     9
100
AcDbLine
 10
-107.0868017056658
 20
-123.5783514464494
 30
0.0
 11
-118.9841042816794
 21
-125.1446455237298
 31
0.0
  0
LINE
  5
D1
330
1F
100
AcDbEntity
  8
0-F
  6
Continuous
 62
     7
370
     9
100
AcDbLine
 10
-105.0866961313414
 20
-123.5783514464494
 30
0.0
 11
-107.0868017056658
 21
-123.5783514464494
 31
0.0
  0
LINE
  5
D2
330
1F
100
AcDbEntity
  8
0-F
  6
Continuous
 62
     7
370
     9
100
AcDbLine
 10
-105.0866961313414
 20
-123.5783514464494
 30
0.0
 11
-93.189393555328
 21
-122.012057369169
 31
0.0
  0
LINE
  5
D3
330
1F
100
AcDbEntity
  8
0-F
  6
Continuous
 62
     7
370
     9
100
AcDbLine
 10
-105.0866961313414
 20
-123.5783514464494
 30
0.0
 11
-93.189393555328
 21
-125.1446455237298
 31
0.0
  0
LINE
  5
D4
330
1F
100
AcDbEntity
  8
0-F
  6
Continuous
 62
     7
370
     9
100
AcDbLine
 10
-105.0866961313414
 20
-123.5783514464494
 30
0.0
 11
123.9133170654491
 21
-123.5783514464494
 31
0.0
  0
LINE
  5
D5
330
1F
100
AcDbEntity
  8
0-F
  6
Continuous
 62
     7
370
     9
100
AcDbLine
 10
-105.0866961313414
 20
-67.5783646432399
 30
0.0
 11
-105.0866961313414
 21
-124.7783356103007
 31
0.0
  0
LINE
  5
D6
330
1F
100
AcDbEntity
  8
0-F
  6
Continuous
 62
     7
370
     9
100
AcDbLine
 10
-705.0866961313415
 20
-67.5783646432399
 30
0.0
 11
-705.0866961313415
 21
-124.7783356103007
 31
0.0
  0
LINE
  5
D7
330
1F
100
AcDbEntity
  8
0-F
  6
Continuous
 62
     7
370
     9
100
AcDbLine
 10
365.8592828065808
 20
-60.37831119623823
 30
0.0
 11
308.65931183952
 21
-60.37831119623823
 31
0.0
  0
LINE
  5
D8
330
1F
100
AcDbEntity
  8
0-F
  6
Continuous
 62
     7
370
     9
100
AcDbLine
 10
309.8592960033715
 20
-63.57835144644937
 30
0.0
 11
308.2930019260911
 21
-75.4757035104274
 31
0.0
  0
LINE
  5
D9
330
1F
100
AcDbEntity
  8
0-F
  6
Continuous
 62
     7
370
     9
100
AcDbLine
 10
309.8592960033715
 20
-63.57835144644937
 30
0.0
 11
311.4255900806517
 21
-75.4757035104274
 31
0.0
  0
LINE
  5
DA
330
1F
100
AcDbEntity
  8
0-F
  6
Continuous
 62
     7
370
     9
100
AcDbLine
 10
309.8592960033715
 20
-60.37831119623823
 30
0.0
 11
309.8592960033715
 21
-56.578427327995
 31
0.0
  0
LINE
  5
DB
330
1F
100
AcDbEntity
  8
0-F
  6
Continuous
 62
     7
370
     9
100
AcDbLine
 10
365.8592828065808
 20
-60.37831119623823
 30
0.0
 11
308.65931183952
 21
-60.37831119623823
 31
0.0
  0
LINE
  5
DC
330
1F
100
AcDbEntity
  8
0-F
  6
Continuous
 62
     7
370
     9
100
AcDbLine
 10
365.8592828065808
 20
-56.578427327995
 30
0.0
 11
308.65931183952
 21
-56.578427327995
 31
0.0
  0
LINE
  5
DD
330
1F
100
AcDbEntity
  8
0-F
  6
Continuous
 62
     7
370
     9
100
AcDbLine
 10
309.8592960033715
 20
-56.578427327995
 30
0.0
 11
309.8592960033715
 21
343.4217046399104
 31
0.0
  0
LINE
  5
DE
330
1F
100
AcDbEntity
  8
0-F
  6
Continuous
 62
     7
370
     9
100
AcDbLine
 10
365.8592828065808
 20
343.4217046399104
 30
0.0
 11
308.65931183952
 21
343.4217046399104
 31
0.0
  0
LINE
  5
DF
330
1F
100
AcDbEntity
  8
0-F
  6
Continuous
 62
     7
370
     9
100
AcDbLine
 10
309.8592960033715
 20
-56.578427327995
 30
0.0
 11
308.2930019260911
 21
-44.68102577605239
 31
0.0
  0
LINE
  5
E0
330
1F
100
AcDbEntity
  8
0-F
  6
Continuous
 62
     7
370
     9
100
AcDbLine
 10
309.8592960033715
 20
-56.578427327995
 30
0.0
 11
311.4255900806517
 21
-44.68102577605239
 31
0.0
  0
LINE
  5
E1
330
1F
100
AcDbEntity
  8
0-F
  6
Continuous
 62
     7
370
     9
100
AcDbLine
 10
309.8592960033715
 20
343.4217046399104
 30
0.0
 11
308.2930019260911
 21
331.524303087968
 31
0.0
  0
LINE
  5
E2
330
1F
100
AcDbEntity
  8
0-F
  6
Continuous
 62
     7
370
     9
100
AcDbLine
 10
309.8592960033715
 20
343.4217046399104
 30
0.0
 11
311.4255900806517
 21
331.524303087968
 31
0.0
  0
LINE
  5
E3
330
1F
100
AcDbEntity
  8
0-F
  6
Continuous
 62
     7
370
     9
100
AcDbLine
 10
309.8592960033715
 20
347.2216874840827
 30
0.0
 11
309.8592960033715
 21
343.4217046399104
 31
0.0
  0
LINE
  5
E4
330
1F
100
AcDbEntity
  8
0-F
  6
Continuous
 62
     7
370
     9
100
AcDbLine
 10
365.8592828065808
 20
347.2216874840827
 30
0.0
 11
308.65931183952
 21
347.2216874840827
 31
0.0
  0
LINE
  5
E5
330
1F
100
AcDbEntity
  8
0-F
  6
Continuous
 62
     7
370
     9
100
AcDbLine
 10
365.8592828065808
 20
343.4217046399104
 30
0.0
 11
308.65931183952
 21
343.4217046399104
 31
0.0
  0
LINE
  5
E6
330
1F
100
AcDbEntity
  8
0-F
  6
Continuous
 62
     7
370
     9
100
AcDbLine
 10
309.8592960033715
 20
343.4217046399104
 30
0.0
 11
308.2930019260911
 21
331.524303087968
 31
0.0
  0
LINE
  5
E7
330
1F
100
AcDbEntity
  8
0-F
  6
Continuous
 62
     7
370
     9
100
AcDbLine
 10
309.8592960033715
 20
343.4217046399104
 30
0.0
 11
311.4255900806517
 21
331.524303087968
 31
0.0
  0
LINE
  5
E8
330
1F
100
AcDbEntity
  8
0-F
  6
Continuous
 62
     7
370
     9
100
AcDbLine
 10
365.8592828065808
 20
347.2216874840827
 30
0.0
 11
308.65931183952
 21
347.2216874840827
 31
0.0
  0
LINE
  5
E9
330
1F
100
AcDbEntity
  8
0-F
  6
Continuous
 62
     7
370
     9
100
AcDbLine
 10
309.8592960033715
 20
350.4216782463294
 30
0.0
 11
308.2930019260911
 21
362.318980822343
 31
0.0
  0
LINE
  5
EA
330
1F
100
AcDbEntity
  8
0-F
  6
Continuous
 62
     7
370
     9
100
AcDbLine
 10
309.8592960033715
 20
350.4216782463294
 30
0.0
 11
311.4255900806517
 21
362.318980822343
 31
0.0
  0
LINE
  5
EB
330
1F
100
AcDbEntity
  8
0-F
  6
Continuous
 62
     7
370
     9
100
AcDbLine
 10
309.8592960033715
 20
-60.37831119623823
 30
0.0
 11
309.8592960033715
 21
-104.918370053924
 31
0.0
  0
LINE
  5
EC
330
1F
100
AcDbEntity
  8
0-F
  6
Continuous
 62
     7
370
     9
100
AcDbLine
 10
269.859263011395
 20
-63.57845042237844
 30
0.0
 11
269.859263011395
 21
350.4218761981875
 31
0.0
  0
LINE
  5
ED
330
1F
100
AcDbEntity
  8
0-F
  6
Continuous
 62
     7
370
     9
100
AcDbLine
 10
269.859263011395
 20
-63.57845042237844
 30
0.0
 11
268.2929689341146
 21
-51.68114784636489
 31
0.0
  0
LINE
  5
EE
330
1F
100
AcDbEntity
  8
0-F
  6
Continuous
 62
     7
370
     9
100
AcDbLine
 10
269.859263011395
 20
-63.57845042237844
 30
0.0
 11
271.4255570886754
 21
-51.68114784636489
 31
0.0
  0
LINE
  5
EF
330
1F
100
AcDbEntity
  8
0-F
  6
Continuous
 62
     7
370
     9
100
AcDbLine
 10
269.859263011395
 20
350.4218761981875
 30
0.0
 11
268.2929689341146
 21
338.524573622174
 31
0.0
  0
LINE
  5
F0
330
1F
100
AcDbEntity
  8
0-F
  6
Continuous
 62
     7
370
     9
100
AcDbLine
 10
269.859263011395
 20
350.4218761981875
 30
0.0
 11
271.4255570886754
 21
338.524573622174
 31
0.0
  0
LINE
  5
F1
330
1F
100
AcDbEntity
  8
0-F
  6
Continuous
 62
     7
370
     9
100
AcDbLine
 10
365.8592828065808
 20
350.4216782463294
 30
0.0
 11
268.6592788475438
 21
350.4218761981875
 31
0.0
  0
LINE
  5
F2
330
1F
100
AcDbEntity
  8
0-F
  6
Continuous
 62
     7
370
     9
100
AcDbLine
 10
365.8592828065808
 20
-63.57835144644937
 30
0.0
 11
268.6592788475438
 21
-63.57845042237844
 31
0.0
  0
LINE
  5
F3
330
1F
100
AcDbEntity
  8
0-F
  6
Continuous
 62
     7
370
     9
100
AcDbLine
 10
309.8592960033715
 20
384.3428076276639
 30
0.0
 11
309.8592960033715
 21
347.2216874840827
 31
0.0
  0
LINE
  5
F4
330
1F
100
AcDbEntity
  8
0-F
  6
Continuous
 62
     7
370
     9
100
AcDbLine
 10
586.6152939446722
 20
-63.57835144644937
 30
0.0
 11
586.6152939446722
 21
-6.578361344042293
 31
0.0
  0
LINE
  5
F5
330
1F
100
AcDbEntity
  8
0-F
  6
Continuous
 62
     7
370
     9
100
AcDbLine
 10
483.8592762081857
 20
-63.57835144644937
 30
0.0
 11
587.8152781085234
 21
-63.57835144644937
 31
0.0
  0
LINE
  5
F6
330
1F
100
AcDbEntity
  8
0-F
  6
Continuous
 62
     7
370
     9
100
AcDbLine
 10
483.8592762081857
 20
-6.578361344042293
 30
0.0
 11
587.8152781085234
 21
-6.578361344042293
 31
0.0
  0
LINE
  5
F7
330
1F
100
AcDbEntity
  8
0-F
  6
Continuous
 62
     7
370
     9
100
AcDbLine
 10
586.6152939446722
 20
-63.57835144644937
 30
0.0
 11
585.0489998673918
 21
-51.68099938247136
 31
0.0
  0
LINE
  5
F8
330
1F
100
AcDbEntity
  8
0-F
  6
Continuous
 62
     7
370
     9
100
AcDbLine
 10
586.6152939446722
 20
-63.57835144644937
 30
0.0
 11
588.1815880219526
 21
-51.68099938247136
 31
0.0
  0
LINE
  5
F9
330
1F
100
AcDbEntity
  8
0-F
  6
Continuous
 62
     7
370
     9
100
AcDbLine
 10
586.6152939446722
 20
-6.578361344042293
 30
0.0
 11
585.0489998673918
 21
-18.47576289598479
 31
0.0
  0
LINE
  5
FA
330
1F
100
AcDbEntity
  8
0-F
  6
Continuous
 62
     7
370
     9
100
AcDbLine
 10
586.6152939446722
 20
-6.578361344042293
 30
0.0
 11
588.1815880219526
 21
-18.47576289598479
 31
0.0
  0
LINE
  5
FB
330
1F
100
AcDbEntity
  8
0-F
  6
Continuous
 62
     7
370
     9
100
AcDbLine
 10
586.6152939446722
 20
-6.578361344042293
 30
0.0
 11
586.6152939446722
 21
293.4215396800287
 31
0.0
  0
LINE
  5
FC
330
1F
100
AcDbEntity
  8
0-F
  6
Continuous
 62
     7
370
     9
100
AcDbLine
 10
483.8592762081857
 20
293.4215396800287
 30
0.0
 11
587.8152781085234
 21
293.4215396800287
 31
0.0
  0
LINE
  5
FD
330
1F
100
AcDbEntity
  8
0-F
  6
Continuous
 62
     7
370
     9
100
AcDbLine
 10
586.6152939446722
 20
-6.578361344042293
 30
0.0
 11
585.0489998673918
 21
5.318990719935726
 31
0.0
  0
LINE
  5
FE
330
1F
100
AcDbEntity
  8
0-F
  6
Continuous
 62
     7
370
     9
100
AcDbLine
 10
586.6152939446722
 20
-6.578361344042293
 30
0.0
 11
588.1815880219526
 21
5.318990719935726
 31
0.0
  0
LINE
  5
FF
330
1F
100
AcDbEntity
  8
0-F
  6
Continuous
 62
     7
370
     9
100
AcDbLine
 10
586.6152939446722
 20
293.4215396800287
 30
0.0
 11
585.0489998673918
 21
281.5241381280862
 31
0.0
  0
LINE
  5
100
330
1F
100
AcDbEntity
  8
0-F
  6
Continuous
 62
     7
370
     9
100
AcDbLine
 10
586.6152939446722
 20
293.4215396800287
 30
0.0
 11
588.1815880219526
 21
281.5241381280862
 31
0.0
  0
LINE
  5
101
330
1F
100
AcDbEntity
  8
0-F
  6
Continuous
 62
     7
370
     9
100
AcDbLine
 10
586.6152939446722
 20
293.4215396800287
 30
0.0
 11
586.6152939446722
 21
350.4216782463294
 31
0.0
  0
LINE
  5
102
330
1F
100
AcDbEntity
  8
0-F
  6
Continuous
 62
     7
370
     9
100
AcDbLine
 10
483.8592762081857
 20
350.4216782463294
 30
0.0
 11
587.8152781085234
 21
350.4216782463294
 31
0.0
  0
LINE
  5
103
330
1F
100
AcDbEntity
  8
0-F
  6
Continuous
 62
     7
370
     9
100
AcDbLine
 10
586.6152939446722
 20
293.4215396800287
 30
0.0
 11
585.0489998673918
 21
305.3189412319713
 31
0.0
  0
LINE
  5
104
330
1F
100
AcDbEntity
  8
0-F
  6
Continuous
 62
     7
370
     9
100
AcDbLine
 10
586.6152939446722
 20
293.4215396800287
 30
0.0
 11
588.1815880219526
 21
305.3189412319713
 31
0.0
  0
LINE
  5
105
330
1F
100
AcDbEntity
  8
0-F
  6
Continuous
 62
     7
370
     9
100
AcDbLine
 10
586.6152939446722
 20
350.4216782463294
 30
0.0
 11
585.0489998673918
 21
338.5243756703159
 31
0.0
  0
LINE
  5
106
330
1F
100
AcDbEntity
  8
0-F
  6
Continuous
 62
     7
370
     9
100
AcDbLine
 10
586.6152939446722
 20
350.4216782463294
 30
0.0
 11
588.1815880219526
 21
338.5243756703159
 31
0.0
  0
LINE
  5
107
330
1F
100
AcDbEntity
  8
0-F
  6
Continuous
 62
     7
370
     9
100
AcDbLine
 10
369.8592960033715
 20
410.4216782463294
 30
0.0
 11
419.8591640354661
 21
410.4216782463294
 31
0.0
  0
LINE
  5
108
330
1F
100
AcDbEntity
  8
0-F
  6
Continuous
 62
     7
370
     9
100
AcDbLine
 10
419.8591640354661
 20
354.4216914431199
 30
0.0
 11
419.8591640354661
 21
411.6216624101808
 31
0.0
  0
LINE
  5
109
330
1F
100
AcDbEntity
  8
0-F
  6
Continuous
 62
     7
370
     9
100
AcDbLine
 10
369.8592960033715
 20
410.4216782463294
 30
0.0
 11
381.7565985793848
 21
411.9879723236098
 31
0.0
  0
LINE
  5
10A
330
1F
100
AcDbEntity
  8
0-F
  6
Continuous
 62
     7
370
     9
100
AcDbLine
 10
369.8592960033715
 20
410.4216782463294
 30
0.0
 11
381.7565985793848
 21
408.855384169049
 31
0.0
  0
LINE
  5
10B
330
1F
100
AcDbEntity
  8
0-F
  6
Continuous
 62
     7
370
     9
100
AcDbLine
 10
419.8591640354661
 20
410.4216782463294
 30
0.0
 11
407.9618614594525
 21
411.9879723236098
 31
0.0
  0
LINE
  5
10C
330
1F
100
AcDbEntity
  8
0-F
  6
Continuous
 62
     7
370
     9
100
AcDbLine
 10
419.8591640354661
 20
410.4216782463294
 30
0.0
 11
407.9618614594525
 21
408.855384169049
 31
0.0
  0
LINE
  5
10D
330
1F
100
AcDbEntity
  8
0-F
  6
Continuous
 62
     7
370
     9
100
AcDbLine
 10
369.8592960033715
 20
450.4217112383058
 30
0.0
 11
423.0591547977125
 21
450.4217112383058
 31
0.0
  0
LINE
  5
10E
330
1F
100
AcDbEntity
  8
0-F
  6
Continuous
 62
     7
370
     9
100
AcDbLine
 10
423.0591547977125
 20
354.4216914431199
 30
0.0
 11
423.0591547977125
 21
451.6216954021571
 31
0.0
  0
LINE
  5
10F
330
1F
100
AcDbEntity
  8
0-F
  6
Continuous
 62
     7
370
     9
100
AcDbLine
 10
369.8592960033715
 20
450.4217112383058
 30
0.0
 11
381.7565985793848
 21
451.9880053155862
 31
0.0
  0
LINE
  5
110
330
1F
100
AcDbEntity
  8
0-F
  6
Continuous
 62
     7
370
     9
100
AcDbLine
 10
369.8592960033715
 20
450.4217112383058
 30
0.0
 11
381.7565985793848
 21
448.8554171610253
 31
0.0
  0
LINE
  5
111
330
1F
100
AcDbEntity
  8
0-F
  6
Continuous
 62
     7
370
     9
100
AcDbLine
 10
423.0591547977125
 20
450.4217112383058
 30
0.0
 11
411.1618522216992
 21
451.9880053155862
 31
0.0
  0
LINE
  5
112
330
1F
100
AcDbEntity
  8
0-F
  6
Continuous
 62
     7
370
     9
100
AcDbLine
 10
423.0591547977125
 20
450.4217112383058
 30
0.0
 11
411.1618522216992
 21
448.8554171610253
 31
0.0
  0
LINE
  5
113
330
1F
100
AcDbEntity
  8
0-F
  6
Continuous
 62
     7
370
     9
100
AcDbLine
 10
369.8592960033715
 20
490.4217442302822
 30
0.0
 11
479.8592630113951
 21
490.4217442302822
 31
0.0
  0
LINE
  5
114
330
1F
100
AcDbEntity
  8
0-F
  6
Continuous
 62
     7
370
     9
100
AcDbLine
 10
479.8592630113951
 20
354.4216914431199
 30
0.0
 11
479.8592630113951
 21
491.6217283941335
 31
0.0
  0
LINE
  5
115
330
1F
100
AcDbEntity
  8
0-F
  6
Continuous
 62
     7
370
     9
100
AcDbLine
 10
369.8592960033715
 20
490.4217442302822
 30
0.0
 11
381.7565985793848
 21
491.9880383075624
 31
0.0
  0
LINE
  5
116
330
1F
100
AcDbEntity
  8
0-F
  6
Continuous
 62
     7
370
     9
100
AcDbLine
 10
369.8592960033715
 20
490.4217442302822
 30
0.0
 11
381.7565985793848
 21
488.8554501530018
 31
0.0
  0
LINE
  5
117
330
1F
100
AcDbEntity
  8
0-F
  6
Continuous
 62
     7
370
     9
100
AcDbLine
 10
479.8592630113951
 20
490.4217442302822
 30
0.0
 11
467.9619604353815
 21
491.9880383075624
 31
0.0
  0
LINE
  5
118
330
1F
100
AcDbEntity
  8
0-F
  6
Continuous
 62
     7
370
     9
100
AcDbLine
 10
479.8592630113951
 20
490.4217442302822
 30
0.0
 11
467.9619604353815
 21
488.8554501530018
 31
0.0
  0
LINE
  5
119
330
1F
100
AcDbEntity
  8
0-F
  6
Continuous
 62
     7
370
     9
100
AcDbLine
 10
369.8592960033715
 20
354.4216914431199
 30
0.0
 11
369.8592960033715
 21
491.6217283941335
 31
0.0
  0
LINE
  5
11A
330
1F
100
AcDbEntity
  8
0-E
  6
Continuous
 62
     7
370
     9
100
AcDbLine
 10
199.2871491494863
 20
-157.1796896010102
 30
0.0
 11
346.5022634336923
 21
-157.1796896010102
 31
0.0
  0
LINE
  5
11B
330
1F
100
AcDbEntity
  8
0-E
  6
Continuous
 62
     7
370
     9
100
AcDbLine
 10
369.8592960033715
 20
279.9756597180354
 30
0.0
 11
365.0425334400267
 21
290.966441759843
 31
0.0
  0
LINE
  5
11C
330
1F
100
AcDbEntity
  8
0-E
  6
Continuous
 62
     7
370
     9
100
AcDbLine
 10
369.8592960033715
 20
279.9756597180354
 30
0.0
 11
368.0513027073411
 21
291.8386176466672
 31
0.0
  0
LINE
  5
11D
330
1F
100
AcDbEntity
  8
0-E
  6
Continuous
 62
     7
370
     9
100
AcDbLine
 10
346.5022634336923
 20
-157.1796896010102
 30
0.0
 11
400.5430217212767
 21
-63.57840093441391
 31
0.0
  0
LINE
  5
11E
330
1F
100
AcDbEntity
  8
0-E
  6
Continuous
 62
     7
370
     9
100
AcDbLine
 10
400.5430217212767
 20
-63.57840093441391
 30
0.0
 11
395.9508355409558
 21
-74.66494218758115
 31
0.0
  0
LINE
  5
11F
330
1F
100
AcDbEntity
  8
0-E
  6
Continuous
 62
     7
370
     9
100
AcDbLine
 10
400.5430217212767
 20
-63.57840093441391
 30
0.0
 11
393.2379053255842
 21
-73.09864811030073
 31
0.0
  0
LINE
  5
120
330
1F
100
AcDbEntity
  8
0
  6
Continuous
 62
     3
370
     9
100
AcDbLine
 10
-705.0866961313415
 20
-248.5783679424375
 30
0.0
 11
-704.0866433441793
 21
-243.5783514464493
 31
0.0
  0
LINE
  5
121
330
1F
100
AcDbEntity
  8
0
  6
Continuous
 62
     3
370
     9
100
AcDbLine
 10
-481.2071036482334
 20
-286.0016615974207
 30
0.0
 11
-479.1868069843821
 21
-293.5783679424375
 31
0.0
  0
LINE
  5
122
330
1F
100
AcDbEntity
  8
0
  6
Continuous
 62
     3
370
     9
100
AcDbLine
 10
-479.1868069843821
 20
-293.5783679424375
 30
0.0
 11
-448.5866169505983
 21
-293.5783679424375
 31
0.0
  0
LINE
  5
123
330
1F
100
AcDbEntity
  8
0
  6
Continuous
 62
     3
370
     9
100
AcDbLine
 10
-446.5663202867469
 20
-286.0016615974207
 30
0.0
 11
-448.5866169505983
 21
-293.5783679424375
 31
0.0
  0
LINE
  5
124
330
1F
100
AcDbEntity
  8
0
  6
Continuous
 62
     3
370
     9
100
AcDbLine
 10
-552.5039192626759
 20
-278.5783679424375
 30
0.0
 11
-490.8695297462064
 21
-278.5783679424375
 31
0.0
  0
LINE
  5
125
330
1F
100
AcDbEntity
  8
0
  6
Continuous
 62
     3
370
     9
100
AcDbLine
 10
-673.2663308441793
 20
-286.0016615974207
 30
0.0
 11
-675.2867264839597
 21
-293.5783679424375
 31
0.0
  0
LINE
  5
126
330
1F
100
AcDbEntity
  8
0
  6
Continuous
 62
     3
370
     9
100
AcDbLine
 10
-596.8071287221353
 20
-286.0016615974207
 30
0.0
 11
-594.7867330823549
 21
-293.5783679424375
 31
0.0
  0
LINE
  5
127
330
1F
100
AcDbEntity
  8
0
  6
Continuous
 62
     3
370
     9
100
AcDbLine
 10
-594.7867330823549
 20
-293.5783679424375
 30
0.0
 11
-564.1867410004294
 21
-293.5783679424375
 31
0.0
  0
LINE
  5
128
330
1F
100
AcDbEntity
  8
0
  6
Continuous
 62
     3
370
     9
100
AcDbLine
 10
-562.1662463847199
 20
-286.0016615974207
 30
0.0
 11
-564.1867410004294
 21
-293.5783679424375
 31
0.0
  0
LINE
  5
129
330
1F
100
AcDbEntity
  8
0
  6
Continuous
 62
     3
370
     9
100
AcDbLine
 10
-628.0865905570171
 20
-302.4717510716605
 30
0.0
 11
-628.0865905570171
 21
-326.4718302524037
 31
0.0
  0
LINE
  5
12A
330
1F
100
AcDbEntity
  8
0
  6
Continuous
 62
     3
370
     9
100
AcDbLine
 10
-633.0865575650407
 20
-302.4717510716605
 30
0.0
 11
-633.0865575650407
 21
-326.4718302524037
 31
0.0
  0
LINE
  5
12B
330
1F
100
AcDbEntity
  8
0
  6
Continuous
 62
     3
370
     9
100
AcDbLine
 10
-641.0865839586218
 20
-302.4717510716605
 30
0.0
 11
-641.0865839586218
 21
-326.4718302524037
 31
0.0
  0
LINE
  5
12C
330
1F
100
AcDbEntity
  8
0
  6
Continuous
 62
     3
370
     9
100
AcDbLine
 10
-646.0865509666455
 20
-302.4717510716605
 30
0.0
 11
-646.0865509666455
 21
-326.4717312764747
 31
0.0
  0
LINE
  5
12D
330
1F
100
AcDbEntity
  8
0
  6
Continuous
 62
     3
370
     9
100
AcDbLine
 10
-634.5863398179968
 20
-327.9718104572179
 30
0.0
 11
-634.5863398179968
 21
-347.9717774652416
 31
0.0
  0
LINE
  5
12E
330
1F
100
AcDbEntity
  8
0
  6
Continuous
 62
     3
370
     9
100
AcDbLine
 10
-639.5865047778786
 20
-327.9718104572179
 30
0.0
 11
-639.5865047778786
 21
-342.6154971126233
 31
0.0
  0
LINE
  5
12F
330
1F
100
AcDbEntity
  8
0
  6
Continuous
 62
     3
370
     9
100
AcDbLine
 10
-630.5670263150407
 20
-352.2776262828091
 30
0.0
 11
-643.3772828606488
 21
-338.5546137194646
 31
0.0
  0
LINE
  5
130
330
1F
100
AcDbEntity
  8
0
  6
Continuous
 62
     3
370
     9
100
AcDbLine
 10
-641.586709328132
 20
-269.0783613440423
 30
0.0
 11
-641.586709328132
 21
-260.0784306271926
 31
0.0
  0
LINE
  5
131
330
1F
100
AcDbEntity
  8
0
  6
Continuous
 62
     3
370
     9
100
AcDbLine
 10
-641.586709328132
 20
-260.0784306271926
 30
0.0
 11
-632.5868280992468
 21
-260.0784306271926
 31
0.0
  0
LINE
  5
132
330
1F
100
AcDbEntity
  8
0
  6
Continuous
 62
     3
370
     9
100
AcDbLine
 10
-632.5868280992468
 20
-260.0784306271926
 30
0.0
 11
-632.5868280992468
 21
-269.0783613440423
 31
0.0
  0
LINE
  5
133
330
1F
100
AcDbEntity
  8
0
  6
Continuous
 62
     3
370
     9
100
AcDbLine
 10
-632.5868280992468
 20
-269.0783613440423
 30
0.0
 11
-641.586709328132
 21
-269.0783613440423
 31
0.0
  0
LINE
  5
134
330
1F
100
AcDbEntity
  8
0
  6
Continuous
 62
     3
370
     9
100
AcDbLine
 10
-640.0865311714597
 20
-269.0783613440423
 30
0.0
 11
-640.0865311714597
 21
-298.47173787487
 31
0.0
  0
LINE
  5
135
330
1F
100
AcDbEntity
  8
0
  6
Continuous
 62
     3
370
     9
100
AcDbLine
 10
-634.086709328132
 20
-269.0783613440423
 30
0.0
 11
-634.086709328132
 21
-298.47173787487
 31
0.0
  0
LINE
  5
136
330
1F
100
AcDbEntity
  8
0
  6
Continuous
 62
     3
370
     9
100
AcDbLine
 10
-663.6039047462064
 20
-278.5783679424375
 30
0.0
 11
-640.0865311714597
 21
-278.5783679424375
 31
0.0
  0
LINE
  5
137
330
1F
100
AcDbEntity
  8
0
  6
Continuous
 62
     3
370
     9
100
AcDbLine
 10
-634.086709328132
 20
-278.5783679424375
 30
0.0
 11
-606.4694558441793
 21
-278.5783679424375
 31
0.0
  0
LINE
  5
138
330
1F
100
AcDbEntity
  8
0
  6
Continuous
 62
     3
370
     9
100
AcDbLine
 10
-655.0866301473887
 20
-253.5783349504612
 30
0.0
 11
-651.6290050418144
 21
-267.2549278030794
 31
0.0
  0
LINE
  5
139
330
1F
100
AcDbEntity
  8
0
  6
Continuous
 62
     3
370
     9
100
AcDbLine
 10
-619.086709328132
 20
-253.5783349504612
 30
0.0
 11
-622.5442354577772
 21
-267.2548288271503
 31
0.0
  0
LINE
  5
13A
330
1F
100
AcDbEntity
  8
0
  6
Continuous
 62
     3
370
     9
100
AcDbLine
 10
-643.0865905570171
 20
-253.5783349504612
 30
0.0
 11
-641.586709328132
 21
-261.3644743613564
 31
0.0
  0
LINE
  5
13B
330
1F
100
AcDbEntity
  8
0
  6
Continuous
 62
     3
370
     9
100
AcDbLine
 10
-631.0865509666455
 20
-253.5783349504612
 30
0.0
 11
-632.5868280992468
 21
-261.3652661687889
 31
0.0
  0
LINE
  5
13C
330
1F
100
AcDbEntity
  8
0
  6
JWW_CENTER1
 62
     3
370
     9
100
AcDbLine
 10
-637.0865707618314
 20
-239.5783877376233
 30
0.0
 11
-637.0865707618314
 21
-349.2935020218295
 31
0.0
  0
LINE
  5
13D
330
1F
100
AcDbEntity
  8
0-F
  6
Continuous
 62
     7
370
     9
100
AcDbLine
 10
379.8592300194188
 20
41.57154759810303
 30
0.0
 11
391.7565325954321
 21
43.13784167538345
 31
0.0
  0
LINE
  5
13E
330
1F
100
AcDbEntity
  8
0-F
  6
Continuous
 62
     7
370
     9
100
AcDbLine
 10
379.8592300194188
 20
41.57154759810303
 30
0.0
 11
391.7565325954321
 21
40.00525352082261
 31
0.0
  0
LINE
  5
13F
330
1F
100
AcDbEntity
  8
0-F
  6
Continuous
 62
     7
370
     9
100
AcDbLine
 10
369.8593949793004
 20
41.57154759810303
 30
0.0
 11
357.9620924032869
 21
43.13784167538345
 31
0.0
  0
LINE
  5
140
330
1F
100
AcDbEntity
  8
0-F
  6
Continuous
 62
     7
370
     9
100
AcDbLine
 10
369.8593949793004
 20
41.57154759810303
 30
0.0
 11
357.9620924032869
 21
40.00525352082261
 31
0.0
  0
LINE
  5
141
330
1F
100
AcDbEntity
  8
0-F
  6
Continuous
 62
     7
370
     9
100
AcDbLine
 10
398.3949471330167
 20
41.57154759810303
 30
0.0
 11
340.5271855726281
 21
41.57154759810303
 31
0.0
  0
LINE
  5
142
330
1F
100
AcDbEntity
  8
0-F
  6
Continuous
 62
     7
370
     9
100
AcDbLine
 10
-709.0869072799901
 20
110.3216135820557
 30
0.0
 11
-746.2869112390272
 21
110.3216135820557
 31
0.0
  0
LINE
  5
143
330
1F
100
AcDbEntity
  8
0-F
  6
Continuous
 62
     7
370
     9
100
AcDbLine
 10
-709.0869072799901
 20
89.22157861056073
 30
0.0
 11
-746.2869112390272
 21
89.22157861056073
 31
0.0
  0
LINE
  5
144
330
1F
100
AcDbEntity
  8
0-F
  6
Continuous
 62
     7
370
     9
100
AcDbLine
 10
-745.0869270751759
 20
89.22157861056073
 30
0.0
 11
-746.6532211524564
 21
77.32422654658271
 31
0.0
  0
LINE
  5
145
330
1F
100
AcDbEntity
  8
0-F
  6
Continuous
 62
     7
370
     9
100
AcDbLine
 10
-745.0869270751759
 20
89.22157861056073
 30
0.0
 11
-743.5205340219665
 21
77.32422654658271
 31
0.0
  0
LINE
  5
146
330
1F
100
AcDbEntity
  8
0-F
  6
Continuous
 62
     7
370
     9
100
AcDbLine
 10
-709.0869072799901
 20
118.3215904876723
 30
0.0
 11
-746.2869112390272
 21
118.3215904876723
 31
0.0
  0
LINE
  5
147
330
1F
100
AcDbEntity
  8
0-F
  6
Continuous
 62
     7
370
     9
100
AcDbLine
 10
-745.0869270751759
 20
118.3215904876723
 30
0.0
 11
-746.6532211524564
 21
130.2189425516503
 31
0.0
  0
LINE
  5
148
330
1F
100
AcDbEntity
  8
0-F
  6
Continuous
 62
     7
370
     9
100
AcDbLine
 10
-745.0869270751759
 20
118.3215904876723
 30
0.0
 11
-743.5205340219665
 21
130.2189425516503
 31
0.0
  0
LINE
  5
149
330
1F
100
AcDbEntity
  8
0-F
  6
Continuous
 62
     7
370
     9
100
AcDbLine
 10
-745.0869270751759
 20
70.42382272479219
 30
0.0
 11
-745.0869270751759
 21
146.2073656671487
 31
0.0
  0
LINE
  5
14A
330
1F
100
AcDbEntity
  8
0
  6
Continuous
 62
     3
370
     9
100
AcDbLine
 10
-436.903894188774
 20
-278.5783679424375
 30
0.0
 11
-375.2694056963753
 21
-278.5783679424375
 31
0.0
  0
LINE
  5
14B
330
1F
100
AcDbEntity
  8
0
  6
Continuous
 62
     3
370
     9
100
AcDbLine
 10
-704.0866433441793
 20
-243.5783514464493
 30
0.0
 11
-108.0866565409699
 21
-243.5783514464493
 31
0.0
  0
LINE
  5
14C
330
1F
100
AcDbEntity
  8
0
  6
Continuous
 62
     3
370
     9
100
AcDbLine
 10
-703.4083613023718
 20
-256.9705369669308
 30
0.0
 11
-705.0866961313415
 21
-248.5783679424375
 31
0.0
  0
LINE
  5
14D
330
1F
100
AcDbEntity
  8
0
  6
Continuous
 62
     3
370
     9
100
AcDbLine
 10
-685.729775734382
 20
-251.7938484375811
 30
0.0
 11
-686.7651629282165
 21
-256.9705369669308
 31
0.0
  0
LINE
  5
14E
330
1F
100
AcDbEntity
  8
0
  6
Continuous
 62
     3
370
     9
100
AcDbLine
 10
-679.2128046617468
 20
-260.7791307169308
 30
0.0
 11
-653.6880012939259
 21
-276.3775391839916
 31
0.0
  0
LINE
  5
14F
330
1F
100
AcDbEntity
  8
0
  6
Continuous
 62
     3
370
     9
100
AcDbLine
 10
-698.1948042394495
 20
-293.5783679424375
 30
0.0
 11
-675.2867264839597
 21
-293.5783679424375
 31
0.0
  0
LINE
  5
150
330
1F
100
AcDbEntity
  8
0
  6
Continuous
 62
     3
370
     9
100
AcDbLine
 10
-687.0345754071016
 20
-258.5783514464493
 30
0.0
 11
-701.4470542922367
 21
-258.5783514464493
 31
0.0
  0
LINE
  5
151
330
1F
100
AcDbEntity
  8
0
  6
Continuous
 62
     3
370
     9
100
AcDbLine
 10
-699.986367531257
 20
-260.4342985801064
 30
0.0
 11
-698.1948042394495
 21
-293.5783679424375
 31
0.0
  0
LINE
  5
152
330
1F
100
AcDbEntity
  8
0
  6
Continuous
 62
     3
370
     9
100
AcDbLine
 10
-690.1870577234022
 20
-260.4342490921419
 30
0.0
 11
-691.9786210152097
 21
-293.5783679424375
 31
0.0
  0
LINE
  5
153
330
1F
100
AcDbEntity
  8
0
  6
Continuous
 62
     3
370
     9
100
AcDbLine
 10
-466.8866723771185
 20
-293.5783679424375
 30
0.0
 11
-468.6366657787233
 21
-258.5783514464493
 31
0.0
  0
LINE
  5
154
330
1F
100
AcDbEntity
  8
0
  6
Continuous
 62
     3
370
     9
100
AcDbLine
 10
-460.8867515578618
 20
-293.5783679424375
 30
0.0
 11
-459.1367581562571
 21
-258.5783514464493
 31
0.0
  0
LINE
  5
155
330
1F
100
AcDbEntity
  8
0
  6
Continuous
 62
     3
370
     9
100
AcDbLine
 10
-457.5263208146185
 20
-258.5783514464493
 30
0.0
 11
-470.2471031203618
 21
-258.5783514464493
 31
0.0
  0
LINE
  5
156
330
1F
100
AcDbEntity
  8
0
  6
Continuous
 62
     3
370
     9
100
AcDbLine
 10
-454.886731762676
 20
-253.5783349504612
 30
0.0
 11
-357.2865681224732
 21
-253.5783349504612
 31
0.0
  0
LINE
  5
157
330
1F
100
AcDbEntity
  8
0
  6
Continuous
 62
     3
370
     9
100
AcDbLine
 10
-582.4866974510205
 20
-293.5783679424375
 30
0.0
 11
-584.2366908526252
 21
-258.5783514464493
 31
0.0
  0
LINE
  5
158
330
1F
100
AcDbEntity
  8
0
  6
Continuous
 62
     3
370
     9
100
AcDbLine
 10
-576.4866776558348
 20
-293.5783679424375
 30
0.0
 11
-574.73668425423
 21
-258.5783514464493
 31
0.0
  0
LINE
  5
159
330
1F
100
AcDbEntity
  8
0
  6
Continuous
 62
     3
370
     9
100
AcDbLine
 10
-573.1263458885206
 20
-258.5783514464493
 30
0.0
 11
-585.8471281942636
 21
-258.5783514464493
 31
0.0
  0
LINE
  5
15A
330
1F
100
AcDbEntity
  8
0
  6
Continuous
 62
     3
370
     9
100
AcDbLine
 10
-130.3659402191794
 20
-248.5783679424375
 30
0.0
 11
-681.8074586418988
 21
-248.5783679424375
 31
0.0
  0
LINE
  5
15B
330
1F
100
AcDbEntity
  8
0
  6
Continuous
 62
     3
370
     9
100
AcDbLine
 10
-472.2082121786388
 20
-256.9705369669308
 30
0.0
 11
-473.8865470076084
 21
-248.5783679424375
 31
0.0
  0
LINE
  5
15C
330
1F
100
AcDbEntity
  8
0
  6
Continuous
 62
     3
370
     9
100
AcDbLine
 10
-455.5652117563415
 20
-256.9705369669308
 30
0.0
 11
-453.8868769273719
 21
-248.5783679424375
 31
0.0
  0
LINE
  5
15D
330
1F
100
AcDbEntity
  8
0
  6
Continuous
 62
     3
370
     9
100
AcDbLine
 10
-587.8082372525407
 20
-256.9705369669308
 30
0.0
 11
-589.4866710574394
 21
-248.5783679424375
 31
0.0
  0
LINE
  5
15E
330
1F
100
AcDbEntity
  8
0
  6
Continuous
 62
     3
370
     9
100
AcDbLine
 10
-571.1651378543145
 20
-256.9705369669308
 30
0.0
 11
-569.4867040494158
 21
-248.5783679424375
 31
0.0
  0
LINE
  5
15F
330
1F
100
AcDbEntity
  8
0
  6
Continuous
 62
     3
370
     9
100
AcDbLine
 10
-570.4868558125071
 20
-253.5783349504612
 30
0.0
 11
-472.8866921723044
 21
-253.5783349504612
 31
0.0
  0
LINE
  5
160
330
1F
100
AcDbEntity
  8
0
  6
Continuous
 62
     3
370
     9
100
AcDbLine
 10
-684.4470476938415
 20
-253.5783349504612
 30
0.0
 11
-588.4867172462064
 21
-253.5783349504612
 31
0.0
  0
LINE
  5
161
330
1F
100
AcDbEntity
  8
0
  6
Continuous
 62
     3
370
     9
100
AcDbLine
 10
-107.0867027297367
 20
-248.5783679424375
 30
0.0
 11
-108.0866565409699
 21
-243.5783514464493
 31
0.0
  0
LINE
  5
162
330
1F
100
AcDbEntity
  8
0
  6
Continuous
 62
     3
370
     9
100
AcDbLine
 10
-330.9662952128449
 20
-286.0016615974207
 30
0.0
 11
-332.9866908526253
 21
-293.5783679424375
 31
0.0
  0
LINE
  5
163
330
1F
100
AcDbEntity
  8
0
  6
Continuous
 62
     3
370
     9
100
AcDbLine
 10
-332.9866908526253
 20
-293.5783679424375
 30
0.0
 11
-363.5866829345509
 21
-293.5783679424375
 31
0.0
  0
LINE
  5
164
330
1F
100
AcDbEntity
  8
0
  6
Continuous
 62
     3
370
     9
100
AcDbLine
 10
-365.6070785743314
 20
-286.0016615974207
 30
0.0
 11
-363.5866829345509
 21
-293.5783679424375
 31
0.0
  0
LINE
  5
165
330
1F
100
AcDbEntity
  8
0
  6
Continuous
 62
     3
370
     9
100
AcDbLine
 10
-259.6694795984023
 20
-278.5783679424375
 30
0.0
 11
-321.3039680908009
 21
-278.5783679424375
 31
0.0
  0
LINE
  5
166
330
1F
100
AcDbEntity
  8
0
  6
Continuous
 62
     3
370
     9
100
AcDbLine
 10
-138.907166992828
 20
-286.0016615974207
 30
0.0
 11
-136.8866723771185
 21
-293.5783679424375
 31
0.0
  0
LINE
  5
167
330
1F
100
AcDbEntity
  8
0
  6
Continuous
 62
     3
370
     9
100
AcDbLine
 10
-215.3662701389428
 20
-286.0016615974207
 30
0.0
 11
-217.3867647546523
 21
-293.5783679424375
 31
0.0
  0
LINE
  5
168
330
1F
100
AcDbEntity
  8
0
  6
Continuous
 62
     3
370
     9
100
AcDbLine
 10
-217.3867647546523
 20
-293.5783679424375
 30
0.0
 11
-247.986756836578
 21
-293.5783679424375
 31
0.0
  0
LINE
  5
169
330
1F
100
AcDbEntity
  8
0
  6
Continuous
 62
     3
370
     9
100
AcDbLine
 10
-250.0071524763584
 20
-286.0016615974207
 30
0.0
 11
-247.986756836578
 21
-293.5783679424375
 31
0.0
  0
LINE
  5
16A
330
1F
100
AcDbEntity
  8
0
  6
Continuous
 62
     3
370
     9
100
AcDbLine
 10
-184.0869072799901
 20
-302.4717510716605
 30
0.0
 11
-184.0869072799901
 21
-326.4718302524037
 31
0.0
  0
LINE
  5
16B
330
1F
100
AcDbEntity
  8
0
  6
Continuous
 62
     3
370
     9
100
AcDbLine
 10
-179.0868412960375
 20
-302.4717510716605
 30
0.0
 11
-179.0868412960375
 21
-326.4718302524037
 31
0.0
  0
LINE
  5
16C
330
1F
100
AcDbEntity
  8
0
  6
Continuous
 62
     3
370
     9
100
AcDbLine
 10
-171.0868149024564
 20
-302.4717510716605
 30
0.0
 11
-171.0868149024564
 21
-326.4718302524037
 31
0.0
  0
LINE
  5
16D
330
1F
100
AcDbEntity
  8
0
  6
Continuous
 62
     3
370
     9
100
AcDbLine
 10
-166.0868478944327
 20
-302.4717510716605
 30
0.0
 11
-166.0868478944327
 21
-326.4717312764747
 31
0.0
  0
LINE
  5
16E
330
1F
100
AcDbEntity
  8
0
  6
Continuous
 62
     3
370
     9
100
AcDbLine
 10
-170.5867885088753
 20
-269.0783613440423
 30
0.0
 11
-170.5867885088753
 21
-260.0784306271926
 31
0.0
  0
LINE
  5
16F
330
1F
100
AcDbEntity
  8
0
  6
Continuous
 62
     3
370
     9
100
AcDbLine
 10
-170.5867885088753
 20
-260.0784306271926
 30
0.0
 11
-179.5866697377604
 21
-260.0784306271926
 31
0.0
  0
LINE
  5
170
330
1F
100
AcDbEntity
  8
0
  6
Continuous
 62
     3
370
     9
100
AcDbLine
 10
-179.5866697377604
 20
-260.0784306271926
 30
0.0
 11
-179.5866697377604
 21
-269.0783613440423
 31
0.0
  0
LINE
  5
171
330
1F
100
AcDbEntity
  8
0
  6
Continuous
 62
     3
370
     9
100
AcDbLine
 10
-179.5866697377604
 20
-269.0783613440423
 30
0.0
 11
-170.5867885088753
 21
-269.0783613440423
 31
0.0
  0
LINE
  5
172
330
1F
100
AcDbEntity
  8
0
  6
Continuous
 62
     3
370
     9
100
AcDbLine
 10
-172.0868676896185
 20
-269.0783613440423
 30
0.0
 11
-172.0868676896185
 21
-298.47173787487
 31
0.0
  0
LINE
  5
173
330
1F
100
AcDbEntity
  8
0
  6
Continuous
 62
     3
370
     9
100
AcDbLine
 10
-178.0867885088753
 20
-269.0783613440423
 30
0.0
 11
-178.0867885088753
 21
-298.47173787487
 31
0.0
  0
LINE
  5
174
330
1F
100
AcDbEntity
  8
0
  6
Continuous
 62
     3
370
     9
100
AcDbLine
 10
-148.5694941148719
 20
-278.5783679424375
 30
0.0
 11
-172.0868676896185
 21
-278.5783679424375
 31
0.0
  0
LINE
  5
175
330
1F
100
AcDbEntity
  8
0
  6
Continuous
 62
     3
370
     9
100
AcDbLine
 10
-178.0867885088753
 20
-278.5783679424375
 30
0.0
 11
-205.703943016899
 21
-278.5783679424375
 31
0.0
  0
LINE
  5
176
330
1F
100
AcDbEntity
  8
0
  6
Continuous
 62
     3
370
     9
100
AcDbLine
 10
-157.0867687136895
 20
-253.5783349504612
 30
0.0
 11
-160.5442948433348
 21
-267.2549278030794
 31
0.0
  0
LINE
  5
177
330
1F
100
AcDbEntity
  8
0
  6
Continuous
 62
     3
370
     9
100
AcDbLine
 10
-193.0867885088753
 20
-253.5783349504612
 30
0.0
 11
-189.62926237923
 21
-267.2548288271503
 31
0.0
  0
LINE
  5
178
330
1F
100
AcDbEntity
  8
0
  6
Continuous
 62
     3
370
     9
100
AcDbLine
 10
-169.0868083040612
 20
-253.5783349504612
 30
0.0
 11
-170.5867885088753
 21
-261.3644743613564
 31
0.0
  0
LINE
  5
179
330
1F
100
AcDbEntity
  8
0
  6
Continuous
 62
     3
370
     9
100
AcDbLine
 10
-181.0867489185036
 20
-253.5783349504612
 30
0.0
 11
-179.5866697377604
 21
-261.3652661687889
 31
0.0
  0
LINE
  5
17A
330
1F
100
AcDbEntity
  8
0
  6
JWW_CENTER1
 62
     3
370
     9
100
AcDbLine
 10
-175.0868280992469
 20
-239.5783877376233
 30
0.0
 11
-175.0868280992469
 21
-349.2935020218295
 31
0.0
  0
LINE
  5
17B
330
1F
100
AcDbEntity
  8
0
  6
Continuous
 62
     3
370
     9
100
AcDbLine
 10
-108.7651365346354
 20
-256.9705369669308
 30
0.0
 11
-107.0867027297367
 21
-248.5783679424375
 31
0.0
  0
LINE
  5
17C
330
1F
100
AcDbEntity
  8
0
  6
Continuous
 62
     3
370
     9
100
AcDbLine
 10
-126.4436231266962
 20
-251.7938484375811
 30
0.0
 11
-125.4082359328617
 21
-256.9705369669308
 31
0.0
  0
LINE
  5
17D
330
1F
100
AcDbEntity
  8
0
  6
Continuous
 62
     3
370
     9
100
AcDbLine
 10
-132.9606931752604
 20
-260.7791307169308
 30
0.0
 11
-158.4853975671523
 21
-276.3775391839916
 31
0.0
  0
LINE
  5
17E
330
1F
100
AcDbEntity
  8
0
  6
Continuous
 62
     3
370
     9
100
AcDbLine
 10
-113.9785946216286
 20
-293.5783679424375
 30
0.0
 11
-136.8866723771185
 21
-293.5783679424375
 31
0.0
  0
LINE
  5
17F
330
1F
100
AcDbEntity
  8
0
  6
Continuous
 62
     3
370
     9
100
AcDbLine
 10
-125.1389224299057
 20
-258.5783514464493
 30
0.0
 11
-110.7263445688414
 21
-258.5783514464493
 31
0.0
  0
LINE
  5
180
330
1F
100
AcDbEntity
  8
0
  6
Continuous
 62
     3
370
     9
100
AcDbLine
 10
-112.1870313298212
 20
-260.4342985801064
 30
0.0
 11
-113.9785946216286
 21
-293.5783679424375
 31
0.0
  0
LINE
  5
181
330
1F
100
AcDbEntity
  8
0
  6
Continuous
 62
     3
370
     9
100
AcDbLine
 10
-121.9863411376759
 20
-260.4342490921419
 30
0.0
 11
-120.1947778458685
 21
-293.5783679424375
 31
0.0
  0
LINE
  5
182
330
1F
100
AcDbEntity
  8
0
  6
Continuous
 62
     3
370
     9
100
AcDbLine
 10
-345.2866275080307
 20
-293.5783679424375
 30
0.0
 11
-343.536733082355
 21
-258.5783514464493
 31
0.0
  0
LINE
  5
183
330
1F
100
AcDbEntity
  8
0
  6
Continuous
 62
     3
370
     9
100
AcDbLine
 10
-351.2867462791455
 20
-293.5783679424375
 30
0.0
 11
-353.0366407048213
 21
-258.5783514464493
 31
0.0
  0
LINE
  5
184
330
1F
100
AcDbEntity
  8
0
  6
Continuous
 62
     3
370
     9
100
AcDbLine
 10
-354.6470780464598
 20
-258.5783514464493
 30
0.0
 11
-341.9262957407166
 21
-258.5783514464493
 31
0.0
  0
LINE
  5
185
330
1F
100
AcDbEntity
  8
0
  6
Continuous
 62
     3
370
     9
100
AcDbLine
 10
-229.6867014100577
 20
-293.5783679424375
 30
0.0
 11
-227.936708008453
 21
-258.5783514464493
 31
0.0
  0
LINE
  5
186
330
1F
100
AcDbEntity
  8
0
  6
Continuous
 62
     3
370
     9
100
AcDbLine
 10
-235.6867212052435
 20
-293.5783679424375
 30
0.0
 11
-237.4367146068482
 21
-258.5783514464493
 31
0.0
  0
LINE
  5
187
330
1F
100
AcDbEntity
  8
0
  6
Continuous
 62
     3
370
     9
100
AcDbLine
 10
-239.0470529725577
 20
-258.5783514464493
 30
0.0
 11
-226.3262706668145
 21
-258.5783514464493
 31
0.0
  0
LINE
  5
188
330
1F
100
AcDbEntity
  8
0
  6
Continuous
 62
     3
370
     9
100
AcDbLine
 10
-339.9650877065104
 20
-256.9705369669308
 30
0.0
 11
-338.2866539016118
 21
-248.5783679424375
 31
0.0
  0
LINE
  5
189
330
1F
100
AcDbEntity
  8
0
  6
Continuous
 62
     3
370
     9
100
AcDbLine
 10
-356.6082860806658
 20
-256.9705369669308
 30
0.0
 11
-358.2867198855645
 21
-248.5783679424375
 31
0.0
  0
LINE
  5
18A
330
1F
100
AcDbEntity
  8
0
  6
Continuous
 62
     3
370
     9
100
AcDbLine
 10
-224.3651616085375
 20
-256.9705369669308
 30
0.0
 11
-222.6867278036389
 21
-248.5783679424375
 31
0.0
  0
LINE
  5
18B
330
1F
100
AcDbEntity
  8
0
  6
Continuous
 62
     3
370
     9
100
AcDbLine
 10
-241.0082610067639
 20
-256.9705369669308
 30
0.0
 11
-242.6866948116625
 21
-248.5783679424375
 31
0.0
  0
LINE
  5
18C
330
1F
100
AcDbEntity
  8
0
  6
Continuous
 62
     3
370
     9
100
AcDbLine
 10
-241.6867410004294
 20
-253.5783349504612
 30
0.0
 11
-339.286706688774
 21
-253.5783349504612
 31
0.0
  0
LINE
  5
18D
330
1F
100
AcDbEntity
  8
0
  6
Continuous
 62
     3
370
     9
100
AcDbLine
 10
-127.7262521913077
 20
-253.5783349504612
 30
0.0
 11
-223.6866816148719
 21
-253.5783349504612
 31
0.0
  0
LINE
  5
18E
330
1F
100
AcDbEntity
  8
0
  6
Continuous
 62
     3
370
     9
100
AcDbLine
 10
-168.5672836524564
 20
-352.2776262828091
 30
0.0
 11
-181.3775401980645
 21
-338.5546137194646
 31
0.0
  0
LINE
  5
18F
330
1F
100
AcDbEntity
  8
0
  6
Continuous
 62
     3
370
     9
100
AcDbLine
 10
-177.5870590430814
 20
-327.9718104572179
 30
0.0
 11
-177.5870590430814
 21
-342.6151012089071
 31
0.0
  0
LINE
  5
190
330
1F
100
AcDbEntity
  8
0
  6
Continuous
 62
     3
370
     9
100
AcDbLine
 10
-172.5868940831996
 20
-327.9718104572179
 30
0.0
 11
-172.5868940831996
 21
-347.9715795133835
 31
0.0
  0
LINE
  5
191
330
1F
100
AcDbEntity
  8
0
  6
Continuous
 62
     3
370
     9
100
AcDbLine
 10
378.6535052516821
 20
298.230384169049
 30
0.0
 11
377.270910498726
 21
297.9539443992011
 31
0.0
  0
LINE
  5
192
330
1F
100
AcDbEntity
  8
0
  6
Continuous
 62
     3
370
     9
100
AcDbLine
 10
377.270910498726
 20
308.9892656090827
 30
0.0
 11
378.6535052516821
 21
308.7127268633058
 31
0.0
  0
LINE
  5
193
330
1F
100
AcDbEntity
  8
0
  6
Continuous
 62
     3
370
     9
100
AcDbLine
 10
377.6596879480504
 20
328.6082742661774
 30
0.0
 11
418.4590505430673
 21
331.3282317725118
 31
0.0
  0
LINE
  5
194
330
1F
100
AcDbEntity
  8
0
  6
Continuous
 62
     3
370
     9
100
AcDbLine
 10
379.8593289953477
 20
299.7012654507213
 30
0.0
 11
379.8593289953477
 21
307.2418455816335
 31
0.0
  0
LINE
  5
195
330
1F
100
AcDbEntity
  8
0
  6
Continuous
 62
     3
370
     9
100
AcDbLine
 10
381.7097829649423
 20
340.2827820258902
 30
0.0
 11
418.4715215101281
 21
337.5256095702314
 31
0.0
  0
LINE
  5
196
330
1F
100
AcDbEntity
  8
0
  6
Continuous
 62
     3
370
     9
100
AcDbLine
 10
379.8593289953477
 20
342.2771469963294
 30
0.0
 11
379.8593289953477
 21
342.4215528768193
 31
0.0
  0
LINE
  5
197
330
1F
100
AcDbEntity
  8
0
  6
Continuous
 62
     3
370
     9
100
AcDbLine
 10
394.8593289953477
 20
133.6715693728074
 30
0.0
 11
394.8593289953477
 21
145.6115800622077
 31
0.0
  0
LINE
  5
198
330
1F
100
AcDbEntity
  8
0
  6
Continuous
 62
     3
370
     9
100
AcDbLine
 10
387.8592564129998
 20
221.3048569572669
 30
0.0
 11
387.8592564129998
 21
273.3858423616166
 31
0.0
  0
LINE
  5
199
330
1F
100
AcDbEntity
  8
0
  6
Continuous
 62
     3
370
     9
100
AcDbLine
 10
387.8592564129998
 20
65.53822240279052
 30
0.0
 11
387.8592564129998
 21
13.4573359743699
 31
0.0
  0
LINE
  5
19A
330
1F
100
AcDbEntity
  8
0
  6
Continuous
 62
     3
370
     9
100
AcDbLine
 10
387.8592564129998
 20
123.5115417915152
 30
0.0
 11
387.8592564129998
 21
75.80489654763844
 31
0.0
  0
LINE
  5
19B
330
1F
100
AcDbEntity
  8
0
  6
Continuous
 62
     3
370
     9
100
AcDbLine
 10
-705.0868940831995
 20
-54.07844382398312
 30
0.0
 11
-705.0868940831995
 21
340.921572672005
 31
0.0
  0
LINE
  5
19C
330
1F
100
AcDbEntity
  8
0
  6
Continuous
 62
     3
370
     9
100
AcDbLine
 10
369.8592960033715
 20
295.1512430161774
 30
0.0
 11
369.8592960033715
 21
311.7918680161774
 31
0.0
  0
LINE
  5
19D
330
1F
100
AcDbEntity
  8
0
  6
Continuous
 62
     3
370
     9
100
AcDbLine
 10
374.859263011395
 20
295.0121818358564
 30
0.0
 11
374.859263011395
 21
282.8310162953159
 31
0.0
  0
LINE
  5
19E
330
1F
100
AcDbEntity
  8
0
  6
Continuous
 62
     3
370
     9
100
AcDbLine
 10
379.8593289953477
 20
-20.39871673361156
 30
0.0
 11
379.8593289953477
 21
-12.85813660269937
 31
0.0
  0
LINE
  5
19F
330
1F
100
AcDbEntity
  8
0
  6
Continuous
 62
     3
370
     9
100
AcDbLine
 10
374.859263011395
 20
263.8216003852652
 30
0.0
 11
371.0651197470369
 21
264.5803498573936
 31
0.0
  0
LINE
  5
1A0
330
1F
100
AcDbEntity
  8
0
  6
Continuous
 62
     3
370
     9
100
AcDbLine
 10
374.859263011395
 20
265.9121699587449
 30
0.0
 11
374.859263011395
 21
253.7310044182044
 31
0.0
  0
LINE
  5
1A1
330
1F
100
AcDbEntity
  8
0
  6
Continuous
 62
     3
370
     9
100
AcDbLine
 10
377.270910498726
 20
-11.11076606321458
 30
0.0
 11
378.6535052516821
 21
-11.38725532102708
 31
0.0
  0
LINE
  5
1A2
330
1F
100
AcDbEntity
  8
0
  6
Continuous
 62
     3
370
     9
100
AcDbLine
 10
378.6535052516821
 20
-21.86964750324833
 30
0.0
 11
377.270910498726
 21
-22.14613676106083
 31
0.0
  0
LINE
  5
1A3
330
1F
100
AcDbEntity
  8
0
  6
Continuous
 62
     3
370
     9
100
AcDbLine
 10
378.6535052516821
 20
7.230413861827721
 30
0.0
 11
377.270910498726
 21
6.953924604015221
 31
0.0
  0
LINE
  5
1A4
330
1F
100
AcDbEntity
  8
0
  6
Continuous
 62
     3
370
     9
100
AcDbLine
 10
371.0651197470369
 20
284.1627374207382
 30
0.0
 11
374.859263011395
 21
284.9215858687957
 31
0.0
  0
LINE
  5
1A5
330
1F
100
AcDbEntity
  8
0
  6
Continuous
 62
     3
370
     9
100
AcDbLine
 10
377.270910498726
 20
17.9891963259324
 30
0.0
 11
378.6535052516821
 21
17.7127070681199
 31
0.0
  0
LINE
  5
1A6
330
1F
100
AcDbEntity
  8
0
  6
Continuous
 62
     3
370
     9
100
AcDbLine
 10
369.8592960033715
 20
266.0512311390659
 30
0.0
 11
369.8592960033715
 21
282.6918561390659
 31
0.0
  0
LINE
  5
1A7
330
1F
100
AcDbEntity
  8
0
  6
Continuous
 62
     3
370
     9
100
AcDbLine
 10
374.859263011395
 20
322.0215251635591
 30
0.0
 11
371.0651197470369
 21
322.7803736116166
 31
0.0
  0
LINE
  5
1A8
330
1F
100
AcDbEntity
  8
0
  6
Continuous
 62
     3
370
     9
100
AcDbLine
 10
374.859263011395
 20
343.4216056639814
 30
0.0
 11
371.0651197470369
 21
342.662757215924
 31
0.0
  0
LINE
  5
1A9
330
1F
100
AcDbEntity
  8
0
  6
Continuous
 62
     3
370
     9
100
AcDbLine
 10
371.0651197470369
 20
313.2627492978497
 30
0.0
 11
374.859263011395
 21
314.0215977459071
 31
0.0
  0
LINE
  5
1AA
330
1F
100
AcDbEntity
  8
0
  6
Continuous
 62
     3
370
     9
100
AcDbLine
 10
374.859263011395
 20
325.6149452437957
 30
0.0
 11
374.859263011395
 21
311.9309291964984
 31
0.0
  0
LINE
  5
1AB
330
1F
100
AcDbEntity
  8
0
  6
Continuous
 62
     3
370
     9
100
AcDbLine
 10
379.8593289953477
 20
8.701295143500012
 30
0.0
 11
379.8593289953477
 21
16.24182578644761
 31
0.0
  0
LINE
  5
1AC
330
1F
100
AcDbEntity
  8
0
  6
Continuous
 62
     3
370
     9
100
AcDbLine
 10
374.859263011395
 20
292.9216122623767
 30
0.0
 11
371.0651197470369
 21
293.6804607104341
 31
0.0
  0
LINE
  5
1AD
330
1F
100
AcDbEntity
  8
0
  6
Continuous
 62
     3
370
     9
100
AcDbLine
 10
369.8592960033715
 20
324.2512548932889
 30
0.0
 11
369.8592960033715
 21
341.1918759342517
 31
0.0
  0
LINE
  5
1AE
330
1F
100
AcDbEntity
  8
0
  6
Continuous
 62
     3
370
     9
100
AcDbLine
 10
374.859263011395
 20
343.4216056639814
 30
0.0
 11
379.8593289953477
 21
342.4215528768193
 31
0.0
  0
LINE
  5
1AF
330
1F
100
AcDbEntity
  8
0
  6
Continuous
 62
     3
370
     9
100
AcDbLine
 10
369.8592960033715
 20
236.9513182378834
 30
0.0
 11
369.8592960033715
 21
253.5918442619544
 31
0.0
  0
LINE
  5
1B0
330
1F
100
AcDbEntity
  8
0
  6
Continuous
 62
     3
370
     9
100
AcDbLine
 10
371.0651197470369
 20
255.0627255436267
 30
0.0
 11
374.859263011395
 21
255.8215739916841
 31
0.0
  0
LINE
  5
1B1
330
1F
100
AcDbEntity
  8
0
  6
Continuous
 62
     3
370
     9
100
AcDbLine
 10
374.859263011395
 20
234.7215885081536
 30
0.0
 11
371.0651197470369
 21
235.4804369562112
 31
0.0
  0
LINE
  5
1B2
330
1F
100
AcDbEntity
  8
0
  6
Continuous
 62
     3
370
     9
100
AcDbLine
 10
374.859263011395
 20
236.8121580816334
 30
0.0
 11
374.859263011395
 21
224.9782001002145
 31
0.0
  0
LINE
  5
1B3
330
1F
100
AcDbEntity
  8
0
  6
Continuous
 62
     3
370
     9
100
AcDbLine
 10
379.8593289953477
 20
37.8012080446824
 30
0.0
 11
379.8593289953477
 21
45.34183766355907
 31
0.0
  0
LINE
  5
1B4
330
1F
100
AcDbEntity
  8
0
  6
Continuous
 62
     3
370
     9
100
AcDbLine
 10
377.270910498726
 20
47.08925769100845
 30
0.0
 11
378.6535052516821
 21
46.81276843319595
 31
0.0
  0
LINE
  5
1B5
330
1F
100
AcDbEntity
  8
0
  6
Continuous
 62
     3
370
     9
100
AcDbLine
 10
378.6535052516821
 20
36.33032676301011
 30
0.0
 11
377.270910498726
 21
36.05383750519761
 31
0.0
  0
LINE
  5
1B6
330
1F
100
AcDbEntity
  8
0
  6
Continuous
 62
     3
370
     9
100
AcDbLine
 10
374.859263011395
 20
205.6215766310422
 30
0.0
 11
371.0651197470369
 21
206.3803755911351
 31
0.0
  0
LINE
  5
1B7
330
1F
100
AcDbEntity
  8
0
  6
Continuous
 62
     3
370
     9
100
AcDbLine
 10
371.0651197470369
 20
225.9627136665152
 30
0.0
 11
374.859263011395
 21
226.7215621145726
 31
0.0
  0
LINE
  5
1B8
330
1F
100
AcDbEntity
  8
0
  6
Continuous
 62
     3
370
     9
100
AcDbLine
 10
369.8592960033715
 20
207.8512568728074
 30
0.0
 11
369.8592960033715
 21
224.491931360772
 31
0.0
  0
LINE
  5
1B9
330
1F
100
AcDbEntity
  8
0
  6
Continuous
 62
     3
370
     9
100
AcDbLine
 10
369.8592960033715
 20
178.7512944836604
 30
0.0
 11
369.8592960033715
 21
195.3918699956959
 31
0.0
  0
LINE
  5
1BA
330
1F
100
AcDbEntity
  8
0
  6
Continuous
 62
     3
370
     9
100
AcDbLine
 10
371.0651197470369
 20
196.8627512773682
 30
0.0
 11
374.859263011395
 21
197.6215997254256
 31
0.0
  0
LINE
  5
1BB
330
1F
100
AcDbEntity
  8
0
  6
Continuous
 62
     3
370
     9
100
AcDbLine
 10
374.859263011395
 20
176.5215647539307
 30
0.0
 11
371.0651197470369
 21
177.2804132019881
 31
0.0
  0
LINE
  5
1BC
330
1F
100
AcDbEntity
  8
0
  6
Continuous
 62
     3
370
     9
100
AcDbLine
 10
374.859263011395
 20
207.3649386454003
 30
0.0
 11
374.859263011395
 21
195.5310301519459
 31
0.0
  0
LINE
  5
1BD
330
1F
100
AcDbEntity
  8
0
  6
Continuous
 62
     3
370
     9
100
AcDbLine
 10
374.859263011395
 20
178.612183815375
 30
0.0
 11
374.859263011395
 21
166.4309687868699
 31
0.0
  0
LINE
  5
1BE
330
1F
100
AcDbEntity
  8
0
  6
Continuous
 62
     3
370
     9
100
AcDbLine
 10
379.8593289953477
 20
96.0012812868699
 30
0.0
 11
379.8593289953477
 21
103.5418614177821
 31
0.0
  0
LINE
  5
1BF
330
1F
100
AcDbEntity
  8
0
  6
Continuous
 62
     3
370
     9
100
AcDbLine
 10
377.270910498726
 20
105.2892319572669
 30
0.0
 11
378.6535052516821
 21
105.0127426994544
 31
0.0
  0
LINE
  5
1C0
330
1F
100
AcDbEntity
  8
0
  6
Continuous
 62
     3
370
     9
100
AcDbLine
 10
378.6535052516821
 20
94.5304000051976
 30
0.0
 11
377.270910498726
 21
94.2539107473851
 31
0.0
  0
LINE
  5
1C1
330
1F
100
AcDbEntity
  8
0
  6
Continuous
 62
     3
370
     9
100
AcDbLine
 10
374.859263011395
 20
147.4215528768193
 30
0.0
 11
371.0651197470369
 21
148.1804013248767
 31
0.0
  0
LINE
  5
1C2
330
1F
100
AcDbEntity
  8
0
  6
Continuous
 62
     3
370
     9
100
AcDbLine
 10
371.0651197470369
 20
167.7627394002568
 30
0.0
 11
374.859263011395
 21
168.5215383603496
 31
0.0
  0
LINE
  5
1C3
330
1F
100
AcDbEntity
  8
0
  6
Continuous
 62
     3
370
     9
100
AcDbLine
 10
369.8592960033715
 20
149.6512331185845
 30
0.0
 11
369.8592960033715
 21
166.2918581185845
 31
0.0
  0
LINE
  5
1C4
330
1F
100
AcDbEntity
  8
0
  6
Continuous
 62
     3
370
     9
100
AcDbLine
 10
374.859263011395
 20
149.5121719382634
 30
0.0
 11
374.859263011395
 21
138.0411586886858
 31
0.0
  0
LINE
  5
1C5
330
1F
100
AcDbEntity
  8
0
  6
Continuous
 62
     3
370
     9
100
AcDbLine
 10
404.859263011395
 20
68.07487648851688
 30
0.0
 11
404.859263011395
 21
73.26824246191208
 31
0.0
  0
LINE
  5
1C6
330
1F
100
AcDbEntity
  8
0
  6
Continuous
 62
     3
370
     9
100
AcDbLine
 10
369.8592960033715
 20
137.1918462414729
 30
0.0
 11
369.8592960033715
 21
120.5512707294375
 31
0.0
  0
LINE
  5
1C7
330
1F
100
AcDbEntity
  8
0
  6
Continuous
 62
     3
370
     9
100
AcDbLine
 10
371.0651197470369
 20
119.0803894477652
 30
0.0
 11
374.859263011395
 21
118.3215904876723
 31
0.0
  0
LINE
  5
1C8
330
1F
100
AcDbEntity
  8
0
  6
Continuous
 62
     3
370
     9
100
AcDbLine
 10
374.859263011395
 20
139.4215759712027
 30
0.0
 11
371.0651197470369
 21
138.6627275231452
 31
0.0
  0
LINE
  5
1C9
330
1F
100
AcDbEntity
  8
0
  6
Continuous
 62
     3
370
     9
100
AcDbLine
 10
374.859263011395
 20
108.230945032647
 30
0.0
 11
374.859263011395
 21
119.7019582822246
 31
0.0
  0
LINE
  5
1CA
330
1F
100
AcDbEntity
  8
0
  6
Continuous
 62
     3
370
     9
100
AcDbLine
 10
374.859263011395
 20
79.47819020262156
 30
0.0
 11
374.859263011395
 21
91.31214818404052
 31
0.0
  0
LINE
  5
1CB
330
1F
100
AcDbEntity
  8
0
  6
Continuous
 62
     3
370
     9
100
AcDbLine
 10
379.8593289953477
 20
154.2013050410929
 30
0.0
 11
379.8593289953477
 21
161.741885172005
 31
0.0
  0
LINE
  5
1CC
330
1F
100
AcDbEntity
  8
0
  6
Continuous
 62
     3
370
     9
100
AcDbLine
 10
377.270910498726
 20
163.4892557114898
 30
0.0
 11
378.6535052516821
 21
163.2126674777483
 31
0.0
  0
LINE
  5
1CD
330
1F
100
AcDbEntity
  8
0
  6
Continuous
 62
     3
370
     9
100
AcDbLine
 10
378.6535052516821
 20
152.7304237594206
 30
0.0
 11
377.270910498726
 21
152.4539345016081
 31
0.0
  0
LINE
  5
1CE
330
1F
100
AcDbEntity
  8
0
  6
Continuous
 62
     3
370
     9
100
AcDbLine
 10
374.859263011395
 20
110.3216135820557
 30
0.0
 11
371.0651197470369
 21
109.5627651339982
 31
0.0
  0
LINE
  5
1CF
330
1F
100
AcDbEntity
  8
0
  6
Continuous
 62
     3
370
     9
100
AcDbLine
 10
377.6596879480504
 20
210.3582676677821
 30
0.0
 11
403.4590505430673
 21
212.0782713628834
 31
0.0
  0
LINE
  5
1D0
330
1F
100
AcDbEntity
  8
0
  6
Continuous
 62
     3
370
     9
100
AcDbLine
 10
378.6535052516821
 20
181.8303861485675
 30
0.0
 11
377.270910498726
 21
181.553896890755
 31
0.0
  0
LINE
  5
1D1
330
1F
100
AcDbEntity
  8
0
  6
Continuous
 62
     3
370
     9
100
AcDbLine
 10
377.270910498726
 20
192.5892181006368
 30
0.0
 11
378.6535052516821
 21
192.3127288428243
 31
0.0
  0
LINE
  5
1D2
330
1F
100
AcDbEntity
  8
0
  6
Continuous
 62
     3
370
     9
100
AcDbLine
 10
377.6596879480504
 20
221.9848710778327
 30
0.0
 11
403.4590505430673
 21
220.2649168706959
 31
0.0
  0
LINE
  5
1D3
330
1F
100
AcDbEntity
  8
0
  6
Continuous
 62
     3
370
     9
100
AcDbLine
 10
371.0651197470369
 20
89.98042705861823
 30
0.0
 11
374.859263011395
 21
89.22157861056073
 31
0.0
  0
LINE
  5
1D4
330
1F
100
AcDbEntity
  8
0
  6
Continuous
 62
     3
370
     9
100
AcDbLine
 10
379.8593289953477
 20
183.3012674302398
 30
0.0
 11
379.8593289953477
 21
190.841847561152
 31
0.0
  0
LINE
  5
1D5
330
1F
100
AcDbEntity
  8
0
  6
Continuous
 62
     3
370
     9
100
AcDbLine
 10
369.8592960033715
 20
108.0918838523259
 30
0.0
 11
369.8592960033715
 21
91.45130834029052
 31
0.0
  0
LINE
  5
1D6
330
1F
100
AcDbEntity
  8
0
  6
Continuous
 62
     3
370
     9
100
AcDbLine
 10
369.8592960033715
 20
78.99187197521448
 30
0.0
 11
369.8592960033715
 21
62.35124697521449
 31
0.0
  0
LINE
  5
1D7
330
1F
100
AcDbEntity
  8
0
  6
Continuous
 62
     3
370
     9
100
AcDbLine
 10
371.0651197470369
 20
60.8803656935422
 30
0.0
 11
374.859263011395
 21
60.12156673344928
 31
0.0
  0
LINE
  5
1D8
330
1F
100
AcDbEntity
  8
0
  6
Continuous
 62
     3
370
     9
100
AcDbLine
 10
374.859263011395
 20
81.22155221697969
 30
0.0
 11
371.0651197470369
 21
80.4627037689223
 31
0.0
  0
LINE
  5
1D9
330
1F
100
AcDbEntity
  8
0
  6
Continuous
 62
     3
370
     9
100
AcDbLine
 10
377.6596879480504
 20
64.85825777018917
 30
0.0
 11
403.4590505430673
 21
66.57826146529052
 31
0.0
  0
LINE
  5
1DA
330
1F
100
AcDbEntity
  8
0
  6
Continuous
 62
     3
370
     9
100
AcDbLine
 10
377.6596879480504
 20
76.48486118023979
 30
0.0
 11
403.4590505430673
 21
74.76490697310302
 31
0.0
  0
LINE
  5
1DB
330
1F
100
AcDbEntity
  8
0
  6
Continuous
 62
     3
370
     9
100
AcDbLine
 10
418.7443981465302
 20
-6.282274852277084
 30
0.0
 11
399.0084989172227
 21
-1.039915793999995
 31
0.0
  0
LINE
  5
1DC
330
1F
100
AcDbEntity
  8
0
  6
Continuous
 62
     3
370
     9
100
AcDbLine
 10
374.859263011395
 20
50.03102025435303
 30
0.0
 11
374.859263011395
 21
61.8649287478074
 31
0.0
  0
LINE
  5
1DD
330
1F
100
AcDbEntity
  8
0
  6
Continuous
 62
     3
370
     9
100
AcDbLine
 10
374.859263011395
 20
20.93090940131251
 30
0.0
 11
374.859263011395
 21
33.11212442981751
 31
0.0
  0
LINE
  5
1DE
330
1F
100
AcDbEntity
  8
0
  6
Continuous
 62
     3
370
     9
100
AcDbLine
 10
374.859263011395
 20
52.12158982783271
 30
0.0
 11
371.0651197470369
 21
51.36274137977532
 31
0.0
  0
LINE
  5
1DF
330
1F
100
AcDbEntity
  8
0
  6
Continuous
 62
     3
370
     9
100
AcDbLine
 10
404.859263011395
 20
218.768252359505
 30
0.0
 11
404.859263011395
 21
213.5748863861098
 31
0.0
  0
LINE
  5
1E0
330
1F
100
AcDbEntity
  8
0
  6
Continuous
 62
     3
370
     9
100
AcDbLine
 10
378.6535052516821
 20
240.030360414826
 30
0.0
 11
377.270910498726
 21
239.753920644978
 31
0.0
  0
LINE
  5
1E1
330
1F
100
AcDbEntity
  8
0
  6
Continuous
 62
     3
370
     9
100
AcDbLine
 10
377.270910498726
 20
250.7892418548598
 30
0.0
 11
378.6535052516821
 21
250.5128020850118
 31
0.0
  0
LINE
  5
1E2
330
1F
100
AcDbEntity
  8
0
  6
Continuous
 62
     3
370
     9
100
AcDbLine
 10
371.0651197470369
 20
31.78040330439521
 30
0.0
 11
374.859263011395
 21
31.02155485633782
 31
0.0
  0
LINE
  5
1E3
330
1F
100
AcDbEntity
  8
0
  6
Continuous
 62
     3
370
     9
100
AcDbLine
 10
379.8593289953477
 20
241.5012416964983
 30
0.0
 11
379.8593289953477
 21
249.0419208033395
 31
0.0
  0
LINE
  5
1E4
330
1F
100
AcDbEntity
  8
0
  6
Continuous
 62
     3
370
     9
100
AcDbLine
 10
369.8592960033715
 20
49.89186009810303
 30
0.0
 11
369.8592960033715
 21
33.25128458606751
 31
0.0
  0
LINE
  5
1E5
330
1F
100
AcDbEntity
  8
0
  6
Continuous
 62
     3
370
     9
100
AcDbLine
 10
369.8592960033715
 20
-37.40812604526698
 30
0.0
 11
369.8592960033715
 21
-54.34874708622979
 31
0.0
  0
LINE
  5
1E6
330
1F
100
AcDbEntity
  8
0
  6
Continuous
 62
     3
370
     9
100
AcDbLine
 10
374.859263011395
 20
-38.77176690780917
 30
0.0
 11
374.859263011395
 21
-25.08784983644094
 31
0.0
  0
LINE
  5
1E7
330
1F
100
AcDbEntity
  8
0
  6
Continuous
 62
     3
370
     9
100
AcDbLine
 10
374.859263011395
 20
-6.078384438425729
 30
0.0
 11
371.0651197470369
 21
-6.837232886483122
 31
0.0
  0
LINE
  5
1E8
330
1F
100
AcDbEntity
  8
0
  6
Continuous
 62
     3
370
     9
100
AcDbLine
 10
379.8593289953477
 20
270.6012535736098
 30
0.0
 11
379.8593289953477
 21
278.141833704522
 31
0.0
  0
LINE
  5
1E9
330
1F
100
AcDbEntity
  8
0
  6
Continuous
 62
     3
370
     9
100
AcDbLine
 10
371.0651197470369
 20
-26.41957096186323
 30
0.0
 11
374.859263011395
 21
-27.17841940992062
 31
0.0
  0
LINE
  5
1EA
330
1F
100
AcDbEntity
  8
0
  6
Continuous
 62
     3
370
     9
100
AcDbLine
 10
374.859263011395
 20
-56.578427327995
 30
0.0
 11
371.0651197470369
 21
-55.8195788799375
 31
0.0
  0
LINE
  5
1EB
330
1F
100
AcDbEntity
  8
0
  6
Continuous
 62
     3
370
     9
100
AcDbLine
 10
374.859263011395
 20
-35.17839631553719
 30
0.0
 11
371.0651197470369
 21
-35.93724476359458
 31
0.0
  0
LINE
  5
1EC
330
1F
100
AcDbEntity
  8
0
  6
Continuous
 62
     3
370
     9
100
AcDbLine
 10
377.270910498726
 20
279.8892537319713
 30
0.0
 11
378.6535052516821
 21
279.6127149861943
 31
0.0
  0
LINE
  5
1ED
330
1F
100
AcDbEntity
  8
0
  6
Continuous
 62
     3
370
     9
100
AcDbLine
 10
369.8592960033715
 20
20.79189770895605
 30
0.0
 11
369.8592960033715
 21
4.151223220991568
 31
0.0
  0
LINE
  5
1EE
330
1F
100
AcDbEntity
  8
0
  6
Continuous
 62
     3
370
     9
100
AcDbLine
 10
378.6535052516821
 20
269.1303722919375
 30
0.0
 11
377.270910498726
 21
268.8539325220895
 31
0.0
  0
LINE
  5
1EF
330
1F
100
AcDbEntity
  8
0
  6
Continuous
 62
     3
370
     9
100
AcDbLine
 10
374.859263011395
 20
-56.578427327995
 30
0.0
 11
379.8593289953477
 21
-55.57842402879729
 31
0.0
  0
LINE
  5
1F0
330
1F
100
AcDbEntity
  8
0
  6
Continuous
 62
     3
370
     9
100
AcDbLine
 10
371.0651197470369
 20
2.680440915248226
 30
0.0
 11
374.859263011395
 21
1.921592467190834
 31
0.0
  0
LINE
  5
1F1
330
1F
100
AcDbEntity
  8
0
  6
Continuous
 62
     3
370
     9
100
AcDbLine
 10
418.7443981465302
 20
293.125403700299
 30
0.0
 11
399.0084989172227
 21
287.883044642022
 31
0.0
  0
LINE
  5
1F2
330
1F
100
AcDbEntity
  8
0
  6
Continuous
 62
     3
370
     9
100
AcDbLine
 10
374.859263011395
 20
23.02152846275678
 30
0.0
 11
371.0651197470369
 21
22.26277899062834
 31
0.0
  0
LINE
  5
1F3
330
1F
100
AcDbEntity
  8
0
  6
Continuous
 62
     3
370
     9
100
AcDbLine
 10
379.8593289953477
 20
-55.43406763627198
 30
0.0
 11
379.8593289953477
 21
-55.57842402879729
 31
0.0
  0
LINE
  5
1F4
330
1F
100
AcDbEntity
  8
0
  6
Continuous
 62
     3
370
     9
100
AcDbLine
 10
381.7097829649423
 20
-53.43965317786834
 30
0.0
 11
418.4715215101281
 21
-50.68248072220948
 31
0.0
  0
LINE
  5
1F5
330
1F
100
AcDbEntity
  8
0
  6
Continuous
 62
     3
370
     9
100
AcDbLine
 10
377.6596879480504
 20
-41.76519490612
 30
0.0
 11
418.4590505430673
 21
-44.48510292448989
 31
0.0
  0
LINE
  5
1F6
330
1F
100
AcDbEntity
  8
0
  6
Continuous
 62
     3
370
     9
100
AcDbLine
 10
374.859263011395
 20
-8.169003499870001
 30
0.0
 11
374.859263011395
 21
4.012162040670518
 31
0.0
  0
LINE
  5
1F7
330
1F
100
AcDbEntity
  8
0
  6
Continuous
 62
     3
370
     9
100
AcDbLine
 10
369.8592960033715
 20
-8.308163656120001
 30
0.0
 11
369.8592960033715
 21
-24.94878865612
 31
0.0
  0
LINE
  5
1F8
330
1F
100
AcDbEntity
  8
0
  6
Continuous
 62
     3
370
     9
100
AcDbLine
 10
404.859263011395
 20
131.9483489600118
 30
0.0
 11
404.859263011395
 21
125.7947185229341
 31
0.0
  0
LINE
  5
1F9
330
1F
100
AcDbEntity
  8
0
  6
Continuous
 62
     3
370
     9
100
AcDbLine
 10
403.9389848230504
 20
132.9451850294797
 30
0.0
 11
377.6199986004998
 21
135.0506999682466
 31
0.0
  0
LINE
  5
1FA
330
1F
100
AcDbEntity
  8
0
  6
Continuous
 62
     3
370
     9
100
AcDbLine
 10
403.9389848230504
 20
124.7979814293952
 30
0.0
 11
377.6199986004998
 21
122.6924664906283
 31
0.0
  0
LINE
  5
1FB
330
1F
100
AcDbEntity
  8
0
  6
Continuous
 62
     3
370
     9
100
AcDbLine
 10
501.5405341262598
 20
141.7967508286773
 30
0.0
 11
511.2627416853815
 21
117.0345075062533
 31
0.0
  0
LINE
  5
1FC
330
1F
100
AcDbEntity
  8
0
  6
Continuous
 62
     3
370
     9
100
AcDbLine
 10
388.8593092001619
 20
112.1268355520726
 30
0.0
 11
387.8592564129998
 21
113.1268388512702
 31
0.0
  0
LINE
  5
1FD
330
1F
100
AcDbEntity
  8
0
  6
Continuous
 62
     3
370
     9
100
AcDbLine
 10
393.8592762081856
 20
112.1268355520726
 30
0.0
 11
394.8593289953477
 21
113.1268388512702
 31
0.0
  0
LINE
  5
1FE
330
1F
100
AcDbEntity
  8
0
  6
Continuous
 62
     3
370
     9
100
AcDbLine
 10
489.0050347597059
 20
126.3715997254256
 30
0.0
 11
507.5968712250776
 21
126.3715997254256
 31
0.0
  0
LINE
  5
1FF
330
1F
100
AcDbEntity
  8
0
  6
Continuous
 62
     3
370
     9
100
AcDbLine
 10
489.0051337356348
 20
131.3715667334493
 30
0.0
 11
505.6335846963613
 21
131.3715667334493
 31
0.0
  0
LINE
  5
200
330
1F
100
AcDbEntity
  8
0
  6
Continuous
 62
     3
370
     9
100
AcDbLine
 10
481.8592696097903
 20
131.3715667334493
 30
0.0
 11
483.4818809907026
 21
131.3715667334493
 31
0.0
  0
LINE
  5
201
330
1F
100
AcDbEntity
  8
0
  6
Continuous
 62
     3
370
     9
100
AcDbLine
 10
481.8592696097903
 20
126.3715997254256
 30
0.0
 11
483.4818809907026
 21
126.3715997254256
 31
0.0
  0
LINE
  5
202
330
1F
100
AcDbEntity
  8
0
  6
Continuous
 62
     3
370
     9
100
AcDbLine
 10
393.8592762081856
 20
112.1268355520726
 30
0.0
 11
393.8592762081856
 21
120.6163474027905
 31
0.0
  0
LINE
  5
203
330
1F
100
AcDbEntity
  8
0
  6
Continuous
 62
     3
370
     9
100
AcDbLine
 10
388.8593092001619
 20
112.1268355520726
 30
0.0
 11
388.8593092001619
 21
120.6163474027905
 31
0.0
  0
LINE
  5
204
330
1F
100
AcDbEntity
  8
0
  6
Continuous
 62
     3
370
     9
100
AcDbLine
 10
394.3593026017667
 20
154.611560267022
 30
0.0
 11
388.3592828065808
 21
154.611560267022
 31
0.0
  0
LINE
  5
205
330
1F
100
AcDbEntity
  8
0
  6
Continuous
 62
     3
370
     9
100
AcDbLine
 10
387.8592564129998
 20
145.6115800622077
 30
0.0
 11
386.3592762081856
 21
146.6115833614054
 31
0.0
  0
LINE
  5
206
330
1F
100
AcDbEntity
  8
0
  6
Continuous
 62
     3
370
     9
100
AcDbLine
 10
394.8593289953477
 20
145.6115800622077
 30
0.0
 11
396.3593092001619
 21
146.6115833614054
 31
0.0
  0
LINE
  5
207
330
1F
100
AcDbEntity
  8
0
  6
Continuous
 62
     3
370
     9
100
AcDbLine
 10
396.3593092001619
 20
146.6115833614054
 30
0.0
 11
396.3593092001619
 21
152.6115536686267
 31
0.0
  0
LINE
  5
208
330
1F
100
AcDbEntity
  8
0
  6
Continuous
 62
     3
370
     9
100
AcDbLine
 10
386.3592762081856
 20
146.6115833614054
 30
0.0
 11
386.3592762081856
 21
152.6115536686267
 31
0.0
  0
LINE
  5
209
330
1F
100
AcDbEntity
  8
0
  6
Continuous
 62
     3
370
     9
100
AcDbLine
 10
480.3592894049761
 20
119.8716030246232
 30
0.0
 11
456.3593092001619
 21
119.8716030246232
 31
0.0
  0
LINE
  5
20A
330
1F
100
AcDbEntity
  8
0
  6
Continuous
 62
     3
370
     9
100
AcDbLine
 10
393.8592762081856
 20
112.1268355520726
 30
0.0
 11
388.8593092001619
 21
112.1268355520726
 31
0.0
  0
LINE
  5
20B
330
1F
100
AcDbEntity
  8
0
  6
Continuous
 62
     3
370
     9
100
AcDbLine
 10
480.3592894049761
 20
137.8715634342517
 30
0.0
 11
456.3593092001619
 21
137.8715634342517
 31
0.0
  0
LINE
  5
20C
330
1F
100
AcDbEntity
  8
0
  6
Continuous
 62
     3
370
     9
100
AcDbLine
 10
480.3592894049761
 20
124.871570032647
 30
0.0
 11
456.3593092001619
 21
124.871570032647
 31
0.0
  0
LINE
  5
20D
330
1F
100
AcDbEntity
  8
0
  6
Continuous
 62
     3
370
     9
100
AcDbLine
 10
480.3592894049761
 20
132.871596426228
 30
0.0
 11
456.3593092001619
 21
132.871596426228
 31
0.0
  0
LINE
  5
20E
330
1F
100
AcDbEntity
  8
0
  6
Continuous
 62
     3
370
     9
100
AcDbLine
 10
394.8593289953477
 20
113.1268388512702
 30
0.0
 11
394.8593289953477
 21
124.0715970860675
 31
0.0
  0
LINE
  5
20F
330
1F
100
AcDbEntity
  8
0
  6
Continuous
 62
     3
370
     9
100
AcDbLine
 10
419.8976656718679
 20
131.3715667334493
 30
0.0
 11
417.8592564129998
 21
131.3715667334493
 31
0.0
  0
LINE
  5
210
330
1F
100
AcDbEntity
  8
0
  6
Continuous
 62
     3
370
     9
100
AcDbLine
 10
419.8976656718679
 20
126.3715997254256
 30
0.0
 11
417.8592564129998
 21
126.3715997254256
 31
0.0
  0
LINE
  5
211
330
1F
100
AcDbEntity
  8
0
  6
Continuous
 62
     3
370
     9
100
AcDbLine
 10
454.8593289953478
 20
126.3715997254256
 30
0.0
 11
453.2368165903646
 21
126.3715997254256
 31
0.0
  0
LINE
  5
212
330
1F
100
AcDbEntity
  8
0
  6
Continuous
 62
     3
370
     9
100
AcDbLine
 10
454.8593289953478
 20
131.3715667334493
 30
0.0
 11
453.2368165903646
 21
131.3715667334493
 31
0.0
  0
LINE
  5
213
330
1F
100
AcDbEntity
  8
0
  6
Continuous
 62
     3
370
     9
100
AcDbLine
 10
447.7135638454321
 20
131.3715667334493
 30
0.0
 11
427.1342907246552
 21
131.3715667334493
 31
0.0
  0
LINE
  5
214
330
1F
100
AcDbEntity
  8
0
  6
Continuous
 62
     3
370
     9
100
AcDbLine
 10
447.7135638454321
 20
126.3715997254256
 30
0.0
 11
427.1342907246552
 21
126.3715997254256
 31
0.0
  0
LINE
  5
215
330
1F
100
AcDbEntity
  8
0
  6
Continuous
 62
     3
370
     9
100
AcDbLine
 10
384.3592696097902
 20
137.8610224978074
 30
0.0
 11
384.3592696097902
 21
144.8610455921908
 31
0.0
  0
LINE
  5
216
330
1F
100
AcDbEntity
  8
0
  6
Continuous
 62
     3
370
     9
100
AcDbLine
 10
384.3592696097902
 20
112.8820713787196
 30
0.0
 11
384.3592696097902
 21
119.882094473103
 31
0.0
  0
LINE
  5
217
330
1F
100
AcDbEntity
  8
0
  6
Continuous
 62
     3
370
     9
100
AcDbLine
 10
384.3592696097902
 20
144.8610455921908
 30
0.0
 11
413.3593157985571
 21
142.8331772697669
 31
0.0
  0
LINE
  5
218
330
1F
100
AcDbEntity
  8
0
  6
Continuous
 62
     3
370
     9
100
AcDbLine
 10
384.3592696097902
 20
137.8610224978074
 30
0.0
 11
413.3593157985571
 21
135.8332036633479
 31
0.0
  0
LINE
  5
219
330
1F
100
AcDbEntity
  8
0
  6
Continuous
 62
     3
370
     9
100
AcDbLine
 10
395.8592828065808
 20
137.0568925622077
 30
0.0
 11
395.8592828065808
 21
144.0568661686267
 31
0.0
  0
LINE
  5
21A
330
1F
100
AcDbEntity
  8
0
  6
Continuous
 62
     3
370
     9
100
AcDbLine
 10
386.8593026017667
 20
137.6862310070979
 30
0.0
 11
386.8593026017667
 21
144.6862046135169
 31
0.0
  0
LINE
  5
21B
330
1F
100
AcDbEntity
  8
0
  6
Continuous
 62
     3
370
     9
100
AcDbLine
 10
394.8593289953477
 20
120.6163474027905
 30
0.0
 11
393.8592762081856
 21
120.6163474027905
 31
0.0
  0
LINE
  5
21C
330
1F
100
AcDbEntity
  8
0
  6
Continuous
 62
     3
370
     9
100
AcDbLine
 10
388.8593092001619
 20
120.6163474027905
 30
0.0
 11
387.8592564129998
 21
120.6163474027905
 31
0.0
  0
LINE
  5
21D
330
1F
100
AcDbEntity
  8
0
  6
JWW_CENTER1
 62
     3
370
     9
100
AcDbLine
 10
391.3593421921383
 20
105.3366909152482
 30
0.0
 11
391.3593421921383
 21
161.6868545554509
 31
0.0
  0
LINE
  5
21E
330
1F
100
AcDbEntity
  8
0
  6
Continuous
 62
     3
370
     9
100
AcDbLine
 10
-702.5869600671522
 20
343.4216056639814
 30
0.0
 11
-109.5869336735712
 21
343.4216056639814
 31
0.0
  0
LINE
  5
21F
330
1F
100
AcDbEntity
  8
0
  6
Continuous
 62
     3
370
     9
100
AcDbLine
 10
-704.0867423201083
 20
295.421546278424
 30
0.0
 11
-704.0867423201083
 21
311.5215647539308
 31
0.0
  0
LINE
  5
220
330
1F
100
AcDbEntity
  8
0
  6
Continuous
 62
     3
370
     9
100
AcDbLine
 10
-702.5869600671522
 20
342.4215528768193
 30
0.0
 11
-109.5869336735712
 21
342.4215528768193
 31
0.0
  0
LINE
  5
221
330
1F
100
AcDbEntity
  8
0
  6
Continuous
 62
     3
370
     9
100
AcDbLine
 10
-702.5869600671522
 20
323.0215779507213
 30
0.0
 11
-109.5869336735712
 21
323.0215779507213
 31
0.0
  0
LINE
  5
222
330
1F
100
AcDbEntity
  8
0
  6
Continuous
 62
     3
370
     9
100
AcDbLine
 10
-702.5869600671522
 20
322.0215251635591
 30
0.0
 11
-109.5869336735712
 21
322.0215251635591
 31
0.0
  0
LINE
  5
223
330
1F
100
AcDbEntity
  8
0
  6
Continuous
 62
     3
370
     9
100
AcDbLine
 10
-702.5869600671522
 20
314.0215977459071
 30
0.0
 11
-109.5869336735712
 21
314.0215977459071
 31
0.0
  0
LINE
  5
224
330
1F
100
AcDbEntity
  8
0
  6
Continuous
 62
     3
370
     9
100
AcDbLine
 10
-702.5869600671522
 20
313.0215449587449
 30
0.0
 11
-109.5869336735712
 21
313.0215449587449
 31
0.0
  0
LINE
  5
225
330
1F
100
AcDbEntity
  8
0
  6
Continuous
 62
     3
370
     9
100
AcDbLine
 10
-702.5869600671522
 20
293.9215660736098
 30
0.0
 11
-109.5869336735712
 21
293.9215660736098
 31
0.0
  0
LINE
  5
226
330
1F
100
AcDbEntity
  8
0
  6
Continuous
 62
     3
370
     9
100
AcDbLine
 10
-702.5869600671522
 20
292.9216122623767
 30
0.0
 11
-109.5869336735712
 21
292.9216122623767
 31
0.0
  0
LINE
  5
227
330
1F
100
AcDbEntity
  8
0
  6
Continuous
 62
     3
370
     9
100
AcDbLine
 10
-685.0868280992468
 20
314.0215977459071
 30
0.0
 11
-685.0868280992468
 21
322.0215251635591
 31
0.0
  0
LINE
  5
228
330
1F
100
AcDbEntity
  8
0
  6
Continuous
 62
     3
370
     9
100
AcDbLine
 10
-453.8868769273719
 20
314.0215977459071
 30
0.0
 11
-453.8868769273719
 21
322.0215251635591
 31
0.0
  0
LINE
  5
229
330
1F
100
AcDbEntity
  8
0
  6
Continuous
 62
     3
370
     9
100
AcDbLine
 10
-473.8868439353956
 20
314.0215977459071
 30
0.0
 11
-473.8868439353956
 21
322.0215251635591
 31
0.0
  0
LINE
  5
22A
330
1F
100
AcDbEntity
  8
0
  6
Continuous
 62
     3
370
     9
100
AcDbLine
 10
-589.4869679852266
 20
314.0215977459071
 30
0.0
 11
-589.4869679852266
 21
322.0215251635591
 31
0.0
  0
LINE
  5
22B
330
1F
100
AcDbEntity
  8
0
  6
Continuous
 62
     3
370
     9
100
AcDbLine
 10
-569.486902001274
 20
314.0215977459071
 30
0.0
 11
-569.486902001274
 21
322.0215251635591
 31
0.0
  0
LINE
  5
22C
330
1F
100
AcDbEntity
  8
0
  6
Continuous
 62
     3
370
     9
100
AcDbLine
 10
-704.0867423201083
 20
324.5215581555354
 30
0.0
 11
-704.0867423201083
 21
340.921572672005
 31
0.0
  0
LINE
  5
22D
330
1F
100
AcDbEntity
  8
0
  6
Continuous
 62
     3
370
     9
100
AcDbLine
 10
-569.486902001274
 20
284.9215858687957
 30
0.0
 11
-569.486902001274
 21
292.9216122623767
 31
0.0
  0
LINE
  5
22E
330
1F
100
AcDbEntity
  8
0
  6
Continuous
 62
     3
370
     9
100
AcDbLine
 10
-589.4869679852266
 20
284.9215858687957
 30
0.0
 11
-589.4869679852266
 21
292.9216122623767
 31
0.0
  0
LINE
  5
22F
330
1F
100
AcDbEntity
  8
0
  6
Continuous
 62
     3
370
     9
100
AcDbLine
 10
-473.8868439353956
 20
284.9215858687957
 30
0.0
 11
-473.8868439353956
 21
292.9216122623767
 31
0.0
  0
LINE
  5
230
330
1F
100
AcDbEntity
  8
0
  6
Continuous
 62
     3
370
     9
100
AcDbLine
 10
-453.8868769273719
 20
284.9215858687957
 30
0.0
 11
-453.8868769273719
 21
292.9216122623767
 31
0.0
  0
LINE
  5
231
330
1F
100
AcDbEntity
  8
0
  6
Continuous
 62
     3
370
     9
100
AcDbLine
 10
-685.0868280992468
 20
284.9215858687957
 30
0.0
 11
-685.0868280992468
 21
292.9216122623767
 31
0.0
  0
LINE
  5
232
330
1F
100
AcDbEntity
  8
0
  6
Continuous
 62
     3
370
     9
100
AcDbLine
 10
-702.5869600671522
 20
263.8216003852652
 30
0.0
 11
-109.5869336735712
 21
263.8216003852652
 31
0.0
  0
LINE
  5
233
330
1F
100
AcDbEntity
  8
0
  6
Continuous
 62
     3
370
     9
100
AcDbLine
 10
-702.5869600671522
 20
264.8215541964984
 30
0.0
 11
-109.5869336735712
 21
264.8215541964984
 31
0.0
  0
LINE
  5
234
330
1F
100
AcDbEntity
  8
0
  6
Continuous
 62
     3
370
     9
100
AcDbLine
 10
-702.5869600671522
 20
283.9215330816335
 30
0.0
 11
-109.5869336735712
 21
283.9215330816335
 31
0.0
  0
LINE
  5
235
330
1F
100
AcDbEntity
  8
0
  6
Continuous
 62
     3
370
     9
100
AcDbLine
 10
-702.5869600671522
 20
284.9215858687957
 30
0.0
 11
-109.5869336735712
 21
284.9215858687957
 31
0.0
  0
LINE
  5
236
330
1F
100
AcDbEntity
  8
0
  6
Continuous
 62
     3
370
     9
100
AcDbLine
 10
-704.0867423201083
 20
266.3216333772416
 30
0.0
 11
-704.0867423201083
 21
282.4215528768193
 31
0.0
  0
LINE
  5
237
330
1F
100
AcDbEntity
  8
0
  6
Continuous
 62
     3
370
     9
100
AcDbLine
 10
-704.0867423201083
 20
237.221522524201
 30
0.0
 11
-704.0867423201083
 21
253.3216399756368
 31
0.0
  0
LINE
  5
238
330
1F
100
AcDbEntity
  8
0
  6
Continuous
 62
     3
370
     9
100
AcDbLine
 10
-702.5869600671522
 20
255.8215739916841
 30
0.0
 11
-109.5869336735712
 21
255.8215739916841
 31
0.0
  0
LINE
  5
239
330
1F
100
AcDbEntity
  8
0
  6
Continuous
 62
     3
370
     9
100
AcDbLine
 10
-702.5869600671522
 20
254.821620180451
 30
0.0
 11
-109.5869336735712
 21
254.821620180451
 31
0.0
  0
LINE
  5
23A
330
1F
100
AcDbEntity
  8
0
  6
Continuous
 62
     3
370
     9
100
AcDbLine
 10
-702.5869600671522
 20
235.7215423193868
 30
0.0
 11
-109.5869336735712
 21
235.7215423193868
 31
0.0
  0
LINE
  5
23B
330
1F
100
AcDbEntity
  8
0
  6
Continuous
 62
     3
370
     9
100
AcDbLine
 10
-702.5869600671522
 20
234.7215885081536
 30
0.0
 11
-109.5869336735712
 21
234.7215885081536
 31
0.0
  0
LINE
  5
23C
330
1F
100
AcDbEntity
  8
0
  6
Continuous
 62
     3
370
     9
100
AcDbLine
 10
-685.0868280992468
 20
255.8215739916841
 30
0.0
 11
-685.0868280992468
 21
263.8216003852652
 31
0.0
  0
LINE
  5
23D
330
1F
100
AcDbEntity
  8
0
  6
Continuous
 62
     3
370
     9
100
AcDbLine
 10
-453.8868769273719
 20
255.8215739916841
 30
0.0
 11
-453.8868769273719
 21
263.8216003852652
 31
0.0
  0
LINE
  5
23E
330
1F
100
AcDbEntity
  8
0
  6
Continuous
 62
     3
370
     9
100
AcDbLine
 10
-473.8868439353956
 20
255.8215739916841
 30
0.0
 11
-473.8868439353956
 21
263.8216003852652
 31
0.0
  0
LINE
  5
23F
330
1F
100
AcDbEntity
  8
0
  6
Continuous
 62
     3
370
     9
100
AcDbLine
 10
-589.4869679852266
 20
255.8215739916841
 30
0.0
 11
-589.4869679852266
 21
263.8216003852652
 31
0.0
  0
LINE
  5
240
330
1F
100
AcDbEntity
  8
0
  6
Continuous
 62
     3
370
     9
100
AcDbLine
 10
-569.486902001274
 20
255.8215739916841
 30
0.0
 11
-569.486902001274
 21
263.8216003852652
 31
0.0
  0
LINE
  5
241
330
1F
100
AcDbEntity
  8
0
  6
Continuous
 62
     3
370
     9
100
AcDbLine
 10
-569.486902001274
 20
226.7215621145726
 30
0.0
 11
-569.486902001274
 21
234.7215885081536
 31
0.0
  0
LINE
  5
242
330
1F
100
AcDbEntity
  8
0
  6
Continuous
 62
     3
370
     9
100
AcDbLine
 10
-589.4869679852266
 20
226.7215621145726
 30
0.0
 11
-589.4869679852266
 21
234.7215885081536
 31
0.0
  0
LINE
  5
243
330
1F
100
AcDbEntity
  8
0
  6
Continuous
 62
     3
370
     9
100
AcDbLine
 10
-473.8868439353956
 20
226.7215621145726
 30
0.0
 11
-473.8868439353956
 21
234.7215885081536
 31
0.0
  0
LINE
  5
244
330
1F
100
AcDbEntity
  8
0
  6
Continuous
 62
     3
370
     9
100
AcDbLine
 10
-453.8868769273719
 20
226.7215621145726
 30
0.0
 11
-453.8868769273719
 21
234.7215885081536
 31
0.0
  0
LINE
  5
245
330
1F
100
AcDbEntity
  8
0
  6
Continuous
 62
     3
370
     9
100
AcDbLine
 10
-685.0868280992468
 20
226.7215621145726
 30
0.0
 11
-685.0868280992468
 21
234.7215885081536
 31
0.0
  0
LINE
  5
246
330
1F
100
AcDbEntity
  8
0
  6
Continuous
 62
     3
370
     9
100
AcDbLine
 10
-702.5869600671522
 20
205.6215766310422
 30
0.0
 11
-109.5869336735712
 21
205.6215766310422
 31
0.0
  0
LINE
  5
247
330
1F
100
AcDbEntity
  8
0
  6
Continuous
 62
     3
370
     9
100
AcDbLine
 10
-702.5869600671522
 20
206.6215799302398
 30
0.0
 11
-109.5869336735712
 21
206.6215799302398
 31
0.0
  0
LINE
  5
248
330
1F
100
AcDbEntity
  8
0
  6
Continuous
 62
     3
370
     9
100
AcDbLine
 10
-702.5869600671522
 20
225.7216083033395
 30
0.0
 11
-109.5869336735712
 21
225.7216083033395
 31
0.0
  0
LINE
  5
249
330
1F
100
AcDbEntity
  8
0
  6
Continuous
 62
     3
370
     9
100
AcDbLine
 10
-702.5869600671522
 20
226.7215621145726
 30
0.0
 11
-109.5869336735712
 21
226.7215621145726
 31
0.0
  0
LINE
  5
24A
330
1F
100
AcDbEntity
  8
0
  6
Continuous
 62
     3
370
     9
100
AcDbLine
 10
-704.0867423201083
 20
208.1216096230185
 30
0.0
 11
-704.0867423201083
 21
224.2215291225963
 31
0.0
  0
LINE
  5
24B
330
1F
100
AcDbEntity
  8
0
  6
Continuous
 62
     3
370
     9
100
AcDbLine
 10
-704.0867423201083
 20
179.0215482579425
 30
0.0
 11
-704.0867423201083
 21
195.1215667334493
 31
0.0
  0
LINE
  5
24C
330
1F
100
AcDbEntity
  8
0
  6
Continuous
 62
     3
370
     9
100
AcDbLine
 10
-702.5869600671522
 20
197.6215997254256
 30
0.0
 11
-109.5869336735712
 21
197.6215997254256
 31
0.0
  0
LINE
  5
24D
330
1F
100
AcDbEntity
  8
0
  6
Continuous
 62
     3
370
     9
100
AcDbLine
 10
-702.5869600671522
 20
196.621596426228
 30
0.0
 11
-109.5869336735712
 21
196.621596426228
 31
0.0
  0
LINE
  5
24E
330
1F
100
AcDbEntity
  8
0
  6
Continuous
 62
     3
370
     9
100
AcDbLine
 10
-702.5869600671522
 20
177.5215680531283
 30
0.0
 11
-109.5869336735712
 21
177.5215680531283
 31
0.0
  0
LINE
  5
24F
330
1F
100
AcDbEntity
  8
0
  6
Continuous
 62
     3
370
     9
100
AcDbLine
 10
-702.5869600671522
 20
176.5215647539307
 30
0.0
 11
-109.5869336735712
 21
176.5215647539307
 31
0.0
  0
LINE
  5
250
330
1F
100
AcDbEntity
  8
0
  6
Continuous
 62
     3
370
     9
100
AcDbLine
 10
-685.0868280992468
 20
197.6215997254256
 30
0.0
 11
-685.0868280992468
 21
205.6215766310422
 31
0.0
  0
LINE
  5
251
330
1F
100
AcDbEntity
  8
0
  6
Continuous
 62
     3
370
     9
100
AcDbLine
 10
-453.8868769273719
 20
197.6215997254256
 30
0.0
 11
-453.8868769273719
 21
205.6215766310422
 31
0.0
  0
LINE
  5
252
330
1F
100
AcDbEntity
  8
0
  6
Continuous
 62
     3
370
     9
100
AcDbLine
 10
-473.8868439353956
 20
197.6215997254256
 30
0.0
 11
-473.8868439353956
 21
205.6215766310422
 31
0.0
  0
LINE
  5
253
330
1F
100
AcDbEntity
  8
0
  6
Continuous
 62
     3
370
     9
100
AcDbLine
 10
-589.4869679852266
 20
197.6215997254256
 30
0.0
 11
-589.4869679852266
 21
205.6215766310422
 31
0.0
  0
LINE
  5
254
330
1F
100
AcDbEntity
  8
0
  6
Continuous
 62
     3
370
     9
100
AcDbLine
 10
-569.486902001274
 20
197.6215997254256
 30
0.0
 11
-569.486902001274
 21
205.6215766310422
 31
0.0
  0
LINE
  5
255
330
1F
100
AcDbEntity
  8
0
  6
Continuous
 62
     3
370
     9
100
AcDbLine
 10
-569.486902001274
 20
168.5215383603496
 30
0.0
 11
-569.486902001274
 21
176.5215647539307
 31
0.0
  0
LINE
  5
256
330
1F
100
AcDbEntity
  8
0
  6
Continuous
 62
     3
370
     9
100
AcDbLine
 10
-589.4869679852266
 20
168.5215383603496
 30
0.0
 11
-589.4869679852266
 21
176.5215647539307
 31
0.0
  0
LINE
  5
257
330
1F
100
AcDbEntity
  8
0
  6
Continuous
 62
     3
370
     9
100
AcDbLine
 10
-473.8868439353956
 20
168.5215383603496
 30
0.0
 11
-473.8868439353956
 21
176.5215647539307
 31
0.0
  0
LINE
  5
258
330
1F
100
AcDbEntity
  8
0
  6
Continuous
 62
     3
370
     9
100
AcDbLine
 10
-453.8868769273719
 20
168.5215383603496
 30
0.0
 11
-453.8868769273719
 21
176.5215647539307
 31
0.0
  0
LINE
  5
259
330
1F
100
AcDbEntity
  8
0
  6
Continuous
 62
     3
370
     9
100
AcDbLine
 10
-685.0868280992468
 20
168.5215383603496
 30
0.0
 11
-685.0868280992468
 21
176.5215647539307
 31
0.0
  0
LINE
  5
25A
330
1F
100
AcDbEntity
  8
0
  6
Continuous
 62
     3
370
     9
100
AcDbLine
 10
-702.5869600671522
 20
147.4215528768193
 30
0.0
 11
-109.5869336735712
 21
147.4215528768193
 31
0.0
  0
LINE
  5
25B
330
1F
100
AcDbEntity
  8
0
  6
Continuous
 62
     3
370
     9
100
AcDbLine
 10
-702.5869600671522
 20
148.4215561760169
 30
0.0
 11
-109.5869336735712
 21
148.4215561760169
 31
0.0
  0
LINE
  5
25C
330
1F
100
AcDbEntity
  8
0
  6
Continuous
 62
     3
370
     9
100
AcDbLine
 10
-702.5869600671522
 20
167.521535061152
 30
0.0
 11
-109.5869336735712
 21
167.521535061152
 31
0.0
  0
LINE
  5
25D
330
1F
100
AcDbEntity
  8
0
  6
Continuous
 62
     3
370
     9
100
AcDbLine
 10
-702.5869600671522
 20
168.5215383603496
 30
0.0
 11
-109.5869336735712
 21
168.5215383603496
 31
0.0
  0
LINE
  5
25E
330
1F
100
AcDbEntity
  8
0
  6
Continuous
 62
     3
370
     9
100
AcDbLine
 10
-704.0867423201083
 20
149.9215858687956
 30
0.0
 11
-704.0867423201083
 21
166.0215053683733
 31
0.0
  0
LINE
  5
25F
330
1F
100
AcDbEntity
  8
0
  6
Continuous
 62
     3
370
     9
100
AcDbLine
 10
-242.6867937875915
 20
139.4215759712027
 30
0.0
 11
-242.6867937875915
 21
147.4215528768193
 31
0.0
  0
LINE
  5
260
330
1F
100
AcDbEntity
  8
0
  6
Continuous
 62
     3
370
     9
100
AcDbLine
 10
-685.0868280992468
 20
139.4215759712027
 30
0.0
 11
-685.0868280992468
 21
147.4215528768193
 31
0.0
  0
LINE
  5
261
330
1F
100
AcDbEntity
  8
0
  6
Continuous
 62
     3
370
     9
100
AcDbLine
 10
-453.8868769273719
 20
139.4215759712027
 30
0.0
 11
-453.8868769273719
 21
147.4215528768193
 31
0.0
  0
LINE
  5
262
330
1F
100
AcDbEntity
  8
0
  6
Continuous
 62
     3
370
     9
100
AcDbLine
 10
-473.8868439353956
 20
139.4215759712027
 30
0.0
 11
-473.8868439353956
 21
147.4215528768193
 31
0.0
  0
LINE
  5
263
330
1F
100
AcDbEntity
  8
0
  6
Continuous
 62
     3
370
     9
100
AcDbLine
 10
-589.4869679852266
 20
139.4215759712027
 30
0.0
 11
-589.4869679852266
 21
147.4215528768193
 31
0.0
  0
LINE
  5
264
330
1F
100
AcDbEntity
  8
0
  6
Continuous
 62
     3
370
     9
100
AcDbLine
 10
-569.486902001274
 20
139.4215759712027
 30
0.0
 11
-569.486902001274
 21
147.4215528768193
 31
0.0
  0
LINE
  5
265
330
1F
100
AcDbEntity
  8
0
  6
Continuous
 62
     3
370
     9
100
AcDbLine
 10
-222.6868267795678
 20
139.4215759712027
 30
0.0
 11
-222.6868267795678
 21
147.4215528768193
 31
0.0
  0
LINE
  5
266
330
1F
100
AcDbEntity
  8
0
  6
Continuous
 62
     3
370
     9
100
AcDbLine
 10
-338.2868518534699
 20
139.4215759712027
 30
0.0
 11
-338.2868518534699
 21
147.4215528768193
 31
0.0
  0
LINE
  5
267
330
1F
100
AcDbEntity
  8
0
  6
Continuous
 62
     3
370
     9
100
AcDbLine
 10
-358.2870168133517
 20
139.4215759712027
 30
0.0
 11
-358.2870168133517
 21
147.4215528768193
 31
0.0
  0
LINE
  5
268
330
1F
100
AcDbEntity
  8
0
  6
Continuous
 62
     3
370
     9
100
AcDbLine
 10
-127.0868676896185
 20
139.4215759712027
 30
0.0
 11
-127.0868676896185
 21
147.4215528768193
 31
0.0
  0
LINE
  5
269
330
1F
100
AcDbEntity
  8
0
  6
Continuous
 62
     3
370
     9
100
AcDbLine
 10
-108.086854492828
 20
149.9215858687956
 30
0.0
 11
-108.086854492828
 21
166.0215053683733
 31
0.0
  0
LINE
  5
26A
330
1F
100
AcDbEntity
  8
0
  6
Continuous
 62
     3
370
     9
100
AcDbLine
 10
-127.0868676896185
 20
168.5215383603496
 30
0.0
 11
-127.0868676896185
 21
176.5215647539307
 31
0.0
  0
LINE
  5
26B
330
1F
100
AcDbEntity
  8
0
  6
Continuous
 62
     3
370
     9
100
AcDbLine
 10
-358.2870168133517
 20
168.5215383603496
 30
0.0
 11
-358.2870168133517
 21
176.5215647539307
 31
0.0
  0
LINE
  5
26C
330
1F
100
AcDbEntity
  8
0
  6
Continuous
 62
     3
370
     9
100
AcDbLine
 10
-338.2868518534699
 20
168.5215383603496
 30
0.0
 11
-338.2868518534699
 21
176.5215647539307
 31
0.0
  0
LINE
  5
26D
330
1F
100
AcDbEntity
  8
0
  6
Continuous
 62
     3
370
     9
100
AcDbLine
 10
-222.6868267795678
 20
168.5215383603496
 30
0.0
 11
-222.6868267795678
 21
176.5215647539307
 31
0.0
  0
LINE
  5
26E
330
1F
100
AcDbEntity
  8
0
  6
Continuous
 62
     3
370
     9
100
AcDbLine
 10
-242.6867937875915
 20
168.5215383603496
 30
0.0
 11
-242.6867937875915
 21
176.5215647539307
 31
0.0
  0
LINE
  5
26F
330
1F
100
AcDbEntity
  8
0
  6
Continuous
 62
     3
370
     9
100
AcDbLine
 10
-242.6867937875915
 20
197.6215997254256
 30
0.0
 11
-242.6867937875915
 21
205.6215766310422
 31
0.0
  0
LINE
  5
270
330
1F
100
AcDbEntity
  8
0
  6
Continuous
 62
     3
370
     9
100
AcDbLine
 10
-222.6868267795678
 20
197.6215997254256
 30
0.0
 11
-222.6868267795678
 21
205.6215766310422
 31
0.0
  0
LINE
  5
271
330
1F
100
AcDbEntity
  8
0
  6
Continuous
 62
     3
370
     9
100
AcDbLine
 10
-338.2868518534699
 20
197.6215997254256
 30
0.0
 11
-338.2868518534699
 21
205.6215766310422
 31
0.0
  0
LINE
  5
272
330
1F
100
AcDbEntity
  8
0
  6
Continuous
 62
     3
370
     9
100
AcDbLine
 10
-358.2870168133517
 20
197.6215997254256
 30
0.0
 11
-358.2870168133517
 21
205.6215766310422
 31
0.0
  0
LINE
  5
273
330
1F
100
AcDbEntity
  8
0
  6
Continuous
 62
     3
370
     9
100
AcDbLine
 10
-127.0868676896185
 20
197.6215997254256
 30
0.0
 11
-127.0868676896185
 21
205.6215766310422
 31
0.0
  0
LINE
  5
274
330
1F
100
AcDbEntity
  8
0
  6
Continuous
 62
     3
370
     9
100
AcDbLine
 10
-108.086854492828
 20
179.0215482579425
 30
0.0
 11
-108.086854492828
 21
195.1215667334493
 31
0.0
  0
LINE
  5
275
330
1F
100
AcDbEntity
  8
0
  6
Continuous
 62
     3
370
     9
100
AcDbLine
 10
-108.086854492828
 20
208.1216096230185
 30
0.0
 11
-108.086854492828
 21
224.2215291225963
 31
0.0
  0
LINE
  5
276
330
1F
100
AcDbEntity
  8
0
  6
Continuous
 62
     3
370
     9
100
AcDbLine
 10
-127.0868676896185
 20
226.7215621145726
 30
0.0
 11
-127.0868676896185
 21
234.7215885081536
 31
0.0
  0
LINE
  5
277
330
1F
100
AcDbEntity
  8
0
  6
Continuous
 62
     3
370
     9
100
AcDbLine
 10
-358.2870168133517
 20
226.7215621145726
 30
0.0
 11
-358.2870168133517
 21
234.7215885081536
 31
0.0
  0
LINE
  5
278
330
1F
100
AcDbEntity
  8
0
  6
Continuous
 62
     3
370
     9
100
AcDbLine
 10
-338.2868518534699
 20
226.7215621145726
 30
0.0
 11
-338.2868518534699
 21
234.7215885081536
 31
0.0
  0
LINE
  5
279
330
1F
100
AcDbEntity
  8
0
  6
Continuous
 62
     3
370
     9
100
AcDbLine
 10
-222.6868267795678
 20
226.7215621145726
 30
0.0
 11
-222.6868267795678
 21
234.7215885081536
 31
0.0
  0
LINE
  5
27A
330
1F
100
AcDbEntity
  8
0
  6
Continuous
 62
     3
370
     9
100
AcDbLine
 10
-242.6867937875915
 20
226.7215621145726
 30
0.0
 11
-242.6867937875915
 21
234.7215885081536
 31
0.0
  0
LINE
  5
27B
330
1F
100
AcDbEntity
  8
0
  6
Continuous
 62
     3
370
     9
100
AcDbLine
 10
-242.6867937875915
 20
255.8215739916841
 30
0.0
 11
-242.6867937875915
 21
263.8216003852652
 31
0.0
  0
LINE
  5
27C
330
1F
100
AcDbEntity
  8
0
  6
Continuous
 62
     3
370
     9
100
AcDbLine
 10
-222.6868267795678
 20
255.8215739916841
 30
0.0
 11
-222.6868267795678
 21
263.8216003852652
 31
0.0
  0
LINE
  5
27D
330
1F
100
AcDbEntity
  8
0
  6
Continuous
 62
     3
370
     9
100
AcDbLine
 10
-338.2868518534699
 20
255.8215739916841
 30
0.0
 11
-338.2868518534699
 21
263.8216003852652
 31
0.0
  0
LINE
  5
27E
330
1F
100
AcDbEntity
  8
0
  6
Continuous
 62
     3
370
     9
100
AcDbLine
 10
-358.2870168133517
 20
255.8215739916841
 30
0.0
 11
-358.2870168133517
 21
263.8216003852652
 31
0.0
  0
LINE
  5
27F
330
1F
100
AcDbEntity
  8
0
  6
Continuous
 62
     3
370
     9
100
AcDbLine
 10
-127.0868676896185
 20
255.8215739916841
 30
0.0
 11
-127.0868676896185
 21
263.8216003852652
 31
0.0
  0
LINE
  5
280
330
1F
100
AcDbEntity
  8
0
  6
Continuous
 62
     3
370
     9
100
AcDbLine
 10
-108.086854492828
 20
237.221522524201
 30
0.0
 11
-108.086854492828
 21
253.3216399756368
 31
0.0
  0
LINE
  5
281
330
1F
100
AcDbEntity
  8
0
  6
Continuous
 62
     3
370
     9
100
AcDbLine
 10
-108.086854492828
 20
266.3216333772416
 30
0.0
 11
-108.086854492828
 21
282.4215528768193
 31
0.0
  0
LINE
  5
282
330
1F
100
AcDbEntity
  8
0
  6
Continuous
 62
     3
370
     9
100
AcDbLine
 10
-127.0868676896185
 20
284.9215858687957
 30
0.0
 11
-127.0868676896185
 21
292.9216122623767
 31
0.0
  0
LINE
  5
283
330
1F
100
AcDbEntity
  8
0
  6
Continuous
 62
     3
370
     9
100
AcDbLine
 10
-358.2870168133517
 20
284.9215858687957
 30
0.0
 11
-358.2870168133517
 21
292.9216122623767
 31
0.0
  0
LINE
  5
284
330
1F
100
AcDbEntity
  8
0
  6
Continuous
 62
     3
370
     9
100
AcDbLine
 10
-338.2868518534699
 20
284.9215858687957
 30
0.0
 11
-338.2868518534699
 21
292.9216122623767
 31
0.0
  0
LINE
  5
285
330
1F
100
AcDbEntity
  8
0
  6
Continuous
 62
     3
370
     9
100
AcDbLine
 10
-222.6868267795678
 20
284.9215858687957
 30
0.0
 11
-222.6868267795678
 21
292.9216122623767
 31
0.0
  0
LINE
  5
286
330
1F
100
AcDbEntity
  8
0
  6
Continuous
 62
     3
370
     9
100
AcDbLine
 10
-242.6867937875915
 20
284.9215858687957
 30
0.0
 11
-242.6867937875915
 21
292.9216122623767
 31
0.0
  0
LINE
  5
287
330
1F
100
AcDbEntity
  8
0
  6
Continuous
 62
     3
370
     9
100
AcDbLine
 10
-107.0868017056658
 20
-54.07844382398312
 30
0.0
 11
-107.0868017056658
 21
340.921572672005
 31
0.0
  0
LINE
  5
288
330
1F
100
AcDbEntity
  8
0
  6
Continuous
 62
     3
370
     9
100
AcDbLine
 10
-108.086854492828
 20
324.5215581555354
 30
0.0
 11
-108.086854492828
 21
340.921572672005
 31
0.0
  0
LINE
  5
289
330
1F
100
AcDbEntity
  8
0
  6
Continuous
 62
     3
370
     9
100
AcDbLine
 10
-242.6867937875915
 20
314.0215977459071
 30
0.0
 11
-242.6867937875915
 21
322.0215251635591
 31
0.0
  0
LINE
  5
28A
330
1F
100
AcDbEntity
  8
0
  6
Continuous
 62
     3
370
     9
100
AcDbLine
 10
-222.6868267795678
 20
314.0215977459071
 30
0.0
 11
-222.6868267795678
 21
322.0215251635591
 31
0.0
  0
LINE
  5
28B
330
1F
100
AcDbEntity
  8
0
  6
Continuous
 62
     3
370
     9
100
AcDbLine
 10
-338.2868518534699
 20
314.0215977459071
 30
0.0
 11
-338.2868518534699
 21
322.0215251635591
 31
0.0
  0
LINE
  5
28C
330
1F
100
AcDbEntity
  8
0
  6
Continuous
 62
     3
370
     9
100
AcDbLine
 10
-358.2870168133517
 20
314.0215977459071
 30
0.0
 11
-358.2870168133517
 21
322.0215251635591
 31
0.0
  0
LINE
  5
28D
330
1F
100
AcDbEntity
  8
0
  6
Continuous
 62
     3
370
     9
100
AcDbLine
 10
-127.0868676896185
 20
314.0215977459071
 30
0.0
 11
-127.0868676896185
 21
322.0215251635591
 31
0.0
  0
LINE
  5
28E
330
1F
100
AcDbEntity
  8
0
  6
Continuous
 62
     3
370
     9
100
AcDbLine
 10
-108.086854492828
 20
295.421546278424
 30
0.0
 11
-108.086854492828
 21
311.5215647539308
 31
0.0
  0
LINE
  5
28F
330
1F
100
AcDbEntity
  8
0
  6
Continuous
 62
     3
370
     9
100
AcDbLine
 10
-108.086854492828
 20
-8.578417430402084
 30
0.0
 11
-108.086854492828
 21
-24.67838641794427
 31
0.0
  0
LINE
  5
290
330
1F
100
AcDbEntity
  8
0
  6
Continuous
 62
     3
370
     9
100
AcDbLine
 10
-127.0868676896185
 20
-27.17841940992062
 30
0.0
 11
-127.0868676896185
 21
-35.17839631553719
 31
0.0
  0
LINE
  5
291
330
1F
100
AcDbEntity
  8
0
  6
Continuous
 62
     3
370
     9
100
AcDbLine
 10
-358.2870168133517
 20
-27.17841940992062
 30
0.0
 11
-358.2870168133517
 21
-35.17839631553719
 31
0.0
  0
LINE
  5
292
330
1F
100
AcDbEntity
  8
0
  6
Continuous
 62
     3
370
     9
100
AcDbLine
 10
-338.2868518534699
 20
-27.17841940992062
 30
0.0
 11
-338.2868518534699
 21
-35.17839631553719
 31
0.0
  0
LINE
  5
293
330
1F
100
AcDbEntity
  8
0
  6
Continuous
 62
     3
370
     9
100
AcDbLine
 10
-222.6868267795678
 20
-27.17841940992062
 30
0.0
 11
-222.6868267795678
 21
-35.17839631553719
 31
0.0
  0
LINE
  5
294
330
1F
100
AcDbEntity
  8
0
  6
Continuous
 62
     3
370
     9
100
AcDbLine
 10
-242.6867937875915
 20
-27.17841940992062
 30
0.0
 11
-242.6867937875915
 21
-35.17839631553719
 31
0.0
  0
LINE
  5
295
330
1F
100
AcDbEntity
  8
0
  6
Continuous
 62
     3
370
     9
100
AcDbLine
 10
-108.086854492828
 20
-37.67837981954906
 30
0.0
 11
-108.086854492828
 21
-54.07844382398312
 31
0.0
  0
LINE
  5
296
330
1F
100
AcDbEntity
  8
0
  6
Continuous
 62
     3
370
     9
100
AcDbLine
 10
-242.6867937875915
 20
1.921592467190834
 30
0.0
 11
-242.6867937875915
 21
-6.078384438425729
 31
0.0
  0
LINE
  5
297
330
1F
100
AcDbEntity
  8
0
  6
Continuous
 62
     3
370
     9
100
AcDbLine
 10
-222.6868267795678
 20
1.921592467190834
 30
0.0
 11
-222.6868267795678
 21
-6.078384438425729
 31
0.0
  0
LINE
  5
298
330
1F
100
AcDbEntity
  8
0
  6
Continuous
 62
     3
370
     9
100
AcDbLine
 10
-338.2868518534699
 20
1.921592467190834
 30
0.0
 11
-338.2868518534699
 21
-6.078384438425729
 31
0.0
  0
LINE
  5
299
330
1F
100
AcDbEntity
  8
0
  6
Continuous
 62
     3
370
     9
100
AcDbLine
 10
-358.2870168133517
 20
1.921592467190834
 30
0.0
 11
-358.2870168133517
 21
-6.078384438425729
 31
0.0
  0
LINE
  5
29A
330
1F
100
AcDbEntity
  8
0
  6
Continuous
 62
     3
370
     9
100
AcDbLine
 10
-127.0868676896185
 20
1.921592467190834
 30
0.0
 11
-127.0868676896185
 21
-6.078384438425729
 31
0.0
  0
LINE
  5
29B
330
1F
100
AcDbEntity
  8
0
  6
Continuous
 62
     3
370
     9
100
AcDbLine
 10
-108.086854492828
 20
20.5215449587449
 30
0.0
 11
-108.086854492828
 21
4.421575971202714
 31
0.0
  0
LINE
  5
29C
330
1F
100
AcDbEntity
  8
0
  6
Continuous
 62
     3
370
     9
100
AcDbLine
 10
-108.086854492828
 20
49.62160632382095
 30
0.0
 11
-108.086854492828
 21
33.52148887238511
 31
0.0
  0
LINE
  5
29D
330
1F
100
AcDbEntity
  8
0
  6
Continuous
 62
     3
370
     9
100
AcDbLine
 10
-127.0868676896185
 20
31.02155485633782
 30
0.0
 11
-127.0868676896185
 21
23.02152846275678
 31
0.0
  0
LINE
  5
29E
330
1F
100
AcDbEntity
  8
0
  6
Continuous
 62
     3
370
     9
100
AcDbLine
 10
-358.2870168133517
 20
31.02155485633782
 30
0.0
 11
-358.2870168133517
 21
23.02152846275678
 31
0.0
  0
LINE
  5
29F
330
1F
100
AcDbEntity
  8
0
  6
Continuous
 62
     3
370
     9
100
AcDbLine
 10
-338.2868518534699
 20
31.02155485633782
 30
0.0
 11
-338.2868518534699
 21
23.02152846275678
 31
0.0
  0
LINE
  5
2A0
330
1F
100
AcDbEntity
  8
0
  6
Continuous
 62
     3
370
     9
100
AcDbLine
 10
-222.6868267795678
 20
31.02155485633782
 30
0.0
 11
-222.6868267795678
 21
23.02152846275678
 31
0.0
  0
LINE
  5
2A1
330
1F
100
AcDbEntity
  8
0
  6
Continuous
 62
     3
370
     9
100
AcDbLine
 10
-242.6867937875915
 20
31.02155485633782
 30
0.0
 11
-242.6867937875915
 21
23.02152846275678
 31
0.0
  0
LINE
  5
2A2
330
1F
100
AcDbEntity
  8
0
  6
Continuous
 62
     3
370
     9
100
AcDbLine
 10
-242.6867937875915
 20
60.12156673344928
 30
0.0
 11
-242.6867937875915
 21
52.12158982783271
 31
0.0
  0
LINE
  5
2A3
330
1F
100
AcDbEntity
  8
0
  6
Continuous
 62
     3
370
     9
100
AcDbLine
 10
-222.6868267795678
 20
60.12156673344928
 30
0.0
 11
-222.6868267795678
 21
52.12158982783271
 31
0.0
  0
LINE
  5
2A4
330
1F
100
AcDbEntity
  8
0
  6
Continuous
 62
     3
370
     9
100
AcDbLine
 10
-338.2868518534699
 20
60.12156673344928
 30
0.0
 11
-338.2868518534699
 21
52.12158982783271
 31
0.0
  0
LINE
  5
2A5
330
1F
100
AcDbEntity
  8
0
  6
Continuous
 62
     3
370
     9
100
AcDbLine
 10
-358.2870168133517
 20
60.12156673344928
 30
0.0
 11
-358.2870168133517
 21
52.12158982783271
 31
0.0
  0
LINE
  5
2A6
330
1F
100
AcDbEntity
  8
0
  6
Continuous
 62
     3
370
     9
100
AcDbLine
 10
-127.0868676896185
 20
60.12156673344928
 30
0.0
 11
-127.0868676896185
 21
52.12158982783271
 31
0.0
  0
LINE
  5
2A7
330
1F
100
AcDbEntity
  8
0
  6
Continuous
 62
     3
370
     9
100
AcDbLine
 10
-108.086854492828
 20
78.72156871296792
 30
0.0
 11
-108.086854492828
 21
62.62159972542563
 31
0.0
  0
LINE
  5
2A8
330
1F
100
AcDbEntity
  8
0
  6
Continuous
 62
     3
370
     9
100
AcDbLine
 10
-108.086854492828
 20
107.8215805900794
 30
0.0
 11
-108.086854492828
 21
91.7215621145726
 31
0.0
  0
LINE
  5
2A9
330
1F
100
AcDbEntity
  8
0
  6
Continuous
 62
     3
370
     9
100
AcDbLine
 10
-127.0868676896185
 20
89.22157861056073
 30
0.0
 11
-127.0868676896185
 21
81.22155221697969
 31
0.0
  0
LINE
  5
2AA
330
1F
100
AcDbEntity
  8
0
  6
Continuous
 62
     3
370
     9
100
AcDbLine
 10
-358.2870168133517
 20
89.22157861056073
 30
0.0
 11
-358.2870168133517
 21
81.22155221697969
 31
0.0
  0
LINE
  5
2AB
330
1F
100
AcDbEntity
  8
0
  6
Continuous
 62
     3
370
     9
100
AcDbLine
 10
-338.2868518534699
 20
89.22157861056073
 30
0.0
 11
-338.2868518534699
 21
81.22155221697969
 31
0.0
  0
LINE
  5
2AC
330
1F
100
AcDbEntity
  8
0
  6
Continuous
 62
     3
370
     9
100
AcDbLine
 10
-222.6868267795678
 20
89.22157861056073
 30
0.0
 11
-222.6868267795678
 21
81.22155221697969
 31
0.0
  0
LINE
  5
2AD
330
1F
100
AcDbEntity
  8
0
  6
Continuous
 62
     3
370
     9
100
AcDbLine
 10
-242.6867937875915
 20
89.22157861056073
 30
0.0
 11
-242.6867937875915
 21
81.22155221697969
 31
0.0
  0
LINE
  5
2AE
330
1F
100
AcDbEntity
  8
0
  6
Continuous
 62
     3
370
     9
100
AcDbLine
 10
-242.6867937875915
 20
118.3215904876723
 30
0.0
 11
-242.6867937875915
 21
110.3216135820557
 31
0.0
  0
LINE
  5
2AF
330
1F
100
AcDbEntity
  8
0
  6
Continuous
 62
     3
370
     9
100
AcDbLine
 10
-222.6868267795678
 20
118.3215904876723
 30
0.0
 11
-222.6868267795678
 21
110.3216135820557
 31
0.0
  0
LINE
  5
2B0
330
1F
100
AcDbEntity
  8
0
  6
Continuous
 62
     3
370
     9
100
AcDbLine
 10
-338.2868518534699
 20
118.3215904876723
 30
0.0
 11
-338.2868518534699
 21
110.3216135820557
 31
0.0
  0
LINE
  5
2B1
330
1F
100
AcDbEntity
  8
0
  6
Continuous
 62
     3
370
     9
100
AcDbLine
 10
-358.2870168133517
 20
118.3215904876723
 30
0.0
 11
-358.2870168133517
 21
110.3216135820557
 31
0.0
  0
LINE
  5
2B2
330
1F
100
AcDbEntity
  8
0
  6
Continuous
 62
     3
370
     9
100
AcDbLine
 10
-127.0868676896185
 20
118.3215904876723
 30
0.0
 11
-127.0868676896185
 21
110.3216135820557
 31
0.0
  0
LINE
  5
2B3
330
1F
100
AcDbEntity
  8
0
  6
Continuous
 62
     3
370
     9
100
AcDbLine
 10
-108.086854492828
 20
136.9215924671908
 30
0.0
 11
-108.086854492828
 21
120.8215739916841
 31
0.0
  0
LINE
  5
2B4
330
1F
100
AcDbEntity
  8
0
  6
Continuous
 62
     3
370
     9
100
AcDbLine
 10
-704.0867423201083
 20
136.9215924671908
 30
0.0
 11
-704.0867423201083
 21
120.8215739916841
 31
0.0
  0
LINE
  5
2B5
330
1F
100
AcDbEntity
  8
0
  6
Continuous
 62
     3
370
     9
100
AcDbLine
 10
-702.5869600671522
 20
118.3215904876723
 30
0.0
 11
-109.5869336735712
 21
118.3215904876723
 31
0.0
  0
LINE
  5
2B6
330
1F
100
AcDbEntity
  8
0
  6
Continuous
 62
     3
370
     9
100
AcDbLine
 10
-702.5869600671522
 20
119.3215937868699
 30
0.0
 11
-109.5869336735712
 21
119.3215937868699
 31
0.0
  0
LINE
  5
2B7
330
1F
100
AcDbEntity
  8
0
  6
Continuous
 62
     3
370
     9
100
AcDbLine
 10
-702.5869600671522
 20
138.421572672005
 30
0.0
 11
-109.5869336735712
 21
138.421572672005
 31
0.0
  0
LINE
  5
2B8
330
1F
100
AcDbEntity
  8
0
  6
Continuous
 62
     3
370
     9
100
AcDbLine
 10
-702.5869600671522
 20
139.4215759712027
 30
0.0
 11
-109.5869336735712
 21
139.4215759712027
 31
0.0
  0
LINE
  5
2B9
330
1F
100
AcDbEntity
  8
0
  6
Continuous
 62
     3
370
     9
100
AcDbLine
 10
-685.0868280992468
 20
118.3215904876723
 30
0.0
 11
-685.0868280992468
 21
110.3216135820557
 31
0.0
  0
LINE
  5
2BA
330
1F
100
AcDbEntity
  8
0
  6
Continuous
 62
     3
370
     9
100
AcDbLine
 10
-453.8868769273719
 20
118.3215904876723
 30
0.0
 11
-453.8868769273719
 21
110.3216135820557
 31
0.0
  0
LINE
  5
2BB
330
1F
100
AcDbEntity
  8
0
  6
Continuous
 62
     3
370
     9
100
AcDbLine
 10
-473.8868439353956
 20
118.3215904876723
 30
0.0
 11
-473.8868439353956
 21
110.3216135820557
 31
0.0
  0
LINE
  5
2BC
330
1F
100
AcDbEntity
  8
0
  6
Continuous
 62
     3
370
     9
100
AcDbLine
 10
-589.4869679852266
 20
118.3215904876723
 30
0.0
 11
-589.4869679852266
 21
110.3216135820557
 31
0.0
  0
LINE
  5
2BD
330
1F
100
AcDbEntity
  8
0
  6
Continuous
 62
     3
370
     9
100
AcDbLine
 10
-569.486902001274
 20
118.3215904876723
 30
0.0
 11
-569.486902001274
 21
110.3216135820557
 31
0.0
  0
LINE
  5
2BE
330
1F
100
AcDbEntity
  8
0
  6
Continuous
 62
     3
370
     9
100
AcDbLine
 10
-569.486902001274
 20
89.22157861056073
 30
0.0
 11
-569.486902001274
 21
81.22155221697969
 31
0.0
  0
LINE
  5
2BF
330
1F
100
AcDbEntity
  8
0
  6
Continuous
 62
     3
370
     9
100
AcDbLine
 10
-589.4869679852266
 20
89.22157861056073
 30
0.0
 11
-589.4869679852266
 21
81.22155221697969
 31
0.0
  0
LINE
  5
2C0
330
1F
100
AcDbEntity
  8
0
  6
Continuous
 62
     3
370
     9
100
AcDbLine
 10
-473.8868439353956
 20
89.22157861056073
 30
0.0
 11
-473.8868439353956
 21
81.22155221697969
 31
0.0
  0
LINE
  5
2C1
330
1F
100
AcDbEntity
  8
0
  6
Continuous
 62
     3
370
     9
100
AcDbLine
 10
-453.8868769273719
 20
89.22157861056073
 30
0.0
 11
-453.8868769273719
 21
81.22155221697969
 31
0.0
  0
LINE
  5
2C2
330
1F
100
AcDbEntity
  8
0
  6
Continuous
 62
     3
370
     9
100
AcDbLine
 10
-685.0868280992468
 20
89.22157861056073
 30
0.0
 11
-685.0868280992468
 21
81.22155221697969
 31
0.0
  0
LINE
  5
2C3
330
1F
100
AcDbEntity
  8
0
  6
Continuous
 62
     3
370
     9
100
AcDbLine
 10
-702.5869600671522
 20
110.3216135820557
 30
0.0
 11
-109.5869336735712
 21
110.3216135820557
 31
0.0
  0
LINE
  5
2C4
330
1F
100
AcDbEntity
  8
0
  6
Continuous
 62
     3
370
     9
100
AcDbLine
 10
-702.5869600671522
 20
109.3216102828581
 30
0.0
 11
-109.5869336735712
 21
109.3216102828581
 31
0.0
  0
LINE
  5
2C5
330
1F
100
AcDbEntity
  8
0
  6
Continuous
 62
     3
370
     9
100
AcDbLine
 10
-702.5869600671522
 20
90.22158190975844
 30
0.0
 11
-109.5869336735712
 21
90.22158190975844
 31
0.0
  0
LINE
  5
2C6
330
1F
100
AcDbEntity
  8
0
  6
Continuous
 62
     3
370
     9
100
AcDbLine
 10
-702.5869600671522
 20
89.22157861056073
 30
0.0
 11
-109.5869336735712
 21
89.22157861056073
 31
0.0
  0
LINE
  5
2C7
330
1F
100
AcDbEntity
  8
0
  6
Continuous
 62
     3
370
     9
100
AcDbLine
 10
-704.0867423201083
 20
107.8215805900794
 30
0.0
 11
-704.0867423201083
 21
91.7215621145726
 31
0.0
  0
LINE
  5
2C8
330
1F
100
AcDbEntity
  8
0
  6
Continuous
 62
     3
370
     9
100
AcDbLine
 10
-704.0867423201083
 20
78.72156871296792
 30
0.0
 11
-704.0867423201083
 21
62.62159972542563
 31
0.0
  0
LINE
  5
2C9
330
1F
100
AcDbEntity
  8
0
  6
Continuous
 62
     3
370
     9
100
AcDbLine
 10
-702.5869600671522
 20
60.12156673344928
 30
0.0
 11
-109.5869336735712
 21
60.12156673344928
 31
0.0
  0
LINE
  5
2CA
330
1F
100
AcDbEntity
  8
0
  6
Continuous
 62
     3
370
     9
100
AcDbLine
 10
-702.5869600671522
 20
61.12157003264688
 30
0.0
 11
-109.5869336735712
 21
61.12157003264688
 31
0.0
  0
LINE
  5
2CB
330
1F
100
AcDbEntity
  8
0
  6
Continuous
 62
     3
370
     9
100
AcDbLine
 10
-702.5869600671522
 20
80.22154891778209
 30
0.0
 11
-109.5869336735712
 21
80.22154891778209
 31
0.0
  0
LINE
  5
2CC
330
1F
100
AcDbEntity
  8
0
  6
Continuous
 62
     3
370
     9
100
AcDbLine
 10
-702.5869600671522
 20
81.22155221697969
 30
0.0
 11
-109.5869336735712
 21
81.22155221697969
 31
0.0
  0
LINE
  5
2CD
330
1F
100
AcDbEntity
  8
0
  6
Continuous
 62
     3
370
     9
100
AcDbLine
 10
-685.0868280992468
 20
60.12156673344928
 30
0.0
 11
-685.0868280992468
 21
52.12158982783271
 31
0.0
  0
LINE
  5
2CE
330
1F
100
AcDbEntity
  8
0
  6
Continuous
 62
     3
370
     9
100
AcDbLine
 10
-453.8868769273719
 20
60.12156673344928
 30
0.0
 11
-453.8868769273719
 21
52.12158982783271
 31
0.0
  0
LINE
  5
2CF
330
1F
100
AcDbEntity
  8
0
  6
Continuous
 62
     3
370
     9
100
AcDbLine
 10
-473.8868439353956
 20
60.12156673344928
 30
0.0
 11
-473.8868439353956
 21
52.12158982783271
 31
0.0
  0
LINE
  5
2D0
330
1F
100
AcDbEntity
  8
0
  6
Continuous
 62
     3
370
     9
100
AcDbLine
 10
-589.4869679852266
 20
60.12156673344928
 30
0.0
 11
-589.4869679852266
 21
52.12158982783271
 31
0.0
  0
LINE
  5
2D1
330
1F
100
AcDbEntity
  8
0
  6
Continuous
 62
     3
370
     9
100
AcDbLine
 10
-569.486902001274
 20
60.12156673344928
 30
0.0
 11
-569.486902001274
 21
52.12158982783271
 31
0.0
  0
LINE
  5
2D2
330
1F
100
AcDbEntity
  8
0
  6
Continuous
 62
     3
370
     9
100
AcDbLine
 10
-569.486902001274
 20
31.02155485633782
 30
0.0
 11
-569.486902001274
 21
23.02152846275678
 31
0.0
  0
LINE
  5
2D3
330
1F
100
AcDbEntity
  8
0
  6
Continuous
 62
     3
370
     9
100
AcDbLine
 10
-589.4869679852266
 20
31.02155485633782
 30
0.0
 11
-589.4869679852266
 21
23.02152846275678
 31
0.0
  0
LINE
  5
2D4
330
1F
100
AcDbEntity
  8
0
  6
Continuous
 62
     3
370
     9
100
AcDbLine
 10
-473.8868439353956
 20
31.02155485633782
 30
0.0
 11
-473.8868439353956
 21
23.02152846275678
 31
0.0
  0
LINE
  5
2D5
330
1F
100
AcDbEntity
  8
0
  6
Continuous
 62
     3
370
     9
100
AcDbLine
 10
-453.8868769273719
 20
31.02155485633782
 30
0.0
 11
-453.8868769273719
 21
23.02152846275678
 31
0.0
  0
LINE
  5
2D6
330
1F
100
AcDbEntity
  8
0
  6
Continuous
 62
     3
370
     9
100
AcDbLine
 10
-685.0868280992468
 20
31.02155485633782
 30
0.0
 11
-685.0868280992468
 21
23.02152846275678
 31
0.0
  0
LINE
  5
2D7
330
1F
100
AcDbEntity
  8
0
  6
Continuous
 62
     3
370
     9
100
AcDbLine
 10
-702.5869600671522
 20
52.12158982783271
 30
0.0
 11
-109.5869336735712
 21
52.12158982783271
 31
0.0
  0
LINE
  5
2D8
330
1F
100
AcDbEntity
  8
0
  6
Continuous
 62
     3
370
     9
100
AcDbLine
 10
-702.5869600671522
 20
51.12158652863511
 30
0.0
 11
-109.5869336735712
 21
51.12158652863511
 31
0.0
  0
LINE
  5
2D9
330
1F
100
AcDbEntity
  8
0
  6
Continuous
 62
     3
370
     9
100
AcDbLine
 10
-702.5869600671522
 20
32.02155815553542
 30
0.0
 11
-109.5869336735712
 21
32.02155815553542
 31
0.0
  0
LINE
  5
2DA
330
1F
100
AcDbEntity
  8
0
  6
Continuous
 62
     3
370
     9
100
AcDbLine
 10
-702.5869600671522
 20
31.02155485633782
 30
0.0
 11
-109.5869336735712
 21
31.02155485633782
 31
0.0
  0
LINE
  5
2DB
330
1F
100
AcDbEntity
  8
0
  6
Continuous
 62
     3
370
     9
100
AcDbLine
 10
-704.0867423201083
 20
49.62160632382095
 30
0.0
 11
-704.0867423201083
 21
33.52148887238511
 31
0.0
  0
LINE
  5
2DC
330
1F
100
AcDbEntity
  8
0
  6
Continuous
 62
     3
370
     9
100
AcDbLine
 10
-704.0867423201083
 20
20.5215449587449
 30
0.0
 11
-704.0867423201083
 21
4.421575971202714
 31
0.0
  0
LINE
  5
2DD
330
1F
100
AcDbEntity
  8
0
  6
Continuous
 62
     3
370
     9
100
AcDbLine
 10
-702.5869600671522
 20
1.921592467190834
 30
0.0
 11
-109.5869336735712
 21
1.921592467190834
 31
0.0
  0
LINE
  5
2DE
330
1F
100
AcDbEntity
  8
0
  6
Continuous
 62
     3
370
     9
100
AcDbLine
 10
-702.5869600671522
 20
2.921595766388435
 30
0.0
 11
-109.5869336735712
 21
2.921595766388435
 31
0.0
  0
LINE
  5
2DF
330
1F
100
AcDbEntity
  8
0
  6
Continuous
 62
     3
370
     9
100
AcDbLine
 10
-702.5869600671522
 20
22.02152516355907
 30
0.0
 11
-109.5869336735712
 21
22.02152516355907
 31
0.0
  0
LINE
  5
2E0
330
1F
100
AcDbEntity
  8
0
  6
Continuous
 62
     3
370
     9
100
AcDbLine
 10
-702.5869600671522
 20
23.02152846275678
 30
0.0
 11
-109.5869336735712
 21
23.02152846275678
 31
0.0
  0
LINE
  5
2E1
330
1F
100
AcDbEntity
  8
0
  6
Continuous
 62
     3
370
     9
100
AcDbLine
 10
-685.0868280992468
 20
1.921592467190834
 30
0.0
 11
-685.0868280992468
 21
-6.078384438425729
 31
0.0
  0
LINE
  5
2E2
330
1F
100
AcDbEntity
  8
0
  6
Continuous
 62
     3
370
     9
100
AcDbLine
 10
-453.8868769273719
 20
1.921592467190834
 30
0.0
 11
-453.8868769273719
 21
-6.078384438425729
 31
0.0
  0
LINE
  5
2E3
330
1F
100
AcDbEntity
  8
0
  6
Continuous
 62
     3
370
     9
100
AcDbLine
 10
-473.8868439353956
 20
1.921592467190834
 30
0.0
 11
-473.8868439353956
 21
-6.078384438425729
 31
0.0
  0
LINE
  5
2E4
330
1F
100
AcDbEntity
  8
0
  6
Continuous
 62
     3
370
     9
100
AcDbLine
 10
-589.4869679852266
 20
1.921592467190834
 30
0.0
 11
-589.4869679852266
 21
-6.078384438425729
 31
0.0
  0
LINE
  5
2E5
330
1F
100
AcDbEntity
  8
0
  6
Continuous
 62
     3
370
     9
100
AcDbLine
 10
-569.486902001274
 20
1.921592467190834
 30
0.0
 11
-569.486902001274
 21
-6.078384438425729
 31
0.0
  0
LINE
  5
2E6
330
1F
100
AcDbEntity
  8
0
  6
Continuous
 62
     3
370
     9
100
AcDbLine
 10
-704.0867423201083
 20
-37.67837981954906
 30
0.0
 11
-704.0867423201083
 21
-54.07844382398312
 31
0.0
  0
LINE
  5
2E7
330
1F
100
AcDbEntity
  8
0
  6
Continuous
 62
     3
370
     9
100
AcDbLine
 10
-569.486902001274
 20
-27.17841940992062
 30
0.0
 11
-569.486902001274
 21
-35.17839631553719
 31
0.0
  0
LINE
  5
2E8
330
1F
100
AcDbEntity
  8
0
  6
Continuous
 62
     3
370
     9
100
AcDbLine
 10
-589.4869679852266
 20
-27.17841940992062
 30
0.0
 11
-589.4869679852266
 21
-35.17839631553719
 31
0.0
  0
LINE
  5
2E9
330
1F
100
AcDbEntity
  8
0
  6
Continuous
 62
     3
370
     9
100
AcDbLine
 10
-473.8868439353956
 20
-27.17841940992062
 30
0.0
 11
-473.8868439353956
 21
-35.17839631553719
 31
0.0
  0
LINE
  5
2EA
330
1F
100
AcDbEntity
  8
0
  6
Continuous
 62
     3
370
     9
100
AcDbLine
 10
-453.8868769273719
 20
-27.17841940992062
 30
0.0
 11
-453.8868769273719
 21
-35.17839631553719
 31
0.0
  0
LINE
  5
2EB
330
1F
100
AcDbEntity
  8
0
  6
Continuous
 62
     3
370
     9
100
AcDbLine
 10
-685.0868280992468
 20
-27.17841940992062
 30
0.0
 11
-685.0868280992468
 21
-35.17839631553719
 31
0.0
  0
LINE
  5
2EC
330
1F
100
AcDbEntity
  8
0
  6
Continuous
 62
     3
370
     9
100
AcDbLine
 10
-702.5869600671522
 20
-6.078384438425729
 30
0.0
 11
-109.5869336735712
 21
-6.078384438425729
 31
0.0
  0
LINE
  5
2ED
330
1F
100
AcDbEntity
  8
0
  6
Continuous
 62
     3
370
     9
100
AcDbLine
 10
-702.5869600671522
 20
-7.078486713552394
 30
0.0
 11
-109.5869336735712
 21
-7.078486713552394
 31
0.0
  0
LINE
  5
2EE
330
1F
100
AcDbEntity
  8
0
  6
Continuous
 62
     3
370
     9
100
AcDbLine
 10
-702.5869600671522
 20
-26.1784655986875
 30
0.0
 11
-109.5869336735712
 21
-26.1784655986875
 31
0.0
  0
LINE
  5
2EF
330
1F
100
AcDbEntity
  8
0
  6
Continuous
 62
     3
370
     9
100
AcDbLine
 10
-702.5869600671522
 20
-27.17841940992062
 30
0.0
 11
-109.5869336735712
 21
-27.17841940992062
 31
0.0
  0
LINE
  5
2F0
330
1F
100
AcDbEntity
  8
0
  6
Continuous
 62
     3
370
     9
100
AcDbLine
 10
-702.5869600671522
 20
-35.17839631553719
 30
0.0
 11
-109.5869336735712
 21
-35.17839631553719
 31
0.0
  0
LINE
  5
2F1
330
1F
100
AcDbEntity
  8
0
  6
Continuous
 62
     3
370
     9
100
AcDbLine
 10
-702.5869600671522
 20
-36.17839961473479
 30
0.0
 11
-109.5869336735712
 21
-36.17839961473479
 31
0.0
  0
LINE
  5
2F2
330
1F
100
AcDbEntity
  8
0
  6
Continuous
 62
     3
370
     9
100
AcDbLine
 10
-702.5869600671522
 20
-55.57842402879729
 30
0.0
 11
-109.5869336735712
 21
-55.57842402879729
 31
0.0
  0
LINE
  5
2F3
330
1F
100
AcDbEntity
  8
0
  6
Continuous
 62
     3
370
     9
100
AcDbLine
 10
-704.0867423201083
 20
-8.578417430402084
 30
0.0
 11
-704.0867423201083
 21
-24.67838641794427
 31
0.0
  0
LINE
  5
2F4
330
1F
100
AcDbEntity
  8
0
  6
Continuous
 62
     3
370
     9
100
AcDbLine
 10
-702.5869600671522
 20
-56.578427327995
 30
0.0
 11
-109.5869336735712
 21
-56.578427327995
 31
0.0
  0
LINE
  5
2F5
330
1F
100
AcDbEntity
  8
0
  6
Continuous
 62
     3
370
     9
100
AcDbLine
 10
-629.2868716486556
 20
110.3216135820557
 30
0.0
 11
-629.2868716486556
 21
118.3215904876723
 31
0.0
  0
LINE
  5
2F6
330
1F
100
AcDbEntity
  8
0
  6
Continuous
 62
     3
370
     9
100
AcDbLine
 10
-644.8868637305814
 20
110.3216135820557
 30
0.0
 11
-644.8868637305814
 21
118.3215904876723
 31
0.0
  0
LINE
  5
2F7
330
1F
100
AcDbEntity
  8
0
  6
Continuous
 62
     3
370
     9
100
AcDbLine
 10
-644.8868637305814
 20
139.4215759712027
 30
0.0
 11
-644.8868637305814
 21
147.4215528768193
 31
0.0
  0
LINE
  5
2F8
330
1F
100
AcDbEntity
  8
0
  6
Continuous
 62
     3
370
     9
100
AcDbLine
 10
-629.2868716486556
 20
139.4215759712027
 30
0.0
 11
-629.2868716486556
 21
147.4215528768193
 31
0.0
  0
LINE
  5
2F9
330
1F
100
AcDbEntity
  8
0
  6
Continuous
 62
     3
370
     9
100
AcDbLine
 10
-182.8869231161389
 20
139.4215759712027
 30
0.0
 11
-182.8869231161389
 21
147.4215528768193
 31
0.0
  0
LINE
  5
2FA
330
1F
100
AcDbEntity
  8
0
  6
Continuous
 62
     3
370
     9
100
AcDbLine
 10
-167.2869310342131
 20
139.4215759712027
 30
0.0
 11
-167.2869310342131
 21
147.4215528768193
 31
0.0
  0
LINE
  5
2FB
330
1F
100
AcDbEntity
  8
0
  6
Continuous
 62
     3
370
     9
100
AcDbLine
 10
-167.2869310342131
 20
110.3216135820557
 30
0.0
 11
-167.2869310342131
 21
118.3215904876723
 31
0.0
  0
LINE
  5
2FC
330
1F
100
AcDbEntity
  8
0
  6
Continuous
 62
     3
370
     9
100
AcDbLine
 10
-182.8869231161389
 20
110.3216135820557
 30
0.0
 11
-182.8869231161389
 21
118.3215904876723
 31
0.0
  0
LINE
  5
2FD
330
1F
100
AcDbEntity
  8
0
  6
JWW_PHANTOM2
 62
     3
370
     9
100
AcDbLine
 10
-105.0868940831996
 20
-56.578427327995
 30
0.0
 11
-105.0868940831996
 21
343.4216056639814
 31
0.0
  0
LINE
  5
2FE
330
1F
100
AcDbEntity
  8
0
  6
Continuous
 62
     3
370
     9
100
AcDbLine
 10
-685.0868280992468
 20
327.7215489177821
 30
0.0
 11
-685.0868280992468
 21
337.7215819097585
 31
0.0
  0
LINE
  5
2FF
330
1F
100
AcDbEntity
  8
0
  6
Continuous
 62
     3
370
     9
100
AcDbLine
 10
-684.0868742880137
 20
327.7215489177821
 30
0.0
 11
-684.0868742880137
 21
337.7215819097585
 31
0.0
  0
LINE
  5
300
330
1F
100
AcDbEntity
  8
0
  6
Continuous
 62
     3
370
     9
100
AcDbLine
 10
-559.0869072799902
 20
327.7215489177821
 30
0.0
 11
-559.0869072799902
 21
337.7215819097585
 31
0.0
  0
LINE
  5
301
330
1F
100
AcDbEntity
  8
0
  6
Continuous
 62
     3
370
     9
100
AcDbLine
 10
-558.0869534687571
 20
327.7215489177821
 30
0.0
 11
-558.0869534687571
 21
337.7215819097585
 31
0.0
  0
LINE
  5
302
330
1F
100
AcDbEntity
  8
0
  6
Continuous
 62
     3
370
     9
100
AcDbLine
 10
-683.0869204767806
 20
338.7215357209916
 30
0.0
 11
-560.0869600671523
 21
338.7215357209916
 31
0.0
  0
LINE
  5
303
330
1F
100
AcDbEntity
  8
0
  6
Continuous
 62
     3
370
     9
100
AcDbLine
 10
-683.0869204767806
 20
326.721595106549
 30
0.0
 11
-560.0869600671523
 21
326.721595106549
 31
0.0
  0
LINE
  5
304
330
1F
100
AcDbEntity
  8
0
  6
Continuous
 62
     3
370
     9
100
AcDbLine
 10
-683.0869204767806
 20
325.7215423193868
 30
0.0
 11
-560.0869600671523
 21
325.7215423193868
 31
0.0
  0
LINE
  5
305
330
1F
100
AcDbEntity
  8
0
  6
Continuous
 62
     3
370
     9
100
AcDbLine
 10
-683.0869204767806
 20
339.7215885081537
 30
0.0
 11
-560.0869600671523
 21
339.7215885081537
 31
0.0
  0
LINE
  5
306
330
1F
100
AcDbEntity
  8
0
  6
Continuous
 62
     3
370
     9
100
AcDbLine
 10
-129.0868742880137
 20
-52.87841017216729
 30
0.0
 11
-217.0868676896185
 21
-52.87841017216729
 31
0.0
  0
LINE
  5
307
330
1F
100
AcDbEntity
  8
0
  6
Continuous
 62
     3
370
     9
100
AcDbLine
 10
-129.0868742880137
 20
-38.87841347136489
 30
0.0
 11
-217.0868676896185
 21
-38.87841347136489
 31
0.0
  0
LINE
  5
308
330
1F
100
AcDbEntity
  8
0
  6
Continuous
 62
     3
370
     9
100
AcDbLine
 10
-129.0868742880137
 20
-39.8784167705625
 30
0.0
 11
-217.0868676896185
 21
-39.8784167705625
 31
0.0
  0
LINE
  5
309
330
1F
100
AcDbEntity
  8
0
  6
Continuous
 62
     3
370
     9
100
AcDbLine
 10
-129.0868742880137
 20
-51.87840687296958
 30
0.0
 11
-217.0868676896185
 21
-51.87840687296958
 31
0.0
  0
LINE
  5
30A
330
1F
100
AcDbEntity
  8
0
  6
Continuous
 62
     3
370
     9
100
AcDbLine
 10
-219.0868742880139
 20
-40.87837058179562
 30
0.0
 11
-219.0868742880139
 21
-50.87840357377198
 31
0.0
  0
LINE
  5
30B
330
1F
100
AcDbEntity
  8
0
  6
Continuous
 62
     3
370
     9
100
AcDbLine
 10
-218.0869204767807
 20
-40.87837058179562
 30
0.0
 11
-218.0869204767807
 21
-50.87840357377198
 31
0.0
  0
LINE
  5
30C
330
1F
100
AcDbEntity
  8
0
  6
Continuous
 62
     3
370
     9
100
AcDbLine
 10
-128.0869204767807
 20
-40.87837058179562
 30
0.0
 11
-128.0869204767807
 21
-50.87840357377198
 31
0.0
  0
LINE
  5
30D
330
1F
100
AcDbEntity
  8
0
  6
Continuous
 62
     3
370
     9
100
AcDbLine
 10
-127.0868676896185
 20
-40.87837058179562
 30
0.0
 11
-127.0868676896185
 21
-50.87840357377198
 31
0.0
  0
LINE
  5
30E
330
1F
100
AcDbEntity
  8
0
  6
JWW_CENTER1
 62
     3
370
     9
100
AcDbLine
 10
-637.0868676896184
 20
105.3215970860675
 30
0.0
 11
-637.0868676896184
 21
152.4215693728074
 31
0.0
  0
LINE
  5
30F
330
1F
100
AcDbEntity
  8
0
  6
JWW_CENTER1
 62
     3
370
     9
100
AcDbLine
 10
-175.0868280992469
 20
105.3215970860675
 30
0.0
 11
-175.0868280992469
 21
152.4215693728074
 31
0.0
  0
LINE
  5
310
330
1F
100
AcDbEntity
  8
0
  6
Continuous
 62
     3
370
     9
100
AcDbLine
 10
419.859263011395
 20
294.5751041331537
 30
0.0
 11
419.859263011395
 21
336.0298853303666
 31
0.0
  0
LINE
  5
311
330
1F
100
AcDbEntity
  8
0
  6
Continuous
 62
     3
370
     9
100
AcDbLine
 10
419.859263011395
 20
-7.731975285131767
 30
0.0
 11
419.859263011395
 21
-49.1867069943801
 31
0.0
  0
LINE
  5
312
330
1F
100
AcDbEntity
  8
0
  6
Continuous
 62
     3
370
     9
100
AcDbLine
 10
387.8592564129998
 20
134.2315751793952
 30
0.0
 11
387.8592564129998
 21
145.6115800622077
 31
0.0
  0
LINE
  5
313
330
1F
100
AcDbEntity
  8
0
  6
Continuous
 62
     3
370
     9
100
AcDbLine
 10
387.8592564129998
 20
154.5480177205693
 30
0.0
 11
387.8592564129998
 21
211.0382323003834
 31
0.0
  0
LINE
  5
314
330
1F
100
AcDbEntity
  8
0
  6
Continuous
 62
     3
370
     9
100
AcDbLine
 10
384.3592696097902
 20
112.8820713787196
 30
0.0
 11
388.8593092001619
 21
113.196765345147
 31
0.0
  0
LINE
  5
315
330
1F
100
AcDbEntity
  8
0
  6
Continuous
 62
     3
370
     9
100
AcDbLine
 10
393.8592762081856
 20
113.5463978145304
 30
0.0
 11
413.3593157985571
 21
114.9099891891081
 31
0.0
  0
LINE
  5
316
330
1F
100
AcDbEntity
  8
0
  6
Continuous
 62
     3
370
     9
100
AcDbLine
 10
393.8592762081856
 20
120.5463714209493
 30
0.0
 11
413.3593157985571
 21
121.909962795527
 31
0.0
  0
LINE
  5
317
330
1F
100
AcDbEntity
  8
0
  6
Continuous
 62
     3
370
     9
100
AcDbLine
 10
384.3592696097902
 20
119.882094473103
 30
0.0
 11
388.8593092001619
 21
120.1967389515658
 31
0.0
  0
LINE
  5
318
330
1F
100
AcDbEntity
  8
0
  6
JWW_CENTER1
 62
     3
370
     9
100
AcDbLine
 10
349.8593289953477
 20
143.4215891679932
 30
0.0
 11
407.8592234210233
 21
143.4215891679932
 31
0.0
  0
LINE
  5
319
330
1F
100
AcDbEntity
  8
0
  6
JWW_CENTER1
 62
     3
370
     9
100
AcDbLine
 10
526.615194968743
 20
128.8715832294375
 30
0.0
 11
349.8593289953477
 21
128.8715832294375
 31
0.0
  0
LINE
  5
31A
330
1F
100
AcDbEntity
  8
0
  6
JWW_PHANTOM2
 62
     3
370
     9
100
AcDbLine
 10
123.9133170654491
 20
343.4216056639814
 30
0.0
 11
-105.0868940831996
 21
343.4216056639814
 31
0.0
  0
LINE
  5
31B
330
1F
100
AcDbEntity
  8
0
  6
JWW_PHANTOM2
 62
     3
370
     9
100
AcDbLine
 10
123.9133170654491
 20
-56.578427327995
 30
0.0
 11
-105.0868940831996
 21
-56.578427327995
 31
0.0
  0
LINE
  5
31C
330
1F
100
AcDbEntity
  8
0-1
  6
JWW_DASHED1
 62
     2
370
     9
100
AcDbLine
 10
-448.0867390209108
 20
325.4217442302821
 30
0.0
 11
-448.0867390209108
 21
350.4216782463294
 31
0.0
  0
LINE
  5
31D
330
1F
100
AcDbEntity
  8
0-1
  6
JWW_DASHED1
 62
     2
370
     9
100
AcDbLine
 10
-464.0866928321439
 20
325.4217442302821
 30
0.0
 11
-464.0866928321439
 21
350.4216782463294
 31
0.0
  0
LINE
  5
31E
330
1F
100
AcDbEntity
  8
0-1
  6
JWW_DASHED1
 62
     2
370
     9
100
AcDbLine
 10
51.91327747507741
 20
325.4217442302821
 30
0.0
 11
51.91327747507741
 21
350.4216782463294
 31
0.0
  0
LINE
  5
31F
330
1F
100
AcDbEntity
  8
0-1
  6
JWW_DASHED1
 62
     2
370
     9
100
AcDbLine
 10
35.91332366384428
 20
325.4217442302821
 30
0.0
 11
35.91332366384428
 21
350.4216782463294
 31
0.0
  0
LINE
  5
320
330
1F
100
AcDbEntity
  8
0-4
  6
Continuous
 62
     7
370
     9
100
AcDbLine
 10
-706.0867489185036
 20
400.4217442302821
 30
0.0
 11
123.9133170654491
 21
400.4217442302821
 31
0.0
  0
LINE
  5
321
330
1F
100
AcDbEntity
  8
0-4
  6
Continuous
 62
     7
370
     9
100
AcDbLine
 10
-706.0867489185036
 20
362.9217442302821
 30
0.0
 11
-706.0867489185036
 21
441.9217574270726
 31
0.0
  0
LINE
  5
322
330
1F
100
AcDbEntity
  8
0-4
  6
Continuous
 62
     7
370
     9
100
AcDbLine
 10
-456.0867159265273
 20
362.9217442302821
 30
0.0
 11
-456.0867159265273
 21
401.9217244350963
 31
0.0
  0
LINE
  5
323
330
1F
100
AcDbEntity
  8
0-4
  6
Continuous
 62
     7
370
     9
100
AcDbLine
 10
-706.0867489185036
 20
400.4217442302821
 30
0.0
 11
-693.6937254018228
 21
402.0533624207382
 31
0.0
  0
LINE
  5
324
330
1F
100
AcDbEntity
  8
0-4
  6
Continuous
 62
     7
370
     9
100
AcDbLine
 10
-706.0867489185036
 20
400.4217442302821
 30
0.0
 11
-693.6937254018228
 21
398.7901260398261
 31
0.0
  0
LINE
  5
325
330
1F
100
AcDbEntity
  8
0-4
  6
Continuous
 62
     7
370
     9
100
AcDbLine
 10
-443.6936429218821
 20
398.7901260398261
 30
0.0
 11
-468.4797889311726
 21
402.0533624207382
 31
0.0
  0
LINE
  5
326
330
1F
100
AcDbEntity
  8
0-4
  6
Continuous
 62
     7
370
     9
100
AcDbLine
 10
-443.6936429218821
 20
402.0533624207382
 30
0.0
 11
-468.4797889311726
 21
398.7901260398261
 31
0.0
  0
LINE
  5
327
330
1F
100
AcDbEntity
  8
0-4
  6
Continuous
 62
     7
370
     9
100
AcDbLine
 10
43.91325108149637
 20
362.9217442302821
 30
0.0
 11
43.91325108149637
 21
401.9217244350963
 31
0.0
  0
LINE
  5
328
330
1F
100
AcDbEntity
  8
0-4
  6
Continuous
 62
     7
370
     9
100
AcDbLine
 10
56.30632408614157
 20
398.7901260398261
 30
0.0
 11
31.52027705278012
 21
402.0533624207382
 31
0.0
  0
LINE
  5
329
330
1F
100
AcDbEntity
  8
0-4
  6
Continuous
 62
     7
370
     9
100
AcDbLine
 10
56.30632408614157
 20
402.0533624207382
 30
0.0
 11
31.52027705278012
 21
398.7901260398261
 31
0.0
  0
LINE
  5
32A
330
1F
100
AcDbEntity
  8
0-4
  6
Continuous
 62
     7
370
     9
100
AcDbLine
 10
-706.0867489185036
 20
440.4217772222585
 30
0.0
 11
123.9133170654491
 21
440.4217772222585
 31
0.0
  0
LINE
  5
32B
330
1F
100
AcDbEntity
  8
0-4
  6
Continuous
 62
     7
370
     9
100
AcDbLine
 10
-706.0867489185036
 20
440.4217772222585
 30
0.0
 11
-693.6937254018228
 21
442.0533954127145
 31
0.0
  0
LINE
  5
32C
330
1F
100
AcDbEntity
  8
0-4
  6
Continuous
 62
     7
370
     9
100
AcDbLine
 10
-706.0867489185036
 20
440.4217772222585
 30
0.0
 11
-693.6937254018228
 21
438.7901590318024
 31
0.0
  0
LINE
  5
32D
330
1F
100
AcDbEntity
  8
0-1
  6
JWW_DASHED1
 62
     2
370
     9
100
AcDbLine
 10
-448.0867390209108
 20
-38.57856589429562
 30
0.0
 11
-448.0867390209108
 21
-63.57849991034297
 31
0.0
  0
LINE
  5
32E
330
1F
100
AcDbEntity
  8
0-1
  6
JWW_DASHED1
 62
     2
370
     9
100
AcDbLine
 10
-464.0866928321439
 20
-38.57856589429562
 30
0.0
 11
-464.0866928321439
 21
-63.57849991034297
 31
0.0
  0
LINE
  5
32F
330
1F
100
AcDbEntity
  8
0-1
  6
JWW_DASHED1
 62
     2
370
     9
100
AcDbLine
 10
51.91327747507741
 20
-38.57856589429562
 30
0.0
 11
51.91327747507741
 21
-63.57849991034297
 31
0.0
  0
LINE
  5
330
330
1F
100
AcDbEntity
  8
0-1
  6
JWW_DASHED1
 62
     2
370
     9
100
AcDbLine
 10
35.91332366384428
 20
-38.57856589429562
 30
0.0
 11
35.91332366384428
 21
-63.57849991034297
 31
0.0
  0
LINE
  5
331
330
1F
100
AcDbEntity
  8
0-E
  6
Continuous
 62
     7
370
     9
100
AcDbLine
 10
369.8592960033715
 20
279.9756597180354
 30
0.0
 11
308.8563729142667
 21
490.4217442302822
 31
0.0
  0
LINE
  5
332
330
1F
100
AcDbEntity
  8
0-E
  6
Continuous
 62
     7
370
     9
100
AcDbLine
 10
479.8592630113951
 20
-47.07837124163521
 30
0.0
 11
485.9468765037938
 21
-55.01188581089198
 31
0.0
  0
LINE
  5
333
330
1F
100
AcDbEntity
  8
0-E
  6
Continuous
 62
     7
370
     9
100
AcDbLine
 10
479.8592630113951
 20
-47.07837124163521
 30
0.0
 11
483.6860683323411
 21
-56.31718036325677
 31
0.0
  0
LINE
  5
334
330
1F
100
AcDbEntity
  8
0-E
  6
Continuous
 62
     7
370
     9
100
AcDbLine
 10
479.8592630113951
 20
-47.07837124163521
 30
0.0
 11
524.0265785202635
 21
-123.5783514464494
 31
0.0
  0
LINE
  5
335
330
1F
100
AcDbEntity
  8
0-E
  6
Continuous
 62
     7
370
     9
100
AcDbLine
 10
524.0265785202635
 20
-123.5783514464494
 30
0.0
 11
691.3755742445032
 21
-123.5783514464494
 31
0.0
  0
ARC
  5
336
330
1F
100
AcDbEntity
  8
0-1
  6
Continuous
 62
     2
370
     9
100
AcDbCircle
 10
428.0591218057363
 20
301.6215964262281
 30
0.0
 40
5.000000257749815
100
AcDbArc
 50
180.0
 51
270.0
  0
ARC
  5
337
330
1F
100
AcDbEntity
  8
0-1
  6
Continuous
 62
     2
370
     9
100
AcDbCircle
 10
471.6593052411249
 20
301.6215964262281
 30
0.0
 40
5.000000257749815
100
AcDbArc
 50
270.0
 51
0.0
  0
ARC
  5
338
330
1F
100
AcDbEntity
  8
0-1
  6
Continuous
 62
     2
370
     9
100
AcDbCircle
 10
427.8591904290471
 20
301.4215660736098
 30
0.0
 40
8.000000103099927
100
AcDbArc
 50
180.0
 51
270.0
  0
ARC
  5
339
330
1F
100
AcDbEntity
  8
0-1
  6
Continuous
 62
     2
370
     9
100
AcDbCircle
 10
471.859236617814
 20
301.4215660736098
 30
0.0
 40
8.000000103099927
100
AcDbArc
 50
270.0
 51
0.0
  0
ARC
  5
33A
330
1F
100
AcDbEntity
  8
0-1
  6
Continuous
 62
     2
370
     9
100
AcDbCircle
 10
415.0591284041315
 20
342.4216518527484
 30
0.0
 40
8.000000103099927
100
AcDbArc
 50
0.0
 51
90.0
  0
ARC
  5
33B
330
1F
100
AcDbEntity
  8
0-1
  6
Continuous
 62
     2
370
     9
100
AcDbCircle
 10
414.8591970274423
 20
342.22162150013
 30
0.0
 40
5.000000257749815
100
AcDbArc
 50
0.0
 51
90.0
  0
CIRCLE
  5
33C
330
1F
100
AcDbEntity
  8
0-1
  6
Continuous
 62
     2
370
     9
100
AcDbCircle
 10
449.8592630113951
 20
-41.77840819264864
 30
0.0
 40
8.500000206199852
  0
ARC
  5
33D
330
1F
100
AcDbEntity
  8
0-1
  6
Continuous
 62
     2
370
     9
100
AcDbCircle
 10
455.8591838306517
 20
-41.77840819264864
 30
0.0
 40
6.000000077324945
100
AcDbArc
 50
276.1359710693359
 51
83.86401367187499
  0
ARC
  5
33E
330
1F
100
AcDbEntity
  8
0-1
  6
Continuous
 62
     2
370
     9
100
AcDbCircle
 10
443.8592432162092
 20
-41.77840819264864
 30
0.0
 40
6.000000077324945
100
AcDbArc
 50
96.13597106933595
 51
263.8640136718749
  0
ARC
  5
33F
330
1F
100
AcDbEntity
  8
0-1
  6
Continuous
 62
     2
370
     9
100
AcDbCircle
 10
443.8592432162092
 20
328.6217349925287
 30
0.0
 40
6.000000077324945
100
AcDbArc
 50
96.13597106933595
 51
263.8640136718749
  0
ARC
  5
340
330
1F
100
AcDbEntity
  8
0-1
  6
Continuous
 62
     2
370
     9
100
AcDbCircle
 10
455.8591838306517
 20
328.6217349925287
 30
0.0
 40
6.000000077324945
100
AcDbArc
 50
276.1359710693359
 51
83.86401367187499
  0
CIRCLE
  5
341
330
1F
100
AcDbEntity
  8
0-1
  6
Continuous
 62
     2
370
     9
100
AcDbCircle
 10
449.8592630113951
 20
328.6217349925287
 30
0.0
 40
8.500000206199852
  0
ARC
  5
342
330
1F
100
AcDbEntity
  8
0-1
  6
Continuous
 62
     2
370
     9
100
AcDbCircle
 10
414.8591970274423
 20
-55.37834418821458
 30
0.0
 40
5.000000257749815
100
AcDbArc
 50
270.0
 51
0.0
  0
ARC
  5
343
330
1F
100
AcDbEntity
  8
0-1
  6
Continuous
 62
     2
370
     9
100
AcDbCircle
 10
415.0591284041315
 20
-55.57842402879729
 30
0.0
 40
8.000000103099927
100
AcDbArc
 50
270.0
 51
0.0
  0
ARC
  5
344
330
1F
100
AcDbEntity
  8
0-1
  6
Continuous
 62
     2
370
     9
100
AcDbCircle
 10
471.859236617814
 20
-14.57838773762333
 30
0.0
 40
8.000000103099927
100
AcDbArc
 50
0.0
 51
90.0
  0
ARC
  5
345
330
1F
100
AcDbEntity
  8
0-1
  6
Continuous
 62
     2
370
     9
100
AcDbCircle
 10
427.8591904290471
 20
-14.57838773762333
 30
0.0
 40
8.000000103099927
100
AcDbArc
 50
89.99998474121092
 51
180.0
  0
ARC
  5
346
330
1F
100
AcDbEntity
  8
0-1
  6
Continuous
 62
     2
370
     9
100
AcDbCircle
 10
471.6593052411249
 20
-14.77836860227708
 30
0.0
 40
5.000000257749815
100
AcDbArc
 50
0.0
 51
90.0
  0
ARC
  5
347
330
1F
100
AcDbEntity
  8
0-1
  6
Continuous
 62
     2
370
     9
100
AcDbCircle
 10
428.0591218057363
 20
-14.77836860227708
 30
0.0
 40
5.000000257749815
100
AcDbArc
 50
90.0
 51
180.0
  0
ARC
  5
348
330
1F
100
AcDbEntity
  8
0
  6
Continuous
 62
     3
370
     9
100
AcDbCircle
 10
-663.6039047462064
 20
-288.5784009344139
 30
0.0
 40
10.00000051549963
100
AcDbArc
 50
90.0
 51
165.0685119628907
  0
ARC
  5
349
330
1F
100
AcDbEntity
  8
0
  6
Continuous
 62
     3
370
     9
100
AcDbCircle
 10
-606.4694558441793
 20
-288.5784009344139
 30
0.0
 40
10.00000051549963
100
AcDbArc
 50
14.93148803710938
 51
90.0
  0
ARC
  5
34A
330
1F
100
AcDbEntity
  8
0
  6
Continuous
 62
     3
370
     9
100
AcDbCircle
 10
-552.5039192626759
 20
-288.5784009344139
 30
0.0
 40
10.00000051549963
100
AcDbArc
 50
90.0
 51
165.0685119628907
  0
ARC
  5
34B
330
1F
100
AcDbEntity
  8
0
  6
Continuous
 62
     3
370
     9
100
AcDbCircle
 10
-490.8695297462064
 20
-288.5784009344139
 30
0.0
 40
10.00000051549963
100
AcDbArc
 50
14.93148803710938
 51
90.0
  0
ARC
  5
34C
330
1F
100
AcDbEntity
  8
0
  6
Continuous
 62
     3
370
     9
100
AcDbCircle
 10
-436.903894188774
 20
-288.5784009344139
 30
0.0
 40
10.00000051549963
100
AcDbArc
 50
90.0
 51
165.0685119628907
  0
ARC
  5
34D
330
1F
100
AcDbEntity
  8
0
  6
Continuous
 62
     3
370
     9
100
AcDbCircle
 10
-645.8662305485711
 20
-263.5783679424375
 30
0.0
 40
15.0
100
AcDbArc
 50
238.5704345703125
 51
270.0
  0
ARC
  5
34E
330
1F
100
AcDbEntity
  8
0
  6
Continuous
 62
     3
370
     9
100
AcDbCircle
 10
-637.0866697377603
 20
-298.47173787487
 30
0.0
 40
3.000004098222063
100
AcDbArc
 50
180.0
 51
0.0
  0
ARC
  5
34F
330
1F
100
AcDbEntity
  8
0
  6
Continuous
 62
     3
370
     9
100
AcDbCircle
 10
-637.0866697377603
 20
-302.4717510716605
 30
0.0
 40
9.00000185579867
100
AcDbArc
 50
109.4712677001953
 51
180.0
  0
ARC
  5
350
330
1F
100
AcDbEntity
  8
0
  6
Continuous
 62
     3
370
     9
100
AcDbCircle
 10
-637.0866697377603
 20
-302.4717510716605
 30
0.0
 40
9.00000185579867
100
AcDbArc
 50
0.0
 51
70.52873229980467
  0
ARC
  5
351
330
1F
100
AcDbEntity
  8
0
  6
Continuous
 62
     3
370
     9
100
AcDbCircle
 10
-637.0866697377603
 20
-302.4717510716605
 30
0.0
 40
4.000000438174686
100
AcDbArc
 50
359.9996185302735
 51
45.95120239257818
  0
ARC
  5
352
330
1F
100
AcDbEntity
  8
0
  6
Continuous
 62
     3
370
     9
100
AcDbCircle
 10
-637.0866697377603
 20
-302.4717510716605
 30
0.0
 40
4.000000438174686
100
AcDbArc
 50
134.0487976074219
 51
180.0003814697266
  0
ARC
  5
353
330
1F
100
AcDbEntity
  8
0
  6
Continuous
 62
     3
370
     9
100
AcDbCircle
 10
-637.0866697377603
 20
-327.9718104572179
 30
0.0
 40
2.500000515499631
100
AcDbArc
 50
0.0
 51
180.0
  0
ARC
  5
354
330
1F
100
AcDbEntity
  8
0
  6
Continuous
 62
     3
370
     9
100
AcDbCircle
 10
-637.0866697377603
 20
-326.4718302524037
 30
0.0
 40
9.000000309299779
100
AcDbArc
 50
179.9998321533203
 51
253.8724060058594
  0
ARC
  5
355
330
1F
100
AcDbEntity
  8
0
  6
Continuous
 62
     3
370
     9
100
AcDbCircle
 10
-637.0866697377603
 20
-326.4718302524037
 30
0.0
 40
4.000000824799409
100
AcDbArc
 50
180.0
 51
231.3177947998047
  0
ARC
  5
356
330
1F
100
AcDbEntity
  8
0
  6
Continuous
 62
     3
370
     9
100
AcDbCircle
 10
-637.0866697377603
 20
-326.4718302524037
 30
0.0
 40
4.000000824799409
100
AcDbArc
 50
308.6822052001953
 51
0.0
  0
ARC
  5
357
330
1F
100
AcDbEntity
  8
0
  6
Continuous
 62
     3
370
     9
100
AcDbCircle
 10
-637.0866697377603
 20
-326.4718302524037
 30
0.0
 40
9.000000309299779
100
AcDbArc
 50
286.1275939941406
 51
0.0
  0
ARC
  5
358
330
1F
100
AcDbEntity
  8
0
  6
Continuous
 62
     3
370
     9
100
AcDbCircle
 10
-637.0865707618314
 20
-263.5783679424375
 30
0.0
 40
15.0
100
AcDbArc
 50
194.187973022461
 51
258.4631805419922
  0
ARC
  5
359
330
1F
100
AcDbEntity
  8
0
  6
Continuous
 62
     3
370
     9
100
AcDbCircle
 10
-637.0865707618314
 20
-263.5783679424375
 30
0.0
 40
15.0
100
AcDbArc
 50
281.5368194580078
 51
345.8123016357422
  0
ARC
  5
35A
330
1F
100
AcDbEntity
  8
0
  6
Continuous
 62
     3
370
     9
100
AcDbCircle
 10
-701.4470542922367
 20
-256.5783448480541
 30
0.0
 40
2.000000025774982
100
AcDbArc
 50
191.3102111816407
 51
270.0
  0
ARC
  5
35B
330
1F
100
AcDbEntity
  8
0
  6
Continuous
 62
     3
370
     9
100
AcDbCircle
 10
-681.8074586418988
 20
-252.5783316512635
 30
0.0
 40
4.000000051549963
100
AcDbArc
 50
90.0
 51
168.6902008056641
  0
ARC
  5
35C
330
1F
100
AcDbEntity
  8
0
  6
Continuous
 62
     3
370
     9
100
AcDbCircle
 10
-684.4470476938415
 20
-255.5783415488564
 30
0.0
 40
2.000000025774982
100
AcDbArc
 50
90.0
 51
168.6897888183594
  0
ARC
  5
35D
330
1F
100
AcDbEntity
  8
0
  6
Continuous
 62
     3
370
     9
100
AcDbCircle
 10
-687.0345754071016
 20
-273.5784009344139
 30
0.0
 40
15.0
100
AcDbArc
 50
58.57048034667968
 51
90.0
  0
ARC
  5
35E
330
1F
100
AcDbEntity
  8
0
  6
Continuous
 62
     3
370
     9
100
AcDbCircle
 10
-701.9834048517806
 20
-260.5422318307399
 30
0.0
 40
2.000000025774982
100
AcDbArc
 50
3.094268798828125
 51
74.72427368164064
  0
ARC
  5
35F
330
1F
100
AcDbEntity
  8
0
  6
Continuous
 62
     3
370
     9
100
AcDbCircle
 10
-688.1899214269495
 20
-260.5422318307399
 30
0.0
 40
2.000000025774982
100
AcDbArc
 50
97.70594787597656
 51
176.9057312011719
  0
ARC
  5
360
330
1F
100
AcDbEntity
  8
0
  6
Continuous
 62
     3
370
     9
100
AcDbCircle
 10
-688.7264699383516
 20
-256.5783448480541
 30
0.0
 40
2.000000025774982
100
AcDbArc
 50
277.7065582275391
 51
348.6897888183594
  0
ARC
  5
361
330
1F
100
AcDbEntity
  8
0
  6
Continuous
 62
     3
370
     9
100
AcDbCircle
 10
-477.1659164649564
 20
-252.5783316512635
 30
0.0
 40
4.000000051549963
100
AcDbArc
 50
11.30986022949219
 51
90.00000000000001
  0
ARC
  5
362
330
1F
100
AcDbEntity
  8
0
  6
Continuous
 62
     3
370
     9
100
AcDbCircle
 10
-450.607507470024
 20
-252.5783316512635
 30
0.0
 40
4.000000051549963
100
AcDbArc
 50
90.0
 51
168.6901397705078
  0
ARC
  5
363
330
1F
100
AcDbEntity
  8
0
  6
Continuous
 62
     3
370
     9
100
AcDbCircle
 10
-470.2471031203618
 20
-256.5783448480541
 30
0.0
 40
2.000000025774982
100
AcDbArc
 50
191.3102111816407
 51
270.0
  0
ARC
  5
364
330
1F
100
AcDbEntity
  8
0
  6
Continuous
 62
     3
370
     9
100
AcDbCircle
 10
-457.5263208146185
 20
-256.5783448480541
 30
0.0
 40
2.000000025774982
100
AcDbArc
 50
270.0
 51
348.6897888183594
  0
ARC
  5
365
330
1F
100
AcDbEntity
  8
0
  6
Continuous
 62
     3
370
     9
100
AcDbCircle
 10
-592.7659415388583
 20
-252.5783316512635
 30
0.0
 40
4.000000051549963
100
AcDbArc
 50
11.30986022949219
 51
90.00000000000001
  0
ARC
  5
366
330
1F
100
AcDbEntity
  8
0
  6
Continuous
 62
     3
370
     9
100
AcDbCircle
 10
-566.207532543926
 20
-252.5783316512635
 30
0.0
 40
4.000000051549963
100
AcDbArc
 50
90.0
 51
168.6901397705078
  0
ARC
  5
367
330
1F
100
AcDbEntity
  8
0
  6
Continuous
 62
     3
370
     9
100
AcDbCircle
 10
-585.8471281942636
 20
-256.5783448480541
 30
0.0
 40
2.000000025774982
100
AcDbArc
 50
191.3102111816407
 51
270.0
  0
ARC
  5
368
330
1F
100
AcDbEntity
  8
0
  6
Continuous
 62
     3
370
     9
100
AcDbCircle
 10
-573.1263458885206
 20
-256.5783448480541
 30
0.0
 40
2.000000025774982
100
AcDbArc
 50
270.0
 51
348.6897888183594
  0
ARC
  5
369
330
1F
100
AcDbEntity
  8
0
  6
Continuous
 62
     3
370
     9
100
AcDbCircle
 10
-148.5694941148719
 20
-288.5784009344139
 30
0.0
 40
10.00000051549963
100
AcDbArc
 50
14.93148803710938
 51
90.0
  0
ARC
  5
36A
330
1F
100
AcDbEntity
  8
0
  6
Continuous
 62
     3
370
     9
100
AcDbCircle
 10
-205.703943016899
 20
-288.5784009344139
 30
0.0
 40
10.00000051549963
100
AcDbArc
 50
90.0
 51
165.0685119628907
  0
ARC
  5
36B
330
1F
100
AcDbEntity
  8
0
  6
Continuous
 62
     3
370
     9
100
AcDbCircle
 10
-259.6694795984023
 20
-288.5784009344139
 30
0.0
 40
10.00000051549963
100
AcDbArc
 50
14.93148803710938
 51
90.0
  0
ARC
  5
36C
330
1F
100
AcDbEntity
  8
0
  6
Continuous
 62
     3
370
     9
100
AcDbCircle
 10
-321.3039680908009
 20
-288.5784009344139
 30
0.0
 40
10.00000051549963
100
AcDbArc
 50
90.0
 51
165.0685119628907
  0
ARC
  5
36D
330
1F
100
AcDbEntity
  8
0
  6
Continuous
 62
     3
370
     9
100
AcDbCircle
 10
-375.2694056963753
 20
-288.5784009344139
 30
0.0
 40
10.00000051549963
100
AcDbArc
 50
14.93148803710938
 51
90.0
  0
ARC
  5
36E
330
1F
100
AcDbEntity
  8
0
  6
Continuous
 62
     3
370
     9
100
AcDbCircle
 10
-166.3071683125071
 20
-263.5783679424375
 30
0.0
 40
15.0
100
AcDbArc
 50
270.0
 51
301.4295654296875
  0
ARC
  5
36F
330
1F
100
AcDbEntity
  8
0
  6
Continuous
 62
     3
370
     9
100
AcDbCircle
 10
-175.0867291233178
 20
-298.47173787487
 30
0.0
 40
3.000004098222063
100
AcDbArc
 50
180.0
 51
0.0
  0
ARC
  5
370
330
1F
100
AcDbEntity
  8
0
  6
Continuous
 62
     3
370
     9
100
AcDbCircle
 10
-175.0867291233178
 20
-302.4717510716605
 30
0.0
 40
9.00000185579867
100
AcDbArc
 50
0.0
 51
70.52873229980467
  0
ARC
  5
371
330
1F
100
AcDbEntity
  8
0
  6
Continuous
 62
     3
370
     9
100
AcDbCircle
 10
-175.0867291233178
 20
-302.4717510716605
 30
0.0
 40
9.00000185579867
100
AcDbArc
 50
109.4712677001953
 51
180.0
  0
ARC
  5
372
330
1F
100
AcDbEntity
  8
0
  6
Continuous
 62
     3
370
     9
100
AcDbCircle
 10
-175.0867291233178
 20
-302.4717510716605
 30
0.0
 40
4.000000438174686
100
AcDbArc
 50
134.0487976074219
 51
180.0003814697266
  0
ARC
  5
373
330
1F
100
AcDbEntity
  8
0
  6
Continuous
 62
     3
370
     9
100
AcDbCircle
 10
-175.0867291233178
 20
-302.4717510716605
 30
0.0
 40
4.000000438174686
100
AcDbArc
 50
359.9996185302735
 51
45.95120239257818
  0
ARC
  5
374
330
1F
100
AcDbEntity
  8
0
  6
Continuous
 62
     3
370
     9
100
AcDbCircle
 10
-175.0867291233178
 20
-327.9718104572179
 30
0.0
 40
2.500000515499631
100
AcDbArc
 50
0.0
 51
180.0
  0
ARC
  5
375
330
1F
100
AcDbEntity
  8
0
  6
Continuous
 62
     3
370
     9
100
AcDbCircle
 10
-175.0867291233178
 20
-326.4718302524037
 30
0.0
 40
9.000000309299779
100
AcDbArc
 50
286.1275939941406
 51
0.000167846679685
  0
ARC
  5
376
330
1F
100
AcDbEntity
  8
0
  6
Continuous
 62
     3
370
     9
100
AcDbCircle
 10
-175.0867291233178
 20
-326.4718302524037
 30
0.0
 40
4.000000824799409
100
AcDbArc
 50
308.6822052001953
 51
0.0
  0
ARC
  5
377
330
1F
100
AcDbEntity
  8
0
  6
Continuous
 62
     3
370
     9
100
AcDbCircle
 10
-175.0867291233178
 20
-326.4718302524037
 30
0.0
 40
4.000000824799409
100
AcDbArc
 50
180.0
 51
231.3177947998047
  0
ARC
  5
378
330
1F
100
AcDbEntity
  8
0
  6
Continuous
 62
     3
370
     9
100
AcDbCircle
 10
-175.0867291233178
 20
-326.4718302524037
 30
0.0
 40
9.000000309299779
100
AcDbArc
 50
180.0
 51
253.8724060058594
  0
ARC
  5
379
330
1F
100
AcDbEntity
  8
0
  6
Continuous
 62
     3
370
     9
100
AcDbCircle
 10
-175.0868280992469
 20
-263.5783679424375
 30
0.0
 40
15.0
100
AcDbArc
 50
281.5368194580078
 51
345.8120269775391
  0
ARC
  5
37A
330
1F
100
AcDbEntity
  8
0
  6
Continuous
 62
     3
370
     9
100
AcDbCircle
 10
-175.0868280992469
 20
-263.5783679424375
 30
0.0
 40
15.0
100
AcDbArc
 50
194.1876983642578
 51
258.4631805419922
  0
ARC
  5
37B
330
1F
100
AcDbEntity
  8
0
  6
Continuous
 62
     3
370
     9
100
AcDbCircle
 10
-110.7263445688414
 20
-256.5783448480541
 30
0.0
 40
2.000000025774982
100
AcDbArc
 50
270.0
 51
348.6897888183594
  0
ARC
  5
37C
330
1F
100
AcDbEntity
  8
0
  6
Continuous
 62
     3
370
     9
100
AcDbCircle
 10
-130.3659402191794
 20
-252.5783316512635
 30
0.0
 40
4.000000051549963
100
AcDbArc
 50
11.30979919433594
 51
90.00000000000001
  0
ARC
  5
37D
330
1F
100
AcDbEntity
  8
0
  6
Continuous
 62
     3
370
     9
100
AcDbCircle
 10
-127.7262521913077
 20
-255.5783415488564
 30
0.0
 40
2.000000025774982
100
AcDbArc
 50
11.31021118164062
 51
90.00000000000001
  0
ARC
  5
37E
330
1F
100
AcDbEntity
  8
0
  6
Continuous
 62
     3
370
     9
100
AcDbCircle
 10
-125.1389224299057
 20
-273.5784009344139
 30
0.0
 40
15.0
100
AcDbArc
 50
90.0
 51
121.4295196533203
  0
ARC
  5
37F
330
1F
100
AcDbEntity
  8
0
  6
Continuous
 62
     3
370
     9
100
AcDbCircle
 10
-110.1898950333685
 20
-260.5422318307399
 30
0.0
 40
2.000000025774982
100
AcDbArc
 50
105.2757263183594
 51
176.9057312011719
  0
ARC
  5
380
330
1F
100
AcDbEntity
  8
0
  6
Continuous
 62
     3
370
     9
100
AcDbCircle
 10
-123.9834774341286
 20
-260.5422318307399
 30
0.0
 40
2.000000025774982
100
AcDbArc
 50
3.094268798828125
 51
82.29405212402345
  0
ARC
  5
381
330
1F
100
AcDbEntity
  8
0
  6
Continuous
 62
     3
370
     9
100
AcDbCircle
 10
-123.4471268745848
 20
-256.5783448480541
 30
0.0
 40
2.000000025774982
100
AcDbArc
 50
191.3102111816407
 51
262.2934417724609
  0
ARC
  5
382
330
1F
100
AcDbEntity
  8
0
  6
Continuous
 62
     3
370
     9
100
AcDbCircle
 10
-335.0074823961219
 20
-252.5783316512635
 30
0.0
 40
4.000000051549963
100
AcDbArc
 50
90.0
 51
168.6901397705078
  0
ARC
  5
383
330
1F
100
AcDbEntity
  8
0
  6
Continuous
 62
     3
370
     9
100
AcDbCircle
 10
-361.5658913910544
 20
-252.5783316512635
 30
0.0
 40
4.000000051549963
100
AcDbArc
 50
11.30986022949219
 51
90.00000000000001
  0
ARC
  5
384
330
1F
100
AcDbEntity
  8
0
  6
Continuous
 62
     3
370
     9
100
AcDbCircle
 10
-341.9262957407166
 20
-256.5783448480541
 30
0.0
 40
2.000000025774982
100
AcDbArc
 50
270.0
 51
348.6897888183594
  0
ARC
  5
385
330
1F
100
AcDbEntity
  8
0
  6
Continuous
 62
     3
370
     9
100
AcDbCircle
 10
-354.6470780464598
 20
-256.5783448480541
 30
0.0
 40
2.000000025774982
100
AcDbArc
 50
191.3102111816407
 51
270.0
  0
ARC
  5
386
330
1F
100
AcDbEntity
  8
0
  6
Continuous
 62
     3
370
     9
100
AcDbCircle
 10
-219.4074573222199
 20
-252.5783316512635
 30
0.0
 40
4.000000051549963
100
AcDbArc
 50
90.0
 51
168.6901397705078
  0
ARC
  5
387
330
1F
100
AcDbEntity
  8
0
  6
Continuous
 62
     3
370
     9
100
AcDbCircle
 10
-245.9658663171523
 20
-252.5783316512635
 30
0.0
 40
4.000000051549963
100
AcDbArc
 50
11.30986022949219
 51
90.00000000000001
  0
ARC
  5
388
330
1F
100
AcDbEntity
  8
0
  6
Continuous
 62
     3
370
     9
100
AcDbCircle
 10
-226.3262706668145
 20
-256.5783448480541
 30
0.0
 40
2.000000025774982
100
AcDbArc
 50
270.0
 51
348.6897888183594
  0
ARC
  5
389
330
1F
100
AcDbEntity
  8
0
  6
Continuous
 62
     3
370
     9
100
AcDbCircle
 10
-239.0470529725577
 20
-256.5783448480541
 30
0.0
 40
2.000000025774982
100
AcDbArc
 50
191.3102111816406
 51
270.0
  0
ARC
  5
38A
330
1F
100
AcDbEntity
  8
0
  6
Continuous
 62
     3
370
     9
100
AcDbCircle
 10
418.3592828065808
 20
332.8248467957382
 30
0.0
 40
1.500000019331236
100
AcDbArc
 50
273.8140716552734
 51
0.0000000000000127
  0
ARC
  5
38B
330
1F
100
AcDbEntity
  8
0
  6
Continuous
 62
     3
370
     9
100
AcDbCircle
 10
377.8593223969525
 20
-8.169003499870001
 30
0.0
 40
3.000000038662472
100
AcDbArc
 50
180.0
 51
258.6900634765626
  0
ARC
  5
38C
330
1F
100
AcDbEntity
  8
0
  6
Continuous
 62
     3
370
     9
100
AcDbCircle
 10
418.3592828065808
 20
336.0298853303666
 30
0.0
 40
1.500000019331236
100
AcDbArc
 50
0.0
 51
85.71084594726562
  0
ARC
  5
38D
330
1F
100
AcDbEntity
  8
0
  6
Continuous
 62
     3
370
     9
100
AcDbCircle
 10
377.8593223969525
 20
138.0411586886858
 30
0.0
 40
3.000000038662472
100
AcDbArc
 50
180.0
 51
265.4260711669922
  0
ARC
  5
38E
330
1F
100
AcDbEntity
  8
0
  6
Continuous
 62
     3
370
     9
100
AcDbCircle
 10
377.8593223969525
 20
119.7019582822246
 30
0.0
 40
3.000000038662472
100
AcDbArc
 50
94.57391357421876
 51
180.0
  0
ARC
  5
38F
330
1F
100
AcDbEntity
  8
0
  6
Continuous
 62
     3
370
     9
100
AcDbCircle
 10
371.3592762081856
 20
266.0512311390659
 30
0.0
 40
1.500000019331236
100
AcDbArc
 50
180.0
 51
258.6900634765626
  0
ARC
  5
390
330
1F
100
AcDbEntity
  8
0
  6
Continuous
 62
     3
370
     9
100
AcDbCircle
 10
371.3592762081856
 20
282.6918561390659
 30
0.0
 40
1.500000019331236
100
AcDbArc
 50
101.3099212646484
 51
180.0
  0
ARC
  5
391
330
1F
100
AcDbEntity
  8
0
  6
Continuous
 62
     3
370
     9
100
AcDbCircle
 10
377.8593223969525
 20
-25.08784983644094
 30
0.0
 40
3.000000038662472
100
AcDbArc
 50
101.3099212646484
 51
180.0
  0
ARC
  5
392
330
1F
100
AcDbEntity
  8
0
  6
Continuous
 62
     3
370
     9
100
AcDbCircle
 10
378.3592498146044
 20
-12.85813660269937
 30
0.0
 40
1.500000019331236
100
AcDbArc
 50
0.0
 51
78.6900634765625
  0
ARC
  5
393
330
1F
100
AcDbEntity
  8
0
  6
Continuous
 62
     3
370
     9
100
AcDbCircle
 10
378.3592498146044
 20
-20.39871673361156
 30
0.0
 40
1.500000019331236
100
AcDbArc
 50
281.3099212646484
 51
0.0
  0
ARC
  5
394
330
1F
100
AcDbEntity
  8
0
  6
Continuous
 62
     3
370
     9
100
AcDbCircle
 10
377.8593223969525
 20
325.6149452437957
 30
0.0
 40
3.000000038662472
100
AcDbArc
 50
93.81407165527344
 51
180.0
  0
ARC
  5
395
330
1F
100
AcDbEntity
  8
0
  6
Continuous
 62
     3
370
     9
100
AcDbCircle
 10
378.3592498146044
 20
299.7012654507213
 30
0.0
 40
1.500000019331236
100
AcDbArc
 50
281.3099212646484
 51
0.0
  0
ARC
  5
396
330
1F
100
AcDbEntity
  8
0
  6
Continuous
 62
     3
370
     9
100
AcDbCircle
 10
378.3592498146044
 20
307.2418455816335
 30
0.0
 40
1.500000019331236
100
AcDbArc
 50
0.0
 51
78.6900634765625
  0
ARC
  5
397
330
1F
100
AcDbEntity
  8
0
  6
Continuous
 62
     3
370
     9
100
AcDbCircle
 10
377.8593223969525
 20
295.0121818358564
 30
0.0
 40
3.000000038662472
100
AcDbArc
 50
101.3099212646484
 51
180.0
  0
ARC
  5
398
330
1F
100
AcDbEntity
  8
0
  6
Continuous
 62
     3
370
     9
100
AcDbCircle
 10
377.8593223969525
 20
311.9309291964984
 30
0.0
 40
3.000000038662472
100
AcDbArc
 50
180.0
 51
258.6900634765626
  0
ARC
  5
399
330
1F
100
AcDbEntity
  8
0
  6
Continuous
 62
     3
370
     9
100
AcDbCircle
 10
371.3592762081856
 20
311.7918680161774
 30
0.0
 40
1.500000019331236
100
AcDbArc
 50
101.3099212646484
 51
180.0
  0
ARC
  5
39A
330
1F
100
AcDbEntity
  8
0
  6
Continuous
 62
     3
370
     9
100
AcDbCircle
 10
371.3592762081856
 20
295.1512430161774
 30
0.0
 40
1.500000019331236
100
AcDbArc
 50
180.0
 51
258.6900634765626
  0
ARC
  5
39B
330
1F
100
AcDbEntity
  8
0
  6
Continuous
 62
     3
370
     9
100
AcDbCircle
 10
371.3592762081856
 20
324.2512548932889
 30
0.0
 40
1.500000019331236
100
AcDbArc
 50
180.0
 51
258.6900634765626
  0
ARC
  5
39C
330
1F
100
AcDbEntity
  8
0
  6
Continuous
 62
     3
370
     9
100
AcDbCircle
 10
371.3592762081856
 20
341.1918759342517
 30
0.0
 40
1.500000019331236
100
AcDbArc
 50
101.3099212646484
 51
180.0
  0
ARC
  5
39D
330
1F
100
AcDbEntity
  8
0
  6
Continuous
 62
     3
370
     9
100
AcDbCircle
 10
381.8593355937429
 20
342.2771469963294
 30
0.0
 40
2.000000025774982
100
AcDbArc
 50
180.0
 51
265.7108459472656
  0
ARC
  5
39E
330
1F
100
AcDbEntity
  8
0
  6
Continuous
 62
     3
370
     9
100
AcDbCircle
 10
378.3592498146044
 20
8.701295143500012
 30
0.0
 40
1.500000019331236
100
AcDbArc
 50
281.3099212646484
 51
0.0
  0
ARC
  5
39F
330
1F
100
AcDbEntity
  8
0
  6
Continuous
 62
     3
370
     9
100
AcDbCircle
 10
378.3592498146044
 20
16.24182578644761
 30
0.0
 40
1.500000019331236
100
AcDbArc
 50
0.0
 51
78.6900634765625
  0
ARC
  5
3A0
330
1F
100
AcDbEntity
  8
0
  6
Continuous
 62
     3
370
     9
100
AcDbCircle
 10
377.8593223969525
 20
4.012162040670518
 30
0.0
 40
3.000000038662472
100
AcDbArc
 50
101.3099212646484
 51
180.0
  0
ARC
  5
3A1
330
1F
100
AcDbEntity
  8
0
  6
Continuous
 62
     3
370
     9
100
AcDbCircle
 10
377.8593223969525
 20
20.93090940131251
 30
0.0
 40
3.000000038662472
100
AcDbArc
 50
180.0
 51
258.6900634765626
  0
ARC
  5
3A2
330
1F
100
AcDbEntity
  8
0
  6
Continuous
 62
     3
370
     9
100
AcDbCircle
 10
377.8593223969525
 20
50.03102025435303
 30
0.0
 40
3.000000038662472
100
AcDbArc
 50
180.0
 51
258.6900634765626
  0
ARC
  5
3A3
330
1F
100
AcDbEntity
  8
0
  6
Continuous
 62
     3
370
     9
100
AcDbCircle
 10
377.8593223969525
 20
33.11212442981751
 30
0.0
 40
3.000000038662472
100
AcDbArc
 50
101.3099212646484
 51
180.0
  0
ARC
  5
3A4
330
1F
100
AcDbEntity
  8
0
  6
Continuous
 62
     3
370
     9
100
AcDbCircle
 10
378.3592498146044
 20
45.34183766355907
 30
0.0
 40
1.500000019331236
100
AcDbArc
 50
0.0
 51
78.6900634765625
  0
ARC
  5
3A5
330
1F
100
AcDbEntity
  8
0
  6
Continuous
 62
     3
370
     9
100
AcDbCircle
 10
371.3592762081856
 20
253.5918442619544
 30
0.0
 40
1.500000019331236
100
AcDbArc
 50
101.3099212646484
 51
180.0
  0
ARC
  5
3A6
330
1F
100
AcDbEntity
  8
0
  6
Continuous
 62
     3
370
     9
100
AcDbCircle
 10
371.3592762081856
 20
236.9513182378834
 30
0.0
 40
1.500000019331236
100
AcDbArc
 50
180.0
 51
258.6900634765626
  0
ARC
  5
3A7
330
1F
100
AcDbEntity
  8
0
  6
Continuous
 62
     3
370
     9
100
AcDbCircle
 10
371.3592762081856
 20
207.8512568728074
 30
0.0
 40
1.500000019331236
100
AcDbArc
 50
180.0
 51
258.6900634765626
  0
ARC
  5
3A8
330
1F
100
AcDbEntity
  8
0
  6
Continuous
 62
     3
370
     9
100
AcDbCircle
 10
371.3592762081856
 20
224.491931360772
 30
0.0
 40
1.500000019331236
100
AcDbArc
 50
101.3099212646484
 51
180.0
  0
ARC
  5
3A9
330
1F
100
AcDbEntity
  8
0
  6
Continuous
 62
     3
370
     9
100
AcDbCircle
 10
378.3592498146044
 20
37.8012080446824
 30
0.0
 40
1.500000019331236
100
AcDbArc
 50
281.3099212646484
 51
0.0
  0
ARC
  5
3AA
330
1F
100
AcDbEntity
  8
0
  6
Continuous
 62
     3
370
     9
100
AcDbCircle
 10
377.8593223969525
 20
108.230945032647
 30
0.0
 40
3.000000038662472
100
AcDbArc
 50
180.0
 51
258.6900634765626
  0
ARC
  5
3AB
330
1F
100
AcDbEntity
  8
0
  6
Continuous
 62
     3
370
     9
100
AcDbCircle
 10
377.8593223969525
 20
91.31214818404052
 30
0.0
 40
3.000000038662472
100
AcDbArc
 50
101.3099212646484
 51
180.0
  0
ARC
  5
3AC
330
1F
100
AcDbEntity
  8
0
  6
Continuous
 62
     3
370
     9
100
AcDbCircle
 10
378.3592498146044
 20
103.5418614177821
 30
0.0
 40
1.500000019331236
100
AcDbArc
 50
0.0
 51
78.6900634765625
  0
ARC
  5
3AD
330
1F
100
AcDbEntity
  8
0
  6
Continuous
 62
     3
370
     9
100
AcDbCircle
 10
371.3592762081856
 20
195.3918699956959
 30
0.0
 40
1.500000019331236
100
AcDbArc
 50
101.3099212646484
 51
180.0
  0
ARC
  5
3AE
330
1F
100
AcDbEntity
  8
0
  6
Continuous
 62
     3
370
     9
100
AcDbCircle
 10
371.3592762081856
 20
178.7512944836604
 30
0.0
 40
1.500000019331236
100
AcDbArc
 50
180.0
 51
258.6900634765626
  0
ARC
  5
3AF
330
1F
100
AcDbEntity
  8
0
  6
Continuous
 62
     3
370
     9
100
AcDbCircle
 10
371.3592762081856
 20
149.6512331185845
 30
0.0
 40
1.500000019331236
100
AcDbArc
 50
180.0
 51
258.6900634765626
  0
ARC
  5
3B0
330
1F
100
AcDbEntity
  8
0
  6
Continuous
 62
     3
370
     9
100
AcDbCircle
 10
371.3592762081856
 20
166.2918581185845
 30
0.0
 40
1.500000019331236
100
AcDbArc
 50
101.3099212646484
 51
180.0
  0
ARC
  5
3B1
330
1F
100
AcDbEntity
  8
0
  6
Continuous
 62
     3
370
     9
100
AcDbCircle
 10
378.3592498146044
 20
96.0012812868699
 30
0.0
 40
1.500000019331236
100
AcDbArc
 50
281.3099212646484
 51
0.0
  0
ARC
  5
3B2
330
1F
100
AcDbEntity
  8
0
  6
Continuous
 62
     3
370
     9
100
AcDbCircle
 10
377.8593223969525
 20
61.8649287478074
 30
0.0
 40
3.000000038662472
100
AcDbArc
 50
93.81407165527344
 51
180.0
  0
ARC
  5
3B3
330
1F
100
AcDbEntity
  8
0
  6
Continuous
 62
     3
370
     9
100
AcDbCircle
 10
377.8593223969525
 20
79.47819020262156
 30
0.0
 40
3.000000038662472
100
AcDbArc
 50
180.0
 51
266.1859130859375
  0
ARC
  5
3B4
330
1F
100
AcDbEntity
  8
0
  6
Continuous
 62
     3
370
     9
100
AcDbCircle
 10
377.8593223969525
 20
166.4309687868699
 30
0.0
 40
3.000000038662472
100
AcDbArc
 50
180.0
 51
258.6900634765626
  0
ARC
  5
3B5
330
1F
100
AcDbEntity
  8
0
  6
Continuous
 62
     3
370
     9
100
AcDbCircle
 10
377.8593223969525
 20
149.5121719382634
 30
0.0
 40
3.000000038662472
100
AcDbArc
 50
101.3099212646484
 51
180.0
  0
ARC
  5
3B6
330
1F
100
AcDbEntity
  8
0
  6
Continuous
 62
     3
370
     9
100
AcDbCircle
 10
378.3592498146044
 20
161.741885172005
 30
0.0
 40
1.500000019331236
100
AcDbArc
 50
0.0
 51
78.6900634765625
  0
ARC
  5
3B7
330
1F
100
AcDbEntity
  8
0
  6
Continuous
 62
     3
370
     9
100
AcDbCircle
 10
371.3592762081856
 20
120.5512707294375
 30
0.0
 40
1.500000019331236
100
AcDbArc
 50
180.0
 51
258.6900634765626
  0
ARC
  5
3B8
330
1F
100
AcDbEntity
  8
0
  6
Continuous
 62
     3
370
     9
100
AcDbCircle
 10
371.3592762081856
 20
137.1918462414729
 30
0.0
 40
1.500000019331236
100
AcDbArc
 50
101.3099212646484
 51
180.0
  0
ARC
  5
3B9
330
1F
100
AcDbEntity
  8
0
  6
Continuous
 62
     3
370
     9
100
AcDbCircle
 10
371.3592762081856
 20
108.0918838523259
 30
0.0
 40
1.500000019331236
100
AcDbArc
 50
101.3099212646484
 51
180.0
  0
ARC
  5
3BA
330
1F
100
AcDbEntity
  8
0
  6
Continuous
 62
     3
370
     9
100
AcDbCircle
 10
371.3592762081856
 20
91.45130834029052
 30
0.0
 40
1.500000019331236
100
AcDbArc
 50
180.0
 51
258.6900634765626
  0
ARC
  5
3BB
330
1F
100
AcDbEntity
  8
0
  6
Continuous
 62
     3
370
     9
100
AcDbCircle
 10
378.3592498146044
 20
154.2013050410929
 30
0.0
 40
1.500000019331236
100
AcDbArc
 50
281.3099212646484
 51
0.0
  0
ARC
  5
3BC
330
1F
100
AcDbEntity
  8
0
  6
Continuous
 62
     3
370
     9
100
AcDbCircle
 10
378.3592498146044
 20
183.3012674302398
 30
0.0
 40
1.500000019331236
100
AcDbArc
 50
281.3099212646484
 51
0.0
  0
ARC
  5
3BD
330
1F
100
AcDbEntity
  8
0
  6
Continuous
 62
     3
370
     9
100
AcDbCircle
 10
403.3592828065808
 20
68.07487648851688
 30
0.0
 40
1.500000019331236
100
AcDbArc
 50
273.8140716552734
 51
359.999984741211
  0
ARC
  5
3BE
330
1F
100
AcDbEntity
  8
0
  6
Continuous
 62
     3
370
     9
100
AcDbCircle
 10
378.3592498146044
 20
190.841847561152
 30
0.0
 40
1.500000019331236
100
AcDbArc
 50
0.0
 51
78.6900634765625
  0
ARC
  5
3BF
330
1F
100
AcDbEntity
  8
0
  6
Continuous
 62
     3
370
     9
100
AcDbCircle
 10
377.8593223969525
 20
178.612183815375
 30
0.0
 40
3.000000038662472
100
AcDbArc
 50
101.3099212646484
 51
180.0
  0
ARC
  5
3C0
330
1F
100
AcDbEntity
  8
0
  6
Continuous
 62
     3
370
     9
100
AcDbCircle
 10
403.3592828065808
 20
73.26824246191208
 30
0.0
 40
1.500000019331236
100
AcDbArc
 50
359.999984741211
 51
86.1859130859375
  0
ARC
  5
3C1
330
1F
100
AcDbEntity
  8
0
  6
Continuous
 62
     3
370
     9
100
AcDbCircle
 10
377.8593223969525
 20
195.5310301519459
 30
0.0
 40
3.000000038662472
100
AcDbArc
 50
180.0
 51
258.6900634765626
  0
ARC
  5
3C2
330
1F
100
AcDbEntity
  8
0
  6
Continuous
 62
     3
370
     9
100
AcDbCircle
 10
371.3592762081856
 20
62.35124697521449
 30
0.0
 40
1.500000019331236
100
AcDbArc
 50
180.0
 51
258.6900634765626
  0
ARC
  5
3C3
330
1F
100
AcDbEntity
  8
0
  6
Continuous
 62
     3
370
     9
100
AcDbCircle
 10
371.3592762081856
 20
78.99187197521448
 30
0.0
 40
1.500000019331236
100
AcDbArc
 50
101.3099212646484
 51
180.0
  0
ARC
  5
3C4
330
1F
100
AcDbEntity
  8
0
  6
Continuous
 62
     3
370
     9
100
AcDbCircle
 10
371.3592762081856
 20
49.89186009810303
 30
0.0
 40
1.500000019331236
100
AcDbArc
 50
101.3099212646484
 51
180.0
  0
ARC
  5
3C5
330
1F
100
AcDbEntity
  8
0
  6
Continuous
 62
     3
370
     9
100
AcDbCircle
 10
371.3592762081856
 20
33.25128458606751
 30
0.0
 40
1.500000019331236
100
AcDbArc
 50
180.0
 51
258.6900634765626
  0
ARC
  5
3C6
330
1F
100
AcDbEntity
  8
0
  6
Continuous
 62
     3
370
     9
100
AcDbCircle
 10
403.3592828065808
 20
213.5748863861098
 30
0.0
 40
1.500000019331236
100
AcDbArc
 50
273.8140716552734
 51
0.0000000000000127
  0
ARC
  5
3C7
330
1F
100
AcDbEntity
  8
0
  6
Continuous
 62
     3
370
     9
100
AcDbCircle
 10
403.3592828065808
 20
218.768252359505
 30
0.0
 40
1.500000019331236
100
AcDbArc
 50
8.685028076171875
 51
86.1859130859375
  0
ARC
  5
3C8
330
1F
100
AcDbEntity
  8
0
  6
Continuous
 62
     3
370
     9
100
AcDbCircle
 10
377.8593223969525
 20
207.3649386454003
 30
0.0
 40
3.000000038662472
100
AcDbArc
 50
93.81407165527344
 51
180.0
  0
ARC
  5
3C9
330
1F
100
AcDbEntity
  8
0
  6
Continuous
 62
     3
370
     9
100
AcDbCircle
 10
377.8593223969525
 20
224.9782001002145
 30
0.0
 40
3.000000038662472
100
AcDbArc
 50
180.0
 51
266.1859130859375
  0
ARC
  5
3CA
330
1F
100
AcDbEntity
  8
0
  6
Continuous
 62
     3
370
     9
100
AcDbCircle
 10
402.8592564129998
 20
273.3858423616166
 30
0.0
 40
15.0
100
AcDbArc
 50
104.8756713867188
 51
180.0
  0
ARC
  5
3CB
330
1F
100
AcDbEntity
  8
0
  6
Continuous
 62
     3
370
     9
100
AcDbCircle
 10
378.3592498146044
 20
241.5012416964983
 30
0.0
 40
1.500000019331236
100
AcDbArc
 50
281.3099212646484
 51
0.0
  0
ARC
  5
3CC
330
1F
100
AcDbEntity
  8
0
  6
Continuous
 62
     3
370
     9
100
AcDbCircle
 10
378.3592498146044
 20
249.0419208033395
 30
0.0
 40
1.500000019331236
100
AcDbArc
 50
0.0
 51
78.6900634765625
  0
ARC
  5
3CD
330
1F
100
AcDbEntity
  8
0
  6
Continuous
 62
     3
370
     9
100
AcDbCircle
 10
377.8593223969525
 20
236.8121580816334
 30
0.0
 40
3.000000038662472
100
AcDbArc
 50
101.3099212646484
 51
180.0
  0
ARC
  5
3CE
330
1F
100
AcDbEntity
  8
0
  6
Continuous
 62
     3
370
     9
100
AcDbCircle
 10
371.3592762081856
 20
-54.34874708622979
 30
0.0
 40
1.500000019331236
100
AcDbArc
 50
180.0
 51
258.6900634765626
  0
ARC
  5
3CF
330
1F
100
AcDbEntity
  8
0
  6
Continuous
 62
     3
370
     9
100
AcDbCircle
 10
371.3592762081856
 20
-37.40812604526698
 30
0.0
 40
1.500000019331236
100
AcDbArc
 50
101.3099212646484
 51
180.0
  0
ARC
  5
3D0
330
1F
100
AcDbEntity
  8
0
  6
Continuous
 62
     3
370
     9
100
AcDbCircle
 10
371.3592762081856
 20
-8.308163656120001
 30
0.0
 40
1.500000019331236
100
AcDbArc
 50
101.3099212646484
 51
180.0
  0
ARC
  5
3D1
330
1F
100
AcDbEntity
  8
0
  6
Continuous
 62
     3
370
     9
100
AcDbCircle
 10
371.3592762081856
 20
-24.94878865612
 30
0.0
 40
1.500000019331236
100
AcDbArc
 50
180.0
 51
258.6900634765626
  0
ARC
  5
3D2
330
1F
100
AcDbEntity
  8
0
  6
Continuous
 62
     3
370
     9
100
AcDbCircle
 10
377.8593223969525
 20
253.7310044182044
 30
0.0
 40
3.000000038662472
100
AcDbArc
 50
180.0
 51
258.6900634765626
  0
ARC
  5
3D3
330
1F
100
AcDbEntity
  8
0
  6
Continuous
 62
     3
370
     9
100
AcDbCircle
 10
377.8593223969525
 20
282.8310162953159
 30
0.0
 40
3.000000038662472
100
AcDbArc
 50
180.0
 51
258.6900634765626
  0
ARC
  5
3D4
330
1F
100
AcDbEntity
  8
0
  6
Continuous
 62
     3
370
     9
100
AcDbCircle
 10
377.8593223969525
 20
265.9121699587449
 30
0.0
 40
3.000000038662472
100
AcDbArc
 50
101.3099212646484
 51
180.0
  0
ARC
  5
3D5
330
1F
100
AcDbEntity
  8
0
  6
Continuous
 62
     3
370
     9
100
AcDbCircle
 10
378.3592498146044
 20
278.141833704522
 30
0.0
 40
1.500000019331236
100
AcDbArc
 50
0.0
 51
78.6900634765625
  0
ARC
  5
3D6
330
1F
100
AcDbEntity
  8
0
  6
Continuous
 62
     3
370
     9
100
AcDbCircle
 10
418.3592828065808
 20
294.5751041331537
 30
0.0
 40
1.500000019331236
100
AcDbArc
 50
284.8756713867188
 51
0.0000000000000127
  0
ARC
  5
3D7
330
1F
100
AcDbEntity
  8
0
  6
Continuous
 62
     3
370
     9
100
AcDbCircle
 10
378.3592498146044
 20
270.6012535736098
 30
0.0
 40
1.500000019331236
100
AcDbArc
 50
281.3099212646484
 51
0.0
  0
ARC
  5
3D8
330
1F
100
AcDbEntity
  8
0
  6
Continuous
 62
     3
370
     9
100
AcDbCircle
 10
381.8593355937429
 20
-55.43406763627198
 30
0.0
 40
2.000000025774982
100
AcDbArc
 50
94.28913879394531
 51
180.0
  0
ARC
  5
3D9
330
1F
100
AcDbEntity
  8
0
  6
Continuous
 62
     3
370
     9
100
AcDbCircle
 10
377.8593223969525
 20
-38.77176690780917
 30
0.0
 40
3.000000038662472
100
AcDbArc
 50
180.0
 51
266.1859130859375
  0
ARC
  5
3DA
330
1F
100
AcDbEntity
  8
0
  6
Continuous
 62
     3
370
     9
100
AcDbCircle
 10
418.3592828065808
 20
-49.1867069943801
 30
0.0
 40
1.500000019331236
100
AcDbArc
 50
274.2891387939453
 51
0.0
  0
ARC
  5
3DB
330
1F
100
AcDbEntity
  8
0
  6
Continuous
 62
     3
370
     9
100
AcDbCircle
 10
418.3592828065808
 20
-45.98176743568084
 30
0.0
 40
1.500000019331236
100
AcDbArc
 50
1.403289794921875
 51
86.1859130859375
  0
ARC
  5
3DC
330
1F
100
AcDbEntity
  8
0
  6
Continuous
 62
     3
370
     9
100
AcDbCircle
 10
371.3592762081856
 20
4.151223220991568
 30
0.0
 40
1.500000019331236
100
AcDbArc
 50
180.0
 51
258.6900634765626
  0
ARC
  5
3DD
330
1F
100
AcDbEntity
  8
0
  6
Continuous
 62
     3
370
     9
100
AcDbCircle
 10
371.3592762081856
 20
20.79189770895605
 30
0.0
 40
1.500000019331236
100
AcDbArc
 50
101.3099212646484
 51
180.0
  0
ARC
  5
3DE
330
1F
100
AcDbEntity
  8
0
  6
Continuous
 62
     3
370
     9
100
AcDbCircle
 10
418.3592828065808
 20
-7.731975285131767
 30
0.0
 40
1.500000019331236
100
AcDbArc
 50
1.403289794921875
 51
75.1243133544922
  0
ARC
  5
3DF
330
1F
100
AcDbEntity
  8
0
  6
Continuous
 62
     3
370
     9
100
AcDbCircle
 10
403.8593092001619
 20
125.7947185229341
 30
0.0
 40
1.000000012887491
100
AcDbArc
 50
274.5739135742188
 51
0.0000000000000127
  0
ARC
  5
3E0
330
1F
100
AcDbEntity
  8
0
  6
Continuous
 62
     3
370
     9
100
AcDbCircle
 10
403.8593092001619
 20
131.9483489600118
 30
0.0
 40
1.000000012887491
100
AcDbArc
 50
0.0
 51
85.42607116699217
  0
CIRCLE
  5
3E1
330
1F
100
AcDbEntity
  8
0
  6
Continuous
 62
     3
370
     9
100
AcDbCircle
 10
481.8592696097903
 20
128.8715832294375
 30
0.0
 40
2.500000128874908
  0
ARC
  5
3E2
330
1F
100
AcDbEntity
  8
0
  6
Continuous
 62
     3
370
     9
100
AcDbCircle
 10
480.3592894049761
 20
128.8715832294375
 30
0.0
 40
9.000000309299779
100
AcDbArc
 50
270.0
 51
90.0
  0
CIRCLE
  5
3E3
330
1F
100
AcDbEntity
  8
0
  6
Continuous
 62
     3
370
     9
100
AcDbCircle
 10
391.3593421921383
 20
149.6115932589983
 30
0.0
 40
2.500000128874908
  0
ARC
  5
3E4
330
1F
100
AcDbEntity
  8
0
  6
Continuous
 62
     3
370
     9
100
AcDbCircle
 10
480.3592894049761
 20
128.8715832294375
 30
0.0
 40
4.000000051549963
100
AcDbArc
 50
270.0
 51
90.0
  0
ARC
  5
3E5
330
1F
100
AcDbEntity
  8
0
  6
Continuous
 62
     3
370
     9
100
AcDbCircle
 10
394.3593026017667
 20
152.6115536686267
 30
0.0
 40
2.000000025774982
100
AcDbArc
 50
0.0
 51
90.0
  0
ARC
  5
3E6
330
1F
100
AcDbEntity
  8
0
  6
Continuous
 62
     3
370
     9
100
AcDbCircle
 10
456.3593092001619
 20
128.8715832294375
 30
0.0
 40
9.000000309299779
100
AcDbArc
 50
90.0
 51
270.0
  0
ARC
  5
3E7
330
1F
100
AcDbEntity
  8
0
  6
Continuous
 62
     3
370
     9
100
AcDbCircle
 10
456.3593092001619
 20
128.8715832294375
 30
0.0
 40
4.000000051549963
100
AcDbArc
 50
90.0
 51
270.0
  0
ARC
  5
3E8
330
1F
100
AcDbEntity
  8
0
  6
Continuous
 62
     3
370
     9
100
AcDbCircle
 10
388.3592828065808
 20
152.6115536686267
 30
0.0
 40
2.000000025774982
100
AcDbArc
 50
90.0
 51
180.0
  0
ARC
  5
3E9
330
1F
100
AcDbEntity
  8
0
  6
Continuous
 62
     3
370
     9
100
AcDbCircle
 10
413.3593157985571
 20
128.8715832294375
 30
0.0
 40
13.99999979380015
100
AcDbArc
 50
270.0
 51
90.0
  0
ARC
  5
3EA
330
1F
100
AcDbEntity
  8
0
  6
Continuous
 62
     3
370
     9
100
AcDbCircle
 10
413.3593157985571
 20
128.8715832294375
 30
0.0
 40
6.999999896900074
100
AcDbArc
 50
270.0
 51
90.0
  0
CIRCLE
  5
3EB
330
1F
100
AcDbEntity
  8
0
  6
Continuous
 62
     3
370
     9
100
AcDbCircle
 10
454.8593289953478
 20
128.8715832294375
 30
0.0
 40
2.500000128874908
  0
ARC
  5
3EC
330
1F
100
AcDbEntity
  8
0
  6
Continuous
 62
     3
370
     9
100
AcDbCircle
 10
402.8592564129998
 20
13.4573359743699
 30
0.0
 40
15.0
100
AcDbArc
 50
180.0
 51
255.1243133544922
  0
CIRCLE
  5
3ED
330
1F
100
AcDbEntity
  8
0
  6
Continuous
 62
     3
370
     9
100
AcDbCircle
 10
417.8592564129998
 20
128.8715832294375
 30
0.0
 40
2.500000128874908
  0
ARC
  5
3EE
330
1F
100
AcDbEntity
  8
0
  6
Continuous
 62
     3
370
     9
100
AcDbCircle
 10
-702.5869600671522
 20
340.921572672005
 30
0.0
 40
1.500000019331236
100
AcDbArc
 50
90.0
 51
180.0
  0
ARC
  5
3EF
330
1F
100
AcDbEntity
  8
0
  6
Continuous
 62
     3
370
     9
100
AcDbCircle
 10
-702.5869600671522
 20
324.5215581555354
 30
0.0
 40
1.500000019331236
100
AcDbArc
 50
180.0
 51
270.0
  0
ARC
  5
3F0
330
1F
100
AcDbEntity
  8
0
  6
Continuous
 62
     3
370
     9
100
AcDbCircle
 10
-702.5869600671522
 20
311.5215647539308
 30
0.0
 40
1.500000019331236
100
AcDbArc
 50
90.0
 51
180.0
  0
ARC
  5
3F1
330
1F
100
AcDbEntity
  8
0
  6
Continuous
 62
     3
370
     9
100
AcDbCircle
 10
-702.5869600671522
 20
295.421546278424
 30
0.0
 40
1.500000019331236
100
AcDbArc
 50
180.0
 51
270.0
  0
ARC
  5
3F2
330
1F
100
AcDbEntity
  8
0
  6
Continuous
 62
     3
370
     9
100
AcDbCircle
 10
-702.5869600671522
 20
266.3216333772416
 30
0.0
 40
1.500000019331236
100
AcDbArc
 50
180.0
 51
270.0
  0
ARC
  5
3F3
330
1F
100
AcDbEntity
  8
0
  6
Continuous
 62
     3
370
     9
100
AcDbCircle
 10
-702.5869600671522
 20
282.4215528768193
 30
0.0
 40
1.500000019331236
100
AcDbArc
 50
90.0
 51
180.0
  0
ARC
  5
3F4
330
1F
100
AcDbEntity
  8
0
  6
Continuous
 62
     3
370
     9
100
AcDbCircle
 10
-702.5869600671522
 20
253.3216399756368
 30
0.0
 40
1.500000019331236
100
AcDbArc
 50
90.0
 51
180.0
  0
ARC
  5
3F5
330
1F
100
AcDbEntity
  8
0
  6
Continuous
 62
     3
370
     9
100
AcDbCircle
 10
-702.5869600671522
 20
237.221522524201
 30
0.0
 40
1.500000019331236
100
AcDbArc
 50
180.0
 51
270.0
  0
ARC
  5
3F6
330
1F
100
AcDbEntity
  8
0
  6
Continuous
 62
     3
370
     9
100
AcDbCircle
 10
-702.5869600671522
 20
208.1216096230185
 30
0.0
 40
1.500000019331236
100
AcDbArc
 50
180.0
 51
270.0
  0
ARC
  5
3F7
330
1F
100
AcDbEntity
  8
0
  6
Continuous
 62
     3
370
     9
100
AcDbCircle
 10
-702.5869600671522
 20
224.2215291225963
 30
0.0
 40
1.500000019331236
100
AcDbArc
 50
90.0
 51
180.0
  0
ARC
  5
3F8
330
1F
100
AcDbEntity
  8
0
  6
Continuous
 62
     3
370
     9
100
AcDbCircle
 10
-702.5869600671522
 20
195.1215667334493
 30
0.0
 40
1.500000019331236
100
AcDbArc
 50
90.0
 51
180.0
  0
ARC
  5
3F9
330
1F
100
AcDbEntity
  8
0
  6
Continuous
 62
     3
370
     9
100
AcDbCircle
 10
-702.5869600671522
 20
179.0215482579425
 30
0.0
 40
1.500000019331236
100
AcDbArc
 50
180.0
 51
270.0
  0
ARC
  5
3FA
330
1F
100
AcDbEntity
  8
0
  6
Continuous
 62
     3
370
     9
100
AcDbCircle
 10
-702.5869600671522
 20
149.9215858687956
 30
0.0
 40
1.500000019331236
100
AcDbArc
 50
180.0
 51
270.0
  0
ARC
  5
3FB
330
1F
100
AcDbEntity
  8
0
  6
Continuous
 62
     3
370
     9
100
AcDbCircle
 10
-702.5869600671522
 20
166.0215053683733
 30
0.0
 40
1.500000019331236
100
AcDbArc
 50
90.0
 51
180.0
  0
ARC
  5
3FC
330
1F
100
AcDbEntity
  8
0
  6
Continuous
 62
     3
370
     9
100
AcDbCircle
 10
-109.5869336735712
 20
166.0215053683733
 30
0.0
 40
1.500000019331236
100
AcDbArc
 50
7.016464233398438
 51
90.0
  0
ARC
  5
3FD
330
1F
100
AcDbEntity
  8
0
  6
Continuous
 62
     3
370
     9
100
AcDbCircle
 10
-109.5869336735712
 20
149.9215858687956
 30
0.0
 40
1.500000019331236
100
AcDbArc
 50
270.0
 51
0.0
  0
ARC
  5
3FE
330
1F
100
AcDbEntity
  8
0
  6
Continuous
 62
     3
370
     9
100
AcDbCircle
 10
-109.5869336735712
 20
179.0215482579425
 30
0.0
 40
1.500000019331236
100
AcDbArc
 50
270.0
 51
0.0
  0
ARC
  5
3FF
330
1F
100
AcDbEntity
  8
0
  6
Continuous
 62
     3
370
     9
100
AcDbCircle
 10
-109.5869336735712
 20
195.1215667334493
 30
0.0
 40
1.500000019331236
100
AcDbArc
 50
7.016464233398438
 51
90.0
  0
ARC
  5
400
330
1F
100
AcDbEntity
  8
0
  6
Continuous
 62
     3
370
     9
100
AcDbCircle
 10
-109.5869336735712
 20
224.2215291225963
 30
0.0
 40
1.500000019331236
100
AcDbArc
 50
7.016464233398438
 51
90.0
  0
ARC
  5
401
330
1F
100
AcDbEntity
  8
0
  6
Continuous
 62
     3
370
     9
100
AcDbCircle
 10
-109.5869336735712
 20
208.1216096230185
 30
0.0
 40
1.500000019331236
100
AcDbArc
 50
270.0
 51
0.0
  0
ARC
  5
402
330
1F
100
AcDbEntity
  8
0
  6
Continuous
 62
     3
370
     9
100
AcDbCircle
 10
-109.5869336735712
 20
237.221522524201
 30
0.0
 40
1.500000019331236
100
AcDbArc
 50
270.0
 51
0.0
  0
ARC
  5
403
330
1F
100
AcDbEntity
  8
0
  6
Continuous
 62
     3
370
     9
100
AcDbCircle
 10
-109.5869336735712
 20
253.3216399756368
 30
0.0
 40
1.500000019331236
100
AcDbArc
 50
7.016464233398438
 51
90.0
  0
ARC
  5
404
330
1F
100
AcDbEntity
  8
0
  6
Continuous
 62
     3
370
     9
100
AcDbCircle
 10
-109.5869336735712
 20
282.4215528768193
 30
0.0
 40
1.500000019331236
100
AcDbArc
 50
7.016464233398438
 51
90.0
  0
ARC
  5
405
330
1F
100
AcDbEntity
  8
0
  6
Continuous
 62
     3
370
     9
100
AcDbCircle
 10
-109.5869336735712
 20
266.3216333772416
 30
0.0
 40
1.500000019331236
100
AcDbArc
 50
270.0
 51
0.0
  0
ARC
  5
406
330
1F
100
AcDbEntity
  8
0
  6
Continuous
 62
     3
370
     9
100
AcDbCircle
 10
-109.5869336735712
 20
295.421546278424
 30
0.0
 40
1.500000019331236
100
AcDbArc
 50
270.0
 51
0.0
  0
ARC
  5
407
330
1F
100
AcDbEntity
  8
0
  6
Continuous
 62
     3
370
     9
100
AcDbCircle
 10
-109.5869336735712
 20
311.5215647539308
 30
0.0
 40
1.500000019331236
100
AcDbArc
 50
7.016464233398438
 51
90.0
  0
ARC
  5
408
330
1F
100
AcDbEntity
  8
0
  6
Continuous
 62
     3
370
     9
100
AcDbCircle
 10
-109.5869336735712
 20
324.5215581555354
 30
0.0
 40
1.500000019331236
100
AcDbArc
 50
270.0
 51
0.0
  0
ARC
  5
409
330
1F
100
AcDbEntity
  8
0
  6
Continuous
 62
     3
370
     9
100
AcDbCircle
 10
-109.5869336735712
 20
340.921572672005
 30
0.0
 40
1.500000019331236
100
AcDbArc
 50
7.016464233398438
 51
90.0
  0
ARC
  5
40A
330
1F
100
AcDbEntity
  8
0
  6
Continuous
 62
     3
370
     9
100
AcDbCircle
 10
-109.5869336735712
 20
-54.07844382398312
 30
0.0
 40
1.500000019331236
100
AcDbArc
 50
270.0
 51
0.0
  0
ARC
  5
40B
330
1F
100
AcDbEntity
  8
0
  6
Continuous
 62
     3
370
     9
100
AcDbCircle
 10
-109.5869336735712
 20
-37.67837981954906
 30
0.0
 40
1.500000019331236
100
AcDbArc
 50
1.403289794921875
 51
90.0
  0
ARC
  5
40C
330
1F
100
AcDbEntity
  8
0
  6
Continuous
 62
     3
370
     9
100
AcDbCircle
 10
-109.5869336735712
 20
-24.67838641794427
 30
0.0
 40
1.500000019331236
100
AcDbArc
 50
270.0
 51
0.0
  0
ARC
  5
40D
330
1F
100
AcDbEntity
  8
0
  6
Continuous
 62
     3
370
     9
100
AcDbCircle
 10
-109.5869336735712
 20
-8.578417430402084
 30
0.0
 40
1.500000019331236
100
AcDbArc
 50
1.403289794921875
 51
90.0
  0
ARC
  5
40E
330
1F
100
AcDbEntity
  8
0
  6
Continuous
 62
     3
370
     9
100
AcDbCircle
 10
-109.5869336735712
 20
20.5215449587449
 30
0.0
 40
1.500000019331236
100
AcDbArc
 50
1.403289794921875
 51
90.0
  0
ARC
  5
40F
330
1F
100
AcDbEntity
  8
0
  6
Continuous
 62
     3
370
     9
100
AcDbCircle
 10
-109.5869336735712
 20
4.421575971202714
 30
0.0
 40
1.500000019331236
100
AcDbArc
 50
270.0
 51
0.0
  0
ARC
  5
410
330
1F
100
AcDbEntity
  8
0
  6
Continuous
 62
     3
370
     9
100
AcDbCircle
 10
-109.5869336735712
 20
33.52148887238511
 30
0.0
 40
1.500000019331236
100
AcDbArc
 50
270.0
 51
0.0
  0
ARC
  5
411
330
1F
100
AcDbEntity
  8
0
  6
Continuous
 62
     3
370
     9
100
AcDbCircle
 10
-109.5869336735712
 20
49.62160632382095
 30
0.0
 40
1.500000019331236
100
AcDbArc
 50
1.403289794921875
 51
90.0
  0
ARC
  5
412
330
1F
100
AcDbEntity
  8
0
  6
Continuous
 62
     3
370
     9
100
AcDbCircle
 10
-109.5869336735712
 20
78.72156871296792
 30
0.0
 40
1.500000019331236
100
AcDbArc
 50
1.403289794921875
 51
90.0
  0
ARC
  5
413
330
1F
100
AcDbEntity
  8
0
  6
Continuous
 62
     3
370
     9
100
AcDbCircle
 10
-109.5869336735712
 20
62.62159972542563
 30
0.0
 40
1.500000019331236
100
AcDbArc
 50
270.0
 51
0.0
  0
ARC
  5
414
330
1F
100
AcDbEntity
  8
0
  6
Continuous
 62
     3
370
     9
100
AcDbCircle
 10
-109.5869336735712
 20
91.7215621145726
 30
0.0
 40
1.500000019331236
100
AcDbArc
 50
270.0
 51
0.0
  0
ARC
  5
415
330
1F
100
AcDbEntity
  8
0
  6
Continuous
 62
     3
370
     9
100
AcDbCircle
 10
-109.5869336735712
 20
107.8215805900794
 30
0.0
 40
1.500000019331236
100
AcDbArc
 50
1.403289794921875
 51
90.0
  0
ARC
  5
416
330
1F
100
AcDbEntity
  8
0
  6
Continuous
 62
     3
370
     9
100
AcDbCircle
 10
-109.5869336735712
 20
136.9215924671908
 30
0.0
 40
1.500000019331236
100
AcDbArc
 50
1.403289794921875
 51
90.0
  0
ARC
  5
417
330
1F
100
AcDbEntity
  8
0
  6
Continuous
 62
     3
370
     9
100
AcDbCircle
 10
-109.5869336735712
 20
120.8215739916841
 30
0.0
 40
1.500000019331236
100
AcDbArc
 50
270.0
 51
0.0
  0
ARC
  5
418
330
1F
100
AcDbEntity
  8
0
  6
Continuous
 62
     3
370
     9
100
AcDbCircle
 10
-702.5869600671522
 20
120.8215739916841
 30
0.0
 40
1.500000019331236
100
AcDbArc
 50
180.0
 51
270.0
  0
ARC
  5
419
330
1F
100
AcDbEntity
  8
0
  6
Continuous
 62
     3
370
     9
100
AcDbCircle
 10
-702.5869600671522
 20
136.9215924671908
 30
0.0
 40
1.500000019331236
100
AcDbArc
 50
90.0
 51
180.0
  0
ARC
  5
41A
330
1F
100
AcDbEntity
  8
0
  6
Continuous
 62
     3
370
     9
100
AcDbCircle
 10
-702.5869600671522
 20
107.8215805900794
 30
0.0
 40
1.500000019331236
100
AcDbArc
 50
90.0
 51
180.0
  0
ARC
  5
41B
330
1F
100
AcDbEntity
  8
0
  6
Continuous
 62
     3
370
     9
100
AcDbCircle
 10
-702.5869600671522
 20
91.7215621145726
 30
0.0
 40
1.500000019331236
100
AcDbArc
 50
180.0
 51
270.0
  0
ARC
  5
41C
330
1F
100
AcDbEntity
  8
0
  6
Continuous
 62
     3
370
     9
100
AcDbCircle
 10
-702.5869600671522
 20
62.62159972542563
 30
0.0
 40
1.500000019331236
100
AcDbArc
 50
180.0
 51
270.0
  0
ARC
  5
41D
330
1F
100
AcDbEntity
  8
0
  6
Continuous
 62
     3
370
     9
100
AcDbCircle
 10
-702.5869600671522
 20
78.72156871296792
 30
0.0
 40
1.500000019331236
100
AcDbArc
 50
90.0
 51
180.0
  0
ARC
  5
41E
330
1F
100
AcDbEntity
  8
0
  6
Continuous
 62
     3
370
     9
100
AcDbCircle
 10
-702.5869600671522
 20
49.62160632382095
 30
0.0
 40
1.500000019331236
100
AcDbArc
 50
90.0
 51
180.0
  0
ARC
  5
41F
330
1F
100
AcDbEntity
  8
0
  6
Continuous
 62
     3
370
     9
100
AcDbCircle
 10
-702.5869600671522
 20
33.52148887238511
 30
0.0
 40
1.500000019331236
100
AcDbArc
 50
180.0
 51
270.0
  0
ARC
  5
420
330
1F
100
AcDbEntity
  8
0
  6
Continuous
 62
     3
370
     9
100
AcDbCircle
 10
-702.5869600671522
 20
4.421575971202714
 30
0.0
 40
1.500000019331236
100
AcDbArc
 50
180.0
 51
270.0
  0
ARC
  5
421
330
1F
100
AcDbEntity
  8
0
  6
Continuous
 62
     3
370
     9
100
AcDbCircle
 10
-702.5869600671522
 20
20.5215449587449
 30
0.0
 40
1.500000019331236
100
AcDbArc
 50
90.0
 51
180.0
  0
ARC
  5
422
330
1F
100
AcDbEntity
  8
0
  6
Continuous
 62
     3
370
     9
100
AcDbCircle
 10
-109.5869336735712
 20
-54.07844382398312
 30
0.0
 40
2.500000128874908
100
AcDbArc
 50
270.0
 51
0.0
  0
ARC
  5
423
330
1F
100
AcDbEntity
  8
0
  6
Continuous
 62
     3
370
     9
100
AcDbCircle
 10
-109.5869336735712
 20
-8.578417430402084
 30
0.0
 40
2.500000128874908
100
AcDbArc
 50
1.403289794921875
 51
90.0
  0
ARC
  5
424
330
1F
100
AcDbEntity
  8
0
  6
Continuous
 62
     3
370
     9
100
AcDbCircle
 10
-702.5869600671522
 20
-8.578417430402084
 30
0.0
 40
1.500000019331236
100
AcDbArc
 50
90.0
 51
180.0
  0
ARC
  5
425
330
1F
100
AcDbEntity
  8
0
  6
Continuous
 62
     3
370
     9
100
AcDbCircle
 10
-109.5869336735712
 20
4.421575971202714
 30
0.0
 40
2.500000128874908
100
AcDbArc
 50
270.0
 51
0.0
  0
ARC
  5
426
330
1F
100
AcDbEntity
  8
0
  6
Continuous
 62
     3
370
     9
100
AcDbCircle
 10
-702.5869600671522
 20
-24.67838641794427
 30
0.0
 40
1.500000019331236
100
AcDbArc
 50
180.0
 51
270.0
  0
ARC
  5
427
330
1F
100
AcDbEntity
  8
0
  6
Continuous
 62
     3
370
     9
100
AcDbCircle
 10
-109.5869336735712
 20
-37.67837981954906
 30
0.0
 40
2.500000128874908
100
AcDbArc
 50
1.403289794921875
 51
90.0
  0
ARC
  5
428
330
1F
100
AcDbEntity
  8
0
  6
Continuous
 62
     3
370
     9
100
AcDbCircle
 10
-702.5869600671522
 20
-37.67837981954906
 30
0.0
 40
1.500000019331236
100
AcDbArc
 50
90.0
 51
180.0
  0
ARC
  5
429
330
1F
100
AcDbEntity
  8
0
  6
Continuous
 62
     3
370
     9
100
AcDbCircle
 10
-702.5869600671522
 20
-54.07844382398312
 30
0.0
 40
1.500000019331236
100
AcDbArc
 50
180.0
 51
270.0
  0
ARC
  5
42A
330
1F
100
AcDbEntity
  8
0
  6
Continuous
 62
     3
370
     9
100
AcDbCircle
 10
-109.5869336735712
 20
-24.67838641794427
 30
0.0
 40
2.500000128874908
100
AcDbArc
 50
270.0
 51
0.0
  0
ARC
  5
42B
330
1F
100
AcDbEntity
  8
0
  6
Continuous
 62
     3
370
     9
100
AcDbCircle
 10
-109.5869336735712
 20
20.5215449587449
 30
0.0
 40
2.500000128874908
100
AcDbArc
 50
1.403289794921875
 51
90.0
  0
ARC
  5
42C
330
1F
100
AcDbEntity
  8
0
  6
Continuous
 62
     3
370
     9
100
AcDbCircle
 10
-109.5869336735712
 20
33.52148887238511
 30
0.0
 40
2.500000128874908
100
AcDbArc
 50
270.0
 51
0.0
  0
ARC
  5
42D
330
1F
100
AcDbEntity
  8
0
  6
Continuous
 62
     3
370
     9
100
AcDbCircle
 10
-109.5869336735712
 20
78.72156871296792
 30
0.0
 40
2.500000128874908
100
AcDbArc
 50
1.403289794921875
 51
90.0
  0
ARC
  5
42E
330
1F
100
AcDbEntity
  8
0
  6
Continuous
 62
     3
370
     9
100
AcDbCircle
 10
-109.5869336735712
 20
91.7215621145726
 30
0.0
 40
2.500000128874908
100
AcDbArc
 50
270.0
 51
0.0
  0
ARC
  5
42F
330
1F
100
AcDbEntity
  8
0
  6
Continuous
 62
     3
370
     9
100
AcDbCircle
 10
-109.5869336735712
 20
49.62160632382095
 30
0.0
 40
2.500000128874908
100
AcDbArc
 50
1.403289794921875
 51
90.0
  0
ARC
  5
430
330
1F
100
AcDbEntity
  8
0
  6
Continuous
 62
     3
370
     9
100
AcDbCircle
 10
-109.5869336735712
 20
62.62159972542563
 30
0.0
 40
2.500000128874908
100
AcDbArc
 50
270.0
 51
0.0
  0
ARC
  5
431
330
1F
100
AcDbEntity
  8
0
  6
Continuous
 62
     3
370
     9
100
AcDbCircle
 10
-109.5869336735712
 20
107.8215805900794
 30
0.0
 40
2.500000128874908
100
AcDbArc
 50
1.403289794921875
 51
90.0
  0
ARC
  5
432
330
1F
100
AcDbEntity
  8
0
  6
Continuous
 62
     3
370
     9
100
AcDbCircle
 10
-109.5869336735712
 20
120.8215739916841
 30
0.0
 40
2.500000128874908
100
AcDbArc
 50
270.0
 51
0.0
  0
ARC
  5
433
330
1F
100
AcDbEntity
  8
0
  6
Continuous
 62
     3
370
     9
100
AcDbCircle
 10
-109.5869336735712
 20
195.1215667334493
 30
0.0
 40
2.500000128874908
100
AcDbArc
 50
7.016464233398438
 51
90.0
  0
ARC
  5
434
330
1F
100
AcDbEntity
  8
0
  6
Continuous
 62
     3
370
     9
100
AcDbCircle
 10
-109.5869336735712
 20
208.1216096230185
 30
0.0
 40
2.500000128874908
100
AcDbArc
 50
270.0
 51
0.0
  0
ARC
  5
435
330
1F
100
AcDbEntity
  8
0
  6
Continuous
 62
     3
370
     9
100
AcDbCircle
 10
-683.0869204767806
 20
337.7215819097585
 30
0.0
 40
1.000000012887491
100
AcDbArc
 50
90.0
 51
180.0
  0
ARC
  5
436
330
1F
100
AcDbEntity
  8
0
  6
Continuous
 62
     3
370
     9
100
AcDbCircle
 10
-560.0869600671523
 20
337.7215819097585
 30
0.0
 40
1.000000012887491
100
AcDbArc
 50
0.0
 51
90.0
  0
ARC
  5
437
330
1F
100
AcDbEntity
  8
0
  6
Continuous
 62
     3
370
     9
100
AcDbCircle
 10
-560.0869600671523
 20
327.7215489177821
 30
0.0
 40
1.000000012887491
100
AcDbArc
 50
270.0
 51
0.0
  0
ARC
  5
438
330
1F
100
AcDbEntity
  8
0
  6
Continuous
 62
     3
370
     9
100
AcDbCircle
 10
-683.0869204767806
 20
327.7215489177821
 30
0.0
 40
1.000000012887491
100
AcDbArc
 50
180.0
 51
270.0
  0
ARC
  5
439
330
1F
100
AcDbEntity
  8
0
  6
Continuous
 62
     3
370
     9
100
AcDbCircle
 10
-683.0869204767806
 20
327.7215489177821
 30
0.0
 40
2.000000025774982
100
AcDbArc
 50
180.0
 51
270.0
  0
ARC
  5
43A
330
1F
100
AcDbEntity
  8
0
  6
Continuous
 62
     3
370
     9
100
AcDbCircle
 10
-560.0869600671523
 20
327.7215489177821
 30
0.0
 40
2.000000025774982
100
AcDbArc
 50
270.0
 51
0.0
  0
ARC
  5
43B
330
1F
100
AcDbEntity
  8
0
  6
Continuous
 62
     3
370
     9
100
AcDbCircle
 10
-560.0869600671523
 20
337.7215819097585
 30
0.0
 40
2.000000025774982
100
AcDbArc
 50
0.0
 51
90.0
  0
ARC
  5
43C
330
1F
100
AcDbEntity
  8
0
  6
Continuous
 62
     3
370
     9
100
AcDbCircle
 10
-683.0869204767806
 20
337.7215819097585
 30
0.0
 40
2.000000025774982
100
AcDbArc
 50
90.0
 51
180.0
  0
ARC
  5
43D
330
1F
100
AcDbEntity
  8
0
  6
Continuous
 62
     3
370
     9
100
AcDbCircle
 10
-129.0868742880137
 20
-50.87840357377198
 30
0.0
 40
2.000000025774982
100
AcDbArc
 50
270.0
 51
0.0
  0
ARC
  5
43E
330
1F
100
AcDbEntity
  8
0
  6
Continuous
 62
     3
370
     9
100
AcDbCircle
 10
-217.0868676896185
 20
-50.87840357377198
 30
0.0
 40
2.000000025774982
100
AcDbArc
 50
180.0
 51
270.0
  0
ARC
  5
43F
330
1F
100
AcDbEntity
  8
0
  6
Continuous
 62
     3
370
     9
100
AcDbCircle
 10
-217.0868676896185
 20
-40.87837058179562
 30
0.0
 40
2.000000025774982
100
AcDbArc
 50
90.0
 51
180.0
  0
ARC
  5
440
330
1F
100
AcDbEntity
  8
0
  6
Continuous
 62
     3
370
     9
100
AcDbCircle
 10
-129.0868742880137
 20
-40.87837058179562
 30
0.0
 40
2.000000025774982
100
AcDbArc
 50
7.016464233398438
 51
89.99998474121092
  0
ARC
  5
441
330
1F
100
AcDbEntity
  8
0
  6
Continuous
 62
     3
370
     9
100
AcDbCircle
 10
-129.0868742880137
 20
-40.87837058179562
 30
0.0
 40
1.000000012887491
100
AcDbArc
 50
7.016464233398438
 51
90.0
  0
ARC
  5
442
330
1F
100
AcDbEntity
  8
0
  6
Continuous
 62
     3
370
     9
100
AcDbCircle
 10
-217.0868676896185
 20
-40.87837058179562
 30
0.0
 40
1.000000012887491
100
AcDbArc
 50
90.0
 51
180.0
  0
ARC
  5
443
330
1F
100
AcDbEntity
  8
0
  6
Continuous
 62
     3
370
     9
100
AcDbCircle
 10
-217.0868676896185
 20
-50.87840357377198
 30
0.0
 40
1.000000012887491
100
AcDbArc
 50
180.0
 51
270.0
  0
ARC
  5
444
330
1F
100
AcDbEntity
  8
0
  6
Continuous
 62
     3
370
     9
100
AcDbCircle
 10
-129.0868742880137
 20
-50.87840357377198
 30
0.0
 40
1.000000012887491
100
AcDbArc
 50
270.0
 51
0.0
  0
ARC
  5
445
330
1F
100
AcDbEntity
  8
0
  6
Continuous
 62
     3
370
     9
100
AcDbCircle
 10
-109.5869336735712
 20
166.0215053683733
 30
0.0
 40
2.500000128874908
100
AcDbArc
 50
7.016464233398438
 51
90.0
  0
ARC
  5
446
330
1F
100
AcDbEntity
  8
0
  6
Continuous
 62
     3
370
     9
100
AcDbCircle
 10
-109.5869336735712
 20
179.0215482579425
 30
0.0
 40
2.500000128874908
100
AcDbArc
 50
270.0
 51
0.0
  0
ARC
  5
447
330
1F
100
AcDbEntity
  8
0
  6
Continuous
 62
     3
370
     9
100
AcDbCircle
 10
-109.5869336735712
 20
136.9215924671908
 30
0.0
 40
2.500000128874908
100
AcDbArc
 50
1.403289794921875
 51
90.0
  0
ARC
  5
448
330
1F
100
AcDbEntity
  8
0
  6
Continuous
 62
     3
370
     9
100
AcDbCircle
 10
-109.5869336735712
 20
149.9215858687956
 30
0.0
 40
2.500000128874908
100
AcDbArc
 50
270.0
 51
0.0
  0
ARC
  5
449
330
1F
100
AcDbEntity
  8
0
  6
Continuous
 62
     3
370
     9
100
AcDbCircle
 10
-109.5869336735712
 20
224.2215291225963
 30
0.0
 40
2.500000128874908
100
AcDbArc
 50
7.016464233398438
 51
90.0
  0
ARC
  5
44A
330
1F
100
AcDbEntity
  8
0
  6
Continuous
 62
     3
370
     9
100
AcDbCircle
 10
-109.5869336735712
 20
237.221522524201
 30
0.0
 40
2.500000128874908
100
AcDbArc
 50
270.0
 51
0.0
  0
ARC
  5
44B
330
1F
100
AcDbEntity
  8
0
  6
Continuous
 62
     3
370
     9
100
AcDbCircle
 10
-109.5869336735712
 20
311.5215647539308
 30
0.0
 40
2.500000128874908
100
AcDbArc
 50
7.016464233398438
 51
90.0
  0
ARC
  5
44C
330
1F
100
AcDbEntity
  8
0
  6
Continuous
 62
     3
370
     9
100
AcDbCircle
 10
-109.5869336735712
 20
324.5215581555354
 30
0.0
 40
2.500000128874908
100
AcDbArc
 50
270.0
 51
0.0
  0
ARC
  5
44D
330
1F
100
AcDbEntity
  8
0
  6
Continuous
 62
     3
370
     9
100
AcDbCircle
 10
-109.5869336735712
 20
253.3216399756368
 30
0.0
 40
2.500000128874908
100
AcDbArc
 50
7.016464233398438
 51
90.0
  0
ARC
  5
44E
330
1F
100
AcDbEntity
  8
0
  6
Continuous
 62
     3
370
     9
100
AcDbCircle
 10
-109.5869336735712
 20
266.3216333772416
 30
0.0
 40
2.500000128874908
100
AcDbArc
 50
270.0
 51
0.0
  0
ARC
  5
44F
330
1F
100
AcDbEntity
  8
0
  6
Continuous
 62
     3
370
     9
100
AcDbCircle
 10
-109.5869336735712
 20
282.4215528768193
 30
0.0
 40
2.500000128874908
100
AcDbArc
 50
7.016464233398438
 51
90.0
  0
ARC
  5
450
330
1F
100
AcDbEntity
  8
0
  6
Continuous
 62
     3
370
     9
100
AcDbCircle
 10
-109.5869336735712
 20
295.421546278424
 30
0.0
 40
2.500000128874908
100
AcDbArc
 50
270.0
 51
0.0
  0
ARC
  5
451
330
1F
100
AcDbEntity
  8
0
  6
Continuous
 62
     3
370
     9
100
AcDbCircle
 10
-109.5869336735712
 20
340.921572672005
 30
0.0
 40
2.500000128874908
100
AcDbArc
 50
7.016464233398438
 51
90.0
  0
ARC
  5
452
330
1F
100
AcDbEntity
  8
0
  6
Continuous
 62
     3
370
     9
100
AcDbCircle
 10
-702.5869600671522
 20
-54.07844382398312
 30
0.0
 40
2.500000128874908
100
AcDbArc
 50
180.0
 51
270.0
  0
ARC
  5
453
330
1F
100
AcDbEntity
  8
0
  6
Continuous
 62
     3
370
     9
100
AcDbCircle
 10
-702.5869600671522
 20
-37.67837981954906
 30
0.0
 40
2.500000128874908
100
AcDbArc
 50
90.0
 51
180.0
  0
ARC
  5
454
330
1F
100
AcDbEntity
  8
0
  6
Continuous
 62
     3
370
     9
100
AcDbCircle
 10
-702.5869600671522
 20
-24.67838641794427
 30
0.0
 40
2.500000128874908
100
AcDbArc
 50
180.0
 51
270.0
  0
ARC
  5
455
330
1F
100
AcDbEntity
  8
0
  6
Continuous
 62
     3
370
     9
100
AcDbCircle
 10
-702.5869600671522
 20
20.5215449587449
 30
0.0
 40
2.500000128874908
100
AcDbArc
 50
90.0
 51
180.0
  0
ARC
  5
456
330
1F
100
AcDbEntity
  8
0
  6
Continuous
 62
     3
370
     9
100
AcDbCircle
 10
-702.5869600671522
 20
33.52148887238511
 30
0.0
 40
2.500000128874908
100
AcDbArc
 50
180.0
 51
270.0
  0
ARC
  5
457
330
1F
100
AcDbEntity
  8
0
  6
Continuous
 62
     3
370
     9
100
AcDbCircle
 10
-702.5869600671522
 20
-8.578417430402084
 30
0.0
 40
2.500000128874908
100
AcDbArc
 50
90.0
 51
180.0
  0
ARC
  5
458
330
1F
100
AcDbEntity
  8
0
  6
Continuous
 62
     3
370
     9
100
AcDbCircle
 10
-702.5869600671522
 20
4.421575971202714
 30
0.0
 40
2.500000128874908
100
AcDbArc
 50
180.0
 51
270.0
  0
ARC
  5
459
330
1F
100
AcDbEntity
  8
0
  6
Continuous
 62
     3
370
     9
100
AcDbCircle
 10
-702.5869600671522
 20
49.62160632382095
 30
0.0
 40
2.500000128874908
100
AcDbArc
 50
90.0
 51
180.0
  0
ARC
  5
45A
330
1F
100
AcDbEntity
  8
0
  6
Continuous
 62
     3
370
     9
100
AcDbCircle
 10
-702.5869600671522
 20
62.62159972542563
 30
0.0
 40
2.500000128874908
100
AcDbArc
 50
180.0
 51
270.0
  0
ARC
  5
45B
330
1F
100
AcDbEntity
  8
0
  6
Continuous
 62
     3
370
     9
100
AcDbCircle
 10
-702.5869600671522
 20
78.72156871296792
 30
0.0
 40
2.500000128874908
100
AcDbArc
 50
90.0
 51
180.0
  0
ARC
  5
45C
330
1F
100
AcDbEntity
  8
0
  6
Continuous
 62
     3
370
     9
100
AcDbCircle
 10
-702.5869600671522
 20
91.7215621145726
 30
0.0
 40
2.500000128874908
100
AcDbArc
 50
180.0
 51
270.0
  0
ARC
  5
45D
330
1F
100
AcDbEntity
  8
0
  6
Continuous
 62
     3
370
     9
100
AcDbCircle
 10
-702.5869600671522
 20
107.8215805900794
 30
0.0
 40
2.500000128874908
100
AcDbArc
 50
90.0
 51
180.0
  0
ARC
  5
45E
330
1F
100
AcDbEntity
  8
0
  6
Continuous
 62
     3
370
     9
100
AcDbCircle
 10
-702.5869600671522
 20
120.8215739916841
 30
0.0
 40
2.500000128874908
100
AcDbArc
 50
180.0
 51
270.0
  0
ARC
  5
45F
330
1F
100
AcDbEntity
  8
0
  6
Continuous
 62
     3
370
     9
100
AcDbCircle
 10
-702.5869600671522
 20
136.9215924671908
 30
0.0
 40
2.500000128874908
100
AcDbArc
 50
90.0
 51
180.0
  0
ARC
  5
460
330
1F
100
AcDbEntity
  8
0
  6
Continuous
 62
     3
370
     9
100
AcDbCircle
 10
-702.5869600671522
 20
149.9215858687956
 30
0.0
 40
2.500000128874908
100
AcDbArc
 50
180.0
 51
270.0
  0
ARC
  5
461
330
1F
100
AcDbEntity
  8
0
  6
Continuous
 62
     3
370
     9
100
AcDbCircle
 10
-702.5869600671522
 20
166.0215053683733
 30
0.0
 40
2.500000128874908
100
AcDbArc
 50
90.0
 51
180.0
  0
ARC
  5
462
330
1F
100
AcDbEntity
  8
0
  6
Continuous
 62
     3
370
     9
100
AcDbCircle
 10
-702.5869600671522
 20
179.0215482579425
 30
0.0
 40
2.500000128874908
100
AcDbArc
 50
180.0
 51
270.0
  0
ARC
  5
463
330
1F
100
AcDbEntity
  8
0
  6
Continuous
 62
     3
370
     9
100
AcDbCircle
 10
-702.5869600671522
 20
224.2215291225963
 30
0.0
 40
2.500000128874908
100
AcDbArc
 50
90.0
 51
180.0
  0
ARC
  5
464
330
1F
100
AcDbEntity
  8
0
  6
Continuous
 62
     3
370
     9
100
AcDbCircle
 10
-702.5869600671522
 20
237.221522524201
 30
0.0
 40
2.500000128874908
100
AcDbArc
 50
180.0
 51
270.0
  0
ARC
  5
465
330
1F
100
AcDbEntity
  8
0
  6
Continuous
 62
     3
370
     9
100
AcDbCircle
 10
-702.5869600671522
 20
195.1215667334493
 30
0.0
 40
2.500000128874908
100
AcDbArc
 50
90.0
 51
180.0
  0
ARC
  5
466
330
1F
100
AcDbEntity
  8
0
  6
Continuous
 62
     3
370
     9
100
AcDbCircle
 10
-702.5869600671522
 20
208.1216096230185
 30
0.0
 40
2.500000128874908
100
AcDbArc
 50
180.0
 51
270.0
  0
ARC
  5
467
330
1F
100
AcDbEntity
  8
0
  6
Continuous
 62
     3
370
     9
100
AcDbCircle
 10
-702.5869600671522
 20
253.3216399756368
 30
0.0
 40
2.500000128874908
100
AcDbArc
 50
90.0
 51
180.0
  0
ARC
  5
468
330
1F
100
AcDbEntity
  8
0
  6
Continuous
 62
     3
370
     9
100
AcDbCircle
 10
-702.5869600671522
 20
266.3216333772416
 30
0.0
 40
2.500000128874908
100
AcDbArc
 50
180.0
 51
270.0
  0
ARC
  5
469
330
1F
100
AcDbEntity
  8
0
  6
Continuous
 62
     3
370
     9
100
AcDbCircle
 10
-702.5869600671522
 20
282.4215528768193
 30
0.0
 40
2.500000128874908
100
AcDbArc
 50
90.0
 51
180.0
  0
ARC
  5
46A
330
1F
100
AcDbEntity
  8
0
  6
Continuous
 62
     3
370
     9
100
AcDbCircle
 10
-702.5869600671522
 20
295.421546278424
 30
0.0
 40
2.500000128874908
100
AcDbArc
 50
180.0
 51
270.0
  0
ARC
  5
46B
330
1F
100
AcDbEntity
  8
0
  6
Continuous
 62
     3
370
     9
100
AcDbCircle
 10
-702.5869600671522
 20
311.5215647539308
 30
0.0
 40
2.500000128874908
100
AcDbArc
 50
90.0
 51
180.0
  0
ARC
  5
46C
330
1F
100
AcDbEntity
  8
0
  6
Continuous
 62
     3
370
     9
100
AcDbCircle
 10
-702.5869600671522
 20
324.5215581555354
 30
0.0
 40
2.500000128874908
100
AcDbArc
 50
180.0
 51
270.0
  0
ARC
  5
46D
330
1F
100
AcDbEntity
  8
0
  6
Continuous
 62
     3
370
     9
100
AcDbCircle
 10
-702.5869600671522
 20
340.921572672005
 30
0.0
 40
2.500000128874908
100
AcDbArc
 50
90.0
 51
180.0
  0
ARC
  5
46E
330
1F
100
AcDbEntity
  8
0-1
  6
JWW_DASHED1
 62
     2
370
     9
100
AcDbCircle
 10
-456.0867159265273
 20
325.4217442302821
 30
0.0
 40
8.000000103099927
100
AcDbArc
 50
180.0
 51
0.0
  0
ARC
  5
46F
330
1F
100
AcDbEntity
  8
0-1
  6
JWW_DASHED1
 62
     2
370
     9
100
AcDbCircle
 10
43.91325108149637
 20
325.4217442302821
 30
0.0
 40
8.000000103099927
100
AcDbArc
 50
180.0
 51
0.0
  0
ARC
  5
470
330
1F
100
AcDbEntity
  8
0-1
  6
JWW_DASHED1
 62
     2
370
     9
100
AcDbCircle
 10
-456.0867159265273
 20
-38.57856589429562
 30
0.0
 40
8.000000103099927
100
AcDbArc
 50
0.0
 51
180.0
  0
ARC
  5
471
330
1F
100
AcDbEntity
  8
0-1
  6
JWW_DASHED1
 62
     2
370
     9
100
AcDbCircle
 10
43.91325108149637
 20
-38.57856589429562
 30
0.0
 40
8.000000103099927
100
AcDbArc
 50
0.0
 51
180.0
  0
TEXT
  5
472
330
1F
100
AcDbEntity
  8
0-F
  6
Continuous
 62
     2
370
     9
100
AcDbText
 10
-416.5867159265273
 20
-119.3223448480541
 30
0.0
 40
12.192
  1
598
 41
1.083333333333333
  7
ＭＳ ゴシック
100
AcDbText
  0
TEXT
  5
473
330
1F
100
AcDbEntity
  8
0-F
  6
Continuous
 62
     2
370
     9
100
AcDbText
 10
-121.8335338504082
 20
-119.3223448480541
 30
0.0
 40
12.192
  1
2
  7
ＭＳ ゴシック
100
AcDbText
  0
TEXT
  5
474
330
1F
100
AcDbEntity
  8
0-F
  6
Continuous
 62
     2
370
     9
100
AcDbText
 10
-1.086557565040764
 20
-119.3223448480541
 30
0.0
 40
12.192
  1
598
 41
1.083333333333333
  7
ＭＳ ゴシック
100
AcDbText
  0
TEXT
  5
475
330
1F
100
AcDbEntity
  8
0-F
  6
Continuous
 62
     2
370
     9
100
AcDbText
 10
305.6032894049761
 20
-100.0930526711115
 30
0.0
 40
12.192
  1
3.2
 50
90.0
 41
1.083333333333333
  7
ＭＳ ゴシック
100
AcDbText
  0
TEXT
  5
476
330
1F
100
AcDbEntity
  8
0-F
  6
Continuous
 62
     2
370
     9
100
AcDbText
 10
305.6032894049761
 20
-44.97043799100172
 30
0.0
 40
12.192
  1
3.8
 50
90.0
 41
1.083333333333333
  7
ＭＳ ゴシック
100
AcDbText
  0
TEXT
  5
477
330
1F
100
AcDbEntity
  8
0-F
  6
Continuous
 62
     2
370
     9
100
AcDbText
 10
305.6032894049761
 20
308.6281948214983
 30
0.0
 40
12.192
  1
3.8
 50
90.0
 41
1.083333333333338
  7
ＭＳ ゴシック
100
AcDbText
  0
TEXT
  5
478
330
1F
100
AcDbEntity
  8
0-F
  6
Continuous
 62
     2
370
     9
100
AcDbText
 10
305.6032894049761
 20
358.1230876635591
 30
0.0
 40
12.192
  1
3.2
 50
90.0
 41
1.083333333333333
  7
ＭＳ ゴシック
100
AcDbText
  0
TEXT
  5
479
330
1F
100
AcDbEntity
  8
0-F
  6
Continuous
 62
     2
370
     9
100
AcDbText
 10
582.359287346277
 20
-43.57833165126354
 30
0.0
 40
12.192
  1
57
 50
90.0
 41
1.0625
  7
ＭＳ ゴシック
100
AcDbText
  0
TEXT
  5
47A
330
1F
100
AcDbEntity
  8
0-F
  6
Continuous
 62
     2
370
     9
100
AcDbText
 10
582.359287346277
 20
313.421608963179
 30
0.0
 40
12.192
  1
57
 50
90.0
 41
1.062500000000007
  7
ＭＳ ゴシック
100
AcDbText
  0
TEXT
  5
47B
330
1F
100
AcDbEntity
  8
0-F
  6
Continuous
 62
     2
370
     9
100
AcDbText
 10
386.3592795073832
 20
414.6776848447247
 30
0.0
 40
12.192
  1
50
 41
1.0625
  7
ＭＳ ゴシック
100
AcDbText
  0
TEXT
  5
47C
330
1F
100
AcDbEntity
  8
0-F
  6
Continuous
 62
     2
370
     9
100
AcDbText
 10
378.959225400542
 20
454.677717836701
 30
0.0
 40
12.192
  1
53.2
 41
1.09375
  7
ＭＳ ゴシック
100
AcDbText
  0
TEXT
  5
47D
330
1F
100
AcDbEntity
  8
0-F
  6
Continuous
 62
     2
370
     9
100
AcDbText
 10
411.8592300194186
 20
494.6777508286774
 30
0.0
 40
12.192
  1
110
 41
1.083333333333333
  7
ＭＳ ゴシック
100
AcDbText
  0
TEXT
  5
47E
330
1F
100
AcDbEntity
  8
0-E
  6
Continuous
 62
     7
370
     9
100
AcDbText
 10
218.7408515090724
 20
-151.3349070577247
 30
0.0
 40
9.144
  1
受枠：ＬＨ－５０
 41
1.145833333333333
  7
ＭＳ ゴシック
100
AcDbText
  0
TEXT
  5
47F
330
1F
100
AcDbEntity
  8
0-E
  6
Continuous
 62
     7
370
     9
100
AcDbText
 10
203.3492004586079
 20
-173.0255313978851
 30
0.0
 40
9.144
  1
ＳＰＨＣ，樹脂系塗装
 41
1.15
  7
ＭＳ ゴシック
100
AcDbText
  0
TEXT
  5
480
330
1F
100
AcDbEntity
  8
0-F
  6
Continuous
 62
     2
370
     9
100
AcDbText
 10
341.6126578857616
 20
45.82755419649823
 30
0.0
 40
12.192
  1
10
 41
1.0625
  7
ＭＳ ゴシック
100
AcDbText
  0
TEXT
  5
481
330
1F
100
AcDbEntity
  8
0-F
  6
Continuous
 62
     2
370
     9
100
AcDbText
 10
-749.3429336735711
 20
134.3497408914941
 30
0.0
 40
12.192
  1
8
 50
90.0
  7
ＭＳ ゴシック
100
AcDbText
  0
TEXT
  5
482
330
1F
100
AcDbEntity
  8
0
  6
Continuous
 62
     6
370
     5
100
AcDbText
 10
-206.0868709888161
 20
-49.46845306173657
 30
0.0
 40
7.620000000000001
  1
ＫＡＮＥＳＯ
 41
1.1
  7
ＭＳ ゴシック
100
AcDbText
  0
TEXT
  5
483
330
1F
100
AcDbEntity
  8
0-F
  6
Continuous
 62
     2
370
     9
100
AcDbText
 10
-749.3429336735711
 20
82.2715466083437
 30
0.0
 40
12.192
  1
21.1
 50
90.0
 41
1.09375
  7
ＭＳ ゴシック
100
AcDbText
  0
TEXT
  5
484
330
1F
100
AcDbEntity
  8
0-F
  6
Continuous
 62
     2
370
     9
100
AcDbText
 10
265.6032564129998
 20
130.4216881439222
 30
0.0
 40
12.192
  1
414
 50
90.0
 41
1.083333333333333
  7
ＭＳ ゴシック
100
AcDbText
  0
TEXT
  5
485
330
1F
100
AcDbEntity
  8
0-F
  6
Continuous
 62
     2
370
     9
100
AcDbText
 10
305.6032894049761
 20
130.4216386559578
 30
0.0
 40
12.192
  1
400
 50
90.0
 41
1.083333333333333
  7
ＭＳ ゴシック
100
AcDbText
  0
TEXT
  5
486
330
1F
100
AcDbEntity
  8
0-F
  6
Continuous
 62
     2
370
     9
100
AcDbText
 10
582.359287346277
 20
130.4215891679932
 30
0.0
 40
12.192
  1
300
 50
90.0
 41
1.083333333333333
  7
ＭＳ ゴシック
100
AcDbText
  0
TEXT
  5
487
330
1F
100
AcDbEntity
  8
0-F
  6
Continuous
 62
     2
370
     9
100
AcDbText
 10
337.0757035730504
 20
-291.9820919975473
 30
0.0
 40
12.192
  1
仕様
 41
1.0625
  7
ＭＳ ゴシック
100
AcDbText
  0
TEXT
  5
488
330
1F
100
AcDbEntity
  8
0-F
  6
Continuous
 62
     2
370
     9
100
AcDbText
 10
337.0757233682363
 20
-363.9821439599101
 30
0.0
 40
12.192
  1
接触圧子：φ１７０ｍｍ
 41
1.113636363636364
  7
ＭＳ ゴシック
100
AcDbText
  0
TEXT
  5
489
330
1F
100
AcDbEntity
  8
0-F
  6
Continuous
 62
     2
370
     9
100
AcDbText
 10
337.0756837778646
 20
-387.9821241647243
 30
0.0
 40
12.192
  1
蓋質量：２０ｋｇ
 41
1.109375000000002
  7
ＭＳ ゴシック
100
AcDbText
  0
TEXT
  5
48A
330
1F
100
AcDbEntity
  8
0
  6
Continuous
 62
     6
370
     5
100
AcDbText
 10
-571.7869073597103
 20
336.3113839579023
 30
0.0
 40
7.620000000000001
  1
ＧＲＭ－６－４００
 50
179.9998291896634
 41
1.106666666666667
  7
ＭＳ ゴシック
100
AcDbText
  0
TEXT
  5
48B
330
1F
100
AcDbEntity
  8
0-F
  6
Continuous
 62
     2
370
     9
100
AcDbText
 10
337.0756837778646
 20
-315.9820722023616
 30
0.0
 40
12.192
  1
適応荷重：Ｔ－６
 41
1.109375000000002
  7
ＭＳ ゴシック
100
AcDbText
  0
TEXT
  5
48C
330
1F
100
AcDbEntity
  8
0-F
  6
Continuous
 62
     2
370
     9
100
AcDbText
 10
337.0756738802718
 20
-339.9821513831048
 30
0.0
 40
12.192
  1
破壊荷重：６０ｋＮ（６，１２３ｋｇｆ）以上
 41
1.119047619047619
  7
ＭＳ ゴシック
100
AcDbText
  0
TEXT
  5
48D
330
1F
100
AcDbEntity
  8
0-4
  6
Continuous
 62
     2
370
     9
100
AcDbText
 10
-597.3366936569432
 20
407.6777112383057
 30
0.0
 40
12.192
  1
250
 41
1.083333333333333
  7
ＭＳ ゴシック
100
AcDbText
  0
TEXT
  5
48E
330
1F
100
AcDbEntity
  8
0-4
  6
Continuous
 62
     2
370
     9
100
AcDbText
 10
-222.3367555168989
 20
407.6777112383057
 30
0.0
 40
12.192
  1
500
 41
1.083333333333333
  7
ＭＳ ゴシック
100
AcDbText
  0
TEXT
  5
48F
330
1F
100
AcDbEntity
  8
0-4
  6
Continuous
 62
     2
370
     9
100
AcDbText
 10
91.41337645100653
 20
407.6777112383057
 30
0.0
 40
12.192
  1
500
 41
1.083333333333333
  7
ＭＳ ゴシック
100
AcDbText
  0
TEXT
  5
490
330
1F
100
AcDbEntity
  8
0-4
  6
Continuous
 62
     2
370
     9
100
AcDbText
 10
80.16336655341361
 20
447.6777442302821
 30
0.0
 40
12.192
  1
2000
 41
1.09375
  7
ＭＳ ゴシック
100
AcDbText
  0
TEXT
  5
491
330
1F
100
AcDbEntity
  8
0-E
  6
Continuous
 62
     7
370
     9
100
AcDbText
 10
525.3755973388867
 20
-115.793789157598
 30
0.0
 40
9.144
  1
アンカー用切欠：＠５００
 41
1.152777777777778
  7
ＭＳ ゴシック
100
AcDbText
  0
LWPOLYLINE
  5
492
330
1F
100
AcDbEntity
  8
0-F
  6
Continuous
 62
     7
370
     9
100
AcDbPolyline
 90
        4
 70
     1
 43
0.8
 10
310.2592960033714
 20
-60.37831119623823
 42
0.4142135623731
 10
309.8592960033715
 20
-59.97831119623823
 42
0.4142135623731
 10
309.4592960033715
 20
-60.37831119623823
 42
0.4142135623731
 10
309.8592960033715
 20
-60.77831119623823
 42
0.4142135623731
  0
LWPOLYLINE
  5
493
330
1F
100
AcDbEntity
  8
0-F
  6
Continuous
 62
     7
370
     9
100
AcDbPolyline
 90
        4
 70
     1
 43
0.8
 10
310.2592960033714
 20
347.2216874840827
 42
0.4142135623731
 10
309.8592960033715
 20
347.6216874840827
 42
0.4142135623731
 10
309.4592960033715
 20
347.2216874840827
 42
0.4142135623731
 10
309.8592960033715
 20
346.8216874840828
 42
0.4142135623731
  0
LWPOLYLINE
  5
494
330
1F
100
AcDbEntity
  8
0-F
  6
Continuous
 62
     7
370
     9
100
AcDbPolyline
 90
        4
 70
     1
 43
0.8
 10
-744.686927075176
 20
110.3216135820557
 42
0.4142135623731
 10
-745.0869270751759
 20
110.7216135820557
 42
0.4142135623731
 10
-745.4869270751759
 20
110.3216135820557
 42
0.4142135623731
 10
-745.0869270751759
 20
109.9216135820557
 42
0.4142135623731
  0
LINE
  5
495
330
1F
100
AcDbEntity
  8
0-F
  6
Continuous
 62
     7
370
     9
100
AcDbLine
 10
480.3592894049761
 20
137.8715835387373
 30
0.0
 11
481.4196185329321
 21
149.8246590507728
 31
0.0
  0
LINE
  5
496
330
1F
100
AcDbEntity
  8
0-F
  6
Continuous
 62
     7
370
     9
100
AcDbLine
 10
480.3592894049761
 20
137.8715835387373
 30
0.0
 11
484.4771829332701
 21
149.1429128514484
 31
0.0
  0
LINE
  5
497
330
1F
100
AcDbEntity
  8
0-E
  6
Continuous
 62
     7
370
     9
100
AcDbLine
 10
537.7777372274961
 20
395.390712220168
 30
0.0
 11
480.3592894049761
 21
137.8715835387373
 31
0.0
  0
LINE
  5
498
330
1F
100
AcDbEntity
  8
0-E
  6
Continuous
 62
     7
370
     9
100
AcDbLine
 10
537.7777372274961
 20
395.390712220168
 30
0.0
 11
739.9547108088583
 21
395.390712220168
 31
0.0
  0
TEXT
  5
499
330
1F
100
AcDbEntity
  8
0-E
  6
Continuous
 62
     7
370
     9
100
AcDbText
 10
195.6023528868326
 20
496.229135521954
 30
0.0
 40
9.144
  1
蓋：ＦＣＤ５００
 41
1.145833333333333
  7
ＭＳ ゴシック
100
AcDbText
  0
TEXT
  5
49A
330
1F
100
AcDbEntity
  8
0-E
  6
Continuous
 62
     7
370
     9
100
AcDbText
 10
221.3420304406861
 20
476.0850400450253
 30
0.0
 40
9.144
  1
樹脂系塗装
 41
1.133333333333333
  7
ＭＳ ゴシック
100
AcDbText
  0
LINE
  5
49B
330
1F
100
AcDbEntity
  8
0-E
  6
Continuous
 62
     7
370
     9
100
AcDbLine
 10
308.8563729142667
 20
490.4217442302822
 30
0.0
 11
190.006770809908
 21
490.4217442302822
 31
0.0
  0
TEXT
  5
49C
330
1F
100
AcDbEntity
  8
0-4
  6
Continuous
 62
     7
370
     9
100
AcDbText
 10
-143.3833591240007
 20
-547.732960098414
 30
0.0
 40
9.144
  1
鋳鉄製みぞ蓋　ＧＲＭ－６－４００＋ＬＨ－５０
 41
1.159090909090909
  7
ＭＳ ゴシック
100
AcDbText
  0
TEXT
  5
49D
330
1F
100
AcDbEntity
  8
0-E
  6
Continuous
 62
     7
370
     9
100
AcDbText
 10
543.4302148033613
 20
400.4596699248457
 30
0.0
 40
9.144
  1
鎖：φ６×３００（両シャックル付）
  7
ＭＳ ゴシック
100
AcDbText
  0
TEXT
  5
49E
330
1F
100
AcDbEntity
  8
0-E
  6
Continuous
 62
     7
370
     9
100
AcDbText
 10
557.4130690689595
 20
380.3910869872389
 30
0.0
 40
9.144
  1
ＳＷＲＭ，溶融亜鉛めっき
 41
1.152777777777778
  7
ＭＳ ゴシック
100
AcDbText
  0
TEXT
  5
49F
330
1F
100
AcDbEntity
  8
F-5
  6
Continuous
 62
     7
370
     9
100
AcDbText
 10
-335.06215895236
 20
-528.8182589318166
 30
0.0
 40
9.144
  1
インターロッキングブロック用　細目タイプ［スリット幅８mm］　側溝用
 41
1.161616161616162
  7
ＭＳ ゴシック
100
AcDbText
  0
ENDSEC
  0
SECTION
  2
OBJECTS
  0
DICTIONARY
  5
C
330
0
100
AcDbDictionary
281
     1
  3
ACAD_DETAILVIEWSTYLE
350
4A7
  3
ACAD_GROUP
350
D
  3
ACAD_LAYOUT
350
1A
  3
ACAD_MATERIAL
350
43
  3
ACAD_MLEADERSTYLE
350
6B
  3
ACAD_MLINESTYLE
350
17
  3
ACAD_PLOTSETTINGS
350
19
  3
ACAD_PLOTSTYLENAME
350
E
  3
ACAD_SCALELIST
350
47
  3
ACAD_SECTIONVIEWSTYLE
350
4A8
  3
ACAD_TABLESTYLE
350
69
  3
ACAD_VISUALSTYLE
350
2A
  3
ACDB_RECOMPOSE_DATA
350
4A4
  3
AcDbVariableDictionary
350
4A0
  0
SUN
  5
6D
330
29
100
AcDbSun
 90
        1
290
     0
 63
     7
421
 16777215
 40
1.0
291
     1
 91
  2455826
 92
 54000000
292
     0
 70
     2
 71
   256
280
     1
  0
DICTIONARY
  5
4A7
102
{ACAD_REACTORS
330
C
102
}
330
C
100
AcDbDictionary
281
     1
  0
DICTIONARY
  5
D
102
{ACAD_REACTORS
330
C
102
}
330
C
100
AcDbDictionary
281
     1
  0
DICTIONARY
  5
1A
102
{ACAD_REACTORS
330
C
102
}
330
C
100
AcDbDictionary
281
     1
  3
Layout1
350
1E
  3
Layout2
350
26
  3
Model
350
22
  0
DICTIONARY
  5
43
102
{ACAD_REACTORS
330
C
102
}
330
C
100
AcDbDictionary
281
     1
  3
ByBlock
350
45
  3
ByLayer
350
44
  3
Global
350
46
  0
DICTIONARY
  5
6B
102
{ACAD_REACTORS
330
C
102
}
330
C
100
AcDbDictionary
281
     1
  3
Standard
350
6C
  0
DICTIONARY
  5
17
102
{ACAD_REACTORS
330
C
102
}
330
C
100
AcDbDictionary
281
     1
  3
Standard
350
18
  0
DICTIONARY
  5
19
102
{ACAD_REACTORS
330
C
102
}
330
C
100
AcDbDictionary
281
     1
  0
ACDBDICTIONARYWDFLT
  5
E
102
{ACAD_REACTORS
330
C
102
}
330
C
100
AcDbDictionary
281
     1
  3
Normal
350
F
100
AcDbDictionaryWithDefault
340
F
  0
DICTIONARY
  5
47
102
{ACAD_REACTORS
330
C
102
}
330
C
100
AcDbDictionary
281
     1
  3
A0
350
48
  3
A1
350
49
  3
A2
350
4A
  3
A3
350
4B
  3
A4
350
4C
  3
A5
350
4D
  3
A6
350
4E
  3
A7
350
4F
  3
A8
350
50
  3
A9
350
51
  3
B0
350
52
  3
B1
350
53
  3
B2
350
54
  3
B3
350
55
  3
B4
350
56
  3
B5
350
57
  3
B6
350
58
  3
B7
350
59
  3
B8
350
5A
  3
B9
350
5B
  3
C0
350
5C
  3
C1
350
5D
  3
C2
350
5E
  3
C3
350
5F
  3
C4
350
60
  3
C5
350
61
  3
C6
350
62
  3
C7
350
63
  3
C8
350
64
  3
C9
350
65
  3
D0
350
66
  3
D1
350
67
  3
D2
350
68
  0
DICTIONARY
  5
4A8
102
{ACAD_REACTORS
330
C
102
}
330
C
100
AcDbDictionary
281
     1
  0
DICTIONARY
  5
69
102
{ACAD_REACTORS
330
C
102
}
330
C
100
AcDbDictionary
281
     1
  3
Standard
350
6A
  0
DICTIONARY
  5
2A
102
{ACAD_REACTORS
330
C
102
}
330
C
100
AcDbDictionary
281
     1
  3
2dWireframe
350
2F
  3
Basic
350
32
  3
Brighten
350
36
  3
ColorChange
350
3A
  3
Conceptual
350
34
  3
Dim
350
35
  3
EdgeColorOff
350
3D
  3
Facepattern
350
39
  3
Flat
350
2B
  3
FlatWithEdges
350
2C
  3
Gouraud
350
2D
  3
GouraudWithEdges
350
2E
  3
Hidden
350
31
  3
JitterOff
350
3B
  3
Linepattern
350
38
  3
OverhangOff
350
3C
  3
Realistic
350
33
  3
Shaded
350
42
  3
Shaded with edges
350
41
  3
Shades of Gray
350
3E
  3
Sketchy
350
3F
  3
Thicken
350
37
  3
Wireframe
350
30
  3
X-Ray
350
40
  0
XRECORD
  5
4A4
102
{ACAD_REACTORS
330
C
102
}
330
C
100
AcDbXrecord
280
     1
 90
        1
330
6A
  0
DICTIONARY
  5
4A0
102
{ACAD_REACTORS
330
C
102
}
330
C
100
AcDbDictionary
281
     1
  3
CANNOSCALE
350
4A1
  3
CENTEREXE
350
4A9
  3
CENTERLTYPEFILE
350
4AA
  3
CMLEADERSTYLE
350
4A6
  3
CTABLESTYLE
350
4A5
  0
LAYOUT
  5
1E
102
{ACAD_REACTORS
330
1A
102
}
330
1A
100
AcDbPlotSettings
  1

  2
none_device
  4

  6

 40
0.0
 41
0.0
 42
0.0
 43
0.0
 44
0.0
 45
0.0
 46
0.0
 47
0.0
 48
0.0
 49
0.0
140
0.0
141
0.0
142
1.0
143
1.0
 70
   688
 72
     1
 73
     0
 74
     5
  7

 75
    16
 76
     0
 77
     5
 78
   300
147
1.0
148
0.0
149
0.0
100
AcDbLayout
  1
Layout1
 70
     1
 71
     1
 10
0.0
 20
0.0
 11
420.0
 21
297.0
 12
0.0
 22
0.0
 32
0.0
 14
1.000000000000000E+20
 24
1.000000000000000E+20
 34
1.000000000000000E+20
 15
-1.000000000000000E+20
 25
-1.000000000000000E+20
 35
-1.000000000000000E+20
146
0.0
 13
0.0
 23
0.0
 33
0.0
 16
1.0
 26
0.0
 36
0.0
 17
0.0
 27
1.0
 37
0.0
 76
     0
330
1B
  0
LAYOUT
  5
26
102
{ACAD_REACTORS
330
1A
102
}
330
1A
100
AcDbPlotSettings
  1

  2
none_device
  4

  6

 40
0.0
 41
0.0
 42
0.0
 43
0.0
 44
0.0
 45
0.0
 46
0.0
 47
0.0
 48
0.0
 49
0.0
140
0.0
141
0.0
142
1.0
143
1.0
 70
   688
 72
     1
 73
     0
 74
     5
  7

 75
    16
 76
     0
 77
     5
 78
   300
147
1.0
148
0.0
149
0.0
100
AcDbLayout
  1
Layout2
 70
     1
 71
     2
 10
0.0
 20
0.0
 11
0.0
 21
0.0
 12
0.0
 22
0.0
 32
0.0
 14
0.0
 24
0.0
 34
0.0
 15
0.0
 25
0.0
 35
0.0
146
0.0
 13
0.0
 23
0.0
 33
0.0
 16
1.0
 26
0.0
 36
0.0
 17
0.0
 27
1.0
 37
0.0
 76
     0
330
23
  0
LAYOUT
  5
22
102
{ACAD_REACTORS
330
1A
102
}
330
1A
100
AcDbPlotSettings
  1

  2
none_device
  4
Letter_(8.50_x_11.00_Inches)
  6

 40
6.35
 41
6.35
 42
6.35000508
 43
6.35000508
 44
215.9
 45
279.4
 46
0.0
 47
0.0
 48
0.0
 49
0.0
140
0.0
141
0.0
142
1.0
143
1.0
 70
  1712
 72
     1
 73
     0
 74
     0
  7

 75
     0
 76
     0
 77
     5
 78
   300
147
1.0
148
0.0
149
0.0
100
AcDbLayout
  1
Model
 70
     1
 71
     0
 10
-840.0
 20
-594.0
 11
840.0
 21
594.0
 12
0.0
 22
0.0
 32
0.0
 14
-840.0
 24
-594.0
 34
0.0
 15
840.0
 25
594.0
 35
0.0
146
0.0
 13
0.0
 23
0.0
 33
0.0
 16
1.0
 26
0.0
 36
0.0
 17
0.0
 27
1.0
 37
0.0
 76
     0
330
1F
331
29
  0
MATERIAL
  5
45
102
{ACAD_REACTORS
330
43
102
}
330
43
100
AcDbMaterial
  1
ByBlock
 72
     1
 94
      127
  0
MATERIAL
  5
44
102
{ACAD_REACTORS
330
43
102
}
330
43
100
AcDbMaterial
  1
ByLayer
 72
     1
 94
      127
  0
MATERIAL
  5
46
102
{ACAD_REACTORS
330
43
102
}
330
43
100
AcDbMaterial
  1
Global
 72
     1
 94
      127
  0
MLEADERSTYLE
  5
6C
102
{ACAD_REACTORS
330
6B
102
}
330
6B
100
AcDbMLeaderStyle
179
     2
170
     2
171
     1
172
     0
 90
        2
 40
0.0
 41
0.0
173
     1
 91
-1056964608
340
14
 92
       -2
290
     1
 42
2.0
291
     1
 43
8.0
  3
Standard
341
0
 44
4.0
300

342
11
174
     1
178
     6
175
     1
176
     0
 93
-1056964608
 45
4.0
292
     0
297
     0
 46
4.0
343
0
 94
-1056964608
 47
1.0
 49
1.0
140
1.0
293
     1
141
0.0
294
     1
177
     0
142
1.0
295
     0
296
     0
143
3.75
271
     0
272
     9
273
     9
298
     0
  0
MLINESTYLE
  5
18
102
{ACAD_REACTORS
330
17
102
}
330
17
100
AcDbMlineStyle
  2
Standard
 70
     0
  3

 62
   256
 51
90.0
 52
90.0
 71
     2
 49
0.5
 62
   256
  6
BYLAYER
 49
-0.5
 62
   256
  6
BYLAYER
  0
ACDBPLACEHOLDER
  5
F
102
{ACAD_REACTORS
330
E
102
}
330
E
  0
SCALE
  5
48
102
{ACAD_REACTORS
330
47
102
}
330
47
100
AcDbScale
 70
     0
300
1:1
140
1.0
141
1.0
290
     1
  0
SCALE
  5
49
102
{ACAD_REACTORS
330
47
102
}
330
47
100
AcDbScale
 70
     0
300
1:2
140
1.0
141
2.0
290
     0
  0
SCALE
  5
4A
102
{ACAD_REACTORS
330
47
102
}
330
47
100
AcDbScale
 70
     0
300
1:4
140
1.0
141
4.0
290
     0
  0
SCALE
  5
4B
102
{ACAD_REACTORS
330
47
102
}
330
47
100
AcDbScale
 70
     0
300
1:5
140
1.0
141
5.0
290
     0
  0
SCALE
  5
4C
102
{ACAD_REACTORS
330
47
102
}
330
47
100
AcDbScale
 70
     0
300
1:8
140
1.0
141
8.0
290
     0
  0
SCALE
  5
4D
102
{ACAD_REACTORS
330
47
102
}
330
47
100
AcDbScale
 70
     0
300
1:10
140
1.0
141
10.0
290
     0
  0
SCALE
  5
4E
102
{ACAD_REACTORS
330
47
102
}
330
47
100
AcDbScale
 70
     0
300
1:16
140
1.0
141
16.0
290
     0
  0
SCALE
  5
4F
102
{ACAD_REACTORS
330
47
102
}
330
47
100
AcDbScale
 70
     0
300
1:20
140
1.0
141
20.0
290
     0
  0
SCALE
  5
50
102
{ACAD_REACTORS
330
47
102
}
330
47
100
AcDbScale
 70
     0
300
1:30
140
1.0
141
30.0
290
     0
  0
SCALE
  5
51
102
{ACAD_REACTORS
330
47
102
}
330
47
100
AcDbScale
 70
     0
300
1:40
140
1.0
141
40.0
290
     0
  0
SCALE
  5
52
102
{ACAD_REACTORS
330
47
102
}
330
47
100
AcDbScale
 70
     0
300
1:50
140
1.0
141
50.0
290
     0
  0
SCALE
  5
53
102
{ACAD_REACTORS
330
47
102
}
330
47
100
AcDbScale
 70
     0
300
1:100
140
1.0
141
100.0
290
     0
  0
SCALE
  5
54
102
{ACAD_REACTORS
330
47
102
}
330
47
100
AcDbScale
 70
     0
300
2:1
140
2.0
141
1.0
290
     0
  0
SCALE
  5
55
102
{ACAD_REACTORS
330
47
102
}
330
47
100
AcDbScale
 70
     0
300
4:1
140
4.0
141
1.0
290
     0
  0
SCALE
  5
56
102
{ACAD_REACTORS
330
47
102
}
330
47
100
AcDbScale
 70
     0
300
8:1
140
8.0
141
1.0
290
     0
  0
SCALE
  5
57
102
{ACAD_REACTORS
330
47
102
}
330
47
100
AcDbScale
 70
     0
300
10:1
140
10.0
141
1.0
290
     0
  0
SCALE
  5
58
102
{ACAD_REACTORS
330
47
102
}
330
47
100
AcDbScale
 70
     0
300
100:1
140
100.0
141
1.0
290
     0
  0
SCALE
  5
59
102
{ACAD_REACTORS
330
47
102
}
330
47
100
AcDbScale
 70
     0
300
1/128" = 1'-0"
140
0.0078125
141
12.0
290
     0
  0
SCALE
  5
5A
102
{ACAD_REACTORS
330
47
102
}
330
47
100
AcDbScale
 70
     0
300
1/64" = 1'-0"
140
0.015625
141
12.0
290
     0
  0
SCALE
  5
5B
102
{ACAD_REACTORS
330
47
102
}
330
47
100
AcDbScale
 70
     0
300
1/32" = 1'-0"
140
0.03125
141
12.0
290
     0
  0
SCALE
  5
5C
102
{ACAD_REACTORS
330
47
102
}
330
47
100
AcDbScale
 70
     0
300
1/16" = 1'-0"
140
0.0625
141
12.0
290
     0
  0
SCALE
  5
5D
102
{ACAD_REACTORS
330
47
102
}
330
47
100
AcDbScale
 70
     0
300
3/32" = 1'-0"
140
0.09375
141
12.0
290
     0
  0
SCALE
  5
5E
102
{ACAD_REACTORS
330
47
102
}
330
47
100
AcDbScale
 70
     0
300
1/8" = 1'-0"
140
0.125
141
12.0
290
     0
  0
SCALE
  5
5F
102
{ACAD_REACTORS
330
47
102
}
330
47
100
AcDbScale
 70
     0
300
3/16" = 1'-0"
140
0.1875
141
12.0
290
     0
  0
SCALE
  5
60
102
{ACAD_REACTORS
330
47
102
}
330
47
100
AcDbScale
 70
     0
300
1/4" = 1'-0"
140
0.25
141
12.0
290
     0
  0
SCALE
  5
61
102
{ACAD_REACTORS
330
47
102
}
330
47
100
AcDbScale
 70
     0
300
3/8" = 1'-0"
140
0.375
141
12.0
290
     0
  0
SCALE
  5
62
102
{ACAD_REACTORS
330
47
102
}
330
47
100
AcDbScale
 70
     0
300
1/2" = 1'-0"
140
0.5
141
12.0
290
     0
  0
SCALE
  5
63
102
{ACAD_REACTORS
330
47
102
}
330
47
100
AcDbScale
 70
     0
300
3/4" = 1'-0"
140
0.75
141
12.0
290
     0
  0
SCALE
  5
64
102
{ACAD_REACTORS
330
47
102
}
330
47
100
AcDbScale
 70
     0
300
1" = 1'-0"
140
1.0
141
12.0
290
     0
  0
SCALE
  5
65
102
{ACAD_REACTORS
330
47
102
}
330
47
100
AcDbScale
 70
     0
300
1-1/2" = 1'-0"
140
1.5
141
12.0
290
     0
  0
SCALE
  5
66
102
{ACAD_REACTORS
330
47
102
}
330
47
100
AcDbScale
 70
     0
300
3" = 1'-0"
140
3.0
141
12.0
290
     0
  0
SCALE
  5
67
102
{ACAD_REACTORS
330
47
102
}
330
47
100
AcDbScale
 70
     0
300
6" = 1'-0"
140
6.0
141
12.0
290
     0
  0
SCALE
  5
68
102
{ACAD_REACTORS
330
47
102
}
330
47
100
AcDbScale
 70
     0
300
1'-0" = 1'-0"
140
12.0
141
12.0
290
     0
  0
TABLESTYLE
  5
6A
102
{ACAD_REACTORS
330
69
102
}
102
{ACAD_XDICTIONARY
360
4A2
102
}
330
69
100
AcDbTableStyle
  3
Standard
 70
     0
 71
     0
 40
0.06
 41
0.06
280
     0
281
     0
  7
Standard
140
4.5
170
     2
 62
     0
 63
   257
283
     0
 90
        4
 91
        0
  1

274
    -2
284
     1
 64
     0
275
    -2
285
     1
 65
     0
276
    -2
286
     1
 66
     0
277
    -2
287
     1
 67
     0
278
    -2
288
     1
 68
     0
279
    -2
289
     1
 69
     0
  7
Standard
140
6.0
170
     5
 62
     0
 63
   257
283
     0
 90
        4
 91
        0
  1

274
    -2
284
     1
 64
     0
275
    -2
285
     1
 65
     0
276
    -2
286
     1
 66
     0
277
    -2
287
     1
 67
     0
278
    -2
288
     1
 68
     0
279
    -2
289
     1
 69
     0
  7
Standard
140
4.5
170
     5
 62
     0
 63
   257
283
     0
 90
        4
 91
        0
  1

274
    -2
284
     1
 64
     0
275
    -2
285
     1
 65
     0
276
    -2
286
     1
 66
     0
277
    -2
287
     1
 67
     0
278
    -2
288
     1
 68
     0
279
    -2
289
     1
 69
     0
  0
VISUALSTYLE
  5
2F
102
{ACAD_REACTORS
330
2A
102
}
330
2A
100
AcDbVisualStyle
  2
2dWireframe
 70
     4
177
     3
291
     0
 70
    58
 90
        0
176
     1
 90
        2
176
     1
 90
        0
176
     1
 90
        0
176
     1
 40
0.6
176
     1
 40
30.0
176
     1
 62
     7
420
 16777215
176
     1
 90
        1
176
     1
 90
        4
176
     1
 62
     7
176
     1
 62
   257
176
     1
 90
        1
176
     1
 90
        1
176
     1
 40
1.0
176
     1
 90
        0
176
     1
 62
   257
176
     1
 40
1.0
176
     1
 90
        1
176
     1
 90
        6
176
     1
 90
        2
176
     1
 62
     7
176
     1
 90
        5
176
     1
 90
        0
176
     1
 90
        0
176
     1
290
     0
176
     1
 90
        1
176
     1
 40
0.0
176
     1
 90
        0
176
     1
290
     1
176
     1
290
     1
176
     1
290
     0
176
     1
290
     0
176
     1
290
     0
176
     1
290
     0
176
     1
290
     0
176
     1
290
     0
176
     1
290
     0
176
     1
 90
       50
176
     1
 40
0.0
176
     1
 40
1.0
176
     1
 90
        0
176
     1
 62
    18
420
        0
176
     1
 90
       50
176
     1
 90
        3
176
     1
 62
     5
420
      255
176
     1
290
     0
176
     1
 90
       50
176
     1
 90
       50
176
     1
 90
       50
176
     1
290
     0
176
     1
 90
       50
176
     1
 62
   256
176
     0
 40
1.0
176
     0
 90
        2
176
     1
  1
strokes_ogs.tif
176
     1
290
     0
176
     1
 40
1.0
176
     1
 40
1.0
176
     1
  0
VISUALSTYLE
  5
32
102
{ACAD_REACTORS
330
2A
102
}
330
2A
100
AcDbVisualStyle
  2
Basic
 70
     7
177
     3
291
     1
 70
    58
 90
        1
176
     1
 90
        0
176
     1
 90
        1
176
     1
 90
        0
176
     1
 40
0.6
176
     1
 40
30.0
176
     1
 62
     7
420
 16777215
176
     1
 90
        0
176
     1
 90
        4
176
     1
 62
     7
176
     1
 62
   257
176
     1
 90
        1
176
     1
 90
        1
176
     1
 40
1.0
176
     1
 90
        8
176
     1
 62
     7
176
     1
 40
1.0
176
     1
 90
        1
176
     1
 90
        6
176
     1
 90
        2
176
     1
 62
     7
176
     1
 90
        5
176
     1
 90
        0
176
     1
 90
        0
176
     1
290
     0
176
     1
 90
        1
176
     1
 40
0.0
176
     1
 90
        0
176
     1
290
     0
176
     1
290
     1
176
     1
290
     1
176
     1
290
     0
176
     1
290
     0
176
     1
290
     0
176
     1
290
     0
176
     1
290
     0
176
     1
290
     0
176
     1
 90
       50
176
     1
 40
0.0
176
     1
 40
1.0
176
     1
 90
        0
176
     1
 62
    18
420
        0
176
     1
 90
       50
176
     1
 90
        3
176
     1
 62
     5
420
      255
176
     1
290
     0
176
     1
 90
       50
176
     1
 90
       50
176
     1
 90
       50
176
     1
290
     0
176
     1
 90
       50
176
     1
 62
   256
176
     0
 40
1.0
176
     0
 90
        2
176
     1
  1
strokes_ogs.tif
176
     1
290
     0
176
     1
 40
1.0
176
     1
 40
1.0
176
     1
  0
VISUALSTYLE
  5
36
102
{ACAD_REACTORS
330
2A
102
}
330
2A
100
AcDbVisualStyle
  2
Brighten
 70
    12
177
     3
291
     1
 70
    58
 90
        2
176
     1
 90
        2
176
     1
 90
        0
176
     1
 90
        0
176
     1
 40
0.6
176
     1
 40
30.0
176
     1
 62
     7
420
 16777215
176
     1
 90
        1
176
     1
 90
        4
176
     1
 62
     7
176
     1
 62
   257
176
     1
 90
        1
176
     1
 90
        1
176
     1
 40
1.0
176
     1
 90
        8
176
     1
 62
     7
176
     1
 40
1.0
176
     1
 90
        1
176
     1
 90
        6
176
     1
 90
        2
176
     1
 62
     7
176
     1
 90
        5
176
     1
 90
        0
176
     1
 90
        0
176
     1
290
     0
176
     1
 90
        1
176
     1
 40
50.0
176
     1
 90
        0
176
     1
290
     0
176
     1
290
     1
176
     1
290
     1
176
     1
290
     0
176
     1
290
     0
176
     1
290
     0
176
     1
290
     0
176
     1
290
     0
176
     1
290
     0
176
     1
 90
       50
176
     1
 40
0.0
176
     1
 40
1.0
176
     1
 90
        0
176
     1
 62
    18
420
        0
176
     1
 90
       50
176
     1
 90
        3
176
     1
 62
     5
420
      255
176
     1
290
     0
176
     1
 90
       50
176
     1
 90
       50
176
     1
 90
       50
176
     1
290
     0
176
     1
 90
       50
176
     1
 62
   256
176
     0
 40
1.0
176
     0
 90
        2
176
     1
  1
strokes_ogs.tif
176
     1
290
     0
176
     1
 40
1.0
176
     1
 40
1.0
176
     1
  0
VISUALSTYLE
  5
3A
102
{ACAD_REACTORS
330
2A
102
}
330
2A
100
AcDbVisualStyle
  2
ColorChange
 70
    16
177
     3
291
     1
 70
    58
 90
        2
176
     1
 90
        2
176
     1
 90
        3
176
     1
 90
        0
176
     1
 40
0.6
176
     1
 40
30.0
176
     1
 62
     8
420
  8421504
176
     1
 90
        1
176
     1
 90
        4
176
     1
 62
     7
176
     1
 62
   257
176
     1
 90
        1
176
     1
 90
        1
176
     1
 40
1.0
176
     1
 90
        8
176
     1
 62
     8
420
  8421504
176
     1
 40
1.0
176
     1
 90
        1
176
     1
 90
        6
176
     1
 90
        2
176
     1
 62
     7
176
     1
 90
        5
176
     1
 90
        0
176
     1
 90
        0
176
     1
290
     0
176
     1
 90
        1
176
     1
 40
0.0
176
     1
 90
        0
176
     1
290
     0
176
     1
290
     1
176
     1
290
     1
176
     1
290
     0
176
     1
290
     0
176
     1
290
     0
176
     1
290
     0
176
     1
290
     0
176
     1
290
     0
176
     1
 90
       50
176
     1
 40
0.0
176
     1
 40
1.0
176
     1
 90
        0
176
     1
 62
    18
420
        0
176
     1
 90
       50
176
     1
 90
        3
176
     1
 62
     5
420
      255
176
     1
290
     0
176
     1
 90
       50
176
     1
 90
       50
176
     1
 90
       50
176
     1
290
     0
176
     1
 90
       50
176
     1
 62
   256
176
     0
 40
1.0
176
     0
 90
        2
176
     1
  1
strokes_ogs.tif
176
     1
290
     0
176
     1
 40
1.0
176
     1
 40
1.0
176
     1
  0
VISUALSTYLE
  5
34
102
{ACAD_REACTORS
330
2A
102
}
330
2A
100
AcDbVisualStyle
  2
Conceptual
 70
     9
177
     3
291
     0
 70
    58
 90
        3
176
     1
 90
        2
176
     1
 90
        0
176
     1
 90
        0
176
     1
 40
0.6
176
     1
 40
30.0
176
     1
 62
     7
420
 16777215
176
     1
 90
        2
176
     1
 90
        2
176
     1
 62
     7
176
     1
 62
   257
176
     1
 90
        1
176
     1
 90
        1
176
     1
 40
179.0
176
     1
 90
        8
176
     1
 62
     7
176
     1
 40
1.0
176
     1
 90
        1
176
     1
 90
        6
176
     1
 90
        2
176
     1
 62
     7
176
     1
 90
        3
176
     1
 90
        0
176
     1
 90
        0
176
     1
290
     0
176
     1
 90
        1
176
     1
 40
0.0
176
     1
 90
        0
176
     1
290
     0
176
     1
290
     1
176
     1
290
     1
176
     1
290
     0
176
     1
290
     0
176
     1
290
     0
176
     1
290
     0
176
     1
290
     0
176
     1
290
     0
176
     1
 90
       50
176
     1
 40
0.0
176
     1
 40
1.0
176
     1
 90
        0
176
     1
 62
    18
420
        0
176
     1
 90
       50
176
     1
 90
        3
176
     1
 62
     5
420
      255
176
     1
290
     0
176
     1
 90
       50
176
     1
 90
       50
176
     1
 90
       50
176
     1
290
     0
176
     1
 90
       50
176
     1
 62
   256
176
     0
 40
1.0
176
     0
 90
        2
176
     1
  1
strokes_ogs.tif
176
     1
290
     0
176
     1
 40
1.0
176
     1
 40
1.0
176
     1
  0
VISUALSTYLE
  5
35
102
{ACAD_REACTORS
330
2A
102
}
330
2A
100
AcDbVisualStyle
  2
Dim
 70
    11
177
     3
291
     1
 70
    58
 90
        2
176
     1
 90
        2
176
     1
 90
        0
176
     1
 90
        0
176
     1
 40
0.6
176
     1
 40
30.0
176
     1
 62
     7
420
 16777215
176
     1
 90
        1
176
     1
 90
        4
176
     1
 62
     7
176
     1
 62
   257
176
     1
 90
        1
176
     1
 90
        1
176
     1
 40
1.0
176
     1
 90
        8
176
     1
 62
     7
176
     1
 40
1.0
176
     1
 90
        1
176
     1
 90
        6
176
     1
 90
        2
176
     1
 62
     7
176
     1
 90
        5
176
     1
 90
        0
176
     1
 90
        0
176
     1
290
     0
176
     1
 90
        1
176
     1
 40
-50.0
176
     1
 90
        0
176
     1
290
     0
176
     1
290
     1
176
     1
290
     1
176
     1
290
     0
176
     1
290
     0
176
     1
290
     0
176
     1
290
     0
176
     1
290
     0
176
     1
290
     0
176
     1
 90
       50
176
     1
 40
0.0
176
     1
 40
1.0
176
     1
 90
        0
176
     1
 62
    18
420
        0
176
     1
 90
       50
176
     1
 90
        3
176
     1
 62
     5
420
      255
176
     1
290
     0
176
     1
 90
       50
176
     1
 90
       50
176
     1
 90
       50
176
     1
290
     0
176
     1
 90
       50
176
     1
 62
   256
176
     0
 40
1.0
176
     0
 90
        2
176
     1
  1
strokes_ogs.tif
176
     1
290
     0
176
     1
 40
1.0
176
     1
 40
1.0
176
     1
  0
VISUALSTYLE
  5
3D
102
{ACAD_REACTORS
330
2A
102
}
330
2A
100
AcDbVisualStyle
  2
EdgeColorOff
 70
    22
177
     3
291
     1
 70
    58
 90
        2
176
     0
 90
        2
176
     0
 90
        0
176
     0
 90
        0
176
     0
 40
0.6
176
     0
 40
30.0
176
     0
 62
     7
420
 16777215
176
     0
 90
        1
176
     0
 90
        4
176
     0
 62
     7
176
     0
 62
   257
176
     0
 90
        1
176
     0
 90
        1
176
     0
 40
1.0
176
     0
 90
        8
176
     2
 62
     7
176
     0
 40
1.0
176
     0
 90
        1
176
     0
 90
        6
176
     0
 90
        2
176
     0
 62
     7
176
     0
 90
        5
176
     0
 90
        0
176
     0
 90
        0
176
     0
290
     0
176
     0
 90
        1
176
     0
 40
0.0
176
     0
 90
        0
176
     0
290
     0
176
     0
290
     1
176
     0
290
     1
176
     0
290
     0
176
     0
290
     0
176
     0
290
     0
176
     0
290
     0
176
     0
290
     0
176
     0
290
     0
176
     0
 90
       50
176
     0
 40
0.0
176
     0
 40
1.0
176
     0
 90
        0
176
     0
 62
    18
420
        0
176
     0
 90
       50
176
     0
 90
        3
176
     0
 62
     5
420
      255
176
     0
290
     0
176
     0
 90
       50
176
     0
 90
       50
176
     0
 90
       50
176
     0
290
     0
176
     0
 90
       50
176
     0
 62
   256
176
     0
 40
1.0
176
     0
 90
        2
176
     0
  1
strokes_ogs.tif
176
     0
290
     0
176
     0
 40
1.0
176
     0
 40
1.0
176
     0
  0
VISUALSTYLE
  5
39
102
{ACAD_REACTORS
330
2A
102
}
330
2A
100
AcDbVisualStyle
  2
Facepattern
 70
    15
177
     3
291
     1
 70
    58
 90
        2
176
     1
 90
        2
176
     1
 90
        0
176
     1
 90
        0
176
     1
 40
0.6
176
     1
 40
30.0
176
     1
 62
     7
420
 16777215
176
     1
 90
        1
176
     1
 90
        4
176
     1
 62
     7
176
     1
 62
   257
176
     1
 90
        1
176
     1
 90
        1
176
     1
 40
1.0
176
     1
 90
        8
176
     1
 62
     7
176
     1
 40
1.0
176
     1
 90
        1
176
     1
 90
        6
176
     1
 90
        2
176
     1
 62
     7
176
     1
 90
        5
176
     1
 90
        0
176
     1
 90
        0
176
     1
290
     0
176
     1
 90
        1
176
     1
 40
0.0
176
     1
 90
        0
176
     1
290
     0
176
     1
290
     1
176
     1
290
     1
176
     1
290
     0
176
     1
290
     0
176
     1
290
     0
176
     1
290
     0
176
     1
290
     0
176
     1
290
     0
176
     1
 90
       50
176
     1
 40
0.0
176
     1
 40
1.0
176
     1
 90
        0
176
     1
 62
    18
420
        0
176
     1
 90
       50
176
     1
 90
        3
176
     1
 62
     5
420
      255
176
     1
290
     0
176
     1
 90
       50
176
     1
 90
       50
176
     1
 90
       50
176
     1
290
     0
176
     1
 90
       50
176
     1
 62
   256
176
     0
 40
1.0
176
     0
 90
        2
176
     1
  1
strokes_ogs.tif
176
     1
290
     0
176
     1
 40
1.0
176
     1
 40
1.0
176
     1
  0
VISUALSTYLE
  5
2B
102
{ACAD_REACTORS
330
2A
102
}
330
2A
100
AcDbVisualStyle
  2
Flat
 70
     0
177
     3
291
     1
 70
    58
 90
        2
176
     1
 90
        1
176
     1
 90
        1
176
     1
 90
        2
176
     1
 40
0.6
176
     1
 40
30.0
176
     1
 62
     7
420
 16777215
176
     1
 90
        0
176
     1
 90
        0
176
     1
 62
     7
176
     1
 62
   257
176
     1
 90
        1
176
     1
 90
        1
176
     1
 40
1.0
176
     1
 90
        8
176
     1
 62
     7
176
     1
 40
1.0
176
     1
 90
        1
176
     1
 90
        6
176
     1
 90
        2
176
     1
 62
     7
176
     1
 90
        5
176
     1
 90
        0
176
     1
 90
        0
176
     1
290
     0
176
     1
 90
       13
176
     1
 40
0.0
176
     1
 90
        0
176
     1
290
     0
176
     1
290
     1
176
     1
290
     1
176
     1
290
     0
176
     1
290
     0
176
     1
290
     0
176
     1
290
     0
176
     1
290
     0
176
     1
290
     0
176
     1
 90
       50
176
     1
 40
0.0
176
     1
 40
1.0
176
     1
 90
        0
176
     1
 62
    18
420
        0
176
     1
 90
       50
176
     1
 90
        3
176
     1
 62
     5
420
      255
176
     1
290
     0
176
     1
 90
       50
176
     1
 90
       50
176
     1
 90
       50
176
     1
290
     0
176
     1
 90
       50
176
     1
 62
   256
176
     0
 40
1.0
176
     0
 90
        2
176
     1
  1
strokes_ogs.tif
176
     1
290
     0
176
     1
 40
1.0
176
     1
 40
1.0
176
     1
  0
VISUALSTYLE
  5
2C
102
{ACAD_REACTORS
330
2A
102
}
330
2A
100
AcDbVisualStyle
  2
FlatWithEdges
 70
     1
177
     3
291
     1
 70
    58
 90
        2
176
     1
 90
        1
176
     1
 90
        1
176
     1
 90
        2
176
     1
 40
0.6
176
     1
 40
30.0
176
     1
 62
     7
420
 16777215
176
     1
 90
        1
176
     1
 90
        0
176
     1
 62
     7
176
     1
 62
   257
176
     1
 90
        1
176
     1
 90
        1
176
     1
 40
1.0
176
     1
 90
        0
176
     1
 62
   257
176
     1
 40
1.0
176
     1
 90
        1
176
     1
 90
        6
176
     1
 90
        2
176
     1
 62
     7
176
     1
 90
        5
176
     1
 90
        0
176
     1
 90
        0
176
     1
290
     0
176
     1
 90
       13
176
     1
 40
0.0
176
     1
 90
        0
176
     1
290
     0
176
     1
290
     1
176
     1
290
     1
176
     1
290
     0
176
     1
290
     0
176
     1
290
     0
176
     1
290
     0
176
     1
290
     0
176
     1
290
     0
176
     1
 90
       50
176
     1
 40
0.0
176
     1
 40
1.0
176
     1
 90
        0
176
     1
 62
    18
420
        0
176
     1
 90
       50
176
     1
 90
        3
176
     1
 62
     5
420
      255
176
     1
290
     0
176
     1
 90
       50
176
     1
 90
       50
176
     1
 90
       50
176
     1
290
     0
176
     1
 90
       50
176
     1
 62
   256
176
     0
 40
1.0
176
     0
 90
        2
176
     1
  1
strokes_ogs.tif
176
     1
290
     0
176
     1
 40
1.0
176
     1
 40
1.0
176
     1
  0
VISUALSTYLE
  5
2D
102
{ACAD_REACTORS
330
2A
102
}
330
2A
100
AcDbVisualStyle
  2
Gouraud
 70
     2
177
     3
291
     1
 70
    58
 90
        2
176
     1
 90
        2
176
     1
 90
        1
176
     1
 90
        2
176
     1
 40
0.6
176
     1
 40
30.0
176
     1
 62
     7
420
 16777215
176
     1
 90
        0
176
     1
 90
        0
176
     1
 62
     7
176
     1
 62
   257
176
     1
 90
        1
176
     1
 90
        1
176
     1
 40
1.0
176
     1
 90
        0
176
     1
 62
     7
176
     1
 40
1.0
176
     1
 90
        1
176
     1
 90
        6
176
     1
 90
        2
176
     1
 62
     7
176
     1
 90
        5
176
     1
 90
        0
176
     1
 90
        0
176
     1
290
     0
176
     1
 90
       13
176
     1
 40
0.0
176
     1
 90
        0
176
     1
290
     0
176
     1
290
     1
176
     1
290
     1
176
     1
290
     0
176
     1
290
     0
176
     1
290
     0
176
     1
290
     0
176
     1
290
     0
176
     1
290
     0
176
     1
 90
       50
176
     1
 40
0.0
176
     1
 40
1.0
176
     1
 90
        0
176
     1
 62
    18
420
        0
176
     1
 90
       50
176
     1
 90
        3
176
     1
 62
     5
420
      255
176
     1
290
     0
176
     1
 90
       50
176
     1
 90
       50
176
     1
 90
       50
176
     1
290
     0
176
     1
 90
       50
176
     1
 62
   256
176
     0
 40
1.0
176
     0
 90
        2
176
     1
  1
strokes_ogs.tif
176
     1
290
     0
176
     1
 40
1.0
176
     1
 40
1.0
176
     1
  0
VISUALSTYLE
  5
2E
102
{ACAD_REACTORS
330
2A
102
}
330
2A
100
AcDbVisualStyle
  2
GouraudWithEdges
 70
     3
177
     3
291
     1
 70
    58
 90
        2
176
     1
 90
        2
176
     1
 90
        1
176
     1
 90
        2
176
     1
 40
0.6
176
     1
 40
30.0
176
     1
 62
     7
420
 16777215
176
     1
 90
        1
176
     1
 90
        0
176
     1
 62
     7
176
     1
 62
   257
176
     1
 90
        1
176
     1
 90
        1
176
     1
 40
1.0
176
     1
 90
        0
176
     1
 62
   257
176
     1
 40
1.0
176
     1
 90
        1
176
     1
 90
        6
176
     1
 90
        2
176
     1
 62
     7
176
     1
 90
        5
176
     1
 90
        0
176
     1
 90
        0
176
     1
290
     0
176
     1
 90
       13
176
     1
 40
0.0
176
     1
 90
        0
176
     1
290
     0
176
     1
290
     1
176
     1
290
     1
176
     1
290
     0
176
     1
290
     0
176
     1
290
     0
176
     1
290
     0
176
     1
290
     0
176
     1
290
     0
176
     1
 90
       50
176
     1
 40
0.0
176
     1
 40
1.0
176
     1
 90
        0
176
     1
 62
    18
420
        0
176
     1
 90
       50
176
     1
 90
        3
176
     1
 62
     5
420
      255
176
     1
290
     0
176
     1
 90
       50
176
     1
 90
       50
176
     1
 90
       50
176
     1
290
     0
176
     1
 90
       50
176
     1
 62
   256
176
     0
 40
1.0
176
     0
 90
        2
176
     1
  1
strokes_ogs.tif
176
     1
290
     0
176
     1
 40
1.0
176
     1
 40
1.0
176
     1
  0
VISUALSTYLE
  5
31
102
{ACAD_REACTORS
330
2A
102
}
330
2A
100
AcDbVisualStyle
  2
Hidden
 70
     6
177
     3
291
     0
 70
    58
 90
        1
176
     1
 90
        2
176
     1
 90
        2
176
     1
 90
        0
176
     1
 40
0.6
176
     1
 40
30.0
176
     1
 62
     7
420
 16777215
176
     1
 90
        2
176
     1
 90
        2
176
     1
 62
     7
176
     1
 62
   257
176
     1
 90
        2
176
     1
 90
        1
176
     1
 40
40.0
176
     1
 90
        0
176
     1
 62
   257
176
     1
 40
1.0
176
     1
 90
        1
176
     1
 90
        6
176
     1
 90
        2
176
     1
 62
     7
176
     1
 90
        3
176
     1
 90
        0
176
     1
 90
        0
176
     1
290
     0
176
     1
 90
        1
176
     1
 40
0.0
176
     1
 90
        0
176
     1
290
     0
176
     1
290
     1
176
     1
290
     1
176
     1
290
     0
176
     1
290
     0
176
     1
290
     0
176
     1
290
     0
176
     1
290
     0
176
     1
290
     0
176
     1
 90
       50
176
     1
 40
0.0
176
     1
 40
1.0
176
     1
 90
        0
176
     1
 62
    18
420
        0
176
     1
 90
       50
176
     1
 90
        3
176
     1
 62
     5
420
      255
176
     1
290
     0
176
     1
 90
       50
176
     1
 90
       50
176
     1
 90
       50
176
     1
290
     0
176
     1
 90
       50
176
     1
 62
   256
176
     0
 40
1.0
176
     0
 90
        2
176
     1
  1
strokes_ogs.tif
176
     1
290
     0
176
     1
 40
1.0
176
     1
 40
1.0
176
     1
  0
VISUALSTYLE
  5
3B
102
{ACAD_REACTORS
330
2A
102
}
330
2A
100
AcDbVisualStyle
  2
JitterOff
 70
    20
177
     3
291
     1
 70
    58
 90
        2
176
     0
 90
        2
176
     0
 90
        0
176
     0
 90
        0
176
     0
 40
0.6
176
     0
 40
30.0
176
     0
 62
     7
420
 16777215
176
     0
 90
        1
176
     0
 90
        4
176
     0
 62
     7
176
     0
 62
   257
176
     0
 90
        1
176
     0
 90
        1
176
     0
 40
1.0
176
     0
 90
       10
176
     2
 62
     7
176
     0
 40
1.0
176
     0
 90
        1
176
     0
 90
        6
176
     0
 90
        2
176
     0
 62
     7
176
     0
 90
        5
176
     0
 90
        0
176
     0
 90
        0
176
     0
290
     0
176
     0
 90
        1
176
     0
 40
0.0
176
     0
 90
        0
176
     0
290
     0
176
     0
290
     1
176
     0
290
     1
176
     0
290
     0
176
     0
290
     0
176
     0
290
     0
176
     0
290
     0
176
     0
290
     0
176
     0
290
     0
176
     0
 90
       50
176
     0
 40
0.0
176
     0
 40
1.0
176
     0
 90
        0
176
     0
 62
    18
420
        0
176
     0
 90
       50
176
     0
 90
        3
176
     0
 62
     5
420
      255
176
     0
290
     0
176
     0
 90
       50
176
     0
 90
       50
176
     0
 90
       50
176
     0
290
     0
176
     0
 90
       50
176
     0
 62
   256
176
     0
 40
1.0
176
     0
 90
        2
176
     0
  1
strokes_ogs.tif
176
     0
290
     0
176
     0
 40
1.0
176
     0
 40
1.0
176
     0
  0
VISUALSTYLE
  5
38
102
{ACAD_REACTORS
330
2A
102
}
330
2A
100
AcDbVisualStyle
  2
Linepattern
 70
    14
177
     3
291
     1
 70
    58
 90
        2
176
     1
 90
        2
176
     1
 90
        0
176
     1
 90
        0
176
     1
 40
0.6
176
     1
 40
30.0
176
     1
 62
     7
420
 16777215
176
     1
 90
        1
176
     1
 90
        4
176
     1
 62
     7
176
     1
 62
   257
176
     1
 90
        7
176
     1
 90
        7
176
     1
 40
1.0
176
     1
 90
        8
176
     1
 62
     7
176
     1
 40
1.0
176
     1
 90
        1
176
     1
 90
        6
176
     1
 90
        2
176
     1
 62
     7
176
     1
 90
        5
176
     1
 90
        0
176
     1
 90
        0
176
     1
290
     0
176
     1
 90
        1
176
     1
 40
0.0
176
     1
 90
        0
176
     1
290
     0
176
     1
290
     1
176
     1
290
     1
176
     1
290
     0
176
     1
290
     0
176
     1
290
     0
176
     1
290
     0
176
     1
290
     0
176
     1
290
     0
176
     1
 90
       50
176
     1
 40
0.0
176
     1
 40
1.0
176
     1
 90
        0
176
     1
 62
    18
420
        0
176
     1
 90
       50
176
     1
 90
        3
176
     1
 62
     5
420
      255
176
     1
290
     0
176
     1
 90
       50
176
     1
 90
       50
176
     1
 90
       50
176
     1
290
     0
176
     1
 90
       50
176
     1
 62
   256
176
     0
 40
1.0
176
     0
 90
        2
176
     1
  1
strokes_ogs.tif
176
     1
290
     0
176
     1
 40
1.0
176
     1
 40
1.0
176
     1
  0
VISUALSTYLE
  5
3C
102
{ACAD_REACTORS
330
2A
102
}
330
2A
100
AcDbVisualStyle
  2
OverhangOff
 70
    21
177
     3
291
     1
 70
    58
 90
        2
176
     0
 90
        2
176
     0
 90
        0
176
     0
 90
        0
176
     0
 40
0.6
176
     0
 40
30.0
176
     0
 62
     7
420
 16777215
176
     0
 90
        1
176
     0
 90
        4
176
     0
 62
     7
176
     0
 62
   257
176
     0
 90
        1
176
     0
 90
        1
176
     0
 40
1.0
176
     0
 90
        9
176
     2
 62
     7
176
     0
 40
1.0
176
     0
 90
        1
176
     0
 90
        6
176
     0
 90
        2
176
     0
 62
     7
176
     0
 90
        5
176
     0
 90
        0
176
     0
 90
        0
176
     0
290
     0
176
     0
 90
        1
176
     0
 40
0.0
176
     0
 90
        0
176
     0
290
     0
176
     0
290
     1
176
     0
290
     1
176
     0
290
     0
176
     0
290
     0
176
     0
290
     0
176
     0
290
     0
176
     0
290
     0
176
     0
290
     0
176
     0
 90
       50
176
     0
 40
0.0
176
     0
 40
1.0
176
     0
 90
        0
176
     0
 62
    18
420
        0
176
     0
 90
       50
176
     0
 90
        3
176
     0
 62
     5
420
      255
176
     0
290
     0
176
     0
 90
       50
176
     0
 90
       50
176
     0
 90
       50
176
     0
290
     0
176
     0
 90
       50
176
     0
 62
   256
176
     0
 40
1.0
176
     0
 90
        2
176
     0
  1
strokes_ogs.tif
176
     0
290
     0
176
     0
 40
1.0
176
     0
 40
1.0
176
     0
  0
VISUALSTYLE
  5
33
102
{ACAD_REACTORS
330
2A
102
}
330
2A
100
AcDbVisualStyle
  2
Realistic
 70
     8
177
     3
291
     0
 70
    58
 90
        2
176
     1
 90
        3
176
     1
 90
        0
176
     1
 90
        2
176
     1
 40
0.6
176
     1
 40
30.0
176
     1
 62
     7
420
 16777215
176
     1
 90
        0
176
     1
 90
        0
176
     1
 62
     7
176
     1
 62
   257
176
     1
 90
        1
176
     1
 90
        1
176
     1
 40
1.0
176
     1
 90
        8
176
     1
 62
   257
176
     1
 40
1.0
176
     1
 90
        1
176
     1
 90
        6
176
     1
 90
        2
176
     1
 62
     7
176
     1
 90
        3
176
     1
 90
        0
176
     1
 90
        0
176
     1
290
     0
176
     1
 90
       13
176
     1
 40
0.0
176
     1
 90
        0
176
     1
290
     0
176
     1
290
     1
176
     1
290
     1
176
     1
290
     0
176
     1
290
     0
176
     1
290
     0
176
     1
290
     0
176
     1
290
     0
176
     1
290
     0
176
     1
 90
       50
176
     1
 40
0.0
176
     1
 40
1.0
176
     1
 90
        0
176
     1
 62
    18
420
        0
176
     1
 90
       50
176
     1
 90
        3
176
     1
 62
     5
420
      255
176
     1
290
     0
176
     1
 90
       50
176
     1
 90
       50
176
     1
 90
       50
176
     1
290
     0
176
     1
 90
       50
176
     1
 62
   256
176
     0
 40
1.0
176
     0
 90
        2
176
     1
  1
strokes_ogs.tif
176
     1
290
     0
176
     1
 40
1.0
176
     1
 40
1.0
176
     1
  0
VISUALSTYLE
  5
42
102
{ACAD_REACTORS
330
2A
102
}
330
2A
100
AcDbVisualStyle
  2
Shaded
 70
    27
177
     3
291
     0
 70
    58
 90
        2
176
     1
 90
        2
176
     1
 90
        1
176
     1
 90
        2
176
     1
 40
0.6
176
     1
 40
30.0
176
     1
 62
     7
420
 16777215
176
     1
 90
        0
176
     1
 90
        4
176
     1
 62
     7
176
     1
 62
   257
176
     1
 90
        1
176
     1
 90
        1
176
     1
 40
1.0
176
     1
 90
        8
176
     1
 62
   257
176
     1
 40
1.0
176
     1
 90
        1
176
     1
 90
        6
176
     1
 90
        2
176
     1
 62
     8
420
  7895160
176
     1
 90
        3
176
     1
 90
        0
176
     1
 90
        0
176
     1
290
     0
176
     1
 90
        5
176
     1
 40
0.0
176
     1
 90
        0
176
     1
290
     0
176
     1
290
     1
176
     1
290
     1
176
     1
290
     0
176
     1
290
     0
176
     1
290
     0
176
     1
290
     0
176
     1
290
     0
176
     1
290
     0
176
     1
 90
       50
176
     1
 40
0.0
176
     1
 40
1.0
176
     1
 90
        0
176
     1
 62
    18
420
        0
176
     1
 90
       50
176
     1
 90
        3
176
     1
 62
     5
420
      255
176
     1
290
     0
176
     1
 90
       50
176
     1
 90
       50
176
     1
 90
       50
176
     1
290
     0
176
     1
 90
       50
176
     1
 62
   256
176
     0
 40
1.0
176
     0
 90
        2
176
     1
  1
strokes_ogs.tif
176
     1
290
     0
176
     1
 40
1.0
176
     1
 40
1.0
176
     1
  0
VISUALSTYLE
  5
41
102
{ACAD_REACTORS
330
2A
102
}
330
2A
100
AcDbVisualStyle
  2
Shaded with edges
 70
    26
177
     3
291
     0
 70
    58
 90
        2
176
     1
 90
        2
176
     1
 90
        1
176
     1
 90
        2
176
     1
 40
0.6
176
     1
 40
30.0
176
     1
 62
     7
420
 16777215
176
     1
 90
        1
176
     1
 90
       10
176
     1
 62
     7
176
     1
 62
   257
176
     1
 90
        2
176
     1
 90
        1
176
     1
 40
1.0
176
     1
 90
        8
176
     1
 62
   257
176
     1
 40
1.0
176
     1
 90
        1
176
     1
 90
        6
176
     1
 90
        2
176
     1
 62
     7
176
     1
 90
        3
176
     1
 90
        0
176
     1
 90
        0
176
     1
290
     0
176
     1
 90
        5
176
     1
 40
0.0
176
     1
 90
        0
176
     1
290
     0
176
     1
290
     1
176
     1
290
     1
176
     1
290
     0
176
     1
290
     0
176
     1
290
     0
176
     1
290
     0
176
     1
290
     0
176
     1
290
     0
176
     1
 90
       50
176
     1
 40
0.0
176
     1
 40
1.0
176
     1
 90
        0
176
     1
 62
    18
420
        0
176
     1
 90
       50
176
     1
 90
        3
176
     1
 62
     5
420
      255
176
     1
290
     0
176
     1
 90
       50
176
     1
 90
       50
176
     1
 90
       50
176
     1
290
     0
176
     1
 90
       50
176
     1
 62
   256
176
     0
 40
1.0
176
     0
 90
        2
176
     1
  1
strokes_ogs.tif
176
     1
290
     0
176
     1
 40
1.0
176
     1
 40
1.0
176
     1
  0
VISUALSTYLE
  5
3E
102
{ACAD_REACTORS
330
2A
102
}
330
2A
100
AcDbVisualStyle
  2
Shades of Gray
 70
    23
177
     3
291
     0
 70
    58
 90
        2
176
     1
 90
        2
176
     1
 90
        3
176
     1
 90
        0
176
     1
 40
0.6
176
     1
 40
30.0
176
     1
 62
     7
420
 16777215
176
     1
 90
        2
176
     1
 90
        2
176
     1
 62
     7
176
     1
 62
     7
176
     1
 90
        1
176
     1
 90
        1
176
     1
 40
40.0
176
     1
 90
        8
176
     1
 62
     7
176
     1
 40
1.0
176
     1
 90
        1
176
     1
 90
        6
176
     1
 90
        2
176
     1
 62
     7
176
     1
 90
        3
176
     1
 90
        0
176
     1
 90
        0
176
     1
290
     0
176
     1
 90
        1
176
     1
 40
0.0
176
     1
 90
        0
176
     1
290
     0
176
     1
290
     1
176
     1
290
     1
176
     1
290
     0
176
     1
290
     0
176
     1
290
     0
176
     1
290
     0
176
     1
290
     0
176
     1
290
     0
176
     1
 90
       50
176
     1
 40
0.0
176
     1
 40
1.0
176
     1
 90
        0
176
     1
 62
    18
420
        0
176
     1
 90
       50
176
     1
 90
        3
176
     1
 62
     5
420
      255
176
     1
290
     0
176
     1
 90
       50
176
     1
 90
       50
176
     1
 90
       50
176
     1
290
     0
176
     1
 90
       50
176
     1
 62
   256
176
     0
 40
1.0
176
     0
 90
        2
176
     1
  1
strokes_ogs.tif
176
     1
290
     0
176
     1
 40
1.0
176
     1
 40
1.0
176
     1
  0
VISUALSTYLE
  5
3F
102
{ACAD_REACTORS
330
2A
102
}
330
2A
100
AcDbVisualStyle
  2
Sketchy
 70
    24
177
     3
291
     0
 70
    58
 90
        1
176
     1
 90
        2
176
     1
 90
        2
176
     1
 90
        0
176
     1
 40
0.6
176
     1
 40
30.0
176
     1
 62
     7
420
 16777215
176
     1
 90
        2
176
     1
 90
        2
176
     1
 62
     7
176
     1
 62
     7
176
     1
 90
        1
176
     1
 90
        1
176
     1
 40
40.0
176
     1
 90
       11
176
     1
 62
     7
176
     1
 40
1.0
176
     1
 90
        1
176
     1
 90
        6
176
     1
 90
        2
176
     1
 62
     7
176
     1
 90
        6
176
     1
 90
        0
176
     1
 90
        0
176
     1
290
     0
176
     1
 90
        1
176
     1
 40
0.0
176
     1
 90
        0
176
     1
290
     0
176
     1
290
     1
176
     1
290
     1
176
     1
290
     0
176
     1
290
     0
176
     1
290
     0
176
     1
290
     0
176
     1
290
     0
176
     1
290
     0
176
     1
 90
       50
176
     1
 40
0.0
176
     1
 40
1.0
176
     1
 90
        0
176
     1
 62
    18
420
        0
176
     1
 90
       50
176
     1
 90
        3
176
     1
 62
     5
420
      255
176
     1
290
     0
176
     1
 90
       50
176
     1
 90
       50
176
     1
 90
       50
176
     1
290
     0
176
     1
 90
       50
176
     1
 62
   256
176
     0
 40
1.0
176
     0
 90
        2
176
     1
  1
strokes_ogs.tif
176
     1
290
     0
176
     1
 40
1.0
176
     1
 40
1.0
176
     1
  0
VISUALSTYLE
  5
37
102
{ACAD_REACTORS
330
2A
102
}
330
2A
100
AcDbVisualStyle
  2
Thicken
 70
    13
177
     3
291
     1
 70
    58
 90
        2
176
     1
 90
        2
176
     1
 90
        0
176
     1
 90
        0
176
     1
 40
0.6
176
     1
 40
30.0
176
     1
 62
     7
420
 16777215
176
     1
 90
        1
176
     1
 90
        4
176
     1
 62
     7
176
     1
 62
   257
176
     1
 90
        1
176
     1
 90
        1
176
     1
 40
1.0
176
     1
 90
       12
176
     1
 62
     7
176
     1
 40
1.0
176
     1
 90
        1
176
     1
 90
        6
176
     1
 90
        2
176
     1
 62
     7
176
     1
 90
        5
176
     1
 90
        0
176
     1
 90
        0
176
     1
290
     0
176
     1
 90
        1
176
     1
 40
0.0
176
     1
 90
        0
176
     1
290
     0
176
     1
290
     1
176
     1
290
     1
176
     1
290
     0
176
     1
290
     0
176
     1
290
     0
176
     1
290
     0
176
     1
290
     0
176
     1
290
     0
176
     1
 90
       50
176
     1
 40
0.0
176
     1
 40
1.0
176
     1
 90
        0
176
     1
 62
    18
420
        0
176
     1
 90
       50
176
     1
 90
        3
176
     1
 62
     5
420
      255
176
     1
290
     0
176
     1
 90
       50
176
     1
 90
       50
176
     1
 90
       50
176
     1
290
     0
176
     1
 90
       50
176
     1
 62
   256
176
     0
 40
1.0
176
     0
 90
        2
176
     1
  1
strokes_ogs.tif
176
     1
290
     0
176
     1
 40
1.0
176
     1
 40
1.0
176
     1
  0
VISUALSTYLE
  5
30
102
{ACAD_REACTORS
330
2A
102
}
330
2A
100
AcDbVisualStyle
  2
Wireframe
 70
     5
177
     3
291
     0
 70
    58
 90
        0
176
     1
 90
        2
176
     1
 90
        0
176
     1
 90
        0
176
     1
 40
0.6
176
     1
 40
30.0
176
     1
 62
     7
420
 16777215
176
     1
 90
        1
176
     1
 90
        4
176
     1
 62
     7
176
     1
 62
   257
176
     1
 90
        1
176
     1
 90
        1
176
     1
 40
1.0
176
     1
 90
        0
176
     1
 62
   257
176
     1
 40
1.0
176
     1
 90
        1
176
     1
 90
        6
176
     1
 90
        2
176
     1
 62
     7
176
     1
 90
        3
176
     1
 90
        0
176
     1
 90
        0
176
     1
290
     0
176
     1
 90
        1
176
     1
 40
0.0
176
     1
 90
        0
176
     1
290
     0
176
     1
290
     1
176
     1
290
     1
176
     1
290
     0
176
     1
290
     0
176
     1
290
     0
176
     1
290
     0
176
     1
290
     0
176
     1
290
     0
176
     1
 90
       50
176
     1
 40
0.0
176
     1
 40
1.0
176
     1
 90
        0
176
     1
 62
    18
420
        0
176
     1
 90
       50
176
     1
 90
        3
176
     1
 62
     5
420
      255
176
     1
290
     0
176
     1
 90
       50
176
     1
 90
       50
176
     1
 90
       50
176
     1
290
     0
176
     1
 90
       50
176
     1
 62
   256
176
     0
 40
1.0
176
     0
 90
        2
176
     1
  1
strokes_ogs.tif
176
     1
290
     0
176
     1
 40
1.0
176
     1
 40
1.0
176
     1
  0
VISUALSTYLE
  5
40
102
{ACAD_REACTORS
330
2A
102
}
330
2A
100
AcDbVisualStyle
  2
X-Ray
 70
    25
177
     3
291
     0
 70
    58
 90
        2
176
     1
 90
        2
176
     1
 90
        1
176
     1
 90
        1
176
     1
 40
0.5
176
     1
 40
30.0
176
     1
 62
     7
420
 16777215
176
     1
 90
        1
176
     1
 90
        0
176
     1
 62
     7
176
     1
 62
   257
176
     1
 90
        1
176
     1
 90
        1
176
     1
 40
1.0
176
     1
 90
        8
176
     1
 62
     7
176
     1
 40
1.0
176
     1
 90
        1
176
     1
 90
        6
176
     1
 90
        2
176
     1
 62
     7
176
     1
 90
        3
176
     1
 90
        0
176
     1
 90
        0
176
     1
290
     0
176
     1
 90
       13
176
     1
 40
0.0
176
     1
 90
        0
176
     1
290
     0
176
     1
290
     1
176
     1
290
     1
176
     1
290
     0
176
     1
290
     0
176
     1
290
     0
176
     1
290
     0
176
     1
290
     0
176
     1
290
     0
176
     1
 90
       50
176
     1
 40
0.0
176
     1
 40
1.0
176
     1
 90
        0
176
     1
 62
    18
420
        0
176
     1
 90
       50
176
     1
 90
        3
176
     1
 62
     5
420
      255
176
     1
290
     0
176
     1
 90
       50
176
     1
 90
       50
176
     1
 90
       50
176
     1
290
     0
176
     1
 90
       50
176
     1
 62
   256
176
     0
 40
1.0
176
     0
 90
        2
176
     1
  1
strokes_ogs.tif
176
     1
290
     0
176
     1
 40
1.0
176
     1
 40
1.0
176
     1
  0
DICTIONARYVAR
  5
4A1
102
{ACAD_REACTORS
330
4A0
102
}
330
4A0
100
DictionaryVariables
280
     0
  1
1:1
  0
DICTIONARYVAR
  5
4A9
102
{ACAD_REACTORS
330
4A0
102
}
330
4A0
100
DictionaryVariables
280
     0
  1
3.500000
  0
DICTIONARYVAR
  5
4AA
102
{ACAD_REACTORS
330
4A0
102
}
330
4A0
100
DictionaryVariables
280
     0
  1
acadiso.lin
  0
DICTIONARYVAR
  5
4A6
102
{ACAD_REACTORS
330
4A0
102
}
330
4A0
100
DictionaryVariables
280
     0
  1
Standard
  0
DICTIONARYVAR
  5
4A5
102
{ACAD_REACTORS
330
4A0
102
}
330
4A0
100
DictionaryVariables
280
     0
  1
Standard
  0
DICTIONARY
  5
4A2
330
6A
100
AcDbDictionary
280
     1
281
     1
  3
ACAD_ROUNDTRIP_2008_TABLESTYLE_CELLSTYLEMAP
360
4A3
  0
CELLSTYLEMAP
  5
4A3
102
{ACAD_REACTORS
330
4A2
102
}
330
4A2
100
AcDbCellStyleMap
 90
        3
300
CELLSTYLE
  1
TABLEFORMAT_BEGIN
 90
        5
170
     1
 91
        0
 92
    32768
 62
   257
 93
        1
300
CONTENTFORMAT
  1
CONTENTFORMAT_BEGIN
 90
        0
 91
        0
 92
        4
 93
        0
300

 40
0.0
140
1.0
 94
        5
 62
     0
340
11
144
6.0
309
CONTENTFORMAT_END
171
     1
301
MARGIN
  1
CELLMARGIN_BEGIN
 40
1.5
 40
1.5
 40
1.5
 40
1.5
 40
1.5
 40
1.5
309
CELLMARGIN_END
 94
        6
 95
        1
302
GRIDFORMAT
  1
GRIDFORMAT_BEGIN
 90
        0
 91
        1
 62
     0
 92
       -2
340
14
 93
        0
 40
0.045
309
GRIDFORMAT_END
 95
        2
302
GRIDFORMAT
  1
GRIDFORMAT_BEGIN
 90
        0
 91
        1
 62
     0
 92
       -2
340
14
 93
        0
 40
0.045
309
GRIDFORMAT_END
 95
        4
302
GRIDFORMAT
  1
GRIDFORMAT_BEGIN
 90
        0
 91
        1
 62
     0
 92
       -2
340
14
 93
        0
 40
0.045
309
GRIDFORMAT_END
 95
        8
302
GRIDFORMAT
  1
GRIDFORMAT_BEGIN
 90
        0
 91
        1
 62
     0
 92
       -2
340
14
 93
        0
 40
0.045
309
GRIDFORMAT_END
 95
       16
302
GRIDFORMAT
  1
GRIDFORMAT_BEGIN
 90
        0
 91
        1
 62
     0
 92
       -2
340
14
 93
        0
 40
0.045
309
GRIDFORMAT_END
 95
       32
302
GRIDFORMAT
  1
GRIDFORMAT_BEGIN
 90
        0
 91
        1
 62
     0
 92
       -2
340
14
 93
        0
 40
0.045
309
GRIDFORMAT_END
309
TABLEFORMAT_END
  1
CELLSTYLE_BEGIN
 90
        1
 91
        1
300
_TITLE
309
CELLSTYLE_END
300
CELLSTYLE
  1
TABLEFORMAT_BEGIN
 90
        5
170
     1
 91
        0
 92
        0
 62
   257
 93
        1
300
CONTENTFORMAT
  1
CONTENTFORMAT_BEGIN
 90
        0
 91
        0
 92
        4
 93
        0
300

 40
0.0
140
1.0
 94
        5
 62
     0
340
11
144
4.5
309
CONTENTFORMAT_END
171
     1
301
MARGIN
  1
CELLMARGIN_BEGIN
 40
1.5
 40
1.5
 40
1.5
 40
1.5
 40
1.5
 40
1.5
309
CELLMARGIN_END
 94
        6
 95
        1
302
GRIDFORMAT
  1
GRIDFORMAT_BEGIN
 90
        0
 91
        1
 62
     0
 92
       -2
340
14
 93
        0
 40
0.045
309
GRIDFORMAT_END
 95
        2
302
GRIDFORMAT
  1
GRIDFORMAT_BEGIN
 90
        0
 91
        1
 62
     0
 92
       -2
340
14
 93
        0
 40
0.045
309
GRIDFORMAT_END
 95
        4
302
GRIDFORMAT
  1
GRIDFORMAT_BEGIN
 90
        0
 91
        1
 62
     0
 92
       -2
340
14
 93
        0
 40
0.045
309
GRIDFORMAT_END
 95
        8
302
GRIDFORMAT
  1
GRIDFORMAT_BEGIN
 90
        0
 91
        1
 62
     0
 92
       -2
340
14
 93
        0
 40
0.045
309
GRIDFORMAT_END
 95
       16
302
GRIDFORMAT
  1
GRIDFORMAT_BEGIN
 90
        0
 91
        1
 62
     0
 92
       -2
340
14
 93
        0
 40
0.045
309
GRIDFORMAT_END
 95
       32
302
GRIDFORMAT
  1
GRIDFORMAT_BEGIN
 90
        0
 91
        1
 62
     0
 92
       -2
340
14
 93
        0
 40
0.045
309
GRIDFORMAT_END
309
TABLEFORMAT_END
  1
CELLSTYLE_BEGIN
 90
        2
 91
        1
300
_HEADER
309
CELLSTYLE_END
300
CELLSTYLE
  1
TABLEFORMAT_BEGIN
 90
        5
170
     1
 91
        0
 92
        0
 62
   257
 93
        1
300
CONTENTFORMAT
  1
CONTENTFORMAT_BEGIN
 90
        0
 91
        0
 92
        4
 93
        0
300

 40
0.0
140
1.0
 94
        2
 62
     0
340
11
144
4.5
309
CONTENTFORMAT_END
171
     1
301
MARGIN
  1
CELLMARGIN_BEGIN
 40
1.5
 40
1.5
 40
1.5
 40
1.5
 40
1.5
 40
1.5
309
CELLMARGIN_END
 94
        6
 95
        1
302
GRIDFORMAT
  1
GRIDFORMAT_BEGIN
 90
        0
 91
        1
 62
     0
 92
       -2
340
14
 93
        0
 40
0.045
309
GRIDFORMAT_END
 95
        2
302
GRIDFORMAT
  1
GRIDFORMAT_BEGIN
 90
        0
 91
        1
 62
     0
 92
       -2
340
14
 93
        0
 40
0.045
309
GRIDFORMAT_END
 95
        4
302
GRIDFORMAT
  1
GRIDFORMAT_BEGIN
 90
        0
 91
        1
 62
     0
 92
       -2
340
14
 93
        0
 40
0.045
309
GRIDFORMAT_END
 95
        8
302
GRIDFORMAT
  1
GRIDFORMAT_BEGIN
 90
        0
 91
        1
 62
     0
 92
       -2
340
14
 93
        0
 40
0.045
309
GRIDFORMAT_END
 95
       16
302
GRIDFORMAT
  1
GRIDFORMAT_BEGIN
 90
        0
 91
        1
 62
     0
 92
       -2
340
14
 93
        0
 40
0.045
309
GRIDFORMAT_END
 95
       32
302
GRIDFORMAT
  1
GRIDFORMAT_BEGIN
 90
        0
 91
        1
 62
     0
 92
       -2
340
14
 93
        0
 40
0.045
309
GRIDFORMAT_END
309
TABLEFORMAT_END
  1
CELLSTYLE_BEGIN
 90
        3
 91
        2
300
_DATA
309
CELLSTYLE_END
  0
ENDSEC
  0
EOF
