  0
SECTION
  2
HEADER
  9
$ACADVER
  1
AC1027
  9
$ACADMAINTVER
 70
   105
  9
$DWGCODEPAGE
  3
ANSI_932
  9
$REQUIREDVERSIONS
160
                 0
  9
$INSBASE
 10
0.0
 20
0.0
 30
0.0
  9
$EXTMIN
 10
-840.0
 20
-594.0
 30
0.0
  9
$EXTMAX
 10
840.0
 20
594.0
 30
0.0
  9
$LIMMIN
 10
-840.0
 20
-594.0
  9
$LIMMAX
 10
840.0
 20
594.0
  9
$ORTHOMODE
 70
     0
  9
$REGENMODE
 70
     1
  9
$FILLMODE
 70
     1
  9
$QTEXTMODE
 70
     0
  9
$MIRRTEXT
 70
     1
  9
$LTSCALE
 40
4.0
  9
$ATTMODE
 70
     1
  9
$TEXTSIZE
 40
2.5
  9
$TRACEWID
 40
1.0
  9
$TEXTSTYLE
  7
Standard
  9
$CLAYER
  8
0
  9
$CELTYPE
  6
ByLayer
  9
$CECOLOR
 62
   256
  9
$CELTSCALE
 40
1.0
  9
$DISPSILH
 70
     0
  9
$DIMSCALE
 40
1.0
  9
$DIMASZ
 40
2.5
  9
$DIMEXO
 40
0.625
  9
$DIMDLI
 40
3.75
  9
$DIMRND
 40
0.0
  9
$DIMDLE
 40
0.0
  9
$DIMEXE
 40
1.25
  9
$DIMTP
 40
0.0
  9
$DIMTM
 40
0.0
  9
$DIMTXT
 40
2.5
  9
$DIMCEN
 40
2.5
  9
$DIMTSZ
 40
0.0
  9
$DIMTOL
 70
     0
  9
$DIMLIM
 70
     0
  9
$DIMTIH
 70
     0
  9
$DIMTOH
 70
     0
  9
$DIMSE1
 70
     0
  9
$DIMSE2
 70
     0
  9
$DIMTAD
 70
     1
  9
$DIMZIN
 70
     8
  9
$DIMBLK
  1

  9
$DIMASO
 70
     1
  9
$DIMSHO
 70
     1
  9
$DIMPOST
  1

  9
$DIMAPOST
  1

  9
$DIMALT
 70
     0
  9
$DIMALTD
 70
     3
  9
$DIMALTF
 40
0.03937007874016
  9
$DIMLFAC
 40
1.0
  9
$DIMTOFL
 70
     1
  9
$DIMTVP
 40
0.0
  9
$DIMTIX
 70
     0
  9
$DIMSOXD
 70
     0
  9
$DIMSAH
 70
     0
  9
$DIMBLK1
  1

  9
$DIMBLK2
  1

  9
$DIMSTYLE
  2
ISO-25
  9
$DIMCLRD
 70
     0
  9
$DIMCLRE
 70
     0
  9
$DIMCLRT
 70
     0
  9
$DIMTFAC
 40
1.0
  9
$DIMGAP
 40
0.625
  9
$DIMJUST
 70
     0
  9
$DIMSD1
 70
     0
  9
$DIMSD2
 70
     0
  9
$DIMTOLJ
 70
     0
  9
$DIMTZIN
 70
     8
  9
$DIMALTZ
 70
     0
  9
$DIMALTTZ
 70
     0
  9
$DIMUPT
 70
     0
  9
$DIMDEC
 70
     2
  9
$DIMTDEC
 70
     2
  9
$DIMALTU
 70
     2
  9
$DIMALTTD
 70
     3
  9
$DIMTXSTY
  7
Standard
  9
$DIMAUNIT
 70
     0
  9
$DIMADEC
 70
     0
  9
$DIMALTRND
 40
0.0
  9
$DIMAZIN
 70
     0
  9
$DIMDSEP
 70
    44
  9
$DIMATFIT
 70
     3
  9
$DIMFRAC
 70
     0
  9
$DIMLDRBLK
  1

  9
$DIMLUNIT
 70
     2
  9
$DIMLWD
 70
    -2
  9
$DIMLWE
 70
    -2
  9
$DIMTMOVE
 70
     0
  9
$DIMFXL
 40
1.0
  9
$DIMFXLON
 70
     0
  9
$DIMJOGANG
 40
0.7853981633974483
  9
$DIMTFILL
 70
     0
  9
$DIMTFILLCLR
 70
     0
  9
$DIMARCSYM
 70
     0
  9
$DIMLTYPE
  6

  9
$DIMLTEX1
  6

  9
$DIMLTEX2
  6

  9
$DIMTXTDIRECTION
 70
     0
  9
$LUNITS
 70
     2
  9
$LUPREC
 70
     4
  9
$SKETCHINC
 40
1.0
  9
$FILLETRAD
 40
10.0
  9
$AUNITS
 70
     0
  9
$AUPREC
 70
     0
  9
$MENU
  1
.
  9
$ELEVATION
 40
0.0
  9
$PELEVATION
 40
0.0
  9
$THICKNESS
 40
0.0
  9
$LIMCHECK
 70
     0
  9
$CHAMFERA
 40
0.0
  9
$CHAMFERB
 40
0.0
  9
$CHAMFERC
 40
0.0
  9
$CHAMFERD
 40
0.0
  9
$SKPOLY
 70
     0
  9
$TDCREATE
 40
2458821.361860394
  9
$TDUCREATE
 40
2458820.986860394
  9
$TDUPDATE
 40
2458821.361860579
  9
$TDUUPDATE
 40
2458820.986860579
  9
$TDINDWG
 40
0.0000000116
  9
$TDUSRTIMER
 40
0.0000000116
  9
$USRTIMER
 70
     1
  9
$ANGBASE
 50
0.0
  9
$ANGDIR
 70
     0
  9
$PDMODE
 70
     0
  9
$PDSIZE
 40
0.0
  9
$PLINEWID
 40
0.0
  9
$SPLFRAME
 70
     0
  9
$SPLINETYPE
 70
     6
  9
$SPLINESEGS
 70
     8
  9
$HANDSEED
  5
552
  9
$SURFTAB1
 70
     6
  9
$SURFTAB2
 70
     6
  9
$SURFTYPE
 70
     6
  9
$SURFU
 70
     6
  9
$SURFV
 70
     6
  9
$UCSBASE
  2

  9
$UCSNAME
  2

  9
$UCSORG
 10
0.0
 20
0.0
 30
0.0
  9
$UCSXDIR
 10
1.0
 20
0.0
 30
0.0
  9
$UCSYDIR
 10
0.0
 20
1.0
 30
0.0
  9
$UCSORTHOREF
  2

  9
$UCSORTHOVIEW
 70
     0
  9
$UCSORGTOP
 10
0.0
 20
0.0
 30
0.0
  9
$UCSORGBOTTOM
 10
0.0
 20
0.0
 30
0.0
  9
$UCSORGLEFT
 10
0.0
 20
0.0
 30
0.0
  9
$UCSORGRIGHT
 10
0.0
 20
0.0
 30
0.0
  9
$UCSORGFRONT
 10
0.0
 20
0.0
 30
0.0
  9
$UCSORGBACK
 10
0.0
 20
0.0
 30
0.0
  9
$PUCSBASE
  2

  9
$PUCSNAME
  2

  9
$PUCSORG
 10
0.0
 20
0.0
 30
0.0
  9
$PUCSXDIR
 10
1.0
 20
0.0
 30
0.0
  9
$PUCSYDIR
 10
0.0
 20
1.0
 30
0.0
  9
$PUCSORTHOREF
  2

  9
$PUCSORTHOVIEW
 70
     0
  9
$PUCSORGTOP
 10
0.0
 20
0.0
 30
0.0
  9
$PUCSORGBOTTOM
 10
0.0
 20
0.0
 30
0.0
  9
$PUCSORGLEFT
 10
0.0
 20
0.0
 30
0.0
  9
$PUCSORGRIGHT
 10
0.0
 20
0.0
 30
0.0
  9
$PUCSORGFRONT
 10
0.0
 20
0.0
 30
0.0
  9
$PUCSORGBACK
 10
0.0
 20
0.0
 30
0.0
  9
$USERI1
 70
     0
  9
$USERI2
 70
     0
  9
$USERI3
 70
     0
  9
$USERI4
 70
     0
  9
$USERI5
 70
     0
  9
$USERR1
 40
0.0
  9
$USERR2
 40
0.0
  9
$USERR3
 40
0.0
  9
$USERR4
 40
0.0
  9
$USERR5
 40
0.0
  9
$WORLDVIEW
 70
     1
  9
$SHADEDGE
 70
     3
  9
$SHADEDIF
 70
    70
  9
$TILEMODE
 70
     1
  9
$MAXACTVP
 70
    64
  9
$PINSBASE
 10
0.0
 20
0.0
 30
0.0
  9
$PLIMCHECK
 70
     0
  9
$PEXTMIN
 10
1.000000000000000E+20
 20
1.000000000000000E+20
 30
1.000000000000000E+20
  9
$PEXTMAX
 10
-1.000000000000000E+20
 20
-1.000000000000000E+20
 30
-1.000000000000000E+20
  9
$PLIMMIN
 10
0.0
 20
0.0
  9
$PLIMMAX
 10
420.0
 20
297.0
  9
$UNITMODE
 70
     0
  9
$VISRETAIN
 70
     1
  9
$PLINEGEN
 70
     0
  9
$PSLTSCALE
 70
     1
  9
$TREEDEPTH
 70
  3020
  9
$CMLSTYLE
  2
Standard
  9
$CMLJUST
 70
     0
  9
$CMLSCALE
 40
20.0
  9
$PROXYGRAPHICS
 70
     1
  9
$MEASUREMENT
 70
     1
  9
$CELWEIGHT
370
    -1
  9
$ENDCAPS
280
     0
  9
$JOINSTYLE
280
     0
  9
$LWDISPLAY
290
     0
  9
$INSUNITS
 70
     4
  9
$HYPERLINKBASE
  1

  9
$STYLESHEET
  1

  9
$XEDIT
290
     1
  9
$CEPSNTYPE
380
     0
  9
$PSTYLEMODE
290
     1
  9
$FINGERPRINTGUID
  2
{D83E5A67-E228-46BB-B08D-0DCF66CD08DE}
  9
$VERSIONGUID
  2
{FAEB1C32-E019-11D5-929B-00C0DF256EC4}
  9
$EXTNAMES
290
     1
  9
$PSVPSCALE
 40
0.0
  9
$OLESTARTUP
290
     0
  9
$SORTENTS
280
   127
  9
$INDEXCTL
280
     0
  9
$HIDETEXT
280
     1
  9
$XCLIPFRAME
280
     2
  9
$HALOGAP
280
     0
  9
$OBSCOLOR
 70
   257
  9
$OBSLTYPE
280
     0
  9
$INTERSECTIONDISPLAY
280
     0
  9
$INTERSECTIONCOLOR
 70
   257
  9
$DIMASSOC
280
     2
  9
$PROJECTNAME
  1

  9
$CAMERADISPLAY
290
     0
  9
$LENSLENGTH
 40
50.0
  9
$CAMERAHEIGHT
 40
0.0
  9
$STEPSPERSEC
 40
2.0
  9
$STEPSIZE
 40
6.0
  9
$3DDWFPREC
 40
2.0
  9
$PSOLWIDTH
 40
5.0
  9
$PSOLHEIGHT
 40
80.0
  9
$LOFTANG1
 40
1.570796326794897
  9
$LOFTANG2
 40
1.570796326794897
  9
$LOFTMAG1
 40
0.0
  9
$LOFTMAG2
 40
0.0
  9
$LOFTPARAM
 70
     7
  9
$LOFTNORMALS
280
     1
  9
$LATITUDE
 40
37.795
  9
$LONGITUDE
 40
-122.394
  9
$NORTHDIRECTION
 40
0.0
  9
$TIMEZONE
 70
 -8000
  9
$LIGHTGLYPHDISPLAY
280
     1
  9
$TILEMODELIGHTSYNCH
280
     1
  9
$CMATERIAL
347
44
  9
$SOLIDHIST
280
     0
  9
$SHOWHIST
280
     1
  9
$DWFFRAME
280
     2
  9
$DGNFRAME
280
     2
  9
$REALWORLDSCALE
290
     1
  9
$INTERFERECOLOR
 62
   256
  9
$CSHADOW
280
     0
  9
$SHADOWPLANELOCATION
 40
0.0
  0
ENDSEC
  0
SECTION
  2
CLASSES
  0
CLASS
  1
ACDBDICTIONARYWDFLT
  2
AcDbDictionaryWithDefault
  3
ObjectDBX Classes
 90
        0
 91
        4
280
     0
281
     0
  0
CLASS
  1
VISUALSTYLE
  2
AcDbVisualStyle
  3
ObjectDBX Classes
 90
     4095
 91
        4
280
     0
281
     0
  0
CLASS
  1
MATERIAL
  2
AcDbMaterial
  3
ObjectDBX Classes
 90
     1153
 91
        4
280
     0
281
     0
  0
CLASS
  1
SCALE
  2
AcDbScale
  3
ObjectDBX Classes
 90
     1153
 91
        4
280
     0
281
     0
  0
CLASS
  1
TABLESTYLE
  2
AcDbTableStyle
  3
ObjectDBX Classes
 90
     4095
 91
        4
280
     0
281
     0
  0
CLASS
  1
MLEADERSTYLE
  2
AcDbMLeaderStyle
  3
ACDB_MLEADERSTYLE_CLASS
 90
     4095
 91
        4
280
     0
281
     0
  0
CLASS
  1
SUN
  2
AcDbSun
  3
SCENEOE
 90
     1153
 91
        4
280
     0
281
     0
  0
CLASS
  1
DICTIONARYVAR
  2
AcDbDictionaryVar
  3
ObjectDBX Classes
 90
        0
 91
        4
280
     0
281
     0
  0
CLASS
  1
CELLSTYLEMAP
  2
AcDbCellStyleMap
  3
ObjectDBX Classes
 90
     1152
 91
        4
280
     0
281
     0
  0
ENDSEC
  0
SECTION
  2
TABLES
  0
TABLE
  2
VPORT
  5
8
330
0
100
AcDbSymbolTable
 70
     1
  0
VPORT
  5
29
330
8
100
AcDbSymbolTableRecord
100
AcDbViewportTableRecord
  2
*Active
 70
     0
 10
0.0
 20
0.0
 11
1.0
 21
1.0
 12
0.0
 22
0.0
 13
0.0
 23
0.0
 14
10.0
 24
10.0
 15
10.0
 25
10.0
 16
0.0
 26
0.0
 36
1.0
 17
0.0
 27
0.0
 37
0.0
 40
1306.8
 41
1.414141414141414
 42
50.0
 43
0.0
 44
0.0
 50
0.0
 51
0.0
 71
     0
 72
 10000
 73
     1
 74
     3
 75
     0
 76
     0
 77
     0
 78
     0
281
     0
 65
     1
110
0.0
120
0.0
130
0.0
111
1.0
121
0.0
131
0.0
112
0.0
122
1.0
132
0.0
 79
     0
146
0.0
348
2F
 60
     3
 61
     5
292
     1
282
     1
141
0.0
142
0.0
 63
   250
361
6D
  0
ENDTAB
  0
TABLE
  2
LTYPE
  5
5
330
0
100
AcDbSymbolTable
 70
     3
  0
LTYPE
  5
14
330
5
100
AcDbSymbolTableRecord
100
AcDbLinetypeTableRecord
  2
ByBlock
 70
     0
  3

 72
    65
 73
     0
 40
0.0
  0
LTYPE
  5
15
330
5
100
AcDbSymbolTableRecord
100
AcDbLinetypeTableRecord
  2
ByLayer
 70
     0
  3

 72
    65
 73
     0
 40
0.0
  0
LTYPE
  5
16
330
5
100
AcDbSymbolTableRecord
100
AcDbLinetypeTableRecord
  2
Continuous
 70
     0
  3
Solid line
 72
    65
 73
     0
 40
0.0
  0
LTYPE
  5
6F
330
5
100
AcDbSymbolTableRecord
100
AcDbLinetypeTableRecord
  2
JWW_DASHED2
 70
     0
  3
--    ----    ----    ----    --
 72
    65
 73
     2
 40
3.386666666666667
 49
1.693333333333333
 74
     0
 49
-1.693333333333333
 74
     0
  0
LTYPE
  5
70
330
5
100
AcDbSymbolTableRecord
100
AcDbLinetypeTableRecord
  2
JWW_CENTER1
 70
     0
  3
-----  --  ----------  --  -----
 72
    65
 73
     4
 40
6.773333333333333
 49
4.233333333333333
 74
     0
 49
-0.8466666666666667
 74
     0
 49
0.8466666666666667
 74
     0
 49
-0.8466666666666667
 74
     0
  0
ENDTAB
  0
TABLE
  2
LAYER
  5
2
330
0
100
AcDbSymbolTable
 70
     8
  0
LAYER
  5
10
330
2
100
AcDbSymbolTableRecord
100
AcDbLayerTableRecord
  2
0
 70
     0
 62
     7
  6
Continuous
370
    -3
390
F
347
46
348
0
  0
LAYER
  5
71
330
2
100
AcDbSymbolTableRecord
100
AcDbLayerTableRecord
  2
A-1_ピット
 70
     0
 62
     7
  6
Continuous
370
    -3
390
F
347
46
348
0
  0
LAYER
  5
72
330
2
100
AcDbSymbolTableRecord
100
AcDbLayerTableRecord
  2
A-0_通り芯
 70
     0
 62
     7
  6
Continuous
370
    -3
390
F
347
46
348
0
  0
LAYER
  5
73
330
2
100
AcDbSymbolTableRecord
100
AcDbLayerTableRecord
  2
A-3_受枠
 70
     0
 62
     7
  6
Continuous
370
    -3
390
F
347
46
348
0
  0
LAYER
  5
74
330
2
100
AcDbSymbolTableRecord
100
AcDbLayerTableRecord
  2
F-Fﾚｲﾔ
 70
     0
 62
     7
  6
Continuous
370
    -3
390
F
347
46
348
0
  0
LAYER
  5
75
330
2
100
AcDbSymbolTableRecord
100
AcDbLayerTableRecord
  2
A-F
 70
     0
 62
     7
  6
Continuous
370
    -3
390
F
347
46
348
0
  0
LAYER
  5
76
330
2
100
AcDbSymbolTableRecord
100
AcDbLayerTableRecord
  2
A-5_仕様文
 70
     0
 62
     7
  6
Continuous
370
    -3
390
F
347
46
348
0
  0
LAYER
  5
77
330
2
100
AcDbSymbolTableRecord
100
AcDbLayerTableRecord
  2
A-4_寸法
 70
     0
 62
     7
  6
Continuous
370
    -3
390
F
347
46
348
0
  0
ENDTAB
  0
TABLE
  2
STYLE
  5
3
330
0
100
AcDbSymbolTable
 70
     2
  0
STYLE
  5
11
330
3
100
AcDbSymbolTableRecord
100
AcDbTextStyleTableRecord
  2
Standard
 70
     0
 40
0.0
 41
1.0
 50
0.0
 71
     0
 42
2.5
  3
txt
  4

  0
STYLE
  5
6E
330
3
100
AcDbSymbolTableRecord
100
AcDbTextStyleTableRecord
  2
ＭＳ ゴシック
 70
     0
 40
1.0
 41
1.0
 50
0.0
 71
     0
 42
2.5
  3

  4

1001
ACAD
1000
MS Gothic
1071
    32817
  0
ENDTAB
  0
TABLE
  2
VIEW
  5
6
330
0
100
AcDbSymbolTable
 70
     0
  0
ENDTAB
  0
TABLE
  2
UCS
  5
7
330
0
100
AcDbSymbolTable
 70
     0
  0
ENDTAB
  0
TABLE
  2
APPID
  5
9
330
0
100
AcDbSymbolTable
 70
     1
  0
APPID
  5
12
330
9
100
AcDbSymbolTableRecord
100
AcDbRegAppTableRecord
  2
ACAD
 70
     0
  0
ENDTAB
  0
TABLE
  2
DIMSTYLE
  5
A
330
0
100
AcDbSymbolTable
 70
     1
100
AcDbDimStyleTable
  0
DIMSTYLE
105
27
330
A
100
AcDbSymbolTableRecord
100
AcDbDimStyleTableRecord
  2
ISO-25
 70
     0
 41
2.5
 42
0.625
 43
3.75
 44
1.25
 73
     0
 74
     0
 77
     1
 78
     8
140
2.5
141
2.5
143
0.03937007874016
147
0.625
171
     3
172
     1
178
     0
271
     2
272
     2
274
     3
278
    44
283
     0
284
     8
340
11
  0
ENDTAB
  0
TABLE
  2
BLOCK_RECORD
  5
1
330
0
100
AcDbSymbolTable
 70
     1
  0
BLOCK_RECORD
  5
1F
330
1
100
AcDbSymbolTableRecord
100
AcDbBlockTableRecord
  2
*Model_Space
340
22
 70
     0
280
     1
281
     0
  0
BLOCK_RECORD
  5
1B
330
1
100
AcDbSymbolTableRecord
100
AcDbBlockTableRecord
  2
*Paper_Space
340
1E
 70
     0
280
     1
281
     0
  0
BLOCK_RECORD
  5
23
330
1
100
AcDbSymbolTableRecord
100
AcDbBlockTableRecord
  2
*Paper_Space0
340
26
 70
     0
280
     1
281
     0
  0
ENDTAB
  0
ENDSEC
  0
SECTION
  2
BLOCKS
  0
BLOCK
  5
20
330
1F
100
AcDbEntity
  8
0
100
AcDbBlockBegin
  2
*Model_Space
 70
     0
 10
0.0
 20
0.0
 30
0.0
  3
*Model_Space
  1

  0
ENDBLK
  5
21
330
1F
100
AcDbEntity
  8
0
100
AcDbBlockEnd
  0
BLOCK
  5
1C
330
1B
100
AcDbEntity
 67
     1
  8
0
100
AcDbBlockBegin
  2
*Paper_Space
 70
     0
 10
0.0
 20
0.0
 30
0.0
  3
*Paper_Space
  1

  0
ENDBLK
  5
1D
330
1B
100
AcDbEntity
 67
     1
  8
0
100
AcDbBlockEnd
  0
BLOCK
  5
24
330
23
100
AcDbEntity
  8
0
100
AcDbBlockBegin
  2
*Paper_Space0
 70
     0
 10
0.0
 20
0.0
 30
0.0
  3
*Paper_Space0
  1

  0
ENDBLK
  5
25
330
23
100
AcDbEntity
  8
0
100
AcDbBlockEnd
  0
ENDSEC
  0
SECTION
  2
ENTITIES
  0
LINE
  5
78
330
1F
100
AcDbEntity
  8
A-1_ピット
  6
Continuous
 62
     2
370
     9
100
AcDbLine
 10
212.6095371520491
 20
305.4631441503784
 30
0.0
 11
212.6095371520491
 21
308.663134912625
 31
0.0
  0
LINE
  5
79
330
1F
100
AcDbEntity
  8
A-1_ピット
  6
Continuous
 62
     2
370
     9
100
AcDbLine
 10
260.8094289383669
 20
322.6630821254628
 30
0.0
 11
260.8094289383669
 21
337.6631811013919
 31
0.0
  0
LINE
  5
7A
330
1F
100
AcDbEntity
  8
A-1_ピット
  6
Continuous
 62
     2
370
     9
100
AcDbLine
 10
269.809409143181
 20
322.6630821254628
 30
0.0
 11
269.809409143181
 21
337.6631811013919
 31
0.0
  0
LINE
  5
7B
330
1F
100
AcDbEntity
  8
A-1_ピット
  6
Continuous
 62
     2
370
     9
100
AcDbLine
 10
269.809409143181
 20
337.6631811013919
 30
0.0
 11
260.8094289383669
 21
337.6631811013919
 31
0.0
  0
LINE
  5
7C
330
1F
100
AcDbEntity
  8
A-1_ピット
  6
Continuous
 62
     2
370
     9
100
AcDbLine
 10
255.8095609062723
 20
317.6631151174392
 30
0.0
 11
230.8094289383669
 21
317.6631151174392
 31
0.0
  0
LINE
  5
7D
330
1F
100
AcDbEntity
  8
A-1_ピット
  6
Continuous
 62
     2
370
     9
100
AcDbLine
 10
255.8095609062723
 20
308.663134912625
 30
0.0
 11
212.6095371520491
 21
308.663134912625
 31
0.0
  0
LINE
  5
7E
330
1F
100
AcDbEntity
  8
A-1_ピット
  6
Continuous
 62
     2
370
     9
100
AcDbLine
 10
230.8094289383669
 20
308.663134912625
 30
0.0
 11
230.8094289383669
 21
317.6631151174392
 31
0.0
  0
LINE
  5
7F
330
1F
100
AcDbEntity
  8
A-1_ピット
  6
Continuous
 62
     2
370
     9
100
AcDbLine
 10
240.8094619303431
 20
302.463084764821
 30
0.0
 11
240.8094619303431
 21
278.4632035359359
 31
0.0
  0
LINE
  5
80
330
1F
100
AcDbEntity
  8
A-0_通り芯
  6
Continuous
 62
     3
370
     9
100
AcDbLine
 10
-482.5905096965572
 20
-205.7367905255085
 30
0.0
 11
-481.5905063973595
 21
-210.7366090696385
 31
0.0
  0
LINE
  5
81
330
1F
100
AcDbEntity
  8
A-0_通り芯
  6
Continuous
 62
     3
370
     9
100
AcDbLine
 10
-482.5905096965572
 20
-205.7367905255085
 30
0.0
 11
-375.8827295286941
 21
-205.7367905255085
 31
0.0
  0
LINE
  5
82
330
1F
100
AcDbEntity
  8
A-0_通り芯
  6
Continuous
 62
     3
370
     9
100
AcDbLine
 10
-481.4614912738376
 20
-210.7366090696385
 30
0.0
 11
-481.5905063973595
 21
-210.7366090696385
 31
0.0
  0
LINE
  5
83
330
1F
100
AcDbEntity
  8
A-0_通り芯
  6
Continuous
 62
     3
370
     9
100
AcDbLine
 10
-481.9012908145893
 20
-203.3246481585321
 30
0.0
 11
-482.5905096965572
 21
-205.7367905255085
 31
0.0
  0
LINE
  5
84
330
1F
100
AcDbEntity
  8
A-0_通り芯
  6
Continuous
 62
     3
370
     9
100
AcDbLine
 10
-478.6837318249356
 20
-224.3363966013109
 30
0.0
 11
-479.4659880802143
 21
-212.6037404832787
 31
0.0
  0
LINE
  5
85
330
1F
100
AcDbEntity
  8
A-0_通り芯
  6
Continuous
 62
     3
370
     9
100
AcDbLine
 10
-432.7726089100285
 20
-210.7076091224257
 30
0.0
 11
-429.0882794389559
 21
-224.585716966598
 31
0.0
  0
LINE
  5
86
330
1F
100
AcDbEntity
  8
A-0_通り芯
  6
Continuous
 62
     3
370
     9
100
AcDbLine
 10
-396.4082092320302
 20
-210.7076091224257
 30
0.0
 11
-400.0927366549609
 21
-224.585716966598
 31
0.0
  0
LINE
  5
87
330
1F
100
AcDbEntity
  8
A-0_通り芯
  6
Continuous
 62
     3
370
     9
100
AcDbLine
 10
-481.5905063973595
 20
-29.28680966085478
 30
0.0
 11
-481.5905063973595
 21
-44.03674697609967
 31
0.0
  0
LINE
  5
88
330
1F
100
AcDbEntity
  8
A-0_通り芯
  6
Continuous
 62
     3
370
     9
100
AcDbLine
 10
-482.5903117446991
 20
-45.03684925122639
 30
0.0
 11
-482.5903117446991
 21
301.9632563230979
 31
0.0
  0
LINE
  5
89
330
1F
100
AcDbEntity
  8
A-0_通り芯
  6
Continuous
 62
     3
370
     9
100
AcDbLine
 10
-481.5905063973595
 20
-16.28681625924998
 30
0.0
 11
-481.5905063973595
 21
-1.78684265283114
 31
0.0
  0
LINE
  5
8A
330
1F
100
AcDbEntity
  8
A-0_通り芯
  6
Continuous
 62
     3
370
     9
100
AcDbLine
 10
-481.5905063973595
 20
11.2132992126672
 30
0.0
 11
-481.5905063973595
 21
25.71312435519251
 31
0.0
  0
LINE
  5
8B
330
1F
100
AcDbEntity
  8
A-0_通り芯
  6
Continuous
 62
     3
370
     9
100
AcDbLine
 10
-481.5905063973595
 20
38.71326622069084
 30
0.0
 11
-481.5905063973595
 21
53.2132398271098
 31
0.0
  0
LINE
  5
8C
330
1F
100
AcDbEntity
  8
A-0_通り芯
  6
Continuous
 62
     3
370
     9
100
AcDbLine
 10
-481.5905063973595
 20
66.21323322871449
 30
0.0
 11
-481.5905063973595
 21
80.71320683513345
 31
0.0
  0
LINE
  5
8D
330
1F
100
AcDbEntity
  8
A-0_通り芯
  6
Continuous
 62
     3
370
     9
100
AcDbLine
 10
-481.5905063973595
 20
93.71320023673813
 30
0.0
 11
-481.5905063973595
 21
108.2131738431571
 31
0.0
  0
LINE
  5
8E
330
1F
100
AcDbEntity
  8
A-0_通り芯
  6
Continuous
 62
     3
370
     9
100
AcDbLine
 10
-462.5904437126045
 20
-26.78672718091384
 30
0.0
 11
-462.5904437126045
 21
-18.78675027529727
 31
0.0
  0
LINE
  5
8F
330
1F
100
AcDbEntity
  8
A-0_通り芯
  6
Continuous
 62
     3
370
     9
100
AcDbLine
 10
-346.990468126667
 20
-26.78672718091384
 30
0.0
 11
-346.990468126667
 21
-18.78675027529727
 31
0.0
  0
LINE
  5
90
330
1F
100
AcDbEntity
  8
A-0_通り芯
  6
Continuous
 62
     3
370
     9
100
AcDbLine
 10
-366.9903856467262
 20
-26.78672718091384
 30
0.0
 11
-366.9903856467262
 21
-18.78675027529727
 31
0.0
  0
LINE
  5
91
330
1F
100
AcDbEntity
  8
A-0_通り芯
  6
Continuous
 62
     3
370
     9
100
AcDbLine
 10
-462.5904437126045
 20
0.7132398271098026
 30
0.0
 11
-462.5904437126045
 21
8.713216732726366
 31
0.0
  0
LINE
  5
92
330
1F
100
AcDbEntity
  8
A-0_通り芯
  6
Continuous
 62
     3
370
     9
100
AcDbLine
 10
-346.990468126667
 20
0.7132398271098026
 30
0.0
 11
-346.990468126667
 21
8.713216732726366
 31
0.0
  0
LINE
  5
93
330
1F
100
AcDbEntity
  8
A-0_通り芯
  6
Continuous
 62
     3
370
     9
100
AcDbLine
 10
-366.9903856467262
 20
0.7132398271098026
 30
0.0
 11
-366.9903856467262
 21
8.713216732726366
 31
0.0
  0
LINE
  5
94
330
1F
100
AcDbEntity
  8
A-0_通り芯
  6
Continuous
 62
     3
370
     9
100
AcDbLine
 10
-462.5904437126045
 20
28.21320683513345
 30
0.0
 11
-462.5904437126045
 21
36.21318374075001
 31
0.0
  0
LINE
  5
95
330
1F
100
AcDbEntity
  8
A-0_通り芯
  6
Continuous
 62
     3
370
     9
100
AcDbLine
 10
-346.990468126667
 20
28.21320683513345
 30
0.0
 11
-346.990468126667
 21
36.21318374075001
 31
0.0
  0
LINE
  5
96
330
1F
100
AcDbEntity
  8
A-0_通り芯
  6
Continuous
 62
     3
370
     9
100
AcDbLine
 10
-366.9903856467262
 20
28.21320683513345
 30
0.0
 11
-366.9903856467262
 21
36.21318374075001
 31
0.0
  0
LINE
  5
97
330
1F
100
AcDbEntity
  8
A-0_通り芯
  6
Continuous
 62
     3
370
     9
100
AcDbLine
 10
-462.5904437126045
 20
55.71322333112157
 30
0.0
 11
-462.5904437126045
 21
63.71320023673813
 31
0.0
  0
LINE
  5
98
330
1F
100
AcDbEntity
  8
A-0_通り芯
  6
Continuous
 62
     3
370
     9
100
AcDbLine
 10
-346.990468126667
 20
55.71322333112157
 30
0.0
 11
-346.990468126667
 21
63.71320023673813
 31
0.0
  0
LINE
  5
99
330
1F
100
AcDbEntity
  8
A-0_通り芯
  6
Continuous
 62
     3
370
     9
100
AcDbLine
 10
-366.9903856467262
 20
55.71322333112157
 30
0.0
 11
-366.9903856467262
 21
63.71320023673813
 31
0.0
  0
LINE
  5
9A
330
1F
100
AcDbEntity
  8
A-0_通り芯
  6
Continuous
 62
     3
370
     9
100
AcDbLine
 10
-462.5904437126045
 20
83.21319033914521
 30
0.0
 11
-462.5904437126045
 21
91.21316724476178
 31
0.0
  0
LINE
  5
9B
330
1F
100
AcDbEntity
  8
A-0_通り芯
  6
Continuous
 62
     3
370
     9
100
AcDbLine
 10
-346.990468126667
 20
83.21319033914521
 30
0.0
 11
-346.990468126667
 21
91.21316724476178
 31
0.0
  0
LINE
  5
9C
330
1F
100
AcDbEntity
  8
A-0_通り芯
  6
Continuous
 62
     3
370
     9
100
AcDbLine
 10
-366.9903856467262
 20
83.21319033914521
 30
0.0
 11
-366.9903856467262
 21
91.21316724476178
 31
0.0
  0
LINE
  5
9D
330
1F
100
AcDbEntity
  8
A-0_通り芯
  6
Continuous
 62
     3
370
     9
100
AcDbLine
 10
-462.5904437126045
 20
110.7133058110625
 30
0.0
 11
-462.5904437126045
 21
118.71318374075
 31
0.0
  0
LINE
  5
9E
330
1F
100
AcDbEntity
  8
A-0_通り芯
  6
Continuous
 62
     3
370
     9
100
AcDbLine
 10
-346.990468126667
 20
110.7133058110625
 30
0.0
 11
-346.990468126667
 21
118.71318374075
 31
0.0
  0
LINE
  5
9F
330
1F
100
AcDbEntity
  8
A-0_通り芯
  6
Continuous
 62
     3
370
     9
100
AcDbLine
 10
-366.9903856467262
 20
110.7133058110625
 30
0.0
 11
-366.9903856467262
 21
118.71318374075
 31
0.0
  0
LINE
  5
A0
330
1F
100
AcDbEntity
  8
A-0_通り芯
  6
Continuous
 62
     3
370
     9
100
AcDbLine
 10
214.1096163327925
 20
-16.6553531310828
 30
0.0
 11
214.1096163327925
 21
-1.418256293033849
 31
0.0
  0
LINE
  5
A1
330
1F
100
AcDbEntity
  8
A-0_通り芯
  6
Continuous
 62
     3
370
     9
100
AcDbLine
 10
215.1974607690256
 20
-18.09777883315207
 30
0.0
 11
217.6095041600729
 21
-18.78679976326186
 31
0.0
  0
LINE
  5
A2
330
1F
100
AcDbEntity
  8
A-0_通り芯
  6
Continuous
 62
     3
370
     9
100
AcDbLine
 10
213.2776246731642
 20
-2.591516956040621
 30
0.0
 11
214.1096163327925
 21
-2.036855849621659
 31
0.0
  0
LINE
  5
A3
330
1F
100
AcDbEntity
  8
A-0_通り芯
  6
Continuous
 62
     3
370
     9
100
AcDbLine
 10
212.6095371520491
 20
-14.23410497863343
 30
0.0
 11
212.6095371520491
 21
-3.839603421412178
 31
0.0
  0
LINE
  5
A4
330
1F
100
AcDbEntity
  8
A-0_通り芯
  6
Continuous
 62
     3
370
     9
100
AcDbLine
 10
213.2776246731642
 20
-15.4821914440051
 30
0.0
 11
214.1096163327925
 21
-16.03675357449499
 31
0.0
  0
LINE
  5
A5
330
1F
100
AcDbEntity
  8
A-0_通り芯
  6
Continuous
 62
     3
370
     9
100
AcDbLine
 10
215.1974607690256
 20
27.52403744113001
 30
0.0
 11
217.6095041600729
 21
28.21315734716886
 31
0.0
  0
LINE
  5
A6
330
1F
100
AcDbEntity
  8
A-0_通り芯
  6
Continuous
 62
     3
370
     9
100
AcDbLine
 10
214.1096163327925
 20
10.84461387694084
 30
0.0
 11
214.1096163327925
 21
26.0817107149898
 31
0.0
  0
LINE
  5
A7
330
1F
100
AcDbEntity
  8
A-0_通り芯
  6
Continuous
 62
     3
370
     9
100
AcDbLine
 10
215.1974607690256
 20
9.402287150800632
 30
0.0
 11
217.6095041600729
 21
8.713167244761777
 31
0.0
  0
LINE
  5
A8
330
1F
100
AcDbEntity
  8
A-0_通り芯
  6
Continuous
 62
     3
370
     9
100
AcDbLine
 10
213.2776246731642
 20
24.90845005198302
 30
0.0
 11
214.1096163327925
 21
25.46321013433105
 31
0.0
  0
LINE
  5
A9
330
1F
100
AcDbEntity
  8
A-0_通り芯
  6
Continuous
 62
     3
370
     9
100
AcDbLine
 10
212.6095371520491
 20
13.26586202939022
 30
0.0
 11
212.6095371520491
 21
23.66036358661147
 31
0.0
  0
LINE
  5
AA
330
1F
100
AcDbEntity
  8
A-0_通り芯
  6
Continuous
 62
     3
370
     9
100
AcDbLine
 10
213.2776246731642
 20
12.01777556401855
 30
0.0
 11
214.1096163327925
 21
11.46321343352865
 31
0.0
  0
LINE
  5
AB
330
1F
100
AcDbEntity
  8
A-0_通り芯
  6
Continuous
 62
     3
370
     9
100
AcDbLine
 10
215.1974607690256
 20
55.02400444915365
 30
0.0
 11
217.6095041600729
 21
55.71317384315709
 31
0.0
  0
LINE
  5
AC
330
1F
100
AcDbEntity
  8
A-0_通り芯
  6
Continuous
 62
     3
370
     9
100
AcDbLine
 10
214.1096163327925
 20
38.34467986089355
 30
0.0
 11
214.1096163327925
 21
53.58172721097803
 31
0.0
  0
LINE
  5
AD
330
1F
100
AcDbEntity
  8
A-0_通り芯
  6
Continuous
 62
     3
370
     9
100
AcDbLine
 10
215.1974607690256
 20
36.90235313475334
 30
0.0
 11
217.6095041600729
 21
36.21313425278542
 31
0.0
  0
LINE
  5
AE
330
1F
100
AcDbEntity
  8
A-0_通り芯
  6
Continuous
 62
     3
370
     9
100
AcDbLine
 10
213.2776246731642
 20
52.40841706000667
 30
0.0
 11
214.1096163327925
 21
52.9631771423547
 31
0.0
  0
LINE
  5
AF
330
1F
100
AcDbEntity
  8
A-0_通り芯
  6
Continuous
 62
     3
370
     9
100
AcDbLine
 10
212.6095371520491
 20
40.76587852537834
 30
0.0
 11
212.6095371520491
 21
51.16033059463511
 31
0.0
  0
LINE
  5
B0
330
1F
100
AcDbEntity
  8
A-0_通り芯
  6
Continuous
 62
     3
370
     9
100
AcDbLine
 10
213.2776246731642
 20
39.51779206000667
 30
0.0
 11
214.1096163327925
 21
38.9631804415523
 31
0.0
  0
LINE
  5
B1
330
1F
100
AcDbEntity
  8
A-0_通り芯
  6
Continuous
 62
     3
370
     9
100
AcDbLine
 10
215.1974607690256
 20
82.5239714571773
 30
0.0
 11
217.6095041600729
 21
83.21314085118074
 31
0.0
  0
LINE
  5
B2
330
1F
100
AcDbEntity
  8
A-0_通り芯
  6
Continuous
 62
     3
370
     9
100
AcDbLine
 10
214.1096163327925
 20
65.84454789298813
 30
0.0
 11
214.1096163327925
 21
81.08169421900168
 31
0.0
  0
LINE
  5
B3
330
1F
100
AcDbEntity
  8
A-0_通り芯
  6
Continuous
 62
     3
370
     9
100
AcDbLine
 10
215.1974607690256
 20
64.40232014277699
 30
0.0
 11
217.6095041600729
 21
63.71315074877366
 31
0.0
  0
LINE
  5
B4
330
1F
100
AcDbEntity
  8
A-0_通り芯
  6
Continuous
 62
     3
370
     9
100
AcDbLine
 10
213.2776246731642
 20
79.90853253192397
 30
0.0
 11
214.1096163327925
 21
80.46314415037834
 31
0.0
  0
LINE
  5
B5
330
1F
100
AcDbEntity
  8
A-0_通り芯
  6
Continuous
 62
     3
370
     9
100
AcDbLine
 10
212.6095371520491
 20
68.26599399729552
 30
0.0
 11
212.6095371520491
 21
78.66029760265876
 31
0.0
  0
LINE
  5
B6
330
1F
100
AcDbEntity
  8
A-0_通り芯
  6
Continuous
 62
     3
370
     9
100
AcDbLine
 10
213.2776246731642
 20
67.01790753192397
 30
0.0
 11
214.1096163327925
 21
66.46314744957594
 31
0.0
  0
LINE
  5
B7
330
1F
100
AcDbEntity
  8
A-0_通り芯
  6
Continuous
 62
     3
370
     9
100
AcDbLine
 10
215.1974607690256
 20
110.0239879531655
 30
0.0
 11
217.6095041600729
 21
110.7131573471689
 31
0.0
  0
LINE
  5
B8
330
1F
100
AcDbEntity
  8
A-0_通り芯
  6
Continuous
 62
     3
370
     9
100
AcDbLine
 10
214.1096163327925
 20
93.34461387694084
 30
0.0
 11
214.1096163327925
 21
108.5817107149898
 31
0.0
  0
LINE
  5
B9
330
1F
100
AcDbEntity
  8
A-0_通り芯
  6
Continuous
 62
     3
370
     9
100
AcDbLine
 10
215.1974607690256
 20
91.90243561469428
 30
0.0
 11
217.6095041600729
 21
91.2131177567973
 31
0.0
  0
LINE
  5
BA
330
1F
100
AcDbEntity
  8
A-0_通り芯
  6
Continuous
 62
     3
370
     9
100
AcDbLine
 10
213.2776246731642
 20
107.4084995399476
 30
0.0
 11
214.1096163327925
 21
107.9632596222955
 31
0.0
  0
LINE
  5
BB
330
1F
100
AcDbEntity
  8
A-0_通り芯
  6
Continuous
 62
     3
370
     9
100
AcDbLine
 10
212.6095371520491
 20
95.76596100531928
 30
0.0
 11
212.6095371520491
 21
106.1604130745759
 31
0.0
  0
LINE
  5
BC
330
1F
100
AcDbEntity
  8
A-0_通り芯
  6
Continuous
 62
     3
370
     9
100
AcDbLine
 10
213.2776246731642
 20
94.51787453994761
 30
0.0
 11
214.1096163327925
 21
93.96311445759959
 31
0.0
  0
LINE
  5
BD
330
1F
100
AcDbEntity
  8
A-0_通り芯
  6
Continuous
 62
     3
370
     9
100
AcDbLine
 10
215.1974607690256
 20
119.4023531347534
 30
0.0
 11
217.6095041600729
 21
118.713084764821
 31
0.0
  0
LINE
  5
BE
330
1F
100
AcDbEntity
  8
A-0_通り芯
  6
Continuous
 62
     3
370
     9
100
AcDbLine
 10
213.2776246731642
 20
122.0178910359357
 30
0.0
 11
214.1096163327925
 21
121.4631309535878
 31
0.0
  0
LINE
  5
BF
330
1F
100
AcDbEntity
  8
A-0_通り芯
  6
Continuous
 62
     3
370
     9
100
AcDbLine
 10
217.6095041600729
 20
10.00381335962668
 30
0.0
 11
217.6095041600729
 21
-0.5774557757196845
 31
0.0
  0
LINE
  5
C0
330
1F
100
AcDbEntity
  8
A-0_通り芯
  6
Continuous
 62
     3
370
     9
100
AcDbLine
 10
247.6096031360019
 20
125.8664710612737
 30
0.0
 11
247.6096031360019
 21
131.0597380587398
 31
0.0
  0
LINE
  5
C1
330
1F
100
AcDbEntity
  8
A-0_通り芯
  6
Continuous
 62
     3
370
     9
100
AcDbLine
 10
247.6096031360019
 20
70.8664380692973
 30
0.0
 11
247.6096031360019
 21
76.05990301862157
 31
0.0
  0
LINE
  5
C2
330
1F
100
AcDbEntity
  8
A-0_通り芯
  6
Continuous
 62
     3
370
     9
100
AcDbLine
 10
217.6095041600729
 20
64.98108188792052
 30
0.0
 11
217.6095041600729
 21
54.42257721625667
 31
0.0
  0
LINE
  5
C3
330
1F
100
AcDbEntity
  8
A-0_通り芯
  6
Continuous
 62
     3
370
     9
100
AcDbLine
 10
217.6095041600729
 20
82.26985075933105
 30
0.0
 11
217.6095041600729
 21
92.50371438369761
 31
0.0
  0
LINE
  5
C4
330
1F
100
AcDbEntity
  8
A-0_通り芯
  6
Continuous
 62
     3
370
     9
100
AcDbLine
 10
217.6095041600729
 20
120.0037308796857
 30
0.0
 11
217.6095041600729
 21
109.4226596961976
 31
0.0
  0
LINE
  5
C5
330
1F
100
AcDbEntity
  8
A-0_通り芯
  6
Continuous
 62
     3
370
     9
100
AcDbLine
 10
217.6095041600729
 20
-17.49615364839696
 30
0.0
 11
217.6095041600729
 21
-26.6618195584477
 31
0.0
  0
LINE
  5
C6
330
1F
100
AcDbEntity
  8
A-0_通り芯
  6
Continuous
 62
     3
370
     9
100
AcDbLine
 10
237.6095701440256
 20
123.7964884810371
 30
0.0
 11
246.2093906676741
 21
124.3697570621183
 31
0.0
  0
LINE
  5
C7
330
1F
100
AcDbEntity
  8
A-0_通り芯
  6
JWW_DASHED2
 62
     3
370
     9
100
AcDbLine
 10
237.6095701440256
 20
123.7973792643987
 30
0.0
 11
237.6095701440256
 21
133.0341098915101
 31
0.0
  0
LINE
  5
C8
330
1F
100
AcDbEntity
  8
A-0_通り芯
  6
Continuous
 62
     3
370
     9
100
AcDbLine
 10
220.4099290967283
 20
67.65016576672126
 30
0.0
 11
246.2093906676741
 21
69.36972407014188
 31
0.0
  0
LINE
  5
C9
330
1F
100
AcDbEntity
  8
A-0_通り芯
  6
Continuous
 62
     3
370
     9
100
AcDbLine
 10
242.2768790544985
 20
77.81865578994761
 30
0.0
 11
246.2093906676741
 21
77.55661701777699
 31
0.0
  0
LINE
  5
CA
330
1F
100
AcDbEntity
  8
A-0_通り芯
  6
Continuous
 62
     3
370
     9
100
AcDbLine
 10
220.4099290967283
 20
79.27657122491387
 30
0.0
 11
242.2768790544985
 21
77.81865578994761
 31
0.0
  0
LINE
  5
CB
330
1F
100
AcDbEntity
  8
A-0_通り芯
  6
Continuous
 62
     3
370
     9
100
AcDbLine
 10
222.6095701440256
 20
-12.80716900946113
 30
0.0
 11
222.6095701440256
 21
-5.26653939058447
 31
0.0
  0
LINE
  5
CC
330
1F
100
AcDbEntity
  8
A-0_通り芯
  6
Continuous
 62
     3
370
     9
100
AcDbLine
 10
220.0211516474039
 20
-14.55449006098145
 30
0.0
 11
221.40374640036
 21
-14.27809977909801
 31
0.0
  0
LINE
  5
CD
330
1F
100
AcDbEntity
  8
A-0_通り芯
  6
Continuous
 62
     3
370
     9
100
AcDbLine
 10
220.0211516474039
 20
-3.519168851099678
 30
0.0
 11
221.40374640036
 21
-3.795658108912178
 31
0.0
  0
LINE
  5
CE
330
1F
100
AcDbEntity
  8
A-0_通り芯
  6
Continuous
 62
     3
370
     9
100
AcDbLine
 10
215.1974607690256
 20
0.0240704331063597
 30
0.0
 11
217.6095041600729
 21
0.7131903391452141
 31
0.0
  0
LINE
  5
CF
330
1F
100
AcDbEntity
  8
A-0_通り芯
  6
Continuous
 62
     3
370
     9
100
AcDbLine
 10
222.6095701440256
 20
22.23342761743918
 30
0.0
 11
222.6095701440256
 21
14.69279799856251
 31
0.0
  0
LINE
  5
D0
330
1F
100
AcDbEntity
  8
A-0_通り芯
  6
Continuous
 62
     3
370
     9
100
AcDbLine
 10
220.0211516474039
 20
23.98079815692397
 30
0.0
 11
221.40374640036
 21
23.70435838707594
 31
0.0
  0
LINE
  5
D1
330
1F
100
AcDbEntity
  8
A-0_通り芯
  6
Continuous
 62
     3
370
     9
100
AcDbLine
 10
222.6095701440256
 20
49.73339462546282
 30
0.0
 11
222.6095701440256
 21
42.19286398251522
 31
0.0
  0
LINE
  5
D2
330
1F
100
AcDbEntity
  8
A-0_通り芯
  6
Continuous
 62
     3
370
     9
100
AcDbLine
 10
220.0211516474039
 20
40.44549344303043
 30
0.0
 11
221.40374640036
 21
40.72198270084293
 31
0.0
  0
LINE
  5
D3
330
1F
100
AcDbEntity
  8
A-0_通り芯
  6
Continuous
 62
     3
370
     9
100
AcDbLine
 10
220.0211516474039
 20
51.48081465291209
 30
0.0
 11
221.40374640036
 21
51.20437488306418
 31
0.0
  0
LINE
  5
D4
330
1F
100
AcDbEntity
  8
A-0_通り芯
  6
Continuous
 62
     3
370
     9
100
AcDbLine
 10
217.6095041600729
 20
26.82111039298813
 30
0.0
 11
217.6095041600729
 21
37.50378036765032
 31
0.0
  0
LINE
  5
D5
330
1F
100
AcDbEntity
  8
A-0_通り芯
  6
Continuous
 62
     3
370
     9
100
AcDbLine
 10
222.6095701440256
 20
104.7334276174392
 30
0.0
 11
222.6095701440256
 21
97.19284748652699
 31
0.0
  0
LINE
  5
D6
330
1F
100
AcDbEntity
  8
A-0_通り芯
  6
Continuous
 62
     3
370
     9
100
AcDbLine
 10
220.0211516474039
 20
95.44552643500678
 30
0.0
 11
221.40374640036
 21
95.7219662048547
 31
0.0
  0
LINE
  5
D7
330
1F
100
AcDbEntity
  8
A-0_通り芯
  6
Continuous
 62
     3
370
     9
100
AcDbLine
 10
220.0211516474039
 20
106.4808476448884
 30
0.0
 11
221.40374640036
 21
106.2043088991115
 31
0.0
  0
LINE
  5
D8
330
1F
100
AcDbEntity
  8
A-0_通り芯
  6
Continuous
 62
     3
370
     9
100
AcDbLine
 10
220.0211516474039
 20
122.9454934430304
 30
0.0
 11
221.40374640036
 21
123.2220321888074
 31
0.0
  0
LINE
  5
D9
330
1F
100
AcDbEntity
  8
A-0_通り芯
  6
Continuous
 62
     3
370
     9
100
AcDbLine
 10
-480.0905261925454
 20
119.713137551983
 30
0.0
 11
-135.0903282406873
 21
119.713137551983
 31
0.0
  0
LINE
  5
DA
330
1F
100
AcDbEntity
  8
A-0_通り芯
  6
Continuous
 62
     3
370
     9
100
AcDbLine
 10
-481.0904800037785
 20
118.71318374075
 30
0.0
 11
-134.0903744294542
 21
118.71318374075
 31
0.0
  0
LINE
  5
DB
330
1F
100
AcDbEntity
  8
A-0_通り芯
  6
Continuous
 62
     3
370
     9
100
AcDbLine
 10
-480.0905261925454
 20
92.21322003192397
 30
0.0
 11
-135.0903282406873
 21
92.21322003192397
 31
0.0
  0
LINE
  5
DC
330
1F
100
AcDbEntity
  8
A-0_通り芯
  6
Continuous
 62
     3
370
     9
100
AcDbLine
 10
-481.0904800037785
 20
91.21316724476178
 30
0.0
 11
-134.0903744294542
 21
91.21316724476178
 31
0.0
  0
LINE
  5
DD
330
1F
100
AcDbEntity
  8
A-0_通り芯
  6
Continuous
 62
     3
370
     9
100
AcDbLine
 10
-480.0905261925454
 20
109.7132035359357
 30
0.0
 11
-135.0903282406873
 21
109.7132035359357
 31
0.0
  0
LINE
  5
DE
330
1F
100
AcDbEntity
  8
A-0_通り芯
  6
Continuous
 62
     3
370
     9
100
AcDbLine
 10
-481.0904800037785
 20
110.7133058110625
 30
0.0
 11
-134.0903744294542
 21
110.7133058110625
 31
0.0
  0
LINE
  5
DF
330
1F
100
AcDbEntity
  8
A-0_通り芯
  6
Continuous
 62
     3
370
     9
100
AcDbLine
 10
-480.0905261925454
 20
64.71325302390032
 30
0.0
 11
-135.0903282406873
 21
64.71325302390032
 31
0.0
  0
LINE
  5
E0
330
1F
100
AcDbEntity
  8
A-0_通り芯
  6
Continuous
 62
     3
370
     9
100
AcDbLine
 10
-481.0904800037785
 20
63.71320023673813
 30
0.0
 11
-134.0903744294542
 21
63.71320023673813
 31
0.0
  0
LINE
  5
E1
330
1F
100
AcDbEntity
  8
A-0_通り芯
  6
Continuous
 62
     3
370
     9
100
AcDbLine
 10
-480.0905261925454
 20
82.21318703994761
 30
0.0
 11
-135.0903282406873
 21
82.21318703994761
 31
0.0
  0
LINE
  5
E2
330
1F
100
AcDbEntity
  8
A-0_通り芯
  6
Continuous
 62
     3
370
     9
100
AcDbLine
 10
-481.0904800037785
 20
83.21319033914521
 30
0.0
 11
-134.0903744294542
 21
83.21319033914521
 31
0.0
  0
LINE
  5
E3
330
1F
100
AcDbEntity
  8
A-0_通り芯
  6
Continuous
 62
     3
370
     9
100
AcDbLine
 10
-481.0904800037785
 20
36.21318374075001
 30
0.0
 11
-134.0903744294542
 21
36.21318374075001
 31
0.0
  0
LINE
  5
E4
330
1F
100
AcDbEntity
  8
A-0_通り芯
  6
Continuous
 62
     3
370
     9
100
AcDbLine
 10
-480.0905261925454
 20
54.71322003192397
 30
0.0
 11
-135.0903282406873
 21
54.71322003192397
 31
0.0
  0
LINE
  5
E5
330
1F
100
AcDbEntity
  8
A-0_通り芯
  6
Continuous
 62
     3
370
     9
100
AcDbLine
 10
-481.0904800037785
 20
55.71322333112157
 30
0.0
 11
-134.0903744294542
 21
55.71322333112157
 31
0.0
  0
LINE
  5
E6
330
1F
100
AcDbEntity
  8
A-0_通り芯
  6
Continuous
 62
     3
370
     9
100
AcDbLine
 10
-480.0905261925454
 20
9.713170543959379
 30
0.0
 11
-135.0903282406873
 21
9.713170543959379
 31
0.0
  0
LINE
  5
E7
330
1F
100
AcDbEntity
  8
A-0_通り芯
  6
Continuous
 62
     3
370
     9
100
AcDbLine
 10
-481.0904800037785
 20
8.713216732726366
 30
0.0
 11
-134.0903744294542
 21
8.713216732726366
 31
0.0
  0
LINE
  5
E8
330
1F
100
AcDbEntity
  8
A-0_通り芯
  6
Continuous
 62
     3
370
     9
100
AcDbLine
 10
-480.0905261925454
 20
27.21325302390032
 30
0.0
 11
-135.0903282406873
 21
27.21325302390032
 31
0.0
  0
LINE
  5
E9
330
1F
100
AcDbEntity
  8
A-0_通り芯
  6
Continuous
 62
     3
370
     9
100
AcDbLine
 10
-481.0904800037785
 20
28.21320683513345
 30
0.0
 11
-134.0903744294542
 21
28.21320683513345
 31
0.0
  0
LINE
  5
EA
330
1F
100
AcDbEntity
  8
A-0_通り芯
  6
Continuous
 62
     3
370
     9
100
AcDbLine
 10
-480.0905261925454
 20
-17.78679646406426
 30
0.0
 11
-135.0903282406873
 21
-17.78679646406426
 31
0.0
  0
LINE
  5
EB
330
1F
100
AcDbEntity
  8
A-0_通り芯
  6
Continuous
 62
     3
370
     9
100
AcDbLine
 10
-481.0904800037785
 20
-18.78675027529727
 30
0.0
 11
-134.0903744294542
 21
-18.78675027529727
 31
0.0
  0
LINE
  5
EC
330
1F
100
AcDbEntity
  8
A-0_通り芯
  6
Continuous
 62
     3
370
     9
100
AcDbLine
 10
-480.0905261925454
 20
-0.2868624480169757
 30
0.0
 11
-135.0903282406873
 21
-0.2868624480169757
 31
0.0
  0
LINE
  5
ED
330
1F
100
AcDbEntity
  8
A-0_通り芯
  6
Continuous
 62
     3
370
     9
100
AcDbLine
 10
-481.0904800037785
 20
0.7132398271098026
 30
0.0
 11
-134.0903744294542
 21
0.7132398271098026
 31
0.0
  0
LINE
  5
EE
330
1F
100
AcDbEntity
  8
A-0_通り芯
  6
Continuous
 62
     3
370
     9
100
AcDbLine
 10
-481.0904800037785
 20
-26.78672718091384
 30
0.0
 11
-134.0903744294542
 21
-26.78672718091384
 31
0.0
  0
LINE
  5
EF
330
1F
100
AcDbEntity
  8
A-0_通り芯
  6
Continuous
 62
     3
370
     9
100
AcDbLine
 10
-480.0905261925454
 20
-27.78682945604061
 30
0.0
 11
-135.0903282406873
 21
-27.78682945604061
 31
0.0
  0
LINE
  5
F0
330
1F
100
AcDbEntity
  8
A-0_通り芯
  6
Continuous
 62
     3
370
     9
100
AcDbLine
 10
-481.0904800037785
 20
-46.53682945604056
 30
0.0
 11
-134.0903744294542
 21
-46.53682945604056
 31
0.0
  0
LINE
  5
F1
330
1F
100
AcDbEntity
  8
A-0_通り芯
  6
Continuous
 62
     3
370
     9
100
AcDbLine
 10
-480.0905261925454
 20
-45.53687564480749
 30
0.0
 11
-135.0903282406873
 21
-45.53687564480749
 31
0.0
  0
LINE
  5
F2
330
1F
100
AcDbEntity
  8
A-0_通り芯
  6
Continuous
 62
     3
370
     9
100
AcDbLine
 10
-371.9573441824102
 20
-208.9676122896554
 30
0.0
 11
-368.909034031439
 21
-224.5251931859814
 31
0.0
  0
LINE
  5
F3
330
1F
100
AcDbEntity
  8
A-0_通り芯
  6
Continuous
 62
     3
370
     9
100
AcDbLine
 10
-373.2569476188545
 20
-210.7366090696385
 30
0.0
 11
-462.0320215208815
 21
-210.7366090696385
 31
0.0
  0
LINE
  5
F4
330
1F
100
AcDbEntity
  8
A-0_通り芯
  6
Continuous
 62
     3
370
     9
100
AcDbLine
 10
-357.906275902216
 20
-225.7368070214966
 30
0.0
 11
-367.4371135025116
 21
-225.7368070214966
 31
0.0
  0
LINE
  5
F5
330
1F
100
AcDbEntity
  8
A-0_通り芯
  6
Continuous
 62
     3
370
     9
100
AcDbLine
 10
-353.3858472704592
 20
-208.9676122896554
 30
0.0
 11
-356.4343058853241
 21
-224.5251931859814
 31
0.0
  0
LINE
  5
F6
330
1F
100
AcDbEntity
  8
A-0_通り芯
  6
Continuous
 62
     3
370
     9
100
AcDbLine
 10
-352.086441785873
 20
-210.7366090696385
 30
0.0
 11
-263.2568321469373
 21
-210.7366090696385
 31
0.0
  0
LINE
  5
F7
330
1F
100
AcDbEntity
  8
A-0_通り芯
  6
Continuous
 62
     3
370
     9
100
AcDbLine
 10
-349.46051141214
 20
-205.7367905255085
 30
0.0
 11
-265.8827130327059
 21
-205.7367905255085
 31
0.0
  0
LINE
  5
F8
330
1F
100
AcDbEntity
  8
A-0_通り芯
  6
Continuous
 62
     3
370
     9
100
AcDbLine
 10
-480.4590135764136
 20
-202.236803722299
 30
0.0
 11
-134.8842603563967
 21
-202.236803722299
 31
0.0
  0
LINE
  5
F9
330
1F
100
AcDbEntity
  8
A-0_通り芯
  6
Continuous
 62
     3
370
     9
100
AcDbLine
 10
-353.5904800037785
 20
-29.66177996807603
 30
0.0
 11
-261.5903744294542
 21
-29.66177996807603
 31
0.0
  0
LINE
  5
FA
330
1F
100
AcDbEntity
  8
A-0_通り芯
  6
Continuous
 62
     3
370
     9
100
AcDbLine
 10
-353.5904800037785
 20
-43.66182615684296
 30
0.0
 11
-261.5903744294542
 21
-43.66182615684296
 31
0.0
  0
LINE
  5
FB
330
1F
100
AcDbEntity
  8
A-0_通り芯
  6
Continuous
 62
     3
370
     9
100
AcDbLine
 10
-353.5904800037785
 20
-43.66182615684296
 30
0.0
 11
-353.5904800037785
 21
-29.66177996807603
 31
0.0
  0
LINE
  5
FC
330
1F
100
AcDbEntity
  8
A-0_通り芯
  6
Continuous
 62
     3
370
     9
100
AcDbLine
 10
-352.5903777286518
 20
-42.66177336968077
 30
0.0
 11
-262.5904272166164
 21
-42.66177336968077
 31
0.0
  0
LINE
  5
FD
330
1F
100
AcDbEntity
  8
A-0_通り芯
  6
Continuous
 62
     3
370
     9
100
AcDbLine
 10
-352.5903777286518
 20
-42.66177336968077
 30
0.0
 11
-352.5903777286518
 21
-30.66183275523822
 31
0.0
  0
LINE
  5
FE
330
1F
100
AcDbEntity
  8
A-0_通り芯
  6
Continuous
 62
     3
370
     9
100
AcDbLine
 10
-352.5903777286518
 20
-30.66183275523822
 30
0.0
 11
-262.5904272166164
 21
-30.66183275523822
 31
0.0
  0
LINE
  5
FF
330
1F
100
AcDbEntity
  8
A-0_通り芯
  6
Continuous
 62
     3
370
     9
100
AcDbLine
 10
-480.0905261925454
 20
37.21328601587668
 30
0.0
 11
-478.5973753268359
 21
37.21328601587668
 31
0.0
  0
LINE
  5
100
330
1F
100
AcDbEntity
  8
A-0_通り芯
  6
Continuous
 62
     3
370
     9
100
AcDbLine
 10
-481.5905063973595
 20
121.2132167327264
 30
0.0
 11
-481.5905063973595
 21
135.7132893150743
 31
0.0
  0
LINE
  5
101
330
1F
100
AcDbEntity
  8
A-0_通り芯
  6
Continuous
 62
     3
370
     9
100
AcDbLine
 10
-462.1452004957549
 20
-201.4046635987771
 30
0.0
 11
-461.5904404134069
 21
-202.236803722299
 31
0.0
  0
LINE
  5
102
330
1F
100
AcDbEntity
  8
A-0_通り芯
  6
Continuous
 62
     3
370
     9
100
AcDbLine
 10
-475.787696140814
 20
-200.7367740295203
 30
0.0
 11
-463.3932869611265
 21
-200.7367740295203
 31
0.0
  0
LINE
  5
103
330
1F
100
AcDbEntity
  8
A-0_通り芯
  6
Continuous
 62
     3
370
     9
100
AcDbLine
 10
-477.0357331182211
 20
-201.4046635987771
 30
0.0
 11
-477.5904437126045
 21
-202.236803722299
 31
0.0
  0
LINE
  5
104
330
1F
100
AcDbEntity
  8
A-0_通り芯
  6
Continuous
 62
     3
370
     9
100
AcDbLine
 10
-440.5451886186434
 20
-201.4046635987771
 30
0.0
 11
-439.9904780242599
 21
-202.236803722299
 31
0.0
  0
LINE
  5
105
330
1F
100
AcDbEntity
  8
A-0_通り芯
  6
Continuous
 62
     3
370
     9
100
AcDbLine
 10
-454.1876347757379
 20
-200.7367740295203
 30
0.0
 11
-441.793275084015
 21
-200.7367740295203
 31
0.0
  0
LINE
  5
106
330
1F
100
AcDbEntity
  8
A-0_通り芯
  6
Continuous
 62
     3
370
     9
100
AcDbLine
 10
-455.4357212411095
 20
-201.4046635987771
 30
0.0
 11
-455.9904813234576
 21
-202.236803722299
 31
0.0
  0
LINE
  5
107
330
1F
100
AcDbEntity
  8
A-0_通り芯
  6
Continuous
 62
     3
370
     9
100
AcDbLine
 10
-418.9452262294964
 20
-201.4046635987771
 30
0.0
 11
-418.3905156351129
 21
-202.236803722299
 31
0.0
  0
LINE
  5
108
330
1F
100
AcDbEntity
  8
A-0_通り芯
  6
Continuous
 62
     3
370
     9
100
AcDbLine
 10
-432.587672386591
 20
-200.7367740295203
 30
0.0
 11
-420.1932632069035
 21
-200.7367740295203
 31
0.0
  0
LINE
  5
109
330
1F
100
AcDbEntity
  8
A-0_通り芯
  6
Continuous
 62
     3
370
     9
100
AcDbLine
 10
-433.8357588519626
 20
-201.4046635987771
 30
0.0
 11
-434.3904694463461
 21
-202.236803722299
 31
0.0
  0
LINE
  5
10A
330
1F
100
AcDbEntity
  8
A-0_通り芯
  6
Continuous
 62
     3
370
     9
100
AcDbLine
 10
-397.3451648644204
 20
-201.4046635987771
 30
0.0
 11
-396.7905037580015
 21
-202.236803722299
 31
0.0
  0
LINE
  5
10B
330
1F
100
AcDbEntity
  8
A-0_通り芯
  6
Continuous
 62
     3
370
     9
100
AcDbLine
 10
-410.9876605094795
 20
-200.7367740295203
 30
0.0
 11
-398.593251329792
 21
-200.7367740295203
 31
0.0
  0
LINE
  5
10C
330
1F
100
AcDbEntity
  8
A-0_通り芯
  6
Continuous
 62
     3
370
     9
100
AcDbLine
 10
-412.2356974868866
 20
-201.4046635987771
 30
0.0
 11
-412.7904575692345
 21
-202.236803722299
 31
0.0
  0
LINE
  5
10D
330
1F
100
AcDbEntity
  8
A-0_通り芯
  6
Continuous
 62
     3
370
     9
100
AcDbLine
 10
-375.7452024752735
 20
-201.4046635987771
 30
0.0
 11
-375.1904423929254
 21
-202.236803722299
 31
0.0
  0
LINE
  5
10E
330
1F
100
AcDbEntity
  8
A-0_通り芯
  6
Continuous
 62
     3
370
     9
100
AcDbLine
 10
-389.387648632368
 20
-200.7367740295203
 30
0.0
 11
-376.9932394526805
 21
-200.7367740295203
 31
0.0
  0
LINE
  5
10F
330
1F
100
AcDbEntity
  8
A-0_通り芯
  6
Continuous
 62
     3
370
     9
100
AcDbLine
 10
-390.6357350977397
 20
-201.4046635987771
 30
0.0
 11
-391.1904456921231
 21
-202.236803722299
 31
0.0
  0
LINE
  5
110
330
1F
100
AcDbEntity
  8
A-0_通り芯
  6
Continuous
 62
     3
370
     9
100
AcDbLine
 10
-354.1451411101974
 20
-201.4046635987771
 30
0.0
 11
-353.5904800037785
 21
-202.236803722299
 31
0.0
  0
LINE
  5
111
330
1F
100
AcDbEntity
  8
A-0_通り芯
  6
Continuous
 62
     3
370
     9
100
AcDbLine
 10
-367.7876367552566
 20
-200.7367740295203
 30
0.0
 11
-355.3932770635336
 21
-200.7367740295203
 31
0.0
  0
LINE
  5
112
330
1F
100
AcDbEntity
  8
A-0_通り芯
  6
Continuous
 62
     3
370
     9
100
AcDbLine
 10
-369.0357232206281
 20
-201.4046635987771
 30
0.0
 11
-369.5903843270471
 21
-202.236803722299
 31
0.0
  0
LINE
  5
113
330
1F
100
AcDbEntity
  8
A-0_通り芯
  6
Continuous
 62
     3
370
     9
100
AcDbLine
 10
-332.545129233086
 20
-201.4046635987771
 30
0.0
 11
-331.9905176146315
 21
-202.236803722299
 31
0.0
  0
LINE
  5
114
330
1F
100
AcDbEntity
  8
A-0_通り芯
  6
Continuous
 62
     3
370
     9
100
AcDbLine
 10
-346.187624878145
 20
-200.7367740295203
 30
0.0
 11
-333.7932156984575
 21
-200.7367740295203
 31
0.0
  0
LINE
  5
115
330
1F
100
AcDbEntity
  8
A-0_通り芯
  6
Continuous
 62
     3
370
     9
100
AcDbLine
 10
-347.4357113435167
 20
-201.4046635987771
 30
0.0
 11
-347.9904714258646
 21
-202.236803722299
 31
0.0
  0
LINE
  5
116
330
1F
100
AcDbEntity
  8
A-0_通り芯
  6
Continuous
 62
     3
370
     9
100
AcDbLine
 10
-310.945166843939
 20
-201.4046635987771
 30
0.0
 11
-310.390406761591
 21
-202.236803722299
 31
0.0
  0
LINE
  5
117
330
1F
100
AcDbEntity
  8
A-0_通り芯
  6
Continuous
 62
     3
370
     9
100
AcDbLine
 10
-324.5876130010336
 20
-200.7367740295203
 30
0.0
 11
-312.1932533093105
 21
-200.7367740295203
 31
0.0
  0
LINE
  5
118
330
1F
100
AcDbEntity
  8
A-0_通り芯
  6
Continuous
 62
     3
370
     9
100
AcDbLine
 10
-325.8356994664052
 20
-201.4046635987771
 30
0.0
 11
-326.3904595487531
 21
-202.236803722299
 31
0.0
  0
LINE
  5
119
330
1F
100
AcDbEntity
  8
A-0_通り芯
  6
Continuous
 62
     3
370
     9
100
AcDbLine
 10
-463.314749561422
 20
-208.9522710206521
 30
0.0
 11
-466.4304623200792
 21
-224.5308843019021
 31
0.0
  0
LINE
  5
11A
330
1F
100
AcDbEntity
  8
A-0_通り芯
  6
Continuous
 62
     3
370
     9
100
AcDbLine
 10
-456.8382596437701
 20
-210.7366090696385
 30
0.0
 11
-431.8846463625201
 21
-232.1256537539713
 31
0.0
  0
LINE
  5
11B
330
1F
100
AcDbEntity
  8
A-0_通り芯
  6
Continuous
 62
     3
370
     9
100
AcDbLine
 10
-133.590348035873
 20
-29.28680966085478
 30
0.0
 11
-133.590348035873
 21
-44.03674697609967
 31
0.0
  0
LINE
  5
11C
330
1F
100
AcDbEntity
  8
A-0_通り芯
  6
Continuous
 62
     3
370
     9
100
AcDbLine
 10
-132.5903942246399
 20
-45.03684925122639
 30
0.0
 11
-132.5903942246399
 21
301.9632563230979
 31
0.0
  0
LINE
  5
11D
330
1F
100
AcDbEntity
  8
A-0_通り芯
  6
Continuous
 62
     3
370
     9
100
AcDbLine
 10
-133.590348035873
 20
-16.28681625924998
 30
0.0
 11
-133.590348035873
 21
-1.78684265283114
 31
0.0
  0
LINE
  5
11E
330
1F
100
AcDbEntity
  8
A-0_通り芯
  6
Continuous
 62
     3
370
     9
100
AcDbLine
 10
-133.590348035873
 20
11.2132992126672
 30
0.0
 11
-133.590348035873
 21
25.71312435519251
 31
0.0
  0
LINE
  5
11F
330
1F
100
AcDbEntity
  8
A-0_通り芯
  6
Continuous
 62
     3
370
     9
100
AcDbLine
 10
-133.590348035873
 20
38.71326622069084
 30
0.0
 11
-133.590348035873
 21
53.2132398271098
 31
0.0
  0
LINE
  5
120
330
1F
100
AcDbEntity
  8
A-0_通り芯
  6
Continuous
 62
     3
370
     9
100
AcDbLine
 10
-133.590348035873
 20
66.21323322871449
 30
0.0
 11
-133.590348035873
 21
80.71320683513345
 31
0.0
  0
LINE
  5
121
330
1F
100
AcDbEntity
  8
A-0_通り芯
  6
Continuous
 62
     3
370
     9
100
AcDbLine
 10
-133.590348035873
 20
93.71320023673813
 30
0.0
 11
-133.590348035873
 21
108.2131738431571
 31
0.0
  0
LINE
  5
122
330
1F
100
AcDbEntity
  8
A-0_通り芯
  6
Continuous
 62
     3
370
     9
100
AcDbLine
 10
-152.5903612326637
 20
-26.78672718091384
 30
0.0
 11
-152.5903612326637
 21
-18.78675027529727
 31
0.0
  0
LINE
  5
123
330
1F
100
AcDbEntity
  8
A-0_通り芯
  6
Continuous
 62
     3
370
     9
100
AcDbLine
 10
-268.1903368186012
 20
-26.78672718091384
 30
0.0
 11
-268.1903368186012
 21
-18.78675027529727
 31
0.0
  0
LINE
  5
124
330
1F
100
AcDbEntity
  8
A-0_通り芯
  6
Continuous
 62
     3
370
     9
100
AcDbLine
 10
-248.190419298542
 20
-26.78672718091384
 30
0.0
 11
-248.190419298542
 21
-18.78675027529727
 31
0.0
  0
LINE
  5
125
330
1F
100
AcDbEntity
  8
A-0_通り芯
  6
Continuous
 62
     3
370
     9
100
AcDbLine
 10
-152.5903612326637
 20
0.7132398271098026
 30
0.0
 11
-152.5903612326637
 21
8.713216732726366
 31
0.0
  0
LINE
  5
126
330
1F
100
AcDbEntity
  8
A-0_通り芯
  6
Continuous
 62
     3
370
     9
100
AcDbLine
 10
-268.1903368186012
 20
0.7132398271098026
 30
0.0
 11
-268.1903368186012
 21
8.713216732726366
 31
0.0
  0
LINE
  5
127
330
1F
100
AcDbEntity
  8
A-0_通り芯
  6
Continuous
 62
     3
370
     9
100
AcDbLine
 10
-248.190419298542
 20
0.7132398271098026
 30
0.0
 11
-248.190419298542
 21
8.713216732726366
 31
0.0
  0
LINE
  5
128
330
1F
100
AcDbEntity
  8
A-0_通り芯
  6
Continuous
 62
     3
370
     9
100
AcDbLine
 10
-152.5903612326637
 20
28.21320683513345
 30
0.0
 11
-152.5903612326637
 21
36.21318374075001
 31
0.0
  0
LINE
  5
129
330
1F
100
AcDbEntity
  8
A-0_通り芯
  6
Continuous
 62
     3
370
     9
100
AcDbLine
 10
-268.1903368186012
 20
28.21320683513345
 30
0.0
 11
-268.1903368186012
 21
36.21318374075001
 31
0.0
  0
LINE
  5
12A
330
1F
100
AcDbEntity
  8
A-0_通り芯
  6
Continuous
 62
     3
370
     9
100
AcDbLine
 10
-248.190419298542
 20
28.21320683513345
 30
0.0
 11
-248.190419298542
 21
36.21318374075001
 31
0.0
  0
LINE
  5
12B
330
1F
100
AcDbEntity
  8
A-0_通り芯
  6
Continuous
 62
     3
370
     9
100
AcDbLine
 10
-152.5903612326637
 20
55.71322333112157
 30
0.0
 11
-152.5903612326637
 21
63.71320023673813
 31
0.0
  0
LINE
  5
12C
330
1F
100
AcDbEntity
  8
A-0_通り芯
  6
Continuous
 62
     3
370
     9
100
AcDbLine
 10
-268.1903368186012
 20
55.71322333112157
 30
0.0
 11
-268.1903368186012
 21
63.71320023673813
 31
0.0
  0
LINE
  5
12D
330
1F
100
AcDbEntity
  8
A-0_通り芯
  6
Continuous
 62
     3
370
     9
100
AcDbLine
 10
-248.190419298542
 20
55.71322333112157
 30
0.0
 11
-248.190419298542
 21
63.71320023673813
 31
0.0
  0
LINE
  5
12E
330
1F
100
AcDbEntity
  8
A-0_通り芯
  6
Continuous
 62
     3
370
     9
100
AcDbLine
 10
-152.5903612326637
 20
83.21319033914521
 30
0.0
 11
-152.5903612326637
 21
91.21316724476178
 31
0.0
  0
LINE
  5
12F
330
1F
100
AcDbEntity
  8
A-0_通り芯
  6
Continuous
 62
     3
370
     9
100
AcDbLine
 10
-268.1903368186012
 20
83.21319033914521
 30
0.0
 11
-268.1903368186012
 21
91.21316724476178
 31
0.0
  0
LINE
  5
130
330
1F
100
AcDbEntity
  8
A-0_通り芯
  6
Continuous
 62
     3
370
     9
100
AcDbLine
 10
-248.190419298542
 20
83.21319033914521
 30
0.0
 11
-248.190419298542
 21
91.21316724476178
 31
0.0
  0
LINE
  5
131
330
1F
100
AcDbEntity
  8
A-0_通り芯
  6
Continuous
 62
     3
370
     9
100
AcDbLine
 10
-152.5903612326637
 20
110.7133058110625
 30
0.0
 11
-152.5903612326637
 21
118.71318374075
 31
0.0
  0
LINE
  5
132
330
1F
100
AcDbEntity
  8
A-0_通り芯
  6
Continuous
 62
     3
370
     9
100
AcDbLine
 10
-268.1903368186012
 20
110.7133058110625
 30
0.0
 11
-268.1903368186012
 21
118.71318374075
 31
0.0
  0
LINE
  5
133
330
1F
100
AcDbEntity
  8
A-0_通り芯
  6
Continuous
 62
     3
370
     9
100
AcDbLine
 10
-248.190419298542
 20
110.7133058110625
 30
0.0
 11
-248.190419298542
 21
118.71318374075
 31
0.0
  0
LINE
  5
134
330
1F
100
AcDbEntity
  8
A-0_通り芯
  6
Continuous
 62
     3
370
     9
100
AcDbLine
 10
-261.5903744294542
 20
-43.66182615684296
 30
0.0
 11
-261.5903744294542
 21
-29.66177996807603
 31
0.0
  0
LINE
  5
135
330
1F
100
AcDbEntity
  8
A-0_通り芯
  6
Continuous
 62
     3
370
     9
100
AcDbLine
 10
-262.5904272166164
 20
-42.66177336968077
 30
0.0
 11
-262.5904272166164
 21
-30.66183275523822
 31
0.0
  0
LINE
  5
136
330
1F
100
AcDbEntity
  8
A-0_通り芯
  6
Continuous
 62
     3
370
     9
100
AcDbLine
 10
-135.0903282406873
 20
37.21328601587668
 30
0.0
 11
-136.5834791063967
 21
37.21328601587668
 31
0.0
  0
LINE
  5
137
330
1F
100
AcDbEntity
  8
A-0_通り芯
  6
Continuous
 62
     3
370
     9
100
AcDbLine
 10
-133.590348035873
 20
121.2132167327264
 30
0.0
 11
-133.590348035873
 21
135.7132893150743
 31
0.0
  0
LINE
  5
138
330
1F
100
AcDbEntity
  8
A-0_通り芯
  6
Continuous
 62
     3
370
     9
100
AcDbLine
 10
-481.5905063973595
 20
286.2132167327264
 30
0.0
 11
-481.5905063973595
 21
300.9632035359359
 31
0.0
  0
LINE
  5
139
330
1F
100
AcDbEntity
  8
A-0_通り芯
  6
Continuous
 62
     3
370
     9
100
AcDbLine
 10
-481.5905063973595
 20
273.2132233311216
 30
0.0
 11
-481.5905063973595
 21
258.7131507487737
 31
0.0
  0
LINE
  5
13A
330
1F
100
AcDbEntity
  8
A-0_通り芯
  6
Continuous
 62
     3
370
     9
100
AcDbLine
 10
-481.5905063973595
 20
245.7131573471689
 30
0.0
 11
-481.5905063973595
 21
231.2132827166791
 31
0.0
  0
LINE
  5
13B
330
1F
100
AcDbEntity
  8
A-0_通り芯
  6
Continuous
 62
     3
370
     9
100
AcDbLine
 10
-481.5905063973595
 20
218.2132893150743
 30
0.0
 11
-481.5905063973595
 21
203.7132167327264
 31
0.0
  0
LINE
  5
13C
330
1F
100
AcDbEntity
  8
A-0_通り芯
  6
Continuous
 62
     3
370
     9
100
AcDbLine
 10
-481.5905063973595
 20
190.7132233311216
 30
0.0
 11
-481.5905063973595
 21
176.2132497247027
 31
0.0
  0
LINE
  5
13D
330
1F
100
AcDbEntity
  8
A-0_通り芯
  6
Continuous
 62
     3
370
     9
100
AcDbLine
 10
-481.5905063973595
 20
163.2132563230979
 30
0.0
 11
-481.5905063973595
 21
148.7132827166791
 31
0.0
  0
LINE
  5
13E
330
1F
100
AcDbEntity
  8
A-0_通り芯
  6
Continuous
 62
     3
370
     9
100
AcDbLine
 10
-462.5904437126045
 20
283.7132827166791
 30
0.0
 11
-462.5904437126045
 21
275.7132563230979
 31
0.0
  0
LINE
  5
13F
330
1F
100
AcDbEntity
  8
A-0_通り芯
  6
Continuous
 62
     3
370
     9
100
AcDbLine
 10
-346.990468126667
 20
283.7132827166791
 30
0.0
 11
-346.990468126667
 21
275.7132563230979
 31
0.0
  0
LINE
  5
140
330
1F
100
AcDbEntity
  8
A-0_通り芯
  6
Continuous
 62
     3
370
     9
100
AcDbLine
 10
-366.9903856467262
 20
283.7132827166791
 30
0.0
 11
-366.9903856467262
 21
275.7132563230979
 31
0.0
  0
LINE
  5
141
330
1F
100
AcDbEntity
  8
A-0_通り芯
  6
Continuous
 62
     3
370
     9
100
AcDbLine
 10
-462.5904437126045
 20
256.2133157086554
 30
0.0
 11
-462.5904437126045
 21
248.2132893150743
 31
0.0
  0
LINE
  5
142
330
1F
100
AcDbEntity
  8
A-0_通り芯
  6
Continuous
 62
     3
370
     9
100
AcDbLine
 10
-346.990468126667
 20
256.2133157086554
 30
0.0
 11
-346.990468126667
 21
248.2132893150743
 31
0.0
  0
LINE
  5
143
330
1F
100
AcDbEntity
  8
A-0_通り芯
  6
Continuous
 62
     3
370
     9
100
AcDbLine
 10
-366.9903856467262
 20
256.2133157086554
 30
0.0
 11
-366.9903856467262
 21
248.2132893150743
 31
0.0
  0
LINE
  5
144
330
1F
100
AcDbEntity
  8
A-0_通り芯
  6
Continuous
 62
     3
370
     9
100
AcDbLine
 10
-462.5904437126045
 20
228.7132497247027
 30
0.0
 11
-462.5904437126045
 21
220.7131243551925
 31
0.0
  0
LINE
  5
145
330
1F
100
AcDbEntity
  8
A-0_通り芯
  6
Continuous
 62
     3
370
     9
100
AcDbLine
 10
-346.990468126667
 20
228.7132497247027
 30
0.0
 11
-346.990468126667
 21
220.7131243551925
 31
0.0
  0
LINE
  5
146
330
1F
100
AcDbEntity
  8
A-0_通り芯
  6
Continuous
 62
     3
370
     9
100
AcDbLine
 10
-366.9903856467262
 20
228.7132497247027
 30
0.0
 11
-366.9903856467262
 21
220.7131243551925
 31
0.0
  0
LINE
  5
147
330
1F
100
AcDbEntity
  8
A-0_通り芯
  6
Continuous
 62
     3
370
     9
100
AcDbLine
 10
-462.5904437126045
 20
201.21318374075
 30
0.0
 11
-462.5904437126045
 21
193.2131573471689
 31
0.0
  0
LINE
  5
148
330
1F
100
AcDbEntity
  8
A-0_通り芯
  6
Continuous
 62
     3
370
     9
100
AcDbLine
 10
-346.990468126667
 20
201.21318374075
 30
0.0
 11
-346.990468126667
 21
193.2131573471689
 31
0.0
  0
LINE
  5
149
330
1F
100
AcDbEntity
  8
A-0_通り芯
  6
Continuous
 62
     3
370
     9
100
AcDbLine
 10
-366.9903856467262
 20
201.21318374075
 30
0.0
 11
-366.9903856467262
 21
193.2131573471689
 31
0.0
  0
LINE
  5
14A
330
1F
100
AcDbEntity
  8
A-0_通り芯
  6
Continuous
 62
     3
370
     9
100
AcDbLine
 10
-462.5904437126045
 20
173.7132167327264
 30
0.0
 11
-462.5904437126045
 21
165.7131903391452
 31
0.0
  0
LINE
  5
14B
330
1F
100
AcDbEntity
  8
A-0_通り芯
  6
Continuous
 62
     3
370
     9
100
AcDbLine
 10
-346.990468126667
 20
173.7132167327264
 30
0.0
 11
-346.990468126667
 21
165.7131903391452
 31
0.0
  0
LINE
  5
14C
330
1F
100
AcDbEntity
  8
A-0_通り芯
  6
Continuous
 62
     3
370
     9
100
AcDbLine
 10
-366.9903856467262
 20
173.7132167327264
 30
0.0
 11
-366.9903856467262
 21
165.7131903391452
 31
0.0
  0
LINE
  5
14D
330
1F
100
AcDbEntity
  8
A-0_通り芯
  6
Continuous
 62
     3
370
     9
100
AcDbLine
 10
-462.5904437126045
 20
146.2131507487737
 30
0.0
 11
-462.5904437126045
 21
138.2132233311216
 31
0.0
  0
LINE
  5
14E
330
1F
100
AcDbEntity
  8
A-0_通り芯
  6
Continuous
 62
     3
370
     9
100
AcDbLine
 10
-346.990468126667
 20
146.2131507487737
 30
0.0
 11
-346.990468126667
 21
138.2132233311216
 31
0.0
  0
LINE
  5
14F
330
1F
100
AcDbEntity
  8
A-0_通り芯
  6
Continuous
 62
     3
370
     9
100
AcDbLine
 10
-366.9903856467262
 20
146.2131507487737
 30
0.0
 11
-366.9903856467262
 21
138.2132233311216
 31
0.0
  0
LINE
  5
150
330
1F
100
AcDbEntity
  8
A-0_通り芯
  6
Continuous
 62
     3
370
     9
100
AcDbLine
 10
-480.0905261925454
 20
137.2132695198885
 30
0.0
 11
-135.0903282406873
 21
137.2132695198885
 31
0.0
  0
LINE
  5
151
330
1F
100
AcDbEntity
  8
A-0_通り芯
  6
Continuous
 62
     3
370
     9
100
AcDbLine
 10
-481.0904800037785
 20
138.2132233311216
 30
0.0
 11
-134.0903744294542
 21
138.2132233311216
 31
0.0
  0
LINE
  5
152
330
1F
100
AcDbEntity
  8
A-0_通り芯
  6
Continuous
 62
     3
370
     9
100
AcDbLine
 10
-480.0905261925454
 20
164.7132365279121
 30
0.0
 11
-135.0903282406873
 21
164.7132365279121
 31
0.0
  0
LINE
  5
153
330
1F
100
AcDbEntity
  8
A-0_通り芯
  6
Continuous
 62
     3
370
     9
100
AcDbLine
 10
-481.0904800037785
 20
165.7131903391452
 30
0.0
 11
-134.0903744294542
 21
165.7131903391452
 31
0.0
  0
LINE
  5
154
330
1F
100
AcDbEntity
  8
A-0_通り芯
  6
Continuous
 62
     3
370
     9
100
AcDbLine
 10
-480.0905261925454
 20
147.2133025118648
 30
0.0
 11
-135.0903282406873
 21
147.2133025118648
 31
0.0
  0
LINE
  5
155
330
1F
100
AcDbEntity
  8
A-0_通り芯
  6
Continuous
 62
     3
370
     9
100
AcDbLine
 10
-481.0904800037785
 20
146.2131507487737
 30
0.0
 11
-134.0903744294542
 21
146.2131507487737
 31
0.0
  0
LINE
  5
156
330
1F
100
AcDbEntity
  8
A-0_通り芯
  6
Continuous
 62
     3
370
     9
100
AcDbLine
 10
-480.0905261925454
 20
192.2132035359357
 30
0.0
 11
-135.0903282406873
 21
192.2132035359357
 31
0.0
  0
LINE
  5
157
330
1F
100
AcDbEntity
  8
A-0_通り芯
  6
Continuous
 62
     3
370
     9
100
AcDbLine
 10
-481.0904800037785
 20
193.2131573471689
 30
0.0
 11
-134.0903744294542
 21
193.2131573471689
 31
0.0
  0
LINE
  5
158
330
1F
100
AcDbEntity
  8
A-0_通り芯
  6
Continuous
 62
     3
370
     9
100
AcDbLine
 10
-480.0905261925454
 20
174.7132695198885
 30
0.0
 11
-135.0903282406873
 21
174.7132695198885
 31
0.0
  0
LINE
  5
159
330
1F
100
AcDbEntity
  8
A-0_通り芯
  6
Continuous
 62
     3
370
     9
100
AcDbLine
 10
-481.0904800037785
 20
173.7132167327264
 30
0.0
 11
-134.0903744294542
 21
173.7132167327264
 31
0.0
  0
LINE
  5
15A
330
1F
100
AcDbEntity
  8
A-0_通り芯
  6
Continuous
 62
     3
370
     9
100
AcDbLine
 10
-481.0904800037785
 20
220.7131243551925
 30
0.0
 11
-134.0903744294542
 21
220.7131243551925
 31
0.0
  0
LINE
  5
15B
330
1F
100
AcDbEntity
  8
A-0_通り芯
  6
Continuous
 62
     3
370
     9
100
AcDbLine
 10
-480.0905261925454
 20
202.2132365279121
 30
0.0
 11
-135.0903282406873
 21
202.2132365279121
 31
0.0
  0
LINE
  5
15C
330
1F
100
AcDbEntity
  8
A-0_通り芯
  6
Continuous
 62
     3
370
     9
100
AcDbLine
 10
-481.0904800037785
 20
201.21318374075
 30
0.0
 11
-134.0903744294542
 21
201.21318374075
 31
0.0
  0
LINE
  5
15D
330
1F
100
AcDbEntity
  8
A-0_通り芯
  6
Continuous
 62
     3
370
     9
100
AcDbLine
 10
-480.0905261925454
 20
247.2132365279121
 30
0.0
 11
-135.0903282406873
 21
247.2132365279121
 31
0.0
  0
LINE
  5
15E
330
1F
100
AcDbEntity
  8
A-0_通り芯
  6
Continuous
 62
     3
370
     9
100
AcDbLine
 10
-481.0904800037785
 20
248.2132893150743
 30
0.0
 11
-134.0903744294542
 21
248.2132893150743
 31
0.0
  0
LINE
  5
15F
330
1F
100
AcDbEntity
  8
A-0_通り芯
  6
Continuous
 62
     3
370
     9
100
AcDbLine
 10
-480.0905261925454
 20
229.7132035359357
 30
0.0
 11
-135.0903282406873
 21
229.7132035359357
 31
0.0
  0
LINE
  5
160
330
1F
100
AcDbEntity
  8
A-0_通り芯
  6
Continuous
 62
     3
370
     9
100
AcDbLine
 10
-481.0904800037785
 20
228.7132497247027
 30
0.0
 11
-134.0903744294542
 21
228.7132497247027
 31
0.0
  0
LINE
  5
161
330
1F
100
AcDbEntity
  8
A-0_通り芯
  6
Continuous
 62
     3
370
     9
100
AcDbLine
 10
-480.0905261925454
 20
274.7133025118648
 30
0.0
 11
-135.0903282406873
 21
274.7133025118648
 31
0.0
  0
LINE
  5
162
330
1F
100
AcDbEntity
  8
A-0_通り芯
  6
Continuous
 62
     3
370
     9
100
AcDbLine
 10
-480.0905261925454
 20
257.2132695198885
 30
0.0
 11
-135.0903282406873
 21
257.2132695198885
 31
0.0
  0
LINE
  5
163
330
1F
100
AcDbEntity
  8
A-0_通り芯
  6
Continuous
 62
     3
370
     9
100
AcDbLine
 10
-481.0904800037785
 20
256.2133157086554
 30
0.0
 11
-134.0903744294542
 21
256.2133157086554
 31
0.0
  0
LINE
  5
164
330
1F
100
AcDbEntity
  8
A-0_通り芯
  6
Continuous
 62
     3
370
     9
100
AcDbLine
 10
-480.0905261925454
 20
284.7132365279121
 30
0.0
 11
-135.0903282406873
 21
284.7132365279121
 31
0.0
  0
LINE
  5
165
330
1F
100
AcDbEntity
  8
A-0_通り芯
  6
Continuous
 62
     3
370
     9
100
AcDbLine
 10
-481.0904800037785
 20
303.4632365279121
 30
0.0
 11
-134.0903744294542
 21
303.4632365279121
 31
0.0
  0
LINE
  5
166
330
1F
100
AcDbEntity
  8
A-0_通り芯
  6
Continuous
 62
     3
370
     9
100
AcDbLine
 10
-480.0905261925454
 20
302.4632827166791
 30
0.0
 11
-135.0903282406873
 21
302.4632827166791
 31
0.0
  0
LINE
  5
167
330
1F
100
AcDbEntity
  8
A-0_通り芯
  6
Continuous
 62
     3
370
     9
100
AcDbLine
 10
-480.0905261925454
 20
219.7131705439595
 30
0.0
 11
-478.5973753268359
 21
219.7131705439595
 31
0.0
  0
LINE
  5
168
330
1F
100
AcDbEntity
  8
A-0_通り芯
  6
Continuous
 62
     3
370
     9
100
AcDbLine
 10
-133.590348035873
 20
286.2132167327264
 30
0.0
 11
-133.590348035873
 21
300.9632035359359
 31
0.0
  0
LINE
  5
169
330
1F
100
AcDbEntity
  8
A-0_通り芯
  6
Continuous
 62
     3
370
     9
100
AcDbLine
 10
-133.590348035873
 20
273.2132233311216
 30
0.0
 11
-133.590348035873
 21
258.7131507487737
 31
0.0
  0
LINE
  5
16A
330
1F
100
AcDbEntity
  8
A-0_通り芯
  6
Continuous
 62
     3
370
     9
100
AcDbLine
 10
-133.590348035873
 20
245.7131573471689
 30
0.0
 11
-133.590348035873
 21
231.2132827166791
 31
0.0
  0
LINE
  5
16B
330
1F
100
AcDbEntity
  8
A-0_通り芯
  6
Continuous
 62
     3
370
     9
100
AcDbLine
 10
-133.590348035873
 20
218.2132893150743
 30
0.0
 11
-133.590348035873
 21
203.7132167327264
 31
0.0
  0
LINE
  5
16C
330
1F
100
AcDbEntity
  8
A-0_通り芯
  6
Continuous
 62
     3
370
     9
100
AcDbLine
 10
-133.590348035873
 20
190.7132233311216
 30
0.0
 11
-133.590348035873
 21
176.2132497247027
 31
0.0
  0
LINE
  5
16D
330
1F
100
AcDbEntity
  8
A-0_通り芯
  6
Continuous
 62
     3
370
     9
100
AcDbLine
 10
-133.590348035873
 20
163.2132563230979
 30
0.0
 11
-133.590348035873
 21
148.7132827166791
 31
0.0
  0
LINE
  5
16E
330
1F
100
AcDbEntity
  8
A-0_通り芯
  6
Continuous
 62
     3
370
     9
100
AcDbLine
 10
-152.5903612326637
 20
283.7132827166791
 30
0.0
 11
-152.5903612326637
 21
275.7132563230979
 31
0.0
  0
LINE
  5
16F
330
1F
100
AcDbEntity
  8
A-0_通り芯
  6
Continuous
 62
     3
370
     9
100
AcDbLine
 10
-268.1903368186012
 20
283.7132827166791
 30
0.0
 11
-268.1903368186012
 21
275.7132563230979
 31
0.0
  0
LINE
  5
170
330
1F
100
AcDbEntity
  8
A-0_通り芯
  6
Continuous
 62
     3
370
     9
100
AcDbLine
 10
-248.190419298542
 20
283.7132827166791
 30
0.0
 11
-248.190419298542
 21
275.7132563230979
 31
0.0
  0
LINE
  5
171
330
1F
100
AcDbEntity
  8
A-0_通り芯
  6
Continuous
 62
     3
370
     9
100
AcDbLine
 10
-152.5903612326637
 20
256.2133157086554
 30
0.0
 11
-152.5903612326637
 21
248.2132893150743
 31
0.0
  0
LINE
  5
172
330
1F
100
AcDbEntity
  8
A-0_通り芯
  6
Continuous
 62
     3
370
     9
100
AcDbLine
 10
-268.1903368186012
 20
256.2133157086554
 30
0.0
 11
-268.1903368186012
 21
248.2132893150743
 31
0.0
  0
LINE
  5
173
330
1F
100
AcDbEntity
  8
A-0_通り芯
  6
Continuous
 62
     3
370
     9
100
AcDbLine
 10
-248.190419298542
 20
256.2133157086554
 30
0.0
 11
-248.190419298542
 21
248.2132893150743
 31
0.0
  0
LINE
  5
174
330
1F
100
AcDbEntity
  8
A-0_通り芯
  6
Continuous
 62
     3
370
     9
100
AcDbLine
 10
-152.5903612326637
 20
228.7132497247027
 30
0.0
 11
-152.5903612326637
 21
220.7131243551925
 31
0.0
  0
LINE
  5
175
330
1F
100
AcDbEntity
  8
A-0_通り芯
  6
Continuous
 62
     3
370
     9
100
AcDbLine
 10
-268.1903368186012
 20
228.7132497247027
 30
0.0
 11
-268.1903368186012
 21
220.7131243551925
 31
0.0
  0
LINE
  5
176
330
1F
100
AcDbEntity
  8
A-0_通り芯
  6
Continuous
 62
     3
370
     9
100
AcDbLine
 10
-248.190419298542
 20
228.7132497247027
 30
0.0
 11
-248.190419298542
 21
220.7131243551925
 31
0.0
  0
LINE
  5
177
330
1F
100
AcDbEntity
  8
A-0_通り芯
  6
Continuous
 62
     3
370
     9
100
AcDbLine
 10
-152.5903612326637
 20
201.21318374075
 30
0.0
 11
-152.5903612326637
 21
193.2131573471689
 31
0.0
  0
LINE
  5
178
330
1F
100
AcDbEntity
  8
A-0_通り芯
  6
Continuous
 62
     3
370
     9
100
AcDbLine
 10
-268.1903368186012
 20
201.21318374075
 30
0.0
 11
-268.1903368186012
 21
193.2131573471689
 31
0.0
  0
LINE
  5
179
330
1F
100
AcDbEntity
  8
A-0_通り芯
  6
Continuous
 62
     3
370
     9
100
AcDbLine
 10
-248.190419298542
 20
201.21318374075
 30
0.0
 11
-248.190419298542
 21
193.2131573471689
 31
0.0
  0
LINE
  5
17A
330
1F
100
AcDbEntity
  8
A-0_通り芯
  6
Continuous
 62
     3
370
     9
100
AcDbLine
 10
-152.5903612326637
 20
173.7132167327264
 30
0.0
 11
-152.5903612326637
 21
165.7131903391452
 31
0.0
  0
LINE
  5
17B
330
1F
100
AcDbEntity
  8
A-0_通り芯
  6
Continuous
 62
     3
370
     9
100
AcDbLine
 10
-268.1903368186012
 20
173.7132167327264
 30
0.0
 11
-268.1903368186012
 21
165.7131903391452
 31
0.0
  0
LINE
  5
17C
330
1F
100
AcDbEntity
  8
A-0_通り芯
  6
Continuous
 62
     3
370
     9
100
AcDbLine
 10
-248.190419298542
 20
173.7132167327264
 30
0.0
 11
-248.190419298542
 21
165.7131903391452
 31
0.0
  0
LINE
  5
17D
330
1F
100
AcDbEntity
  8
A-0_通り芯
  6
Continuous
 62
     3
370
     9
100
AcDbLine
 10
-152.5903612326637
 20
146.2131507487737
 30
0.0
 11
-152.5903612326637
 21
138.2132233311216
 31
0.0
  0
LINE
  5
17E
330
1F
100
AcDbEntity
  8
A-0_通り芯
  6
Continuous
 62
     3
370
     9
100
AcDbLine
 10
-268.1903368186012
 20
146.2131507487737
 30
0.0
 11
-268.1903368186012
 21
138.2132233311216
 31
0.0
  0
LINE
  5
17F
330
1F
100
AcDbEntity
  8
A-0_通り芯
  6
Continuous
 62
     3
370
     9
100
AcDbLine
 10
-248.190419298542
 20
146.2131507487737
 30
0.0
 11
-248.190419298542
 21
138.2132233311216
 31
0.0
  0
LINE
  5
180
330
1F
100
AcDbEntity
  8
A-0_通り芯
  6
Continuous
 62
     3
370
     9
100
AcDbLine
 10
-135.0903282406873
 20
219.7131705439595
 30
0.0
 11
-136.5834791063967
 21
219.7131705439595
 31
0.0
  0
LINE
  5
181
330
1F
100
AcDbEntity
  8
A-0_通り芯
  6
Continuous
 62
     3
370
     9
100
AcDbLine
 10
-132.7527147482886
 20
-205.7367905255085
 30
0.0
 11
-133.7526685595217
 21
-210.7366090696385
 31
0.0
  0
LINE
  5
182
330
1F
100
AcDbEntity
  8
A-0_通り芯
  6
Continuous
 62
     3
370
     9
100
AcDbLine
 10
-132.7527147482886
 20
-205.7367905255085
 30
0.0
 11
-239.4605938920809
 21
-205.7367905255085
 31
0.0
  0
LINE
  5
183
330
1F
100
AcDbEntity
  8
A-0_通り芯
  6
Continuous
 62
     3
370
     9
100
AcDbLine
 10
-133.8816341950792
 20
-210.7366090696385
 30
0.0
 11
-133.7526685595217
 21
-210.7366090696385
 31
0.0
  0
LINE
  5
184
330
1F
100
AcDbEntity
  8
A-0_通り芯
  6
Continuous
 62
     3
370
     9
100
AcDbLine
 10
-133.4419831182211
 20
-203.3246481585321
 30
0.0
 11
-132.7527147482886
 21
-205.7367905255085
 31
0.0
  0
LINE
  5
185
330
1F
100
AcDbEntity
  8
A-0_通り芯
  6
Continuous
 62
     3
370
     9
100
AcDbLine
 10
-136.6594926199102
 20
-224.3363966013109
 30
0.0
 11
-135.877186876667
 21
-212.6037404832787
 31
0.0
  0
LINE
  5
186
330
1F
100
AcDbEntity
  8
A-0_通り芯
  6
Continuous
 62
     3
370
     9
100
AcDbLine
 10
-243.3857812865065
 20
-208.9676122896554
 30
0.0
 11
-246.4341904134069
 21
-224.5251931859814
 31
0.0
  0
LINE
  5
187
330
1F
100
AcDbEntity
  8
A-0_通り芯
  6
Continuous
 62
     3
370
     9
100
AcDbLine
 10
-242.0862273380268
 20
-210.7366090696385
 30
0.0
 11
-153.3112029239643
 21
-210.7366090696385
 31
0.0
  0
LINE
  5
188
330
1F
100
AcDbEntity
  8
A-0_通り芯
  6
Continuous
 62
     3
370
     9
100
AcDbLine
 10
-257.4368990546653
 20
-225.7368070214966
 30
0.0
 11
-247.9061604302988
 21
-225.7368070214966
 31
0.0
  0
LINE
  5
189
330
1F
100
AcDbEntity
  8
A-0_通り芯
  6
Continuous
 62
     3
370
     9
100
AcDbLine
 10
-261.9573771743866
 20
-208.9676122896554
 30
0.0
 11
-258.9090175354507
 21
-224.5251931859814
 31
0.0
  0
LINE
  5
18A
330
1F
100
AcDbEntity
  8
A-0_通り芯
  6
Continuous
 62
     3
370
     9
100
AcDbLine
 10
-153.1980734370555
 20
-201.4046635987771
 30
0.0
 11
-153.7528335194035
 21
-202.236803722299
 31
0.0
  0
LINE
  5
18B
330
1F
100
AcDbEntity
  8
A-0_通り芯
  6
Continuous
 62
     3
370
     9
100
AcDbLine
 10
-139.555627279961
 20
-200.7367740295203
 30
0.0
 11
-151.9499869716839
 21
-200.7367740295203
 31
0.0
  0
LINE
  5
18C
330
1F
100
AcDbEntity
  8
A-0_通り芯
  6
Continuous
 62
     3
370
     9
100
AcDbLine
 10
-138.3075408145893
 20
-201.4046635987771
 30
0.0
 11
-137.7527807322413
 21
-202.236803722299
 31
0.0
  0
LINE
  5
18D
330
1F
100
AcDbEntity
  8
A-0_通り芯
  6
Continuous
 62
     3
370
     9
100
AcDbLine
 10
-174.798085314167
 20
-201.4046635987771
 30
0.0
 11
-175.3528453965149
 21
-202.236803722299
 31
0.0
  0
LINE
  5
18E
330
1F
100
AcDbEntity
  8
A-0_通り芯
  6
Continuous
 62
     3
370
     9
100
AcDbLine
 10
-161.1556391570724
 20
-200.7367740295203
 30
0.0
 11
-173.5500978247244
 21
-200.7367740295203
 31
0.0
  0
LINE
  5
18F
330
1F
100
AcDbEntity
  8
A-0_通り芯
  6
Continuous
 62
     3
370
     9
100
AcDbLine
 10
-159.9075526917007
 20
-201.4046635987771
 30
0.0
 11
-159.3526936334238
 21
-202.236803722299
 31
0.0
  0
LINE
  5
190
330
1F
100
AcDbEntity
  8
A-0_通り芯
  6
Continuous
 62
     3
370
     9
100
AcDbLine
 10
-196.3979982153494
 20
-201.4046635987771
 30
0.0
 11
-196.9527582976974
 21
-202.236803722299
 31
0.0
  0
LINE
  5
191
330
1F
100
AcDbEntity
  8
A-0_通り芯
  6
Continuous
 62
     3
370
     9
100
AcDbLine
 10
-182.7555520582548
 20
-200.7367740295203
 30
0.0
 11
-195.1499117499778
 21
-200.7367740295203
 31
0.0
  0
LINE
  5
192
330
1F
100
AcDbEntity
  8
A-0_通り芯
  6
Continuous
 62
     3
370
     9
100
AcDbLine
 10
-181.5074655928832
 20
-201.4046635987771
 30
0.0
 11
-180.9528044864643
 21
-202.236803722299
 31
0.0
  0
LINE
  5
193
330
1F
100
AcDbEntity
  8
A-0_通り芯
  6
Continuous
 62
     3
370
     9
100
AcDbLine
 10
-217.99810906839
 20
-201.4046635987771
 30
0.0
 11
-218.5527206868444
 21
-202.236803722299
 31
0.0
  0
LINE
  5
194
330
1F
100
AcDbEntity
  8
A-0_通り芯
  6
Continuous
 62
     3
370
     9
100
AcDbLine
 10
-204.3556629112953
 20
-200.7367740295203
 30
0.0
 11
-216.7500720909828
 21
-200.7367740295203
 31
0.0
  0
LINE
  5
195
330
1F
100
AcDbEntity
  8
A-0_通り芯
  6
Continuous
 62
     3
370
     9
100
AcDbLine
 10
-203.1075764459238
 20
-201.4046635987771
 30
0.0
 11
-202.5528163635757
 21
-202.236803722299
 31
0.0
  0
LINE
  5
196
330
1F
100
AcDbEntity
  8
A-0_通り芯
  6
Continuous
 62
     3
370
     9
100
AcDbLine
 10
-239.5979724816078
 20
-201.4046635987771
 30
0.0
 11
-240.1527325639559
 21
-202.236803722299
 31
0.0
  0
LINE
  5
197
330
1F
100
AcDbEntity
  8
A-0_通り芯
  6
Continuous
 62
     3
370
     9
100
AcDbLine
 10
-225.9555758124778
 20
-200.7367740295203
 30
0.0
 11
-238.3498860162363
 21
-200.7367740295203
 31
0.0
  0
LINE
  5
198
330
1F
100
AcDbEntity
  8
A-0_通り芯
  6
Continuous
 62
     3
370
     9
100
AcDbLine
 10
-224.7074893471062
 20
-201.4046635987771
 30
0.0
 11
-224.1527292647582
 21
-202.236803722299
 31
0.0
  0
LINE
  5
199
330
1F
100
AcDbEntity
  8
A-0_通り芯
  6
Continuous
 62
     3
370
     9
100
AcDbLine
 10
-261.1981328226129
 20
-201.4046635987771
 30
0.0
 11
-261.7527444410673
 21
-202.236803722299
 31
0.0
  0
LINE
  5
19A
330
1F
100
AcDbEntity
  8
A-0_通り芯
  6
Continuous
 62
     3
370
     9
100
AcDbLine
 10
-247.5555876895893
 20
-200.7367740295203
 30
0.0
 11
-259.9498978933477
 21
-200.7367740295203
 31
0.0
  0
LINE
  5
19B
330
1F
100
AcDbEntity
  8
A-0_通り芯
  6
Continuous
 62
     3
370
     9
100
AcDbLine
 10
-246.3075012242176
 20
-201.4046635987771
 30
0.0
 11
-245.7527906298342
 21
-202.236803722299
 31
0.0
  0
LINE
  5
19C
330
1F
100
AcDbEntity
  8
A-0_通り芯
  6
Continuous
 62
     3
370
     9
100
AcDbLine
 10
-282.7981446997244
 20
-201.4046635987771
 30
0.0
 11
-283.3527068302143
 21
-202.236803722299
 31
0.0
  0
LINE
  5
19D
330
1F
100
AcDbEntity
  8
A-0_通り芯
  6
Continuous
 62
     3
370
     9
100
AcDbLine
 10
-269.1555995667007
 20
-200.7367740295203
 30
0.0
 11
-281.5500582343528
 21
-200.7367740295203
 31
0.0
  0
LINE
  5
19E
330
1F
100
AcDbEntity
  8
A-0_通り芯
  6
Continuous
 62
     3
370
     9
100
AcDbLine
 10
-267.9075131013292
 20
-201.4046635987771
 30
0.0
 11
-267.3527530189812
 21
-202.236803722299
 31
0.0
  0
LINE
  5
19F
330
1F
100
AcDbEntity
  8
A-0_通り芯
  6
Continuous
 62
     3
370
     9
100
AcDbLine
 10
-304.3980081129423
 20
-201.4046635987771
 30
0.0
 11
-304.9527681952903
 21
-202.236803722299
 31
0.0
  0
LINE
  5
1A0
330
1F
100
AcDbEntity
  8
A-0_通り芯
  6
Continuous
 62
     3
370
     9
100
AcDbLine
 10
-290.7556114438123
 20
-200.7367740295203
 30
0.0
 11
-303.1499216475707
 21
-200.7367740295203
 31
0.0
  0
LINE
  5
1A1
330
1F
100
AcDbEntity
  8
A-0_通り芯
  6
Continuous
 62
     3
370
     9
100
AcDbLine
 10
-289.5074754904762
 20
-201.4046635987771
 30
0.0
 11
-288.9527648960926
 21
-202.236803722299
 31
0.0
  0
LINE
  5
1A2
330
1F
100
AcDbEntity
  8
A-0_通り芯
  6
Continuous
 62
     3
370
     9
100
AcDbLine
 10
-152.0284748834238
 20
-208.9522710206521
 30
0.0
 11
-148.9127126368021
 21
-224.5308843019021
 31
0.0
  0
LINE
  5
1A3
330
1F
100
AcDbEntity
  8
A-0_通り芯
  6
Continuous
 62
     3
370
     9
100
AcDbLine
 10
-158.5048658251467
 20
-210.7366090696385
 30
0.0
 11
-183.4585780823257
 21
-232.1256537539713
 31
0.0
  0
LINE
  5
1A4
330
1F
100
AcDbEntity
  8
A-0_通り芯
  6
Continuous
 62
     3
370
     9
100
AcDbLine
 10
212.6095371520491
 20
123.2658785253784
 30
0.0
 11
212.6095371520491
 21
133.6605285464933
 31
0.0
  0
LINE
  5
1A5
330
1F
100
AcDbEntity
  8
A-0_通り芯
  6
Continuous
 62
     3
370
     9
100
AcDbLine
 10
214.1096163327925
 20
120.8446303729291
 30
0.0
 11
214.1096163327925
 21
136.0817766989425
 31
0.0
  0
LINE
  5
1A6
330
1F
100
AcDbEntity
  8
A-0_通り芯
  6
Continuous
 62
     3
370
     9
100
AcDbLine
 10
222.6095701440256
 20
124.6928144945506
 30
0.0
 11
222.6095701440256
 21
132.233592577321
 31
0.0
  0
LINE
  5
1A7
330
1F
100
AcDbEntity
  8
A-0_通り芯
  6
Continuous
 62
     3
370
     9
100
AcDbLine
 10
237.6095701440256
 20
82.80758698188167
 30
0.0
 11
237.6095701440256
 21
174.1187211140607
 31
0.0
  0
LINE
  5
1A8
330
1F
100
AcDbEntity
  8
A-0_通り芯
  6
Continuous
 62
     3
370
     9
100
AcDbLine
 10
237.6095701440256
 20
290.8900273323885
 30
0.0
 11
237.6095701440256
 21
298.0599426089933
 31
0.0
  0
LINE
  5
1A9
330
1F
100
AcDbEntity
  8
A-0_通り芯
  6
Continuous
 62
     3
370
     9
100
AcDbLine
 10
224.4764541178431
 20
300.3386654236047
 30
0.0
 11
236.2093576756979
 21
299.5565576322196
 31
0.0
  0
LINE
  5
1AA
330
1F
100
AcDbEntity
  8
A-0_通り芯
  6
Continuous
 62
     3
370
     9
100
AcDbLine
 10
220.4596150131135
 20
288.6058608416791
 30
0.0
 11
236.1843167656473
 21
289.3919276702264
 31
0.0
  0
LINE
  5
1AB
330
1F
100
AcDbEntity
  8
A-0_通り芯
  6
Continuous
 62
     3
370
     9
100
AcDbLine
 10
213.2776246731642
 20
287.1429966102601
 30
0.0
 11
214.1096163327925
 21
286.5882365279121
 31
0.0
  0
LINE
  5
1AC
330
1F
100
AcDbEntity
  8
A-0_通り芯
  6
Continuous
 62
     3
370
     9
100
AcDbLine
 10
213.2776246731642
 20
300.0335226343311
 30
0.0
 11
214.1096163327925
 21
300.58818374075
 31
0.0
  0
LINE
  5
1AD
330
1F
100
AcDbEntity
  8
A-0_通り芯
  6
Continuous
 62
     3
370
     9
100
AcDbLine
 10
212.6095371520491
 20
298.7855351448885
 30
0.0
 11
212.6095371520491
 21
288.3909840997027
 31
0.0
  0
LINE
  5
1AE
330
1F
100
AcDbEntity
  8
A-0_通り芯
  6
Continuous
 62
     3
370
     9
100
AcDbLine
 10
215.1974607690256
 20
302.7740671339088
 30
0.0
 11
217.6095041600729
 21
303.4632365279121
 31
0.0
  0
LINE
  5
1AF
330
1F
100
AcDbEntity
  8
A-0_通り芯
  6
Continuous
 62
     3
370
     9
100
AcDbLine
 10
217.6095041600729
 20
303.4632365279121
 30
0.0
 11
222.6095701440256
 21
302.46318374075
 31
0.0
  0
LINE
  5
1B0
330
1F
100
AcDbEntity
  8
A-0_通り芯
  6
Continuous
 62
     3
370
     9
100
AcDbLine
 10
222.6095701440256
 20
302.3343170811216
 30
0.0
 11
222.6095701440256
 21
302.46318374075
 31
0.0
  0
LINE
  5
1B1
330
1F
100
AcDbEntity
  8
A-0_通り芯
  6
Continuous
 62
     3
370
     9
100
AcDbLine
 10
217.6095041600729
 20
285.6094635654966
 30
0.0
 11
217.6095041600729
 21
283.7132827166791
 31
0.0
  0
LINE
  5
1B2
330
1F
100
AcDbEntity
  8
A-0_通り芯
  6
Continuous
 62
     3
370
     9
100
AcDbLine
 10
215.1974607690256
 20
284.4024521106824
 30
0.0
 11
217.6095041600729
 21
283.7132827166791
 31
0.0
  0
LINE
  5
1B3
330
1F
100
AcDbEntity
  8
A-0_通り芯
  6
Continuous
 62
     3
370
     9
100
AcDbLine
 10
214.1096163327925
 20
273.5818096909189
 30
0.0
 11
214.1096163327925
 21
258.3447623408345
 31
0.0
  0
LINE
  5
1B4
330
1F
100
AcDbEntity
  8
A-0_通り芯
  6
Continuous
 62
     3
370
     9
100
AcDbLine
 10
215.1974607690256
 20
275.0240869290946
 30
0.0
 11
217.6095041600729
 21
275.7132563230979
 31
0.0
  0
LINE
  5
1B5
330
1F
100
AcDbEntity
  8
A-0_通り芯
  6
Continuous
 62
     3
370
     9
100
AcDbLine
 10
213.2776246731642
 20
259.5178250519832
 30
0.0
 11
214.1096163327925
 21
258.9632629214933
 31
0.0
  0
LINE
  5
1B6
330
1F
100
AcDbEntity
  8
A-0_通り芯
  6
Continuous
 62
     3
370
     9
100
AcDbLine
 10
212.6095371520491
 20
271.1605615384696
 30
0.0
 11
212.6095371520491
 21
260.7659115173547
 31
0.0
  0
LINE
  5
1B7
330
1F
100
AcDbEntity
  8
A-0_通り芯
  6
Continuous
 62
     3
370
     9
100
AcDbLine
 10
213.2776246731642
 20
272.4086480038412
 30
0.0
 11
214.1096163327925
 21
272.9632101343311
 31
0.0
  0
LINE
  5
1B8
330
1F
100
AcDbEntity
  8
A-0_通り芯
  6
Continuous
 62
     3
370
     9
100
AcDbLine
 10
214.1096163327925
 20
285.8447293488582
 30
0.0
 11
214.1096163327925
 21
301.3317898957332
 31
0.0
  0
LINE
  5
1B9
330
1F
100
AcDbEntity
  8
A-0_通り芯
  6
Continuous
 62
     3
370
     9
100
AcDbLine
 10
215.1974607690256
 20
229.402320142777
 30
0.0
 11
217.6095041600729
 21
228.7132497247027
 31
0.0
  0
LINE
  5
1BA
330
1F
100
AcDbEntity
  8
A-0_通り芯
  6
Continuous
 62
     3
370
     9
100
AcDbLine
 10
214.1096163327925
 20
246.0817437069662
 30
0.0
 11
214.1096163327925
 21
230.8447953328107
 31
0.0
  0
LINE
  5
1BB
330
1F
100
AcDbEntity
  8
A-0_通り芯
  6
Continuous
 62
     3
370
     9
100
AcDbLine
 10
215.1974607690256
 20
247.524119921071
 30
0.0
 11
217.6095041600729
 21
248.2132893150743
 31
0.0
  0
LINE
  5
1BC
330
1F
100
AcDbEntity
  8
A-0_通り芯
  6
Continuous
 62
     3
370
     9
100
AcDbLine
 10
213.2776246731642
 20
232.0178580439595
 30
0.0
 11
214.1096163327925
 21
231.4632959134696
 31
0.0
  0
LINE
  5
1BD
330
1F
100
AcDbEntity
  8
A-0_通り芯
  6
Continuous
 62
     3
370
     9
100
AcDbLine
 10
212.6095371520491
 20
243.6604955545169
 30
0.0
 11
212.6095371520491
 21
233.2659445093311
 31
0.0
  0
LINE
  5
1BE
330
1F
100
AcDbEntity
  8
A-0_通り芯
  6
Continuous
 62
     3
370
     9
100
AcDbLine
 10
213.2776246731642
 20
244.9085820198885
 30
0.0
 11
214.1096163327925
 21
245.4632431263074
 31
0.0
  0
LINE
  5
1BF
330
1F
100
AcDbEntity
  8
A-0_通り芯
  6
Continuous
 62
     3
370
     9
100
AcDbLine
 10
215.1974607690256
 20
201.9023531347534
 30
0.0
 11
217.6095041600729
 21
201.2132827166791
 31
0.0
  0
LINE
  5
1C0
330
1F
100
AcDbEntity
  8
A-0_通り芯
  6
Continuous
 62
     3
370
     9
100
AcDbLine
 10
214.1096163327925
 20
218.5817766989425
 30
0.0
 11
214.1096163327925
 21
203.3446303729291
 31
0.0
  0
LINE
  5
1C1
330
1F
100
AcDbEntity
  8
A-0_通り芯
  6
Continuous
 62
     3
370
     9
100
AcDbLine
 10
215.1974607690256
 20
220.0240539371183
 30
0.0
 11
217.6095041600729
 21
220.7133223070506
 31
0.0
  0
LINE
  5
1C2
330
1F
100
AcDbEntity
  8
A-0_通り芯
  6
Continuous
 62
     3
370
     9
100
AcDbLine
 10
213.2776246731642
 20
204.5178910359357
 30
0.0
 11
214.1096163327925
 21
203.9632299295169
 31
0.0
  0
LINE
  5
1C3
330
1F
100
AcDbEntity
  8
A-0_通り芯
  6
Continuous
 62
     3
370
     9
100
AcDbLine
 10
212.6095371520491
 20
216.1604295705642
 30
0.0
 11
212.6095371520491
 21
205.7659775013074
 31
0.0
  0
LINE
  5
1C4
330
1F
100
AcDbEntity
  8
A-0_通り芯
  6
Continuous
 62
     3
370
     9
100
AcDbLine
 10
213.2776246731642
 20
217.4085160359357
 30
0.0
 11
214.1096163327925
 21
217.9632761182838
 31
0.0
  0
LINE
  5
1C5
330
1F
100
AcDbEntity
  8
A-0_通り芯
  6
Continuous
 62
     3
370
     9
100
AcDbLine
 10
215.1974607690256
 20
174.4023861267297
 30
0.0
 11
217.6095041600729
 21
173.7132167327264
 31
0.0
  0
LINE
  5
1C6
330
1F
100
AcDbEntity
  8
A-0_通り芯
  6
Continuous
 62
     3
370
     9
100
AcDbLine
 10
214.1096163327925
 20
191.0818096909189
 30
0.0
 11
214.1096163327925
 21
175.8446633649054
 31
0.0
  0
LINE
  5
1C7
330
1F
100
AcDbEntity
  8
A-0_通り芯
  6
Continuous
 62
     3
370
     9
100
AcDbLine
 10
215.1974607690256
 20
192.5240869290946
 30
0.0
 11
217.6095041600729
 21
193.2132563230979
 31
0.0
  0
LINE
  5
1C8
330
1F
100
AcDbEntity
  8
A-0_通り芯
  6
Continuous
 62
     3
370
     9
100
AcDbLine
 10
213.2776246731642
 20
177.0179240279121
 30
0.0
 11
214.1096163327925
 21
176.4632629214933
 31
0.0
  0
LINE
  5
1C9
330
1F
100
AcDbEntity
  8
A-0_通り芯
  6
Continuous
 62
     3
370
     9
100
AcDbLine
 10
212.6095371520491
 20
188.6604625625405
 30
0.0
 11
212.6095371520491
 21
178.2660104932838
 31
0.0
  0
LINE
  5
1CA
330
1F
100
AcDbEntity
  8
A-0_通り芯
  6
Continuous
 62
     3
370
     9
100
AcDbLine
 10
213.2776246731642
 20
189.9085490279121
 30
0.0
 11
214.1096163327925
 21
190.4632101343311
 31
0.0
  0
LINE
  5
1CB
330
1F
100
AcDbEntity
  8
A-0_通り芯
  6
Continuous
 62
     3
370
     9
100
AcDbLine
 10
215.1974607690256
 20
146.902320142777
 30
0.0
 11
217.6095041600729
 21
146.2133487006318
 31
0.0
  0
LINE
  5
1CC
330
1F
100
AcDbEntity
  8
A-0_通り芯
  6
Continuous
 62
     3
370
     9
100
AcDbLine
 10
214.1096163327925
 20
163.5817437069662
 30
0.0
 11
214.1096163327925
 21
148.3446963568818
 31
0.0
  0
LINE
  5
1CD
330
1F
100
AcDbEntity
  8
A-0_通り芯
  6
Continuous
 62
     3
370
     9
100
AcDbLine
 10
215.1974607690256
 20
165.0240209451419
 30
0.0
 11
217.6095041600729
 21
165.7132893150743
 31
0.0
  0
LINE
  5
1CE
330
1F
100
AcDbEntity
  8
A-0_通り芯
  6
Continuous
 62
     3
370
     9
100
AcDbLine
 10
213.2776246731642
 20
149.5178580439594
 30
0.0
 11
214.1096163327925
 21
148.9632959134696
 31
0.0
  0
LINE
  5
1CF
330
1F
100
AcDbEntity
  8
A-0_通り芯
  6
Continuous
 62
     3
370
     9
100
AcDbLine
 10
212.6095371520491
 20
161.1604955545169
 30
0.0
 11
212.6095371520491
 21
150.7660434852601
 31
0.0
  0
LINE
  5
1D0
330
1F
100
AcDbEntity
  8
A-0_通り芯
  6
Continuous
 62
     3
370
     9
100
AcDbLine
 10
213.2776246731642
 20
162.4085820198885
 30
0.0
 11
214.1096163327925
 21
162.9632431263074
 31
0.0
  0
LINE
  5
1D1
330
1F
100
AcDbEntity
  8
A-0_通り芯
  6
Continuous
 62
     3
370
     9
100
AcDbLine
 10
215.1974607690256
 20
137.5240539371183
 30
0.0
 11
217.6095041600729
 21
138.2133223070506
 31
0.0
  0
LINE
  5
1D2
330
1F
100
AcDbEntity
  8
A-0_通り芯
  6
Continuous
 62
     3
370
     9
100
AcDbLine
 10
213.2776246731642
 20
134.9085160359357
 30
0.0
 11
214.1096163327925
 21
135.4631771423547
 31
0.0
  0
LINE
  5
1D3
330
1F
100
AcDbEntity
  8
A-0_通り芯
  6
Continuous
 62
     3
370
     9
100
AcDbLine
 10
217.6095041600729
 20
246.9226432002095
 30
0.0
 11
217.6095041600729
 21
257.5038628475912
 31
0.0
  0
LINE
  5
1D4
330
1F
100
AcDbEntity
  8
A-0_通り芯
  6
Continuous
 62
     3
370
     9
100
AcDbLine
 10
247.6096031360019
 20
186.0599690025743
 30
0.0
 11
247.6096031360019
 21
180.86650405325
 31
0.0
  0
LINE
  5
1D5
330
1F
100
AcDbEntity
  8
A-0_通り芯
  6
Continuous
 62
     3
370
     9
100
AcDbLine
 10
217.6095041600729
 20
191.9452756959865
 30
0.0
 11
217.6095041600729
 21
202.5038298556148
 31
0.0
  0
LINE
  5
1D6
330
1F
100
AcDbEntity
  8
A-0_通り芯
  6
Continuous
 62
     3
370
     9
100
AcDbLine
 10
217.6095041600729
 20
174.6564573366115
 30
0.0
 11
217.6095041600729
 21
164.4226432002094
 31
0.0
  0
LINE
  5
1D7
330
1F
100
AcDbEntity
  8
A-0_通り芯
  6
Continuous
 62
     3
370
     9
100
AcDbLine
 10
217.6095041600729
 20
136.9225772162568
 30
0.0
 11
217.6095041600729
 21
147.5038958395675
 31
0.0
  0
LINE
  5
1D8
330
1F
100
AcDbEntity
  8
A-0_通り芯
  6
Continuous
 62
     3
370
     9
100
AcDbLine
 10
217.6095041600729
 20
274.4226102082332
 30
0.0
 11
217.6095041600729
 21
283.5882761182838
 31
0.0
  0
LINE
  5
1D9
330
1F
100
AcDbEntity
  8
A-0_通り芯
  6
Continuous
 62
     3
370
     9
100
AcDbLine
 10
220.4099290967283
 20
189.2761918171857
 30
0.0
 11
246.2093906676741
 21
187.5565840258006
 31
0.0
  0
LINE
  5
1DA
330
1F
100
AcDbEntity
  8
A-0_通り芯
  6
Continuous
 62
     3
370
     9
100
AcDbLine
 10
242.2768790544985
 20
179.1078007698885
 30
0.0
 11
246.2093906676741
 21
179.3698890300237
 31
0.0
  0
LINE
  5
1DB
330
1F
100
AcDbEntity
  8
A-0_通り芯
  6
Continuous
 62
     3
370
     9
100
AcDbLine
 10
220.4099290967283
 20
177.6498853349223
 30
0.0
 11
242.2768790544985
 21
179.1078007698885
 31
0.0
  0
LINE
  5
1DC
330
1F
100
AcDbEntity
  8
A-0_通り芯
  6
Continuous
 62
     3
370
     9
100
AcDbLine
 10
222.6095701440256
 20
262.1929464624561
 30
0.0
 11
222.6095701440256
 21
269.7336255692973
 31
0.0
  0
LINE
  5
1DD
330
1F
100
AcDbEntity
  8
A-0_通り芯
  6
Continuous
 62
     3
370
     9
100
AcDbLine
 10
220.0211516474039
 20
271.4809466208175
 30
0.0
 11
221.40374640036
 21
271.2044078750405
 31
0.0
  0
LINE
  5
1DE
330
1F
100
AcDbEntity
  8
A-0_通り芯
  6
Continuous
 62
     3
370
     9
100
AcDbLine
 10
220.0211516474039
 20
260.4455264350068
 30
0.0
 11
221.40374640036
 21
260.7220651807838
 31
0.0
  0
LINE
  5
1DF
330
1F
100
AcDbEntity
  8
A-0_通り芯
  6
Continuous
 62
     3
370
     9
100
AcDbLine
 10
215.1974607690256
 20
256.9023861267297
 30
0.0
 11
217.6095041600729
 21
256.2132167327264
 31
0.0
  0
LINE
  5
1E0
330
1F
100
AcDbEntity
  8
A-0_通り芯
  6
Continuous
 62
     3
370
     9
100
AcDbLine
 10
222.6095701440256
 20
234.6928804785034
 30
0.0
 11
222.6095701440256
 21
242.2335595853446
 31
0.0
  0
LINE
  5
1E1
330
1F
100
AcDbEntity
  8
A-0_通り芯
  6
Continuous
 62
     3
370
     9
100
AcDbLine
 10
220.0211516474039
 20
243.9808806368648
 30
0.0
 11
221.40374640036
 21
243.7044408670169
 31
0.0
  0
LINE
  5
1E2
330
1F
100
AcDbEntity
  8
A-0_通り芯
  6
Continuous
 62
     3
370
     9
100
AcDbLine
 10
220.0211516474039
 20
232.9455594269832
 30
0.0
 11
221.40374640036
 21
233.2220981727601
 31
0.0
  0
LINE
  5
1E3
330
1F
100
AcDbEntity
  8
A-0_通り芯
  6
Continuous
 62
     3
370
     9
100
AcDbLine
 10
222.6095701440256
 20
207.1930124464088
 30
0.0
 11
222.6095701440256
 21
214.7334936013919
 31
0.0
  0
LINE
  5
1E4
330
1F
100
AcDbEntity
  8
A-0_通り芯
  6
Continuous
 62
     3
370
     9
100
AcDbLine
 10
220.0211516474039
 20
216.4809136288412
 30
0.0
 11
221.40374640036
 21
216.2043748830642
 31
0.0
  0
LINE
  5
1E5
330
1F
100
AcDbEntity
  8
A-0_通り芯
  6
Continuous
 62
     3
370
     9
100
AcDbLine
 10
220.0211516474039
 20
205.4455924189595
 30
0.0
 11
221.40374640036
 21
205.7219332128784
 31
0.0
  0
LINE
  5
1E6
330
1F
100
AcDbEntity
  8
A-0_通り芯
  6
Continuous
 62
     3
370
     9
100
AcDbLine
 10
217.6095041600729
 20
229.6564903285878
 30
0.0
 11
217.6095041600729
 21
219.4225772162568
 31
0.0
  0
LINE
  5
1E7
330
1F
100
AcDbEntity
  8
A-0_通り芯
  6
Continuous
 62
     3
370
     9
100
AcDbLine
 10
222.6095701440256
 20
152.1928804785034
 30
0.0
 11
222.6095701440256
 21
159.7335595853446
 31
0.0
  0
LINE
  5
1E8
330
1F
100
AcDbEntity
  8
A-0_通り芯
  6
Continuous
 62
     3
370
     9
100
AcDbLine
 10
220.0211516474039
 20
161.4807816609357
 30
0.0
 11
221.40374640036
 21
161.2044408670169
 31
0.0
  0
LINE
  5
1E9
330
1F
100
AcDbEntity
  8
A-0_通り芯
  6
Continuous
 62
     3
370
     9
100
AcDbLine
 10
220.0211516474039
 20
150.4456584029121
 30
0.0
 11
221.40374640036
 21
150.7219991968311
 31
0.0
  0
LINE
  5
1EA
330
1F
100
AcDbEntity
  8
A-0_通り芯
  6
Continuous
 62
     3
370
     9
100
AcDbLine
 10
220.0211516474039
 20
133.9809136288412
 30
0.0
 11
221.40374640036
 21
133.7043748830642
 31
0.0
  0
LINE
  5
1EB
330
1F
100
AcDbEntity
  8
A-0_通り芯
  6
Continuous
 62
     3
370
     9
100
AcDbLine
 10
237.6095701440256
 20
140.4631441503784
 30
0.0
 11
251.6097153087214
 21
140.4631441503784
 31
0.0
  0
LINE
  5
1EC
330
1F
100
AcDbEntity
  8
A-0_通り芯
  6
Continuous
 62
     3
370
     9
100
AcDbLine
 10
237.6095701440256
 20
134.4631243551925
 30
0.0
 11
251.6097153087214
 21
134.4631243551925
 31
0.0
  0
LINE
  5
1ED
330
1F
100
AcDbEntity
  8
A-0_通り芯
  6
Continuous
 62
     3
370
     9
100
AcDbLine
 10
237.6095701440256
 20
122.463084764821
 30
0.0
 11
251.6097153087214
 21
122.463084764821
 31
0.0
  0
LINE
  5
1EE
330
1F
100
AcDbEntity
  8
A-0_通り芯
  6
Continuous
 62
     3
370
     9
100
AcDbLine
 10
237.6095701440256
 20
116.4631639455642
 30
0.0
 11
251.6097153087214
 21
116.4631639455642
 31
0.0
  0
LINE
  5
1EF
330
1F
100
AcDbEntity
  8
A-0_通り芯
  6
Continuous
 62
     3
370
     9
100
AcDbLine
 10
255.3321010245154
 20
130.963137551983
 30
0.0
 11
292.3322725827925
 21
130.963137551983
 31
0.0
  0
LINE
  5
1F0
330
1F
100
AcDbEntity
  8
A-0_通り芯
  6
Continuous
 62
     3
370
     9
100
AcDbLine
 10
255.3321010245154
 20
125.9631705439594
 30
0.0
 11
292.3322725827925
 21
125.9631705439594
 31
0.0
  0
LINE
  5
1F1
330
1F
100
AcDbEntity
  8
A-0_通り芯
  6
Continuous
 62
     3
370
     9
100
AcDbLine
 10
321.8613451123533
 20
145.069285936696
 30
0.0
 11
304.5670830768804
 21
107.0219985369916
 31
0.0
  0
LINE
  5
1F2
330
1F
100
AcDbEntity
  8
A-0_通り芯
  6
Continuous
 62
     3
370
     9
100
AcDbLine
 10
293.8318568838904
 20
137.46318374075
 30
0.0
 11
318.4040169345662
 21
137.46318374075
 31
0.0
  0
LINE
  5
1F3
330
1F
100
AcDbEntity
  8
A-0_通り芯
  6
Continuous
 62
     3
370
     9
100
AcDbLine
 10
293.8318568838904
 20
132.4631177567973
 30
0.0
 11
316.1310347238398
 21
132.4631177567973
 31
0.0
  0
LINE
  5
1F4
330
1F
100
AcDbEntity
  8
A-0_通り芯
  6
Continuous
 62
     3
370
     9
100
AcDbLine
 10
293.8318568838904
 20
124.4631903391452
 30
0.0
 11
312.49505499411
 21
124.4631903391452
 31
0.0
  0
LINE
  5
1F5
330
1F
100
AcDbEntity
  8
A-0_通り芯
  6
Continuous
 62
     3
370
     9
100
AcDbLine
 10
293.8318568838904
 20
119.4631243551925
 30
0.0
 11
310.2222707352419
 21
119.4631243551925
 31
0.0
  0
LINE
  5
1F6
330
1F
100
AcDbEntity
  8
A-0_通り芯
  6
Continuous
 62
     3
370
     9
100
AcDbLine
 10
-405.5902556583393
 20
-259.6300746788024
 30
0.0
 11
-405.5902556583393
 21
-283.6301538595457
 31
0.0
  0
LINE
  5
1F7
330
1F
100
AcDbEntity
  8
A-0_通り芯
  6
Continuous
 62
     3
370
     9
100
AcDbLine
 10
-410.5902721543275
 20
-259.6300746788024
 30
0.0
 11
-410.5902721543275
 21
-283.6301538595457
 31
0.0
  0
LINE
  5
1F8
330
1F
100
AcDbEntity
  8
A-0_通り芯
  6
Continuous
 62
     3
370
     9
100
AcDbLine
 10
-418.5903480358731
 20
-259.6300746788024
 30
0.0
 11
-418.5903480358731
 21
-283.6301538595457
 31
0.0
  0
LINE
  5
1F9
330
1F
100
AcDbEntity
  8
A-0_通り芯
  6
Continuous
 62
     3
370
     9
100
AcDbLine
 10
-423.5902655559322
 20
-259.6300746788024
 30
0.0
 11
-423.5902655559322
 21
-283.6300548836166
 31
0.0
  0
LINE
  5
1FA
330
1F
100
AcDbEntity
  8
A-0_通り芯
  6
Continuous
 62
     3
370
     9
100
AcDbLine
 10
-412.0901038952481
 20
-285.1301340643598
 30
0.0
 11
-412.0901038952481
 21
-305.1301010723835
 31
0.0
  0
LINE
  5
1FB
330
1F
100
AcDbEntity
  8
A-0_通り芯
  6
Continuous
 62
     3
370
     9
100
AcDbLine
 10
-417.0902193671653
 20
-285.1301340643598
 30
0.0
 11
-417.0902193671653
 21
-299.7738702077298
 31
0.0
  0
LINE
  5
1FC
330
1F
100
AcDbEntity
  8
A-0_通り芯
  6
Continuous
 62
     3
370
     9
100
AcDbLine
 10
-408.070790392292
 20
-309.435949889951
 30
0.0
 11
-420.8809974499356
 21
-295.7129373266064
 31
0.0
  0
LINE
  5
1FD
330
1F
100
AcDbEntity
  8
A-0_通り芯
  6
Continuous
 62
     3
370
     9
100
AcDbLine
 10
-419.0903249414897
 20
-226.2367344391487
 30
0.0
 11
-419.0903249414897
 21
-217.2367542343345
 31
0.0
  0
LINE
  5
1FE
330
1F
100
AcDbEntity
  8
A-0_通り芯
  6
Continuous
 62
     3
370
     9
100
AcDbLine
 10
-419.0903249414897
 20
-217.2367542343345
 30
0.0
 11
-410.0904437126045
 21
-217.2367542343345
 31
0.0
  0
LINE
  5
1FF
330
1F
100
AcDbEntity
  8
A-0_通り芯
  6
Continuous
 62
     3
370
     9
100
AcDbLine
 10
-410.0904437126045
 20
-217.2367542343345
 30
0.0
 11
-410.0904437126045
 21
-226.2367344391487
 31
0.0
  0
LINE
  5
200
330
1F
100
AcDbEntity
  8
A-0_通り芯
  6
Continuous
 62
     3
370
     9
100
AcDbLine
 10
-410.0904437126045
 20
-226.2367344391487
 30
0.0
 11
-419.0903249414897
 21
-226.2367344391487
 31
0.0
  0
LINE
  5
201
330
1F
100
AcDbEntity
  8
A-0_通り芯
  6
Continuous
 62
     3
370
     9
100
AcDbLine
 10
-420.5903051463038
 20
-210.7366090696385
 30
0.0
 11
-419.0903249414897
 21
-218.5232928481436
 31
0.0
  0
LINE
  5
202
330
1F
100
AcDbEntity
  8
A-0_通り芯
  6
Continuous
 62
     3
370
     9
100
AcDbLine
 10
-408.5904140198258
 20
-210.7366090696385
 30
0.0
 11
-410.0904437126045
 21
-218.5232928481436
 31
0.0
  0
LINE
  5
203
330
1F
100
AcDbEntity
  8
A-0_通り芯
  6
Continuous
 62
     3
370
     9
100
AcDbLine
 10
-417.5902952487109
 20
-226.2367344391487
 30
0.0
 11
-417.5902952487109
 21
-255.6301109699764
 31
0.0
  0
LINE
  5
204
330
1F
100
AcDbEntity
  8
A-0_通り芯
  6
Continuous
 62
     3
370
     9
100
AcDbLine
 10
-411.5903744294542
 20
-226.2367344391487
 30
0.0
 11
-411.5903744294542
 21
-255.6301109699764
 31
0.0
  0
LINE
  5
205
330
1F
100
AcDbEntity
  8
A-0_通り芯
  6
Continuous
 62
     3
370
     9
100
AcDbLine
 10
246.2093906676741
 20
132.5564520578952
 30
0.0
 11
237.6095701440256
 21
133.1298196149054
 31
0.0
  0
LINE
  5
206
330
1F
100
AcDbEntity
  8
A-0_通り芯
  6
Continuous
 62
     3
370
     9
100
AcDbLine
 10
-477.590493200569
 20
-29.66177996807603
 30
0.0
 11
-477.590493200569
 21
-35.66184925122639
 31
0.0
  0
LINE
  5
207
330
1F
100
AcDbEntity
  8
A-0_通り芯
  6
Continuous
 62
     3
370
     9
100
AcDbLine
 10
-471.5904734053832
 20
-29.66177996807603
 30
0.0
 11
-477.590493200569
 21
-35.66184925122639
 31
0.0
  0
LINE
  5
208
330
1F
100
AcDbEntity
  8
A-0_通り芯
  6
Continuous
 62
     3
370
     9
100
AcDbLine
 10
-467.3477712305522
 20
-29.66177996807603
 30
0.0
 11
-463.1051185436856
 21
-29.66177996807603
 31
0.0
  0
LINE
  5
209
330
1F
100
AcDbEntity
  8
A-0_通り芯
  6
Continuous
 62
     3
370
     9
100
AcDbLine
 10
-477.590493200569
 20
-29.66177996807603
 30
0.0
 11
-471.5904734053832
 21
-29.66177996807603
 31
0.0
  0
LINE
  5
20A
330
1F
100
AcDbEntity
  8
A-0_通り芯
  6
Continuous
 62
     3
370
     9
100
AcDbLine
 10
-467.3477712305522
 20
-29.66177996807603
 30
0.0
 11
-474.3477943249356
 21
-36.66180306245946
 31
0.0
  0
LINE
  5
20B
330
1F
100
AcDbEntity
  8
A-0_通り芯
  6
Continuous
 62
     3
370
     9
100
AcDbLine
 10
-463.1051185436856
 20
-29.66177996807603
 30
0.0
 11
-470.105141638069
 21
-36.66180306245946
 31
0.0
  0
LINE
  5
20C
330
1F
100
AcDbEntity
  8
A-0_通り芯
  6
Continuous
 62
     3
370
     9
100
AcDbLine
 10
-461.5904899013714
 20
-32.38975452466384
 30
0.0
 11
-465.8623899752734
 21
-36.66180306245946
 31
0.0
  0
LINE
  5
20D
330
1F
100
AcDbEntity
  8
A-0_通り芯
  6
Continuous
 62
     3
370
     9
100
AcDbLine
 10
-461.5904899013714
 20
-32.38975452466384
 30
0.0
 11
-461.5904899013714
 21
-40.93380211229056
 31
0.0
  0
LINE
  5
20E
330
1F
100
AcDbEntity
  8
A-0_通り芯
  6
Continuous
 62
     3
370
     9
100
AcDbLine
 10
-477.590493200569
 20
-43.66182615684296
 30
0.0
 11
-477.590493200569
 21
-37.66185584962165
 31
0.0
  0
LINE
  5
20F
330
1F
100
AcDbEntity
  8
A-0_通り芯
  6
Continuous
 62
     3
370
     9
100
AcDbLine
 10
-471.5904734053832
 20
-43.66182615684296
 30
0.0
 11
-477.590493200569
 21
-37.66185584962165
 31
0.0
  0
LINE
  5
210
330
1F
100
AcDbEntity
  8
A-0_通り芯
  6
Continuous
 62
     3
370
     9
100
AcDbLine
 10
-467.3477712305522
 20
-43.66182615684296
 30
0.0
 11
-463.1051185436856
 21
-43.66182615684296
 31
0.0
  0
LINE
  5
211
330
1F
100
AcDbEntity
  8
A-0_通り芯
  6
Continuous
 62
     3
370
     9
100
AcDbLine
 10
-477.590493200569
 20
-43.66182615684296
 30
0.0
 11
-471.5904734053832
 21
-43.66182615684296
 31
0.0
  0
LINE
  5
212
330
1F
100
AcDbEntity
  8
A-0_通り芯
  6
Continuous
 62
     3
370
     9
100
AcDbLine
 10
-467.3477712305522
 20
-43.66182615684296
 30
0.0
 11
-474.3477943249356
 21
-36.66180306245946
 31
0.0
  0
LINE
  5
213
330
1F
100
AcDbEntity
  8
A-0_通り芯
  6
Continuous
 62
     3
370
     9
100
AcDbLine
 10
-463.1051185436856
 20
-43.66182615684296
 30
0.0
 11
-470.105141638069
 21
-36.66180306245946
 31
0.0
  0
LINE
  5
214
330
1F
100
AcDbEntity
  8
A-0_通り芯
  6
Continuous
 62
     3
370
     9
100
AcDbLine
 10
-461.5904899013714
 20
-40.93380211229056
 30
0.0
 11
-465.8623899752734
 21
-36.66180306245946
 31
0.0
  0
LINE
  5
215
330
1F
100
AcDbEntity
  8
A-0_通り芯
  6
Continuous
 62
     3
370
     9
100
AcDbLine
 10
-455.5905195941501
 20
-29.66177996807603
 30
0.0
 11
-455.5905195941501
 21
-35.66184925122639
 31
0.0
  0
LINE
  5
216
330
1F
100
AcDbEntity
  8
A-0_通り芯
  6
Continuous
 62
     3
370
     9
100
AcDbLine
 10
-449.5904503109998
 20
-29.66177996807603
 30
0.0
 11
-455.5905195941501
 21
-35.66184925122639
 31
0.0
  0
LINE
  5
217
330
1F
100
AcDbEntity
  8
A-0_通り芯
  6
Continuous
 62
     3
370
     9
100
AcDbLine
 10
-445.3477976241332
 20
-29.66177996807603
 30
0.0
 11
-441.1050459613376
 21
-29.66177996807603
 31
0.0
  0
LINE
  5
218
330
1F
100
AcDbEntity
  8
A-0_通り芯
  6
Continuous
 62
     3
370
     9
100
AcDbLine
 10
-455.5905195941501
 20
-29.66177996807603
 30
0.0
 11
-449.5904503109998
 21
-29.66177996807603
 31
0.0
  0
LINE
  5
219
330
1F
100
AcDbEntity
  8
A-0_通り芯
  6
Continuous
 62
     3
370
     9
100
AcDbLine
 10
-445.3477976241332
 20
-29.66177996807603
 30
0.0
 11
-452.3477217425876
 21
-36.66180306245946
 31
0.0
  0
LINE
  5
21A
330
1F
100
AcDbEntity
  8
A-0_通り芯
  6
Continuous
 62
     3
370
     9
100
AcDbLine
 10
-441.1050459613376
 20
-29.66177996807603
 30
0.0
 11
-448.1051185436856
 21
-36.66180306245946
 31
0.0
  0
LINE
  5
21B
330
1F
100
AcDbEntity
  8
A-0_通り芯
  6
Continuous
 62
     3
370
     9
100
AcDbLine
 10
-439.5904173190234
 20
-32.38975452466384
 30
0.0
 11
-443.862465856819
 21
-36.66180306245946
 31
0.0
  0
LINE
  5
21C
330
1F
100
AcDbEntity
  8
A-0_通り芯
  6
Continuous
 62
     3
370
     9
100
AcDbLine
 10
-439.5904173190234
 20
-32.38975452466384
 30
0.0
 11
-439.5904173190234
 21
-40.93380211229056
 31
0.0
  0
LINE
  5
21D
330
1F
100
AcDbEntity
  8
A-0_通り芯
  6
Continuous
 62
     3
370
     9
100
AcDbLine
 10
-455.5905195941501
 20
-43.66182615684296
 30
0.0
 11
-455.5905195941501
 21
-37.66185584962165
 31
0.0
  0
LINE
  5
21E
330
1F
100
AcDbEntity
  8
A-0_通り芯
  6
Continuous
 62
     3
370
     9
100
AcDbLine
 10
-449.5904503109998
 20
-43.66182615684296
 30
0.0
 11
-455.5905195941501
 21
-37.66185584962165
 31
0.0
  0
LINE
  5
21F
330
1F
100
AcDbEntity
  8
A-0_通り芯
  6
Continuous
 62
     3
370
     9
100
AcDbLine
 10
-445.3477976241332
 20
-43.66182615684296
 30
0.0
 11
-441.1050459613376
 21
-43.66182615684296
 31
0.0
  0
LINE
  5
220
330
1F
100
AcDbEntity
  8
A-0_通り芯
  6
Continuous
 62
     3
370
     9
100
AcDbLine
 10
-455.5905195941501
 20
-43.66182615684296
 30
0.0
 11
-449.5904503109998
 21
-43.66182615684296
 31
0.0
  0
LINE
  5
221
330
1F
100
AcDbEntity
  8
A-0_通り芯
  6
Continuous
 62
     3
370
     9
100
AcDbLine
 10
-445.3477976241332
 20
-43.66182615684296
 30
0.0
 11
-452.3477217425876
 21
-36.66180306245946
 31
0.0
  0
LINE
  5
222
330
1F
100
AcDbEntity
  8
A-0_通り芯
  6
Continuous
 62
     3
370
     9
100
AcDbLine
 10
-441.1050459613376
 20
-43.66182615684296
 30
0.0
 11
-448.1051185436856
 21
-36.66180306245946
 31
0.0
  0
LINE
  5
223
330
1F
100
AcDbEntity
  8
A-0_通り芯
  6
Continuous
 62
     3
370
     9
100
AcDbLine
 10
-439.5904173190234
 20
-40.93380211229056
 30
0.0
 11
-443.862465856819
 21
-36.66180306245946
 31
0.0
  0
LINE
  5
224
330
1F
100
AcDbEntity
  8
A-0_通り芯
  6
Continuous
 62
     3
370
     9
100
AcDbLine
 10
-433.5904470118022
 20
-29.66177996807603
 30
0.0
 11
-433.5904470118022
 21
-35.66184925122639
 31
0.0
  0
LINE
  5
225
330
1F
100
AcDbEntity
  8
A-0_通り芯
  6
Continuous
 62
     3
370
     9
100
AcDbLine
 10
-427.5903777286518
 20
-29.66177996807603
 30
0.0
 11
-433.5904470118022
 21
-35.66184925122639
 31
0.0
  0
LINE
  5
226
330
1F
100
AcDbEntity
  8
A-0_通り芯
  6
Continuous
 62
     3
370
     9
100
AcDbLine
 10
-423.3477250417852
 20
-29.66177996807603
 30
0.0
 11
-419.1051218428832
 21
-29.66177996807603
 31
0.0
  0
LINE
  5
227
330
1F
100
AcDbEntity
  8
A-0_通り芯
  6
Continuous
 62
     3
370
     9
100
AcDbLine
 10
-433.5904470118022
 20
-29.66177996807603
 30
0.0
 11
-427.5903777286518
 21
-29.66177996807603
 31
0.0
  0
LINE
  5
228
330
1F
100
AcDbEntity
  8
A-0_通り芯
  6
Continuous
 62
     3
370
     9
100
AcDbLine
 10
-423.3477250417852
 20
-29.66177996807603
 30
0.0
 11
-430.3477976241332
 21
-36.66180306245946
 31
0.0
  0
LINE
  5
229
330
1F
100
AcDbEntity
  8
A-0_通り芯
  6
Continuous
 62
     3
370
     9
100
AcDbLine
 10
-419.1051218428832
 20
-29.66177996807603
 30
0.0
 11
-426.1050954493022
 21
-36.66180306245946
 31
0.0
  0
LINE
  5
22A
330
1F
100
AcDbEntity
  8
A-0_通り芯
  6
Continuous
 62
     3
370
     9
100
AcDbLine
 10
-417.590493200569
 20
-32.38975452466384
 30
0.0
 11
-421.8624922504001
 21
-36.66180306245946
 31
0.0
  0
LINE
  5
22B
330
1F
100
AcDbEntity
  8
A-0_通り芯
  6
Continuous
 62
     3
370
     9
100
AcDbLine
 10
-417.590493200569
 20
-32.38975452466384
 30
0.0
 11
-417.590493200569
 21
-40.93380211229056
 31
0.0
  0
LINE
  5
22C
330
1F
100
AcDbEntity
  8
A-0_通り芯
  6
Continuous
 62
     3
370
     9
100
AcDbLine
 10
-433.5904470118022
 20
-43.66182615684296
 30
0.0
 11
-433.5904470118022
 21
-37.66185584962165
 31
0.0
  0
LINE
  5
22D
330
1F
100
AcDbEntity
  8
A-0_通り芯
  6
Continuous
 62
     3
370
     9
100
AcDbLine
 10
-427.5903777286518
 20
-43.66182615684296
 30
0.0
 11
-433.5904470118022
 21
-37.66185584962165
 31
0.0
  0
LINE
  5
22E
330
1F
100
AcDbEntity
  8
A-0_通り芯
  6
Continuous
 62
     3
370
     9
100
AcDbLine
 10
-423.3477250417852
 20
-43.66182615684296
 30
0.0
 11
-419.1051218428832
 21
-43.66182615684296
 31
0.0
  0
LINE
  5
22F
330
1F
100
AcDbEntity
  8
A-0_通り芯
  6
Continuous
 62
     3
370
     9
100
AcDbLine
 10
-433.5904470118022
 20
-43.66182615684296
 30
0.0
 11
-427.5903777286518
 21
-43.66182615684296
 31
0.0
  0
LINE
  5
230
330
1F
100
AcDbEntity
  8
A-0_通り芯
  6
Continuous
 62
     3
370
     9
100
AcDbLine
 10
-423.3477250417852
 20
-43.66182615684296
 30
0.0
 11
-430.3477976241332
 21
-36.66180306245946
 31
0.0
  0
LINE
  5
231
330
1F
100
AcDbEntity
  8
A-0_通り芯
  6
Continuous
 62
     3
370
     9
100
AcDbLine
 10
-419.1051218428832
 20
-43.66182615684296
 30
0.0
 11
-426.1050954493022
 21
-36.66180306245946
 31
0.0
  0
LINE
  5
232
330
1F
100
AcDbEntity
  8
A-0_通り芯
  6
Continuous
 62
     3
370
     9
100
AcDbLine
 10
-417.590493200569
 20
-40.93380211229056
 30
0.0
 11
-421.8624922504001
 21
-36.66180306245946
 31
0.0
  0
LINE
  5
233
330
1F
100
AcDbEntity
  8
A-0_通り芯
  6
Continuous
 62
     3
370
     9
100
AcDbLine
 10
-411.5904239174187
 20
-29.66177996807603
 30
0.0
 11
-411.5904239174187
 21
-35.66184925122639
 31
0.0
  0
LINE
  5
234
330
1F
100
AcDbEntity
  8
A-0_通り芯
  6
Continuous
 62
     3
370
     9
100
AcDbLine
 10
-405.5904536101974
 20
-29.66177996807603
 30
0.0
 11
-411.5904239174187
 21
-35.66184925122639
 31
0.0
  0
LINE
  5
235
330
1F
100
AcDbEntity
  8
A-0_通り芯
  6
Continuous
 62
     3
370
     9
100
AcDbLine
 10
-401.3478009233309
 20
-29.66177996807603
 30
0.0
 11
-397.1051482364643
 21
-29.66177996807603
 31
0.0
  0
LINE
  5
236
330
1F
100
AcDbEntity
  8
A-0_通り芯
  6
Continuous
 62
     3
370
     9
100
AcDbLine
 10
-411.5904239174187
 20
-29.66177996807603
 30
0.0
 11
-405.5904536101974
 21
-29.66177996807603
 31
0.0
  0
LINE
  5
237
330
1F
100
AcDbEntity
  8
A-0_通り芯
  6
Continuous
 62
     3
370
     9
100
AcDbLine
 10
-401.3478009233309
 20
-29.66177996807603
 30
0.0
 11
-408.3478240177143
 21
-36.66180306245946
 31
0.0
  0
LINE
  5
238
330
1F
100
AcDbEntity
  8
A-0_通り芯
  6
Continuous
 62
     3
370
     9
100
AcDbLine
 10
-397.1051482364643
 20
-29.66177996807603
 30
0.0
 11
-404.1051218428832
 21
-36.66180306245946
 31
0.0
  0
LINE
  5
239
330
1F
100
AcDbEntity
  8
A-0_通り芯
  6
Continuous
 62
     3
370
     9
100
AcDbLine
 10
-395.5904701061856
 20
-32.38975452466384
 30
0.0
 11
-399.8624691560167
 21
-36.66180306245946
 31
0.0
  0
LINE
  5
23A
330
1F
100
AcDbEntity
  8
A-0_通り芯
  6
Continuous
 62
     3
370
     9
100
AcDbLine
 10
-395.5904701061856
 20
-32.38975452466384
 30
0.0
 11
-395.5904701061856
 21
-40.93380211229056
 31
0.0
  0
LINE
  5
23B
330
1F
100
AcDbEntity
  8
A-0_通り芯
  6
Continuous
 62
     3
370
     9
100
AcDbLine
 10
-411.5904239174187
 20
-43.66182615684296
 30
0.0
 11
-411.5904239174187
 21
-37.66185584962165
 31
0.0
  0
LINE
  5
23C
330
1F
100
AcDbEntity
  8
A-0_通り芯
  6
Continuous
 62
     3
370
     9
100
AcDbLine
 10
-405.5904536101974
 20
-43.66182615684296
 30
0.0
 11
-411.5904239174187
 21
-37.66185584962165
 31
0.0
  0
LINE
  5
23D
330
1F
100
AcDbEntity
  8
A-0_通り芯
  6
Continuous
 62
     3
370
     9
100
AcDbLine
 10
-401.3478009233309
 20
-43.66182615684296
 30
0.0
 11
-397.1051482364643
 21
-43.66182615684296
 31
0.0
  0
LINE
  5
23E
330
1F
100
AcDbEntity
  8
A-0_通り芯
  6
Continuous
 62
     3
370
     9
100
AcDbLine
 10
-411.5904239174187
 20
-43.66182615684296
 30
0.0
 11
-405.5904536101974
 21
-43.66182615684296
 31
0.0
  0
LINE
  5
23F
330
1F
100
AcDbEntity
  8
A-0_通り芯
  6
Continuous
 62
     3
370
     9
100
AcDbLine
 10
-401.3478009233309
 20
-43.66182615684296
 30
0.0
 11
-408.3478240177143
 21
-36.66180306245946
 31
0.0
  0
LINE
  5
240
330
1F
100
AcDbEntity
  8
A-0_通り芯
  6
Continuous
 62
     3
370
     9
100
AcDbLine
 10
-397.1051482364643
 20
-43.66182615684296
 30
0.0
 11
-404.1051218428832
 21
-36.66180306245946
 31
0.0
  0
LINE
  5
241
330
1F
100
AcDbEntity
  8
A-0_通り芯
  6
Continuous
 62
     3
370
     9
100
AcDbLine
 10
-395.5904701061856
 20
-40.93380211229056
 30
0.0
 11
-399.8624691560167
 21
-36.66180306245946
 31
0.0
  0
LINE
  5
242
330
1F
100
AcDbEntity
  8
A-0_通り芯
  6
Continuous
 62
     3
370
     9
100
AcDbLine
 10
-389.5904997989643
 20
-29.66177996807603
 30
0.0
 11
-389.5904997989643
 21
-35.66184925122639
 31
0.0
  0
LINE
  5
243
330
1F
100
AcDbEntity
  8
A-0_通り芯
  6
Continuous
 62
     3
370
     9
100
AcDbLine
 10
-383.5904800037785
 20
-29.66177996807603
 30
0.0
 11
-389.5904997989643
 21
-35.66184925122639
 31
0.0
  0
LINE
  5
244
330
1F
100
AcDbEntity
  8
A-0_通り芯
  6
Continuous
 62
     3
370
     9
100
AcDbLine
 10
-379.3477778289474
 20
-29.66177996807603
 30
0.0
 11
-375.1051251420809
 21
-29.66177996807603
 31
0.0
  0
LINE
  5
245
330
1F
100
AcDbEntity
  8
A-0_通り芯
  6
Continuous
 62
     3
370
     9
100
AcDbLine
 10
-389.5904997989643
 20
-29.66177996807603
 30
0.0
 11
-383.5904800037785
 21
-29.66177996807603
 31
0.0
  0
LINE
  5
246
330
1F
100
AcDbEntity
  8
A-0_通り芯
  6
Continuous
 62
     3
370
     9
100
AcDbLine
 10
-379.3477778289474
 20
-29.66177996807603
 30
0.0
 11
-386.3478009233309
 21
-36.66180306245946
 31
0.0
  0
LINE
  5
247
330
1F
100
AcDbEntity
  8
A-0_通り芯
  6
Continuous
 62
     3
370
     9
100
AcDbLine
 10
-375.1051251420809
 20
-29.66177996807603
 30
0.0
 11
-382.1051482364643
 21
-36.66180306245946
 31
0.0
  0
LINE
  5
248
330
1F
100
AcDbEntity
  8
A-0_通り芯
  6
Continuous
 62
     3
370
     9
100
AcDbLine
 10
-373.5904470118021
 20
-32.38975452466384
 30
0.0
 11
-377.8623965736687
 21
-36.66180306245946
 31
0.0
  0
LINE
  5
249
330
1F
100
AcDbEntity
  8
A-0_通り芯
  6
Continuous
 62
     3
370
     9
100
AcDbLine
 10
-373.5904470118021
 20
-32.38975452466384
 30
0.0
 11
-373.5904470118021
 21
-40.93380211229056
 31
0.0
  0
LINE
  5
24A
330
1F
100
AcDbEntity
  8
A-0_通り芯
  6
Continuous
 62
     3
370
     9
100
AcDbLine
 10
-389.5904997989643
 20
-43.66182615684296
 30
0.0
 11
-389.5904997989643
 21
-37.66185584962165
 31
0.0
  0
LINE
  5
24B
330
1F
100
AcDbEntity
  8
A-0_通り芯
  6
Continuous
 62
     3
370
     9
100
AcDbLine
 10
-383.5904800037785
 20
-43.66182615684296
 30
0.0
 11
-389.5904997989643
 21
-37.66185584962165
 31
0.0
  0
LINE
  5
24C
330
1F
100
AcDbEntity
  8
A-0_通り芯
  6
Continuous
 62
     3
370
     9
100
AcDbLine
 10
-379.3477778289474
 20
-43.66182615684296
 30
0.0
 11
-375.1051251420809
 21
-43.66182615684296
 31
0.0
  0
LINE
  5
24D
330
1F
100
AcDbEntity
  8
A-0_通り芯
  6
Continuous
 62
     3
370
     9
100
AcDbLine
 10
-389.5904997989643
 20
-43.66182615684296
 30
0.0
 11
-383.5904800037785
 21
-43.66182615684296
 31
0.0
  0
LINE
  5
24E
330
1F
100
AcDbEntity
  8
A-0_通り芯
  6
Continuous
 62
     3
370
     9
100
AcDbLine
 10
-379.3477778289474
 20
-43.66182615684296
 30
0.0
 11
-386.3478009233309
 21
-36.66180306245946
 31
0.0
  0
LINE
  5
24F
330
1F
100
AcDbEntity
  8
A-0_通り芯
  6
Continuous
 62
     3
370
     9
100
AcDbLine
 10
-375.1051251420809
 20
-43.66182615684296
 30
0.0
 11
-382.1051482364643
 21
-36.66180306245946
 31
0.0
  0
LINE
  5
250
330
1F
100
AcDbEntity
  8
A-0_通り芯
  6
Continuous
 62
     3
370
     9
100
AcDbLine
 10
-373.5904470118021
 20
-40.93380211229056
 30
0.0
 11
-377.8623965736687
 21
-36.66180306245946
 31
0.0
  0
LINE
  5
251
330
1F
100
AcDbEntity
  8
A-0_通り芯
  6
Continuous
 62
     3
370
     9
100
AcDbLine
 10
-476.0757160943613
 20
-2.036855849621659
 30
0.0
 11
-471.8331128954592
 21
-2.036855849621659
 31
0.0
  0
LINE
  5
252
330
1F
100
AcDbEntity
  8
A-0_通り芯
  6
Continuous
 62
     3
370
     9
100
AcDbLine
 10
-477.590493200569
 20
-13.30882850587166
 30
0.0
 11
-477.590493200569
 21
-4.76483040620947
 31
0.0
  0
LINE
  5
253
330
1F
100
AcDbEntity
  8
A-0_通り芯
  6
Continuous
 62
     3
370
     9
100
AcDbLine
 10
-467.5904602085927
 20
-2.036855849621659
 30
0.0
 11
-461.5904899013714
 21
-2.036855849621659
 31
0.0
  0
LINE
  5
254
330
1F
100
AcDbEntity
  8
A-0_通り芯
  6
Continuous
 62
     3
370
     9
100
AcDbLine
 10
-467.5904602085927
 20
-2.036855849621659
 30
0.0
 11
-461.5904899013714
 21
-8.036875644807495
 31
0.0
  0
LINE
  5
255
330
1F
100
AcDbEntity
  8
A-0_通り芯
  6
Continuous
 62
     3
370
     9
100
AcDbLine
 10
-461.5904899013714
 20
-8.036875644807495
 30
0.0
 11
-461.5904899013714
 21
-2.036855849621659
 31
0.0
  0
LINE
  5
256
330
1F
100
AcDbEntity
  8
A-0_通り芯
  6
Continuous
 62
     3
370
     9
100
AcDbLine
 10
-471.8331128954592
 20
-2.036855849621659
 30
0.0
 11
-464.8330403131113
 21
-9.036878944005096
 31
0.0
  0
LINE
  5
257
330
1F
100
AcDbEntity
  8
A-0_通り芯
  6
Continuous
 62
     3
370
     9
100
AcDbLine
 10
-476.0757160943613
 20
-2.036855849621659
 30
0.0
 11
-469.0758414638714
 21
-9.036878944005096
 31
0.0
  0
LINE
  5
258
330
1F
100
AcDbEntity
  8
A-0_通り芯
  6
Continuous
 62
     3
370
     9
100
AcDbLine
 10
-477.590493200569
 20
-4.76483040620947
 30
0.0
 11
-473.3184446627734
 21
-9.036878944005096
 31
0.0
  0
LINE
  5
259
330
1F
100
AcDbEntity
  8
A-0_通り芯
  6
Continuous
 62
     3
370
     9
100
AcDbLine
 10
-476.0757160943613
 20
-16.03675357449499
 30
0.0
 11
-471.8331128954592
 21
-16.03675357449499
 31
0.0
  0
LINE
  5
25A
330
1F
100
AcDbEntity
  8
A-0_通り芯
  6
Continuous
 62
     3
370
     9
100
AcDbLine
 10
-467.5904602085927
 20
-16.03675357449499
 30
0.0
 11
-461.5904899013714
 21
-16.03675357449499
 31
0.0
  0
LINE
  5
25B
330
1F
100
AcDbEntity
  8
A-0_通り芯
  6
Continuous
 62
     3
370
     9
100
AcDbLine
 10
-467.5904602085927
 20
-16.03675357449499
 30
0.0
 11
-461.5904899013714
 21
-10.03683275523822
 31
0.0
  0
LINE
  5
25C
330
1F
100
AcDbEntity
  8
A-0_通り芯
  6
Continuous
 62
     3
370
     9
100
AcDbLine
 10
-461.5904899013714
 20
-10.03683275523822
 30
0.0
 11
-461.5904899013714
 21
-16.03675357449499
 31
0.0
  0
LINE
  5
25D
330
1F
100
AcDbEntity
  8
A-0_通り芯
  6
Continuous
 62
     3
370
     9
100
AcDbLine
 10
-471.8331128954592
 20
-16.03675357449499
 30
0.0
 11
-464.8330403131113
 21
-9.036878944005096
 31
0.0
  0
LINE
  5
25E
330
1F
100
AcDbEntity
  8
A-0_通り芯
  6
Continuous
 62
     3
370
     9
100
AcDbLine
 10
-476.0757160943613
 20
-16.03675357449499
 30
0.0
 11
-469.0758414638714
 21
-9.036878944005096
 31
0.0
  0
LINE
  5
25F
330
1F
100
AcDbEntity
  8
A-0_通り芯
  6
Continuous
 62
     3
370
     9
100
AcDbLine
 10
-477.590493200569
 20
-13.30882850587166
 30
0.0
 11
-473.3184446627734
 21
-9.036878944005096
 31
0.0
  0
LINE
  5
260
330
1F
100
AcDbEntity
  8
A-0_通り芯
  6
Continuous
 62
     3
370
     9
100
AcDbLine
 10
-454.0757919759069
 20
-2.036855849621659
 30
0.0
 11
-449.8331392890403
 21
-2.036855849621659
 31
0.0
  0
LINE
  5
261
330
1F
100
AcDbEntity
  8
A-0_通り芯
  6
Continuous
 62
     3
370
     9
100
AcDbLine
 10
-455.5905195941501
 20
-13.30882850587166
 30
0.0
 11
-455.5905195941501
 21
-4.76483040620947
 31
0.0
  0
LINE
  5
262
330
1F
100
AcDbEntity
  8
A-0_通り芯
  6
Continuous
 62
     3
370
     9
100
AcDbLine
 10
-445.5904866021738
 20
-2.036855849621659
 30
0.0
 11
-439.5904173190234
 21
-2.036855849621659
 31
0.0
  0
LINE
  5
263
330
1F
100
AcDbEntity
  8
A-0_通り芯
  6
Continuous
 62
     3
370
     9
100
AcDbLine
 10
-445.5904866021738
 20
-2.036855849621659
 30
0.0
 11
-439.5904173190234
 21
-8.036875644807495
 31
0.0
  0
LINE
  5
264
330
1F
100
AcDbEntity
  8
A-0_通り芯
  6
Continuous
 62
     3
370
     9
100
AcDbLine
 10
-439.5904173190234
 20
-8.036875644807495
 30
0.0
 11
-439.5904173190234
 21
-2.036855849621659
 31
0.0
  0
LINE
  5
265
330
1F
100
AcDbEntity
  8
A-0_通り芯
  6
Continuous
 62
     3
370
     9
100
AcDbLine
 10
-449.8331392890403
 20
-2.036855849621659
 30
0.0
 11
-442.8331161946569
 21
-9.036878944005096
 31
0.0
  0
LINE
  5
266
330
1F
100
AcDbEntity
  8
A-0_通り芯
  6
Continuous
 62
     3
370
     9
100
AcDbLine
 10
-454.0757919759069
 20
-2.036855849621659
 30
0.0
 11
-447.0757688815234
 21
-9.036878944005096
 31
0.0
  0
LINE
  5
267
330
1F
100
AcDbEntity
  8
A-0_通り芯
  6
Continuous
 62
     3
370
     9
100
AcDbLine
 10
-455.5905195941501
 20
-4.76483040620947
 30
0.0
 11
-451.3183720804254
 21
-9.036878944005096
 31
0.0
  0
LINE
  5
268
330
1F
100
AcDbEntity
  8
A-0_通り芯
  6
Continuous
 62
     3
370
     9
100
AcDbLine
 10
-454.0757919759069
 20
-16.03675357449499
 30
0.0
 11
-449.8331392890403
 21
-16.03675357449499
 31
0.0
  0
LINE
  5
269
330
1F
100
AcDbEntity
  8
A-0_通り芯
  6
Continuous
 62
     3
370
     9
100
AcDbLine
 10
-445.5904866021738
 20
-16.03675357449499
 30
0.0
 11
-439.5904173190234
 21
-16.03675357449499
 31
0.0
  0
LINE
  5
26A
330
1F
100
AcDbEntity
  8
A-0_通り芯
  6
Continuous
 62
     3
370
     9
100
AcDbLine
 10
-445.5904866021738
 20
-16.03675357449499
 30
0.0
 11
-439.5904173190234
 21
-10.03683275523822
 31
0.0
  0
LINE
  5
26B
330
1F
100
AcDbEntity
  8
A-0_通り芯
  6
Continuous
 62
     3
370
     9
100
AcDbLine
 10
-439.5904173190234
 20
-10.03683275523822
 30
0.0
 11
-439.5904173190234
 21
-16.03675357449499
 31
0.0
  0
LINE
  5
26C
330
1F
100
AcDbEntity
  8
A-0_通り芯
  6
Continuous
 62
     3
370
     9
100
AcDbLine
 10
-449.8331392890403
 20
-16.03675357449499
 30
0.0
 11
-442.8331161946569
 21
-9.036878944005096
 31
0.0
  0
LINE
  5
26D
330
1F
100
AcDbEntity
  8
A-0_通り芯
  6
Continuous
 62
     3
370
     9
100
AcDbLine
 10
-454.0757919759069
 20
-16.03675357449499
 30
0.0
 11
-447.0757688815234
 21
-9.036878944005096
 31
0.0
  0
LINE
  5
26E
330
1F
100
AcDbEntity
  8
A-0_通り芯
  6
Continuous
 62
     3
370
     9
100
AcDbLine
 10
-455.5905195941501
 20
-13.30882850587166
 30
0.0
 11
-451.3183720804254
 21
-9.036878944005096
 31
0.0
  0
LINE
  5
26F
330
1F
100
AcDbEntity
  8
A-0_通り芯
  6
Continuous
 62
     3
370
     9
100
AcDbLine
 10
-432.0758183694879
 20
-2.036855849621659
 30
0.0
 11
-427.8332151705859
 21
-2.036855849621659
 31
0.0
  0
LINE
  5
270
330
1F
100
AcDbEntity
  8
A-0_通り芯
  6
Continuous
 62
     3
370
     9
100
AcDbLine
 10
-433.5904470118022
 20
-13.30882850587166
 30
0.0
 11
-433.5904470118022
 21
-4.76483040620947
 31
0.0
  0
LINE
  5
271
330
1F
100
AcDbEntity
  8
A-0_通り芯
  6
Continuous
 62
     3
370
     9
100
AcDbLine
 10
-423.5904635077903
 20
-2.036855849621659
 30
0.0
 11
-417.590493200569
 21
-2.036855849621659
 31
0.0
  0
LINE
  5
272
330
1F
100
AcDbEntity
  8
A-0_通り芯
  6
Continuous
 62
     3
370
     9
100
AcDbLine
 10
-423.5904635077903
 20
-2.036855849621659
 30
0.0
 11
-417.590493200569
 21
-8.036875644807495
 31
0.0
  0
LINE
  5
273
330
1F
100
AcDbEntity
  8
A-0_通り芯
  6
Continuous
 62
     3
370
     9
100
AcDbLine
 10
-417.590493200569
 20
-8.036875644807495
 30
0.0
 11
-417.590493200569
 21
-2.036855849621659
 31
0.0
  0
LINE
  5
274
330
1F
100
AcDbEntity
  8
A-0_通り芯
  6
Continuous
 62
     3
370
     9
100
AcDbLine
 10
-427.8332151705859
 20
-2.036855849621659
 30
0.0
 11
-420.8331425882379
 21
-9.036878944005096
 31
0.0
  0
LINE
  5
275
330
1F
100
AcDbEntity
  8
A-0_通り芯
  6
Continuous
 62
     3
370
     9
100
AcDbLine
 10
-432.0758183694879
 20
-2.036855849621659
 30
0.0
 11
-425.075844763069
 21
-9.036878944005096
 31
0.0
  0
LINE
  5
276
330
1F
100
AcDbEntity
  8
A-0_通り芯
  6
Continuous
 62
     3
370
     9
100
AcDbLine
 10
-433.5904470118022
 20
-4.76483040620947
 30
0.0
 11
-429.3184974499356
 21
-9.036878944005096
 31
0.0
  0
LINE
  5
277
330
1F
100
AcDbEntity
  8
A-0_通り芯
  6
Continuous
 62
     3
370
     9
100
AcDbLine
 10
-432.0758183694879
 20
-16.03675357449499
 30
0.0
 11
-427.8332151705859
 21
-16.03675357449499
 31
0.0
  0
LINE
  5
278
330
1F
100
AcDbEntity
  8
A-0_通り芯
  6
Continuous
 62
     3
370
     9
100
AcDbLine
 10
-423.5904635077903
 20
-16.03675357449499
 30
0.0
 11
-417.590493200569
 21
-16.03675357449499
 31
0.0
  0
LINE
  5
279
330
1F
100
AcDbEntity
  8
A-0_通り芯
  6
Continuous
 62
     3
370
     9
100
AcDbLine
 10
-423.5904635077903
 20
-16.03675357449499
 30
0.0
 11
-417.590493200569
 21
-10.03683275523822
 31
0.0
  0
LINE
  5
27A
330
1F
100
AcDbEntity
  8
A-0_通り芯
  6
Continuous
 62
     3
370
     9
100
AcDbLine
 10
-417.590493200569
 20
-10.03683275523822
 30
0.0
 11
-417.590493200569
 21
-16.03675357449499
 31
0.0
  0
LINE
  5
27B
330
1F
100
AcDbEntity
  8
A-0_通り芯
  6
Continuous
 62
     3
370
     9
100
AcDbLine
 10
-427.8332151705859
 20
-16.03675357449499
 30
0.0
 11
-420.8331425882379
 21
-9.036878944005096
 31
0.0
  0
LINE
  5
27C
330
1F
100
AcDbEntity
  8
A-0_通り芯
  6
Continuous
 62
     3
370
     9
100
AcDbLine
 10
-432.0758183694879
 20
-16.03675357449499
 30
0.0
 11
-425.075844763069
 21
-9.036878944005096
 31
0.0
  0
LINE
  5
27D
330
1F
100
AcDbEntity
  8
A-0_通り芯
  6
Continuous
 62
     3
370
     9
100
AcDbLine
 10
-433.5904470118022
 20
-13.30882850587166
 30
0.0
 11
-429.3184974499356
 21
-9.036878944005096
 31
0.0
  0
LINE
  5
27E
330
1F
100
AcDbEntity
  8
A-0_通り芯
  6
Continuous
 62
     3
370
     9
100
AcDbLine
 10
-410.0757952751045
 20
-2.036855849621659
 30
0.0
 11
-405.8331920762025
 21
-2.036855849621659
 31
0.0
  0
LINE
  5
27F
330
1F
100
AcDbEntity
  8
A-0_通り芯
  6
Continuous
 62
     3
370
     9
100
AcDbLine
 10
-411.5904239174187
 20
-13.30882850587166
 30
0.0
 11
-411.5904239174187
 21
-4.76483040620947
 31
0.0
  0
LINE
  5
280
330
1F
100
AcDbEntity
  8
A-0_通り芯
  6
Continuous
 62
     3
370
     9
100
AcDbLine
 10
-401.5903909254424
 20
-2.036855849621659
 30
0.0
 11
-395.5904701061856
 21
-2.036855849621659
 31
0.0
  0
LINE
  5
281
330
1F
100
AcDbEntity
  8
A-0_通り芯
  6
Continuous
 62
     3
370
     9
100
AcDbLine
 10
-401.5903909254424
 20
-2.036855849621659
 30
0.0
 11
-395.5904701061856
 21
-8.036875644807495
 31
0.0
  0
LINE
  5
282
330
1F
100
AcDbEntity
  8
A-0_通り芯
  6
Continuous
 62
     3
370
     9
100
AcDbLine
 10
-395.5904701061856
 20
-8.036875644807495
 30
0.0
 11
-395.5904701061856
 21
-2.036855849621659
 31
0.0
  0
LINE
  5
283
330
1F
100
AcDbEntity
  8
A-0_通り芯
  6
Continuous
 62
     3
370
     9
100
AcDbLine
 10
-405.8331920762025
 20
-2.036855849621659
 30
0.0
 11
-398.8331194938545
 21
-9.036878944005096
 31
0.0
  0
LINE
  5
284
330
1F
100
AcDbEntity
  8
A-0_通り芯
  6
Continuous
 62
     3
370
     9
100
AcDbLine
 10
-410.0757952751045
 20
-2.036855849621659
 30
0.0
 11
-403.0758711566501
 21
-9.036878944005096
 31
0.0
  0
LINE
  5
285
330
1F
100
AcDbEntity
  8
A-0_通り芯
  6
Continuous
 62
     3
370
     9
100
AcDbLine
 10
-411.5904239174187
 20
-4.76483040620947
 30
0.0
 11
-407.3184743555522
 21
-9.036878944005096
 31
0.0
  0
LINE
  5
286
330
1F
100
AcDbEntity
  8
A-0_通り芯
  6
Continuous
 62
     3
370
     9
100
AcDbLine
 10
-410.0757952751045
 20
-16.03675357449499
 30
0.0
 11
-405.8331920762025
 21
-16.03675357449499
 31
0.0
  0
LINE
  5
287
330
1F
100
AcDbEntity
  8
A-0_通り芯
  6
Continuous
 62
     3
370
     9
100
AcDbLine
 10
-401.5903909254424
 20
-16.03675357449499
 30
0.0
 11
-395.5904701061856
 21
-16.03675357449499
 31
0.0
  0
LINE
  5
288
330
1F
100
AcDbEntity
  8
A-0_通り芯
  6
Continuous
 62
     3
370
     9
100
AcDbLine
 10
-401.5903909254424
 20
-16.03675357449499
 30
0.0
 11
-395.5904701061856
 21
-10.03683275523822
 31
0.0
  0
LINE
  5
289
330
1F
100
AcDbEntity
  8
A-0_通り芯
  6
Continuous
 62
     3
370
     9
100
AcDbLine
 10
-395.5904701061856
 20
-10.03683275523822
 30
0.0
 11
-395.5904701061856
 21
-16.03675357449499
 31
0.0
  0
LINE
  5
28A
330
1F
100
AcDbEntity
  8
A-0_通り芯
  6
Continuous
 62
     3
370
     9
100
AcDbLine
 10
-405.8331920762025
 20
-16.03675357449499
 30
0.0
 11
-398.8331194938545
 21
-9.036878944005096
 31
0.0
  0
LINE
  5
28B
330
1F
100
AcDbEntity
  8
A-0_通り芯
  6
Continuous
 62
     3
370
     9
100
AcDbLine
 10
-410.0757952751045
 20
-16.03675357449499
 30
0.0
 11
-403.0758711566501
 21
-9.036878944005096
 31
0.0
  0
LINE
  5
28C
330
1F
100
AcDbEntity
  8
A-0_通り芯
  6
Continuous
 62
     3
370
     9
100
AcDbLine
 10
-411.5904239174187
 20
-13.30882850587166
 30
0.0
 11
-407.3184743555522
 21
-9.036878944005096
 31
0.0
  0
LINE
  5
28D
330
1F
100
AcDbEntity
  8
A-0_通り芯
  6
Continuous
 62
     3
370
     9
100
AcDbLine
 10
-477.590493200569
 20
19.46319033914521
 30
0.0
 11
-477.590493200569
 21
25.46316064636657
 31
0.0
  0
LINE
  5
28E
330
1F
100
AcDbEntity
  8
A-0_通り芯
  6
Continuous
 62
     3
370
     9
100
AcDbLine
 10
-477.590493200569
 20
19.46319033914521
 30
0.0
 11
-471.5904734053832
 21
25.46316064636657
 31
0.0
  0
LINE
  5
28F
330
1F
100
AcDbEntity
  8
A-0_通り芯
  6
Continuous
 62
     3
370
     9
100
AcDbLine
 10
-467.3477712305522
 20
25.46316064636657
 30
0.0
 11
-463.1051185436856
 21
25.46316064636657
 31
0.0
  0
LINE
  5
290
330
1F
100
AcDbEntity
  8
A-0_通り芯
  6
Continuous
 62
     3
370
     9
100
AcDbLine
 10
-477.590493200569
 20
25.46316064636657
 30
0.0
 11
-471.5904734053832
 21
25.46316064636657
 31
0.0
  0
LINE
  5
291
330
1F
100
AcDbEntity
  8
A-0_通り芯
  6
Continuous
 62
     3
370
     9
100
AcDbLine
 10
-474.3477943249356
 20
18.46328601587668
 30
0.0
 11
-467.3477712305522
 21
25.46316064636657
 31
0.0
  0
LINE
  5
292
330
1F
100
AcDbEntity
  8
A-0_通り芯
  6
Continuous
 62
     3
370
     9
100
AcDbLine
 10
-470.105141638069
 20
18.46328601587668
 30
0.0
 11
-463.1051185436856
 21
25.46316064636657
 31
0.0
  0
LINE
  5
293
330
1F
100
AcDbEntity
  8
A-0_通り芯
  6
Continuous
 62
     3
370
     9
100
AcDbLine
 10
-465.8623899752734
 20
18.46328601587668
 30
0.0
 11
-461.5904899013714
 21
22.73513660181418
 31
0.0
  0
LINE
  5
294
330
1F
100
AcDbEntity
  8
A-0_通り芯
  6
Continuous
 62
     3
370
     9
100
AcDbLine
 10
-461.5904899013714
 20
14.19123747808105
 30
0.0
 11
-461.5904899013714
 21
22.73513660181418
 31
0.0
  0
LINE
  5
295
330
1F
100
AcDbEntity
  8
A-0_通り芯
  6
Continuous
 62
     3
370
     9
100
AcDbLine
 10
-477.590493200569
 20
17.46318374075001
 30
0.0
 11
-477.590493200569
 21
11.46321343352865
 31
0.0
  0
LINE
  5
296
330
1F
100
AcDbEntity
  8
A-0_通り芯
  6
Continuous
 62
     3
370
     9
100
AcDbLine
 10
-477.590493200569
 20
17.46318374075001
 30
0.0
 11
-471.5904734053832
 21
11.46321343352865
 31
0.0
  0
LINE
  5
297
330
1F
100
AcDbEntity
  8
A-0_通り芯
  6
Continuous
 62
     3
370
     9
100
AcDbLine
 10
-467.3477712305522
 20
11.46321343352865
 30
0.0
 11
-463.1051185436856
 21
11.46321343352865
 31
0.0
  0
LINE
  5
298
330
1F
100
AcDbEntity
  8
A-0_通り芯
  6
Continuous
 62
     3
370
     9
100
AcDbLine
 10
-477.590493200569
 20
11.46321343352865
 30
0.0
 11
-471.5904734053832
 21
11.46321343352865
 31
0.0
  0
LINE
  5
299
330
1F
100
AcDbEntity
  8
A-0_通り芯
  6
Continuous
 62
     3
370
     9
100
AcDbLine
 10
-474.3477943249356
 20
18.46328601587668
 30
0.0
 11
-467.3477712305522
 21
11.46321343352865
 31
0.0
  0
LINE
  5
29A
330
1F
100
AcDbEntity
  8
A-0_通り芯
  6
Continuous
 62
     3
370
     9
100
AcDbLine
 10
-470.105141638069
 20
18.46328601587668
 30
0.0
 11
-463.1051185436856
 21
11.46321343352865
 31
0.0
  0
LINE
  5
29B
330
1F
100
AcDbEntity
  8
A-0_通り芯
  6
Continuous
 62
     3
370
     9
100
AcDbLine
 10
-465.8623899752734
 20
18.46328601587668
 30
0.0
 11
-461.5904899013714
 21
14.19123747808105
 31
0.0
  0
LINE
  5
29C
330
1F
100
AcDbEntity
  8
A-0_通り芯
  6
Continuous
 62
     3
370
     9
100
AcDbLine
 10
-455.5905195941501
 20
19.46319033914521
 30
0.0
 11
-455.5905195941501
 21
25.46316064636657
 31
0.0
  0
LINE
  5
29D
330
1F
100
AcDbEntity
  8
A-0_通り芯
  6
Continuous
 62
     3
370
     9
100
AcDbLine
 10
-455.5905195941501
 20
19.46319033914521
 30
0.0
 11
-449.5904503109998
 21
25.46316064636657
 31
0.0
  0
LINE
  5
29E
330
1F
100
AcDbEntity
  8
A-0_通り芯
  6
Continuous
 62
     3
370
     9
100
AcDbLine
 10
-445.3477976241332
 20
25.46316064636657
 30
0.0
 11
-441.1050459613376
 21
25.46316064636657
 31
0.0
  0
LINE
  5
29F
330
1F
100
AcDbEntity
  8
A-0_通り芯
  6
Continuous
 62
     3
370
     9
100
AcDbLine
 10
-455.5905195941501
 20
25.46316064636657
 30
0.0
 11
-449.5904503109998
 21
25.46316064636657
 31
0.0
  0
LINE
  5
2A0
330
1F
100
AcDbEntity
  8
A-0_通り芯
  6
Continuous
 62
     3
370
     9
100
AcDbLine
 10
-452.3477217425876
 20
18.46328601587668
 30
0.0
 11
-445.3477976241332
 21
25.46316064636657
 31
0.0
  0
LINE
  5
2A1
330
1F
100
AcDbEntity
  8
A-0_通り芯
  6
Continuous
 62
     3
370
     9
100
AcDbLine
 10
-448.1051185436856
 20
18.46328601587668
 30
0.0
 11
-441.1050459613376
 21
25.46316064636657
 31
0.0
  0
LINE
  5
2A2
330
1F
100
AcDbEntity
  8
A-0_通り芯
  6
Continuous
 62
     3
370
     9
100
AcDbLine
 10
-443.862465856819
 20
18.46328601587668
 30
0.0
 11
-439.5904173190234
 21
22.73513660181418
 31
0.0
  0
LINE
  5
2A3
330
1F
100
AcDbEntity
  8
A-0_通り芯
  6
Continuous
 62
     3
370
     9
100
AcDbLine
 10
-439.5904173190234
 20
14.19123747808105
 30
0.0
 11
-439.5904173190234
 21
22.73513660181418
 31
0.0
  0
LINE
  5
2A4
330
1F
100
AcDbEntity
  8
A-0_通り芯
  6
Continuous
 62
     3
370
     9
100
AcDbLine
 10
-455.5905195941501
 20
17.46318374075001
 30
0.0
 11
-455.5905195941501
 21
11.46321343352865
 31
0.0
  0
LINE
  5
2A5
330
1F
100
AcDbEntity
  8
A-0_通り芯
  6
Continuous
 62
     3
370
     9
100
AcDbLine
 10
-455.5905195941501
 20
17.46318374075001
 30
0.0
 11
-449.5904503109998
 21
11.46321343352865
 31
0.0
  0
LINE
  5
2A6
330
1F
100
AcDbEntity
  8
A-0_通り芯
  6
Continuous
 62
     3
370
     9
100
AcDbLine
 10
-445.3477976241332
 20
11.46321343352865
 30
0.0
 11
-441.1050459613376
 21
11.46321343352865
 31
0.0
  0
LINE
  5
2A7
330
1F
100
AcDbEntity
  8
A-0_通り芯
  6
Continuous
 62
     3
370
     9
100
AcDbLine
 10
-455.5905195941501
 20
11.46321343352865
 30
0.0
 11
-449.5904503109998
 21
11.46321343352865
 31
0.0
  0
LINE
  5
2A8
330
1F
100
AcDbEntity
  8
A-0_通り芯
  6
Continuous
 62
     3
370
     9
100
AcDbLine
 10
-452.3477217425876
 20
18.46328601587668
 30
0.0
 11
-445.3477976241332
 21
11.46321343352865
 31
0.0
  0
LINE
  5
2A9
330
1F
100
AcDbEntity
  8
A-0_通り芯
  6
Continuous
 62
     3
370
     9
100
AcDbLine
 10
-448.1051185436856
 20
18.46328601587668
 30
0.0
 11
-441.1050459613376
 21
11.46321343352865
 31
0.0
  0
LINE
  5
2AA
330
1F
100
AcDbEntity
  8
A-0_通り芯
  6
Continuous
 62
     3
370
     9
100
AcDbLine
 10
-443.862465856819
 20
18.46328601587668
 30
0.0
 11
-439.5904173190234
 21
14.19123747808105
 31
0.0
  0
LINE
  5
2AB
330
1F
100
AcDbEntity
  8
A-0_通り芯
  6
Continuous
 62
     3
370
     9
100
AcDbLine
 10
-433.5904470118022
 20
19.46319033914521
 30
0.0
 11
-433.5904470118022
 21
25.46316064636657
 31
0.0
  0
LINE
  5
2AC
330
1F
100
AcDbEntity
  8
A-0_通り芯
  6
Continuous
 62
     3
370
     9
100
AcDbLine
 10
-433.5904470118022
 20
19.46319033914521
 30
0.0
 11
-427.5903777286518
 21
25.46316064636657
 31
0.0
  0
LINE
  5
2AD
330
1F
100
AcDbEntity
  8
A-0_通り芯
  6
Continuous
 62
     3
370
     9
100
AcDbLine
 10
-423.3477250417852
 20
25.46316064636657
 30
0.0
 11
-419.1051218428832
 21
25.46316064636657
 31
0.0
  0
LINE
  5
2AE
330
1F
100
AcDbEntity
  8
A-0_通り芯
  6
Continuous
 62
     3
370
     9
100
AcDbLine
 10
-433.5904470118022
 20
25.46316064636657
 30
0.0
 11
-427.5903777286518
 21
25.46316064636657
 31
0.0
  0
LINE
  5
2AF
330
1F
100
AcDbEntity
  8
A-0_通り芯
  6
Continuous
 62
     3
370
     9
100
AcDbLine
 10
-430.3477976241332
 20
18.46328601587668
 30
0.0
 11
-423.3477250417852
 21
25.46316064636657
 31
0.0
  0
LINE
  5
2B0
330
1F
100
AcDbEntity
  8
A-0_通り芯
  6
Continuous
 62
     3
370
     9
100
AcDbLine
 10
-426.1050954493022
 20
18.46328601587668
 30
0.0
 11
-419.1051218428832
 21
25.46316064636657
 31
0.0
  0
LINE
  5
2B1
330
1F
100
AcDbEntity
  8
A-0_通り芯
  6
Continuous
 62
     3
370
     9
100
AcDbLine
 10
-421.8624922504001
 20
18.46328601587668
 30
0.0
 11
-417.590493200569
 21
22.73513660181418
 31
0.0
  0
LINE
  5
2B2
330
1F
100
AcDbEntity
  8
A-0_通り芯
  6
Continuous
 62
     3
370
     9
100
AcDbLine
 10
-417.590493200569
 20
14.19123747808105
 30
0.0
 11
-417.590493200569
 21
22.73513660181418
 31
0.0
  0
LINE
  5
2B3
330
1F
100
AcDbEntity
  8
A-0_通り芯
  6
Continuous
 62
     3
370
     9
100
AcDbLine
 10
-433.5904470118022
 20
17.46318374075001
 30
0.0
 11
-433.5904470118022
 21
11.46321343352865
 31
0.0
  0
LINE
  5
2B4
330
1F
100
AcDbEntity
  8
A-0_通り芯
  6
Continuous
 62
     3
370
     9
100
AcDbLine
 10
-433.5904470118022
 20
17.46318374075001
 30
0.0
 11
-427.5903777286518
 21
11.46321343352865
 31
0.0
  0
LINE
  5
2B5
330
1F
100
AcDbEntity
  8
A-0_通り芯
  6
Continuous
 62
     3
370
     9
100
AcDbLine
 10
-423.3477250417852
 20
11.46321343352865
 30
0.0
 11
-419.1051218428832
 21
11.46321343352865
 31
0.0
  0
LINE
  5
2B6
330
1F
100
AcDbEntity
  8
A-0_通り芯
  6
Continuous
 62
     3
370
     9
100
AcDbLine
 10
-433.5904470118022
 20
11.46321343352865
 30
0.0
 11
-427.5903777286518
 21
11.46321343352865
 31
0.0
  0
LINE
  5
2B7
330
1F
100
AcDbEntity
  8
A-0_通り芯
  6
Continuous
 62
     3
370
     9
100
AcDbLine
 10
-430.3477976241332
 20
18.46328601587668
 30
0.0
 11
-423.3477250417852
 21
11.46321343352865
 31
0.0
  0
LINE
  5
2B8
330
1F
100
AcDbEntity
  8
A-0_通り芯
  6
Continuous
 62
     3
370
     9
100
AcDbLine
 10
-426.1050954493022
 20
18.46328601587668
 30
0.0
 11
-419.1051218428832
 21
11.46321343352865
 31
0.0
  0
LINE
  5
2B9
330
1F
100
AcDbEntity
  8
A-0_通り芯
  6
Continuous
 62
     3
370
     9
100
AcDbLine
 10
-421.8624922504001
 20
18.46328601587668
 30
0.0
 11
-417.590493200569
 21
14.19123747808105
 31
0.0
  0
LINE
  5
2BA
330
1F
100
AcDbEntity
  8
A-0_通り芯
  6
Continuous
 62
     3
370
     9
100
AcDbLine
 10
-477.590493200569
 20
74.4631738431571
 30
0.0
 11
-477.590493200569
 21
80.46329261427188
 31
0.0
  0
LINE
  5
2BB
330
1F
100
AcDbEntity
  8
A-0_通り芯
  6
Continuous
 62
     3
370
     9
100
AcDbLine
 10
-477.590493200569
 20
74.4631738431571
 30
0.0
 11
-471.5904734053832
 21
80.46329261427188
 31
0.0
  0
LINE
  5
2BC
330
1F
100
AcDbEntity
  8
A-0_通り芯
  6
Continuous
 62
     3
370
     9
100
AcDbLine
 10
-467.3477712305522
 20
80.46329261427188
 30
0.0
 11
-463.1051185436856
 21
80.46329261427188
 31
0.0
  0
LINE
  5
2BD
330
1F
100
AcDbEntity
  8
A-0_通り芯
  6
Continuous
 62
     3
370
     9
100
AcDbLine
 10
-477.590493200569
 20
80.46329261427188
 30
0.0
 11
-471.5904734053832
 21
80.46329261427188
 31
0.0
  0
LINE
  5
2BE
330
1F
100
AcDbEntity
  8
A-0_通り芯
  6
Continuous
 62
     3
370
     9
100
AcDbLine
 10
-474.3477943249356
 20
73.46322003192397
 30
0.0
 11
-467.3477712305522
 21
80.46329261427188
 31
0.0
  0
LINE
  5
2BF
330
1F
100
AcDbEntity
  8
A-0_通り芯
  6
Continuous
 62
     3
370
     9
100
AcDbLine
 10
-470.105141638069
 20
73.46322003192397
 30
0.0
 11
-463.1051185436856
 21
80.46329261427188
 31
0.0
  0
LINE
  5
2C0
330
1F
100
AcDbEntity
  8
A-0_通り芯
  6
Continuous
 62
     3
370
     9
100
AcDbLine
 10
-465.8623899752734
 20
73.46322003192397
 30
0.0
 11
-461.5904899013714
 21
77.73516959379053
 31
0.0
  0
LINE
  5
2C1
330
1F
100
AcDbEntity
  8
A-0_通り芯
  6
Continuous
 62
     3
370
     9
100
AcDbLine
 10
-461.5904899013714
 20
69.19122098209293
 30
0.0
 11
-461.5904899013714
 21
77.73516959379053
 31
0.0
  0
LINE
  5
2C2
330
1F
100
AcDbEntity
  8
A-0_通り芯
  6
Continuous
 62
     3
370
     9
100
AcDbLine
 10
-477.590493200569
 20
72.46321673272637
 30
0.0
 11
-477.590493200569
 21
66.46319693754053
 31
0.0
  0
LINE
  5
2C3
330
1F
100
AcDbEntity
  8
A-0_通り芯
  6
Continuous
 62
     3
370
     9
100
AcDbLine
 10
-477.590493200569
 20
72.46321673272637
 30
0.0
 11
-471.5904734053832
 21
66.46319693754053
 31
0.0
  0
LINE
  5
2C4
330
1F
100
AcDbEntity
  8
A-0_通り芯
  6
Continuous
 62
     3
370
     9
100
AcDbLine
 10
-467.3477712305522
 20
66.46319693754053
 30
0.0
 11
-463.1051185436856
 21
66.46319693754053
 31
0.0
  0
LINE
  5
2C5
330
1F
100
AcDbEntity
  8
A-0_通り芯
  6
Continuous
 62
     3
370
     9
100
AcDbLine
 10
-477.590493200569
 20
66.46319693754053
 30
0.0
 11
-471.5904734053832
 21
66.46319693754053
 31
0.0
  0
LINE
  5
2C6
330
1F
100
AcDbEntity
  8
A-0_通り芯
  6
Continuous
 62
     3
370
     9
100
AcDbLine
 10
-474.3477943249356
 20
73.46322003192397
 30
0.0
 11
-467.3477712305522
 21
66.46319693754053
 31
0.0
  0
LINE
  5
2C7
330
1F
100
AcDbEntity
  8
A-0_通り芯
  6
Continuous
 62
     3
370
     9
100
AcDbLine
 10
-470.105141638069
 20
73.46322003192397
 30
0.0
 11
-463.1051185436856
 21
66.46319693754053
 31
0.0
  0
LINE
  5
2C8
330
1F
100
AcDbEntity
  8
A-0_通り芯
  6
Continuous
 62
     3
370
     9
100
AcDbLine
 10
-465.8623899752734
 20
73.46322003192397
 30
0.0
 11
-461.5904899013714
 21
69.19122098209293
 31
0.0
  0
LINE
  5
2C9
330
1F
100
AcDbEntity
  8
A-0_通り芯
  6
Continuous
 62
     3
370
     9
100
AcDbLine
 10
-476.0757160943613
 20
52.96312765439022
 30
0.0
 11
-471.8331128954592
 21
52.96312765439022
 31
0.0
  0
LINE
  5
2CA
330
1F
100
AcDbEntity
  8
A-0_通り芯
  6
Continuous
 62
     3
370
     9
100
AcDbLine
 10
-477.590493200569
 20
41.6912044861047
 30
0.0
 11
-477.590493200569
 21
50.23520258576688
 31
0.0
  0
LINE
  5
2CB
330
1F
100
AcDbEntity
  8
A-0_通り芯
  6
Continuous
 62
     3
370
     9
100
AcDbLine
 10
-467.5904602085927
 20
52.96312765439022
 30
0.0
 11
-461.5904899013714
 21
52.96312765439022
 31
0.0
  0
LINE
  5
2CC
330
1F
100
AcDbEntity
  8
A-0_通り芯
  6
Continuous
 62
     3
370
     9
100
AcDbLine
 10
-467.5904602085927
 20
52.96312765439022
 30
0.0
 11
-461.5904899013714
 21
46.96315734716886
 31
0.0
  0
LINE
  5
2CD
330
1F
100
AcDbEntity
  8
A-0_通り芯
  6
Continuous
 62
     3
370
     9
100
AcDbLine
 10
-461.5904899013714
 20
46.96315734716886
 30
0.0
 11
-461.5904899013714
 21
52.96312765439022
 31
0.0
  0
LINE
  5
2CE
330
1F
100
AcDbEntity
  8
A-0_通り芯
  6
Continuous
 62
     3
370
     9
100
AcDbLine
 10
-471.8331128954592
 20
52.96312765439022
 30
0.0
 11
-464.8330403131113
 21
45.96325302390032
 31
0.0
  0
LINE
  5
2CF
330
1F
100
AcDbEntity
  8
A-0_通り芯
  6
Continuous
 62
     3
370
     9
100
AcDbLine
 10
-476.0757160943613
 20
52.96312765439022
 30
0.0
 11
-469.0758414638714
 21
45.96325302390032
 31
0.0
  0
LINE
  5
2D0
330
1F
100
AcDbEntity
  8
A-0_通り芯
  6
Continuous
 62
     3
370
     9
100
AcDbLine
 10
-477.590493200569
 20
50.23520258576688
 30
0.0
 11
-473.3184446627734
 21
45.96325302390032
 31
0.0
  0
LINE
  5
2D1
330
1F
100
AcDbEntity
  8
A-0_通り芯
  6
Continuous
 62
     3
370
     9
100
AcDbLine
 10
-476.0757160943613
 20
38.9631804415523
 30
0.0
 11
-471.8331128954592
 21
38.9631804415523
 31
0.0
  0
LINE
  5
2D2
330
1F
100
AcDbEntity
  8
A-0_通り芯
  6
Continuous
 62
     3
370
     9
100
AcDbLine
 10
-467.5904602085927
 20
38.9631804415523
 30
0.0
 11
-461.5904899013714
 21
38.9631804415523
 31
0.0
  0
LINE
  5
2D3
330
1F
100
AcDbEntity
  8
A-0_通り芯
  6
Continuous
 62
     3
370
     9
100
AcDbLine
 10
-467.5904602085927
 20
38.9631804415523
 30
0.0
 11
-461.5904899013714
 21
44.96315074877366
 31
0.0
  0
LINE
  5
2D4
330
1F
100
AcDbEntity
  8
A-0_通り芯
  6
Continuous
 62
     3
370
     9
100
AcDbLine
 10
-461.5904899013714
 20
44.96315074877366
 30
0.0
 11
-461.5904899013714
 21
38.9631804415523
 31
0.0
  0
LINE
  5
2D5
330
1F
100
AcDbEntity
  8
A-0_通り芯
  6
Continuous
 62
     3
370
     9
100
AcDbLine
 10
-471.8331128954592
 20
38.9631804415523
 30
0.0
 11
-464.8330403131113
 21
45.96325302390032
 31
0.0
  0
LINE
  5
2D6
330
1F
100
AcDbEntity
  8
A-0_通り芯
  6
Continuous
 62
     3
370
     9
100
AcDbLine
 10
-476.0757160943613
 20
38.9631804415523
 30
0.0
 11
-469.0758414638714
 21
45.96325302390032
 31
0.0
  0
LINE
  5
2D7
330
1F
100
AcDbEntity
  8
A-0_通り芯
  6
Continuous
 62
     3
370
     9
100
AcDbLine
 10
-477.590493200569
 20
41.6912044861047
 30
0.0
 11
-473.3184446627734
 21
45.96325302390032
 31
0.0
  0
LINE
  5
2D8
330
1F
100
AcDbEntity
  8
A-0_通り芯
  6
Continuous
 62
     3
370
     9
100
AcDbLine
 10
-454.0757919759069
 20
52.96312765439022
 30
0.0
 11
-449.8331392890403
 21
52.96312765439022
 31
0.0
  0
LINE
  5
2D9
330
1F
100
AcDbEntity
  8
A-0_通り芯
  6
Continuous
 62
     3
370
     9
100
AcDbLine
 10
-455.5905195941501
 20
41.6912044861047
 30
0.0
 11
-455.5905195941501
 21
50.23520258576688
 31
0.0
  0
LINE
  5
2DA
330
1F
100
AcDbEntity
  8
A-0_通り芯
  6
Continuous
 62
     3
370
     9
100
AcDbLine
 10
-445.5904866021738
 20
52.96312765439022
 30
0.0
 11
-439.5904173190234
 21
52.96312765439022
 31
0.0
  0
LINE
  5
2DB
330
1F
100
AcDbEntity
  8
A-0_通り芯
  6
Continuous
 62
     3
370
     9
100
AcDbLine
 10
-445.5904866021738
 20
52.96312765439022
 30
0.0
 11
-439.5904173190234
 21
46.96315734716886
 31
0.0
  0
LINE
  5
2DC
330
1F
100
AcDbEntity
  8
A-0_通り芯
  6
Continuous
 62
     3
370
     9
100
AcDbLine
 10
-439.5904173190234
 20
46.96315734716886
 30
0.0
 11
-439.5904173190234
 21
52.96312765439022
 31
0.0
  0
LINE
  5
2DD
330
1F
100
AcDbEntity
  8
A-0_通り芯
  6
Continuous
 62
     3
370
     9
100
AcDbLine
 10
-449.8331392890403
 20
52.96312765439022
 30
0.0
 11
-442.8331161946569
 21
45.96325302390032
 31
0.0
  0
LINE
  5
2DE
330
1F
100
AcDbEntity
  8
A-0_通り芯
  6
Continuous
 62
     3
370
     9
100
AcDbLine
 10
-454.0757919759069
 20
52.96312765439022
 30
0.0
 11
-447.0757688815234
 21
45.96325302390032
 31
0.0
  0
LINE
  5
2DF
330
1F
100
AcDbEntity
  8
A-0_通り芯
  6
Continuous
 62
     3
370
     9
100
AcDbLine
 10
-455.5905195941501
 20
50.23520258576688
 30
0.0
 11
-451.3183720804254
 21
45.96325302390032
 31
0.0
  0
LINE
  5
2E0
330
1F
100
AcDbEntity
  8
A-0_通り芯
  6
Continuous
 62
     3
370
     9
100
AcDbLine
 10
-454.0757919759069
 20
38.9631804415523
 30
0.0
 11
-449.8331392890403
 21
38.9631804415523
 31
0.0
  0
LINE
  5
2E1
330
1F
100
AcDbEntity
  8
A-0_通り芯
  6
Continuous
 62
     3
370
     9
100
AcDbLine
 10
-445.5904866021738
 20
38.9631804415523
 30
0.0
 11
-439.5904173190234
 21
38.9631804415523
 31
0.0
  0
LINE
  5
2E2
330
1F
100
AcDbEntity
  8
A-0_通り芯
  6
Continuous
 62
     3
370
     9
100
AcDbLine
 10
-445.5904866021738
 20
38.9631804415523
 30
0.0
 11
-439.5904173190234
 21
44.96315074877366
 31
0.0
  0
LINE
  5
2E3
330
1F
100
AcDbEntity
  8
A-0_通り芯
  6
Continuous
 62
     3
370
     9
100
AcDbLine
 10
-439.5904173190234
 20
44.96315074877366
 30
0.0
 11
-439.5904173190234
 21
38.9631804415523
 31
0.0
  0
LINE
  5
2E4
330
1F
100
AcDbEntity
  8
A-0_通り芯
  6
Continuous
 62
     3
370
     9
100
AcDbLine
 10
-449.8331392890403
 20
38.9631804415523
 30
0.0
 11
-442.8331161946569
 21
45.96325302390032
 31
0.0
  0
LINE
  5
2E5
330
1F
100
AcDbEntity
  8
A-0_通り芯
  6
Continuous
 62
     3
370
     9
100
AcDbLine
 10
-454.0757919759069
 20
38.9631804415523
 30
0.0
 11
-447.0757688815234
 21
45.96325302390032
 31
0.0
  0
LINE
  5
2E6
330
1F
100
AcDbEntity
  8
A-0_通り芯
  6
Continuous
 62
     3
370
     9
100
AcDbLine
 10
-455.5905195941501
 20
41.6912044861047
 30
0.0
 11
-451.3183720804254
 21
45.96325302390032
 31
0.0
  0
LINE
  5
2E7
330
1F
100
AcDbEntity
  8
A-0_通り芯
  6
Continuous
 62
     3
370
     9
100
AcDbLine
 10
-370.0904602085927
 20
299.588328905446
 30
0.0
 11
-245.09039422464
 21
299.588328905446
 31
0.0
  0
LINE
  5
2E8
330
1F
100
AcDbEntity
  8
A-0_通り芯
  6
Continuous
 62
     3
370
     9
100
AcDbLine
 10
-370.0904602085927
 20
299.588328905446
 30
0.0
 11
-370.0904602085927
 21
287.5882893150743
 31
0.0
  0
LINE
  5
2E9
330
1F
100
AcDbEntity
  8
A-0_通り芯
  6
Continuous
 62
     3
370
     9
100
AcDbLine
 10
-371.0904140198257
 20
300.58818374075
 30
0.0
 11
-244.0904404134069
 21
300.58818374075
 31
0.0
  0
LINE
  5
2EA
330
1F
100
AcDbEntity
  8
A-0_通り芯
  6
Continuous
 62
     3
370
     9
100
AcDbLine
 10
-370.0904602085927
 20
287.5882893150743
 30
0.0
 11
-245.09039422464
 21
287.5882893150743
 31
0.0
  0
LINE
  5
2EB
330
1F
100
AcDbEntity
  8
A-0_通り芯
  6
Continuous
 62
     3
370
     9
100
AcDbLine
 10
-371.0904140198257
 20
300.58818374075
 30
0.0
 11
-371.0904140198257
 21
286.5882365279121
 31
0.0
  0
LINE
  5
2EC
330
1F
100
AcDbEntity
  8
A-0_通り芯
  6
Continuous
 62
     3
370
     9
100
AcDbLine
 10
-371.0904140198257
 20
286.5882365279121
 30
0.0
 11
-244.0904404134069
 21
286.5882365279121
 31
0.0
  0
LINE
  5
2ED
330
1F
100
AcDbEntity
  8
A-0_通り芯
  6
Continuous
 62
     3
370
     9
100
AcDbLine
 10
-245.09039422464
 20
299.588328905446
 30
0.0
 11
-245.09039422464
 21
287.5882893150743
 31
0.0
  0
LINE
  5
2EE
330
1F
100
AcDbEntity
  8
A-0_通り芯
  6
Continuous
 62
     3
370
     9
100
AcDbLine
 10
-244.0904404134069
 20
300.58818374075
 30
0.0
 11
-244.0904404134069
 21
286.5882365279121
 31
0.0
  0
LINE
  5
2EF
330
1F
100
AcDbEntity
  8
A-1_ピット
  6
Continuous
 62
     2
370
     9
100
AcDbLine
 10
-484.5905162949525
 20
-222.7367971239037
 30
0.0
 11
-484.5905162949525
 21
-200.7367740295203
 31
0.0
  0
LINE
  5
2F0
330
1F
100
AcDbEntity
  8
A-1_ピット
  6
Continuous
 62
     2
370
     9
100
AcDbLine
 10
-487.7905070571991
 20
-222.7367971239037
 30
0.0
 11
-487.7905070571991
 21
-200.7367740295203
 31
0.0
  0
LINE
  5
2F1
330
1F
100
AcDbEntity
  8
A-1_ピット
  6
Continuous
 62
     2
370
     9
100
AcDbLine
 10
-484.5905162949525
 20
-200.7367740295203
 30
0.0
 11
-487.7905070571991
 21
-200.7367740295203
 31
0.0
  0
LINE
  5
2F2
330
1F
100
AcDbEntity
  8
A-1_ピット
  6
Continuous
 62
     2
370
     9
100
AcDbLine
 10
-481.5905063973595
 20
-228.9367482957787
 30
0.0
 11
-457.5904767045809
 21
-228.9367482957787
 31
0.0
  0
LINE
  5
2F3
330
1F
100
AcDbEntity
  8
A-1_ピット
  6
Continuous
 62
     2
370
     9
100
AcDbLine
 10
-130.7527081498934
 20
-222.7367971239037
 30
0.0
 11
-130.7527081498934
 21
-200.7367740295203
 31
0.0
  0
LINE
  5
2F4
330
1F
100
AcDbEntity
  8
A-1_ピット
  6
Continuous
 62
     2
370
     9
100
AcDbLine
 10
-127.5527173876467
 20
-222.7367971239037
 30
0.0
 11
-127.5527173876467
 21
-200.7367740295203
 31
0.0
  0
LINE
  5
2F5
330
1F
100
AcDbEntity
  8
A-1_ピット
  6
Continuous
 62
     2
370
     9
100
AcDbLine
 10
-130.7527081498934
 20
-200.7367740295203
 30
0.0
 11
-127.5527173876467
 21
-200.7367740295203
 31
0.0
  0
LINE
  5
2F6
330
1F
100
AcDbEntity
  8
A-1_ピット
  6
Continuous
 62
     2
370
     9
100
AcDbLine
 10
-133.7526685595217
 20
-228.9367482957787
 30
0.0
 11
-157.7527477402649
 21
-228.9367482957787
 31
0.0
  0
LINE
  5
2F7
330
1F
100
AcDbEntity
  8
A-1_ピット
  6
Continuous
 62
     2
370
     9
100
AcDbLine
 10
-484.5904668069879
 20
-48.53683605443582
 30
0.0
 11
-484.5904668069879
 21
305.4632431263074
 31
0.0
  0
LINE
  5
2F8
330
1F
100
AcDbEntity
  8
A-1_ピット
  6
Continuous
 62
     2
370
     9
100
AcDbLine
 10
-484.5904668069879
 20
305.4632431263074
 30
0.0
 11
-130.5903876262447
 21
305.4632431263074
 31
0.0
  0
LINE
  5
2F9
330
1F
100
AcDbEntity
  8
A-1_ピット
  6
Continuous
 62
     2
370
     9
100
AcDbLine
 10
-130.5903876262447
 20
305.4632431263074
 30
0.0
 11
-130.5903876262447
 21
-48.53683605443582
 31
0.0
  0
LINE
  5
2FA
330
1F
100
AcDbEntity
  8
A-1_ピット
  6
Continuous
 62
     2
370
     9
100
AcDbLine
 10
-130.5903876262447
 20
-48.53683605443582
 30
0.0
 11
-484.5904668069879
 21
-48.53683605443582
 31
0.0
  0
LINE
  5
2FB
330
1F
100
AcDbEntity
  8
A-1_ピット
  6
Continuous
 62
     2
370
     9
100
AcDbLine
 10
-487.7904575692346
 20
-51.73677732871796
 30
0.0
 11
-487.7904575692346
 21
308.6633328644832
 31
0.0
  0
LINE
  5
2FC
330
1F
100
AcDbEntity
  8
A-1_ピット
  6
Continuous
 62
     2
370
     9
100
AcDbLine
 10
-487.7904575692346
 20
308.6633328644832
 30
0.0
 11
-127.3904958399271
 21
308.6633328644832
 31
0.0
  0
LINE
  5
2FD
330
1F
100
AcDbEntity
  8
A-1_ピット
  6
Continuous
 62
     2
370
     9
100
AcDbLine
 10
-127.3904958399271
 20
308.6633328644832
 30
0.0
 11
-127.3904958399271
 21
-51.73677732871796
 31
0.0
  0
LINE
  5
2FE
330
1F
100
AcDbEntity
  8
A-1_ピット
  6
Continuous
 62
     2
370
     9
100
AcDbLine
 10
-127.3904958399271
 20
-51.73677732871796
 30
0.0
 11
-487.7904575692346
 21
-51.73677732871796
 31
0.0
  0
LINE
  5
2FF
330
1F
100
AcDbEntity
  8
A-1_ピット
  6
Continuous
 62
     2
370
     9
100
AcDbLine
 10
-392.2903651917008
 20
-56.23676743112504
 30
0.0
 11
-392.2903651917008
 21
-80.73677402952029
 31
0.0
  0
LINE
  5
300
330
1F
100
AcDbEntity
  8
A-1_ピット
  6
Continuous
 62
     2
370
     9
100
AcDbLine
 10
-383.2904344748511
 20
-56.23676743112504
 30
0.0
 11
-383.2904344748511
 21
-80.73677402952029
 31
0.0
  0
LINE
  5
301
330
1F
100
AcDbEntity
  8
A-1_ピット
  6
Continuous
 62
     2
370
     9
100
AcDbLine
 10
-383.2904344748511
 20
-80.73677402952029
 30
0.0
 11
-392.2903651917008
 21
-80.73677402952029
 31
0.0
  0
LINE
  5
302
330
1F
100
AcDbEntity
  8
A-1_ピット
  6
Continuous
 62
     2
370
     9
100
AcDbLine
 10
-222.8903407776382
 20
-56.23676743112504
 30
0.0
 11
-222.8903407776382
 21
-80.73677402952029
 31
0.0
  0
LINE
  5
303
330
1F
100
AcDbEntity
  8
A-1_ピット
  6
Continuous
 62
     2
370
     9
100
AcDbLine
 10
-231.8904199583815
 20
-56.23676743112504
 30
0.0
 11
-231.8904199583815
 21
-80.73677402952029
 31
0.0
  0
LINE
  5
304
330
1F
100
AcDbEntity
  8
A-1_ピット
  6
Continuous
 62
     2
370
     9
100
AcDbLine
 10
-231.8904199583815
 20
-80.73677402952029
 30
0.0
 11
-222.8903407776382
 21
-80.73677402952029
 31
0.0
  0
LINE
  5
305
330
1F
100
AcDbEntity
  8
A-1_ピット
  6
Continuous
 62
     2
370
     9
100
AcDbLine
 10
-392.2903651917008
 20
313.1630755270675
 30
0.0
 11
-392.2903651917008
 21
337.6631811013919
 31
0.0
  0
LINE
  5
306
330
1F
100
AcDbEntity
  8
A-1_ピット
  6
Continuous
 62
     2
370
     9
100
AcDbLine
 10
-383.2904344748511
 20
313.1630755270675
 30
0.0
 11
-383.2904344748511
 21
337.6631811013919
 31
0.0
  0
LINE
  5
307
330
1F
100
AcDbEntity
  8
A-1_ピット
  6
Continuous
 62
     2
370
     9
100
AcDbLine
 10
-383.2904344748511
 20
337.6631811013919
 30
0.0
 11
-392.2903651917008
 21
337.6631811013919
 31
0.0
  0
LINE
  5
308
330
1F
100
AcDbEntity
  8
A-1_ピット
  6
Continuous
 62
     2
370
     9
100
AcDbLine
 10
-222.8903407776382
 20
313.1630755270675
 30
0.0
 11
-222.8903407776382
 21
337.6631811013919
 31
0.0
  0
LINE
  5
309
330
1F
100
AcDbEntity
  8
A-1_ピット
  6
Continuous
 62
     2
370
     9
100
AcDbLine
 10
-231.8904199583815
 20
313.1630755270675
 30
0.0
 11
-231.8904199583815
 21
337.6631811013919
 31
0.0
  0
LINE
  5
30A
330
1F
100
AcDbEntity
  8
A-1_ピット
  6
Continuous
 62
     2
370
     9
100
AcDbLine
 10
-231.8904199583815
 20
337.6631811013919
 30
0.0
 11
-222.8903407776382
 21
337.6631811013919
 31
0.0
  0
LINE
  5
30B
330
1F
100
AcDbEntity
  8
A-1_ピット
  6
Continuous
 62
     2
370
     9
100
AcDbLine
 10
234.6096097343973
 20
-48.53673707850681
 30
0.0
 11
212.6095371520491
 21
-48.53673707850681
 31
0.0
  0
LINE
  5
30C
330
1F
100
AcDbEntity
  8
A-1_ピット
  6
Continuous
 62
     2
370
     9
100
AcDbLine
 10
255.8095609062723
 20
-51.73677732871796
 30
0.0
 11
212.6095371520491
 21
-51.73677732871796
 31
0.0
  0
LINE
  5
30D
330
1F
100
AcDbEntity
  8
A-1_ピット
  6
Continuous
 62
     2
370
     9
100
AcDbLine
 10
260.8094289383669
 20
-65.73667505359123
 30
0.0
 11
260.8094289383669
 21
-80.73677402952029
 31
0.0
  0
LINE
  5
30E
330
1F
100
AcDbEntity
  8
A-1_ピット
  6
Continuous
 62
     2
370
     9
100
AcDbLine
 10
269.809409143181
 20
-65.73667505359123
 30
0.0
 11
269.809409143181
 21
-80.73677402952029
 31
0.0
  0
LINE
  5
30F
330
1F
100
AcDbEntity
  8
A-1_ピット
  6
Continuous
 62
     2
370
     9
100
AcDbLine
 10
255.8095609062723
 20
-60.73670804556759
 30
0.0
 11
230.8094289383669
 21
-60.73670804556759
 31
0.0
  0
LINE
  5
310
330
1F
100
AcDbEntity
  8
A-1_ピット
  6
Continuous
 62
     2
370
     9
100
AcDbLine
 10
230.8094289383669
 20
-51.73677732871796
 30
0.0
 11
230.8094289383669
 21
-60.73670804556759
 31
0.0
  0
LINE
  5
311
330
1F
100
AcDbEntity
  8
A-1_ピット
  6
Continuous
 62
     2
370
     9
100
AcDbLine
 10
240.8094619303431
 20
-45.53672718091389
 30
0.0
 11
240.8094619303431
 21
-21.53679646406426
 31
0.0
  0
LINE
  5
312
330
1F
100
AcDbEntity
  8
A-0_通り芯
  6
Continuous
 62
     3
370
     9
100
AcDbLine
 10
237.6095701440256
 20
-33.96366974848144
 30
0.0
 11
237.6095701440256
 21
-41.13353553712165
 31
0.0
  0
LINE
  5
313
330
1F
100
AcDbEntity
  8
A-0_通り芯
  6
Continuous
 62
     3
370
     9
100
AcDbLine
 10
224.4764541178431
 20
-43.41225835173316
 30
0.0
 11
236.2093576756979
 21
-42.63010107238348
 31
0.0
  0
LINE
  5
314
330
1F
100
AcDbEntity
  8
A-0_通り芯
  6
Continuous
 62
     3
370
     9
100
AcDbLine
 10
220.4596150131135
 20
-31.6794042818429
 30
0.0
 11
236.1843167656473
 21
-32.46552059835478
 31
0.0
  0
LINE
  5
315
330
1F
100
AcDbEntity
  8
A-0_通り芯
  6
Continuous
 62
     3
370
     9
100
AcDbLine
 10
213.2776246731642
 20
-30.21654005042405
 30
0.0
 11
214.1096163327925
 21
-29.66177996807603
 31
0.0
  0
LINE
  5
316
330
1F
100
AcDbEntity
  8
A-0_通り芯
  6
Continuous
 62
     3
370
     9
100
AcDbLine
 10
213.2776246731642
 20
-43.10711556245946
 30
0.0
 11
214.1096163327925
 21
-43.66182615684296
 31
0.0
  0
LINE
  5
317
330
1F
100
AcDbEntity
  8
A-0_通り芯
  6
Continuous
 62
     3
370
     9
100
AcDbLine
 10
212.6095371520491
 20
-41.85907858505238
 30
0.0
 11
212.6095371520491
 21
-31.46457702783113
 31
0.0
  0
LINE
  5
318
330
1F
100
AcDbEntity
  8
A-0_通り芯
  6
Continuous
 62
     3
370
     9
100
AcDbLine
 10
215.1974607690256
 20
-45.8477095500017
 30
0.0
 11
217.6095041600729
 21
-46.53682945604056
 31
0.0
  0
LINE
  5
319
330
1F
100
AcDbEntity
  8
A-0_通り芯
  6
Continuous
 62
     3
370
     9
100
AcDbLine
 10
217.6095041600729
 20
-46.53682945604056
 30
0.0
 11
222.6095701440256
 21
-45.53677666887842
 31
0.0
  0
LINE
  5
31A
330
1F
100
AcDbEntity
  8
A-0_通り芯
  6
Continuous
 62
     3
370
     9
100
AcDbLine
 10
222.6095701440256
 20
-45.40786052128551
 30
0.0
 11
222.6095701440256
 21
-45.53677666887842
 31
0.0
  0
LINE
  5
31B
330
1F
100
AcDbEntity
  8
A-0_通り芯
  6
Continuous
 62
     3
370
     9
100
AcDbLine
 10
217.6095041600729
 20
-28.68310598158957
 30
0.0
 11
217.6095041600729
 21
-26.78687564480749
 31
0.0
  0
LINE
  5
31C
330
1F
100
AcDbEntity
  8
A-0_通り芯
  6
Continuous
 62
     3
370
     9
100
AcDbLine
 10
215.1974607690256
 20
-27.47604503881082
 30
0.0
 11
217.6095041600729
 21
-26.78687564480749
 31
0.0
  0
LINE
  5
31D
330
1F
100
AcDbEntity
  8
A-0_通り芯
  6
Continuous
 62
     3
370
     9
100
AcDbLine
 10
214.1096163327925
 20
-28.91832227698655
 30
0.0
 11
214.1096163327925
 21
-44.40538282386149
 31
0.0
  0
LINE
  5
31E
330
1F
100
AcDbEntity
  8
A-0_通り芯
  6
Continuous
 62
     3
370
     9
100
AcDbLine
 10
-176.0049977930521
 20
-225.7368070214966
 30
0.0
 11
-138.1561076431366
 21
-225.7368070214966
 31
0.0
  0
LINE
  5
31F
330
1F
100
AcDbEntity
  8
A-0_通り芯
  6
Continuous
 62
     3
370
     9
100
AcDbLine
 10
-439.3382266517937
 20
-225.7368070214966
 30
0.0
 11
-477.1871662896738
 21
-225.7368070214966
 31
0.0
  0
LINE
  5
320
330
1F
100
AcDbEntity
  8
A-0_通り芯
  6
Continuous
 62
     3
370
     9
100
AcDbLine
 10
237.6095701440256
 20
64.11875410603709
 30
0.0
 11
237.6095701440256
 21
-33.83856417415718
 31
0.0
  0
LINE
  5
321
330
1F
100
AcDbEntity
  8
A-1_ピット
  6
Continuous
 62
     2
370
     9
100
AcDbLine
 10
212.6095371520491
 20
-48.53673707850681
 30
0.0
 11
212.6095371520491
 21
-51.73677732871796
 31
0.0
  0
LINE
  5
322
330
1F
100
AcDbEntity
  8
A-1_ピット
  6
Continuous
 62
     2
370
     9
100
AcDbLine
 10
234.6096097343973
 20
305.4631441503784
 30
0.0
 11
212.6095371520491
 21
305.4631441503784
 31
0.0
  0
LINE
  5
323
330
1F
100
AcDbEntity
  8
A-0_通り芯
  6
Continuous
 62
     3
370
     9
100
AcDbLine
 10
-422.5904602085927
 20
138.2132233311216
 30
0.0
 11
-422.5904602085927
 21
146.2131507487737
 31
0.0
  0
LINE
  5
324
330
1F
100
AcDbEntity
  8
A-0_通り芯
  6
Continuous
 62
     3
370
     9
100
AcDbLine
 10
-406.5905063973595
 20
138.2132233311216
 30
0.0
 11
-406.5905063973595
 21
146.2131507487737
 31
0.0
  0
LINE
  5
325
330
1F
100
AcDbEntity
  8
A-0_通り芯
  6
Continuous
 62
     3
370
     9
100
AcDbLine
 10
-422.5904602085927
 20
110.7133058110625
 30
0.0
 11
-422.5904602085927
 21
118.71318374075
 31
0.0
  0
LINE
  5
326
330
1F
100
AcDbEntity
  8
A-0_通り芯
  6
Continuous
 62
     3
370
     9
100
AcDbLine
 10
-406.5905063973595
 20
110.7133058110625
 30
0.0
 11
-406.5905063973595
 21
118.71318374075
 31
0.0
  0
LINE
  5
327
330
1F
100
AcDbEntity
  8
A-0_通り芯
  6
Continuous
 62
     3
370
     9
100
AcDbLine
 10
237.6095701440256
 20
192.8076529658344
 30
0.0
 11
237.6095701440256
 21
290.7650207339933
 31
0.0
  0
LINE
  5
328
330
1F
100
AcDbEntity
  8
A-0_通り芯
  6
Continuous
 62
     3
370
     9
100
AcDbLine
 10
220.0211516474039
 20
12.94552643500667
 30
0.0
 11
221.40374640036
 21
13.22201569281917
 31
0.0
  0
LINE
  5
329
330
1F
100
AcDbEntity
  8
A-0_通り芯
  6
Continuous
 62
     3
370
     9
100
AcDbLine
 10
-422.1227989438123
 20
-235.7366915495794
 30
0.0
 11
-417.5902952487109
 21
-235.7366915495794
 31
0.0
  0
LINE
  5
32A
330
1F
100
AcDbEntity
  8
A-0_通り芯
  6
Continuous
 62
     3
370
     9
100
AcDbLine
 10
-411.5903744294542
 20
-235.7366915495794
 30
0.0
 11
-193.220474988998
 21
-235.7366915495794
 31
0.0
  0
LINE
  5
32B
330
1F
100
AcDbEntity
  8
A-0_通り芯
  6
JWW_CENTER1
 62
     3
370
     9
100
AcDbLine
 10
-414.590384327047
 20
-205.7366915495794
 30
0.0
 11
-414.590384327047
 21
-307.4516804642754
 31
0.0
  0
LINE
  5
32C
330
1F
100
AcDbEntity
  8
A-1_ピット
  6
Continuous
 62
     2
370
     9
100
AcDbLine
 10
-457.5904767045809
 20
-228.9367482957787
 30
0.0
 11
-457.5904767045809
 21
-225.7368070214966
 31
0.0
  0
LINE
  5
32D
330
1F
100
AcDbEntity
  8
A-1_ピット
  6
Continuous
 62
     2
370
     9
100
AcDbLine
 10
-481.5905063973595
 20
-225.7368070214966
 30
0.0
 11
-457.5904767045809
 21
-225.7368070214966
 31
0.0
  0
LINE
  5
32E
330
1F
100
AcDbEntity
  8
A-1_ピット
  6
Continuous
 62
     2
370
     9
100
AcDbLine
 10
-157.7527477402649
 20
-228.9367482957787
 30
0.0
 11
-157.7527477402649
 21
-225.7368070214966
 31
0.0
  0
LINE
  5
32F
330
1F
100
AcDbEntity
  8
A-1_ピット
  6
Continuous
 62
     2
370
     9
100
AcDbLine
 10
-133.7526685595217
 20
-225.7368070214966
 30
0.0
 11
-157.7527477402649
 21
-225.7368070214966
 31
0.0
  0
LINE
  5
330
330
1F
100
AcDbEntity
  8
A-1_ピット
  6
Continuous
 62
     2
370
     9
100
AcDbLine
 10
237.6095701440256
 20
-45.66173377930915
 30
0.0
 11
237.6095701440256
 21
-21.53679646406426
 31
0.0
  0
LINE
  5
331
330
1F
100
AcDbEntity
  8
A-1_ピット
  6
Continuous
 62
     2
370
     9
100
AcDbLine
 10
240.8094619303431
 20
-21.53679646406426
 30
0.0
 11
237.6095701440256
 21
-21.53679646406426
 31
0.0
  0
LINE
  5
332
330
1F
100
AcDbEntity
  8
A-1_ピット
  6
Continuous
 62
     2
370
     9
100
AcDbLine
 10
237.6095701440256
 20
302.5881903391452
 30
0.0
 11
237.6095701440256
 21
278.4632035359359
 31
0.0
  0
LINE
  5
333
330
1F
100
AcDbEntity
  8
A-1_ピット
  6
Continuous
 62
     2
370
     9
100
AcDbLine
 10
240.8094619303431
 20
278.4632035359359
 30
0.0
 11
237.6095701440256
 21
278.4632035359359
 31
0.0
  0
LINE
  5
334
330
1F
100
AcDbEntity
  8
A-0_通り芯
  6
Continuous
 62
     3
370
     9
100
AcDbLine
 10
-481.0904800037785
 20
275.7132563230979
 30
0.0
 11
-134.0903744294542
 21
275.7132563230979
 31
0.0
  0
LINE
  5
335
330
1F
100
AcDbEntity
  8
A-0_通り芯
  6
Continuous
 62
     3
370
     9
100
AcDbLine
 10
-481.0904800037785
 20
283.7132827166791
 30
0.0
 11
-134.0903744294542
 21
283.7132827166791
 31
0.0
  0
LINE
  5
336
330
1F
100
AcDbEntity
  8
A-1_ピット
  6
Continuous
 62
     2
370
     9
100
AcDbLine
 10
-487.7904575692346
 20
308.6633328644832
 30
0.0
 11
-484.5903678310589
 21
305.4632431263074
 31
0.0
  0
LINE
  5
337
330
1F
100
AcDbEntity
  8
A-1_ピット
  6
Continuous
 62
     2
370
     9
100
AcDbLine
 10
-127.3904958399271
 20
308.6633328644832
 30
0.0
 11
-130.5903876262447
 21
305.4633421022365
 31
0.0
  0
LINE
  5
338
330
1F
100
AcDbEntity
  8
A-1_ピット
  6
Continuous
 62
     2
370
     9
100
AcDbLine
 10
-130.5903876262447
 20
-48.53683605443582
 30
0.0
 11
-127.3904958399271
 21
-51.73677732871796
 31
0.0
  0
LINE
  5
339
330
1F
100
AcDbEntity
  8
A-1_ピット
  6
Continuous
 62
     2
370
     9
100
AcDbLine
 10
-487.7904575692346
 20
-51.73677732871796
 30
0.0
 11
-484.5904668069879
 21
-48.53673707850681
 31
0.0
  0
LINE
  5
33A
330
1F
100
AcDbEntity
  8
A-0_通り芯
  6
JWW_CENTER1
 62
     3
370
     9
100
AcDbLine
 10
-507.7904740652227
 20
128.4632035359357
 30
0.0
 11
-107.3905288319035
 21
128.4632035359357
 31
0.0
  0
LINE
  5
33B
330
1F
100
AcDbEntity
  8
A-0_通り芯
  6
JWW_CENTER1
 62
     3
370
     9
100
AcDbLine
 10
-307.6716369664052
 20
-182.2367872263109
 30
0.0
 11
-307.6716369664052
 21
-255.7367080455676
 31
0.0
  0
LINE
  5
33C
330
1F
100
AcDbEntity
  8
A-0_通り芯
  6
JWW_CENTER1
 62
     3
370
     9
100
AcDbLine
 10
-307.5904272166164
 20
328.6632998725068
 30
0.0
 11
-307.5904272166164
 21
-71.73679382470613
 31
0.0
  0
LINE
  5
33D
330
1F
100
AcDbEntity
  8
A-1_ピット
  6
JWW_CENTER1
 62
     2
370
     9
100
AcDbLine
 10
-387.7903750892937
 20
304.6633196676925
 30
0.0
 11
-387.7903750892937
 21
341.6631942981824
 31
0.0
  0
LINE
  5
33E
330
1F
100
AcDbEntity
  8
A-1_ピット
  6
JWW_CENTER1
 62
     2
370
     9
100
AcDbLine
 10
-379.2904212780606
 20
313.1630755270675
 30
0.0
 11
-396.2903783884913
 21
313.1630755270675
 31
0.0
  0
LINE
  5
33F
330
1F
100
AcDbEntity
  8
A-1_ピット
  6
JWW_CENTER1
 62
     2
370
     9
100
AcDbLine
 10
-227.390479343939
 20
304.6633196676925
 30
0.0
 11
-227.390479343939
 21
341.6631942981824
 31
0.0
  0
LINE
  5
340
330
1F
100
AcDbEntity
  8
A-1_ピット
  6
JWW_CENTER1
 62
     2
370
     9
100
AcDbLine
 10
-218.8905255327059
 20
313.1630755270675
 30
0.0
 11
-235.8904826431366
 21
313.1630755270675
 31
0.0
  0
LINE
  5
341
330
1F
100
AcDbEntity
  8
A-1_ピット
  6
JWW_CENTER1
 62
     2
370
     9
100
AcDbLine
 10
-227.390479343939
 20
-47.73701157175004
 30
0.0
 11
-227.390479343939
 21
-84.73688620223987
 31
0.0
  0
LINE
  5
342
330
1F
100
AcDbEntity
  8
A-1_ピット
  6
JWW_CENTER1
 62
     2
370
     9
100
AcDbLine
 10
-235.8904331551721
 20
-56.23676743112504
 30
0.0
 11
-218.8904760447413
 21
-56.23676743112504
 31
0.0
  0
LINE
  5
343
330
1F
100
AcDbEntity
  8
A-1_ピット
  6
JWW_CENTER1
 62
     2
370
     9
100
AcDbLine
 10
-387.7903750892937
 20
-47.73701157175004
 30
0.0
 11
-387.7903750892937
 21
-84.73688620223987
 31
0.0
  0
LINE
  5
344
330
1F
100
AcDbEntity
  8
A-1_ピット
  6
JWW_CENTER1
 62
     2
370
     9
100
AcDbLine
 10
-396.2903289005268
 20
-56.23676743112504
 30
0.0
 11
-379.2903717900961
 21
-56.23676743112504
 31
0.0
  0
LINE
  5
345
330
1F
100
AcDbEntity
  8
A-1_ピット
  6
JWW_CENTER1
 62
     2
370
     9
100
AcDbLine
 10
265.3094685287385
 20
322.6630821254628
 30
0.0
 11
265.3094685287385
 21
341.6631942981824
 31
0.0
  0
LINE
  5
346
330
1F
100
AcDbEntity
  8
A-1_ピット
  6
JWW_CENTER1
 62
     2
370
     9
100
AcDbLine
 10
255.8095609062723
 20
313.1630755270675
 30
0.0
 11
226.8094157415762
 21
313.1630755270675
 31
0.0
  0
LINE
  5
347
330
1F
100
AcDbEntity
  8
A-1_ピット
  6
JWW_CENTER1
 62
     2
370
     9
100
AcDbLine
 10
255.8095609062723
 20
-56.23671794316051
 30
0.0
 11
226.8094157415762
 21
-56.23671794316051
 31
0.0
  0
LINE
  5
348
330
1F
100
AcDbEntity
  8
A-1_ピット
  6
JWW_CENTER1
 62
     2
370
     9
100
AcDbLine
 10
265.3094685287385
 20
-65.73667505359123
 30
0.0
 11
265.3094685287385
 21
-84.73678722631081
 31
0.0
  0
LINE
  5
349
330
1F
100
AcDbEntity
  8
A-1_ピット
  6
Continuous
 62
     2
370
     9
100
AcDbLine
 10
269.809409143181
 20
-80.73677402952029
 30
0.0
 11
260.8094289383669
 21
-80.73677402952029
 31
0.0
  0
ARC
  5
34A
330
1F
100
AcDbEntity
  8
A-1_ピット
  6
Continuous
 62
     2
370
     9
100
AcDbCircle
 10
234.6096097343973
 20
302.463084764821
 30
0.0
 40
3.000000038662472
100
AcDbArc
 50
0.0
 51
90.0
  0
ARC
  5
34B
330
1F
100
AcDbEntity
  8
A-1_ピット
  6
Continuous
 62
     2
370
     9
100
AcDbCircle
 10
234.6095107584681
 20
302.463084764821
 30
0.0
 40
6.200000659839527
100
AcDbArc
 50
0.0
 51
90.0
  0
ARC
  5
34C
330
1F
100
AcDbEntity
  8
A-1_ピット
  6
Continuous
 62
     2
370
     9
100
AcDbCircle
 10
255.8095609062723
 20
322.6630821254628
 30
0.0
 40
5.000000644374539
100
AcDbArc
 50
270.0
 51
0.0
  0
ARC
  5
34D
330
1F
100
AcDbEntity
  8
A-1_ピット
  6
Continuous
 62
     2
370
     9
100
AcDbCircle
 10
255.8095609062723
 20
322.6630821254628
 30
0.0
 40
13.99999979380015
100
AcDbArc
 50
270.0
 51
0.0
  0
ARC
  5
34E
330
1F
100
AcDbEntity
  8
A-1_ピット
  6
JWW_CENTER1
 62
     2
370
     9
100
AcDbCircle
 10
255.8095609062723
 20
322.6630821254628
 30
0.0
 40
9.500000412399705
100
AcDbArc
 50
270.0
 51
0.0
  0
ARC
  5
34F
330
1F
100
AcDbEntity
  8
A-0_通り芯
  6
Continuous
 62
     3
370
     9
100
AcDbCircle
 10
-481.4614912738376
 20
-212.7367641319274
 30
0.0
 40
2.000000219087343
100
AcDbArc
 50
3.813949584960937
 51
89.99999999999999
  0
ARC
  5
350
330
1F
100
AcDbEntity
  8
A-0_通り芯
  6
Continuous
 62
     3
370
     9
100
AcDbCircle
 10
-480.4590135764136
 20
-203.7367344391487
 30
0.0
 40
1.500000019331236
100
AcDbArc
 50
90.0
 51
164.0546112060547
  0
ARC
  5
351
330
1F
100
AcDbEntity
  8
A-0_通り芯
  6
Continuous
 62
     3
370
     9
100
AcDbCircle
 10
-477.1871662896738
 20
-224.2367773287179
 30
0.0
 40
1.500000019331236
100
AcDbArc
 50
183.8139495849609
 51
270.0
  0
ARC
  5
352
330
1F
100
AcDbEntity
  8
A-0_通り芯
  6
Continuous
 62
     3
370
     9
100
AcDbCircle
 10
-459.3924819569035
 20
-209.73670474637
 30
0.0
 40
4.000000438174686
100
AcDbArc
 50
90.0
 51
168.6898956298828
  0
ARC
  5
353
330
1F
100
AcDbEntity
  8
A-0_通り芯
  6
Continuous
 62
     3
370
     9
100
AcDbCircle
 10
-462.0320215208815
 20
-212.7367641319274
 30
0.0
 40
2.000000219087343
100
AcDbArc
 50
90.0
 51
168.6902008056641
  0
ARC
  5
354
330
1F
100
AcDbEntity
  8
A-0_通り芯
  6
Continuous
 62
     3
370
     9
100
AcDbCircle
 10
-467.9012941137869
 20
-224.2367773287179
 30
0.0
 40
1.500000019331236
100
AcDbArc
 50
270.0
 51
348.6901550292969
  0
ARC
  5
355
330
1F
100
AcDbEntity
  8
A-0_通り芯
  6
Continuous
 62
     3
370
     9
100
AcDbCircle
 10
-480.0905261925454
 20
-44.03674697609967
 30
0.0
 40
1.500000019331236
100
AcDbArc
 50
180.0
 51
270.0
  0
ARC
  5
356
330
1F
100
AcDbEntity
  8
A-0_通り芯
  6
Continuous
 62
     3
370
     9
100
AcDbCircle
 10
-480.0905261925454
 20
-29.28680966085478
 30
0.0
 40
1.500000019331236
100
AcDbArc
 50
90.0
 51
180.0
  0
ARC
  5
357
330
1F
100
AcDbEntity
  8
A-0_通り芯
  6
Continuous
 62
     3
370
     9
100
AcDbCircle
 10
-481.0904800037785
 20
-28.28685584962165
 30
0.0
 40
1.500000019331236
100
AcDbArc
 50
90.0
 51
180.0
  0
ARC
  5
358
330
1F
100
AcDbEntity
  8
A-0_通り芯
  6
Continuous
 62
     3
370
     9
100
AcDbCircle
 10
-481.0904800037785
 20
-45.03684925122639
 30
0.0
 40
1.500000019331236
100
AcDbArc
 50
180.0
 51
270.0
  0
ARC
  5
359
330
1F
100
AcDbEntity
  8
A-0_通り芯
  6
Continuous
 62
     3
370
     9
100
AcDbCircle
 10
-481.0904800037785
 20
-0.7867898656689505
 30
0.0
 40
1.500000019331236
100
AcDbArc
 50
90.0
 51
180.0
  0
ARC
  5
35A
330
1F
100
AcDbEntity
  8
A-0_通り芯
  6
Continuous
 62
     3
370
     9
100
AcDbCircle
 10
-480.0905261925454
 20
-1.78684265283114
 30
0.0
 40
1.500000019331236
100
AcDbArc
 50
90.0
 51
180.0
  0
ARC
  5
35B
330
1F
100
AcDbEntity
  8
A-0_通り芯
  6
Continuous
 62
     3
370
     9
100
AcDbCircle
 10
-481.0904800037785
 20
-17.28677007048311
 30
0.0
 40
1.500000019331236
100
AcDbArc
 50
180.0
 51
270.0
  0
ARC
  5
35C
330
1F
100
AcDbEntity
  8
A-0_通り芯
  6
Continuous
 62
     3
370
     9
100
AcDbCircle
 10
-480.0905261925454
 20
-16.28681625924998
 30
0.0
 40
1.500000019331236
100
AcDbArc
 50
180.0
 51
270.0
  0
ARC
  5
35D
330
1F
100
AcDbEntity
  8
A-0_通り芯
  6
Continuous
 62
     3
370
     9
100
AcDbCircle
 10
-481.0904800037785
 20
26.7131771423547
 30
0.0
 40
1.500000019331236
100
AcDbArc
 50
90.0
 51
180.0
  0
ARC
  5
35E
330
1F
100
AcDbEntity
  8
A-0_通り芯
  6
Continuous
 62
     3
370
     9
100
AcDbCircle
 10
-480.0905261925454
 20
25.71312435519251
 30
0.0
 40
1.500000019331236
100
AcDbArc
 50
90.0
 51
180.0
  0
ARC
  5
35F
330
1F
100
AcDbEntity
  8
A-0_通り芯
  6
Continuous
 62
     3
370
     9
100
AcDbCircle
 10
-481.0904800037785
 20
10.21319693754053
 30
0.0
 40
1.500000019331236
100
AcDbArc
 50
180.0
 51
270.0
  0
ARC
  5
360
330
1F
100
AcDbEntity
  8
A-0_通り芯
  6
Continuous
 62
     3
370
     9
100
AcDbCircle
 10
-480.0905261925454
 20
11.2132992126672
 30
0.0
 40
1.500000019331236
100
AcDbArc
 50
180.0
 51
270.0
  0
ARC
  5
361
330
1F
100
AcDbEntity
  8
A-0_通り芯
  6
Continuous
 62
     3
370
     9
100
AcDbCircle
 10
-481.0904800037785
 20
54.21314415037834
 30
0.0
 40
1.500000019331236
100
AcDbArc
 50
90.0
 51
180.0
  0
ARC
  5
362
330
1F
100
AcDbEntity
  8
A-0_通り芯
  6
Continuous
 62
     3
370
     9
100
AcDbCircle
 10
-480.0905261925454
 20
53.2132398271098
 30
0.0
 40
1.500000019331236
100
AcDbArc
 50
90.0
 51
180.0
  0
ARC
  5
363
330
1F
100
AcDbEntity
  8
A-0_通り芯
  6
Continuous
 62
     3
370
     9
100
AcDbCircle
 10
-481.0904800037785
 20
37.71316394556418
 30
0.0
 40
1.500000019331236
100
AcDbArc
 50
180.0
 51
270.0
  0
ARC
  5
364
330
1F
100
AcDbEntity
  8
A-0_通り芯
  6
Continuous
 62
     3
370
     9
100
AcDbCircle
 10
-480.0905261925454
 20
38.71326622069084
 30
0.0
 40
1.500000019331236
100
AcDbArc
 50
180.0
 51
270.0
  0
ARC
  5
365
330
1F
100
AcDbEntity
  8
A-0_通り芯
  6
Continuous
 62
     3
370
     9
100
AcDbCircle
 10
-481.0904800037785
 20
81.71316064636657
 30
0.0
 40
1.500000019331236
100
AcDbArc
 50
90.0
 51
180.0
  0
ARC
  5
366
330
1F
100
AcDbEntity
  8
A-0_通り芯
  6
Continuous
 62
     3
370
     9
100
AcDbCircle
 10
-480.0905261925454
 20
80.71320683513345
 30
0.0
 40
1.500000019331236
100
AcDbArc
 50
90.0
 51
180.0
  0
ARC
  5
367
330
1F
100
AcDbEntity
  8
A-0_通り芯
  6
Continuous
 62
     3
370
     9
100
AcDbCircle
 10
-481.0904800037785
 20
65.2131804415523
 30
0.0
 40
1.500000019331236
100
AcDbArc
 50
180.0
 51
270.0
  0
ARC
  5
368
330
1F
100
AcDbEntity
  8
A-0_通り芯
  6
Continuous
 62
     3
370
     9
100
AcDbCircle
 10
-480.0905261925454
 20
66.21323322871449
 30
0.0
 40
1.500000019331236
100
AcDbArc
 50
180.0
 51
270.0
  0
ARC
  5
369
330
1F
100
AcDbEntity
  8
A-0_通り芯
  6
Continuous
 62
     3
370
     9
100
AcDbCircle
 10
-481.0904800037785
 20
109.2133256062482
 30
0.0
 40
1.500000019331236
100
AcDbArc
 50
90.0
 51
180.0
  0
ARC
  5
36A
330
1F
100
AcDbEntity
  8
A-0_通り芯
  6
Continuous
 62
     3
370
     9
100
AcDbCircle
 10
-480.0905261925454
 20
108.2131738431571
 30
0.0
 40
1.500000019331236
100
AcDbArc
 50
90.0
 51
180.0
  0
ARC
  5
36B
330
1F
100
AcDbEntity
  8
A-0_通り芯
  6
Continuous
 62
     3
370
     9
100
AcDbCircle
 10
-481.0904800037785
 20
92.71319693754053
 30
0.0
 40
1.500000019331236
100
AcDbArc
 50
180.0
 51
270.0
  0
ARC
  5
36C
330
1F
100
AcDbEntity
  8
A-0_通り芯
  6
Continuous
 62
     3
370
     9
100
AcDbCircle
 10
-480.0905261925454
 20
93.71320023673813
 30
0.0
 40
1.500000019331236
100
AcDbArc
 50
180.0
 51
270.0
  0
ARC
  5
36D
330
1F
100
AcDbEntity
  8
A-0_通り芯
  6
Continuous
 62
     3
370
     9
100
AcDbCircle
 10
-481.0904800037785
 20
120.2132629214933
 30
0.0
 40
1.500000019331236
100
AcDbArc
 50
180.0
 51
270.0
  0
ARC
  5
36E
330
1F
100
AcDbEntity
  8
A-0_通り芯
  6
Continuous
 62
     3
370
     9
100
AcDbCircle
 10
-480.0905261925454
 20
121.2132167327264
 30
0.0
 40
1.500000019331236
100
AcDbArc
 50
180.0
 51
270.0
  0
ARC
  5
36F
330
1F
100
AcDbEntity
  8
A-0_通り芯
  6
Continuous
 62
     3
370
     9
100
AcDbCircle
 10
215.6095965376066
 20
-1.418256293033849
 30
0.0
 40
1.500000019331236
100
AcDbArc
 50
105.9453887939453
 51
180.0
  0
ARC
  5
370
330
1F
100
AcDbEntity
  8
A-0_通り芯
  6
Continuous
 62
     3
370
     9
100
AcDbCircle
 10
215.6095965376066
 20
-16.6553531310828
 30
0.0
 40
1.500000019331236
100
AcDbArc
 50
180.0
 51
254.0546112060547
  0
ARC
  5
371
330
1F
100
AcDbEntity
  8
A-0_通り芯
  6
Continuous
 62
     3
370
     9
100
AcDbCircle
 10
214.1096163327925
 20
-3.839603421412178
 30
0.0
 40
1.500000019331236
100
AcDbArc
 50
123.6900634765625
 51
180.0
  0
ARC
  5
372
330
1F
100
AcDbEntity
  8
A-0_通り芯
  6
Continuous
 62
     3
370
     9
100
AcDbCircle
 10
214.1096163327925
 20
-14.23410497863343
 30
0.0
 40
1.500000019331236
100
AcDbArc
 50
180.0
 51
236.3099365234375
  0
ARC
  5
373
330
1F
100
AcDbEntity
  8
A-0_通り芯
  6
Continuous
 62
     3
370
     9
100
AcDbCircle
 10
215.6095965376066
 20
26.0817107149898
 30
0.0
 40
1.500000019331236
100
AcDbArc
 50
105.9453887939453
 51
180.0
  0
ARC
  5
374
330
1F
100
AcDbEntity
  8
A-0_通り芯
  6
Continuous
 62
     3
370
     9
100
AcDbCircle
 10
215.6095965376066
 20
10.84461387694084
 30
0.0
 40
1.500000019331236
100
AcDbArc
 50
180.0
 51
254.0546112060547
  0
ARC
  5
375
330
1F
100
AcDbEntity
  8
A-0_通り芯
  6
Continuous
 62
     3
370
     9
100
AcDbCircle
 10
214.1096163327925
 20
23.66036358661147
 30
0.0
 40
1.500000019331236
100
AcDbArc
 50
123.6900634765625
 51
180.0
  0
ARC
  5
376
330
1F
100
AcDbEntity
  8
A-0_通り芯
  6
Continuous
 62
     3
370
     9
100
AcDbCircle
 10
214.1096163327925
 20
13.26586202939022
 30
0.0
 40
1.500000019331236
100
AcDbArc
 50
180.0
 51
236.3099365234375
  0
ARC
  5
377
330
1F
100
AcDbEntity
  8
A-0_通り芯
  6
Continuous
 62
     3
370
     9
100
AcDbCircle
 10
215.6095965376066
 20
53.58172721097803
 30
0.0
 40
1.500000019331236
100
AcDbArc
 50
105.9453887939453
 51
180.0
  0
ARC
  5
378
330
1F
100
AcDbEntity
  8
A-0_通り芯
  6
Continuous
 62
     3
370
     9
100
AcDbCircle
 10
215.6095965376066
 20
38.34467986089355
 30
0.0
 40
1.500000019331236
100
AcDbArc
 50
180.0
 51
254.0546112060547
  0
ARC
  5
379
330
1F
100
AcDbEntity
  8
A-0_通り芯
  6
Continuous
 62
     3
370
     9
100
AcDbCircle
 10
214.1096163327925
 20
51.16033059463511
 30
0.0
 40
1.500000019331236
100
AcDbArc
 50
123.6900634765625
 51
180.0
  0
ARC
  5
37A
330
1F
100
AcDbEntity
  8
A-0_通り芯
  6
Continuous
 62
     3
370
     9
100
AcDbCircle
 10
214.1096163327925
 20
40.76587852537834
 30
0.0
 40
1.500000019331236
100
AcDbArc
 50
180.0
 51
236.3099365234375
  0
ARC
  5
37B
330
1F
100
AcDbEntity
  8
A-0_通り芯
  6
Continuous
 62
     3
370
     9
100
AcDbCircle
 10
215.6095965376066
 20
81.08169421900168
 30
0.0
 40
1.500000019331236
100
AcDbArc
 50
105.9453887939453
 51
180.0
  0
ARC
  5
37C
330
1F
100
AcDbEntity
  8
A-0_通り芯
  6
Continuous
 62
     3
370
     9
100
AcDbCircle
 10
215.6095965376066
 20
65.84454789298813
 30
0.0
 40
1.500000019331236
100
AcDbArc
 50
180.0
 51
254.0546112060547
  0
ARC
  5
37D
330
1F
100
AcDbEntity
  8
A-0_通り芯
  6
Continuous
 62
     3
370
     9
100
AcDbCircle
 10
214.1096163327925
 20
78.66029760265876
 30
0.0
 40
1.500000019331236
100
AcDbArc
 50
123.6900634765625
 51
180.0
  0
ARC
  5
37E
330
1F
100
AcDbEntity
  8
A-0_通り芯
  6
Continuous
 62
     3
370
     9
100
AcDbCircle
 10
214.1096163327925
 20
68.26599399729552
 30
0.0
 40
1.500000019331236
100
AcDbArc
 50
180.0
 51
236.3099365234375
  0
ARC
  5
37F
330
1F
100
AcDbEntity
  8
A-0_通り芯
  6
Continuous
 62
     3
370
     9
100
AcDbCircle
 10
215.6095965376066
 20
108.5817107149898
 30
0.0
 40
1.500000019331236
100
AcDbArc
 50
105.9453887939453
 51
180.0
  0
ARC
  5
380
330
1F
100
AcDbEntity
  8
A-0_通り芯
  6
Continuous
 62
     3
370
     9
100
AcDbCircle
 10
215.6095965376066
 20
93.34461387694084
 30
0.0
 40
1.500000019331236
100
AcDbArc
 50
180.0
 51
254.0546112060547
  0
ARC
  5
381
330
1F
100
AcDbEntity
  8
A-0_通り芯
  6
Continuous
 62
     3
370
     9
100
AcDbCircle
 10
214.1096163327925
 20
106.1604130745759
 30
0.0
 40
1.500000019331236
100
AcDbArc
 50
123.6900634765625
 51
180.0
  0
ARC
  5
382
330
1F
100
AcDbEntity
  8
A-0_通り芯
  6
Continuous
 62
     3
370
     9
100
AcDbCircle
 10
214.1096163327925
 20
95.76596100531928
 30
0.0
 40
1.500000019331236
100
AcDbArc
 50
180.0
 51
236.3099365234375
  0
ARC
  5
383
330
1F
100
AcDbEntity
  8
A-0_通り芯
  6
Continuous
 62
     3
370
     9
100
AcDbCircle
 10
215.6095965376066
 20
120.8446303729291
 30
0.0
 40
1.500000019331236
100
AcDbArc
 50
180.0
 51
254.0546112060547
  0
ARC
  5
384
330
1F
100
AcDbEntity
  8
A-0_通り芯
  6
Continuous
 62
     3
370
     9
100
AcDbCircle
 10
214.1096163327925
 20
123.2658785253784
 30
0.0
 40
1.500000019331236
100
AcDbArc
 50
180.0
 51
236.3099365234375
  0
ARC
  5
385
330
1F
100
AcDbEntity
  8
A-0_通り芯
  6
Continuous
 62
     3
370
     9
100
AcDbCircle
 10
246.1095239552587
 20
131.0597380587398
 30
0.0
 40
1.500000019331236
100
AcDbArc
 50
0.0
 51
86.1875
  0
ARC
  5
386
330
1F
100
AcDbEntity
  8
A-0_通り芯
  6
Continuous
 62
     3
370
     9
100
AcDbCircle
 10
246.1095239552587
 20
125.8664710612737
 30
0.0
 40
1.500000019331236
100
AcDbArc
 50
273.8125
 51
0.0
  0
ARC
  5
387
330
1F
100
AcDbEntity
  8
A-0_通り芯
  6
Continuous
 62
     3
370
     9
100
AcDbCircle
 10
246.1095239552587
 20
76.05990301862157
 30
0.0
 40
1.500000019331236
100
AcDbArc
 50
0.0
 51
86.18743896484376
  0
ARC
  5
388
330
1F
100
AcDbEntity
  8
A-0_通り芯
  6
Continuous
 62
     3
370
     9
100
AcDbCircle
 10
246.1095239552587
 20
70.8664380692973
 30
0.0
 40
1.500000019331236
100
AcDbArc
 50
273.8125610351562
 51
0.0000000000000254
  0
ARC
  5
389
330
1F
100
AcDbEntity
  8
A-0_通り芯
  6
Continuous
 62
     3
370
     9
100
AcDbCircle
 10
220.6094645697012
 20
82.26985075933105
 30
0.0
 40
3.000000038662472
100
AcDbArc
 50
180.0
 51
266.1856079101563
  0
ARC
  5
38A
330
1F
100
AcDbEntity
  8
A-0_通り芯
  6
Continuous
 62
     3
370
     9
100
AcDbCircle
 10
220.6094645697012
 20
64.65644084062323
 30
0.0
 40
3.000000038662472
100
AcDbArc
 50
93.81439208984376
 51
180.0
  0
ARC
  5
38B
330
1F
100
AcDbEntity
  8
A-0_通り芯
  6
Continuous
 62
     3
370
     9
100
AcDbCircle
 10
242.6096361279783
 20
64.11875410603709
 30
0.0
 40
5.000001030999261
100
AcDbArc
 50
93.81422424316406
 51
180.0
  0
ARC
  5
38C
330
1F
100
AcDbEntity
  8
A-0_通り芯
  6
Continuous
 62
     3
370
     9
100
AcDbCircle
 10
242.6096361279783
 20
82.80758698188167
 30
0.0
 40
5.000001030999261
100
AcDbArc
 50
180.0
 51
266.1857757568359
  0
ARC
  5
38D
330
1F
100
AcDbEntity
  8
A-0_通り芯
  6
Continuous
 62
     3
370
     9
100
AcDbCircle
 10
221.1095899392114
 20
-5.26653939058447
 30
0.0
 40
1.500000019331236
100
AcDbArc
 50
0.0
 51
78.69062805175781
  0
ARC
  5
38E
330
1F
100
AcDbEntity
  8
A-0_通り芯
  6
Continuous
 62
     3
370
     9
100
AcDbCircle
 10
221.1095899392114
 20
-12.80716900946113
 30
0.0
 40
1.500000019331236
100
AcDbArc
 50
281.3093719482422
 51
0.0000000000000382
  0
ARC
  5
38F
330
1F
100
AcDbEntity
  8
A-0_通り芯
  6
Continuous
 62
     3
370
     9
100
AcDbCircle
 10
220.6094645697012
 20
-17.49615364839696
 30
0.0
 40
3.000000038662472
100
AcDbArc
 50
101.310302734375
 51
180.0
  0
ARC
  5
390
330
1F
100
AcDbEntity
  8
A-0_通り芯
  6
Continuous
 62
     3
370
     9
100
AcDbCircle
 10
220.6094645697012
 20
-0.5774557757196845
 30
0.0
 40
3.000000038662472
100
AcDbArc
 50
180.0
 51
258.689697265625
  0
ARC
  5
391
330
1F
100
AcDbEntity
  8
A-0_通り芯
  6
Continuous
 62
     3
370
     9
100
AcDbCircle
 10
221.1095899392114
 20
22.23342761743918
 30
0.0
 40
1.500000019331236
100
AcDbArc
 50
0.0
 51
78.69062805175781
  0
ARC
  5
392
330
1F
100
AcDbEntity
  8
A-0_通り芯
  6
Continuous
 62
     3
370
     9
100
AcDbCircle
 10
221.1095899392114
 20
14.69279799856251
 30
0.0
 40
1.500000019331236
100
AcDbArc
 50
281.3093719482422
 51
0.0000000000000382
  0
ARC
  5
393
330
1F
100
AcDbEntity
  8
A-0_通り芯
  6
Continuous
 62
     3
370
     9
100
AcDbCircle
 10
220.6094645697012
 20
10.00381335962668
 30
0.0
 40
3.000000038662472
100
AcDbArc
 50
101.310302734375
 51
180.0
  0
ARC
  5
394
330
1F
100
AcDbEntity
  8
A-0_通り芯
  6
Continuous
 62
     3
370
     9
100
AcDbCircle
 10
220.6094645697012
 20
26.92261020823302
 30
0.0
 40
3.000000038662472
100
AcDbArc
 50
180.0
 51
258.689697265625
  0
ARC
  5
395
330
1F
100
AcDbEntity
  8
A-0_通り芯
  6
Continuous
 62
     3
370
     9
100
AcDbCircle
 10
221.1095899392114
 20
49.73339462546282
 30
0.0
 40
1.500000019331236
100
AcDbArc
 50
0.0
 51
78.69062805175781
  0
ARC
  5
396
330
1F
100
AcDbEntity
  8
A-0_通り芯
  6
Continuous
 62
     3
370
     9
100
AcDbCircle
 10
221.1095899392114
 20
42.19286398251522
 30
0.0
 40
1.500000019331236
100
AcDbArc
 50
281.3093719482422
 51
0.0000000000000382
  0
ARC
  5
397
330
1F
100
AcDbEntity
  8
A-0_通り芯
  6
Continuous
 62
     3
370
     9
100
AcDbCircle
 10
220.6094645697012
 20
37.50378036765032
 30
0.0
 40
3.000000038662472
100
AcDbArc
 50
101.310302734375
 51
180.0
  0
ARC
  5
398
330
1F
100
AcDbEntity
  8
A-0_通り芯
  6
Continuous
 62
     3
370
     9
100
AcDbCircle
 10
220.6094645697012
 20
54.42257721625667
 30
0.0
 40
3.000000038662472
100
AcDbArc
 50
180.0
 51
258.689697265625
  0
ARC
  5
399
330
1F
100
AcDbEntity
  8
A-0_通り芯
  6
Continuous
 62
     3
370
     9
100
AcDbCircle
 10
221.1095899392114
 20
104.7334276174392
 30
0.0
 40
1.500000019331236
100
AcDbArc
 50
0.0
 51
78.69062805175781
  0
ARC
  5
39A
330
1F
100
AcDbEntity
  8
A-0_通り芯
  6
Continuous
 62
     3
370
     9
100
AcDbCircle
 10
221.1095899392114
 20
97.19284748652699
 30
0.0
 40
1.500000019331236
100
AcDbArc
 50
281.3093719482422
 51
0.0000000000000382
  0
ARC
  5
39B
330
1F
100
AcDbEntity
  8
A-0_通り芯
  6
Continuous
 62
     3
370
     9
100
AcDbCircle
 10
220.6094645697012
 20
92.50371438369761
 30
0.0
 40
3.000000038662472
100
AcDbArc
 50
101.310302734375
 51
180.0
  0
ARC
  5
39C
330
1F
100
AcDbEntity
  8
A-0_通り芯
  6
Continuous
 62
     3
370
     9
100
AcDbCircle
 10
220.6094645697012
 20
109.4226596961976
 30
0.0
 40
3.000000038662472
100
AcDbArc
 50
180.0
 51
258.689697265625
  0
ARC
  5
39D
330
1F
100
AcDbEntity
  8
A-0_通り芯
  6
Continuous
 62
     3
370
     9
100
AcDbCircle
 10
221.1095899392114
 20
124.6928144945506
 30
0.0
 40
1.500000019331236
100
AcDbArc
 50
281.3093719482422
 51
0.0000000000000382
  0
ARC
  5
39E
330
1F
100
AcDbEntity
  8
A-0_通り芯
  6
Continuous
 62
     3
370
     9
100
AcDbCircle
 10
220.6094645697012
 20
120.0037308796857
 30
0.0
 40
3.000000038662472
100
AcDbArc
 50
101.310302734375
 51
180.0
  0
ARC
  5
39F
330
1F
100
AcDbEntity
  8
A-0_通り芯
  6
Continuous
 62
     3
370
     9
100
AcDbCircle
 10
-367.4371135025116
 20
-224.2367773287179
 30
0.0
 40
1.500000019331236
100
AcDbArc
 50
191.0860290527343
 51
270.0
  0
ARC
  5
3A0
330
1F
100
AcDbEntity
  8
A-0_通り芯
  6
Continuous
 62
     3
370
     9
100
AcDbCircle
 10
-375.882828504623
 20
-209.73670474637
 30
0.0
 40
4.000000438174686
100
AcDbArc
 50
11.08595275878906
 51
89.99964904785156
  0
ARC
  5
3A1
330
1F
100
AcDbEntity
  8
A-0_通り芯
  6
Continuous
 62
     3
370
     9
100
AcDbCircle
 10
-373.2569476188545
 20
-212.7367641319274
 30
0.0
 40
2.000000219087343
100
AcDbArc
 50
11.08584594726562
 51
90.00000000000001
  0
ARC
  5
3A2
330
1F
100
AcDbEntity
  8
A-0_通り芯
  6
Continuous
 62
     3
370
     9
100
AcDbCircle
 10
-357.906275902216
 20
-224.2367773287179
 30
0.0
 40
1.500000019331236
100
AcDbArc
 50
270.0
 51
348.9139709472656
  0
ARC
  5
3A3
330
1F
100
AcDbEntity
  8
A-0_通り芯
  6
Continuous
 62
     3
370
     9
100
AcDbCircle
 10
-349.46051141214
 20
-209.73670474637
 30
0.0
 40
4.000000438174686
100
AcDbArc
 50
90.00035095214844
 51
168.914047241211
  0
ARC
  5
3A4
330
1F
100
AcDbEntity
  8
A-0_通り芯
  6
Continuous
 62
     3
370
     9
100
AcDbCircle
 10
-352.086441785873
 20
-212.7367641319274
 30
0.0
 40
2.000000219087343
100
AcDbArc
 50
90.0
 51
168.9141540527344
  0
ARC
  5
3A5
330
1F
100
AcDbEntity
  8
A-0_通り芯
  6
Continuous
 62
     3
370
     9
100
AcDbCircle
 10
-463.3932869611265
 20
-202.236803722299
 30
0.0
 40
1.500000019331236
100
AcDbArc
 50
33.69020080566407
 51
90.0
  0
ARC
  5
3A6
330
1F
100
AcDbEntity
  8
A-0_通り芯
  6
Continuous
 62
     3
370
     9
100
AcDbCircle
 10
-475.787696140814
 20
-202.236803722299
 30
0.0
 40
1.500000019331236
100
AcDbArc
 50
90.0
 51
146.3097991943359
  0
ARC
  5
3A7
330
1F
100
AcDbEntity
  8
A-0_通り芯
  6
Continuous
 62
     3
370
     9
100
AcDbCircle
 10
-441.793275084015
 20
-202.236803722299
 30
0.0
 40
1.500000019331236
100
AcDbArc
 50
33.69020080566407
 51
90.0
  0
ARC
  5
3A8
330
1F
100
AcDbEntity
  8
A-0_通り芯
  6
Continuous
 62
     3
370
     9
100
AcDbCircle
 10
-454.1876347757379
 20
-202.236803722299
 30
0.0
 40
1.500000019331236
100
AcDbArc
 50
90.0
 51
146.3097991943359
  0
ARC
  5
3A9
330
1F
100
AcDbEntity
  8
A-0_通り芯
  6
Continuous
 62
     3
370
     9
100
AcDbCircle
 10
-420.1932632069035
 20
-202.236803722299
 30
0.0
 40
1.500000019331236
100
AcDbArc
 50
33.69020080566407
 51
90.0
  0
ARC
  5
3AA
330
1F
100
AcDbEntity
  8
A-0_通り芯
  6
Continuous
 62
     3
370
     9
100
AcDbCircle
 10
-432.587672386591
 20
-202.236803722299
 30
0.0
 40
1.500000019331236
100
AcDbArc
 50
90.0
 51
146.3097991943359
  0
ARC
  5
3AB
330
1F
100
AcDbEntity
  8
A-0_通り芯
  6
Continuous
 62
     3
370
     9
100
AcDbCircle
 10
-398.593251329792
 20
-202.236803722299
 30
0.0
 40
1.500000019331236
100
AcDbArc
 50
33.69020080566407
 51
90.0
  0
ARC
  5
3AC
330
1F
100
AcDbEntity
  8
A-0_通り芯
  6
Continuous
 62
     3
370
     9
100
AcDbCircle
 10
-410.9876605094795
 20
-202.236803722299
 30
0.0
 40
1.500000019331236
100
AcDbArc
 50
90.0
 51
146.3097991943359
  0
ARC
  5
3AD
330
1F
100
AcDbEntity
  8
A-0_通り芯
  6
Continuous
 62
     3
370
     9
100
AcDbCircle
 10
-376.9932394526805
 20
-202.236803722299
 30
0.0
 40
1.500000019331236
100
AcDbArc
 50
33.69020080566407
 51
90.0
  0
ARC
  5
3AE
330
1F
100
AcDbEntity
  8
A-0_通り芯
  6
Continuous
 62
     3
370
     9
100
AcDbCircle
 10
-389.387648632368
 20
-202.236803722299
 30
0.0
 40
1.500000019331236
100
AcDbArc
 50
90.0
 51
146.3097991943359
  0
ARC
  5
3AF
330
1F
100
AcDbEntity
  8
A-0_通り芯
  6
Continuous
 62
     3
370
     9
100
AcDbCircle
 10
-355.3932770635336
 20
-202.236803722299
 30
0.0
 40
1.500000019331236
100
AcDbArc
 50
33.69020080566407
 51
90.0
  0
ARC
  5
3B0
330
1F
100
AcDbEntity
  8
A-0_通り芯
  6
Continuous
 62
     3
370
     9
100
AcDbCircle
 10
-367.7876367552566
 20
-202.236803722299
 30
0.0
 40
1.500000019331236
100
AcDbArc
 50
90.0
 51
146.3097991943359
  0
ARC
  5
3B1
330
1F
100
AcDbEntity
  8
A-0_通り芯
  6
Continuous
 62
     3
370
     9
100
AcDbCircle
 10
-333.7932156984575
 20
-202.236803722299
 30
0.0
 40
1.500000019331236
100
AcDbArc
 50
33.69020080566407
 51
90.0
  0
ARC
  5
3B2
330
1F
100
AcDbEntity
  8
A-0_通り芯
  6
Continuous
 62
     3
370
     9
100
AcDbCircle
 10
-346.187624878145
 20
-202.236803722299
 30
0.0
 40
1.500000019331236
100
AcDbArc
 50
90.0
 51
146.3097991943359
  0
ARC
  5
3B3
330
1F
100
AcDbEntity
  8
A-0_通り芯
  6
Continuous
 62
     3
370
     9
100
AcDbCircle
 10
-312.1932533093105
 20
-202.236803722299
 30
0.0
 40
1.500000019331236
100
AcDbArc
 50
33.69020080566407
 51
90.0
  0
ARC
  5
3B4
330
1F
100
AcDbEntity
  8
A-0_通り芯
  6
Continuous
 62
     3
370
     9
100
AcDbCircle
 10
-324.5876130010336
 20
-202.236803722299
 30
0.0
 40
1.500000019331236
100
AcDbArc
 50
90.0
 51
146.3097991943359
  0
ARC
  5
3B5
330
1F
100
AcDbEntity
  8
A-0_通り芯
  6
Continuous
 62
     3
370
     9
100
AcDbCircle
 10
-422.1227989438123
 20
-220.7366420616149
 30
0.0
 40
15.00000154649889
100
AcDbArc
 50
229.398681640625
 51
270.0
  0
ARC
  5
3B6
330
1F
100
AcDbEntity
  8
A-0_通り芯
  6
Continuous
 62
     3
370
     9
100
AcDbCircle
 10
-135.0903282406873
 20
-44.03674697609967
 30
0.0
 40
1.500000019331236
100
AcDbArc
 50
270.0
 51
0.0
  0
ARC
  5
3B7
330
1F
100
AcDbEntity
  8
A-0_通り芯
  6
Continuous
 62
     3
370
     9
100
AcDbCircle
 10
-135.0903282406873
 20
-29.28680966085478
 30
0.0
 40
1.500000019331236
100
AcDbArc
 50
0.0
 51
90.0
  0
ARC
  5
3B8
330
1F
100
AcDbEntity
  8
A-0_通り芯
  6
Continuous
 62
     3
370
     9
100
AcDbCircle
 10
-134.0903744294542
 20
-28.28685584962165
 30
0.0
 40
1.500000019331236
100
AcDbArc
 50
0.0
 51
90.0
  0
ARC
  5
3B9
330
1F
100
AcDbEntity
  8
A-0_通り芯
  6
Continuous
 62
     3
370
     9
100
AcDbCircle
 10
-134.0903744294542
 20
-45.03684925122639
 30
0.0
 40
1.500000019331236
100
AcDbArc
 50
270.0
 51
0.0
  0
ARC
  5
3BA
330
1F
100
AcDbEntity
  8
A-0_通り芯
  6
Continuous
 62
     3
370
     9
100
AcDbCircle
 10
-134.0903744294542
 20
-0.7867898656689505
 30
0.0
 40
1.500000019331236
100
AcDbArc
 50
0.0
 51
90.0
  0
ARC
  5
3BB
330
1F
100
AcDbEntity
  8
A-0_通り芯
  6
Continuous
 62
     3
370
     9
100
AcDbCircle
 10
-135.0903282406873
 20
-1.78684265283114
 30
0.0
 40
1.500000019331236
100
AcDbArc
 50
0.0
 51
90.0
  0
ARC
  5
3BC
330
1F
100
AcDbEntity
  8
A-0_通り芯
  6
Continuous
 62
     3
370
     9
100
AcDbCircle
 10
-134.0903744294542
 20
-17.28677007048311
 30
0.0
 40
1.500000019331236
100
AcDbArc
 50
270.0
 51
0.0
  0
ARC
  5
3BD
330
1F
100
AcDbEntity
  8
A-0_通り芯
  6
Continuous
 62
     3
370
     9
100
AcDbCircle
 10
-135.0903282406873
 20
-16.28681625924998
 30
0.0
 40
1.500000019331236
100
AcDbArc
 50
270.0
 51
0.0
  0
ARC
  5
3BE
330
1F
100
AcDbEntity
  8
A-0_通り芯
  6
Continuous
 62
     3
370
     9
100
AcDbCircle
 10
-134.0903744294542
 20
26.7131771423547
 30
0.0
 40
1.500000019331236
100
AcDbArc
 50
0.0
 51
90.0
  0
ARC
  5
3BF
330
1F
100
AcDbEntity
  8
A-0_通り芯
  6
Continuous
 62
     3
370
     9
100
AcDbCircle
 10
-135.0903282406873
 20
25.71312435519251
 30
0.0
 40
1.500000019331236
100
AcDbArc
 50
0.0
 51
90.0
  0
ARC
  5
3C0
330
1F
100
AcDbEntity
  8
A-0_通り芯
  6
Continuous
 62
     3
370
     9
100
AcDbCircle
 10
-134.0903744294542
 20
10.21319693754053
 30
0.0
 40
1.500000019331236
100
AcDbArc
 50
270.0
 51
0.0
  0
ARC
  5
3C1
330
1F
100
AcDbEntity
  8
A-0_通り芯
  6
Continuous
 62
     3
370
     9
100
AcDbCircle
 10
-135.0903282406873
 20
11.2132992126672
 30
0.0
 40
1.500000019331236
100
AcDbArc
 50
270.0
 51
0.0
  0
ARC
  5
3C2
330
1F
100
AcDbEntity
  8
A-0_通り芯
  6
Continuous
 62
     3
370
     9
100
AcDbCircle
 10
-134.0903744294542
 20
54.21314415037834
 30
0.0
 40
1.500000019331236
100
AcDbArc
 50
0.0
 51
90.0
  0
ARC
  5
3C3
330
1F
100
AcDbEntity
  8
A-0_通り芯
  6
Continuous
 62
     3
370
     9
100
AcDbCircle
 10
-135.0903282406873
 20
53.2132398271098
 30
0.0
 40
1.500000019331236
100
AcDbArc
 50
0.0
 51
90.0
  0
ARC
  5
3C4
330
1F
100
AcDbEntity
  8
A-0_通り芯
  6
Continuous
 62
     3
370
     9
100
AcDbCircle
 10
-134.0903744294542
 20
37.71316394556418
 30
0.0
 40
1.500000019331236
100
AcDbArc
 50
270.0
 51
0.0
  0
ARC
  5
3C5
330
1F
100
AcDbEntity
  8
A-0_通り芯
  6
Continuous
 62
     3
370
     9
100
AcDbCircle
 10
-135.0903282406873
 20
38.71326622069084
 30
0.0
 40
1.500000019331236
100
AcDbArc
 50
270.0
 51
0.0
  0
ARC
  5
3C6
330
1F
100
AcDbEntity
  8
A-0_通り芯
  6
Continuous
 62
     3
370
     9
100
AcDbCircle
 10
-134.0903744294542
 20
81.71316064636657
 30
0.0
 40
1.500000019331236
100
AcDbArc
 50
0.0
 51
90.0
  0
ARC
  5
3C7
330
1F
100
AcDbEntity
  8
A-0_通り芯
  6
Continuous
 62
     3
370
     9
100
AcDbCircle
 10
-135.0903282406873
 20
80.71320683513345
 30
0.0
 40
1.500000019331236
100
AcDbArc
 50
0.0
 51
90.0
  0
ARC
  5
3C8
330
1F
100
AcDbEntity
  8
A-0_通り芯
  6
Continuous
 62
     3
370
     9
100
AcDbCircle
 10
-134.0903744294542
 20
65.2131804415523
 30
0.0
 40
1.500000019331236
100
AcDbArc
 50
270.0
 51
0.0
  0
ARC
  5
3C9
330
1F
100
AcDbEntity
  8
A-0_通り芯
  6
Continuous
 62
     3
370
     9
100
AcDbCircle
 10
-135.0903282406873
 20
66.21323322871449
 30
0.0
 40
1.500000019331236
100
AcDbArc
 50
270.0
 51
0.0
  0
ARC
  5
3CA
330
1F
100
AcDbEntity
  8
A-0_通り芯
  6
Continuous
 62
     3
370
     9
100
AcDbCircle
 10
-134.0903744294542
 20
109.2133256062482
 30
0.0
 40
1.500000019331236
100
AcDbArc
 50
0.0
 51
90.0
  0
ARC
  5
3CB
330
1F
100
AcDbEntity
  8
A-0_通り芯
  6
Continuous
 62
     3
370
     9
100
AcDbCircle
 10
-135.0903282406873
 20
108.2131738431571
 30
0.0
 40
1.500000019331236
100
AcDbArc
 50
0.0
 51
90.0
  0
ARC
  5
3CC
330
1F
100
AcDbEntity
  8
A-0_通り芯
  6
Continuous
 62
     3
370
     9
100
AcDbCircle
 10
-134.0903744294542
 20
92.71319693754053
 30
0.0
 40
1.500000019331236
100
AcDbArc
 50
270.0
 51
0.0
  0
ARC
  5
3CD
330
1F
100
AcDbEntity
  8
A-0_通り芯
  6
Continuous
 62
     3
370
     9
100
AcDbCircle
 10
-135.0903282406873
 20
93.71320023673813
 30
0.0
 40
1.500000019331236
100
AcDbArc
 50
270.0
 51
0.0
  0
ARC
  5
3CE
330
1F
100
AcDbEntity
  8
A-0_通り芯
  6
Continuous
 62
     3
370
     9
100
AcDbCircle
 10
-134.0903744294542
 20
120.2132629214933
 30
0.0
 40
1.500000019331236
100
AcDbArc
 50
270.0
 51
0.0
  0
ARC
  5
3CF
330
1F
100
AcDbEntity
  8
A-0_通り芯
  6
Continuous
 62
     3
370
     9
100
AcDbCircle
 10
-135.0903282406873
 20
121.2132167327264
 30
0.0
 40
1.500000019331236
100
AcDbArc
 50
270.0
 51
0.0
  0
ARC
  5
3D0
330
1F
100
AcDbEntity
  8
A-0_通り芯
  6
Continuous
 62
     3
370
     9
100
AcDbCircle
 10
-480.0905261925454
 20
300.9632035359359
 30
0.0
 40
1.500000019331236
100
AcDbArc
 50
90.0
 51
180.0
  0
ARC
  5
3D1
330
1F
100
AcDbEntity
  8
A-0_通り芯
  6
Continuous
 62
     3
370
     9
100
AcDbCircle
 10
-480.0905261925454
 20
286.2132167327264
 30
0.0
 40
1.500000019331236
100
AcDbArc
 50
180.0
 51
270.0
  0
ARC
  5
3D2
330
1F
100
AcDbEntity
  8
A-0_通り芯
  6
Continuous
 62
     3
370
     9
100
AcDbCircle
 10
-481.0904800037785
 20
285.2132629214933
 30
0.0
 40
1.500000019331236
100
AcDbArc
 50
180.0
 51
270.0
  0
ARC
  5
3D3
330
1F
100
AcDbEntity
  8
A-0_通り芯
  6
Continuous
 62
     3
370
     9
100
AcDbCircle
 10
-481.0904800037785
 20
301.9632563230979
 30
0.0
 40
1.500000019331236
100
AcDbArc
 50
90.0
 51
180.0
  0
ARC
  5
3D4
330
1F
100
AcDbEntity
  8
A-0_通り芯
  6
Continuous
 62
     3
370
     9
100
AcDbCircle
 10
-481.0904800037785
 20
257.7131969375405
 30
0.0
 40
1.500000019331236
100
AcDbArc
 50
180.0
 51
270.0
  0
ARC
  5
3D5
330
1F
100
AcDbEntity
  8
A-0_通り芯
  6
Continuous
 62
     3
370
     9
100
AcDbCircle
 10
-480.0905261925454
 20
258.7131507487737
 30
0.0
 40
1.500000019331236
100
AcDbArc
 50
180.0
 51
270.0
  0
ARC
  5
3D6
330
1F
100
AcDbEntity
  8
A-0_通り芯
  6
Continuous
 62
     3
370
     9
100
AcDbCircle
 10
-481.0904800037785
 20
274.2131771423547
 30
0.0
 40
1.500000019331236
100
AcDbArc
 50
90.0
 51
180.0
  0
ARC
  5
3D7
330
1F
100
AcDbEntity
  8
A-0_通り芯
  6
Continuous
 62
     3
370
     9
100
AcDbCircle
 10
-480.0905261925454
 20
273.2132233311216
 30
0.0
 40
1.500000019331236
100
AcDbArc
 50
90.0
 51
180.0
  0
ARC
  5
3D8
330
1F
100
AcDbEntity
  8
A-0_通り芯
  6
Continuous
 62
     3
370
     9
100
AcDbCircle
 10
-481.0904800037785
 20
230.213328905446
 30
0.0
 40
1.500000019331236
100
AcDbArc
 50
180.0
 51
270.0
  0
ARC
  5
3D9
330
1F
100
AcDbEntity
  8
A-0_通り芯
  6
Continuous
 62
     3
370
     9
100
AcDbCircle
 10
-480.0905261925454
 20
231.2132827166791
 30
0.0
 40
1.500000019331236
100
AcDbArc
 50
180.0
 51
270.0
  0
ARC
  5
3DA
330
1F
100
AcDbEntity
  8
A-0_通り芯
  6
Continuous
 62
     3
370
     9
100
AcDbCircle
 10
-481.0904800037785
 20
246.713111158402
 30
0.0
 40
1.500000019331236
100
AcDbArc
 50
90.0
 51
180.0
  0
ARC
  5
3DB
330
1F
100
AcDbEntity
  8
A-0_通り芯
  6
Continuous
 62
     3
370
     9
100
AcDbCircle
 10
-480.0905261925454
 20
245.7131573471689
 30
0.0
 40
1.500000019331236
100
AcDbArc
 50
90.0
 51
180.0
  0
ARC
  5
3DC
330
1F
100
AcDbEntity
  8
A-0_通り芯
  6
Continuous
 62
     3
370
     9
100
AcDbCircle
 10
-481.0904800037785
 20
202.7132629214933
 30
0.0
 40
1.500000019331236
100
AcDbArc
 50
180.0
 51
270.0
  0
ARC
  5
3DD
330
1F
100
AcDbEntity
  8
A-0_通り芯
  6
Continuous
 62
     3
370
     9
100
AcDbCircle
 10
-480.0905261925454
 20
203.7132167327264
 30
0.0
 40
1.500000019331236
100
AcDbArc
 50
180.0
 51
270.0
  0
ARC
  5
3DE
330
1F
100
AcDbEntity
  8
A-0_通り芯
  6
Continuous
 62
     3
370
     9
100
AcDbCircle
 10
-481.0904800037785
 20
219.2132431263074
 30
0.0
 40
1.500000019331236
100
AcDbArc
 50
90.0
 51
180.0
  0
ARC
  5
3DF
330
1F
100
AcDbEntity
  8
A-0_通り芯
  6
Continuous
 62
     3
370
     9
100
AcDbCircle
 10
-480.0905261925454
 20
218.2132893150743
 30
0.0
 40
1.500000019331236
100
AcDbArc
 50
90.0
 51
180.0
  0
ARC
  5
3E0
330
1F
100
AcDbEntity
  8
A-0_通り芯
  6
Continuous
 62
     3
370
     9
100
AcDbCircle
 10
-481.0904800037785
 20
175.2132959134696
 30
0.0
 40
1.500000019331236
100
AcDbArc
 50
180.0
 51
270.0
  0
ARC
  5
3E1
330
1F
100
AcDbEntity
  8
A-0_通り芯
  6
Continuous
 62
     3
370
     9
100
AcDbCircle
 10
-480.0905261925454
 20
176.2132497247027
 30
0.0
 40
1.500000019331236
100
AcDbArc
 50
180.0
 51
270.0
  0
ARC
  5
3E2
330
1F
100
AcDbEntity
  8
A-0_通り芯
  6
Continuous
 62
     3
370
     9
100
AcDbCircle
 10
-481.0904800037785
 20
191.7131771423547
 30
0.0
 40
1.500000019331236
100
AcDbArc
 50
90.0
 51
180.0
  0
ARC
  5
3E3
330
1F
100
AcDbEntity
  8
A-0_通り芯
  6
Continuous
 62
     3
370
     9
100
AcDbCircle
 10
-480.0905261925454
 20
190.7132233311216
 30
0.0
 40
1.500000019331236
100
AcDbArc
 50
90.0
 51
180.0
  0
ARC
  5
3E4
330
1F
100
AcDbEntity
  8
A-0_通り芯
  6
Continuous
 62
     3
370
     9
100
AcDbCircle
 10
-481.0904800037785
 20
147.7132299295169
 30
0.0
 40
1.500000019331236
100
AcDbArc
 50
180.0
 51
270.0
  0
ARC
  5
3E5
330
1F
100
AcDbEntity
  8
A-0_通り芯
  6
Continuous
 62
     3
370
     9
100
AcDbCircle
 10
-480.0905261925454
 20
148.7132827166791
 30
0.0
 40
1.500000019331236
100
AcDbArc
 50
180.0
 51
270.0
  0
ARC
  5
3E6
330
1F
100
AcDbEntity
  8
A-0_通り芯
  6
Continuous
 62
     3
370
     9
100
AcDbCircle
 10
-481.0904800037785
 20
164.2132101343311
 30
0.0
 40
1.500000019331236
100
AcDbArc
 50
90.0
 51
180.0
  0
ARC
  5
3E7
330
1F
100
AcDbEntity
  8
A-0_通り芯
  6
Continuous
 62
     3
370
     9
100
AcDbCircle
 10
-480.0905261925454
 20
163.2132563230979
 30
0.0
 40
1.500000019331236
100
AcDbArc
 50
90.0
 51
180.0
  0
ARC
  5
3E8
330
1F
100
AcDbEntity
  8
A-0_通り芯
  6
Continuous
 62
     3
370
     9
100
AcDbCircle
 10
-481.0904800037785
 20
136.7132431263074
 30
0.0
 40
1.500000019331236
100
AcDbArc
 50
90.0
 51
180.0
  0
ARC
  5
3E9
330
1F
100
AcDbEntity
  8
A-0_通り芯
  6
Continuous
 62
     3
370
     9
100
AcDbCircle
 10
-480.0905261925454
 20
135.7132893150743
 30
0.0
 40
1.500000019331236
100
AcDbArc
 50
90.0
 51
180.0
  0
ARC
  5
3EA
330
1F
100
AcDbEntity
  8
A-0_通り芯
  6
Continuous
 62
     3
370
     9
100
AcDbCircle
 10
-135.0903282406873
 20
300.9632035359359
 30
0.0
 40
1.500000019331236
100
AcDbArc
 50
0.0
 51
90.0
  0
ARC
  5
3EB
330
1F
100
AcDbEntity
  8
A-0_通り芯
  6
Continuous
 62
     3
370
     9
100
AcDbCircle
 10
-135.0903282406873
 20
286.2132167327264
 30
0.0
 40
1.500000019331236
100
AcDbArc
 50
270.0
 51
0.0
  0
ARC
  5
3EC
330
1F
100
AcDbEntity
  8
A-0_通り芯
  6
Continuous
 62
     3
370
     9
100
AcDbCircle
 10
-134.0903744294542
 20
285.2132629214933
 30
0.0
 40
1.500000019331236
100
AcDbArc
 50
270.0
 51
0.0
  0
ARC
  5
3ED
330
1F
100
AcDbEntity
  8
A-0_通り芯
  6
Continuous
 62
     3
370
     9
100
AcDbCircle
 10
-134.0903744294542
 20
301.9632563230979
 30
0.0
 40
1.500000019331236
100
AcDbArc
 50
0.0
 51
90.0
  0
ARC
  5
3EE
330
1F
100
AcDbEntity
  8
A-0_通り芯
  6
Continuous
 62
     3
370
     9
100
AcDbCircle
 10
-134.0903744294542
 20
257.7131969375405
 30
0.0
 40
1.500000019331236
100
AcDbArc
 50
270.0
 51
0.0
  0
ARC
  5
3EF
330
1F
100
AcDbEntity
  8
A-0_通り芯
  6
Continuous
 62
     3
370
     9
100
AcDbCircle
 10
-135.0903282406873
 20
258.7131507487737
 30
0.0
 40
1.500000019331236
100
AcDbArc
 50
270.0
 51
0.0
  0
ARC
  5
3F0
330
1F
100
AcDbEntity
  8
A-0_通り芯
  6
Continuous
 62
     3
370
     9
100
AcDbCircle
 10
-134.0903744294542
 20
274.2131771423547
 30
0.0
 40
1.500000019331236
100
AcDbArc
 50
0.0
 51
90.0
  0
ARC
  5
3F1
330
1F
100
AcDbEntity
  8
A-0_通り芯
  6
Continuous
 62
     3
370
     9
100
AcDbCircle
 10
-135.0903282406873
 20
273.2132233311216
 30
0.0
 40
1.500000019331236
100
AcDbArc
 50
0.0
 51
90.0
  0
ARC
  5
3F2
330
1F
100
AcDbEntity
  8
A-0_通り芯
  6
Continuous
 62
     3
370
     9
100
AcDbCircle
 10
-134.0903744294542
 20
230.213328905446
 30
0.0
 40
1.500000019331236
100
AcDbArc
 50
270.0
 51
0.0
  0
ARC
  5
3F3
330
1F
100
AcDbEntity
  8
A-0_通り芯
  6
Continuous
 62
     3
370
     9
100
AcDbCircle
 10
-135.0903282406873
 20
231.2132827166791
 30
0.0
 40
1.500000019331236
100
AcDbArc
 50
270.0
 51
0.0
  0
ARC
  5
3F4
330
1F
100
AcDbEntity
  8
A-0_通り芯
  6
Continuous
 62
     3
370
     9
100
AcDbCircle
 10
-134.0903744294542
 20
246.713111158402
 30
0.0
 40
1.500000019331236
100
AcDbArc
 50
0.0
 51
90.0
  0
ARC
  5
3F5
330
1F
100
AcDbEntity
  8
A-0_通り芯
  6
Continuous
 62
     3
370
     9
100
AcDbCircle
 10
-135.0903282406873
 20
245.7131573471689
 30
0.0
 40
1.500000019331236
100
AcDbArc
 50
0.0
 51
90.0
  0
ARC
  5
3F6
330
1F
100
AcDbEntity
  8
A-0_通り芯
  6
Continuous
 62
     3
370
     9
100
AcDbCircle
 10
-134.0903744294542
 20
202.7132629214933
 30
0.0
 40
1.500000019331236
100
AcDbArc
 50
270.0
 51
0.0
  0
ARC
  5
3F7
330
1F
100
AcDbEntity
  8
A-0_通り芯
  6
Continuous
 62
     3
370
     9
100
AcDbCircle
 10
-135.0903282406873
 20
203.7132167327264
 30
0.0
 40
1.500000019331236
100
AcDbArc
 50
270.0
 51
0.0
  0
ARC
  5
3F8
330
1F
100
AcDbEntity
  8
A-0_通り芯
  6
Continuous
 62
     3
370
     9
100
AcDbCircle
 10
-134.0903744294542
 20
219.2132431263074
 30
0.0
 40
1.500000019331236
100
AcDbArc
 50
0.0
 51
90.0
  0
ARC
  5
3F9
330
1F
100
AcDbEntity
  8
A-0_通り芯
  6
Continuous
 62
     3
370
     9
100
AcDbCircle
 10
-135.0903282406873
 20
218.2132893150743
 30
0.0
 40
1.500000019331236
100
AcDbArc
 50
0.0
 51
90.0
  0
ARC
  5
3FA
330
1F
100
AcDbEntity
  8
A-0_通り芯
  6
Continuous
 62
     3
370
     9
100
AcDbCircle
 10
-134.0903744294542
 20
175.2132959134696
 30
0.0
 40
1.500000019331236
100
AcDbArc
 50
270.0
 51
0.0
  0
ARC
  5
3FB
330
1F
100
AcDbEntity
  8
A-0_通り芯
  6
Continuous
 62
     3
370
     9
100
AcDbCircle
 10
-135.0903282406873
 20
176.2132497247027
 30
0.0
 40
1.500000019331236
100
AcDbArc
 50
270.0
 51
0.0
  0
ARC
  5
3FC
330
1F
100
AcDbEntity
  8
A-0_通り芯
  6
Continuous
 62
     3
370
     9
100
AcDbCircle
 10
-134.0903744294542
 20
191.7131771423547
 30
0.0
 40
1.500000019331236
100
AcDbArc
 50
0.0
 51
90.0
  0
ARC
  5
3FD
330
1F
100
AcDbEntity
  8
A-0_通り芯
  6
Continuous
 62
     3
370
     9
100
AcDbCircle
 10
-135.0903282406873
 20
190.7132233311216
 30
0.0
 40
1.500000019331236
100
AcDbArc
 50
0.0
 51
90.0
  0
ARC
  5
3FE
330
1F
100
AcDbEntity
  8
A-0_通り芯
  6
Continuous
 62
     3
370
     9
100
AcDbCircle
 10
-134.0903744294542
 20
147.7132299295169
 30
0.0
 40
1.500000019331236
100
AcDbArc
 50
270.0
 51
0.0
  0
ARC
  5
3FF
330
1F
100
AcDbEntity
  8
A-0_通り芯
  6
Continuous
 62
     3
370
     9
100
AcDbCircle
 10
-135.0903282406873
 20
148.7132827166791
 30
0.0
 40
1.500000019331236
100
AcDbArc
 50
270.0
 51
0.0
  0
ARC
  5
400
330
1F
100
AcDbEntity
  8
A-0_通り芯
  6
Continuous
 62
     3
370
     9
100
AcDbCircle
 10
-134.0903744294542
 20
164.2132101343311
 30
0.0
 40
1.500000019331236
100
AcDbArc
 50
0.0
 51
90.0
  0
ARC
  5
401
330
1F
100
AcDbEntity
  8
A-0_通り芯
  6
Continuous
 62
     3
370
     9
100
AcDbCircle
 10
-135.0903282406873
 20
163.2132563230979
 30
0.0
 40
1.500000019331236
100
AcDbArc
 50
0.0
 51
90.0
  0
ARC
  5
402
330
1F
100
AcDbEntity
  8
A-0_通り芯
  6
Continuous
 62
     3
370
     9
100
AcDbCircle
 10
-134.0903744294542
 20
136.7132431263074
 30
0.0
 40
1.500000019331236
100
AcDbArc
 50
0.0
 51
90.0
  0
ARC
  5
403
330
1F
100
AcDbEntity
  8
A-0_通り芯
  6
Continuous
 62
     3
370
     9
100
AcDbCircle
 10
-135.0903282406873
 20
135.7132893150743
 30
0.0
 40
1.500000019331236
100
AcDbArc
 50
0.0
 51
90.0
  0
ARC
  5
404
330
1F
100
AcDbEntity
  8
A-0_通り芯
  6
Continuous
 62
     3
370
     9
100
AcDbCircle
 10
-133.8816341950792
 20
-212.7367641319274
 30
0.0
 40
2.000000219087343
100
AcDbArc
 50
90.0
 51
176.1860504150391
  0
ARC
  5
405
330
1F
100
AcDbEntity
  8
A-0_通り芯
  6
Continuous
 62
     3
370
     9
100
AcDbCircle
 10
-134.8842603563967
 20
-203.7367344391487
 30
0.0
 40
1.500000019331236
100
AcDbArc
 50
15.94538879394531
 51
90.0
  0
ARC
  5
406
330
1F
100
AcDbEntity
  8
A-0_通り芯
  6
Continuous
 62
     3
370
     9
100
AcDbCircle
 10
-138.1561076431366
 20
-224.2367773287179
 30
0.0
 40
1.500000019331236
100
AcDbArc
 50
270.0
 51
356.1860504150391
  0
ARC
  5
407
330
1F
100
AcDbEntity
  8
A-0_通り芯
  6
Continuous
 62
     3
370
     9
100
AcDbCircle
 10
-155.9507919759069
 20
-209.73670474637
 30
0.0
 40
4.000000438174686
100
AcDbArc
 50
11.31010437011719
 51
90.00000000000001
  0
ARC
  5
408
330
1F
100
AcDbEntity
  8
A-0_通り芯
  6
Continuous
 62
     3
370
     9
100
AcDbCircle
 10
-153.3112029239643
 20
-212.7367641319274
 30
0.0
 40
2.000000219087343
100
AcDbArc
 50
11.30979919433594
 51
90.00000000000001
  0
ARC
  5
409
330
1F
100
AcDbEntity
  8
A-0_通り芯
  6
Continuous
 62
     3
370
     9
100
AcDbCircle
 10
-147.4418313551298
 20
-224.2367773287179
 30
0.0
 40
1.500000019331236
100
AcDbArc
 50
191.3098449707031
 51
270.0
  0
ARC
  5
40A
330
1F
100
AcDbEntity
  8
A-0_通り芯
  6
Continuous
 62
     3
370
     9
100
AcDbCircle
 10
-247.9061604302988
 20
-224.2367773287179
 30
0.0
 40
1.500000019331236
100
AcDbArc
 50
270.0
 51
348.9139709472656
  0
ARC
  5
40B
330
1F
100
AcDbEntity
  8
A-0_通り芯
  6
Continuous
 62
     3
370
     9
100
AcDbCircle
 10
-239.4603959402227
 20
-209.73670474637
 30
0.0
 40
4.000000438174686
100
AcDbArc
 50
90.00035095214844
 51
168.914047241211
  0
ARC
  5
40C
330
1F
100
AcDbEntity
  8
A-0_通り芯
  6
Continuous
 62
     3
370
     9
100
AcDbCircle
 10
-242.0862273380268
 20
-212.7367641319274
 30
0.0
 40
2.000000219087343
100
AcDbArc
 50
90.0
 51
168.9141540527344
  0
ARC
  5
40D
330
1F
100
AcDbEntity
  8
A-0_通り芯
  6
Continuous
 62
     3
370
     9
100
AcDbCircle
 10
-257.4368990546653
 20
-224.2367773287179
 30
0.0
 40
1.500000019331236
100
AcDbArc
 50
191.0860290527343
 51
270.0
  0
ARC
  5
40E
330
1F
100
AcDbEntity
  8
A-0_通り芯
  6
Continuous
 62
     3
370
     9
100
AcDbCircle
 10
-265.8827130327059
 20
-209.73670474637
 30
0.0
 40
4.000000438174686
100
AcDbArc
 50
11.08595275878906
 51
89.99964904785156
  0
ARC
  5
40F
330
1F
100
AcDbEntity
  8
A-0_通り芯
  6
Continuous
 62
     3
370
     9
100
AcDbCircle
 10
-263.2568321469373
 20
-212.7367641319274
 30
0.0
 40
2.000000219087343
100
AcDbArc
 50
11.08584594726562
 51
90.00000000000001
  0
ARC
  5
410
330
1F
100
AcDbEntity
  8
A-0_通り芯
  6
Continuous
 62
     3
370
     9
100
AcDbCircle
 10
-151.9499869716839
 20
-202.236803722299
 30
0.0
 40
1.500000019331236
100
AcDbArc
 50
90.0
 51
146.3097991943359
  0
ARC
  5
411
330
1F
100
AcDbEntity
  8
A-0_通り芯
  6
Continuous
 62
     3
370
     9
100
AcDbCircle
 10
-139.555627279961
 20
-202.236803722299
 30
0.0
 40
1.500000019331236
100
AcDbArc
 50
33.69020080566407
 51
90.0
  0
ARC
  5
412
330
1F
100
AcDbEntity
  8
A-0_通り芯
  6
Continuous
 62
     3
370
     9
100
AcDbCircle
 10
-173.5500978247244
 20
-202.236803722299
 30
0.0
 40
1.500000019331236
100
AcDbArc
 50
90.0
 51
146.3097991943359
  0
ARC
  5
413
330
1F
100
AcDbEntity
  8
A-0_通り芯
  6
Continuous
 62
     3
370
     9
100
AcDbCircle
 10
-161.1556391570724
 20
-202.236803722299
 30
0.0
 40
1.500000019331236
100
AcDbArc
 50
33.69020080566407
 51
90.0
  0
ARC
  5
414
330
1F
100
AcDbEntity
  8
A-0_通り芯
  6
Continuous
 62
     3
370
     9
100
AcDbCircle
 10
-195.1499117499778
 20
-202.236803722299
 30
0.0
 40
1.500000019331236
100
AcDbArc
 50
90.0
 51
146.3097991943359
  0
ARC
  5
415
330
1F
100
AcDbEntity
  8
A-0_通り芯
  6
Continuous
 62
     3
370
     9
100
AcDbCircle
 10
-182.7555520582548
 20
-202.236803722299
 30
0.0
 40
1.500000019331236
100
AcDbArc
 50
33.69020080566407
 51
90.0
  0
ARC
  5
416
330
1F
100
AcDbEntity
  8
A-0_通り芯
  6
Continuous
 62
     3
370
     9
100
AcDbCircle
 10
-216.7500720909828
 20
-202.236803722299
 30
0.0
 40
1.500000019331236
100
AcDbArc
 50
90.0
 51
146.3097991943359
  0
ARC
  5
417
330
1F
100
AcDbEntity
  8
A-0_通り芯
  6
Continuous
 62
     3
370
     9
100
AcDbCircle
 10
-204.3556629112953
 20
-202.236803722299
 30
0.0
 40
1.500000019331236
100
AcDbArc
 50
33.69020080566407
 51
90.0
  0
ARC
  5
418
330
1F
100
AcDbEntity
  8
A-0_通り芯
  6
Continuous
 62
     3
370
     9
100
AcDbCircle
 10
-238.3498860162363
 20
-202.236803722299
 30
0.0
 40
1.500000019331236
100
AcDbArc
 50
90.0
 51
146.3097991943359
  0
ARC
  5
419
330
1F
100
AcDbEntity
  8
A-0_通り芯
  6
Continuous
 62
     3
370
     9
100
AcDbCircle
 10
-225.9555758124778
 20
-202.236803722299
 30
0.0
 40
1.500000019331236
100
AcDbArc
 50
33.69020080566407
 51
90.0
  0
ARC
  5
41A
330
1F
100
AcDbEntity
  8
A-0_通り芯
  6
Continuous
 62
     3
370
     9
100
AcDbCircle
 10
-259.9498978933477
 20
-202.236803722299
 30
0.0
 40
1.500000019331236
100
AcDbArc
 50
90.0
 51
146.3097991943359
  0
ARC
  5
41B
330
1F
100
AcDbEntity
  8
A-0_通り芯
  6
Continuous
 62
     3
370
     9
100
AcDbCircle
 10
-247.5555876895893
 20
-202.236803722299
 30
0.0
 40
1.500000019331236
100
AcDbArc
 50
33.69020080566407
 51
90.0
  0
ARC
  5
41C
330
1F
100
AcDbEntity
  8
A-0_通り芯
  6
Continuous
 62
     3
370
     9
100
AcDbCircle
 10
-281.5500582343528
 20
-202.236803722299
 30
0.0
 40
1.500000019331236
100
AcDbArc
 50
90.0
 51
146.3097991943359
  0
ARC
  5
41D
330
1F
100
AcDbEntity
  8
A-0_通り芯
  6
Continuous
 62
     3
370
     9
100
AcDbCircle
 10
-269.1555995667007
 20
-202.236803722299
 30
0.0
 40
1.500000019331236
100
AcDbArc
 50
33.69020080566407
 51
90.0
  0
ARC
  5
41E
330
1F
100
AcDbEntity
  8
A-0_通り芯
  6
Continuous
 62
     3
370
     9
100
AcDbCircle
 10
-303.1499216475707
 20
-202.236803722299
 30
0.0
 40
1.500000019331236
100
AcDbArc
 50
90.0
 51
146.3097991943359
  0
ARC
  5
41F
330
1F
100
AcDbEntity
  8
A-0_通り芯
  6
Continuous
 62
     3
370
     9
100
AcDbCircle
 10
-290.7556114438123
 20
-202.236803722299
 30
0.0
 40
1.500000019331236
100
AcDbArc
 50
33.69020080566407
 51
90.0
  0
ARC
  5
420
330
1F
100
AcDbEntity
  8
A-0_通り芯
  6
Continuous
 62
     3
370
     9
100
AcDbCircle
 10
-193.220474988998
 20
-220.7366420616149
 30
0.0
 40
15.00000154649889
100
AcDbArc
 50
270.0
 51
310.601318359375
  0
ARC
  5
421
330
1F
100
AcDbEntity
  8
A-0_通り芯
  6
Continuous
 62
     3
370
     9
100
AcDbCircle
 10
236.1095899392114
 20
298.0599426089933
 30
0.0
 40
1.500000019331236
100
AcDbArc
 50
0.0
 51
86.1875
  0
ARC
  5
422
330
1F
100
AcDbEntity
  8
A-0_通り芯
  6
Continuous
 62
     3
370
     9
100
AcDbCircle
 10
236.1095899392114
 20
290.8900273323885
 30
0.0
 40
1.500000019331236
100
AcDbArc
 50
272.86083984375
 51
0.0000000000000254
  0
ARC
  5
423
330
1F
100
AcDbEntity
  8
A-0_通り芯
  6
Continuous
 62
     3
370
     9
100
AcDbCircle
 10
220.6094645697012
 20
285.6094635654966
 30
0.0
 40
3.000000038662472
100
AcDbArc
 50
92.86271667480469
 51
180.0
  0
ARC
  5
424
330
1F
100
AcDbEntity
  8
A-0_通り芯
  6
Continuous
 62
     3
370
     9
100
AcDbCircle
 10
214.1096163327925
 20
288.3909840997027
 30
0.0
 40
1.500000019331236
100
AcDbArc
 50
179.9990539550781
 51
236.3099365234375
  0
ARC
  5
425
330
1F
100
AcDbEntity
  8
A-0_通り芯
  6
Continuous
 62
     3
370
     9
100
AcDbCircle
 10
214.1096163327925
 20
298.7855351448885
 30
0.0
 40
1.500000019331236
100
AcDbArc
 50
123.6900634765625
 51
180.0
  0
ARC
  5
426
330
1F
100
AcDbEntity
  8
A-0_通り芯
  6
Continuous
 62
     3
370
     9
100
AcDbCircle
 10
215.6095965376066
 20
301.3317898957332
 30
0.0
 40
1.500000019331236
100
AcDbArc
 50
105.9453887939453
 51
180.0
  0
ARC
  5
427
330
1F
100
AcDbEntity
  8
A-0_通り芯
  6
Continuous
 62
     3
370
     9
100
AcDbCircle
 10
215.6095965376066
 20
285.8447293488582
 30
0.0
 40
1.500000019331236
100
AcDbArc
 50
180.0
 51
254.0546112060547
  0
ARC
  5
428
330
1F
100
AcDbEntity
  8
A-0_通り芯
  6
Continuous
 62
     3
370
     9
100
AcDbCircle
 10
224.6094777664919
 20
302.3343170811216
 30
0.0
 40
2.000000219087343
100
AcDbArc
 50
176.3283081054688
 51
266.1860656738281
  0
ARC
  5
429
330
1F
100
AcDbEntity
  8
A-0_通り芯
  6
Continuous
 62
     3
370
     9
100
AcDbCircle
 10
215.6095965376066
 20
258.3447623408345
 30
0.0
 40
1.500000019331236
100
AcDbArc
 50
180.0
 51
254.0546112060547
  0
ARC
  5
42A
330
1F
100
AcDbEntity
  8
A-0_通り芯
  6
Continuous
 62
     3
370
     9
100
AcDbCircle
 10
215.6095965376066
 20
273.5818096909189
 30
0.0
 40
1.500000019331236
100
AcDbArc
 50
105.9453887939453
 51
180.0
  0
ARC
  5
42B
330
1F
100
AcDbEntity
  8
A-0_通り芯
  6
Continuous
 62
     3
370
     9
100
AcDbCircle
 10
214.1096163327925
 20
260.7659115173547
 30
0.0
 40
1.500000019331236
100
AcDbArc
 50
180.0
 51
236.3099365234375
  0
ARC
  5
42C
330
1F
100
AcDbEntity
  8
A-0_通り芯
  6
Continuous
 62
     3
370
     9
100
AcDbCircle
 10
214.1096163327925
 20
271.1605615384696
 30
0.0
 40
1.500000019331236
100
AcDbArc
 50
123.6900634765625
 51
180.0
  0
ARC
  5
42D
330
1F
100
AcDbEntity
  8
A-0_通り芯
  6
Continuous
 62
     3
370
     9
100
AcDbCircle
 10
215.6095965376066
 20
230.8447953328107
 30
0.0
 40
1.500000019331236
100
AcDbArc
 50
180.0
 51
254.0546112060547
  0
ARC
  5
42E
330
1F
100
AcDbEntity
  8
A-0_通り芯
  6
Continuous
 62
     3
370
     9
100
AcDbCircle
 10
215.6095965376066
 20
246.0817437069662
 30
0.0
 40
1.500000019331236
100
AcDbArc
 50
105.9453887939453
 51
180.0
  0
ARC
  5
42F
330
1F
100
AcDbEntity
  8
A-0_通り芯
  6
Continuous
 62
     3
370
     9
100
AcDbCircle
 10
214.1096163327925
 20
233.2659445093311
 30
0.0
 40
1.500000019331236
100
AcDbArc
 50
180.0
 51
236.3099365234375
  0
ARC
  5
430
330
1F
100
AcDbEntity
  8
A-0_通り芯
  6
Continuous
 62
     3
370
     9
100
AcDbCircle
 10
214.1096163327925
 20
243.6604955545169
 30
0.0
 40
1.500000019331236
100
AcDbArc
 50
123.6900634765625
 51
180.0
  0
ARC
  5
431
330
1F
100
AcDbEntity
  8
A-0_通り芯
  6
Continuous
 62
     3
370
     9
100
AcDbCircle
 10
215.6095965376066
 20
203.3446303729291
 30
0.0
 40
1.500000019331236
100
AcDbArc
 50
180.0
 51
254.0546112060547
  0
ARC
  5
432
330
1F
100
AcDbEntity
  8
A-0_通り芯
  6
Continuous
 62
     3
370
     9
100
AcDbCircle
 10
215.6095965376066
 20
218.5817766989425
 30
0.0
 40
1.500000019331236
100
AcDbArc
 50
105.9453887939453
 51
180.0
  0
ARC
  5
433
330
1F
100
AcDbEntity
  8
A-0_通り芯
  6
Continuous
 62
     3
370
     9
100
AcDbCircle
 10
214.1096163327925
 20
205.7659775013074
 30
0.0
 40
1.500000019331236
100
AcDbArc
 50
180.0
 51
236.3099365234375
  0
ARC
  5
434
330
1F
100
AcDbEntity
  8
A-0_通り芯
  6
Continuous
 62
     3
370
     9
100
AcDbCircle
 10
214.1096163327925
 20
216.1604295705642
 30
0.0
 40
1.500000019331236
100
AcDbArc
 50
123.6900634765625
 51
180.0
  0
ARC
  5
435
330
1F
100
AcDbEntity
  8
A-0_通り芯
  6
Continuous
 62
     3
370
     9
100
AcDbCircle
 10
215.6095965376066
 20
175.8446633649054
 30
0.0
 40
1.500000019331236
100
AcDbArc
 50
180.0
 51
254.0546112060547
  0
ARC
  5
436
330
1F
100
AcDbEntity
  8
A-0_通り芯
  6
Continuous
 62
     3
370
     9
100
AcDbCircle
 10
215.6095965376066
 20
191.0818096909189
 30
0.0
 40
1.500000019331236
100
AcDbArc
 50
105.9453887939453
 51
180.0
  0
ARC
  5
437
330
1F
100
AcDbEntity
  8
A-0_通り芯
  6
Continuous
 62
     3
370
     9
100
AcDbCircle
 10
214.1096163327925
 20
178.2660104932838
 30
0.0
 40
1.500000019331236
100
AcDbArc
 50
180.0
 51
236.3099365234375
  0
ARC
  5
438
330
1F
100
AcDbEntity
  8
A-0_通り芯
  6
Continuous
 62
     3
370
     9
100
AcDbCircle
 10
214.1096163327925
 20
188.6604625625405
 30
0.0
 40
1.500000019331236
100
AcDbArc
 50
123.6900634765625
 51
180.0
  0
ARC
  5
439
330
1F
100
AcDbEntity
  8
A-0_通り芯
  6
Continuous
 62
     3
370
     9
100
AcDbCircle
 10
215.6095965376066
 20
148.3446963568818
 30
0.0
 40
1.500000019331236
100
AcDbArc
 50
180.0
 51
254.0546112060547
  0
ARC
  5
43A
330
1F
100
AcDbEntity
  8
A-0_通り芯
  6
Continuous
 62
     3
370
     9
100
AcDbCircle
 10
215.6095965376066
 20
163.5817437069662
 30
0.0
 40
1.500000019331236
100
AcDbArc
 50
105.9453887939453
 51
180.0
  0
ARC
  5
43B
330
1F
100
AcDbEntity
  8
A-0_通り芯
  6
Continuous
 62
     3
370
     9
100
AcDbCircle
 10
214.1096163327925
 20
150.7660434852601
 30
0.0
 40
1.500000019331236
100
AcDbArc
 50
180.0
 51
236.3099365234375
  0
ARC
  5
43C
330
1F
100
AcDbEntity
  8
A-0_通り芯
  6
Continuous
 62
     3
370
     9
100
AcDbCircle
 10
214.1096163327925
 20
161.1604955545169
 30
0.0
 40
1.500000019331236
100
AcDbArc
 50
123.6900634765625
 51
180.0
  0
ARC
  5
43D
330
1F
100
AcDbEntity
  8
A-0_通り芯
  6
Continuous
 62
     3
370
     9
100
AcDbCircle
 10
215.6095965376066
 20
136.0817766989425
 30
0.0
 40
1.500000019331236
100
AcDbArc
 50
105.9453887939453
 51
180.0
  0
ARC
  5
43E
330
1F
100
AcDbEntity
  8
A-0_通り芯
  6
Continuous
 62
     3
370
     9
100
AcDbCircle
 10
214.1096163327925
 20
133.6605285464933
 30
0.0
 40
1.500000019331236
100
AcDbArc
 50
123.6900634765625
 51
180.0
  0
ARC
  5
43F
330
1F
100
AcDbEntity
  8
A-0_通り芯
  6
Continuous
 62
     3
370
     9
100
AcDbCircle
 10
246.1095239552587
 20
180.86650405325
 30
0.0
 40
1.500000019331236
100
AcDbArc
 50
273.8125610351562
 51
0.0000000000000254
  0
ARC
  5
440
330
1F
100
AcDbEntity
  8
A-0_通り芯
  6
Continuous
 62
     3
370
     9
100
AcDbCircle
 10
246.1095239552587
 20
186.0599690025743
 30
0.0
 40
1.500000019331236
100
AcDbArc
 50
0.0
 51
86.18743896484376
  0
ARC
  5
441
330
1F
100
AcDbEntity
  8
A-0_通り芯
  6
Continuous
 62
     3
370
     9
100
AcDbCircle
 10
220.6094645697012
 20
174.6564573366115
 30
0.0
 40
3.000000038662472
100
AcDbArc
 50
93.81439208984376
 51
180.0
  0
ARC
  5
442
330
1F
100
AcDbEntity
  8
A-0_通り芯
  6
Continuous
 62
     3
370
     9
100
AcDbCircle
 10
220.6094645697012
 20
192.2699167432838
 30
0.0
 40
3.000000038662472
100
AcDbArc
 50
180.0
 51
266.1856079101563
  0
ARC
  5
443
330
1F
100
AcDbEntity
  8
A-0_通り芯
  6
Continuous
 62
     3
370
     9
100
AcDbCircle
 10
242.6096361279783
 20
192.8076529658344
 30
0.0
 40
5.000001030999261
100
AcDbArc
 50
180.0
 51
266.1857757568359
  0
ARC
  5
444
330
1F
100
AcDbEntity
  8
A-0_通り芯
  6
Continuous
 62
     3
370
     9
100
AcDbCircle
 10
242.6096361279783
 20
174.1187211140607
 30
0.0
 40
5.000001030999261
100
AcDbArc
 50
93.81422424316406
 51
180.0
  0
ARC
  5
445
330
1F
100
AcDbEntity
  8
A-0_通り芯
  6
Continuous
 62
     3
370
     9
100
AcDbCircle
 10
221.1095899392114
 20
262.1929464624561
 30
0.0
 40
1.500000019331236
100
AcDbArc
 50
281.3093719482422
 51
0.0000000000000382
  0
ARC
  5
446
330
1F
100
AcDbEntity
  8
A-0_通り芯
  6
Continuous
 62
     3
370
     9
100
AcDbCircle
 10
221.1095899392114
 20
269.7336255692973
 30
0.0
 40
1.500000019331236
100
AcDbArc
 50
0.0
 51
78.69062805175781
  0
ARC
  5
447
330
1F
100
AcDbEntity
  8
A-0_通り芯
  6
Continuous
 62
     3
370
     9
100
AcDbCircle
 10
220.6094645697012
 20
274.4226102082332
 30
0.0
 40
3.000000038662472
100
AcDbArc
 50
180.0
 51
258.689697265625
  0
ARC
  5
448
330
1F
100
AcDbEntity
  8
A-0_通り芯
  6
Continuous
 62
     3
370
     9
100
AcDbCircle
 10
220.6094645697012
 20
257.5038628475912
 30
0.0
 40
3.000000038662472
100
AcDbArc
 50
101.310302734375
 51
180.0
  0
ARC
  5
449
330
1F
100
AcDbEntity
  8
A-0_通り芯
  6
Continuous
 62
     3
370
     9
100
AcDbCircle
 10
221.1095899392114
 20
234.6928804785034
 30
0.0
 40
1.500000019331236
100
AcDbArc
 50
281.3093719482422
 51
0.0000000000000382
  0
ARC
  5
44A
330
1F
100
AcDbEntity
  8
A-0_通り芯
  6
Continuous
 62
     3
370
     9
100
AcDbCircle
 10
221.1095899392114
 20
242.2335595853446
 30
0.0
 40
1.500000019331236
100
AcDbArc
 50
0.0
 51
78.69062805175781
  0
ARC
  5
44B
330
1F
100
AcDbEntity
  8
A-0_通り芯
  6
Continuous
 62
     3
370
     9
100
AcDbCircle
 10
220.6094645697012
 20
246.9226432002095
 30
0.0
 40
3.000000038662472
100
AcDbArc
 50
180.0
 51
258.689697265625
  0
ARC
  5
44C
330
1F
100
AcDbEntity
  8
A-0_通り芯
  6
Continuous
 62
     3
370
     9
100
AcDbCircle
 10
220.6094645697012
 20
230.0037968636385
 30
0.0
 40
3.000000038662472
100
AcDbArc
 50
101.310302734375
 51
180.0
  0
ARC
  5
44D
330
1F
100
AcDbEntity
  8
A-0_通り芯
  6
Continuous
 62
     3
370
     9
100
AcDbCircle
 10
221.1095899392114
 20
207.1930124464088
 30
0.0
 40
1.500000019331236
100
AcDbArc
 50
281.3093719482422
 51
0.0000000000000382
  0
ARC
  5
44E
330
1F
100
AcDbEntity
  8
A-0_通り芯
  6
Continuous
 62
     3
370
     9
100
AcDbCircle
 10
221.1095899392114
 20
214.7334936013919
 30
0.0
 40
1.500000019331236
100
AcDbArc
 50
0.0
 51
78.69062805175781
  0
ARC
  5
44F
330
1F
100
AcDbEntity
  8
A-0_通り芯
  6
Continuous
 62
     3
370
     9
100
AcDbCircle
 10
220.6094645697012
 20
219.4225772162568
 30
0.0
 40
3.000000038662472
100
AcDbArc
 50
180.0
 51
258.689697265625
  0
ARC
  5
450
330
1F
100
AcDbEntity
  8
A-0_通り芯
  6
Continuous
 62
     3
370
     9
100
AcDbCircle
 10
220.6094645697012
 20
202.5038298556148
 30
0.0
 40
3.000000038662472
100
AcDbArc
 50
101.310302734375
 51
180.0
  0
ARC
  5
451
330
1F
100
AcDbEntity
  8
A-0_通り芯
  6
Continuous
 62
     3
370
     9
100
AcDbCircle
 10
221.1095899392114
 20
152.1928804785034
 30
0.0
 40
1.500000019331236
100
AcDbArc
 50
281.3093719482422
 51
0.0000000000000382
  0
ARC
  5
452
330
1F
100
AcDbEntity
  8
A-0_通り芯
  6
Continuous
 62
     3
370
     9
100
AcDbCircle
 10
221.1095899392114
 20
159.7335595853446
 30
0.0
 40
1.500000019331236
100
AcDbArc
 50
0.0
 51
78.69062805175781
  0
ARC
  5
453
330
1F
100
AcDbEntity
  8
A-0_通り芯
  6
Continuous
 62
     3
370
     9
100
AcDbCircle
 10
220.6094645697012
 20
164.4226432002094
 30
0.0
 40
3.000000038662472
100
AcDbArc
 50
180.0
 51
258.689697265625
  0
ARC
  5
454
330
1F
100
AcDbEntity
  8
A-0_通り芯
  6
Continuous
 62
     3
370
     9
100
AcDbCircle
 10
220.6094645697012
 20
147.5038958395675
 30
0.0
 40
3.000000038662472
100
AcDbArc
 50
101.310302734375
 51
180.0
  0
ARC
  5
455
330
1F
100
AcDbEntity
  8
A-0_通り芯
  6
Continuous
 62
     3
370
     9
100
AcDbCircle
 10
221.1095899392114
 20
132.233592577321
 30
0.0
 40
1.500000019331236
100
AcDbArc
 50
0.0
 51
78.69062805175781
  0
ARC
  5
456
330
1F
100
AcDbEntity
  8
A-0_通り芯
  6
Continuous
 62
     3
370
     9
100
AcDbCircle
 10
220.6094645697012
 20
136.9225772162568
 30
0.0
 40
3.000000038662472
100
AcDbArc
 50
180.0
 51
258.689697265625
  0
ARC
  5
457
330
1F
100
AcDbEntity
  8
A-0_通り芯
  6
Continuous
 62
     3
370
     9
100
AcDbCircle
 10
255.3321010245154
 20
128.4632035359357
 30
0.0
 40
2.500000515499631
100
AcDbArc
 50
90.0
 51
270.0
  0
ARC
  5
458
330
1F
100
AcDbEntity
  8
A-0_通り芯
  6
Continuous
 62
     3
370
     9
100
AcDbCircle
 10
292.3322725827925
 20
128.4632035359357
 30
0.0
 40
2.500000515499631
100
AcDbArc
 50
270.0
 51
90.0
  0
ARC
  5
459
330
1F
100
AcDbEntity
  8
A-0_通り芯
  6
Continuous
 62
     3
370
     9
100
AcDbCircle
 10
293.8318568838904
 20
128.4632035359357
 30
0.0
 40
9.00000185579867
100
AcDbArc
 50
196.1276245117188
 51
270.0
  0
ARC
  5
45A
330
1F
100
AcDbEntity
  8
A-0_通り芯
  6
Continuous
 62
     3
370
     9
100
AcDbCircle
 10
293.8321538116777
 20
128.4632035359357
 30
0.0
 40
4.000000438174686
100
AcDbArc
 50
218.6825866699219
 51
269.9984893798828
  0
ARC
  5
45B
330
1F
100
AcDbEntity
  8
A-0_通り芯
  6
Continuous
 62
     3
370
     9
100
AcDbCircle
 10
293.8318568838904
 20
128.4632035359357
 30
0.0
 40
9.00000185579867
100
AcDbArc
 50
90.0
 51
163.8723754882812
  0
ARC
  5
45C
330
1F
100
AcDbEntity
  8
A-0_通り芯
  6
Continuous
 62
     3
370
     9
100
AcDbCircle
 10
293.8321538116777
 20
128.4632035359357
 30
0.0
 40
4.000000438174686
100
AcDbArc
 50
90.0015106201172
 51
141.3174133300782
  0
ARC
  5
45D
330
1F
100
AcDbEntity
  8
A-0_通り芯
  6
Continuous
 62
     3
370
     9
100
AcDbCircle
 10
251.8086569261202
 20
128.3653163421014
 30
0.0
 40
11.96424046078244
100
AcDbArc
 50
269.6048278808594
 51
348.4177856445312
  0
ARC
  5
45E
330
1F
100
AcDbEntity
  8
A-0_通り芯
  6
Continuous
 62
     3
370
     9
100
AcDbCircle
 10
251.8086569261202
 20
128.5303092158344
 30
0.0
 40
6.023802628388276
100
AcDbArc
 50
270.7848968505859
 51
334.7761230468751
  0
ARC
  5
45F
330
1F
100
AcDbEntity
  8
A-0_通り芯
  6
Continuous
 62
     3
370
     9
100
AcDbCircle
 10
251.8086569261202
 20
128.3653163421014
 30
0.0
 40
11.96424046078244
100
AcDbArc
 50
12.54110717773438
 51
89.60482788085938
  0
ARC
  5
460
330
1F
100
AcDbEntity
  8
A-0_通り芯
  6
Continuous
 62
     3
370
     9
100
AcDbCircle
 10
251.8086569261202
 20
128.5303092158344
 30
0.0
 40
6.023802628388276
100
AcDbArc
 50
23.82115173339844
 51
90.78489685058594
  0
ARC
  5
461
330
1F
100
AcDbEntity
  8
A-0_通り芯
  6
Continuous
 62
     3
370
     9
100
AcDbCircle
 10
-414.590384327047
 20
-255.6301109699764
 30
0.0
 40
3.000004098222063
100
AcDbArc
 50
180.0
 51
0.0
  0
ARC
  5
462
330
1F
100
AcDbEntity
  8
A-0_通り芯
  6
Continuous
 62
     3
370
     9
100
AcDbCircle
 10
-414.590384327047
 20
-259.6300746788024
 30
0.0
 40
9.00000185579867
100
AcDbArc
 50
109.4712677001953
 51
180.0
  0
ARC
  5
463
330
1F
100
AcDbEntity
  8
A-0_通り芯
  6
Continuous
 62
     3
370
     9
100
AcDbCircle
 10
-414.590384327047
 20
-259.6300746788024
 30
0.0
 40
9.00000185579867
100
AcDbArc
 50
0.0
 51
70.52873229980467
  0
ARC
  5
464
330
1F
100
AcDbEntity
  8
A-0_通り芯
  6
Continuous
 62
     3
370
     9
100
AcDbCircle
 10
-414.590384327047
 20
-259.6300746788024
 30
0.0
 40
4.000000438174686
100
AcDbArc
 50
359.9996185302735
 51
45.95120239257818
  0
ARC
  5
465
330
1F
100
AcDbEntity
  8
A-0_通り芯
  6
Continuous
 62
     3
370
     9
100
AcDbCircle
 10
-414.590384327047
 20
-259.6300746788024
 30
0.0
 40
4.000000438174686
100
AcDbArc
 50
134.0487976074219
 51
180.0003814697266
  0
ARC
  5
466
330
1F
100
AcDbEntity
  8
A-0_通り芯
  6
Continuous
 62
     3
370
     9
100
AcDbCircle
 10
-414.590384327047
 20
-285.1301340643598
 30
0.0
 40
2.500000515499631
100
AcDbArc
 50
0.0
 51
180.0
  0
ARC
  5
467
330
1F
100
AcDbEntity
  8
A-0_通り芯
  6
Continuous
 62
     3
370
     9
100
AcDbCircle
 10
-414.590384327047
 20
-283.6301538595457
 30
0.0
 40
9.000000309299779
100
AcDbArc
 50
179.9998321533203
 51
253.8724060058594
  0
ARC
  5
468
330
1F
100
AcDbEntity
  8
A-0_通り芯
  6
Continuous
 62
     3
370
     9
100
AcDbCircle
 10
-414.590384327047
 20
-283.6301538595457
 30
0.0
 40
4.000001211424132
100
AcDbArc
 50
180.0
 51
231.3177947998047
  0
ARC
  5
469
330
1F
100
AcDbEntity
  8
A-0_通り芯
  6
Continuous
 62
     3
370
     9
100
AcDbCircle
 10
-414.590384327047
 20
-283.6301538595457
 30
0.0
 40
4.000001211424132
100
AcDbArc
 50
308.6822052001953
 51
0.0
  0
ARC
  5
46A
330
1F
100
AcDbEntity
  8
A-0_通り芯
  6
Continuous
 62
     3
370
     9
100
AcDbCircle
 10
-414.590384327047
 20
-283.6301538595457
 30
0.0
 40
9.000000309299779
100
AcDbArc
 50
286.1275939941406
 51
0.0
  0
ARC
  5
46B
330
1F
100
AcDbEntity
  8
A-1_ピット
  6
Continuous
 62
     2
370
     9
100
AcDbCircle
 10
-481.5905063973595
 20
-222.7367971239037
 30
0.0
 40
3.000000038662472
100
AcDbArc
 50
180.0
 51
270.0
  0
ARC
  5
46C
330
1F
100
AcDbEntity
  8
A-1_ピット
  6
Continuous
 62
     2
370
     9
100
AcDbCircle
 10
-481.5905063973595
 20
-222.7367971239037
 30
0.0
 40
6.200000659839527
100
AcDbArc
 50
180.0
 51
270.0
  0
ARC
  5
46D
330
1F
100
AcDbEntity
  8
A-1_ピット
  6
Continuous
 62
     2
370
     9
100
AcDbCircle
 10
-133.7526685595217
 20
-222.7367971239037
 30
0.0
 40
3.000000038662472
100
AcDbArc
 50
270.0
 51
0.0
  0
ARC
  5
46E
330
1F
100
AcDbEntity
  8
A-1_ピット
  6
Continuous
 62
     2
370
     9
100
AcDbCircle
 10
-133.7526685595217
 20
-222.7367971239037
 30
0.0
 40
6.200000659839527
100
AcDbArc
 50
270.0
 51
0.0
  0
CIRCLE
  5
46F
330
1F
100
AcDbEntity
  8
A-1_ピット
  6
Continuous
 62
     2
370
     9
100
AcDbCircle
 10
-387.7903750892937
 20
-56.23676743112504
 30
0.0
 40
4.500000154649889
  0
CIRCLE
  5
470
330
1F
100
AcDbEntity
  8
A-1_ピット
  6
Continuous
 62
     2
370
     9
100
AcDbCircle
 10
-227.390479343939
 20
-56.23676743112504
 30
0.0
 40
4.500000154649889
  0
CIRCLE
  5
471
330
1F
100
AcDbEntity
  8
A-1_ピット
  6
Continuous
 62
     2
370
     9
100
AcDbCircle
 10
-387.7903750892937
 20
313.1630755270675
 30
0.0
 40
4.500000154649889
  0
CIRCLE
  5
472
330
1F
100
AcDbEntity
  8
A-1_ピット
  6
Continuous
 62
     2
370
     9
100
AcDbCircle
 10
-227.390479343939
 20
313.1630755270675
 30
0.0
 40
4.500000154649889
  0
ARC
  5
473
330
1F
100
AcDbEntity
  8
A-1_ピット
  6
Continuous
 62
     2
370
     9
100
AcDbCircle
 10
234.6096097343973
 20
-45.53672718091389
 30
0.0
 40
3.000000038662472
100
AcDbArc
 50
270.0
 51
0.0
  0
ARC
  5
474
330
1F
100
AcDbEntity
  8
A-1_ピット
  6
Continuous
 62
     2
370
     9
100
AcDbCircle
 10
234.6095107584681
 20
-45.53672718091389
 30
0.0
 40
6.200000659839527
100
AcDbArc
 50
270.0
 51
0.0
  0
ARC
  5
475
330
1F
100
AcDbEntity
  8
A-1_ピット
  6
Continuous
 62
     2
370
     9
100
AcDbCircle
 10
255.8095609062723
 20
-65.73667505359123
 30
0.0
 40
5.000000644374539
100
AcDbArc
 50
0.0
 51
90.0
  0
ARC
  5
476
330
1F
100
AcDbEntity
  8
A-1_ピット
  6
Continuous
 62
     2
370
     9
100
AcDbCircle
 10
255.8095609062723
 20
-65.73667505359123
 30
0.0
 40
13.99999979380015
100
AcDbArc
 50
0.0
 51
90.0
  0
ARC
  5
477
330
1F
100
AcDbEntity
  8
A-1_ピット
  6
JWW_CENTER1
 62
     2
370
     9
100
AcDbCircle
 10
255.8095609062723
 20
-65.73667505359123
 30
0.0
 40
9.500000412399705
100
AcDbArc
 50
0.0
 51
90.0
  0
ARC
  5
478
330
1F
100
AcDbEntity
  8
A-0_通り芯
  6
Continuous
 62
     3
370
     9
100
AcDbCircle
 10
236.1095899392114
 20
-41.13353553712165
 30
0.0
 40
1.500000019331236
100
AcDbArc
 50
273.8125
 51
0.0
  0
ARC
  5
479
330
1F
100
AcDbEntity
  8
A-0_通り芯
  6
Continuous
 62
     3
370
     9
100
AcDbCircle
 10
236.1095899392114
 20
-33.96366974848144
 30
0.0
 40
1.500000019331236
100
AcDbArc
 50
0.0
 51
87.13916015625
  0
ARC
  5
47A
330
1F
100
AcDbEntity
  8
A-0_通り芯
  6
Continuous
 62
     3
370
     9
100
AcDbCircle
 10
220.6094645697012
 20
-28.68310598158957
 30
0.0
 40
3.000000038662472
100
AcDbArc
 50
180.0
 51
267.1372833251953
  0
ARC
  5
47B
330
1F
100
AcDbEntity
  8
A-0_通り芯
  6
Continuous
 62
     3
370
     9
100
AcDbCircle
 10
214.1096163327925
 20
-31.46457702783113
 30
0.0
 40
1.500000019331236
100
AcDbArc
 50
123.6900634765625
 51
180.0009460449219
  0
ARC
  5
47C
330
1F
100
AcDbEntity
  8
A-0_通り芯
  6
Continuous
 62
     3
370
     9
100
AcDbCircle
 10
214.1096163327925
 20
-41.85907858505238
 30
0.0
 40
1.500000019331236
100
AcDbArc
 50
180.0
 51
236.3099365234375
  0
ARC
  5
47D
330
1F
100
AcDbEntity
  8
A-0_通り芯
  6
Continuous
 62
     3
370
     9
100
AcDbCircle
 10
215.6095965376066
 20
-44.40538282386149
 30
0.0
 40
1.500000019331236
100
AcDbArc
 50
180.0
 51
254.0546112060547
  0
ARC
  5
47E
330
1F
100
AcDbEntity
  8
A-0_通り芯
  6
Continuous
 62
     3
370
     9
100
AcDbCircle
 10
215.6095965376066
 20
-28.91832227698655
 30
0.0
 40
1.500000019331236
100
AcDbArc
 50
105.9453887939453
 51
180.0
  0
ARC
  5
47F
330
1F
100
AcDbEntity
  8
A-0_通り芯
  6
Continuous
 62
     3
370
     9
100
AcDbCircle
 10
224.6094777664919
 20
-45.40786052128551
 30
0.0
 40
2.000000219087343
100
AcDbArc
 50
93.81393432617189
 51
183.6716918945313
  0
ARC
  5
480
330
1F
100
AcDbEntity
  8
A-0_通り芯
  6
Continuous
 62
     3
370
     9
100
AcDbCircle
 10
-414.590384327047
 20
-220.7366420616149
 30
0.0
 40
15.00000154649889
100
AcDbArc
 50
194.8680725097656
 51
258.6906280517579
  0
ARC
  5
481
330
1F
100
AcDbEntity
  8
A-0_通り芯
  6
Continuous
 62
     3
370
     9
100
AcDbCircle
 10
-414.590384327047
 20
-220.7366420616149
 30
0.0
 40
15.00000154649889
100
AcDbArc
 50
281.3102722167969
 51
345.1319274902344
  0
TEXT
  5
482
330
1F
100
AcDbEntity
  8
A-0_通り芯
  6
Continuous
 62
     7
370
     9
100
AcDbText
 10
-340.5904272166163
 20
-40.25181955844764
 30
0.0
 40
7.620000000000001
  1
ＫＡＮＥＳＯ
 41
1.1
  7
ＭＳ ゴシック
100
AcDbText
  0
TEXT
  5
483
330
1F
100
AcDbEntity
  8
A-0_通り芯
  6
Continuous
 62
     7
370
     9
100
AcDbText
 10
-257.7904519605985
 20
297.1782761182837
 30
0.0
 40
7.620000000000001
  1
ＧＸＣ－６－３００
 50
180.0
 41
1.106666666666667
  7
ＭＳ ゴシック
100
AcDbText
  0
LINE
  5
484
330
1F
100
AcDbEntity
  8
A-0_通り芯
  6
JWW_CENTER1
 62
     3
370
     9
100
AcDbLine
 10
599.9922909305576
 20
128.4632035359357
 30
0.0
 11
192.6095701440256
 21
128.4632035359357
 31
0.0
  0
LINE
  5
485
330
1F
100
AcDbEntity
  8
A-3_受枠
  6
Continuous
 62
     3
370
     9
100
AcDbLine
 10
581.4921309194724
 20
335.463173437201
 30
0.0
 11
581.4921309194724
 21
341.4631808603957
 31
0.0
  0
LINE
  5
486
330
1F
100
AcDbEntity
  8
A-3_受枠
  6
Continuous
 62
     3
370
     9
100
AcDbLine
 10
582.492233194599
 20
334.4630711620744
 30
0.0
 11
582.492233194599
 21
342.4631965315845
 31
0.0
  0
LINE
  5
487
330
1F
100
AcDbEntity
  8
A-3_受枠
  6
Continuous
 62
     3
370
     9
100
AcDbLine
 10
582.492233194599
 20
334.4630711620744
 30
0.0
 11
581.4921309194724
 21
335.463173437201
 31
0.0
  0
LINE
  5
488
330
1F
100
AcDbEntity
  8
A-3_受枠
  6
Continuous
 62
     3
370
     9
100
AcDbLine
 10
581.4921309194724
 20
341.4631808603957
 30
0.0
 11
582.492233194599
 21
342.4631965315845
 31
0.0
  0
LINE
  5
489
330
1F
100
AcDbEntity
  8
A-3_受枠
  6
Continuous
 62
     3
370
     9
100
AcDbLine
 10
603.4921292698735
 20
334.9631222996377
 30
0.0
 11
599.4922397929943
 21
334.9631222996377
 31
0.0
  0
LINE
  5
48A
330
1F
100
AcDbEntity
  8
A-3_受枠
  6
JWW_CENTER1
 62
     3
370
     9
100
AcDbLine
 10
603.4923024777493
 20
338.4631338468295
 30
0.0
 11
579.9469434590626
 21
338.4631338468295
 31
0.0
  0
LINE
  5
48B
330
1F
100
AcDbEntity
  8
A-3_受枠
  6
Continuous
 62
     3
370
     9
100
AcDbLine
 10
603.4923024777493
 20
341.9632319979592
 30
0.0
 11
599.4922397929943
 21
341.9632319979592
 31
0.0
  0
LINE
  5
48C
330
1F
100
AcDbEntity
  8
A-3_受枠
  6
Continuous
 62
     3
370
     9
100
AcDbLine
 10
613.4922859817611
 20
331.9632484939473
 30
0.0
 11
613.4922859817611
 21
219.1714921990781
 31
0.0
  0
LINE
  5
48D
330
1F
100
AcDbEntity
  8
A-3_受枠
  6
Continuous
 62
     3
370
     9
100
AcDbLine
 10
606.4921762834398
 20
331.9630752860714
 30
0.0
 11
606.4921762834398
 21
219.1714921990781
 31
0.0
  0
LINE
  5
48E
330
1F
100
AcDbEntity
  8
A-3_受枠
  6
JWW_CENTER1
 62
     3
370
     9
100
AcDbLine
 10
630.6238439618604
 20
203.4630967308561
 30
0.0
 11
591.336140731286
 21
203.4630967308561
 31
0.0
  0
LINE
  5
48F
330
1F
100
AcDbEntity
  8
A-3_受枠
  6
Continuous
 62
     3
370
     9
100
AcDbLine
 10
608.0609200149643
 20
210.1915298759151
 30
0.0
 11
604.076619246911
 21
216.1519592994794
 31
0.0
  0
LINE
  5
490
330
1F
100
AcDbEntity
  8
A-3_受枠
  6
Continuous
 62
     3
370
     9
100
AcDbLine
 10
591.7138205045652
 20
345.963294682714
 30
0.0
 11
597.4921218466789
 21
345.963294682714
 31
0.0
  0
LINE
  5
491
330
1F
100
AcDbEntity
  8
A-3_受枠
  6
Continuous
 62
     3
370
     9
100
AcDbLine
 10
591.7138205045652
 20
330.9632328227585
 30
0.0
 11
597.4921218466789
 21
330.9632328227585
 31
0.0
  0
LINE
  5
492
330
1F
100
AcDbEntity
  8
A-3_受枠
  6
Continuous
 62
     3
370
     9
100
AcDbLine
 10
591.7138205045652
 20
342.2103996367892
 30
0.0
 11
597.4921218466789
 21
342.2103996367892
 31
0.0
  0
LINE
  5
493
330
1F
100
AcDbEntity
  8
A-3_受枠
  6
Continuous
 62
     3
370
     9
100
AcDbLine
 10
591.7138205045652
 20
334.7159546608075
 30
0.0
 11
597.4921218466789
 21
334.7159546608075
 31
0.0
  0
LINE
  5
494
330
1F
100
AcDbEntity
  8
A-3_受枠
  6
Continuous
 62
     3
370
     9
100
AcDbLine
 10
590.9920632859207
 20
344.0868471597516
 30
0.0
 11
590.9920632859207
 21
332.8395937417829
 31
0.0
  0
LINE
  5
495
330
1F
100
AcDbEntity
  8
A-3_受枠
  6
Continuous
 62
     3
370
     9
100
AcDbLine
 10
599.4922397929943
 20
327.2131091028472
 30
0.0
 11
597.4921218466789
 21
327.2131091028472
 31
0.0
  0
LINE
  5
496
330
1F
100
AcDbEntity
  8
A-3_受枠
  6
Continuous
 62
     3
370
     9
100
AcDbLine
 10
599.4922397929943
 20
349.7131585908116
 30
0.0
 11
599.4922397929943
 21
327.2131091028472
 31
0.0
  0
LINE
  5
497
330
1F
100
AcDbEntity
  8
A-3_受枠
  6
Continuous
 62
     3
370
     9
100
AcDbLine
 10
599.4922397929943
 20
349.7131585908116
 30
0.0
 11
597.4921218466789
 21
349.7131585908116
 31
0.0
  0
LINE
  5
498
330
1F
100
AcDbEntity
  8
A-3_受枠
  6
Continuous
 62
     3
370
     9
100
AcDbLine
 10
597.4921218466789
 20
349.7131585908116
 30
0.0
 11
597.4921218466789
 21
327.2131091028472
 31
0.0
  0
LINE
  5
499
330
1F
100
AcDbEntity
  8
A-3_受枠
  6
Continuous
 62
     3
370
     9
100
AcDbLine
 10
581.4921309194724
 20
341.4631808603957
 30
0.0
 11
590.9920632859207
 21
341.4631808603957
 31
0.0
  0
LINE
  5
49A
330
1F
100
AcDbEntity
  8
A-3_受枠
  6
Continuous
 62
     3
370
     9
100
AcDbLine
 10
582.492233194599
 20
342.4631965315845
 30
0.0
 11
590.9920632859207
 21
342.4631965315845
 31
0.0
  0
LINE
  5
49B
330
1F
100
AcDbEntity
  8
A-3_受枠
  6
Continuous
 62
     3
370
     9
100
AcDbLine
 10
581.4921309194724
 20
335.463173437201
 30
0.0
 11
590.9920632859207
 21
335.463173437201
 31
0.0
  0
LINE
  5
49C
330
1F
100
AcDbEntity
  8
A-3_受枠
  6
Continuous
 62
     3
370
     9
100
AcDbLine
 10
582.492233194599
 20
334.4630711620744
 30
0.0
 11
590.9920632859207
 21
334.4630711620744
 31
0.0
  0
LINE
  5
49D
330
1F
100
AcDbEntity
  8
A-3_受枠
  6
JWW_CENTER1
 62
     3
370
     9
100
AcDbLine
 10
609.9922744345695
 20
138.4632039547791
 30
0.0
 11
609.9922744345695
 21
331.9632484939473
 31
0.0
  0
ARC
  5
49E
330
1F
100
AcDbEntity
  8
A-3_受枠
  6
Continuous
 62
     3
370
     9
100
AcDbCircle
 10
603.4921292698735
 20
331.9630752860714
 30
0.0
 40
2.999999990334382
100
AcDbArc
 50
0.0
 51
90.0
  0
ARC
  5
49F
330
1F
100
AcDbEntity
  8
A-3_受枠
  6
JWW_CENTER1
 62
     3
370
     9
100
AcDbCircle
 10
603.4923024777493
 20
331.9632484939473
 30
0.0
 40
6.499999697143967
100
AcDbArc
 50
0.0
 51
90.0
  0
ARC
  5
4A0
330
1F
100
AcDbEntity
  8
A-3_受枠
  6
Continuous
 62
     3
370
     9
100
AcDbCircle
 10
603.4923024777493
 20
331.9632484939473
 30
0.0
 40
10.00000041884345
100
AcDbArc
 50
0.0
 51
90.0
  0
ARC
  5
4A1
330
1F
100
AcDbEntity
  8
A-3_受枠
  6
Continuous
 62
     3
370
     9
100
AcDbCircle
 10
616.4922463913895
 20
219.1714921990781
 30
0.0
 40
2.999999990334382
100
AcDbArc
 50
180.0
 51
247.5196228027344
  0
ARC
  5
4A2
330
1F
100
AcDbEntity
  8
A-3_受枠
  6
Continuous
 62
     3
370
     9
100
AcDbCircle
 10
616.4922463913895
 20
219.1714921990781
 30
0.0
 40
10.00000041884345
100
AcDbArc
 50
180.0
 51
247.5204620361328
  0
ARC
  5
4A3
330
1F
100
AcDbEntity
  8
A-3_受枠
  6
Continuous
 62
     3
370
     9
100
AcDbCircle
 10
609.9922744345695
 20
203.4630967308561
 30
0.0
 40
6.999999413619171
100
AcDbArc
 50
106.0161743164062
 51
67.5208129882813
  0
ARC
  5
4A4
330
1F
100
AcDbEntity
  8
A-3_受枠
  6
Continuous
 62
     3
370
     9
100
AcDbCircle
 10
609.9922744345695
 20
203.4630967308561
 30
0.0
 40
13.99999882723834
100
AcDbArc
 50
114.9949645996094
 51
67.52053833007811
  0
ARC
  5
4A5
330
1F
100
AcDbEntity
  8
A-3_受枠
  6
Continuous
 62
     3
370
     9
100
AcDbCircle
 10
593.7923150147004
 20
344.0868471597516
 30
0.0
 40
2.800173074812503
100
AcDbArc
 50
137.9253692626953
 51
222.0744323730469
  0
ARC
  5
4A6
330
1F
100
AcDbEntity
  8
A-3_受枠
  6
Continuous
 62
     3
370
     9
100
AcDbCircle
 10
601.0815086578064
 20
338.4631338468295
 30
0.0
 40
10.08941018903578
100
AcDbArc
 50
158.1978607177734
 51
201.8021392822265
  0
ARC
  5
4A7
330
1F
100
AcDbEntity
  8
A-3_受枠
  6
Continuous
 62
     3
370
     9
100
AcDbCircle
 10
593.7923150147004
 20
332.8395937417829
 30
0.0
 40
2.800189820495812
100
AcDbArc
 50
137.9257202148438
 51
222.0742797851562
  0
ARC
  5
4A8
330
1F
100
AcDbEntity
  8
A-3_受枠
  6
JWW_CENTER1
 62
     3
370
     9
100
AcDbCircle
 10
599.9922909305576
 20
138.4632039547791
 30
0.0
 40
10.00000041884345
100
AcDbArc
 50
270.0
 51
0.0
  0
TEXT
  5
4A9
330
1F
100
AcDbEntity
  8
F-Fﾚｲﾔ
  6
Continuous
 62
     2
370
     9
100
AcDbText
 10
-110.1927964417388
 20
-548.3520868025124
 30
0.0
 40
12.192
  1
鋳鉄製みぞ蓋　ＧＸＣ－６－３００＋Ｌ－２５Ｇ
 41
0.7738636363636364
  7
ＭＳ ゴシック
100
AcDbText
  0
TEXT
  5
4AA
330
1F
100
AcDbEntity
  8
F-Fﾚｲﾔ
  6
Continuous
 62
     2
370
     9
100
AcDbText
 10
-332.6269167044511
 20
-528.5510781098621
 30
0.0
 40
12.192
  1
　細目ノンスリップタイプ（すきま８ｍｍ）　集水桝用　受枠付
 41
0.7741379310344828
  7
ＭＳ ゴシック
100
AcDbText
  0
TEXT
  5
4AB
330
1F
100
AcDbEntity
  8
A-F
  6
Continuous
 62
     2
370
     9
100
AcDbText
 10
224.3014712736709
 20
-294.1457108168936
 30
0.0
 40
12.192
  1
仕様
 41
1.0625
  7
ＭＳ ゴシック
100
AcDbText
  0
TEXT
  5
4AC
330
1F
100
AcDbEntity
  8
A-F
  6
Continuous
 62
     2
370
     9
100
AcDbText
 10
224.3014518716018
 20
-318.1456910217055
 30
0.0
 40
12.192
  1
適応荷重：Ｔ－６
 50
359.999990016014
 41
1.109375
  7
ＭＳ ゴシック
100
AcDbText
  0
TEXT
  5
4AD
330
1F
100
AcDbEntity
  8
A-F
  6
Continuous
 62
     2
370
     9
100
AcDbText
 10
224.3014910688566
 20
-366.1457132912918
 30
0.0
 40
12.192
  1
接触圧子：φ１７０ｍｍ
 41
1.113636363636364
  7
ＭＳ ゴシック
100
AcDbText
  0
TEXT
  5
4AE
330
1F
100
AcDbEntity
  8
A-F
  6
Continuous
 62
     2
370
     9
100
AcDbText
 10
224.3014514784851
 20
-390.1457182400883
 30
0.0
 40
12.192
  1
蓋質量：１１ｋｇ
 41
1.109375
  7
ＭＳ ゴシック
100
AcDbText
  0
TEXT
  5
4AF
330
1F
100
AcDbEntity
  8
A-F
  6
Continuous
 62
     2
370
     9
100
AcDbText
 10
224.3014910688566
 20
-342.1457083424954
 30
0.0
 40
12.192
  1
破壊荷重：６０ｋＮ（６，１２３ｋｇｆ）以上
 41
1.119047619047619
  7
ＭＳ ゴシック
100
AcDbText
  0
LINE
  5
4B0
330
1F
100
AcDbEntity
  8
A-5_仕様文
  6
Continuous
 62
     7
370
     9
100
AcDbLine
 10
237.6095701440256
 20
161.0928949949729
 30
0.0
 11
246.9715053213904
 21
164.6079261393987
 31
0.0
  0
LINE
  5
4B1
330
1F
100
AcDbEntity
  8
A-5_仕様文
  6
Continuous
 62
     7
370
     9
100
AcDbLine
 10
237.6095701440256
 20
161.0928949949729
 30
0.0
 11
247.562193665985
 21
162.0651850340354
 31
0.0
  0
LINE
  5
4B2
330
1F
100
AcDbEntity
  8
A-5_仕様文
  6
Continuous
 62
     7
370
     9
100
AcDbLine
 10
269.809409143181
 20
337.6631811013919
 30
0.0
 11
274.5160114974885
 21
346.4862913209865
 31
0.0
  0
LINE
  5
4B3
330
1F
100
AcDbEntity
  8
A-5_仕様文
  6
Continuous
 62
     7
370
     9
100
AcDbLine
 10
269.809409143181
 20
337.6631811013919
 30
0.0
 11
276.6391441516269
 21
344.9676046655811
 31
0.0
  0
LINE
  5
4B4
330
1F
100
AcDbEntity
  8
A-5_仕様文
  6
Continuous
 62
     7
370
     9
100
AcDbLine
 10
303.072051668519
 20
119.4631243551925
 30
0.0
 11
431.6810769535696
 21
16.6371306368648
 31
0.0
  0
LINE
  5
4B5
330
1F
100
AcDbEntity
  8
A-5_仕様文
  6
Continuous
 62
     7
370
     9
100
AcDbLine
 10
303.072051668519
 20
119.4631243551925
 30
0.0
 11
311.63079718161
 21
114.2912856463666
 31
0.0
  0
LINE
  5
4B6
330
1F
100
AcDbEntity
  8
A-5_仕様文
  6
Continuous
 62
     7
370
     9
100
AcDbLine
 10
303.072051668519
 20
119.4631243551925
 30
0.0
 11
310.000762606019
 21
112.2524309958175
 31
0.0
  0
LINE
  5
4B7
330
1F
100
AcDbEntity
  8
A-5_仕様文
  6
Continuous
 62
     7
370
     9
100
AcDbLine
 10
388.1883813771337
 20
196.0753432635541
 30
0.0
 11
237.6095701440256
 21
161.0928949949729
 31
0.0
  0
LINE
  5
4B8
330
1F
100
AcDbEntity
  8
A-5_仕様文
  6
Continuous
 62
     7
370
     9
100
AcDbLine
 10
222.8907607584681
 20
308.663134912625
 30
0.0
 11
213.3705630705458
 21
315.9682513083175
 31
0.0
  0
LINE
  5
4B9
330
1F
100
AcDbEntity
  8
A-5_仕様文
  6
Continuous
 62
     7
370
     9
100
AcDbLine
 10
222.8907607584681
 20
308.663134912625
 30
0.0
 11
215.5856443627756
 21
318.1833326005473
 31
0.0
  0
LINE
  5
4BA
330
1F
100
AcDbEntity
  8
A-5_仕様文
  6
Continuous
 62
     7
370
     9
100
AcDbLine
 10
222.8907607584681
 20
308.663134912625
 30
0.0
 11
139.3417148864241
 21
392.2121807846689
 31
0.0
  0
LINE
  5
4BB
330
1F
100
AcDbEntity
  8
A-5_仕様文
  6
Continuous
 62
     7
370
     9
100
AcDbLine
 10
-5.043578610197414
 20
392.2121807846689
 30
0.0
 11
139.3417148864241
 21
392.2121807846689
 31
0.0
  0
LINE
  5
4BC
330
1F
100
AcDbEntity
  8
A-5_仕様文
  6
Continuous
 62
     7
370
     9
100
AcDbLine
 10
388.1883813771337
 20
196.0753432635541
 30
0.0
 11
504.8295342487554
 21
196.0753432635541
 31
0.0
  0
LINE
  5
4BD
330
1F
100
AcDbEntity
  8
A-5_仕様文
  6
Continuous
 62
     7
370
     9
100
AcDbLine
 10
405.7853118036539
 20
-36.43504920899665
 30
0.0
 11
237.6095701440256
 21
116.4631639455642
 31
0.0
  0
LINE
  5
4BE
330
1F
100
AcDbEntity
  8
A-5_仕様文
  6
Continuous
 62
     7
370
     9
100
AcDbLine
 10
237.6095701440256
 20
116.4631639455642
 30
0.0
 11
247.4662859907316
 21
109.6187804996182
 31
0.0
  0
LINE
  5
4BF
330
1F
100
AcDbEntity
  8
A-5_仕様文
  6
Continuous
 62
     7
370
     9
100
AcDbLine
 10
237.6095701440256
 20
116.4631639455642
 30
0.0
 11
245.3588905093127
 21
107.3008632171014
 31
0.0
  0
TEXT
  5
4C0
330
1F
100
AcDbEntity
  8
A-5_仕様文
  6
Continuous
 62
     7
370
     9
100
AcDbText
 10
0.7439200701235222
 20
379.7068755692973
 30
0.0
 40
9.144
  1
ＳＰＨＣ，樹脂系塗装
 41
1.15
  7
ＭＳ ゴシック
100
AcDbText
  0
TEXT
  5
4C1
330
1F
100
AcDbEntity
  8
A-5_仕様文
  6
Continuous
 62
     7
370
     9
100
AcDbText
 10
392.7735237705036
 20
200.8442574580219
 30
0.0
 40
9.144
  1
蓋：ＦＣＤ５００
 41
1.145833333333333
  7
ＭＳ ゴシック
100
AcDbText
  0
TEXT
  5
4C2
330
1F
100
AcDbEntity
  8
A-5_仕様文
  6
Continuous
 62
     7
370
     9
100
AcDbText
 10
10.4948586821354
 20
398.5371502402604
 30
0.0
 40
9.144
  1
受枠：Ｌ－２５Ｇ
 41
1.145833333333333
  7
ＭＳ ゴシック
100
AcDbText
  0
TEXT
  5
4C3
330
1F
100
AcDbEntity
  8
A-5_仕様文
  6
Continuous
 62
     7
370
     9
100
AcDbText
 10
318.6927800061191
 20
392.5402351420336
 30
0.0
 40
9.144
  1
ＳＳ４００，樹脂系塗装
 41
1.151515151515152
  7
ＭＳ ゴシック
100
AcDbText
  0
TEXT
  5
4C4
330
1F
100
AcDbEntity
  8
A-5_仕様文
  6
Continuous
 62
     7
370
     9
100
AcDbText
 10
340.1573208942726
 20
412.3927204011162
 30
0.0
 40
9.144
  1
アンカー：φ９
 41
1.142857142857143
  7
ＭＳ ゴシック
100
AcDbText
  0
LINE
  5
4C5
330
1F
100
AcDbEntity
  8
A-5_仕様文
  6
Continuous
 62
     7
370
     9
100
AcDbLine
 10
269.809409143181
 20
337.6631811013919
 30
0.0
 11
319.0024006854026
 21
406.4337767383173
 31
0.0
  0
LINE
  5
4C6
330
1F
100
AcDbEntity
  8
A-5_仕様文
  6
Continuous
 62
     7
370
     9
100
AcDbLine
 10
319.0024006854026
 20
406.4337767383173
 30
0.0
 11
471.9259244054012
 21
406.4337767383173
 31
0.0
  0
TEXT
  5
4C7
330
1F
100
AcDbEntity
  8
A-5_仕様文
  6
Continuous
 62
     7
370
     9
100
AcDbText
 10
409.3144137026973
 20
181.8164389655262
 30
0.0
 40
9.144
  1
樹脂系塗装
 41
1.133333333333333
  7
ＭＳ ゴシック
100
AcDbText
  0
LINE
  5
4C8
330
1F
100
AcDbEntity
  8
A-5_仕様文
  6
Continuous
 62
     7
370
     9
100
AcDbLine
 10
431.6810769535696
 20
16.6371306368648
 30
0.0
 11
600.4035802029707
 21
16.6371306368648
 31
0.0
  0
LINE
  5
4C9
330
1F
100
AcDbEntity
  8
A-5_仕様文
  6
Continuous
 62
     7
370
     9
100
AcDbLine
 10
405.7853118036539
 20
-36.43504920899665
 30
0.0
 11
574.4135985206921
 21
-36.43504920899665
 31
0.0
  0
LINE
  5
4CA
330
1F
100
AcDbEntity
  8
A-4_寸法
  6
Continuous
 62
     7
370
     9
100
AcDbLine
 10
212.6095371520491
 20
-111.7367773287179
 30
0.0
 11
237.6095701440256
 21
-111.7367773287179
 31
0.0
  0
LINE
  5
4CB
330
1F
100
AcDbEntity
  8
A-4_寸法
  6
Continuous
 62
     7
370
     9
100
AcDbLine
 10
-527.7904658172287
 20
91.21316724476178
 30
0.0
 11
-527.7904658172287
 21
110.7133058110625
 31
0.0
  0
LINE
  5
4CC
330
1F
100
AcDbEntity
  8
A-4_寸法
  6
Continuous
 62
     7
370
     9
100
AcDbLine
 10
240.8094619303431
 20
-151.7367608327298
 30
0.0
 11
269.809409143181
 21
-151.7367608327298
 31
0.0
  0
LINE
  5
4CD
330
1F
100
AcDbEntity
  8
A-4_寸法
  6
Continuous
 62
     7
370
     9
100
AcDbLine
 10
-487.7904575692346
 20
377.6632140933683
 30
0.0
 11
-387.7903750892937
 21
377.6632140933683
 31
0.0
  0
LINE
  5
4CE
330
1F
100
AcDbEntity
  8
A-4_寸法
  6
Continuous
 62
     7
370
     9
100
AcDbLine
 10
-227.390479343939
 20
377.6632140933683
 30
0.0
 11
-127.3904958399271
 21
377.6632140933683
 31
0.0
  0
LINE
  5
4CF
330
1F
100
AcDbEntity
  8
A-4_寸法
  6
Continuous
 62
     7
370
     9
100
AcDbLine
 10
-487.7904575692346
 20
312.6633460612737
 30
0.0
 11
-487.7904575692346
 21
378.8631982572196
 31
0.0
  0
LINE
  5
4D0
330
1F
100
AcDbEntity
  8
A-4_寸法
  6
Continuous
 62
     7
370
     9
100
AcDbLine
 10
-127.3904958399271
 20
312.6633460612737
 30
0.0
 11
-127.3904958399271
 21
378.8631982572196
 31
0.0
  0
LINE
  5
4D1
330
1F
100
AcDbEntity
  8
A-4_寸法
  6
Continuous
 62
     7
370
     9
100
AcDbLine
 10
-491.7904460220428
 20
118.71318374075
 30
0.0
 11
-528.9904994690446
 21
118.71318374075
 31
0.0
  0
LINE
  5
4D2
330
1F
100
AcDbEntity
  8
A-4_寸法
  6
Continuous
 62
     7
370
     9
100
AcDbLine
 10
-491.7904460220428
 20
110.7133058110625
 30
0.0
 11
-528.9904994690446
 21
110.7133058110625
 31
0.0
  0
LINE
  5
4D3
330
1F
100
AcDbEntity
  8
A-4_寸法
  6
Continuous
 62
     7
370
     9
100
AcDbLine
 10
-491.7904460220428
 20
91.21316724476178
 30
0.0
 11
-528.9904994690446
 21
91.21316724476178
 31
0.0
  0
LINE
  5
4D4
330
1F
100
AcDbEntity
  8
A-4_寸法
  6
Continuous
 62
     7
370
     9
100
AcDbLine
 10
-527.7904658172287
 20
110.7133058110625
 30
0.0
 11
-527.7904658172287
 21
118.71318374075
 31
0.0
  0
LINE
  5
4D5
330
1F
100
AcDbEntity
  8
A-4_寸法
  6
Continuous
 62
     7
370
     9
100
AcDbLine
 10
-527.7904658172287
 20
91.21316724476178
 30
0.0
 11
-526.2241469959661
 21
79.31581518078376
 31
0.0
  0
LINE
  5
4D6
330
1F
100
AcDbEntity
  8
A-4_寸法
  6
Continuous
 62
     7
370
     9
100
AcDbLine
 10
-527.7904658172287
 20
91.21316724476178
 30
0.0
 11
-529.3567846384913
 21
79.31581518078376
 31
0.0
  0
LINE
  5
4D7
330
1F
100
AcDbEntity
  8
A-4_寸法
  6
Continuous
 62
     7
370
     9
100
AcDbLine
 10
-527.7904658172287
 20
118.71318374075
 30
0.0
 11
-529.3567846384913
 21
130.610535804728
 31
0.0
  0
LINE
  5
4D8
330
1F
100
AcDbEntity
  8
A-4_寸法
  6
Continuous
 62
     7
370
     9
100
AcDbLine
 10
-527.7904658172287
 20
118.71318374075
 30
0.0
 11
-526.2241469959661
 21
130.610535804728
 31
0.0
  0
LINE
  5
4D9
330
1F
100
AcDbEntity
  8
A-4_寸法
  6
Continuous
 62
     7
370
     9
100
AcDbLine
 10
-527.7904658172287
 20
91.21316724476178
 30
0.0
 11
-527.7904658172287
 21
72.27422219619761
 31
0.0
  0
LINE
  5
4DA
330
1F
100
AcDbEntity
  8
A-4_寸法
  6
Continuous
 62
     7
370
     9
100
AcDbLine
 10
-527.7904658172287
 20
118.71318374075
 30
0.0
 11
-527.7904658172287
 21
145.1285230302348
 31
0.0
  0
LINE
  5
4DB
330
1F
100
AcDbEntity
  8
A-4_寸法
  6
Continuous
 62
     7
370
     9
100
AcDbLine
 10
354.3131768268804
 20
278.4632035359359
 30
0.0
 11
354.3131768268804
 21
308.663134912625
 31
0.0
  0
LINE
  5
4DC
330
1F
100
AcDbEntity
  8
A-4_寸法
  6
Continuous
 62
     7
370
     9
100
AcDbLine
 10
354.3131768268804
 20
308.663134912625
 30
0.0
 11
354.3131768268804
 21
337.6631811013919
 31
0.0
  0
LINE
  5
4DD
330
1F
100
AcDbEntity
  8
A-4_寸法
  6
Continuous
 62
     7
370
     9
100
AcDbLine
 10
354.3131768268804
 20
337.6631811013919
 30
0.0
 11
352.7468827496
 21
349.5604836774054
 31
0.0
  0
LINE
  5
4DE
330
1F
100
AcDbEntity
  8
A-4_寸法
  6
Continuous
 62
     7
370
     9
100
AcDbLine
 10
354.3131768268804
 20
337.6631811013919
 30
0.0
 11
355.8794709041608
 21
349.5604836774054
 31
0.0
  0
LINE
  5
4DF
330
1F
100
AcDbEntity
  8
A-4_寸法
  6
Continuous
 62
     7
370
     9
100
AcDbLine
 10
354.3131768268804
 20
278.4632035359359
 30
0.0
 11
355.8794709041608
 21
266.5659009599223
 31
0.0
  0
LINE
  5
4E0
330
1F
100
AcDbEntity
  8
A-4_寸法
  6
Continuous
 62
     7
370
     9
100
AcDbLine
 10
354.3131768268804
 20
278.4632035359359
 30
0.0
 11
352.7468827496
 21
266.5659009599223
 31
0.0
  0
LINE
  5
4E1
330
1F
100
AcDbEntity
  8
A-4_寸法
  6
Continuous
 62
     7
370
     9
100
AcDbLine
 10
212.6095371520491
 20
-111.7367773287179
 30
0.0
 11
200.7122345760358
 21
-113.3030714059983
 31
0.0
  0
LINE
  5
4E2
330
1F
100
AcDbEntity
  8
A-4_寸法
  6
Continuous
 62
     7
370
     9
100
AcDbLine
 10
212.6095371520491
 20
-111.7367773287179
 30
0.0
 11
200.7122345760358
 21
-110.1704832514375
 31
0.0
  0
LINE
  5
4E3
330
1F
100
AcDbEntity
  8
A-4_寸法
  6
Continuous
 62
     7
370
     9
100
AcDbLine
 10
237.6095701440256
 20
-111.7367773287179
 30
0.0
 11
249.5068727200392
 21
-110.1704832514375
 31
0.0
  0
LINE
  5
4E4
330
1F
100
AcDbEntity
  8
A-4_寸法
  6
Continuous
 62
     7
370
     9
100
AcDbLine
 10
237.6095701440256
 20
-111.7367773287179
 30
0.0
 11
249.5068727200392
 21
-113.3030714059983
 31
0.0
  0
LINE
  5
4E5
330
1F
100
AcDbEntity
  8
A-4_寸法
  6
Continuous
 62
     7
370
     9
100
AcDbLine
 10
212.6095371520491
 20
-111.7367773287179
 30
0.0
 11
194.0899531148871
 21
-111.7367773287179
 31
0.0
  0
LINE
  5
4E6
330
1F
100
AcDbEntity
  8
A-4_寸法
  6
Continuous
 62
     7
370
     9
100
AcDbLine
 10
237.6095701440256
 20
-111.7367773287179
 30
0.0
 11
256.2897921140425
 21
-111.7367773287179
 31
0.0
  0
LINE
  5
4E7
330
1F
100
AcDbEntity
  8
A-4_寸法
  6
Continuous
 62
     7
370
     9
100
AcDbLine
 10
176.1319584991777
 20
-151.7367608327298
 30
0.0
 11
212.6095371520491
 21
-151.7367608327298
 31
0.0
  0
LINE
  5
4E8
330
1F
100
AcDbEntity
  8
A-4_寸法
  6
Continuous
 62
     7
370
     9
100
AcDbLine
 10
212.6095371520491
 20
-151.7367608327298
 30
0.0
 11
240.8094619303431
 21
-151.7367608327298
 31
0.0
  0
LINE
  5
4E9
330
1F
100
AcDbEntity
  8
A-4_寸法
  6
Continuous
 62
     7
370
     9
100
AcDbLine
 10
212.6095371520491
 20
-151.7367608327298
 30
0.0
 11
200.7122345760358
 21
-153.3030549100102
 31
0.0
  0
LINE
  5
4EA
330
1F
100
AcDbEntity
  8
A-4_寸法
  6
Continuous
 62
     7
370
     9
100
AcDbLine
 10
212.6095371520491
 20
-151.7367608327298
 30
0.0
 11
200.7122345760358
 21
-150.1704172674848
 31
0.0
  0
LINE
  5
4EB
330
1F
100
AcDbEntity
  8
A-4_寸法
  6
Continuous
 62
     7
370
     9
100
AcDbLine
 10
269.809409143181
 20
-151.7367608327298
 30
0.0
 11
281.7067117191946
 21
-150.1704172674848
 31
0.0
  0
LINE
  5
4EC
330
1F
100
AcDbEntity
  8
A-4_寸法
  6
Continuous
 62
     7
370
     9
100
AcDbLine
 10
269.809409143181
 20
-151.7367608327298
 30
0.0
 11
281.7067117191946
 21
-153.3030549100102
 31
0.0
  0
LINE
  5
4ED
330
1F
100
AcDbEntity
  8
A-4_寸法
  6
Continuous
 62
     7
370
     9
100
AcDbLine
 10
269.809409143181
 20
-151.7367608327298
 30
0.0
 11
289.4799842593127
 21
-151.7367608327298
 31
0.0
  0
LINE
  5
4EE
330
1F
100
AcDbEntity
  8
A-4_寸法
  6
Continuous
 62
     7
370
     9
100
AcDbLine
 10
354.3131768268804
 20
337.6631811013919
 30
0.0
 11
354.3131768268804
 21
356.6574536942973
 31
0.0
  0
LINE
  5
4EF
330
1F
100
AcDbEntity
  8
A-4_寸法
  6
Continuous
 62
     7
370
     9
100
AcDbLine
 10
-387.7903750892937
 20
345.6632074949729
 30
0.0
 11
-387.7903750892937
 21
378.8631982572196
 31
0.0
  0
LINE
  5
4F0
330
1F
100
AcDbEntity
  8
A-4_寸法
  6
Continuous
 62
     7
370
     9
100
AcDbLine
 10
-227.390479343939
 20
345.6632074949729
 30
0.0
 11
-227.390479343939
 21
378.8631982572196
 31
0.0
  0
LINE
  5
4F1
330
1F
100
AcDbEntity
  8
A-4_寸法
  6
Continuous
 62
     7
370
     9
100
AcDbLine
 10
-487.7904575692346
 20
377.6632140933683
 30
0.0
 11
-475.8931302492388
 21
379.2295081706487
 31
0.0
  0
LINE
  5
4F2
330
1F
100
AcDbEntity
  8
A-4_寸法
  6
Continuous
 62
     7
370
     9
100
AcDbLine
 10
-487.7904575692346
 20
377.6632140933683
 30
0.0
 11
-475.8931302492388
 21
376.0969200160878
 31
0.0
  0
LINE
  5
4F3
330
1F
100
AcDbEntity
  8
A-4_寸法
  6
Continuous
 62
     7
370
     9
100
AcDbLine
 10
-387.7903750892937
 20
377.6632140933683
 30
0.0
 11
-399.6877271532717
 21
376.0969200160878
 31
0.0
  0
LINE
  5
4F4
330
1F
100
AcDbEntity
  8
A-4_寸法
  6
Continuous
 62
     7
370
     9
100
AcDbLine
 10
-387.7903750892937
 20
377.6632140933683
 30
0.0
 11
-399.6877271532717
 21
379.2295081706487
 31
0.0
  0
LINE
  5
4F5
330
1F
100
AcDbEntity
  8
A-4_寸法
  6
Continuous
 62
     7
370
     9
100
AcDbLine
 10
-227.390479343939
 20
377.6632140933683
 30
0.0
 11
-215.493127279961
 21
379.2295081706487
 31
0.0
  0
LINE
  5
4F6
330
1F
100
AcDbEntity
  8
A-4_寸法
  6
Continuous
 62
     7
370
     9
100
AcDbLine
 10
-227.390479343939
 20
377.6632140933683
 30
0.0
 11
-215.493127279961
 21
376.0969200160878
 31
0.0
  0
LINE
  5
4F7
330
1F
100
AcDbEntity
  8
A-4_寸法
  6
Continuous
 62
     7
370
     9
100
AcDbLine
 10
-127.3904958399271
 20
377.6632140933683
 30
0.0
 11
-139.2878479039051
 21
376.0969200160878
 31
0.0
  0
LINE
  5
4F8
330
1F
100
AcDbEntity
  8
A-4_寸法
  6
Continuous
 62
     7
370
     9
100
AcDbLine
 10
-127.3904958399271
 20
377.6632140933683
 30
0.0
 11
-139.2878479039051
 21
379.2295081706487
 31
0.0
  0
LINE
  5
4F9
330
1F
100
AcDbEntity
  8
A-4_寸法
  6
Continuous
 62
     7
370
     9
100
AcDbLine
 10
274.8093761512046
 20
337.6631811013919
 30
0.0
 11
355.5131609907316
 21
337.6631811013919
 31
0.0
  0
LINE
  5
4FA
330
1F
100
AcDbEntity
  8
A-4_寸法
  6
Continuous
 62
     7
370
     9
100
AcDbLine
 10
274.8093761512046
 20
308.663134912625
 30
0.0
 11
355.5131609907316
 21
308.663134912625
 31
0.0
  0
LINE
  5
4FB
330
1F
100
AcDbEntity
  8
A-4_寸法
  6
Continuous
 62
     7
370
     9
100
AcDbLine
 10
245.8094289383669
 20
278.4632035359359
 30
0.0
 11
355.5131609907316
 21
278.4632035359359
 31
0.0
  0
LINE
  5
4FC
330
1F
100
AcDbEntity
  8
A-4_寸法
  6
Continuous
 62
     7
370
     9
100
AcDbLine
 10
354.3131768268804
 20
-21.53679646406426
 30
0.0
 11
354.3131768268804
 21
278.4632035359359
 31
0.0
  0
LINE
  5
4FD
330
1F
100
AcDbEntity
  8
A-4_寸法
  6
Continuous
 62
     7
370
     9
100
AcDbLine
 10
354.3131768268804
 20
-21.53679646406426
 30
0.0
 11
354.3131768268804
 21
-51.73667835278889
 31
0.0
  0
LINE
  5
4FE
330
1F
100
AcDbEntity
  8
A-4_寸法
  6
Continuous
 62
     7
370
     9
100
AcDbLine
 10
354.3131768268804
 20
-51.73667835278889
 30
0.0
 11
354.3131768268804
 21
-80.73677402952029
 31
0.0
  0
LINE
  5
4FF
330
1F
100
AcDbEntity
  8
A-4_寸法
  6
Continuous
 62
     7
370
     9
100
AcDbLine
 10
354.3131768268804
 20
-80.73677402952029
 30
0.0
 11
355.8794709041608
 21
-92.63412609349831
 31
0.0
  0
LINE
  5
500
330
1F
100
AcDbEntity
  8
A-4_寸法
  6
Continuous
 62
     7
370
     9
100
AcDbLine
 10
354.3131768268804
 20
-80.73677402952029
 30
0.0
 11
352.7468827496
 21
-92.63412609349831
 31
0.0
  0
LINE
  5
501
330
1F
100
AcDbEntity
  8
A-4_寸法
  6
Continuous
 62
     7
370
     9
100
AcDbLine
 10
354.3131768268804
 20
-21.53679646406426
 30
0.0
 11
352.7468827496
 21
-9.639444400086134
 31
0.0
  0
LINE
  5
502
330
1F
100
AcDbEntity
  8
A-4_寸法
  6
Continuous
 62
     7
370
     9
100
AcDbLine
 10
354.3131768268804
 20
-21.53679646406426
 30
0.0
 11
355.8794709041608
 21
-9.639444400086134
 31
0.0
  0
LINE
  5
503
330
1F
100
AcDbEntity
  8
A-4_寸法
  6
Continuous
 62
     7
370
     9
100
AcDbLine
 10
354.3131768268804
 20
-80.73677402952029
 30
0.0
 11
354.3131768268804
 21
-97.2948531046892
 31
0.0
  0
LINE
  5
504
330
1F
100
AcDbEntity
  8
A-4_寸法
  6
Continuous
 62
     7
370
     9
100
AcDbLine
 10
274.8093761512046
 20
-80.73677402952029
 30
0.0
 11
355.5131609907316
 21
-80.73677402952029
 31
0.0
  0
LINE
  5
505
330
1F
100
AcDbEntity
  8
A-4_寸法
  6
Continuous
 62
     7
370
     9
100
AcDbLine
 10
274.8093761512046
 20
-51.73667835278889
 30
0.0
 11
355.5131609907316
 21
-51.73667835278889
 31
0.0
  0
LINE
  5
506
330
1F
100
AcDbEntity
  8
A-4_寸法
  6
Continuous
 62
     7
370
     9
100
AcDbLine
 10
245.8094289383669
 20
-21.53679646406426
 30
0.0
 11
355.5131609907316
 21
-21.53679646406426
 31
0.0
  0
LINE
  5
507
330
1F
100
AcDbEntity
  8
A-4_寸法
  6
Continuous
 62
     7
370
     9
100
AcDbLine
 10
212.6095371520491
 20
-55.73679052550848
 30
0.0
 11
212.6095371520491
 21
-152.9367449965811
 31
0.0
  0
LINE
  5
508
330
1F
100
AcDbEntity
  8
A-4_寸法
  6
Continuous
 62
     7
370
     9
100
AcDbLine
 10
237.6095701440256
 20
-55.73679052550848
 30
0.0
 11
237.6095701440256
 21
-112.9367614925693
 31
0.0
  0
LINE
  5
509
330
1F
100
AcDbEntity
  8
A-4_寸法
  6
Continuous
 62
     7
370
     9
100
AcDbLine
 10
240.8094619303431
 20
-55.73679052550848
 30
0.0
 11
240.8094619303431
 21
-151.7367608327298
 31
0.0
  0
LINE
  5
50A
330
1F
100
AcDbEntity
  8
A-4_寸法
  6
Continuous
 62
     7
370
     9
100
AcDbLine
 10
269.809409143181
 20
-84.73678722631081
 30
0.0
 11
269.809409143181
 21
-152.9367449965811
 31
0.0
  0
LINE
  5
50B
330
1F
100
AcDbEntity
  8
A-4_寸法
  6
Continuous
 62
     7
370
     9
100
AcDbLine
 10
-339.990395544319
 20
-200.7367740295203
 30
0.0
 11
-341.5566896215994
 21
-188.8394219655423
 31
0.0
  0
LINE
  5
50C
330
1F
100
AcDbEntity
  8
A-4_寸法
  6
Continuous
 62
     7
370
     9
100
AcDbLine
 10
-339.990395544319
 20
-200.7367740295203
 30
0.0
 11
-338.4241014670387
 21
-188.8394219655423
 31
0.0
  0
LINE
  5
50D
330
1F
100
AcDbEntity
  8
A-4_寸法
  6
Continuous
 62
     7
370
     9
100
AcDbLine
 10
-339.990395544319
 20
-210.7366090696385
 30
0.0
 11
-341.5566896215994
 21
-222.6339611336166
 31
0.0
  0
LINE
  5
50E
330
1F
100
AcDbEntity
  8
A-4_寸法
  6
Continuous
 62
     7
370
     9
100
AcDbLine
 10
-339.990395544319
 20
-210.7366090696385
 30
0.0
 11
-338.4241014670387
 21
-222.6339611336166
 31
0.0
  0
LINE
  5
50F
330
1F
100
AcDbEntity
  8
A-4_寸法
  6
Continuous
 62
     7
370
     9
100
AcDbLine
 10
-339.990395544319
 20
-178.8566107852213
 30
0.0
 11
-339.990395544319
 21
-226.1602260459899
 31
0.0
  0
LINE
  5
510
330
1F
100
AcDbEntity
  8
A-4_寸法
  6
Continuous
 62
     7
370
     9
100
AcDbLine
 10
152.6095371520491
 20
-48.53673707850681
 30
0.0
 11
152.6095371520491
 21
-46.53682945604056
 31
0.0
  0
LINE
  5
511
330
1F
100
AcDbEntity
  8
A-4_寸法
  6
Continuous
 62
     7
370
     9
100
AcDbLine
 10
152.6095371520491
 20
-46.53682945604056
 30
0.0
 11
152.6095371520491
 21
303.4632365279121
 31
0.0
  0
LINE
  5
512
330
1F
100
AcDbEntity
  8
A-4_寸法
  6
Continuous
 62
     7
370
     9
100
AcDbLine
 10
152.6095371520491
 20
303.4632365279121
 30
0.0
 11
152.6095371520491
 21
305.4631441503784
 31
0.0
  0
LINE
  5
513
330
1F
100
AcDbEntity
  8
A-4_寸法
  6
Continuous
 62
     7
370
     9
100
AcDbLine
 10
112.6095041600729
 20
308.663134912625
 30
0.0
 11
112.6095041600729
 21
-51.73677732871796
 31
0.0
  0
LINE
  5
514
330
1F
100
AcDbEntity
  8
A-4_寸法
  6
Continuous
 62
     7
370
     9
100
AcDbLine
 10
208.6095239552587
 20
303.4632365279121
 30
0.0
 11
151.4095529881979
 21
303.4632365279121
 31
0.0
  0
LINE
  5
515
330
1F
100
AcDbEntity
  8
A-4_寸法
  6
Continuous
 62
     7
370
     9
100
AcDbLine
 10
208.6095239552587
 20
305.4631441503784
 30
0.0
 11
151.4095529881979
 21
305.4631441503784
 31
0.0
  0
LINE
  5
516
330
1F
100
AcDbEntity
  8
A-4_寸法
  6
Continuous
 62
     7
370
     9
100
AcDbLine
 10
208.6095239552587
 20
-48.53673707850681
 30
0.0
 11
151.4095529881979
 21
-48.53673707850681
 31
0.0
  0
LINE
  5
517
330
1F
100
AcDbEntity
  8
A-4_寸法
  6
Continuous
 62
     7
370
     9
100
AcDbLine
 10
208.6095239552587
 20
-46.53682945604056
 30
0.0
 11
151.4095529881979
 21
-46.53682945604056
 31
0.0
  0
LINE
  5
518
330
1F
100
AcDbEntity
  8
A-4_寸法
  6
Continuous
 62
     7
370
     9
100
AcDbLine
 10
152.6095371520491
 20
303.4632365279121
 30
0.0
 11
154.1758312293296
 21
291.5659339518987
 31
0.0
  0
LINE
  5
519
330
1F
100
AcDbEntity
  8
A-4_寸法
  6
Continuous
 62
     7
370
     9
100
AcDbLine
 10
152.6095371520491
 20
303.4632365279121
 30
0.0
 11
151.0433420506979
 21
291.5659339518987
 31
0.0
  0
LINE
  5
51A
330
1F
100
AcDbEntity
  8
A-4_寸法
  6
Continuous
 62
     7
370
     9
100
AcDbLine
 10
152.6095371520491
 20
-46.53682945604056
 30
0.0
 11
151.0433420506979
 21
-34.63942790409801
 31
0.0
  0
LINE
  5
51B
330
1F
100
AcDbEntity
  8
A-4_寸法
  6
Continuous
 62
     7
370
     9
100
AcDbLine
 10
152.6095371520491
 20
-46.53682945604056
 30
0.0
 11
154.1758312293296
 21
-34.63942790409801
 31
0.0
  0
LINE
  5
51C
330
1F
100
AcDbEntity
  8
A-4_寸法
  6
Continuous
 62
     7
370
     9
100
AcDbLine
 10
112.6095041600729
 20
308.663134912625
 30
0.0
 11
114.1757982373533
 21
296.7658323366115
 31
0.0
  0
LINE
  5
51D
330
1F
100
AcDbEntity
  8
A-4_寸法
  6
Continuous
 62
     7
370
     9
100
AcDbLine
 10
112.6095041600729
 20
308.663134912625
 30
0.0
 11
111.0432100827925
 21
296.7658323366115
 31
0.0
  0
LINE
  5
51E
330
1F
100
AcDbEntity
  8
A-4_寸法
  6
Continuous
 62
     7
370
     9
100
AcDbLine
 10
112.6095041600729
 20
-51.73677732871796
 30
0.0
 11
111.0432100827925
 21
-39.83942526473988
 31
0.0
  0
LINE
  5
51F
330
1F
100
AcDbEntity
  8
A-4_寸法
  6
Continuous
 62
     7
370
     9
100
AcDbLine
 10
112.6095041600729
 20
-51.73677732871796
 30
0.0
 11
114.1757982373533
 21
-39.83942526473988
 31
0.0
  0
LINE
  5
520
330
1F
100
AcDbEntity
  8
A-4_寸法
  6
Continuous
 62
     7
370
     9
100
AcDbLine
 10
152.6095371520491
 20
305.4631441503784
 30
0.0
 11
152.6095371520491
 21
308.663134912625
 31
0.0
  0
LINE
  5
521
330
1F
100
AcDbEntity
  8
A-4_寸法
  6
Continuous
 62
     7
370
     9
100
AcDbLine
 10
208.6095239552587
 20
308.663134912625
 30
0.0
 11
111.4095199962215
 21
308.663134912625
 31
0.0
  0
LINE
  5
522
330
1F
100
AcDbEntity
  8
A-4_寸法
  6
Continuous
 62
     7
370
     9
100
AcDbLine
 10
152.6095371520491
 20
308.663134912625
 30
0.0
 11
151.0433420506979
 21
320.5604374886385
 31
0.0
  0
LINE
  5
523
330
1F
100
AcDbEntity
  8
A-4_寸法
  6
Continuous
 62
     7
370
     9
100
AcDbLine
 10
152.6095371520491
 20
308.663134912625
 30
0.0
 11
154.1758312293296
 21
320.5604374886385
 31
0.0
  0
LINE
  5
524
330
1F
100
AcDbEntity
  8
A-4_寸法
  6
Continuous
 62
     7
370
     9
100
AcDbLine
 10
152.6095371520491
 20
308.663134912625
 30
0.0
 11
152.6095371520491
 21
344.3797866229291
 31
0.0
  0
LINE
  5
525
330
1F
100
AcDbEntity
  8
A-4_寸法
  6
Continuous
 62
     7
370
     9
100
AcDbLine
 10
152.6095371520491
 20
-51.73677732871796
 30
0.0
 11
152.6095371520491
 21
-48.53673707850681
 31
0.0
  0
LINE
  5
526
330
1F
100
AcDbEntity
  8
A-4_寸法
  6
Continuous
 62
     7
370
     9
100
AcDbLine
 10
208.6095239552587
 20
-51.73677732871796
 30
0.0
 11
111.4095199962215
 21
-51.73677732871796
 31
0.0
  0
LINE
  5
527
330
1F
100
AcDbEntity
  8
A-4_寸法
  6
Continuous
 62
     7
370
     9
100
AcDbLine
 10
152.6095371520491
 20
-51.73677732871796
 30
0.0
 11
154.1758312293296
 21
-63.63412939269598
 31
0.0
  0
LINE
  5
528
330
1F
100
AcDbEntity
  8
A-4_寸法
  6
Continuous
 62
     7
370
     9
100
AcDbLine
 10
152.6095371520491
 20
-51.73677732871796
 30
0.0
 11
151.0433420506979
 21
-63.63412939269598
 31
0.0
  0
LINE
  5
529
330
1F
100
AcDbEntity
  8
A-4_寸法
  6
Continuous
 62
     7
370
     9
100
AcDbLine
 10
152.6095371520491
 20
-87.43581132365034
 30
0.0
 11
152.6095371520491
 21
-51.73677732871796
 31
0.0
  0
LWPOLYLINE
  5
52A
330
1F
100
AcDbEntity
  8
A-4_寸法
  6
Continuous
 62
     7
370
     9
100
AcDbPolyline
 90
        4
 70
     1
 43
0.8
 10
153.0095371520491
 20
-48.53673707850681
 42
0.4142135623731
 10
152.6095371520491
 20
-48.13673707850681
 42
0.4142135623731
 10
152.2095371520491
 20
-48.53673707850681
 42
0.4142135623731
 10
152.6095371520491
 20
-48.93673707850681
 42
0.4142135623731
  0
LWPOLYLINE
  5
52B
330
1F
100
AcDbEntity
  8
A-4_寸法
  6
Continuous
 62
     7
370
     9
100
AcDbPolyline
 90
        4
 70
     1
 43
0.8
 10
153.0095371520491
 20
305.4631441503784
 42
0.4142135623731
 10
152.6095371520491
 20
305.8631441503783
 42
0.4142135623731
 10
152.2095371520491
 20
305.4631441503784
 42
0.4142135623731
 10
152.6095371520491
 20
305.0631441503784
 42
0.4142135623731
  0
LWPOLYLINE
  5
52C
330
1F
100
AcDbEntity
  8
A-4_寸法
  6
Continuous
 62
     7
370
     9
100
AcDbPolyline
 90
        4
 70
     1
 43
0.8
 10
241.2094619303431
 20
-151.7367608327298
 42
0.4142135623731
 10
240.8094619303431
 20
-151.3367608327298
 42
0.4142135623731
 10
240.4094619303431
 20
-151.7367608327298
 42
0.4142135623731
 10
240.8094619303431
 20
-152.1367608327298
 42
0.4142135623731
  0
LWPOLYLINE
  5
52D
330
1F
100
AcDbEntity
  8
A-4_寸法
  6
Continuous
 62
     7
370
     9
100
AcDbPolyline
 90
        4
 70
     1
 43
0.8
 10
-527.3904658172287
 20
110.7133058110625
 42
0.4142135623731
 10
-527.7904658172287
 20
111.1133058110625
 42
0.4142135623731
 10
-528.1904658172286
 20
110.7133058110625
 42
0.4142135623731
 10
-527.7904658172287
 20
110.3133058110625
 42
0.4142135623731
  0
LWPOLYLINE
  5
52E
330
1F
100
AcDbEntity
  8
A-4_寸法
  6
Continuous
 62
     7
370
     9
100
AcDbPolyline
 90
        4
 70
     1
 43
0.8
 10
354.7131768268804
 20
-51.73667835278889
 42
0.4142135623731
 10
354.3131768268804
 20
-51.33667835278889
 42
0.4142135623731
 10
353.9131768268804
 20
-51.73667835278889
 42
0.4142135623731
 10
354.3131768268804
 20
-52.13667835278889
 42
0.4142135623731
  0
LWPOLYLINE
  5
52F
330
1F
100
AcDbEntity
  8
A-4_寸法
  6
Continuous
 62
     7
370
     9
100
AcDbPolyline
 90
        4
 70
     1
 43
0.8
 10
354.7131768268804
 20
308.663134912625
 42
0.4142135623731
 10
354.3131768268804
 20
309.063134912625
 42
0.4142135623731
 10
353.9131768268804
 20
308.663134912625
 42
0.4142135623731
 10
354.3131768268804
 20
308.263134912625
 42
0.4142135623731
  0
TEXT
  5
530
330
1F
100
AcDbEntity
  8
A-4_寸法
  6
Continuous
 62
     2
370
     9
100
AcDbText
 10
-344.2464021427143
 20
-196.0918798677804
 30
0.0
 40
12.192
  1
10
 50
90.0
 41
1.0625
  7
ＭＳ ゴシック
100
AcDbText
  0
TEXT
  5
531
330
1F
100
AcDbEntity
  8
A-4_寸法
  6
Continuous
 62
     2
370
     9
100
AcDbText
 10
-532.046472415624
 20
92.46323652791214
 30
0.0
 40
12.192
  1
20
 50
90.0
 41
1.0625
  7
ＭＳ ゴシック
100
AcDbText
  0
TEXT
  5
532
330
1F
100
AcDbEntity
  8
A-4_寸法
  6
Continuous
 62
     2
370
     9
100
AcDbText
 10
-532.0464476716417
 20
132.9145354220211
 30
0.0
 40
12.192
  1
8
 50
90.0
  7
ＭＳ ゴシック
100
AcDbText
  0
TEXT
  5
533
330
1F
100
AcDbEntity
  8
A-4_寸法
  6
Continuous
 62
     2
370
     9
100
AcDbText
 10
-450.7904410732464
 20
381.9192206917636
 30
0.0
 40
12.192
  1
100
 41
1.083333333333333
  7
ＭＳ ゴシック
100
AcDbText
  0
TEXT
  5
534
330
1F
100
AcDbEntity
  8
A-4_寸法
  6
Continuous
 62
     2
370
     9
100
AcDbText
 10
-190.3905123359153
 20
381.9192206917636
 30
0.0
 40
12.192
  1
100
 41
1.083333333333333
  7
ＭＳ ゴシック
100
AcDbText
  0
TEXT
  5
535
330
1F
100
AcDbEntity
  8
A-4_寸法
  6
Continuous
 62
     2
370
     9
100
AcDbText
 10
108.3534975616776
 20
97.4632035359358
 30
0.0
 40
12.192
  1
□360.4
 50
90.0
 41
1.107142857142857
  7
ＭＳ ゴシック
100
AcDbText
  0
TEXT
  5
536
330
1F
100
AcDbEntity
  8
A-4_寸法
  6
Continuous
 62
     2
370
     9
100
AcDbText
 10
148.3535305536539
 20
106.4632282799181
 30
0.0
 40
12.192
  1
□350
 50
90.0
 41
1.1
  7
ＭＳ ゴシック
100
AcDbText
  0
TEXT
  5
537
330
1F
100
AcDbEntity
  8
A-4_寸法
  6
Continuous
 62
     2
370
     9
100
AcDbText
 10
148.3535305536539
 20
318.5246939814594
 30
0.0
 40
12.192
  1
3.2
 50
90.0
 41
1.083333333333333
  7
ＭＳ ゴシック
100
AcDbText
  0
TEXT
  5
538
330
1F
100
AcDbEntity
  8
A-4_寸法
  6
Continuous
 62
     2
370
     9
100
AcDbText
 10
147.9211047196169
 20
294.6673578855979
 30
0.0
 40
12.192
  1
2
 50
90.0
  7
ＭＳ ゴシック
100
AcDbText
  0
TEXT
  5
539
330
1F
100
AcDbEntity
  8
A-4_寸法
  6
Continuous
 62
     2
370
     9
100
AcDbText
 10
350.057170228485
 20
314.6630590310794
 30
0.0
 40
12.192
  1
29
 50
90.0
 41
1.0625
  7
ＭＳ ゴシック
100
AcDbText
  0
TEXT
  5
53A
330
1F
100
AcDbEntity
  8
A-4_寸法
  6
Continuous
 62
     2
370
     9
100
AcDbText
 10
370.288345006779
 20
276.063218712245
 30
0.0
 40
12.192
  1
30.2
 50
90.0
 41
1.09375
  7
ＭＳ ゴシック
100
AcDbText
  0
TEXT
  5
53B
330
1F
100
AcDbEntity
  8
A-4_寸法
  6
Continuous
 62
     2
370
     9
100
AcDbText
 10
350.6873539660904
 20
135.3050204446605
 30
0.0
 40
12.192
  1
□300
 50
90.0
 41
1.1
  7
ＭＳ ゴシック
100
AcDbText
  0
TEXT
  5
53C
330
1F
100
AcDbEntity
  8
A-4_寸法
  6
Continuous
 62
     2
370
     9
100
AcDbText
 10
370.9757328340594
 20
-54.13678689639105
 30
0.0
 40
12.192
  1
30.2
 50
90.0
 41
1.09375
  7
ＭＳ ゴシック
100
AcDbText
  0
TEXT
  5
53D
330
1F
100
AcDbEntity
  8
A-4_寸法
  6
Continuous
 62
     2
370
     9
100
AcDbText
 10
350.057170228485
 20
-74.73670144717232
 30
0.0
 40
12.192
  1
29
 50
90.0
 41
1.0625
  7
ＭＳ ゴシック
100
AcDbText
  0
TEXT
  5
53E
330
1F
100
AcDbEntity
  8
A-4_寸法
  6
Continuous
 62
     2
370
     9
100
AcDbText
 10
216.6094546721084
 20
-107.4807707303227
 30
0.0
 40
12.192
  1
25
 41
1.0625
  7
ＭＳ ゴシック
100
AcDbText
  0
TEXT
  5
53F
330
1F
100
AcDbEntity
  8
A-4_寸法
  6
Continuous
 62
     2
370
     9
100
AcDbText
 10
148.3535305536539
 20
-86.25325352170779
 30
0.0
 40
12.192
  1
3.2
 50
90.0
 41
1.083333333333333
  7
ＭＳ ゴシック
100
AcDbText
  0
TEXT
  5
540
330
1F
100
AcDbEntity
  8
A-4_寸法
  6
Continuous
 62
     2
370
     9
100
AcDbText
 10
148.3535305536539
 20
-44.25757382101103
 30
0.0
 40
12.192
  1
2
 50
90.0
  7
ＭＳ ゴシック
100
AcDbText
  0
TEXT
  5
541
330
1F
100
AcDbEntity
  8
A-4_寸法
  6
Continuous
 62
     2
370
     9
100
AcDbText
 10
176.1319420031895
 20
-147.4807542343345
 30
0.0
 40
12.192
  1
28.2
 41
1.09375
  7
ＭＳ ゴシック
100
AcDbText
  0
TEXT
  5
542
330
1F
100
AcDbEntity
  8
A-4_寸法
  6
Continuous
 62
     2
370
     9
100
AcDbText
 10
246.8093860487976
 20
-147.4807542343345
 30
0.0
 40
12.192
  1
29
 41
1.0625
  7
ＭＳ ゴシック
100
AcDbText
  0
TEXT
  5
543
330
1F
100
AcDbEntity
  8
A-5_仕様文
  6
Continuous
 62
     7
370
     9
100
AcDbText
 10
460.345458333695
 20
22.21286570766306
 30
0.0
 40
9.144
  1
鎖：φ６×３００
 41
1.145833333333333
  7
ＭＳ ゴシック
100
AcDbText
  0
TEXT
  5
544
330
1F
100
AcDbEntity
  8
A-5_仕様文
  6
Continuous
 62
     7
370
     9
100
AcDbText
 10
434.7081839411749
 20
2.36597060483205
 30
0.0
 40
9.144
  1
ＳＷＲＭ，溶融亜鉛めっき
 41
1.152777777777778
  7
ＭＳ ゴシック
100
AcDbText
  0
TEXT
  5
545
330
1F
100
AcDbEntity
  8
A-5_仕様文
  6
Continuous
 62
     7
370
     9
100
AcDbText
 10
426.4103864084244
 20
-31.65727814287823
 30
0.0
 40
9.144
  1
シャックル：呼び６
 41
1.148148148148148
  7
ＭＳ ゴシック
100
AcDbText
  0
TEXT
  5
546
330
1F
100
AcDbEntity
  8
A-5_仕様文
  6
Continuous
 62
     7
370
     9
100
AcDbText
 10
409.6632925018881
 20
-51.03162812421326
 30
0.0
 40
9.144
  1
Ｓ２０Ｃ，溶融亜鉛めっき
 41
1.152777777777778
  7
ＭＳ ゴシック
100
AcDbText
  0
ENDSEC
  0
SECTION
  2
OBJECTS
  0
DICTIONARY
  5
C
330
0
100
AcDbDictionary
281
     1
  3
ACAD_DETAILVIEWSTYLE
350
54E
  3
ACAD_GROUP
350
D
  3
ACAD_LAYOUT
350
1A
  3
ACAD_MATERIAL
350
43
  3
ACAD_MLEADERSTYLE
350
6B
  3
ACAD_MLINESTYLE
350
17
  3
ACAD_PLOTSETTINGS
350
19
  3
ACAD_PLOTSTYLENAME
350
E
  3
ACAD_SCALELIST
350
47
  3
ACAD_SECTIONVIEWSTYLE
350
54F
  3
ACAD_TABLESTYLE
350
69
  3
ACAD_VISUALSTYLE
350
2A
  3
ACDB_RECOMPOSE_DATA
350
54B
  3
AcDbVariableDictionary
350
547
  0
SUN
  5
6D
330
29
100
AcDbSun
 90
        1
290
     0
 63
     7
421
 16777215
 40
1.0
291
     1
 91
  2455826
 92
 54000000
292
     0
 70
     2
 71
   256
280
     1
  0
DICTIONARY
  5
54E
102
{ACAD_REACTORS
330
C
102
}
330
C
100
AcDbDictionary
281
     1
  0
DICTIONARY
  5
D
102
{ACAD_REACTORS
330
C
102
}
330
C
100
AcDbDictionary
281
     1
  0
DICTIONARY
  5
1A
102
{ACAD_REACTORS
330
C
102
}
330
C
100
AcDbDictionary
281
     1
  3
Layout1
350
1E
  3
Layout2
350
26
  3
Model
350
22
  0
DICTIONARY
  5
43
102
{ACAD_REACTORS
330
C
102
}
330
C
100
AcDbDictionary
281
     1
  3
ByBlock
350
45
  3
ByLayer
350
44
  3
Global
350
46
  0
DICTIONARY
  5
6B
102
{ACAD_REACTORS
330
C
102
}
330
C
100
AcDbDictionary
281
     1
  3
Standard
350
6C
  0
DICTIONARY
  5
17
102
{ACAD_REACTORS
330
C
102
}
330
C
100
AcDbDictionary
281
     1
  3
Standard
350
18
  0
DICTIONARY
  5
19
102
{ACAD_REACTORS
330
C
102
}
330
C
100
AcDbDictionary
281
     1
  0
ACDBDICTIONARYWDFLT
  5
E
102
{ACAD_REACTORS
330
C
102
}
330
C
100
AcDbDictionary
281
     1
  3
Normal
350
F
100
AcDbDictionaryWithDefault
340
F
  0
DICTIONARY
  5
47
102
{ACAD_REACTORS
330
C
102
}
330
C
100
AcDbDictionary
281
     1
  3
A0
350
48
  3
A1
350
49
  3
A2
350
4A
  3
A3
350
4B
  3
A4
350
4C
  3
A5
350
4D
  3
A6
350
4E
  3
A7
350
4F
  3
A8
350
50
  3
A9
350
51
  3
B0
350
52
  3
B1
350
53
  3
B2
350
54
  3
B3
350
55
  3
B4
350
56
  3
B5
350
57
  3
B6
350
58
  3
B7
350
59
  3
B8
350
5A
  3
B9
350
5B
  3
C0
350
5C
  3
C1
350
5D
  3
C2
350
5E
  3
C3
350
5F
  3
C4
350
60
  3
C5
350
61
  3
C6
350
62
  3
C7
350
63
  3
C8
350
64
  3
C9
350
65
  3
D0
350
66
  3
D1
350
67
  3
D2
350
68
  0
DICTIONARY
  5
54F
102
{ACAD_REACTORS
330
C
102
}
330
C
100
AcDbDictionary
281
     1
  0
DICTIONARY
  5
69
102
{ACAD_REACTORS
330
C
102
}
330
C
100
AcDbDictionary
281
     1
  3
Standard
350
6A
  0
DICTIONARY
  5
2A
102
{ACAD_REACTORS
330
C
102
}
330
C
100
AcDbDictionary
281
     1
  3
2dWireframe
350
2F
  3
Basic
350
32
  3
Brighten
350
36
  3
ColorChange
350
3A
  3
Conceptual
350
34
  3
Dim
350
35
  3
EdgeColorOff
350
3D
  3
Facepattern
350
39
  3
Flat
350
2B
  3
FlatWithEdges
350
2C
  3
Gouraud
350
2D
  3
GouraudWithEdges
350
2E
  3
Hidden
350
31
  3
JitterOff
350
3B
  3
Linepattern
350
38
  3
OverhangOff
350
3C
  3
Realistic
350
33
  3
Shaded
350
42
  3
Shaded with edges
350
41
  3
Shades of Gray
350
3E
  3
Sketchy
350
3F
  3
Thicken
350
37
  3
Wireframe
350
30
  3
X-Ray
350
40
  0
XRECORD
  5
54B
102
{ACAD_REACTORS
330
C
102
}
330
C
100
AcDbXrecord
280
     1
 90
        1
330
6A
  0
DICTIONARY
  5
547
102
{ACAD_REACTORS
330
C
102
}
330
C
100
AcDbDictionary
281
     1
  3
CANNOSCALE
350
548
  3
CENTEREXE
350
550
  3
CENTERLTYPEFILE
350
551
  3
CMLEADERSTYLE
350
54D
  3
CTABLESTYLE
350
54C
  0
LAYOUT
  5
1E
102
{ACAD_REACTORS
330
1A
102
}
330
1A
100
AcDbPlotSettings
  1

  2
none_device
  4

  6

 40
0.0
 41
0.0
 42
0.0
 43
0.0
 44
0.0
 45
0.0
 46
0.0
 47
0.0
 48
0.0
 49
0.0
140
0.0
141
0.0
142
1.0
143
1.0
 70
   688
 72
     1
 73
     0
 74
     5
  7

 75
    16
 76
     0
 77
     5
 78
   300
147
1.0
148
0.0
149
0.0
100
AcDbLayout
  1
Layout1
 70
     1
 71
     1
 10
0.0
 20
0.0
 11
420.0
 21
297.0
 12
0.0
 22
0.0
 32
0.0
 14
1.000000000000000E+20
 24
1.000000000000000E+20
 34
1.000000000000000E+20
 15
-1.000000000000000E+20
 25
-1.000000000000000E+20
 35
-1.000000000000000E+20
146
0.0
 13
0.0
 23
0.0
 33
0.0
 16
1.0
 26
0.0
 36
0.0
 17
0.0
 27
1.0
 37
0.0
 76
     0
330
1B
  0
LAYOUT
  5
26
102
{ACAD_REACTORS
330
1A
102
}
330
1A
100
AcDbPlotSettings
  1

  2
none_device
  4

  6

 40
0.0
 41
0.0
 42
0.0
 43
0.0
 44
0.0
 45
0.0
 46
0.0
 47
0.0
 48
0.0
 49
0.0
140
0.0
141
0.0
142
1.0
143
1.0
 70
   688
 72
     1
 73
     0
 74
     5
  7

 75
    16
 76
     0
 77
     5
 78
   300
147
1.0
148
0.0
149
0.0
100
AcDbLayout
  1
Layout2
 70
     1
 71
     2
 10
0.0
 20
0.0
 11
0.0
 21
0.0
 12
0.0
 22
0.0
 32
0.0
 14
0.0
 24
0.0
 34
0.0
 15
0.0
 25
0.0
 35
0.0
146
0.0
 13
0.0
 23
0.0
 33
0.0
 16
1.0
 26
0.0
 36
0.0
 17
0.0
 27
1.0
 37
0.0
 76
     0
330
23
  0
LAYOUT
  5
22
102
{ACAD_REACTORS
330
1A
102
}
330
1A
100
AcDbPlotSettings
  1

  2
none_device
  4
Letter_(8.50_x_11.00_Inches)
  6

 40
6.35
 41
6.35
 42
6.35000508
 43
6.35000508
 44
215.9
 45
279.4
 46
0.0
 47
0.0
 48
0.0
 49
0.0
140
0.0
141
0.0
142
1.0
143
1.0
 70
  1712
 72
     1
 73
     0
 74
     0
  7

 75
     0
 76
     0
 77
     5
 78
   300
147
1.0
148
0.0
149
0.0
100
AcDbLayout
  1
Model
 70
     1
 71
     0
 10
-840.0
 20
-594.0
 11
840.0
 21
594.0
 12
0.0
 22
0.0
 32
0.0
 14
-840.0
 24
-594.0
 34
0.0
 15
840.0
 25
594.0
 35
0.0
146
0.0
 13
0.0
 23
0.0
 33
0.0
 16
1.0
 26
0.0
 36
0.0
 17
0.0
 27
1.0
 37
0.0
 76
     0
330
1F
331
29
  0
MATERIAL
  5
45
102
{ACAD_REACTORS
330
43
102
}
330
43
100
AcDbMaterial
  1
ByBlock
 72
     1
 94
      127
  0
MATERIAL
  5
44
102
{ACAD_REACTORS
330
43
102
}
330
43
100
AcDbMaterial
  1
ByLayer
 72
     1
 94
      127
  0
MATERIAL
  5
46
102
{ACAD_REACTORS
330
43
102
}
330
43
100
AcDbMaterial
  1
Global
 72
     1
 94
      127
  0
MLEADERSTYLE
  5
6C
102
{ACAD_REACTORS
330
6B
102
}
330
6B
100
AcDbMLeaderStyle
179
     2
170
     2
171
     1
172
     0
 90
        2
 40
0.0
 41
0.0
173
     1
 91
-1056964608
340
14
 92
       -2
290
     1
 42
2.0
291
     1
 43
8.0
  3
Standard
341
0
 44
4.0
300

342
11
174
     1
178
     6
175
     1
176
     0
 93
-1056964608
 45
4.0
292
     0
297
     0
 46
4.0
343
0
 94
-1056964608
 47
1.0
 49
1.0
140
1.0
293
     1
141
0.0
294
     1
177
     0
142
1.0
295
     0
296
     0
143
3.75
271
     0
272
     9
273
     9
298
     0
  0
MLINESTYLE
  5
18
102
{ACAD_REACTORS
330
17
102
}
330
17
100
AcDbMlineStyle
  2
Standard
 70
     0
  3

 62
   256
 51
90.0
 52
90.0
 71
     2
 49
0.5
 62
   256
  6
BYLAYER
 49
-0.5
 62
   256
  6
BYLAYER
  0
ACDBPLACEHOLDER
  5
F
102
{ACAD_REACTORS
330
E
102
}
330
E
  0
SCALE
  5
48
102
{ACAD_REACTORS
330
47
102
}
330
47
100
AcDbScale
 70
     0
300
1:1
140
1.0
141
1.0
290
     1
  0
SCALE
  5
49
102
{ACAD_REACTORS
330
47
102
}
330
47
100
AcDbScale
 70
     0
300
1:2
140
1.0
141
2.0
290
     0
  0
SCALE
  5
4A
102
{ACAD_REACTORS
330
47
102
}
330
47
100
AcDbScale
 70
     0
300
1:4
140
1.0
141
4.0
290
     0
  0
SCALE
  5
4B
102
{ACAD_REACTORS
330
47
102
}
330
47
100
AcDbScale
 70
     0
300
1:5
140
1.0
141
5.0
290
     0
  0
SCALE
  5
4C
102
{ACAD_REACTORS
330
47
102
}
330
47
100
AcDbScale
 70
     0
300
1:8
140
1.0
141
8.0
290
     0
  0
SCALE
  5
4D
102
{ACAD_REACTORS
330
47
102
}
330
47
100
AcDbScale
 70
     0
300
1:10
140
1.0
141
10.0
290
     0
  0
SCALE
  5
4E
102
{ACAD_REACTORS
330
47
102
}
330
47
100
AcDbScale
 70
     0
300
1:16
140
1.0
141
16.0
290
     0
  0
SCALE
  5
4F
102
{ACAD_REACTORS
330
47
102
}
330
47
100
AcDbScale
 70
     0
300
1:20
140
1.0
141
20.0
290
     0
  0
SCALE
  5
50
102
{ACAD_REACTORS
330
47
102
}
330
47
100
AcDbScale
 70
     0
300
1:30
140
1.0
141
30.0
290
     0
  0
SCALE
  5
51
102
{ACAD_REACTORS
330
47
102
}
330
47
100
AcDbScale
 70
     0
300
1:40
140
1.0
141
40.0
290
     0
  0
SCALE
  5
52
102
{ACAD_REACTORS
330
47
102
}
330
47
100
AcDbScale
 70
     0
300
1:50
140
1.0
141
50.0
290
     0
  0
SCALE
  5
53
102
{ACAD_REACTORS
330
47
102
}
330
47
100
AcDbScale
 70
     0
300
1:100
140
1.0
141
100.0
290
     0
  0
SCALE
  5
54
102
{ACAD_REACTORS
330
47
102
}
330
47
100
AcDbScale
 70
     0
300
2:1
140
2.0
141
1.0
290
     0
  0
SCALE
  5
55
102
{ACAD_REACTORS
330
47
102
}
330
47
100
AcDbScale
 70
     0
300
4:1
140
4.0
141
1.0
290
     0
  0
SCALE
  5
56
102
{ACAD_REACTORS
330
47
102
}
330
47
100
AcDbScale
 70
     0
300
8:1
140
8.0
141
1.0
290
     0
  0
SCALE
  5
57
102
{ACAD_REACTORS
330
47
102
}
330
47
100
AcDbScale
 70
     0
300
10:1
140
10.0
141
1.0
290
     0
  0
SCALE
  5
58
102
{ACAD_REACTORS
330
47
102
}
330
47
100
AcDbScale
 70
     0
300
100:1
140
100.0
141
1.0
290
     0
  0
SCALE
  5
59
102
{ACAD_REACTORS
330
47
102
}
330
47
100
AcDbScale
 70
     0
300
1/128" = 1'-0"
140
0.0078125
141
12.0
290
     0
  0
SCALE
  5
5A
102
{ACAD_REACTORS
330
47
102
}
330
47
100
AcDbScale
 70
     0
300
1/64" = 1'-0"
140
0.015625
141
12.0
290
     0
  0
SCALE
  5
5B
102
{ACAD_REACTORS
330
47
102
}
330
47
100
AcDbScale
 70
     0
300
1/32" = 1'-0"
140
0.03125
141
12.0
290
     0
  0
SCALE
  5
5C
102
{ACAD_REACTORS
330
47
102
}
330
47
100
AcDbScale
 70
     0
300
1/16" = 1'-0"
140
0.0625
141
12.0
290
     0
  0
SCALE
  5
5D
102
{ACAD_REACTORS
330
47
102
}
330
47
100
AcDbScale
 70
     0
300
3/32" = 1'-0"
140
0.09375
141
12.0
290
     0
  0
SCALE
  5
5E
102
{ACAD_REACTORS
330
47
102
}
330
47
100
AcDbScale
 70
     0
300
1/8" = 1'-0"
140
0.125
141
12.0
290
     0
  0
SCALE
  5
5F
102
{ACAD_REACTORS
330
47
102
}
330
47
100
AcDbScale
 70
     0
300
3/16" = 1'-0"
140
0.1875
141
12.0
290
     0
  0
SCALE
  5
60
102
{ACAD_REACTORS
330
47
102
}
330
47
100
AcDbScale
 70
     0
300
1/4" = 1'-0"
140
0.25
141
12.0
290
     0
  0
SCALE
  5
61
102
{ACAD_REACTORS
330
47
102
}
330
47
100
AcDbScale
 70
     0
300
3/8" = 1'-0"
140
0.375
141
12.0
290
     0
  0
SCALE
  5
62
102
{ACAD_REACTORS
330
47
102
}
330
47
100
AcDbScale
 70
     0
300
1/2" = 1'-0"
140
0.5
141
12.0
290
     0
  0
SCALE
  5
63
102
{ACAD_REACTORS
330
47
102
}
330
47
100
AcDbScale
 70
     0
300
3/4" = 1'-0"
140
0.75
141
12.0
290
     0
  0
SCALE
  5
64
102
{ACAD_REACTORS
330
47
102
}
330
47
100
AcDbScale
 70
     0
300
1" = 1'-0"
140
1.0
141
12.0
290
     0
  0
SCALE
  5
65
102
{ACAD_REACTORS
330
47
102
}
330
47
100
AcDbScale
 70
     0
300
1-1/2" = 1'-0"
140
1.5
141
12.0
290
     0
  0
SCALE
  5
66
102
{ACAD_REACTORS
330
47
102
}
330
47
100
AcDbScale
 70
     0
300
3" = 1'-0"
140
3.0
141
12.0
290
     0
  0
SCALE
  5
67
102
{ACAD_REACTORS
330
47
102
}
330
47
100
AcDbScale
 70
     0
300
6" = 1'-0"
140
6.0
141
12.0
290
     0
  0
SCALE
  5
68
102
{ACAD_REACTORS
330
47
102
}
330
47
100
AcDbScale
 70
     0
300
1'-0" = 1'-0"
140
12.0
141
12.0
290
     0
  0
TABLESTYLE
  5
6A
102
{ACAD_REACTORS
330
69
102
}
102
{ACAD_XDICTIONARY
360
549
102
}
330
69
100
AcDbTableStyle
  3
Standard
 70
     0
 71
     0
 40
0.06
 41
0.06
280
     0
281
     0
  7
Standard
140
4.5
170
     2
 62
     0
 63
   257
283
     0
 90
        4
 91
        0
  1

274
    -2
284
     1
 64
     0
275
    -2
285
     1
 65
     0
276
    -2
286
     1
 66
     0
277
    -2
287
     1
 67
     0
278
    -2
288
     1
 68
     0
279
    -2
289
     1
 69
     0
  7
Standard
140
6.0
170
     5
 62
     0
 63
   257
283
     0
 90
        4
 91
        0
  1

274
    -2
284
     1
 64
     0
275
    -2
285
     1
 65
     0
276
    -2
286
     1
 66
     0
277
    -2
287
     1
 67
     0
278
    -2
288
     1
 68
     0
279
    -2
289
     1
 69
     0
  7
Standard
140
4.5
170
     5
 62
     0
 63
   257
283
     0
 90
        4
 91
        0
  1

274
    -2
284
     1
 64
     0
275
    -2
285
     1
 65
     0
276
    -2
286
     1
 66
     0
277
    -2
287
     1
 67
     0
278
    -2
288
     1
 68
     0
279
    -2
289
     1
 69
     0
  0
VISUALSTYLE
  5
2F
102
{ACAD_REACTORS
330
2A
102
}
330
2A
100
AcDbVisualStyle
  2
2dWireframe
 70
     4
177
     3
291
     0
 70
    58
 90
        0
176
     1
 90
        2
176
     1
 90
        0
176
     1
 90
        0
176
     1
 40
0.6
176
     1
 40
30.0
176
     1
 62
     7
420
 16777215
176
     1
 90
        1
176
     1
 90
        4
176
     1
 62
     7
176
     1
 62
   257
176
     1
 90
        1
176
     1
 90
        1
176
     1
 40
1.0
176
     1
 90
        0
176
     1
 62
   257
176
     1
 40
1.0
176
     1
 90
        1
176
     1
 90
        6
176
     1
 90
        2
176
     1
 62
     7
176
     1
 90
        5
176
     1
 90
        0
176
     1
 90
        0
176
     1
290
     0
176
     1
 90
        1
176
     1
 40
0.0
176
     1
 90
        0
176
     1
290
     1
176
     1
290
     1
176
     1
290
     0
176
     1
290
     0
176
     1
290
     0
176
     1
290
     0
176
     1
290
     0
176
     1
290
     0
176
     1
290
     0
176
     1
 90
       50
176
     1
 40
0.0
176
     1
 40
1.0
176
     1
 90
        0
176
     1
 62
    18
420
        0
176
     1
 90
       50
176
     1
 90
        3
176
     1
 62
     5
420
      255
176
     1
290
     0
176
     1
 90
       50
176
     1
 90
       50
176
     1
 90
       50
176
     1
290
     0
176
     1
 90
       50
176
     1
 62
   256
176
     0
 40
1.0
176
     0
 90
        2
176
     1
  1
strokes_ogs.tif
176
     1
290
     0
176
     1
 40
1.0
176
     1
 40
1.0
176
     1
  0
VISUALSTYLE
  5
32
102
{ACAD_REACTORS
330
2A
102
}
330
2A
100
AcDbVisualStyle
  2
Basic
 70
     7
177
     3
291
     1
 70
    58
 90
        1
176
     1
 90
        0
176
     1
 90
        1
176
     1
 90
        0
176
     1
 40
0.6
176
     1
 40
30.0
176
     1
 62
     7
420
 16777215
176
     1
 90
        0
176
     1
 90
        4
176
     1
 62
     7
176
     1
 62
   257
176
     1
 90
        1
176
     1
 90
        1
176
     1
 40
1.0
176
     1
 90
        8
176
     1
 62
     7
176
     1
 40
1.0
176
     1
 90
        1
176
     1
 90
        6
176
     1
 90
        2
176
     1
 62
     7
176
     1
 90
        5
176
     1
 90
        0
176
     1
 90
        0
176
     1
290
     0
176
     1
 90
        1
176
     1
 40
0.0
176
     1
 90
        0
176
     1
290
     0
176
     1
290
     1
176
     1
290
     1
176
     1
290
     0
176
     1
290
     0
176
     1
290
     0
176
     1
290
     0
176
     1
290
     0
176
     1
290
     0
176
     1
 90
       50
176
     1
 40
0.0
176
     1
 40
1.0
176
     1
 90
        0
176
     1
 62
    18
420
        0
176
     1
 90
       50
176
     1
 90
        3
176
     1
 62
     5
420
      255
176
     1
290
     0
176
     1
 90
       50
176
     1
 90
       50
176
     1
 90
       50
176
     1
290
     0
176
     1
 90
       50
176
     1
 62
   256
176
     0
 40
1.0
176
     0
 90
        2
176
     1
  1
strokes_ogs.tif
176
     1
290
     0
176
     1
 40
1.0
176
     1
 40
1.0
176
     1
  0
VISUALSTYLE
  5
36
102
{ACAD_REACTORS
330
2A
102
}
330
2A
100
AcDbVisualStyle
  2
Brighten
 70
    12
177
     3
291
     1
 70
    58
 90
        2
176
     1
 90
        2
176
     1
 90
        0
176
     1
 90
        0
176
     1
 40
0.6
176
     1
 40
30.0
176
     1
 62
     7
420
 16777215
176
     1
 90
        1
176
     1
 90
        4
176
     1
 62
     7
176
     1
 62
   257
176
     1
 90
        1
176
     1
 90
        1
176
     1
 40
1.0
176
     1
 90
        8
176
     1
 62
     7
176
     1
 40
1.0
176
     1
 90
        1
176
     1
 90
        6
176
     1
 90
        2
176
     1
 62
     7
176
     1
 90
        5
176
     1
 90
        0
176
     1
 90
        0
176
     1
290
     0
176
     1
 90
        1
176
     1
 40
50.0
176
     1
 90
        0
176
     1
290
     0
176
     1
290
     1
176
     1
290
     1
176
     1
290
     0
176
     1
290
     0
176
     1
290
     0
176
     1
290
     0
176
     1
290
     0
176
     1
290
     0
176
     1
 90
       50
176
     1
 40
0.0
176
     1
 40
1.0
176
     1
 90
        0
176
     1
 62
    18
420
        0
176
     1
 90
       50
176
     1
 90
        3
176
     1
 62
     5
420
      255
176
     1
290
     0
176
     1
 90
       50
176
     1
 90
       50
176
     1
 90
       50
176
     1
290
     0
176
     1
 90
       50
176
     1
 62
   256
176
     0
 40
1.0
176
     0
 90
        2
176
     1
  1
strokes_ogs.tif
176
     1
290
     0
176
     1
 40
1.0
176
     1
 40
1.0
176
     1
  0
VISUALSTYLE
  5
3A
102
{ACAD_REACTORS
330
2A
102
}
330
2A
100
AcDbVisualStyle
  2
ColorChange
 70
    16
177
     3
291
     1
 70
    58
 90
        2
176
     1
 90
        2
176
     1
 90
        3
176
     1
 90
        0
176
     1
 40
0.6
176
     1
 40
30.0
176
     1
 62
     8
420
  8421504
176
     1
 90
        1
176
     1
 90
        4
176
     1
 62
     7
176
     1
 62
   257
176
     1
 90
        1
176
     1
 90
        1
176
     1
 40
1.0
176
     1
 90
        8
176
     1
 62
     8
420
  8421504
176
     1
 40
1.0
176
     1
 90
        1
176
     1
 90
        6
176
     1
 90
        2
176
     1
 62
     7
176
     1
 90
        5
176
     1
 90
        0
176
     1
 90
        0
176
     1
290
     0
176
     1
 90
        1
176
     1
 40
0.0
176
     1
 90
        0
176
     1
290
     0
176
     1
290
     1
176
     1
290
     1
176
     1
290
     0
176
     1
290
     0
176
     1
290
     0
176
     1
290
     0
176
     1
290
     0
176
     1
290
     0
176
     1
 90
       50
176
     1
 40
0.0
176
     1
 40
1.0
176
     1
 90
        0
176
     1
 62
    18
420
        0
176
     1
 90
       50
176
     1
 90
        3
176
     1
 62
     5
420
      255
176
     1
290
     0
176
     1
 90
       50
176
     1
 90
       50
176
     1
 90
       50
176
     1
290
     0
176
     1
 90
       50
176
     1
 62
   256
176
     0
 40
1.0
176
     0
 90
        2
176
     1
  1
strokes_ogs.tif
176
     1
290
     0
176
     1
 40
1.0
176
     1
 40
1.0
176
     1
  0
VISUALSTYLE
  5
34
102
{ACAD_REACTORS
330
2A
102
}
330
2A
100
AcDbVisualStyle
  2
Conceptual
 70
     9
177
     3
291
     0
 70
    58
 90
        3
176
     1
 90
        2
176
     1
 90
        0
176
     1
 90
        0
176
     1
 40
0.6
176
     1
 40
30.0
176
     1
 62
     7
420
 16777215
176
     1
 90
        2
176
     1
 90
        2
176
     1
 62
     7
176
     1
 62
   257
176
     1
 90
        1
176
     1
 90
        1
176
     1
 40
179.0
176
     1
 90
        8
176
     1
 62
     7
176
     1
 40
1.0
176
     1
 90
        1
176
     1
 90
        6
176
     1
 90
        2
176
     1
 62
     7
176
     1
 90
        3
176
     1
 90
        0
176
     1
 90
        0
176
     1
290
     0
176
     1
 90
        1
176
     1
 40
0.0
176
     1
 90
        0
176
     1
290
     0
176
     1
290
     1
176
     1
290
     1
176
     1
290
     0
176
     1
290
     0
176
     1
290
     0
176
     1
290
     0
176
     1
290
     0
176
     1
290
     0
176
     1
 90
       50
176
     1
 40
0.0
176
     1
 40
1.0
176
     1
 90
        0
176
     1
 62
    18
420
        0
176
     1
 90
       50
176
     1
 90
        3
176
     1
 62
     5
420
      255
176
     1
290
     0
176
     1
 90
       50
176
     1
 90
       50
176
     1
 90
       50
176
     1
290
     0
176
     1
 90
       50
176
     1
 62
   256
176
     0
 40
1.0
176
     0
 90
        2
176
     1
  1
strokes_ogs.tif
176
     1
290
     0
176
     1
 40
1.0
176
     1
 40
1.0
176
     1
  0
VISUALSTYLE
  5
35
102
{ACAD_REACTORS
330
2A
102
}
330
2A
100
AcDbVisualStyle
  2
Dim
 70
    11
177
     3
291
     1
 70
    58
 90
        2
176
     1
 90
        2
176
     1
 90
        0
176
     1
 90
        0
176
     1
 40
0.6
176
     1
 40
30.0
176
     1
 62
     7
420
 16777215
176
     1
 90
        1
176
     1
 90
        4
176
     1
 62
     7
176
     1
 62
   257
176
     1
 90
        1
176
     1
 90
        1
176
     1
 40
1.0
176
     1
 90
        8
176
     1
 62
     7
176
     1
 40
1.0
176
     1
 90
        1
176
     1
 90
        6
176
     1
 90
        2
176
     1
 62
     7
176
     1
 90
        5
176
     1
 90
        0
176
     1
 90
        0
176
     1
290
     0
176
     1
 90
        1
176
     1
 40
-50.0
176
     1
 90
        0
176
     1
290
     0
176
     1
290
     1
176
     1
290
     1
176
     1
290
     0
176
     1
290
     0
176
     1
290
     0
176
     1
290
     0
176
     1
290
     0
176
     1
290
     0
176
     1
 90
       50
176
     1
 40
0.0
176
     1
 40
1.0
176
     1
 90
        0
176
     1
 62
    18
420
        0
176
     1
 90
       50
176
     1
 90
        3
176
     1
 62
     5
420
      255
176
     1
290
     0
176
     1
 90
       50
176
     1
 90
       50
176
     1
 90
       50
176
     1
290
     0
176
     1
 90
       50
176
     1
 62
   256
176
     0
 40
1.0
176
     0
 90
        2
176
     1
  1
strokes_ogs.tif
176
     1
290
     0
176
     1
 40
1.0
176
     1
 40
1.0
176
     1
  0
VISUALSTYLE
  5
3D
102
{ACAD_REACTORS
330
2A
102
}
330
2A
100
AcDbVisualStyle
  2
EdgeColorOff
 70
    22
177
     3
291
     1
 70
    58
 90
        2
176
     0
 90
        2
176
     0
 90
        0
176
     0
 90
        0
176
     0
 40
0.6
176
     0
 40
30.0
176
     0
 62
     7
420
 16777215
176
     0
 90
        1
176
     0
 90
        4
176
     0
 62
     7
176
     0
 62
   257
176
     0
 90
        1
176
     0
 90
        1
176
     0
 40
1.0
176
     0
 90
        8
176
     2
 62
     7
176
     0
 40
1.0
176
     0
 90
        1
176
     0
 90
        6
176
     0
 90
        2
176
     0
 62
     7
176
     0
 90
        5
176
     0
 90
        0
176
     0
 90
        0
176
     0
290
     0
176
     0
 90
        1
176
     0
 40
0.0
176
     0
 90
        0
176
     0
290
     0
176
     0
290
     1
176
     0
290
     1
176
     0
290
     0
176
     0
290
     0
176
     0
290
     0
176
     0
290
     0
176
     0
290
     0
176
     0
290
     0
176
     0
 90
       50
176
     0
 40
0.0
176
     0
 40
1.0
176
     0
 90
        0
176
     0
 62
    18
420
        0
176
     0
 90
       50
176
     0
 90
        3
176
     0
 62
     5
420
      255
176
     0
290
     0
176
     0
 90
       50
176
     0
 90
       50
176
     0
 90
       50
176
     0
290
     0
176
     0
 90
       50
176
     0
 62
   256
176
     0
 40
1.0
176
     0
 90
        2
176
     0
  1
strokes_ogs.tif
176
     0
290
     0
176
     0
 40
1.0
176
     0
 40
1.0
176
     0
  0
VISUALSTYLE
  5
39
102
{ACAD_REACTORS
330
2A
102
}
330
2A
100
AcDbVisualStyle
  2
Facepattern
 70
    15
177
     3
291
     1
 70
    58
 90
        2
176
     1
 90
        2
176
     1
 90
        0
176
     1
 90
        0
176
     1
 40
0.6
176
     1
 40
30.0
176
     1
 62
     7
420
 16777215
176
     1
 90
        1
176
     1
 90
        4
176
     1
 62
     7
176
     1
 62
   257
176
     1
 90
        1
176
     1
 90
        1
176
     1
 40
1.0
176
     1
 90
        8
176
     1
 62
     7
176
     1
 40
1.0
176
     1
 90
        1
176
     1
 90
        6
176
     1
 90
        2
176
     1
 62
     7
176
     1
 90
        5
176
     1
 90
        0
176
     1
 90
        0
176
     1
290
     0
176
     1
 90
        1
176
     1
 40
0.0
176
     1
 90
        0
176
     1
290
     0
176
     1
290
     1
176
     1
290
     1
176
     1
290
     0
176
     1
290
     0
176
     1
290
     0
176
     1
290
     0
176
     1
290
     0
176
     1
290
     0
176
     1
 90
       50
176
     1
 40
0.0
176
     1
 40
1.0
176
     1
 90
        0
176
     1
 62
    18
420
        0
176
     1
 90
       50
176
     1
 90
        3
176
     1
 62
     5
420
      255
176
     1
290
     0
176
     1
 90
       50
176
     1
 90
       50
176
     1
 90
       50
176
     1
290
     0
176
     1
 90
       50
176
     1
 62
   256
176
     0
 40
1.0
176
     0
 90
        2
176
     1
  1
strokes_ogs.tif
176
     1
290
     0
176
     1
 40
1.0
176
     1
 40
1.0
176
     1
  0
VISUALSTYLE
  5
2B
102
{ACAD_REACTORS
330
2A
102
}
330
2A
100
AcDbVisualStyle
  2
Flat
 70
     0
177
     3
291
     1
 70
    58
 90
        2
176
     1
 90
        1
176
     1
 90
        1
176
     1
 90
        2
176
     1
 40
0.6
176
     1
 40
30.0
176
     1
 62
     7
420
 16777215
176
     1
 90
        0
176
     1
 90
        0
176
     1
 62
     7
176
     1
 62
   257
176
     1
 90
        1
176
     1
 90
        1
176
     1
 40
1.0
176
     1
 90
        8
176
     1
 62
     7
176
     1
 40
1.0
176
     1
 90
        1
176
     1
 90
        6
176
     1
 90
        2
176
     1
 62
     7
176
     1
 90
        5
176
     1
 90
        0
176
     1
 90
        0
176
     1
290
     0
176
     1
 90
       13
176
     1
 40
0.0
176
     1
 90
        0
176
     1
290
     0
176
     1
290
     1
176
     1
290
     1
176
     1
290
     0
176
     1
290
     0
176
     1
290
     0
176
     1
290
     0
176
     1
290
     0
176
     1
290
     0
176
     1
 90
       50
176
     1
 40
0.0
176
     1
 40
1.0
176
     1
 90
        0
176
     1
 62
    18
420
        0
176
     1
 90
       50
176
     1
 90
        3
176
     1
 62
     5
420
      255
176
     1
290
     0
176
     1
 90
       50
176
     1
 90
       50
176
     1
 90
       50
176
     1
290
     0
176
     1
 90
       50
176
     1
 62
   256
176
     0
 40
1.0
176
     0
 90
        2
176
     1
  1
strokes_ogs.tif
176
     1
290
     0
176
     1
 40
1.0
176
     1
 40
1.0
176
     1
  0
VISUALSTYLE
  5
2C
102
{ACAD_REACTORS
330
2A
102
}
330
2A
100
AcDbVisualStyle
  2
FlatWithEdges
 70
     1
177
     3
291
     1
 70
    58
 90
        2
176
     1
 90
        1
176
     1
 90
        1
176
     1
 90
        2
176
     1
 40
0.6
176
     1
 40
30.0
176
     1
 62
     7
420
 16777215
176
     1
 90
        1
176
     1
 90
        0
176
     1
 62
     7
176
     1
 62
   257
176
     1
 90
        1
176
     1
 90
        1
176
     1
 40
1.0
176
     1
 90
        0
176
     1
 62
   257
176
     1
 40
1.0
176
     1
 90
        1
176
     1
 90
        6
176
     1
 90
        2
176
     1
 62
     7
176
     1
 90
        5
176
     1
 90
        0
176
     1
 90
        0
176
     1
290
     0
176
     1
 90
       13
176
     1
 40
0.0
176
     1
 90
        0
176
     1
290
     0
176
     1
290
     1
176
     1
290
     1
176
     1
290
     0
176
     1
290
     0
176
     1
290
     0
176
     1
290
     0
176
     1
290
     0
176
     1
290
     0
176
     1
 90
       50
176
     1
 40
0.0
176
     1
 40
1.0
176
     1
 90
        0
176
     1
 62
    18
420
        0
176
     1
 90
       50
176
     1
 90
        3
176
     1
 62
     5
420
      255
176
     1
290
     0
176
     1
 90
       50
176
     1
 90
       50
176
     1
 90
       50
176
     1
290
     0
176
     1
 90
       50
176
     1
 62
   256
176
     0
 40
1.0
176
     0
 90
        2
176
     1
  1
strokes_ogs.tif
176
     1
290
     0
176
     1
 40
1.0
176
     1
 40
1.0
176
     1
  0
VISUALSTYLE
  5
2D
102
{ACAD_REACTORS
330
2A
102
}
330
2A
100
AcDbVisualStyle
  2
Gouraud
 70
     2
177
     3
291
     1
 70
    58
 90
        2
176
     1
 90
        2
176
     1
 90
        1
176
     1
 90
        2
176
     1
 40
0.6
176
     1
 40
30.0
176
     1
 62
     7
420
 16777215
176
     1
 90
        0
176
     1
 90
        0
176
     1
 62
     7
176
     1
 62
   257
176
     1
 90
        1
176
     1
 90
        1
176
     1
 40
1.0
176
     1
 90
        0
176
     1
 62
     7
176
     1
 40
1.0
176
     1
 90
        1
176
     1
 90
        6
176
     1
 90
        2
176
     1
 62
     7
176
     1
 90
        5
176
     1
 90
        0
176
     1
 90
        0
176
     1
290
     0
176
     1
 90
       13
176
     1
 40
0.0
176
     1
 90
        0
176
     1
290
     0
176
     1
290
     1
176
     1
290
     1
176
     1
290
     0
176
     1
290
     0
176
     1
290
     0
176
     1
290
     0
176
     1
290
     0
176
     1
290
     0
176
     1
 90
       50
176
     1
 40
0.0
176
     1
 40
1.0
176
     1
 90
        0
176
     1
 62
    18
420
        0
176
     1
 90
       50
176
     1
 90
        3
176
     1
 62
     5
420
      255
176
     1
290
     0
176
     1
 90
       50
176
     1
 90
       50
176
     1
 90
       50
176
     1
290
     0
176
     1
 90
       50
176
     1
 62
   256
176
     0
 40
1.0
176
     0
 90
        2
176
     1
  1
strokes_ogs.tif
176
     1
290
     0
176
     1
 40
1.0
176
     1
 40
1.0
176
     1
  0
VISUALSTYLE
  5
2E
102
{ACAD_REACTORS
330
2A
102
}
330
2A
100
AcDbVisualStyle
  2
GouraudWithEdges
 70
     3
177
     3
291
     1
 70
    58
 90
        2
176
     1
 90
        2
176
     1
 90
        1
176
     1
 90
        2
176
     1
 40
0.6
176
     1
 40
30.0
176
     1
 62
     7
420
 16777215
176
     1
 90
        1
176
     1
 90
        0
176
     1
 62
     7
176
     1
 62
   257
176
     1
 90
        1
176
     1
 90
        1
176
     1
 40
1.0
176
     1
 90
        0
176
     1
 62
   257
176
     1
 40
1.0
176
     1
 90
        1
176
     1
 90
        6
176
     1
 90
        2
176
     1
 62
     7
176
     1
 90
        5
176
     1
 90
        0
176
     1
 90
        0
176
     1
290
     0
176
     1
 90
       13
176
     1
 40
0.0
176
     1
 90
        0
176
     1
290
     0
176
     1
290
     1
176
     1
290
     1
176
     1
290
     0
176
     1
290
     0
176
     1
290
     0
176
     1
290
     0
176
     1
290
     0
176
     1
290
     0
176
     1
 90
       50
176
     1
 40
0.0
176
     1
 40
1.0
176
     1
 90
        0
176
     1
 62
    18
420
        0
176
     1
 90
       50
176
     1
 90
        3
176
     1
 62
     5
420
      255
176
     1
290
     0
176
     1
 90
       50
176
     1
 90
       50
176
     1
 90
       50
176
     1
290
     0
176
     1
 90
       50
176
     1
 62
   256
176
     0
 40
1.0
176
     0
 90
        2
176
     1
  1
strokes_ogs.tif
176
     1
290
     0
176
     1
 40
1.0
176
     1
 40
1.0
176
     1
  0
VISUALSTYLE
  5
31
102
{ACAD_REACTORS
330
2A
102
}
330
2A
100
AcDbVisualStyle
  2
Hidden
 70
     6
177
     3
291
     0
 70
    58
 90
        1
176
     1
 90
        2
176
     1
 90
        2
176
     1
 90
        0
176
     1
 40
0.6
176
     1
 40
30.0
176
     1
 62
     7
420
 16777215
176
     1
 90
        2
176
     1
 90
        2
176
     1
 62
     7
176
     1
 62
   257
176
     1
 90
        2
176
     1
 90
        1
176
     1
 40
40.0
176
     1
 90
        0
176
     1
 62
   257
176
     1
 40
1.0
176
     1
 90
        1
176
     1
 90
        6
176
     1
 90
        2
176
     1
 62
     7
176
     1
 90
        3
176
     1
 90
        0
176
     1
 90
        0
176
     1
290
     0
176
     1
 90
        1
176
     1
 40
0.0
176
     1
 90
        0
176
     1
290
     0
176
     1
290
     1
176
     1
290
     1
176
     1
290
     0
176
     1
290
     0
176
     1
290
     0
176
     1
290
     0
176
     1
290
     0
176
     1
290
     0
176
     1
 90
       50
176
     1
 40
0.0
176
     1
 40
1.0
176
     1
 90
        0
176
     1
 62
    18
420
        0
176
     1
 90
       50
176
     1
 90
        3
176
     1
 62
     5
420
      255
176
     1
290
     0
176
     1
 90
       50
176
     1
 90
       50
176
     1
 90
       50
176
     1
290
     0
176
     1
 90
       50
176
     1
 62
   256
176
     0
 40
1.0
176
     0
 90
        2
176
     1
  1
strokes_ogs.tif
176
     1
290
     0
176
     1
 40
1.0
176
     1
 40
1.0
176
     1
  0
VISUALSTYLE
  5
3B
102
{ACAD_REACTORS
330
2A
102
}
330
2A
100
AcDbVisualStyle
  2
JitterOff
 70
    20
177
     3
291
     1
 70
    58
 90
        2
176
     0
 90
        2
176
     0
 90
        0
176
     0
 90
        0
176
     0
 40
0.6
176
     0
 40
30.0
176
     0
 62
     7
420
 16777215
176
     0
 90
        1
176
     0
 90
        4
176
     0
 62
     7
176
     0
 62
   257
176
     0
 90
        1
176
     0
 90
        1
176
     0
 40
1.0
176
     0
 90
       10
176
     2
 62
     7
176
     0
 40
1.0
176
     0
 90
        1
176
     0
 90
        6
176
     0
 90
        2
176
     0
 62
     7
176
     0
 90
        5
176
     0
 90
        0
176
     0
 90
        0
176
     0
290
     0
176
     0
 90
        1
176
     0
 40
0.0
176
     0
 90
        0
176
     0
290
     0
176
     0
290
     1
176
     0
290
     1
176
     0
290
     0
176
     0
290
     0
176
     0
290
     0
176
     0
290
     0
176
     0
290
     0
176
     0
290
     0
176
     0
 90
       50
176
     0
 40
0.0
176
     0
 40
1.0
176
     0
 90
        0
176
     0
 62
    18
420
        0
176
     0
 90
       50
176
     0
 90
        3
176
     0
 62
     5
420
      255
176
     0
290
     0
176
     0
 90
       50
176
     0
 90
       50
176
     0
 90
       50
176
     0
290
     0
176
     0
 90
       50
176
     0
 62
   256
176
     0
 40
1.0
176
     0
 90
        2
176
     0
  1
strokes_ogs.tif
176
     0
290
     0
176
     0
 40
1.0
176
     0
 40
1.0
176
     0
  0
VISUALSTYLE
  5
38
102
{ACAD_REACTORS
330
2A
102
}
330
2A
100
AcDbVisualStyle
  2
Linepattern
 70
    14
177
     3
291
     1
 70
    58
 90
        2
176
     1
 90
        2
176
     1
 90
        0
176
     1
 90
        0
176
     1
 40
0.6
176
     1
 40
30.0
176
     1
 62
     7
420
 16777215
176
     1
 90
        1
176
     1
 90
        4
176
     1
 62
     7
176
     1
 62
   257
176
     1
 90
        7
176
     1
 90
        7
176
     1
 40
1.0
176
     1
 90
        8
176
     1
 62
     7
176
     1
 40
1.0
176
     1
 90
        1
176
     1
 90
        6
176
     1
 90
        2
176
     1
 62
     7
176
     1
 90
        5
176
     1
 90
        0
176
     1
 90
        0
176
     1
290
     0
176
     1
 90
        1
176
     1
 40
0.0
176
     1
 90
        0
176
     1
290
     0
176
     1
290
     1
176
     1
290
     1
176
     1
290
     0
176
     1
290
     0
176
     1
290
     0
176
     1
290
     0
176
     1
290
     0
176
     1
290
     0
176
     1
 90
       50
176
     1
 40
0.0
176
     1
 40
1.0
176
     1
 90
        0
176
     1
 62
    18
420
        0
176
     1
 90
       50
176
     1
 90
        3
176
     1
 62
     5
420
      255
176
     1
290
     0
176
     1
 90
       50
176
     1
 90
       50
176
     1
 90
       50
176
     1
290
     0
176
     1
 90
       50
176
     1
 62
   256
176
     0
 40
1.0
176
     0
 90
        2
176
     1
  1
strokes_ogs.tif
176
     1
290
     0
176
     1
 40
1.0
176
     1
 40
1.0
176
     1
  0
VISUALSTYLE
  5
3C
102
{ACAD_REACTORS
330
2A
102
}
330
2A
100
AcDbVisualStyle
  2
OverhangOff
 70
    21
177
     3
291
     1
 70
    58
 90
        2
176
     0
 90
        2
176
     0
 90
        0
176
     0
 90
        0
176
     0
 40
0.6
176
     0
 40
30.0
176
     0
 62
     7
420
 16777215
176
     0
 90
        1
176
     0
 90
        4
176
     0
 62
     7
176
     0
 62
   257
176
     0
 90
        1
176
     0
 90
        1
176
     0
 40
1.0
176
     0
 90
        9
176
     2
 62
     7
176
     0
 40
1.0
176
     0
 90
        1
176
     0
 90
        6
176
     0
 90
        2
176
     0
 62
     7
176
     0
 90
        5
176
     0
 90
        0
176
     0
 90
        0
176
     0
290
     0
176
     0
 90
        1
176
     0
 40
0.0
176
     0
 90
        0
176
     0
290
     0
176
     0
290
     1
176
     0
290
     1
176
     0
290
     0
176
     0
290
     0
176
     0
290
     0
176
     0
290
     0
176
     0
290
     0
176
     0
290
     0
176
     0
 90
       50
176
     0
 40
0.0
176
     0
 40
1.0
176
     0
 90
        0
176
     0
 62
    18
420
        0
176
     0
 90
       50
176
     0
 90
        3
176
     0
 62
     5
420
      255
176
     0
290
     0
176
     0
 90
       50
176
     0
 90
       50
176
     0
 90
       50
176
     0
290
     0
176
     0
 90
       50
176
     0
 62
   256
176
     0
 40
1.0
176
     0
 90
        2
176
     0
  1
strokes_ogs.tif
176
     0
290
     0
176
     0
 40
1.0
176
     0
 40
1.0
176
     0
  0
VISUALSTYLE
  5
33
102
{ACAD_REACTORS
330
2A
102
}
330
2A
100
AcDbVisualStyle
  2
Realistic
 70
     8
177
     3
291
     0
 70
    58
 90
        2
176
     1
 90
        3
176
     1
 90
        0
176
     1
 90
        2
176
     1
 40
0.6
176
     1
 40
30.0
176
     1
 62
     7
420
 16777215
176
     1
 90
        0
176
     1
 90
        0
176
     1
 62
     7
176
     1
 62
   257
176
     1
 90
        1
176
     1
 90
        1
176
     1
 40
1.0
176
     1
 90
        8
176
     1
 62
   257
176
     1
 40
1.0
176
     1
 90
        1
176
     1
 90
        6
176
     1
 90
        2
176
     1
 62
     7
176
     1
 90
        3
176
     1
 90
        0
176
     1
 90
        0
176
     1
290
     0
176
     1
 90
       13
176
     1
 40
0.0
176
     1
 90
        0
176
     1
290
     0
176
     1
290
     1
176
     1
290
     1
176
     1
290
     0
176
     1
290
     0
176
     1
290
     0
176
     1
290
     0
176
     1
290
     0
176
     1
290
     0
176
     1
 90
       50
176
     1
 40
0.0
176
     1
 40
1.0
176
     1
 90
        0
176
     1
 62
    18
420
        0
176
     1
 90
       50
176
     1
 90
        3
176
     1
 62
     5
420
      255
176
     1
290
     0
176
     1
 90
       50
176
     1
 90
       50
176
     1
 90
       50
176
     1
290
     0
176
     1
 90
       50
176
     1
 62
   256
176
     0
 40
1.0
176
     0
 90
        2
176
     1
  1
strokes_ogs.tif
176
     1
290
     0
176
     1
 40
1.0
176
     1
 40
1.0
176
     1
  0
VISUALSTYLE
  5
42
102
{ACAD_REACTORS
330
2A
102
}
330
2A
100
AcDbVisualStyle
  2
Shaded
 70
    27
177
     3
291
     0
 70
    58
 90
        2
176
     1
 90
        2
176
     1
 90
        1
176
     1
 90
        2
176
     1
 40
0.6
176
     1
 40
30.0
176
     1
 62
     7
420
 16777215
176
     1
 90
        0
176
     1
 90
        4
176
     1
 62
     7
176
     1
 62
   257
176
     1
 90
        1
176
     1
 90
        1
176
     1
 40
1.0
176
     1
 90
        8
176
     1
 62
   257
176
     1
 40
1.0
176
     1
 90
        1
176
     1
 90
        6
176
     1
 90
        2
176
     1
 62
     8
420
  7895160
176
     1
 90
        3
176
     1
 90
        0
176
     1
 90
        0
176
     1
290
     0
176
     1
 90
        5
176
     1
 40
0.0
176
     1
 90
        0
176
     1
290
     0
176
     1
290
     1
176
     1
290
     1
176
     1
290
     0
176
     1
290
     0
176
     1
290
     0
176
     1
290
     0
176
     1
290
     0
176
     1
290
     0
176
     1
 90
       50
176
     1
 40
0.0
176
     1
 40
1.0
176
     1
 90
        0
176
     1
 62
    18
420
        0
176
     1
 90
       50
176
     1
 90
        3
176
     1
 62
     5
420
      255
176
     1
290
     0
176
     1
 90
       50
176
     1
 90
       50
176
     1
 90
       50
176
     1
290
     0
176
     1
 90
       50
176
     1
 62
   256
176
     0
 40
1.0
176
     0
 90
        2
176
     1
  1
strokes_ogs.tif
176
     1
290
     0
176
     1
 40
1.0
176
     1
 40
1.0
176
     1
  0
VISUALSTYLE
  5
41
102
{ACAD_REACTORS
330
2A
102
}
330
2A
100
AcDbVisualStyle
  2
Shaded with edges
 70
    26
177
     3
291
     0
 70
    58
 90
        2
176
     1
 90
        2
176
     1
 90
        1
176
     1
 90
        2
176
     1
 40
0.6
176
     1
 40
30.0
176
     1
 62
     7
420
 16777215
176
     1
 90
        1
176
     1
 90
       10
176
     1
 62
     7
176
     1
 62
   257
176
     1
 90
        2
176
     1
 90
        1
176
     1
 40
1.0
176
     1
 90
        8
176
     1
 62
   257
176
     1
 40
1.0
176
     1
 90
        1
176
     1
 90
        6
176
     1
 90
        2
176
     1
 62
     7
176
     1
 90
        3
176
     1
 90
        0
176
     1
 90
        0
176
     1
290
     0
176
     1
 90
        5
176
     1
 40
0.0
176
     1
 90
        0
176
     1
290
     0
176
     1
290
     1
176
     1
290
     1
176
     1
290
     0
176
     1
290
     0
176
     1
290
     0
176
     1
290
     0
176
     1
290
     0
176
     1
290
     0
176
     1
 90
       50
176
     1
 40
0.0
176
     1
 40
1.0
176
     1
 90
        0
176
     1
 62
    18
420
        0
176
     1
 90
       50
176
     1
 90
        3
176
     1
 62
     5
420
      255
176
     1
290
     0
176
     1
 90
       50
176
     1
 90
       50
176
     1
 90
       50
176
     1
290
     0
176
     1
 90
       50
176
     1
 62
   256
176
     0
 40
1.0
176
     0
 90
        2
176
     1
  1
strokes_ogs.tif
176
     1
290
     0
176
     1
 40
1.0
176
     1
 40
1.0
176
     1
  0
VISUALSTYLE
  5
3E
102
{ACAD_REACTORS
330
2A
102
}
330
2A
100
AcDbVisualStyle
  2
Shades of Gray
 70
    23
177
     3
291
     0
 70
    58
 90
        2
176
     1
 90
        2
176
     1
 90
        3
176
     1
 90
        0
176
     1
 40
0.6
176
     1
 40
30.0
176
     1
 62
     7
420
 16777215
176
     1
 90
        2
176
     1
 90
        2
176
     1
 62
     7
176
     1
 62
     7
176
     1
 90
        1
176
     1
 90
        1
176
     1
 40
40.0
176
     1
 90
        8
176
     1
 62
     7
176
     1
 40
1.0
176
     1
 90
        1
176
     1
 90
        6
176
     1
 90
        2
176
     1
 62
     7
176
     1
 90
        3
176
     1
 90
        0
176
     1
 90
        0
176
     1
290
     0
176
     1
 90
        1
176
     1
 40
0.0
176
     1
 90
        0
176
     1
290
     0
176
     1
290
     1
176
     1
290
     1
176
     1
290
     0
176
     1
290
     0
176
     1
290
     0
176
     1
290
     0
176
     1
290
     0
176
     1
290
     0
176
     1
 90
       50
176
     1
 40
0.0
176
     1
 40
1.0
176
     1
 90
        0
176
     1
 62
    18
420
        0
176
     1
 90
       50
176
     1
 90
        3
176
     1
 62
     5
420
      255
176
     1
290
     0
176
     1
 90
       50
176
     1
 90
       50
176
     1
 90
       50
176
     1
290
     0
176
     1
 90
       50
176
     1
 62
   256
176
     0
 40
1.0
176
     0
 90
        2
176
     1
  1
strokes_ogs.tif
176
     1
290
     0
176
     1
 40
1.0
176
     1
 40
1.0
176
     1
  0
VISUALSTYLE
  5
3F
102
{ACAD_REACTORS
330
2A
102
}
330
2A
100
AcDbVisualStyle
  2
Sketchy
 70
    24
177
     3
291
     0
 70
    58
 90
        1
176
     1
 90
        2
176
     1
 90
        2
176
     1
 90
        0
176
     1
 40
0.6
176
     1
 40
30.0
176
     1
 62
     7
420
 16777215
176
     1
 90
        2
176
     1
 90
        2
176
     1
 62
     7
176
     1
 62
     7
176
     1
 90
        1
176
     1
 90
        1
176
     1
 40
40.0
176
     1
 90
       11
176
     1
 62
     7
176
     1
 40
1.0
176
     1
 90
        1
176
     1
 90
        6
176
     1
 90
        2
176
     1
 62
     7
176
     1
 90
        6
176
     1
 90
        0
176
     1
 90
        0
176
     1
290
     0
176
     1
 90
        1
176
     1
 40
0.0
176
     1
 90
        0
176
     1
290
     0
176
     1
290
     1
176
     1
290
     1
176
     1
290
     0
176
     1
290
     0
176
     1
290
     0
176
     1
290
     0
176
     1
290
     0
176
     1
290
     0
176
     1
 90
       50
176
     1
 40
0.0
176
     1
 40
1.0
176
     1
 90
        0
176
     1
 62
    18
420
        0
176
     1
 90
       50
176
     1
 90
        3
176
     1
 62
     5
420
      255
176
     1
290
     0
176
     1
 90
       50
176
     1
 90
       50
176
     1
 90
       50
176
     1
290
     0
176
     1
 90
       50
176
     1
 62
   256
176
     0
 40
1.0
176
     0
 90
        2
176
     1
  1
strokes_ogs.tif
176
     1
290
     0
176
     1
 40
1.0
176
     1
 40
1.0
176
     1
  0
VISUALSTYLE
  5
37
102
{ACAD_REACTORS
330
2A
102
}
330
2A
100
AcDbVisualStyle
  2
Thicken
 70
    13
177
     3
291
     1
 70
    58
 90
        2
176
     1
 90
        2
176
     1
 90
        0
176
     1
 90
        0
176
     1
 40
0.6
176
     1
 40
30.0
176
     1
 62
     7
420
 16777215
176
     1
 90
        1
176
     1
 90
        4
176
     1
 62
     7
176
     1
 62
   257
176
     1
 90
        1
176
     1
 90
        1
176
     1
 40
1.0
176
     1
 90
       12
176
     1
 62
     7
176
     1
 40
1.0
176
     1
 90
        1
176
     1
 90
        6
176
     1
 90
        2
176
     1
 62
     7
176
     1
 90
        5
176
     1
 90
        0
176
     1
 90
        0
176
     1
290
     0
176
     1
 90
        1
176
     1
 40
0.0
176
     1
 90
        0
176
     1
290
     0
176
     1
290
     1
176
     1
290
     1
176
     1
290
     0
176
     1
290
     0
176
     1
290
     0
176
     1
290
     0
176
     1
290
     0
176
     1
290
     0
176
     1
 90
       50
176
     1
 40
0.0
176
     1
 40
1.0
176
     1
 90
        0
176
     1
 62
    18
420
        0
176
     1
 90
       50
176
     1
 90
        3
176
     1
 62
     5
420
      255
176
     1
290
     0
176
     1
 90
       50
176
     1
 90
       50
176
     1
 90
       50
176
     1
290
     0
176
     1
 90
       50
176
     1
 62
   256
176
     0
 40
1.0
176
     0
 90
        2
176
     1
  1
strokes_ogs.tif
176
     1
290
     0
176
     1
 40
1.0
176
     1
 40
1.0
176
     1
  0
VISUALSTYLE
  5
30
102
{ACAD_REACTORS
330
2A
102
}
330
2A
100
AcDbVisualStyle
  2
Wireframe
 70
     5
177
     3
291
     0
 70
    58
 90
        0
176
     1
 90
        2
176
     1
 90
        0
176
     1
 90
        0
176
     1
 40
0.6
176
     1
 40
30.0
176
     1
 62
     7
420
 16777215
176
     1
 90
        1
176
     1
 90
        4
176
     1
 62
     7
176
     1
 62
   257
176
     1
 90
        1
176
     1
 90
        1
176
     1
 40
1.0
176
     1
 90
        0
176
     1
 62
   257
176
     1
 40
1.0
176
     1
 90
        1
176
     1
 90
        6
176
     1
 90
        2
176
     1
 62
     7
176
     1
 90
        3
176
     1
 90
        0
176
     1
 90
        0
176
     1
290
     0
176
     1
 90
        1
176
     1
 40
0.0
176
     1
 90
        0
176
     1
290
     0
176
     1
290
     1
176
     1
290
     1
176
     1
290
     0
176
     1
290
     0
176
     1
290
     0
176
     1
290
     0
176
     1
290
     0
176
     1
290
     0
176
     1
 90
       50
176
     1
 40
0.0
176
     1
 40
1.0
176
     1
 90
        0
176
     1
 62
    18
420
        0
176
     1
 90
       50
176
     1
 90
        3
176
     1
 62
     5
420
      255
176
     1
290
     0
176
     1
 90
       50
176
     1
 90
       50
176
     1
 90
       50
176
     1
290
     0
176
     1
 90
       50
176
     1
 62
   256
176
     0
 40
1.0
176
     0
 90
        2
176
     1
  1
strokes_ogs.tif
176
     1
290
     0
176
     1
 40
1.0
176
     1
 40
1.0
176
     1
  0
VISUALSTYLE
  5
40
102
{ACAD_REACTORS
330
2A
102
}
330
2A
100
AcDbVisualStyle
  2
X-Ray
 70
    25
177
     3
291
     0
 70
    58
 90
        2
176
     1
 90
        2
176
     1
 90
        1
176
     1
 90
        1
176
     1
 40
0.5
176
     1
 40
30.0
176
     1
 62
     7
420
 16777215
176
     1
 90
        1
176
     1
 90
        0
176
     1
 62
     7
176
     1
 62
   257
176
     1
 90
        1
176
     1
 90
        1
176
     1
 40
1.0
176
     1
 90
        8
176
     1
 62
     7
176
     1
 40
1.0
176
     1
 90
        1
176
     1
 90
        6
176
     1
 90
        2
176
     1
 62
     7
176
     1
 90
        3
176
     1
 90
        0
176
     1
 90
        0
176
     1
290
     0
176
     1
 90
       13
176
     1
 40
0.0
176
     1
 90
        0
176
     1
290
     0
176
     1
290
     1
176
     1
290
     1
176
     1
290
     0
176
     1
290
     0
176
     1
290
     0
176
     1
290
     0
176
     1
290
     0
176
     1
290
     0
176
     1
 90
       50
176
     1
 40
0.0
176
     1
 40
1.0
176
     1
 90
        0
176
     1
 62
    18
420
        0
176
     1
 90
       50
176
     1
 90
        3
176
     1
 62
     5
420
      255
176
     1
290
     0
176
     1
 90
       50
176
     1
 90
       50
176
     1
 90
       50
176
     1
290
     0
176
     1
 90
       50
176
     1
 62
   256
176
     0
 40
1.0
176
     0
 90
        2
176
     1
  1
strokes_ogs.tif
176
     1
290
     0
176
     1
 40
1.0
176
     1
 40
1.0
176
     1
  0
DICTIONARYVAR
  5
548
102
{ACAD_REACTORS
330
547
102
}
330
547
100
DictionaryVariables
280
     0
  1
1:1
  0
DICTIONARYVAR
  5
550
102
{ACAD_REACTORS
330
547
102
}
330
547
100
DictionaryVariables
280
     0
  1
3.500000
  0
DICTIONARYVAR
  5
551
102
{ACAD_REACTORS
330
547
102
}
330
547
100
DictionaryVariables
280
     0
  1
acadiso.lin
  0
DICTIONARYVAR
  5
54D
102
{ACAD_REACTORS
330
547
102
}
330
547
100
DictionaryVariables
280
     0
  1
Standard
  0
DICTIONARYVAR
  5
54C
102
{ACAD_REACTORS
330
547
102
}
330
547
100
DictionaryVariables
280
     0
  1
Standard
  0
DICTIONARY
  5
549
330
6A
100
AcDbDictionary
280
     1
281
     1
  3
ACAD_ROUNDTRIP_2008_TABLESTYLE_CELLSTYLEMAP
360
54A
  0
CELLSTYLEMAP
  5
54A
102
{ACAD_REACTORS
330
549
102
}
330
549
100
AcDbCellStyleMap
 90
        3
300
CELLSTYLE
  1
TABLEFORMAT_BEGIN
 90
        5
170
     1
 91
        0
 92
    32768
 62
   257
 93
        1
300
CONTENTFORMAT
  1
CONTENTFORMAT_BEGIN
 90
        0
 91
        0
 92
        4
 93
        0
300

 40
0.0
140
1.0
 94
        5
 62
     0
340
11
144
6.0
309
CONTENTFORMAT_END
171
     1
301
MARGIN
  1
CELLMARGIN_BEGIN
 40
1.5
 40
1.5
 40
1.5
 40
1.5
 40
1.5
 40
1.5
309
CELLMARGIN_END
 94
        6
 95
        1
302
GRIDFORMAT
  1
GRIDFORMAT_BEGIN
 90
        0
 91
        1
 62
     0
 92
       -2
340
14
 93
        0
 40
0.045
309
GRIDFORMAT_END
 95
        2
302
GRIDFORMAT
  1
GRIDFORMAT_BEGIN
 90
        0
 91
        1
 62
     0
 92
       -2
340
14
 93
        0
 40
0.045
309
GRIDFORMAT_END
 95
        4
302
GRIDFORMAT
  1
GRIDFORMAT_BEGIN
 90
        0
 91
        1
 62
     0
 92
       -2
340
14
 93
        0
 40
0.045
309
GRIDFORMAT_END
 95
        8
302
GRIDFORMAT
  1
GRIDFORMAT_BEGIN
 90
        0
 91
        1
 62
     0
 92
       -2
340
14
 93
        0
 40
0.045
309
GRIDFORMAT_END
 95
       16
302
GRIDFORMAT
  1
GRIDFORMAT_BEGIN
 90
        0
 91
        1
 62
     0
 92
       -2
340
14
 93
        0
 40
0.045
309
GRIDFORMAT_END
 95
       32
302
GRIDFORMAT
  1
GRIDFORMAT_BEGIN
 90
        0
 91
        1
 62
     0
 92
       -2
340
14
 93
        0
 40
0.045
309
GRIDFORMAT_END
309
TABLEFORMAT_END
  1
CELLSTYLE_BEGIN
 90
        1
 91
        1
300
_TITLE
309
CELLSTYLE_END
300
CELLSTYLE
  1
TABLEFORMAT_BEGIN
 90
        5
170
     1
 91
        0
 92
        0
 62
   257
 93
        1
300
CONTENTFORMAT
  1
CONTENTFORMAT_BEGIN
 90
        0
 91
        0
 92
        4
 93
        0
300

 40
0.0
140
1.0
 94
        5
 62
     0
340
11
144
4.5
309
CONTENTFORMAT_END
171
     1
301
MARGIN
  1
CELLMARGIN_BEGIN
 40
1.5
 40
1.5
 40
1.5
 40
1.5
 40
1.5
 40
1.5
309
CELLMARGIN_END
 94
        6
 95
        1
302
GRIDFORMAT
  1
GRIDFORMAT_BEGIN
 90
        0
 91
        1
 62
     0
 92
       -2
340
14
 93
        0
 40
0.045
309
GRIDFORMAT_END
 95
        2
302
GRIDFORMAT
  1
GRIDFORMAT_BEGIN
 90
        0
 91
        1
 62
     0
 92
       -2
340
14
 93
        0
 40
0.045
309
GRIDFORMAT_END
 95
        4
302
GRIDFORMAT
  1
GRIDFORMAT_BEGIN
 90
        0
 91
        1
 62
     0
 92
       -2
340
14
 93
        0
 40
0.045
309
GRIDFORMAT_END
 95
        8
302
GRIDFORMAT
  1
GRIDFORMAT_BEGIN
 90
        0
 91
        1
 62
     0
 92
       -2
340
14
 93
        0
 40
0.045
309
GRIDFORMAT_END
 95
       16
302
GRIDFORMAT
  1
GRIDFORMAT_BEGIN
 90
        0
 91
        1
 62
     0
 92
       -2
340
14
 93
        0
 40
0.045
309
GRIDFORMAT_END
 95
       32
302
GRIDFORMAT
  1
GRIDFORMAT_BEGIN
 90
        0
 91
        1
 62
     0
 92
       -2
340
14
 93
        0
 40
0.045
309
GRIDFORMAT_END
309
TABLEFORMAT_END
  1
CELLSTYLE_BEGIN
 90
        2
 91
        1
300
_HEADER
309
CELLSTYLE_END
300
CELLSTYLE
  1
TABLEFORMAT_BEGIN
 90
        5
170
     1
 91
        0
 92
        0
 62
   257
 93
        1
300
CONTENTFORMAT
  1
CONTENTFORMAT_BEGIN
 90
        0
 91
        0
 92
        4
 93
        0
300

 40
0.0
140
1.0
 94
        2
 62
     0
340
11
144
4.5
309
CONTENTFORMAT_END
171
     1
301
MARGIN
  1
CELLMARGIN_BEGIN
 40
1.5
 40
1.5
 40
1.5
 40
1.5
 40
1.5
 40
1.5
309
CELLMARGIN_END
 94
        6
 95
        1
302
GRIDFORMAT
  1
GRIDFORMAT_BEGIN
 90
        0
 91
        1
 62
     0
 92
       -2
340
14
 93
        0
 40
0.045
309
GRIDFORMAT_END
 95
        2
302
GRIDFORMAT
  1
GRIDFORMAT_BEGIN
 90
        0
 91
        1
 62
     0
 92
       -2
340
14
 93
        0
 40
0.045
309
GRIDFORMAT_END
 95
        4
302
GRIDFORMAT
  1
GRIDFORMAT_BEGIN
 90
        0
 91
        1
 62
     0
 92
       -2
340
14
 93
        0
 40
0.045
309
GRIDFORMAT_END
 95
        8
302
GRIDFORMAT
  1
GRIDFORMAT_BEGIN
 90
        0
 91
        1
 62
     0
 92
       -2
340
14
 93
        0
 40
0.045
309
GRIDFORMAT_END
 95
       16
302
GRIDFORMAT
  1
GRIDFORMAT_BEGIN
 90
        0
 91
        1
 62
     0
 92
       -2
340
14
 93
        0
 40
0.045
309
GRIDFORMAT_END
 95
       32
302
GRIDFORMAT
  1
GRIDFORMAT_BEGIN
 90
        0
 91
        1
 62
     0
 92
       -2
340
14
 93
        0
 40
0.045
309
GRIDFORMAT_END
309
TABLEFORMAT_END
  1
CELLSTYLE_BEGIN
 90
        3
 91
        2
300
_DATA
309
CELLSTYLE_END
  0
ENDSEC
  0
EOF
