  0
SECTION
  2
HEADER
  9
$ACADVER
  1
AC1027
  9
$ACADMAINTVER
 70
   105
  9
$DWGCODEPAGE
  3
ANSI_932
  9
$REQUIREDVERSIONS
160
                 0
  9
$INSBASE
 10
0.0
 20
0.0
 30
0.0
  9
$EXTMIN
 10
-1050.0
 20
-742.5
 30
0.0
  9
$EXTMAX
 10
1050.0
 20
742.5
 30
0.0
  9
$LIMMIN
 10
-1050.0
 20
-742.5
  9
$LIMMAX
 10
1050.0
 20
742.5
  9
$ORTHOMODE
 70
     0
  9
$REGENMODE
 70
     1
  9
$FILLMODE
 70
     1
  9
$QTEXTMODE
 70
     0
  9
$MIRRTEXT
 70
     1
  9
$LTSCALE
 40
5.0
  9
$ATTMODE
 70
     1
  9
$TEXTSIZE
 40
2.5
  9
$TRACEWID
 40
1.0
  9
$TEXTSTYLE
  7
Standard
  9
$CLAYER
  8
0
  9
$CELTYPE
  6
ByLayer
  9
$CECOLOR
 62
   256
  9
$CELTSCALE
 40
1.0
  9
$DISPSILH
 70
     0
  9
$DIMSCALE
 40
1.0
  9
$DIMASZ
 40
2.5
  9
$DIMEXO
 40
0.625
  9
$DIMDLI
 40
3.75
  9
$DIMRND
 40
0.0
  9
$DIMDLE
 40
0.0
  9
$DIMEXE
 40
1.25
  9
$DIMTP
 40
0.0
  9
$DIMTM
 40
0.0
  9
$DIMTXT
 40
2.5
  9
$DIMCEN
 40
2.5
  9
$DIMTSZ
 40
0.0
  9
$DIMTOL
 70
     0
  9
$DIMLIM
 70
     0
  9
$DIMTIH
 70
     0
  9
$DIMTOH
 70
     0
  9
$DIMSE1
 70
     0
  9
$DIMSE2
 70
     0
  9
$DIMTAD
 70
     1
  9
$DIMZIN
 70
     8
  9
$DIMBLK
  1

  9
$DIMASO
 70
     1
  9
$DIMSHO
 70
     1
  9
$DIMPOST
  1

  9
$DIMAPOST
  1

  9
$DIMALT
 70
     0
  9
$DIMALTD
 70
     3
  9
$DIMALTF
 40
0.03937007874016
  9
$DIMLFAC
 40
1.0
  9
$DIMTOFL
 70
     1
  9
$DIMTVP
 40
0.0
  9
$DIMTIX
 70
     0
  9
$DIMSOXD
 70
     0
  9
$DIMSAH
 70
     0
  9
$DIMBLK1
  1

  9
$DIMBLK2
  1

  9
$DIMSTYLE
  2
ISO-25
  9
$DIMCLRD
 70
     0
  9
$DIMCLRE
 70
     0
  9
$DIMCLRT
 70
     0
  9
$DIMTFAC
 40
1.0
  9
$DIMGAP
 40
0.625
  9
$DIMJUST
 70
     0
  9
$DIMSD1
 70
     0
  9
$DIMSD2
 70
     0
  9
$DIMTOLJ
 70
     0
  9
$DIMTZIN
 70
     8
  9
$DIMALTZ
 70
     0
  9
$DIMALTTZ
 70
     0
  9
$DIMUPT
 70
     0
  9
$DIMDEC
 70
     2
  9
$DIMTDEC
 70
     2
  9
$DIMALTU
 70
     2
  9
$DIMALTTD
 70
     3
  9
$DIMTXSTY
  7
Standard
  9
$DIMAUNIT
 70
     0
  9
$DIMADEC
 70
     0
  9
$DIMALTRND
 40
0.0
  9
$DIMAZIN
 70
     0
  9
$DIMDSEP
 70
    44
  9
$DIMATFIT
 70
     3
  9
$DIMFRAC
 70
     0
  9
$DIMLDRBLK
  1

  9
$DIMLUNIT
 70
     2
  9
$DIMLWD
 70
    -2
  9
$DIMLWE
 70
    -2
  9
$DIMTMOVE
 70
     0
  9
$DIMFXL
 40
1.0
  9
$DIMFXLON
 70
     0
  9
$DIMJOGANG
 40
0.7853981633974483
  9
$DIMTFILL
 70
     0
  9
$DIMTFILLCLR
 70
     0
  9
$DIMARCSYM
 70
     0
  9
$DIMLTYPE
  6

  9
$DIMLTEX1
  6

  9
$DIMLTEX2
  6

  9
$DIMTXTDIRECTION
 70
     0
  9
$LUNITS
 70
     2
  9
$LUPREC
 70
     4
  9
$SKETCHINC
 40
1.0
  9
$FILLETRAD
 40
10.0
  9
$AUNITS
 70
     0
  9
$AUPREC
 70
     0
  9
$MENU
  1
.
  9
$ELEVATION
 40
0.0
  9
$PELEVATION
 40
0.0
  9
$THICKNESS
 40
0.0
  9
$LIMCHECK
 70
     0
  9
$CHAMFERA
 40
0.0
  9
$CHAMFERB
 40
0.0
  9
$CHAMFERC
 40
0.0
  9
$CHAMFERD
 40
0.0
  9
$SKPOLY
 70
     0
  9
$TDCREATE
 40
2458817.458012639
  9
$TDUCREATE
 40
2458817.083012639
  9
$TDUPDATE
 40
2458817.458012766
  9
$TDUUPDATE
 40
2458817.083012766
  9
$TDINDWG
 40
0.0000000116
  9
$TDUSRTIMER
 40
0.0000000116
  9
$USRTIMER
 70
     1
  9
$ANGBASE
 50
0.0
  9
$ANGDIR
 70
     0
  9
$PDMODE
 70
     0
  9
$PDSIZE
 40
0.0
  9
$PLINEWID
 40
0.0
  9
$SPLFRAME
 70
     0
  9
$SPLINETYPE
 70
     6
  9
$SPLINESEGS
 70
     8
  9
$HANDSEED
  5
515
  9
$SURFTAB1
 70
     6
  9
$SURFTAB2
 70
     6
  9
$SURFTYPE
 70
     6
  9
$SURFU
 70
     6
  9
$SURFV
 70
     6
  9
$UCSBASE
  2

  9
$UCSNAME
  2

  9
$UCSORG
 10
0.0
 20
0.0
 30
0.0
  9
$UCSXDIR
 10
1.0
 20
0.0
 30
0.0
  9
$UCSYDIR
 10
0.0
 20
1.0
 30
0.0
  9
$UCSORTHOREF
  2

  9
$UCSORTHOVIEW
 70
     0
  9
$UCSORGTOP
 10
0.0
 20
0.0
 30
0.0
  9
$UCSORGBOTTOM
 10
0.0
 20
0.0
 30
0.0
  9
$UCSORGLEFT
 10
0.0
 20
0.0
 30
0.0
  9
$UCSORGRIGHT
 10
0.0
 20
0.0
 30
0.0
  9
$UCSORGFRONT
 10
0.0
 20
0.0
 30
0.0
  9
$UCSORGBACK
 10
0.0
 20
0.0
 30
0.0
  9
$PUCSBASE
  2

  9
$PUCSNAME
  2

  9
$PUCSORG
 10
0.0
 20
0.0
 30
0.0
  9
$PUCSXDIR
 10
1.0
 20
0.0
 30
0.0
  9
$PUCSYDIR
 10
0.0
 20
1.0
 30
0.0
  9
$PUCSORTHOREF
  2

  9
$PUCSORTHOVIEW
 70
     0
  9
$PUCSORGTOP
 10
0.0
 20
0.0
 30
0.0
  9
$PUCSORGBOTTOM
 10
0.0
 20
0.0
 30
0.0
  9
$PUCSORGLEFT
 10
0.0
 20
0.0
 30
0.0
  9
$PUCSORGRIGHT
 10
0.0
 20
0.0
 30
0.0
  9
$PUCSORGFRONT
 10
0.0
 20
0.0
 30
0.0
  9
$PUCSORGBACK
 10
0.0
 20
0.0
 30
0.0
  9
$USERI1
 70
     0
  9
$USERI2
 70
     0
  9
$USERI3
 70
     0
  9
$USERI4
 70
     0
  9
$USERI5
 70
     0
  9
$USERR1
 40
0.0
  9
$USERR2
 40
0.0
  9
$USERR3
 40
0.0
  9
$USERR4
 40
0.0
  9
$USERR5
 40
0.0
  9
$WORLDVIEW
 70
     1
  9
$SHADEDGE
 70
     3
  9
$SHADEDIF
 70
    70
  9
$TILEMODE
 70
     1
  9
$MAXACTVP
 70
    64
  9
$PINSBASE
 10
0.0
 20
0.0
 30
0.0
  9
$PLIMCHECK
 70
     0
  9
$PEXTMIN
 10
1.000000000000000E+20
 20
1.000000000000000E+20
 30
1.000000000000000E+20
  9
$PEXTMAX
 10
-1.000000000000000E+20
 20
-1.000000000000000E+20
 30
-1.000000000000000E+20
  9
$PLIMMIN
 10
0.0
 20
0.0
  9
$PLIMMAX
 10
420.0
 20
297.0
  9
$UNITMODE
 70
     0
  9
$VISRETAIN
 70
     1
  9
$PLINEGEN
 70
     0
  9
$PSLTSCALE
 70
     1
  9
$TREEDEPTH
 70
  3020
  9
$CMLSTYLE
  2
Standard
  9
$CMLJUST
 70
     0
  9
$CMLSCALE
 40
20.0
  9
$PROXYGRAPHICS
 70
     1
  9
$MEASUREMENT
 70
     1
  9
$CELWEIGHT
370
    -1
  9
$ENDCAPS
280
     0
  9
$JOINSTYLE
280
     0
  9
$LWDISPLAY
290
     0
  9
$INSUNITS
 70
     4
  9
$HYPERLINKBASE
  1

  9
$STYLESHEET
  1

  9
$XEDIT
290
     1
  9
$CEPSNTYPE
380
     0
  9
$PSTYLEMODE
290
     1
  9
$FINGERPRINTGUID
  2
{22A55141-0A46-434D-B9A7-7BE728288EFD}
  9
$VERSIONGUID
  2
{FAEB1C32-E019-11D5-929B-00C0DF256EC4}
  9
$EXTNAMES
290
     1
  9
$PSVPSCALE
 40
0.0
  9
$OLESTARTUP
290
     0
  9
$SORTENTS
280
   127
  9
$INDEXCTL
280
     0
  9
$HIDETEXT
280
     1
  9
$XCLIPFRAME
280
     2
  9
$HALOGAP
280
     0
  9
$OBSCOLOR
 70
   257
  9
$OBSLTYPE
280
     0
  9
$INTERSECTIONDISPLAY
280
     0
  9
$INTERSECTIONCOLOR
 70
   257
  9
$DIMASSOC
280
     2
  9
$PROJECTNAME
  1

  9
$CAMERADISPLAY
290
     0
  9
$LENSLENGTH
 40
50.0
  9
$CAMERAHEIGHT
 40
0.0
  9
$STEPSPERSEC
 40
2.0
  9
$STEPSIZE
 40
6.0
  9
$3DDWFPREC
 40
2.0
  9
$PSOLWIDTH
 40
5.0
  9
$PSOLHEIGHT
 40
80.0
  9
$LOFTANG1
 40
1.570796326794897
  9
$LOFTANG2
 40
1.570796326794897
  9
$LOFTMAG1
 40
0.0
  9
$LOFTMAG2
 40
0.0
  9
$LOFTPARAM
 70
     7
  9
$LOFTNORMALS
280
     1
  9
$LATITUDE
 40
37.795
  9
$LONGITUDE
 40
-122.394
  9
$NORTHDIRECTION
 40
0.0
  9
$TIMEZONE
 70
 -8000
  9
$LIGHTGLYPHDISPLAY
280
     1
  9
$TILEMODELIGHTSYNCH
280
     1
  9
$CMATERIAL
347
44
  9
$SOLIDHIST
280
     0
  9
$SHOWHIST
280
     1
  9
$DWFFRAME
280
     2
  9
$DGNFRAME
280
     2
  9
$REALWORLDSCALE
290
     1
  9
$INTERFERECOLOR
 62
   256
  9
$CSHADOW
280
     0
  9
$SHADOWPLANELOCATION
 40
0.0
  0
ENDSEC
  0
SECTION
  2
CLASSES
  0
CLASS
  1
ACDBDICTIONARYWDFLT
  2
AcDbDictionaryWithDefault
  3
ObjectDBX Classes
 90
        0
 91
        4
280
     0
281
     0
  0
CLASS
  1
VISUALSTYLE
  2
AcDbVisualStyle
  3
ObjectDBX Classes
 90
     4095
 91
        4
280
     0
281
     0
  0
CLASS
  1
MATERIAL
  2
AcDbMaterial
  3
ObjectDBX Classes
 90
     1153
 91
        4
280
     0
281
     0
  0
CLASS
  1
SCALE
  2
AcDbScale
  3
ObjectDBX Classes
 90
     1153
 91
        4
280
     0
281
     0
  0
CLASS
  1
TABLESTYLE
  2
AcDbTableStyle
  3
ObjectDBX Classes
 90
     4095
 91
        4
280
     0
281
     0
  0
CLASS
  1
MLEADERSTYLE
  2
AcDbMLeaderStyle
  3
ACDB_MLEADERSTYLE_CLASS
 90
     4095
 91
        4
280
     0
281
     0
  0
CLASS
  1
SUN
  2
AcDbSun
  3
SCENEOE
 90
     1153
 91
        4
280
     0
281
     0
  0
CLASS
  1
DICTIONARYVAR
  2
AcDbDictionaryVar
  3
ObjectDBX Classes
 90
        0
 91
        4
280
     0
281
     0
  0
CLASS
  1
CELLSTYLEMAP
  2
AcDbCellStyleMap
  3
ObjectDBX Classes
 90
     1152
 91
        4
280
     0
281
     0
  0
ENDSEC
  0
SECTION
  2
TABLES
  0
TABLE
  2
VPORT
  5
8
330
0
100
AcDbSymbolTable
 70
     1
  0
VPORT
  5
29
330
8
100
AcDbSymbolTableRecord
100
AcDbViewportTableRecord
  2
*Active
 70
     0
 10
0.0
 20
0.0
 11
1.0
 21
1.0
 12
0.0
 22
0.0
 13
0.0
 23
0.0
 14
10.0
 24
10.0
 15
10.0
 25
10.0
 16
0.0
 26
0.0
 36
1.0
 17
0.0
 27
0.0
 37
0.0
 40
1633.5
 41
1.414141414141414
 42
50.0
 43
0.0
 44
0.0
 50
0.0
 51
0.0
 71
     0
 72
 10000
 73
     1
 74
     3
 75
     0
 76
     0
 77
     0
 78
     0
281
     0
 65
     1
110
0.0
120
0.0
130
0.0
111
1.0
121
0.0
131
0.0
112
0.0
122
1.0
132
0.0
 79
     0
146
0.0
348
2F
 60
     3
 61
     5
292
     1
282
     1
141
0.0
142
0.0
 63
   250
361
6D
  0
ENDTAB
  0
TABLE
  2
LTYPE
  5
5
330
0
100
AcDbSymbolTable
 70
     4
  0
LTYPE
  5
14
330
5
100
AcDbSymbolTableRecord
100
AcDbLinetypeTableRecord
  2
ByBlock
 70
     0
  3

 72
    65
 73
     0
 40
0.0
  0
LTYPE
  5
15
330
5
100
AcDbSymbolTableRecord
100
AcDbLinetypeTableRecord
  2
ByLayer
 70
     0
  3

 72
    65
 73
     0
 40
0.0
  0
LTYPE
  5
16
330
5
100
AcDbSymbolTableRecord
100
AcDbLinetypeTableRecord
  2
Continuous
 70
     0
  3
Solid line
 72
    65
 73
     0
 40
0.0
  0
LTYPE
  5
6F
330
5
100
AcDbSymbolTableRecord
100
AcDbLinetypeTableRecord
  2
JWW_PHANTOM2
 70
     0
  3
------------  -  -  ------------
 72
    65
 73
     6
 40
13.54666666666667
 49
10.16
 74
     0
 49
-0.8466666666666667
 74
     0
 49
0.4233333333333333
 74
     0
 49
-0.8466666666666667
 74
     0
 49
0.4233333333333333
 74
     0
 49
-0.8466666666666667
 74
     0
  0
LTYPE
  5
70
330
5
100
AcDbSymbolTableRecord
100
AcDbLinetypeTableRecord
  2
JWW_CENTER1
 70
     0
  3
-----  --  ----------  --  -----
 72
    65
 73
     4
 40
6.773333333333333
 49
4.233333333333333
 74
     0
 49
-0.8466666666666667
 74
     0
 49
0.8466666666666667
 74
     0
 49
-0.8466666666666667
 74
     0
  0
LTYPE
  5
71
330
5
100
AcDbSymbolTableRecord
100
AcDbLinetypeTableRecord
  2
JWW_DASHED3
 70
     0
  3
---  ------  ------  ------  ---
 72
    65
 73
     2
 40
3.386666666666667
 49
2.54
 74
     0
 49
-0.8466666666666667
 74
     0
  0
ENDTAB
  0
TABLE
  2
LAYER
  5
2
330
0
100
AcDbSymbolTable
 70
     7
  0
LAYER
  5
10
330
2
100
AcDbSymbolTableRecord
100
AcDbLayerTableRecord
  2
0
 70
     0
 62
     7
  6
Continuous
370
    -3
390
F
347
46
348
0
  0
LAYER
  5
72
330
2
100
AcDbSymbolTableRecord
100
AcDbLayerTableRecord
  2
B-E
 70
     0
 62
     7
  6
Continuous
370
    -3
390
F
347
46
348
0
  0
LAYER
  5
73
330
2
100
AcDbSymbolTableRecord
100
AcDbLayerTableRecord
  2
B-0
 70
     0
 62
     7
  6
Continuous
370
    -3
390
F
347
46
348
0
  0
LAYER
  5
74
330
2
100
AcDbSymbolTableRecord
100
AcDbLayerTableRecord
  2
B-1
 70
     0
 62
     7
  6
Continuous
370
    -3
390
F
347
46
348
0
  0
LAYER
  5
75
330
2
100
AcDbSymbolTableRecord
100
AcDbLayerTableRecord
  2
B-F
 70
     0
 62
     7
  6
Continuous
370
    -3
390
F
347
46
348
0
  0
LAYER
  5
76
330
2
100
AcDbSymbolTableRecord
100
AcDbLayerTableRecord
  2
F-5ﾚｲﾔ
 70
     0
 62
     7
  6
Continuous
370
    -3
390
F
347
46
348
0
  0
LAYER
  5
77
330
2
100
AcDbSymbolTableRecord
100
AcDbLayerTableRecord
  2
B-4
 70
     0
 62
     7
  6
Continuous
370
    -3
390
F
347
46
348
0
  0
ENDTAB
  0
TABLE
  2
STYLE
  5
3
330
0
100
AcDbSymbolTable
 70
     2
  0
STYLE
  5
11
330
3
100
AcDbSymbolTableRecord
100
AcDbTextStyleTableRecord
  2
Standard
 70
     0
 40
0.0
 41
1.0
 50
0.0
 71
     0
 42
2.5
  3
txt
  4

  0
STYLE
  5
6E
330
3
100
AcDbSymbolTableRecord
100
AcDbTextStyleTableRecord
  2
ＭＳ ゴシック
 70
     0
 40
1.0
 41
1.0
 50
0.0
 71
     0
 42
2.5
  3

  4

1001
ACAD
1000
MS Gothic
1071
    32817
  0
ENDTAB
  0
TABLE
  2
VIEW
  5
6
330
0
100
AcDbSymbolTable
 70
     0
  0
ENDTAB
  0
TABLE
  2
UCS
  5
7
330
0
100
AcDbSymbolTable
 70
     0
  0
ENDTAB
  0
TABLE
  2
APPID
  5
9
330
0
100
AcDbSymbolTable
 70
     1
  0
APPID
  5
12
330
9
100
AcDbSymbolTableRecord
100
AcDbRegAppTableRecord
  2
ACAD
 70
     0
  0
ENDTAB
  0
TABLE
  2
DIMSTYLE
  5
A
330
0
100
AcDbSymbolTable
 70
     1
100
AcDbDimStyleTable
  0
DIMSTYLE
105
27
330
A
100
AcDbSymbolTableRecord
100
AcDbDimStyleTableRecord
  2
ISO-25
 70
     0
 41
2.5
 42
0.625
 43
3.75
 44
1.25
 73
     0
 74
     0
 77
     1
 78
     8
140
2.5
141
2.5
143
0.03937007874016
147
0.625
171
     3
172
     1
178
     0
271
     2
272
     2
274
     3
278
    44
283
     0
284
     8
340
11
  0
ENDTAB
  0
TABLE
  2
BLOCK_RECORD
  5
1
330
0
100
AcDbSymbolTable
 70
     1
  0
BLOCK_RECORD
  5
1F
330
1
100
AcDbSymbolTableRecord
100
AcDbBlockTableRecord
  2
*Model_Space
340
22
 70
     0
280
     1
281
     0
  0
BLOCK_RECORD
  5
1B
330
1
100
AcDbSymbolTableRecord
100
AcDbBlockTableRecord
  2
*Paper_Space
340
1E
 70
     0
280
     1
281
     0
  0
BLOCK_RECORD
  5
23
330
1
100
AcDbSymbolTableRecord
100
AcDbBlockTableRecord
  2
*Paper_Space0
340
26
 70
     0
280
     1
281
     0
  0
ENDTAB
  0
ENDSEC
  0
SECTION
  2
BLOCKS
  0
BLOCK
  5
20
330
1F
100
AcDbEntity
  8
0
100
AcDbBlockBegin
  2
*Model_Space
 70
     0
 10
0.0
 20
0.0
 30
0.0
  3
*Model_Space
  1

  0
ENDBLK
  5
21
330
1F
100
AcDbEntity
  8
0
100
AcDbBlockEnd
  0
BLOCK
  5
1C
330
1B
100
AcDbEntity
 67
     1
  8
0
100
AcDbBlockBegin
  2
*Paper_Space
 70
     0
 10
0.0
 20
0.0
 30
0.0
  3
*Paper_Space
  1

  0
ENDBLK
  5
1D
330
1B
100
AcDbEntity
 67
     1
  8
0
100
AcDbBlockEnd
  0
BLOCK
  5
24
330
23
100
AcDbEntity
  8
0
100
AcDbBlockBegin
  2
*Paper_Space0
 70
     0
 10
0.0
 20
0.0
 30
0.0
  3
*Paper_Space0
  1

  0
ENDBLK
  5
25
330
23
100
AcDbEntity
  8
0
100
AcDbBlockEnd
  0
ENDSEC
  0
SECTION
  2
ENTITIES
  0
LINE
  5
78
330
1F
100
AcDbEntity
  8
B-E
  6
Continuous
 62
     7
370
     9
100
AcDbLine
 10
227.52471313548
 20
-38.02901613601242
 30
0.0
 11
356.7348386228437
 21
-38.02901613601242
 31
0.0
  0
TEXT
  5
79
330
1F
100
AcDbEntity
  8
B-E
  6
Continuous
 62
     7
370
     9
100
AcDbText
 10
232.4368634031236
 20
-31.50117433913741
 30
0.0
 40
11.43
  1
蓋：ＦＣ２００
 41
1.142857142857143
  7
ＭＳ ゴシック
100
AcDbText
  0
TEXT
  5
7A
330
1F
100
AcDbEntity
  8
B-E
  6
Continuous
 62
     7
370
     9
100
AcDbText
 10
232.4368757751149
 20
-54.24466749660156
 30
0.0
 40
11.43
  1
樹脂系塗装
 41
1.133333333333333
  7
ＭＳ ゴシック
100
AcDbText
  0
LINE
  5
7B
330
1F
100
AcDbEntity
  8
B-0
  6
Continuous
 62
     3
370
     9
100
AcDbLine
 10
-145.2651349835754
 20
72.22948837069156
 30
0.0
 11
-740.2652731374765
 21
72.22948837069156
 31
0.0
  0
LINE
  5
7C
330
1F
100
AcDbEntity
  8
B-0
  6
Continuous
 62
     3
370
     9
100
AcDbLine
 10
-146.2651011667996
 20
73.22945455391577
 30
0.0
 11
-739.2652760242744
 21
73.22945455391577
 31
0.0
  0
LINE
  5
7D
330
1F
100
AcDbEntity
  8
B-0
  6
Continuous
 62
     3
370
     9
100
AcDbLine
 10
451.340238089693
 20
72.91867013668609
 30
0.0
 11
453.7522814807404
 21
72.22948837069156
 31
0.0
  0
LINE
  5
7E
330
1F
100
AcDbEntity
  8
B-0
  6
Continuous
 62
     3
370
     9
100
AcDbLine
 10
450.2522451895665
 20
90.5480151799715
 30
0.0
 11
450.2522451895665
 21
74.360873142915
 31
0.0
  0
LINE
  5
7F
330
1F
100
AcDbEntity
  8
B-0
  6
Continuous
 62
     3
370
     9
100
AcDbLine
 10
451.340238089693
 20
91.99034190611174
 30
0.0
 11
453.7522814807404
 21
92.67946181215054
 31
0.0
  0
LINE
  5
80
330
1F
100
AcDbEntity
  8
B-0
  6
Continuous
 62
     3
370
     9
100
AcDbLine
 10
451.340238089693
 20
101.5686755803621
 30
0.0
 11
453.7522814807404
 21
100.8794938143676
 31
0.0
  0
LINE
  5
81
330
1F
100
AcDbEntity
  8
B-0
  6
Continuous
 62
     3
370
     9
100
AcDbLine
 10
450.2522451895665
 20
103.0109404465466
 30
0.0
 11
450.2522451895665
 21
119.2480034678199
 31
0.0
  0
LINE
  5
82
330
1F
100
AcDbEntity
  8
B-0
  6
Continuous
 62
     3
370
     9
100
AcDbLine
 10
456.6022933578519
 20
87.08695066086251
 30
0.0
 11
472.3272178062263
 21
86.30064876448374
 31
0.0
  0
LINE
  5
83
330
1F
100
AcDbEntity
  8
B-0
  6
Continuous
 62
     3
370
     9
100
AcDbLine
 10
473.7522237447819
 20
77.63283177757502
 30
0.0
 11
473.7522237447819
 21
84.80258621829508
 31
0.0
  0
LINE
  5
84
330
1F
100
AcDbEntity
  8
B-0
  6
Continuous
 62
     3
370
     9
100
AcDbLine
 10
472.3519617884898
 20
76.1360682904551
 30
0.0
 11
460.6191077185993
 21
75.35391101110535
 31
0.0
  0
LINE
  5
85
330
1F
100
AcDbEntity
  8
B-0
  6
Continuous
 62
     3
370
     9
100
AcDbLine
 10
453.7522814807404
 20
72.22948837069156
 30
0.0
 11
458.7522979767288
 21
73.22945455391577
 31
0.0
  0
LINE
  5
86
330
1F
100
AcDbEntity
  8
B-0
  6
Continuous
 62
     3
370
     9
100
AcDbLine
 10
458.7522979767288
 20
73.35837070150875
 30
0.0
 11
458.7522979767288
 21
73.22945455391577
 31
0.0
  0
LINE
  5
87
330
1F
100
AcDbEntity
  8
B-0
  6
Continuous
 62
     3
370
     9
100
AcDbLine
 10
458.7522979767288
 20
107.3591385897582
 30
0.0
 11
458.7522979767288
 21
114.8998671845639
 31
0.0
  0
LINE
  5
88
330
1F
100
AcDbEntity
  8
B-0
  6
Continuous
 62
     3
370
     9
100
AcDbLine
 10
456.1638299921425
 20
116.6472253520577
 30
0.0
 11
457.546276281205
 21
116.3707113502629
 31
0.0
  0
LINE
  5
89
330
1F
100
AcDbEntity
  8
B-0
  6
Continuous
 62
     3
370
     9
100
AcDbLine
 10
456.1638299921425
 20
105.6119041421759
 30
0.0
 11
457.546276281205
 21
105.8882944240594
 31
0.0
  0
LINE
  5
8A
330
1F
100
AcDbEntity
  8
B-0
  6
Continuous
 62
     3
370
     9
100
AcDbLine
 10
453.7522814807404
 20
102.6700920908668
 30
0.0
 11
453.7522814807404
 21
100.8794938143676
 31
0.0
  0
LINE
  5
8B
330
1F
100
AcDbEntity
  8
B-0
  6
Continuous
 62
     3
370
     9
100
AcDbLine
 10
453.7522814807404
 20
90.08313761319572
 30
0.0
 11
453.7522814807404
 21
92.67946181215054
 31
0.0
  0
LINE
  5
8C
330
1F
100
AcDbEntity
  8
B-0
  6
Continuous
 62
     3
370
     9
100
AcDbLine
 10
449.4201050660446
 20
88.89981852139884
 30
0.0
 11
450.2522451895665
 21
89.45445488383557
 31
0.0
  0
LINE
  5
8D
330
1F
100
AcDbEntity
  8
B-0
  6
Continuous
 62
     3
370
     9
100
AcDbLine
 10
449.4201050660446
 20
76.00913166144325
 30
0.0
 11
450.2522451895665
 21
75.45443343905093
 31
0.0
  0
LINE
  5
8E
330
1F
100
AcDbEntity
  8
B-0
  6
Continuous
 62
     3
370
     9
100
AcDbLine
 10
448.7522649847523
 20
77.25721812681486
 30
0.0
 11
448.7522649847523
 21
87.65173205602723
 31
0.0
  0
LINE
  5
8F
330
1F
100
AcDbEntity
  8
B-0
  6
Continuous
 62
     3
370
     9
100
AcDbLine
 10
449.4201050660446
 20
117.5747535272055
 30
0.0
 11
450.2522451895665
 21
118.1294517495978
 31
0.0
  0
LINE
  5
90
330
1F
100
AcDbEntity
  8
B-0
  6
Continuous
 62
     3
370
     9
100
AcDbLine
 10
448.7522649847523
 20
105.9322149925771
 30
0.0
 11
448.7522649847523
 21
116.3266670618339
 31
0.0
  0
LINE
  5
91
330
1F
100
AcDbEntity
  8
B-0
  6
Continuous
 62
     3
370
     9
100
AcDbLine
 10
449.4201050660446
 20
104.6841285272055
 30
0.0
 11
450.2522451895665
 21
104.1294921647688
 31
0.0
  0
LINE
  5
92
330
1F
100
AcDbEntity
  8
B-0
  6
Continuous
 62
     3
370
     9
100
AcDbLine
 10
451.340238089693
 20
120.6903301939602
 30
0.0
 11
453.7522814807404
 21
121.3795119599546
 31
0.0
  0
LINE
  5
93
330
1F
100
AcDbEntity
  8
B-0
  6
Continuous
 62
     3
370
     9
100
AcDbLine
 10
453.7522814807404
 20
119.5889136834555
 30
0.0
 11
453.7522814807404
 21
129.5795439621716
 31
0.0
  0
LINE
  5
94
330
1F
100
AcDbEntity
  8
B-0
  6
Continuous
 62
     3
370
     9
100
AcDbLine
 10
453.7522814807404
 20
100.8794938143676
 30
0.0
 11
453.7522814807404
 21
92.67946181215054
 31
0.0
  0
LINE
  5
95
330
1F
100
AcDbEntity
  8
B-0
  6
Continuous
 62
     3
370
     9
100
AcDbLine
 10
451.340238089693
 20
130.2686638682106
 30
0.0
 11
453.7522814807404
 21
129.5795439621716
 31
0.0
  0
LINE
  5
96
330
1F
100
AcDbEntity
  8
B-0
  6
Continuous
 62
     3
370
     9
100
AcDbLine
 10
450.2522451895665
 20
131.7109287343951
 30
0.0
 11
450.2522451895665
 21
147.948053615624
 31
0.0
  0
LINE
  5
97
330
1F
100
AcDbEntity
  8
B-0
  6
Continuous
 62
     3
370
     9
100
AcDbLine
 10
458.7522979767288
 20
136.059250597518
 30
0.0
 11
458.7522979767288
 21
143.5998554724124
 31
0.0
  0
LINE
  5
98
330
1F
100
AcDbEntity
  8
B-0
  6
Continuous
 62
     3
370
     9
100
AcDbLine
 10
456.1638299921425
 20
145.347213639906
 30
0.0
 11
457.546276281205
 21
145.0706996381114
 31
0.0
  0
LINE
  5
99
330
1F
100
AcDbEntity
  8
B-0
  6
Continuous
 62
     3
370
     9
100
AcDbLine
 10
456.1638299921425
 20
134.3118924300244
 30
0.0
 11
457.546276281205
 21
134.5883445718634
 31
0.0
  0
LINE
  5
9A
330
1F
100
AcDbEntity
  8
B-0
  6
Continuous
 62
     3
370
     9
100
AcDbLine
 10
449.4201050660446
 20
146.2748036750095
 30
0.0
 11
450.2522451895665
 21
146.8295018974019
 31
0.0
  0
LINE
  5
9B
330
1F
100
AcDbEntity
  8
B-0
  6
Continuous
 62
     3
370
     9
100
AcDbLine
 10
448.7522649847523
 20
134.6322651403812
 30
0.0
 11
448.7522649847523
 21
145.0267790695935
 31
0.0
  0
LINE
  5
9C
330
1F
100
AcDbEntity
  8
B-0
  6
Continuous
 62
     3
370
     9
100
AcDbLine
 10
449.4201050660446
 20
133.3841786750095
 30
0.0
 11
450.2522451895665
 21
132.8294804526172
 31
0.0
  0
LINE
  5
9D
330
1F
100
AcDbEntity
  8
B-0
  6
Continuous
 62
     3
370
     9
100
AcDbLine
 10
451.340238089693
 20
149.3903184818085
 30
0.0
 11
453.7522814807404
 21
150.079500247803
 31
0.0
  0
LINE
  5
9E
330
1F
100
AcDbEntity
  8
B-0
  6
Continuous
 62
     3
370
     9
100
AcDbLine
 10
451.340238089693
 20
158.9687140160146
 30
0.0
 11
453.7522814807404
 21
158.2795322500201
 31
0.0
  0
LINE
  5
9F
330
1F
100
AcDbEntity
  8
B-0
  6
Continuous
 62
     3
370
     9
100
AcDbLine
 10
450.2522451895665
 20
160.4109788821991
 30
0.0
 11
450.2522451895665
 21
176.648103763428
 31
0.0
  0
LINE
  5
A0
330
1F
100
AcDbEntity
  8
B-0
  6
Continuous
 62
     3
370
     9
100
AcDbLine
 10
458.7522979767288
 20
164.7592388853664
 30
0.0
 11
458.7522979767288
 21
172.2998437602608
 31
0.0
  0
LINE
  5
A1
330
1F
100
AcDbEntity
  8
B-0
  6
Continuous
 62
     3
370
     9
100
AcDbLine
 10
456.1638299921425
 20
174.0472019277544
 30
0.0
 11
457.546276281205
 21
173.7706879259596
 31
0.0
  0
LINE
  5
A2
330
1F
100
AcDbEntity
  8
B-0
  6
Continuous
 62
     3
370
     9
100
AcDbLine
 10
456.1638299921425
 20
163.0118807178727
 30
0.0
 11
457.546276281205
 21
163.2883947196675
 31
0.0
  0
LINE
  5
A3
330
1F
100
AcDbEntity
  8
B-0
  6
Continuous
 62
     3
370
     9
100
AcDbLine
 10
453.7522814807404
 20
160.0700686665635
 30
0.0
 11
453.7522814807404
 21
150.079500247803
 31
0.0
  0
LINE
  5
A4
330
1F
100
AcDbEntity
  8
B-0
  6
Continuous
 62
     3
370
     9
100
AcDbLine
 10
449.4201050660446
 20
174.9747919628579
 30
0.0
 11
450.2522451895665
 21
175.5294901852503
 31
0.0
  0
LINE
  5
A5
330
1F
100
AcDbEntity
  8
B-0
  6
Continuous
 62
     3
370
     9
100
AcDbLine
 10
448.7522649847523
 20
163.3322534282296
 30
0.0
 11
448.7522649847523
 21
173.7267673574419
 31
0.0
  0
LINE
  5
A6
330
1F
100
AcDbEntity
  8
B-0
  6
Continuous
 62
     3
370
     9
100
AcDbLine
 10
449.4201050660446
 20
162.0842288228135
 30
0.0
 11
450.2522451895665
 21
161.5294687404656
 31
0.0
  0
LINE
  5
A7
330
1F
100
AcDbEntity
  8
B-0
  6
Continuous
 62
     3
370
     9
100
AcDbLine
 10
451.340238089693
 20
178.0903067696569
 30
0.0
 11
453.7522814807404
 21
178.7794885356514
 31
0.0
  0
LINE
  5
A8
330
1F
100
AcDbEntity
  8
B-0
  6
Continuous
 62
     3
370
     9
100
AcDbLine
 10
453.7522814807404
 20
176.9890139790635
 30
0.0
 11
453.7522814807404
 21
178.7794885356514
 31
0.0
  0
LINE
  5
A9
330
1F
100
AcDbEntity
  8
B-0
  6
Continuous
 62
     3
370
     9
100
AcDbLine
 10
450.2522451895665
 20
189.1109671700475
 30
0.0
 11
450.2522451895665
 21
205.3480920512764
 31
0.0
  0
LINE
  5
AA
330
1F
100
AcDbEntity
  8
B-0
  6
Continuous
 62
     3
370
     9
100
AcDbLine
 10
449.4201050660446
 20
203.674842110662
 30
0.0
 11
450.2522451895665
 21
204.2294784730986
 31
0.0
  0
LINE
  5
AB
330
1F
100
AcDbEntity
  8
B-0
  6
Continuous
 62
     3
370
     9
100
AcDbLine
 10
448.7522649847523
 20
192.0323035760336
 30
0.0
 11
448.7522649847523
 21
202.4267556452904
 31
0.0
  0
LINE
  5
AC
330
1F
100
AcDbEntity
  8
B-0
  6
Continuous
 62
     3
370
     9
100
AcDbLine
 10
449.4201050660446
 20
190.784217110662
 30
0.0
 11
450.2522451895665
 21
190.2294570283139
 31
0.0
  0
LINE
  5
AD
330
1F
100
AcDbEntity
  8
B-0
  6
Continuous
 62
     3
370
     9
100
AcDbLine
 10
451.340238089693
 20
206.7903569174609
 30
0.0
 11
453.7522814807404
 21
207.4794768234999
 31
0.0
  0
LINE
  5
AE
330
1F
100
AcDbEntity
  8
B-0
  6
Continuous
 62
     3
370
     9
100
AcDbLine
 10
453.7522814807404
 20
205.6889404069562
 30
0.0
 11
453.7522814807404
 21
207.4794768234999
 31
0.0
  0
LINE
  5
AF
330
1F
100
AcDbEntity
  8
B-0
  6
Continuous
 62
     3
370
     9
100
AcDbLine
 10
451.340238089693
 20
216.3686905917113
 30
0.0
 11
453.7522814807404
 21
215.6795088257169
 31
0.0
  0
LINE
  5
B0
330
1F
100
AcDbEntity
  8
B-0
  6
Continuous
 62
     3
370
     9
100
AcDbLine
 10
450.2522451895665
 20
217.810955457896
 30
0.0
 11
450.2522451895665
 21
234.0480184791692
 31
0.0
  0
LINE
  5
B1
330
1F
100
AcDbEntity
  8
B-0
  6
Continuous
 62
     3
370
     9
100
AcDbLine
 10
458.7522979767288
 20
222.1591536011076
 30
0.0
 11
458.7522979767288
 21
229.6998821959133
 31
0.0
  0
LINE
  5
B2
330
1F
100
AcDbEntity
  8
B-0
  6
Continuous
 62
     3
370
     9
100
AcDbLine
 10
456.1638299921425
 20
231.4471166434956
 30
0.0
 11
457.546276281205
 21
231.1707263616121
 31
0.0
  0
LINE
  5
B3
330
1F
100
AcDbEntity
  8
B-0
  6
Continuous
 62
     3
370
     9
100
AcDbLine
 10
456.1638299921425
 20
220.4119191535251
 30
0.0
 11
457.546276281205
 21
220.6883094354086
 31
0.0
  0
LINE
  5
B4
330
1F
100
AcDbEntity
  8
B-0
  6
Continuous
 62
     3
370
     9
100
AcDbLine
 10
453.7522814807404
 20
217.470107102216
 30
0.0
 11
453.7522814807404
 21
207.4794768234999
 31
0.0
  0
LINE
  5
B5
330
1F
100
AcDbEntity
  8
B-0
  6
Continuous
 62
     3
370
     9
100
AcDbLine
 10
449.4201050660446
 20
232.3747685385547
 30
0.0
 11
450.2522451895665
 21
232.929466760947
 31
0.0
  0
LINE
  5
B6
330
1F
100
AcDbEntity
  8
B-0
  6
Continuous
 62
     3
370
     9
100
AcDbLine
 10
448.7522649847523
 20
220.7322300039263
 30
0.0
 11
448.7522649847523
 21
231.1266820731831
 31
0.0
  0
LINE
  5
B7
330
1F
100
AcDbEntity
  8
B-0
  6
Continuous
 62
     3
370
     9
100
AcDbLine
 10
449.4201050660446
 20
219.4841435385547
 30
0.0
 11
450.2522451895665
 21
218.9295071761181
 31
0.0
  0
LINE
  5
B8
330
1F
100
AcDbEntity
  8
B-0
  6
Continuous
 62
     3
370
     9
100
AcDbLine
 10
451.340238089693
 20
235.4903452053094
 30
0.0
 11
453.7522814807404
 21
236.1795269713039
 31
0.0
  0
LINE
  5
B9
330
1F
100
AcDbEntity
  8
B-0
  6
Continuous
 62
     3
370
     9
100
AcDbLine
 10
453.7522814807404
 20
234.3889286948047
 30
0.0
 11
453.7522814807404
 21
236.1795269713039
 31
0.0
  0
LINE
  5
BA
330
1F
100
AcDbEntity
  8
B-0
  6
Continuous
 62
     3
370
     9
100
AcDbLine
 10
483.7520092969356
 20
137.2329195362321
 30
0.0
 11
483.7520092969356
 21
142.4261865336983
 31
0.0
  0
LINE
  5
BB
330
1F
100
AcDbEntity
  8
B-0
  6
Continuous
 62
     3
370
     9
100
AcDbLine
 10
453.7522814807404
 20
148.2889638312595
 30
0.0
 11
453.7522814807404
 21
150.079500247803
 31
0.0
  0
LINE
  5
BC
330
1F
100
AcDbEntity
  8
B-0
  6
Continuous
 62
     3
370
     9
100
AcDbLine
 10
451.340238089693
 20
187.6686404439073
 30
0.0
 11
453.7522814807404
 21
186.9795205378685
 31
0.0
  0
LINE
  5
BD
330
1F
100
AcDbEntity
  8
B-0
  6
Continuous
 62
     3
370
     9
100
AcDbLine
 10
453.7522814807404
 20
188.1977286446569
 30
0.0
 11
453.7522814807404
 21
186.9795205378685
 31
0.0
  0
LINE
  5
BE
330
1F
100
AcDbEntity
  8
B-0
  6
Continuous
 62
     3
370
     9
100
AcDbLine
 10
483.7520092969356
 20
194.4077877332866
 30
0.0
 11
483.7520092969356
 21
199.6010547307527
 31
0.0
  0
LINE
  5
BF
330
1F
100
AcDbEntity
  8
B-0
  6
Continuous
 62
     3
370
     9
100
AcDbLine
 10
453.7522814807404
 20
178.7794885356514
 30
0.0
 11
453.7522814807404
 21
186.9795205378685
 31
0.0
  0
LINE
  5
C0
330
1F
100
AcDbEntity
  8
B-0
  6
Continuous
 62
     3
370
     9
100
AcDbLine
 10
478.4196811191485
 20
192.6489236140404
 30
0.0
 11
482.3519947804659
 21
192.9110861061223
 31
0.0
  0
LINE
  5
C1
330
1F
100
AcDbEntity
  8
B-0
  6
Continuous
 62
     3
370
     9
100
AcDbLine
 10
456.5525579535023
 20
191.1910700390298
 30
0.0
 11
478.4196811191485
 21
192.6489236140404
 31
0.0
  0
LINE
  5
C2
330
1F
100
AcDbEntity
  8
B-0
  6
Continuous
 62
     3
370
     9
100
AcDbLine
 10
478.4196811191485
 20
201.359918849999
 30
0.0
 11
482.3519947804659
 21
201.0976944979613
 31
0.0
  0
LINE
  5
C3
330
1F
100
AcDbEntity
  8
B-0
  6
Continuous
 62
     3
370
     9
100
AcDbLine
 10
456.5525579535023
 20
202.8177105650539
 30
0.0
 11
482.3519947804659
 21
201.0976944979613
 31
0.0
  0
LINE
  5
C4
330
1F
100
AcDbEntity
  8
B-0
  6
Continuous
 62
     3
370
     9
100
AcDbLine
 10
473.7522237447819
 20
187.6600419100707
 30
0.0
 11
473.7522237447819
 21
84.80258621829508
 31
0.0
  0
LINE
  5
C5
330
1F
100
AcDbEntity
  8
B-0
  6
Continuous
 62
     3
370
     9
100
AcDbLine
 10
473.7522237447819
 20
151.82951839339
 30
0.0
 11
487.752121469655
 21
151.82951839339
 31
0.0
  0
LINE
  5
C6
330
1F
100
AcDbEntity
  8
B-0
  6
Continuous
 62
     3
370
     9
100
AcDbLine
 10
473.7522237447819
 20
145.8295975741332
 30
0.0
 11
487.752121469655
 21
145.8295975741332
 31
0.0
  0
LINE
  5
C7
330
1F
100
AcDbEntity
  8
B-0
  6
Continuous
 62
     3
370
     9
100
AcDbLine
 10
473.7522237447819
 20
133.8295084957972
 30
0.0
 11
487.752121469655
 21
133.8295084957972
 31
0.0
  0
LINE
  5
C8
330
1F
100
AcDbEntity
  8
B-0
  6
Continuous
 62
     3
370
     9
100
AcDbLine
 10
473.7522237447819
 20
127.8295258165846
 30
0.0
 11
487.752121469655
 21
127.8295258165846
 31
0.0
  0
LINE
  5
C9
330
1F
100
AcDbEntity
  8
B-0
  6
Continuous
 62
     3
370
     9
100
AcDbLine
 10
491.4746061613783
 20
142.3295612829593
 30
0.0
 11
528.474777719655
 21
142.3295612829593
 31
0.0
  0
LINE
  5
CA
330
1F
100
AcDbEntity
  8
B-0
  6
Continuous
 62
     3
370
     9
100
AcDbLine
 10
491.4746061613783
 20
137.3294829270154
 30
0.0
 11
528.474777719655
 21
137.3294829270154
 31
0.0
  0
LINE
  5
CB
330
1F
100
AcDbEntity
  8
B-0
  6
Continuous
 62
     3
370
     9
100
AcDbLine
 10
558.0039987131096
 20
156.4356725516987
 30
0.0
 11
540.7094397498493
 21
118.3883356640298
 31
0.0
  0
LINE
  5
CC
330
1F
100
AcDbEntity
  8
B-0
  6
Continuous
 62
     3
370
     9
100
AcDbLine
 10
529.9747579244694
 20
148.8295579837616
 30
0.0
 11
554.5465220714287
 21
148.8295579837616
 31
0.0
  0
LINE
  5
CD
330
1F
100
AcDbEntity
  8
B-0
  6
Continuous
 62
     3
370
     9
100
AcDbLine
 10
529.9747579244694
 20
143.8295414877735
 30
0.0
 11
552.2737873005252
 21
143.8295414877735
 31
0.0
  0
LINE
  5
CE
330
1F
100
AcDbEntity
  8
B-0
  6
Continuous
 62
     3
370
     9
100
AcDbLine
 10
529.9747579244694
 20
135.8295645821569
 30
0.0
 11
548.6374116670794
 21
135.8295645821569
 31
0.0
  0
LINE
  5
CF
330
1F
100
AcDbEntity
  8
B-0
  6
Continuous
 62
     3
370
     9
100
AcDbLine
 10
529.9747579244694
 20
130.829486226213
 30
0.0
 11
546.3646768961753
 21
130.829486226213
 31
0.0
  0
LINE
  5
D0
330
1F
100
AcDbEntity
  8
B-1
  6
Continuous
 62
     2
370
     9
100
AcDbLine
 10
473.7522237447819
 20
73.22945455391577
 30
0.0
 11
473.7522237447819
 21
77.63283177757502
 31
0.0
  0
LINE
  5
D1
330
1F
100
AcDbEntity
  8
B-1
  6
Continuous
 62
     2
370
     9
100
AcDbLine
 10
470.7522633351534
 20
70.22943228433179
 30
0.0
 11
448.7522649847523
 21
70.22943228433179
 31
0.0
  0
LINE
  5
D2
330
1F
100
AcDbEntity
  8
B-1
  6
Continuous
 62
     2
370
     9
100
AcDbLine
 10
491.9521650190638
 20
67.02947863805848
 30
0.0
 11
448.7522649847523
 21
67.02947863805848
 31
0.0
  0
LINE
  5
D3
330
1F
100
AcDbEntity
  8
B-1
  6
Continuous
 62
     2
370
     9
100
AcDbLine
 10
448.7522649847523
 20
70.22943228433179
 30
0.0
 11
448.7522649847523
 21
67.02947863805848
 31
0.0
  0
LINE
  5
D4
330
1F
100
AcDbEntity
  8
B-1
  6
Continuous
 62
     2
370
     9
100
AcDbLine
 10
496.9521815150523
 20
53.02939533331825
 30
0.0
 11
496.9521815150523
 21
38.0294077053094
 31
0.0
  0
LINE
  5
D5
330
1F
100
AcDbEntity
  8
B-1
  6
Continuous
 62
     2
370
     9
100
AcDbLine
 10
505.9520627439373
 20
53.02945719327384
 30
0.0
 11
505.9520627439373
 21
38.0294077053094
 31
0.0
  0
LINE
  5
D6
330
1F
100
AcDbEntity
  8
B-1
  6
Continuous
 62
     2
370
     9
100
AcDbLine
 10
505.9520627439373
 20
38.0294077053094
 30
0.0
 11
496.9521815150523
 21
38.0294077053094
 31
0.0
  0
LINE
  5
D7
330
1F
100
AcDbEntity
  8
B-1
  6
Continuous
 62
     2
370
     9
100
AcDbLine
 10
491.9521650190638
 20
58.0294118293064
 30
0.0
 11
466.9520825391231
 21
58.0294118293064
 31
0.0
  0
LINE
  5
D8
330
1F
100
AcDbEntity
  8
B-1
  6
Continuous
 62
     2
370
     9
100
AcDbLine
 10
466.9520825391231
 20
67.02947863805848
 30
0.0
 11
466.9520825391231
 21
58.0294118293064
 31
0.0
  0
LINE
  5
D9
330
1F
100
AcDbEntity
  8
B-1
  6
Continuous
 62
     2
370
     9
100
AcDbLine
 10
476.9521155310993
 20
73.22945455391577
 30
0.0
 11
476.9521155310993
 21
97.22944713072111
 31
0.0
  0
LINE
  5
DA
330
1F
100
AcDbEntity
  8
B-0
  6
Continuous
 62
     3
370
     9
100
AcDbLine
 10
-737.8586115625716
 20
-267.3881016314201
 30
0.0
 11
-738.6408307018768
 21
-255.6553094214854
 31
0.0
  0
LINE
  5
DB
330
1F
100
AcDbEntity
  8
B-0
  6
Continuous
 62
     3
370
     9
100
AcDbLine
 10
-194.9066977805033
 20
-276.1088707403727
 30
0.0
 11
-184.3652045966456
 21
-268.7883635877122
 31
0.0
  0
LINE
  5
DC
330
1F
100
AcDbEntity
  8
B-0
  6
Continuous
 62
     3
370
     9
100
AcDbLine
 10
-690.623648480593
 20
-276.1089326003284
 30
0.0
 11
-701.1652653843621
 21
-268.7883635877122
 31
0.0
  0
LINE
  5
DD
330
1F
100
AcDbEntity
  8
B-0
  6
Continuous
 62
     3
370
     9
100
AcDbLine
 10
-144.4543365447558
 20
-246.3763160726678
 30
0.0
 11
-143.7651547787612
 21
-248.7883594637152
 31
0.0
  0
LINE
  5
DE
330
1F
100
AcDbEntity
  8
B-0
  6
Continuous
 62
     3
370
     9
100
AcDbLine
 10
-740.7652871590664
 20
-253.7883759597034
 30
0.0
 11
-144.7651209619854
 21
-253.7883759597034
 31
0.0
  0
LINE
  5
DF
330
1F
100
AcDbEntity
  8
B-0
  6
Continuous
 62
     3
370
     9
100
AcDbLine
 10
-143.7651547787612
 20
-248.7883594637152
 30
0.0
 11
-144.7651209619854
 21
-253.7883759597034
 31
0.0
  0
LINE
  5
E0
330
1F
100
AcDbEntity
  8
B-0
  6
Continuous
 62
     3
370
     9
100
AcDbLine
 10
-147.6719202783917
 20
-267.3881016314201
 30
0.0
 11
-146.8896392791308
 21
-255.6553094214854
 31
0.0
  0
LINE
  5
E1
330
1F
100
AcDbEntity
  8
B-0
  6
Continuous
 62
     3
370
     9
100
AcDbLine
 10
-739.6338376400895
 20
-245.2883231725412
 30
0.0
 11
-145.8965395509847
 21
-245.2883231725412
 31
0.0
  0
LINE
  5
E2
330
1F
100
AcDbEntity
  8
B-0
  6
Continuous
 62
     3
370
     9
100
AcDbLine
 10
-741.7652533422906
 20
-248.7883594637152
 30
0.0
 11
-740.7652871590664
 21
-253.7883759597034
 31
0.0
  0
LINE
  5
E3
330
1F
100
AcDbEntity
  8
B-0
  6
Continuous
 62
     3
370
     9
100
AcDbLine
 10
-741.0761025062739
 20
-246.3763160726678
 30
0.0
 11
-741.7652533422906
 21
-248.7883594637152
 31
0.0
  0
LINE
  5
E4
330
1F
100
AcDbEntity
  8
B-0
  6
Continuous
 62
     3
370
     9
100
AcDbLine
 10
-741.7652533422906
 20
-248.7883594637152
 30
0.0
 11
-143.7651547787612
 21
-248.7883594637152
 31
0.0
  0
LINE
  5
E5
330
1F
100
AcDbEntity
  8
B-0
  6
Continuous
 62
     3
370
     9
100
AcDbLine
 10
-687.9425761423856
 20
-268.7883635877122
 30
0.0
 11
-736.3619408653851
 21
-268.7883635877122
 31
0.0
  0
LINE
  5
E6
330
1F
100
AcDbEntity
  8
B-0
  6
Continuous
 62
     3
370
     9
100
AcDbLine
 10
-149.1685600456003
 20
-268.7883635877122
 30
0.0
 11
-659.5052452262645
 21
-268.7883635877122
 31
0.0
  0
LINE
  5
E7
330
1F
100
AcDbEntity
  8
B-0
  6
Continuous
 62
     3
370
     9
100
AcDbLine
 10
-659.5052452262645
 20
-268.7883635877122
 30
0.0
 11
-687.9425761423856
 21
-268.7883635877122
 31
0.0
  0
LINE
  5
E8
330
1F
100
AcDbEntity
  8
B-0
  6
Continuous
 62
     3
370
     9
100
AcDbLine
 10
-664.7652591158865
 20
-292.7883561645175
 30
0.0
 11
-664.7652591158865
 21
-316.7883487413229
 31
0.0
  0
LINE
  5
E9
330
1F
100
AcDbEntity
  8
B-0
  6
Continuous
 62
     3
370
     9
100
AcDbLine
 10
-669.7652756118747
 20
-292.7883561645175
 30
0.0
 11
-669.7652756118747
 21
-316.7883487413229
 31
0.0
  0
LINE
  5
EA
330
1F
100
AcDbEntity
  8
B-0
  6
Continuous
 62
     3
370
     9
100
AcDbLine
 10
-676.765286334267
 20
-278.7883347197329
 30
0.0
 11
-682.0676742935153
 21
-278.7883347197329
 31
0.0
  0
LINE
  5
EB
330
1F
100
AcDbEntity
  8
B-0
  6
Continuous
 62
     3
370
     9
100
AcDbLine
 10
-677.7652525174914
 20
-292.7883561645175
 30
0.0
 11
-677.7652525174914
 21
-316.7883487413229
 31
0.0
  0
LINE
  5
EC
330
1F
100
AcDbEntity
  8
B-0
  6
Continuous
 62
     3
370
     9
100
AcDbLine
 10
-682.7652690134794
 20
-292.7883561645175
 30
0.0
 11
-682.7652690134794
 21
-316.7882868813672
 31
0.0
  0
LINE
  5
ED
330
1F
100
AcDbEntity
  8
B-0
  6
Continuous
 62
     3
370
     9
100
AcDbLine
 10
-671.2652558166889
 20
-318.2883908060928
 30
0.0
 11
-671.2652558166889
 21
-338.2883330701342
 31
0.0
  0
LINE
  5
EE
330
1F
100
AcDbEntity
  8
B-0
  6
Continuous
 62
     3
370
     9
100
AcDbLine
 10
-676.265272312677
 20
-318.2883908060928
 30
0.0
 11
-676.265272312677
 21
-332.9321269494626
 31
0.0
  0
LINE
  5
EF
330
1F
100
AcDbEntity
  8
B-0
  6
Continuous
 62
     3
370
     9
100
AcDbLine
 10
-667.2457196178924
 20
-342.5942808636308
 30
0.0
 11
-680.056112255403
 21
-328.871268300286
 31
0.0
  0
LINE
  5
F0
330
1F
100
AcDbEntity
  8
B-0
  6
Continuous
 62
     3
370
     9
100
AcDbLine
 10
-220.765210865121
 20
-292.7883561645175
 30
0.0
 11
-220.765210865121
 21
-316.7883487413229
 31
0.0
  0
LINE
  5
F1
330
1F
100
AcDbEntity
  8
B-0
  6
Continuous
 62
     3
370
     9
100
AcDbLine
 10
-215.7651325091772
 20
-292.7883561645175
 30
0.0
 11
-215.7651325091772
 21
-316.7883487413229
 31
0.0
  0
LINE
  5
F2
330
1F
100
AcDbEntity
  8
B-0
  6
Continuous
 62
     3
370
     9
100
AcDbLine
 10
-207.7651556035607
 20
-292.7883561645175
 30
0.0
 11
-207.7651556035607
 21
-316.7883487413229
 31
0.0
  0
LINE
  5
F3
330
1F
100
AcDbEntity
  8
B-0
  6
Continuous
 62
     3
370
     9
100
AcDbLine
 10
-202.7651391075724
 20
-292.7883561645175
 30
0.0
 11
-202.7651391075724
 21
-316.7882868813672
 31
0.0
  0
LINE
  5
F4
330
1F
100
AcDbEntity
  8
B-0
  6
Continuous
 62
     3
370
     9
100
AcDbLine
 10
-214.2652141643186
 20
-318.2883908060928
 30
0.0
 11
-214.2652141643186
 21
-338.2883330701342
 31
0.0
  0
LINE
  5
F5
330
1F
100
AcDbEntity
  8
B-0
  6
Continuous
 62
     3
370
     9
100
AcDbLine
 10
-209.2651976683305
 20
-318.2883908060928
 30
0.0
 11
-209.2651976683305
 21
-332.9321269494626
 31
0.0
  0
LINE
  5
F6
330
1F
100
AcDbEntity
  8
B-0
  6
Continuous
 62
     3
370
     9
100
AcDbLine
 10
-218.2847503631151
 20
-342.5942808636308
 30
0.0
 11
-205.4743577256046
 21
-328.871268300286
 31
0.0
  0
LINE
  5
F7
330
1F
100
AcDbEntity
  8
B-0
  6
Continuous
 62
     3
370
     9
100
AcDbLine
 10
-670.7652727250768
 20
-278.7883347197329
 30
0.0
 11
-214.765166325953
 21
-278.7883347197329
 31
0.0
  0
LINE
  5
F8
330
1F
100
AcDbEntity
  8
B-0
  6
Continuous
 62
     3
370
     9
100
AcDbLine
 10
-208.7651836467405
 20
-278.7883347197329
 30
0.0
 11
-203.4626719675809
 21
-278.7883347197329
 31
0.0
  0
LINE
  5
F9
330
1F
100
AcDbEntity
  8
B-0
  6
Continuous
 62
     3
370
     9
100
AcDbLine
 10
-736.2105695538879
 20
-244.4563067689305
 30
0.0
 11
-736.7652677762804
 21
-245.2883231725412
 31
0.0
  0
LINE
  5
FA
330
1F
100
AcDbEntity
  8
B-0
  6
Continuous
 62
     3
370
     9
100
AcDbLine
 10
-722.5680058628777
 20
-243.788342967727
 30
0.0
 11
-734.9625140184942
 21
-243.788342967727
 31
0.0
  0
LINE
  5
FB
330
1F
100
AcDbEntity
  8
B-0
  6
Continuous
 62
     3
370
     9
100
AcDbLine
 10
-721.3199812574617
 20
-244.4563067689305
 30
0.0
 11
-720.7652830350695
 21
-245.2883231725412
 31
0.0
  0
LINE
  5
FC
330
1F
100
AcDbEntity
  8
B-0
  6
Continuous
 62
     3
370
     9
100
AcDbLine
 10
-714.2105712034869
 20
-244.4563067689305
 30
0.0
 11
-714.7652694258791
 21
-245.2883231725412
 31
0.0
  0
LINE
  5
FD
330
1F
100
AcDbEntity
  8
B-0
  6
Continuous
 62
     3
370
     9
100
AcDbLine
 10
-700.5680075124765
 20
-243.788342967727
 30
0.0
 11
-712.962515668093
 21
-243.788342967727
 31
0.0
  0
LINE
  5
FE
330
1F
100
AcDbEntity
  8
B-0
  6
Continuous
 62
     3
370
     9
100
AcDbLine
 10
-699.3199829070604
 20
-244.4563067689305
 30
0.0
 11
-698.7652537546903
 21
-245.2883231725412
 31
0.0
  0
LINE
  5
FF
330
1F
100
AcDbEntity
  8
B-0
  6
Continuous
 62
     3
370
     9
100
AcDbLine
 10
-692.2105419231077
 20
-244.4563067689305
 30
0.0
 11
-692.7652710754779
 21
-245.2883231725412
 31
0.0
  0
LINE
  5
100
330
1F
100
AcDbEntity
  8
B-0
  6
Continuous
 62
     3
370
     9
100
AcDbLine
 10
-678.5680091620752
 20
-243.788342967727
 30
0.0
 11
-690.9625173176919
 21
-243.788342967727
 31
0.0
  0
LINE
  5
101
330
1F
100
AcDbEntity
  8
B-0
  6
Continuous
 62
     3
370
     9
100
AcDbLine
 10
-677.3199845566593
 20
-244.4563067689305
 30
0.0
 11
-676.765286334267
 21
-245.2883231725412
 31
0.0
  0
LINE
  5
102
330
1F
100
AcDbEntity
  8
B-0
  6
Continuous
 62
     3
370
     9
100
AcDbLine
 10
-670.2105745026845
 20
-244.4563067689305
 30
0.0
 11
-670.7652727250768
 21
-245.2883231725412
 31
0.0
  0
LINE
  5
103
330
1F
100
AcDbEntity
  8
B-0
  6
Continuous
 62
     3
370
     9
100
AcDbLine
 10
-656.5680108116742
 20
-243.788342967727
 30
0.0
 11
-668.9625189672906
 21
-243.788342967727
 31
0.0
  0
LINE
  5
104
330
1F
100
AcDbEntity
  8
B-0
  6
Continuous
 62
     3
370
     9
100
AcDbLine
 10
-655.3199862062581
 20
-244.4563067689305
 30
0.0
 11
-654.7652570538879
 21
-245.2883231725412
 31
0.0
  0
LINE
  5
105
330
1F
100
AcDbEntity
  8
B-0
  6
Continuous
 62
     3
370
     9
100
AcDbLine
 10
-648.2105761522832
 20
-244.4563067689305
 30
0.0
 11
-648.7652743746755
 21
-245.2883231725412
 31
0.0
  0
LINE
  5
106
330
1F
100
AcDbEntity
  8
B-0
  6
Continuous
 62
     3
370
     9
100
AcDbLine
 10
-634.5680124612728
 20
-243.788342967727
 30
0.0
 11
-646.9624896869117
 21
-243.788342967727
 31
0.0
  0
LINE
  5
107
330
1F
100
AcDbEntity
  8
B-0
  6
Continuous
 62
     3
370
     9
100
AcDbLine
 10
-633.3199569258791
 20
-244.4563067689305
 30
0.0
 11
-632.7652587034868
 21
-245.2883231725412
 31
0.0
  0
LINE
  5
108
330
1F
100
AcDbEntity
  8
B-0
  6
Continuous
 62
     3
370
     9
100
AcDbLine
 10
-626.2105468719042
 20
-244.4563067689305
 30
0.0
 11
-626.7652450942966
 21
-245.2883231725412
 31
0.0
  0
LINE
  5
109
330
1F
100
AcDbEntity
  8
B-0
  6
Continuous
 62
     3
370
     9
100
AcDbLine
 10
-612.5680141108717
 20
-243.788342967727
 30
0.0
 11
-624.9625222664882
 21
-243.788342967727
 31
0.0
  0
LINE
  5
10A
330
1F
100
AcDbEntity
  8
B-0
  6
Continuous
 62
     3
370
     9
100
AcDbLine
 10
-611.3199895054559
 20
-244.4563067689305
 30
0.0
 11
-610.7652294231077
 21
-245.2883231725412
 31
0.0
  0
LINE
  5
10B
330
1F
100
AcDbEntity
  8
B-0
  6
Continuous
 62
     3
370
     9
100
AcDbLine
 10
-604.210548521503
 20
-244.4563067689305
 30
0.0
 11
-604.7652467438954
 21
-245.2883231725412
 31
0.0
  0
LINE
  5
10C
330
1F
100
AcDbEntity
  8
B-0
  6
Continuous
 62
     3
370
     9
100
AcDbLine
 10
-590.5680157604705
 20
-243.788342967727
 30
0.0
 11
-602.9624929861093
 21
-243.788342967727
 31
0.0
  0
LINE
  5
10D
330
1F
100
AcDbEntity
  8
B-0
  6
Continuous
 62
     3
370
     9
100
AcDbLine
 10
-589.3199602250768
 20
-244.4563067689305
 30
0.0
 11
-588.7652620026845
 21
-245.2883231725412
 31
0.0
  0
LINE
  5
10E
330
1F
100
AcDbEntity
  8
B-0
  6
Continuous
 62
     3
370
     9
100
AcDbLine
 10
-582.2105501711019
 20
-244.4563067689305
 30
0.0
 11
-582.7652793234721
 21
-245.2883231725412
 31
0.0
  0
LINE
  5
10F
330
1F
100
AcDbEntity
  8
B-0
  6
Continuous
 62
     3
370
     9
100
AcDbLine
 10
-568.5680174100695
 20
-243.788342967727
 30
0.0
 11
-580.962494635708
 21
-243.788342967727
 31
0.0
  0
LINE
  5
110
330
1F
100
AcDbEntity
  8
B-0
  6
Continuous
 62
     3
370
     9
100
AcDbLine
 10
-567.3199618746755
 20
-244.4563067689305
 30
0.0
 11
-566.7652636522832
 21
-245.2883231725412
 31
0.0
  0
LINE
  5
111
330
1F
100
AcDbEntity
  8
B-0
  6
Continuous
 62
     3
370
     9
100
AcDbLine
 10
-560.2105827506784
 20
-244.4563067689305
 30
0.0
 11
-560.765250043093
 21
-245.2883231725412
 31
0.0
  0
LINE
  5
112
330
1F
100
AcDbEntity
  8
B-0
  6
Continuous
 62
     3
370
     9
100
AcDbLine
 10
-546.5679881296903
 20
-243.788342967727
 30
0.0
 11
-558.962496285307
 21
-243.788342967727
 31
0.0
  0
LINE
  5
113
330
1F
100
AcDbEntity
  8
B-0
  6
Continuous
 62
     3
370
     9
100
AcDbLine
 10
-545.3199325942966
 20
-244.4563067689305
 30
0.0
 11
-544.7652653018821
 21
-245.2883231725412
 31
0.0
  0
LINE
  5
114
330
1F
100
AcDbEntity
  8
B-0
  6
Continuous
 62
     3
370
     9
100
AcDbLine
 10
-538.2105225403217
 20
-244.4563067689305
 30
0.0
 11
-538.765220762714
 21
-245.2883231725412
 31
0.0
  0
LINE
  5
115
330
1F
100
AcDbEntity
  8
B-0
  6
Continuous
 62
     3
370
     9
100
AcDbLine
 10
-524.5679897792892
 20
-243.788342967727
 30
0.0
 11
-536.9624979349056
 21
-243.788342967727
 31
0.0
  0
LINE
  5
116
330
1F
100
AcDbEntity
  8
B-0
  6
Continuous
 62
     3
370
     9
100
AcDbLine
 10
-523.3199033139175
 20
-244.4563067689305
 30
0.0
 11
-522.765266951481
 21
-245.2883231725412
 31
0.0
  0
LINE
  5
117
330
1F
100
AcDbEntity
  8
B-0
  6
Continuous
 62
     3
370
     9
100
AcDbLine
 10
-516.2105241899205
 20
-244.4563067689305
 30
0.0
 11
-516.7652224123128
 21
-245.2883231725412
 31
0.0
  0
LINE
  5
118
330
1F
100
AcDbEntity
  8
B-0
  6
Continuous
 62
     3
370
     9
100
AcDbLine
 10
-502.5679914288879
 20
-243.788342967727
 30
0.0
 11
-514.9624377245489
 21
-243.788342967727
 31
0.0
  0
LINE
  5
119
330
1F
100
AcDbEntity
  8
B-0
  6
Continuous
 62
     3
370
     9
100
AcDbLine
 10
-501.319966823472
 20
-244.4563067689305
 30
0.0
 11
-500.765206741124
 21
-245.2883231725412
 31
0.0
  0
LINE
  5
11A
330
1F
100
AcDbEntity
  8
B-0
  6
Continuous
 62
     3
370
     9
100
AcDbLine
 10
-494.2105258395193
 20
-244.4563067689305
 30
0.0
 11
-494.7652240619117
 21
-245.2883231725412
 31
0.0
  0
LINE
  5
11B
330
1F
100
AcDbEntity
  8
B-0
  6
Continuous
 62
     3
370
     9
100
AcDbLine
 10
-480.5679930784868
 20
-243.788342967727
 30
0.0
 11
-492.9625012341033
 21
-243.788342967727
 31
0.0
  0
LINE
  5
11C
330
1F
100
AcDbEntity
  8
B-0
  6
Continuous
 62
     3
370
     9
100
AcDbLine
 10
-479.3199066131152
 20
-244.4563067689305
 30
0.0
 11
-478.7652702506784
 21
-245.2883231725412
 31
0.0
  0
LINE
  5
11D
330
1F
100
AcDbEntity
  8
B-0
  6
Continuous
 62
     3
370
     9
100
AcDbLine
 10
-472.2105274891181
 20
-244.4563067689305
 30
0.0
 11
-472.7652257115105
 21
-245.2883231725412
 31
0.0
  0
LINE
  5
11E
330
1F
100
AcDbEntity
  8
B-0
  6
Continuous
 62
     3
370
     9
100
AcDbLine
 10
-458.5679947280856
 20
-243.788342967727
 30
0.0
 11
-470.9625028837021
 21
-243.788342967727
 31
0.0
  0
LINE
  5
11F
330
1F
100
AcDbEntity
  8
B-0
  6
Continuous
 62
     3
370
     9
100
AcDbLine
 10
-457.319908262714
 20
-244.4563067689305
 30
0.0
 11
-456.7652719002773
 21
-245.2883231725412
 31
0.0
  0
LINE
  5
120
330
1F
100
AcDbEntity
  8
B-0
  6
Continuous
 62
     3
370
     9
100
AcDbLine
 10
-450.2104672787613
 20
-244.4563067689305
 30
0.0
 11
-450.7652273611092
 21
-245.2883231725412
 31
0.0
  0
LINE
  5
121
330
1F
100
AcDbEntity
  8
B-0
  6
Continuous
 62
     3
370
     9
100
AcDbLine
 10
-436.5679963776844
 20
-243.788342967727
 30
0.0
 11
-448.9624426733452
 21
-243.788342967727
 31
0.0
  0
LINE
  5
122
330
1F
100
AcDbEntity
  8
B-0
  6
Continuous
 62
     3
370
     9
100
AcDbLine
 10
-435.3199099123128
 20
-244.4563067689305
 30
0.0
 11
-434.7652116899205
 21
-245.2883231725412
 31
0.0
  0
LINE
  5
123
330
1F
100
AcDbEntity
  8
B-0
  6
Continuous
 62
     3
370
     9
100
AcDbLine
 10
-428.2104689283601
 20
-244.4563067689305
 30
0.0
 11
-428.765229010708
 21
-245.2883231725412
 31
0.0
  0
LINE
  5
124
330
1F
100
AcDbEntity
  8
B-0
  6
Continuous
 62
     3
370
     9
100
AcDbLine
 10
-414.5679361673275
 20
-243.788342967727
 30
0.0
 11
-426.9624443229441
 21
-243.788342967727
 31
0.0
  0
LINE
  5
125
330
1F
100
AcDbEntity
  8
B-0
  6
Continuous
 62
     3
370
     9
100
AcDbLine
 10
-413.3199115619117
 20
-244.4563067689305
 30
0.0
 11
-412.7652133395193
 21
-245.2883231725412
 31
0.0
  0
LINE
  5
126
330
1F
100
AcDbEntity
  8
B-0
  6
Continuous
 62
     3
370
     9
100
AcDbLine
 10
-406.2104705779589
 20
-244.4563067689305
 30
0.0
 11
-406.765230660307
 21
-245.2883231725412
 31
0.0
  0
LINE
  5
127
330
1F
100
AcDbEntity
  8
B-0
  6
Continuous
 62
     3
370
     9
100
AcDbLine
 10
-392.5678759569707
 20
-243.788342967727
 30
0.0
 11
-404.9623841125873
 21
-243.788342967727
 31
0.0
  0
LINE
  5
128
330
1F
100
AcDbEntity
  8
B-0
  6
Continuous
 62
     3
370
     9
100
AcDbLine
 10
-391.3198513515547
 20
-244.4563067689305
 30
0.0
 11
-390.7651531291624
 21
-245.2883231725412
 31
0.0
  0
LINE
  5
129
330
1F
100
AcDbEntity
  8
B-0
  6
Continuous
 62
     3
370
     9
100
AcDbLine
 10
-384.2104722275577
 20
-244.4563067689305
 30
0.0
 11
-384.7651704499501
 21
-245.2883231725412
 31
0.0
  0
LINE
  5
12A
330
1F
100
AcDbEntity
  8
B-0
  6
Continuous
 62
     3
370
     9
100
AcDbLine
 10
-370.5678776065696
 20
-243.788342967727
 30
0.0
 11
-382.9623857621862
 21
-243.788342967727
 31
0.0
  0
LINE
  5
12B
330
1F
100
AcDbEntity
  8
B-0
  6
Continuous
 62
     3
370
     9
100
AcDbLine
 10
-369.3198530011535
 20
-244.4563067689305
 30
0.0
 11
-368.7651547787613
 21
-245.2883231725412
 31
0.0
  0
LINE
  5
12C
330
1F
100
AcDbEntity
  8
B-0
  6
Continuous
 62
     3
370
     9
100
AcDbLine
 10
-362.2104738771566
 20
-244.4563067689305
 30
0.0
 11
-362.7651720995489
 21
-245.2883231725412
 31
0.0
  0
LINE
  5
12D
330
1F
100
AcDbEntity
  8
B-0
  6
Continuous
 62
     3
370
     9
100
AcDbLine
 10
-348.5678792561685
 20
-243.788342967727
 30
0.0
 11
-360.962387411785
 21
-243.788342967727
 31
0.0
  0
LINE
  5
12E
330
1F
100
AcDbEntity
  8
B-0
  6
Continuous
 62
     3
370
     9
100
AcDbLine
 10
-347.3197927907968
 20
-244.4563067689305
 30
0.0
 11
-346.7651564283601
 21
-245.2883231725412
 31
0.0
  0
LINE
  5
12F
330
1F
100
AcDbEntity
  8
B-0
  6
Continuous
 62
     3
370
     9
100
AcDbLine
 10
-340.2104755267554
 20
-244.4563067689305
 30
0.0
 11
-340.7651737491477
 21
-245.2883231725412
 31
0.0
  0
LINE
  5
130
330
1F
100
AcDbEntity
  8
B-0
  6
Continuous
 62
     3
370
     9
100
AcDbLine
 10
-326.5678809057673
 20
-243.788342967727
 30
0.0
 11
-338.9623890613838
 21
-243.788342967727
 31
0.0
  0
LINE
  5
131
330
1F
100
AcDbEntity
  8
B-0
  6
Continuous
 62
     3
370
     9
100
AcDbLine
 10
-325.3197944403956
 20
-244.4563067689305
 30
0.0
 11
-324.7650962180034
 21
-245.2883231725412
 31
0.0
  0
LINE
  5
132
330
1F
100
AcDbEntity
  8
B-0
  6
Continuous
 62
     3
370
     9
100
AcDbLine
 10
-318.2104153163984
 20
-244.4563067689305
 30
0.0
 11
-318.7651135387908
 21
-245.2883231725412
 31
0.0
  0
LINE
  5
133
330
1F
100
AcDbEntity
  8
B-0
  6
Continuous
 62
     3
370
     9
100
AcDbLine
 10
-304.5678825553661
 20
-243.788342967727
 30
0.0
 11
-316.9623907109826
 21
-243.788342967727
 31
0.0
  0
LINE
  5
134
330
1F
100
AcDbEntity
  8
B-0
  6
Continuous
 62
     3
370
     9
100
AcDbLine
 10
-303.3197960899943
 20
-244.4563067689305
 30
0.0
 11
-302.7650978676021
 21
-245.2883231725412
 31
0.0
  0
LINE
  5
135
330
1F
100
AcDbEntity
  8
B-0
  6
Continuous
 62
     3
370
     9
100
AcDbLine
 10
-296.2104169659973
 20
-244.4563067689305
 30
0.0
 11
-296.7651151883896
 21
-245.2883231725412
 31
0.0
  0
LINE
  5
136
330
1F
100
AcDbEntity
  8
B-0
  6
Continuous
 62
     3
370
     9
100
AcDbLine
 10
-282.5678842049647
 20
-243.788342967727
 30
0.0
 11
-294.9623923605814
 21
-243.788342967727
 31
0.0
  0
LINE
  5
137
330
1F
100
AcDbEntity
  8
B-0
  6
Continuous
 62
     3
370
     9
100
AcDbLine
 10
-281.3197977395931
 20
-244.4563067689305
 30
0.0
 11
-280.7650995172008
 21
-245.2883231725412
 31
0.0
  0
LINE
  5
138
330
1F
100
AcDbEntity
  8
B-0
  6
Continuous
 62
     3
370
     9
100
AcDbLine
 10
-274.2104186155961
 20
-244.4563067689305
 30
0.0
 11
-274.7651168379884
 21
-245.2883231725412
 31
0.0
  0
LINE
  5
139
330
1F
100
AcDbEntity
  8
B-0
  6
Continuous
 62
     3
370
     9
100
AcDbLine
 10
-260.567823994608
 20
-243.788342967727
 30
0.0
 11
-272.9623321502245
 21
-243.788342967727
 31
0.0
  0
LINE
  5
13A
330
1F
100
AcDbEntity
  8
B-0
  6
Continuous
 62
     3
370
     9
100
AcDbLine
 10
-259.3197993891919
 20
-244.4563067689305
 30
0.0
 11
-258.7651011667996
 21
-245.2883231725412
 31
0.0
  0
LINE
  5
13B
330
1F
100
AcDbEntity
  8
B-0
  6
Continuous
 62
     3
370
     9
100
AcDbLine
 10
-252.210420265195
 20
-244.4563067689305
 30
0.0
 11
-252.7650566276317
 21
-245.2883231725412
 31
0.0
  0
LINE
  5
13C
330
1F
100
AcDbEntity
  8
B-0
  6
Continuous
 62
     3
370
     9
100
AcDbLine
 10
-238.5678256442068
 20
-243.788342967727
 30
0.0
 11
-250.9623337998233
 21
-243.788342967727
 31
0.0
  0
LINE
  5
13D
330
1F
100
AcDbEntity
  8
B-0
  6
Continuous
 62
     3
370
     9
100
AcDbLine
 10
-237.3197391788352
 20
-244.4563067689305
 30
0.0
 11
-236.7651028163985
 21
-245.2883231725412
 31
0.0
  0
LINE
  5
13E
330
1F
100
AcDbEntity
  8
B-0
  6
Continuous
 62
     3
370
     9
100
AcDbLine
 10
-230.2104219147938
 20
-244.4563067689305
 30
0.0
 11
-230.7650582772304
 21
-245.2883231725412
 31
0.0
  0
LINE
  5
13F
330
1F
100
AcDbEntity
  8
B-0
  6
Continuous
 62
     3
370
     9
100
AcDbLine
 10
-216.5678272938056
 20
-243.788342967727
 30
0.0
 11
-228.9623354494222
 21
-243.788342967727
 31
0.0
  0
LINE
  5
140
330
1F
100
AcDbEntity
  8
B-0
  6
Continuous
 62
     3
370
     9
100
AcDbLine
 10
-215.319740828434
 20
-244.4563067689305
 30
0.0
 11
-214.7651044659973
 21
-245.2883231725412
 31
0.0
  0
LINE
  5
141
330
1F
100
AcDbEntity
  8
B-0
  6
Continuous
 62
     3
370
     9
100
AcDbLine
 10
-208.2103617044369
 20
-244.4563067689305
 30
0.0
 11
-208.7650599268292
 21
-245.2883231725412
 31
0.0
  0
LINE
  5
142
330
1F
100
AcDbEntity
  8
B-0
  6
Continuous
 62
     3
370
     9
100
AcDbLine
 10
-194.5677670834487
 20
-243.788342967727
 30
0.0
 11
-206.9622752390653
 21
-243.788342967727
 31
0.0
  0
LINE
  5
143
330
1F
100
AcDbEntity
  8
B-0
  6
Continuous
 62
     3
370
     9
100
AcDbLine
 10
-193.3197424780329
 20
-244.4563067689305
 30
0.0
 11
-192.7650442556405
 21
-245.2883231725412
 31
0.0
  0
LINE
  5
144
330
1F
100
AcDbEntity
  8
B-0
  6
Continuous
 62
     3
370
     9
100
AcDbLine
 10
-186.2103633540357
 20
-244.4563067689305
 30
0.0
 11
-186.765061576428
 21
-245.2883231725412
 31
0.0
  0
LINE
  5
145
330
1F
100
AcDbEntity
  8
B-0
  6
Continuous
 62
     3
370
     9
100
AcDbLine
 10
-172.5678305930033
 20
-243.788342967727
 30
0.0
 11
-184.9623387486198
 21
-243.788342967727
 31
0.0
  0
LINE
  5
146
330
1F
100
AcDbEntity
  8
B-0
  6
Continuous
 62
     3
370
     9
100
AcDbLine
 10
-171.3197441276315
 20
-244.4563067689305
 30
0.0
 11
-170.7649840452836
 21
-245.2883231725412
 31
0.0
  0
LINE
  5
147
330
1F
100
AcDbEntity
  8
B-0
  6
Continuous
 62
     3
370
     9
100
AcDbLine
 10
-164.2103031436789
 20
-244.4563067689305
 30
0.0
 11
-164.7650632260269
 21
-245.2883231725412
 31
0.0
  0
LINE
  5
148
330
1F
100
AcDbEntity
  8
B-0
  6
Continuous
 62
     3
370
     9
100
AcDbLine
 10
-150.5677703826464
 20
-243.788342967727
 30
0.0
 11
-162.9622785382629
 21
-243.788342967727
 31
0.0
  0
LINE
  5
149
330
1F
100
AcDbEntity
  8
B-0
  6
Continuous
 62
     3
370
     9
100
AcDbLine
 10
-149.3196839172748
 20
-244.4563067689305
 30
0.0
 11
-148.765047554838
 21
-245.2883231725412
 31
0.0
  0
LINE
  5
14A
330
1F
100
AcDbEntity
  8
B-0
  6
Continuous
 62
     3
370
     9
100
AcDbLine
 10
-676.765286334267
 20
-268.8949482913123
 30
0.0
 11
-676.765286334267
 21
-288.7883677117093
 31
0.0
  0
LINE
  5
14B
330
1F
100
AcDbEntity
  8
B-0
  6
Continuous
 62
     3
370
     9
100
AcDbLine
 10
-670.7652727250768
 20
-268.8949482913123
 30
0.0
 11
-670.7652727250768
 21
-288.7883677117093
 31
0.0
  0
LINE
  5
14C
330
1F
100
AcDbEntity
  8
B-0
  6
Continuous
 62
     3
370
     9
100
AcDbLine
 10
-214.765166325953
 20
-268.8444087075391
 30
0.0
 11
-214.765166325953
 21
-288.7883677117093
 31
0.0
  0
LINE
  5
14D
330
1F
100
AcDbEntity
  8
B-0
  6
Continuous
 62
     3
370
     9
100
AcDbLine
 10
-208.7651836467405
 20
-268.8444087075391
 30
0.0
 11
-208.7651836467405
 21
-288.7883677117093
 31
0.0
  0
LINE
  5
14E
330
1F
100
AcDbEntity
  8
B-0
  6
Continuous
 62
     3
370
     9
100
AcDbLine
 10
473.7522237447819
 20
144.4961443699525
 30
0.0
 11
482.3519947804659
 21
143.9228263009069
 31
0.0
  0
LINE
  5
14F
330
1F
100
AcDbEntity
  8
B-0
  6
Continuous
 62
     3
370
     9
100
AcDbLine
 10
473.7522237447819
 20
135.1628379800666
 30
0.0
 11
482.3519947804659
 21
135.7361560491121
 31
0.0
  0
LINE
  5
150
330
1F
100
AcDbEntity
  8
B-0
  6
Continuous
 62
     3
370
     9
100
AcDbLine
 10
453.7522814807404
 20
131.3700803787153
 30
0.0
 11
453.7522814807404
 21
129.5795439621716
 31
0.0
  0
LINE
  5
151
330
1F
100
AcDbEntity
  8
B-1
  6
Continuous
 62
     2
370
     9
100
AcDbLine
 10
476.9521155310993
 20
97.22944713072111
 30
0.0
 11
473.7522237447819
 21
97.22944713072111
 31
0.0
  0
LINE
  5
152
330
1F
100
AcDbEntity
  8
B-E
  6
Continuous
 62
     7
370
     9
100
AcDbLine
 10
482.9764091728857
 20
127.8295258165846
 30
0.0
 11
489.7937474462175
 21
117.3521814067452
 31
0.0
  0
LINE
  5
153
330
1F
100
AcDbEntity
  8
B-E
  6
Continuous
 62
     7
370
     9
100
AcDbLine
 10
482.9764091728857
 20
127.8295258165846
 30
0.0
 11
486.8498321564163
 21
115.9448055555522
 31
0.0
  0
LINE
  5
154
330
1F
100
AcDbEntity
  8
B-1
  6
Continuous
 62
     2
370
     9
100
AcDbLine
 10
87.23476604049559
 20
67.02954049801421
 30
0.0
 11
-742.7652504554928
 21
67.02954049801421
 31
0.0
  0
LINE
  5
155
330
1F
100
AcDbEntity
  8
B-1
  6
Continuous
 62
     2
370
     9
100
AcDbLine
 10
87.23476604049559
 20
70.22949414428739
 30
0.0
 11
-742.7652504554928
 21
70.22949414428739
 31
0.0
  0
LINE
  5
156
330
1F
100
AcDbEntity
  8
B-0
  6
JWW_PHANTOM2
 62
     3
370
     9
100
AcDbLine
 10
-141.7651605523571
 20
72.22942651073582
 30
0.0
 11
87.23476604049559
 21
72.22942651073582
 31
0.0
  0
LINE
  5
157
330
1F
100
AcDbEntity
  8
B-1
  6
JWW_CENTER1
 62
     2
370
     9
100
AcDbLine
 10
501.4521221294946
 20
53.02945719327384
 30
0.0
 11
501.4521221294946
 21
33.02939120932125
 31
0.0
  0
LINE
  5
158
330
1F
100
AcDbEntity
  8
B-1
  6
JWW_CENTER1
 62
     2
370
     9
100
AcDbLine
 10
491.9521650190638
 20
62.52941430370457
 30
0.0
 11
461.952066043135
 21
62.52941430370457
 31
0.0
  0
LINE
  5
159
330
1F
100
AcDbEntity
  8
B-0
  6
JWW_CENTER1
 62
     3
370
     9
100
AcDbLine
 10
423.7523062247229
 20
197.0044212320197
 30
0.0
 11
508.7519680569652
 21
197.0044212320197
 31
0.0
  0
LINE
  5
15A
330
1F
100
AcDbEntity
  8
B-E
  6
Continuous
 62
     7
370
     9
100
AcDbLine
 10
482.9764091728857
 20
127.8295258165846
 30
0.0
 11
556.8311339538191
 21
-26.65439306934223
 31
0.0
  0
LINE
  5
15B
330
1F
100
AcDbEntity
  8
B-0
  6
JWW_CENTER1
 62
     3
370
     9
100
AcDbLine
 10
468.7522072487935
 20
139.8295530349653
 30
0.0
 11
555.4556159797902
 21
139.8295530349653
 31
0.0
  0
LINE
  5
15C
330
1F
100
AcDbEntity
  8
B-0
  6
JWW_CENTER1
 62
     3
370
     9
100
AcDbLine
 10
-673.765264064683
 20
-263.7883780217019
 30
0.0
 11
-673.765264064683
 21
-340.6102774357644
 31
0.0
  0
LINE
  5
15D
330
1F
100
AcDbEntity
  8
B-0
  6
JWW_CENTER1
 62
     3
370
     9
100
AcDbLine
 10
-211.7652677762802
 20
-340.6103392957201
 30
0.0
 11
-211.7652677762802
 21
-263.7883780217019
 31
0.0
  0
LINE
  5
15E
330
1F
100
AcDbEntity
  8
B-1
  6
Continuous
 62
     2
370
     9
100
AcDbLine
 10
-647.2652632398836
 20
62.52947616366031
 30
0.0
 11
-647.2652632398836
 21
38.02934584535366
 31
0.0
  0
LINE
  5
15F
330
1F
100
AcDbEntity
  8
B-1
  6
Continuous
 62
     2
370
     9
100
AcDbLine
 10
-638.2652892210649
 20
62.52947616366031
 30
0.0
 11
-638.2652892210649
 21
38.02934584535366
 31
0.0
  0
LINE
  5
160
330
1F
100
AcDbEntity
  8
B-1
  6
Continuous
 62
     2
370
     9
100
AcDbLine
 10
-647.2652632398836
 20
38.02934584535366
 30
0.0
 11
-638.2652892210649
 21
38.02934584535366
 31
0.0
  0
LINE
  5
161
330
1F
100
AcDbEntity
  8
B-1
  6
Continuous
 62
     2
370
     9
100
AcDbLine
 10
-47.26523230990562
 20
62.52947616366031
 30
0.0
 11
-47.26523230990562
 21
38.02934584535366
 31
0.0
  0
LINE
  5
162
330
1F
100
AcDbEntity
  8
B-1
  6
Continuous
 62
     2
370
     9
100
AcDbLine
 10
-38.26522736110928
 20
62.52947616366031
 30
0.0
 11
-38.26522736110928
 21
38.02934584535366
 31
0.0
  0
LINE
  5
163
330
1F
100
AcDbEntity
  8
B-1
  6
Continuous
 62
     2
370
     9
100
AcDbLine
 10
-47.26523230990562
 20
38.02934584535366
 30
0.0
 11
-38.26522736110928
 21
38.02934584535366
 31
0.0
  0
LINE
  5
164
330
1F
100
AcDbEntity
  8
B-1
  6
JWW_CENTER1
 62
     2
370
     9
100
AcDbLine
 10
-34.26523890830094
 20
62.52947616366031
 30
0.0
 11
-51.26522076271396
 21
62.52947616366031
 31
0.0
  0
LINE
  5
165
330
1F
100
AcDbEntity
  8
B-1
  6
JWW_CENTER1
 62
     2
370
     9
100
AcDbLine
 10
-42.76529169546301
 20
71.02946709086682
 30
0.0
 11
-42.76529169546301
 21
34.02935739254546
 31
0.0
  0
LINE
  5
166
330
1F
100
AcDbEntity
  8
B-1
  6
JWW_CENTER1
 62
     2
370
     9
100
AcDbLine
 10
-634.265238908301
 20
62.52947616366031
 30
0.0
 11
-651.265220762714
 21
62.52947616366031
 31
0.0
  0
LINE
  5
167
330
1F
100
AcDbEntity
  8
B-1
  6
JWW_CENTER1
 62
     2
370
     9
100
AcDbLine
 10
-642.7652916954632
 20
71.02946709086682
 30
0.0
 11
-642.7652916954632
 21
34.02935739254546
 31
0.0
  0
ARC
  5
168
330
1F
100
AcDbEntity
  8
B-0
  6
Continuous
 62
     3
370
     9
100
AcDbCircle
 10
-739.2652760242744
 20
74.72937289877437
 30
0.0
 40
1.500000019331236
100
AcDbArc
 50
180.0
 51
270.0
  0
ARC
  5
169
330
1F
100
AcDbEntity
  8
B-0
  6
Continuous
 62
     3
370
     9
100
AcDbCircle
 10
-740.2652731374765
 20
73.72940671555001
 30
0.0
 40
1.500000019331236
100
AcDbArc
 50
180.0
 51
270.0
  0
ARC
  5
16A
330
1F
100
AcDbEntity
  8
B-0
  6
Continuous
 62
     3
370
     9
100
AcDbCircle
 10
-145.2651349835754
 20
73.72940671555001
 30
0.0
 40
1.500000019331236
100
AcDbArc
 50
270.0
 51
0.0
  0
ARC
  5
16B
330
1F
100
AcDbEntity
  8
B-0
  6
Continuous
 62
     3
370
     9
100
AcDbCircle
 10
-146.2651011667996
 20
74.72937289877437
 30
0.0
 40
1.500000019331236
100
AcDbArc
 50
270.0
 51
0.0
  0
ARC
  5
16C
330
1F
100
AcDbEntity
  8
B-0
  6
Continuous
 62
     3
370
     9
100
AcDbCircle
 10
460.7522303431773
 20
73.35837070150875
 30
0.0
 40
2.000000146595208
100
AcDbArc
 50
93.8134765625
 51
180.0
  0
ARC
  5
16D
330
1F
100
AcDbEntity
  8
B-0
  6
Continuous
 62
     3
370
     9
100
AcDbCircle
 10
451.7522253943805
 20
74.360873142915
 30
0.0
 40
1.500000019331236
100
AcDbArc
 50
180.0
 51
254.0551605224609
  0
ARC
  5
16E
330
1F
100
AcDbEntity
  8
B-0
  6
Continuous
 62
     3
370
     9
100
AcDbCircle
 10
451.7522253943805
 20
90.5480151799715
 30
0.0
 40
1.500000019331236
100
AcDbArc
 50
105.9448394775391
 51
180.0
  0
ARC
  5
16F
330
1F
100
AcDbEntity
  8
B-0
  6
Continuous
 62
     3
370
     9
100
AcDbCircle
 10
451.7522253943805
 20
119.2480034678199
 30
0.0
 40
1.500000019331236
100
AcDbArc
 50
105.9448394775391
 51
180.0
  0
ARC
  5
170
330
1F
100
AcDbEntity
  8
B-0
  6
Continuous
 62
     3
370
     9
100
AcDbCircle
 10
451.7522253943805
 20
103.0109404465466
 30
0.0
 40
1.500000019331236
100
AcDbArc
 50
180.0
 51
254.0551605224609
  0
ARC
  5
171
330
1F
100
AcDbEntity
  8
B-0
  6
Continuous
 62
     3
370
     9
100
AcDbCircle
 10
472.2522435399675
 20
84.80258621829508
 30
0.0
 40
1.500000019331236
100
AcDbArc
 50
0.0
 51
87.135498046875
  0
ARC
  5
172
330
1F
100
AcDbEntity
  8
B-0
  6
Continuous
 62
     3
370
     9
100
AcDbCircle
 10
456.752241890369
 20
90.08313761319572
 30
0.0
 40
3.000000038662472
100
AcDbArc
 50
180.0
 51
267.1375885009766
  0
ARC
  5
173
330
1F
100
AcDbEntity
  8
B-0
  6
Continuous
 62
     3
370
     9
100
AcDbCircle
 10
472.2522435399675
 20
77.63283177757502
 30
0.0
 40
1.500000019331236
100
AcDbArc
 50
273.8164825439453
 51
0.0000000000000254
  0
ARC
  5
174
330
1F
100
AcDbEntity
  8
B-0
  6
Continuous
 62
     3
370
     9
100
AcDbCircle
 10
457.2523177719144
 20
114.8998671845639
 30
0.0
 40
1.500000019331236
100
AcDbArc
 50
0.0
 51
78.6900634765625
  0
ARC
  5
175
330
1F
100
AcDbEntity
  8
B-0
  6
Continuous
 62
     3
370
     9
100
AcDbCircle
 10
457.2523177719144
 20
107.3591385897582
 30
0.0
 40
1.500000019331236
100
AcDbArc
 50
281.3099365234376
 51
0.0000000000000382
  0
ARC
  5
176
330
1F
100
AcDbEntity
  8
B-0
  6
Continuous
 62
     3
370
     9
100
AcDbCircle
 10
456.752241890369
 20
119.5889136834555
 30
0.0
 40
3.000000038662472
100
AcDbArc
 50
180.0
 51
258.6904602050781
  0
ARC
  5
177
330
1F
100
AcDbEntity
  8
B-0
  6
Continuous
 62
     3
370
     9
100
AcDbCircle
 10
456.752241890369
 20
102.6700920908668
 30
0.0
 40
3.000000038662472
100
AcDbArc
 50
101.3095397949219
 51
180.0
  0
ARC
  5
178
330
1F
100
AcDbEntity
  8
B-0
  6
Continuous
 62
     3
370
     9
100
AcDbCircle
 10
450.2522451895665
 20
87.65173205602723
 30
0.0
 40
1.500000019331236
100
AcDbArc
 50
123.688949584961
 51
180.0
  0
ARC
  5
179
330
1F
100
AcDbEntity
  8
B-0
  6
Continuous
 62
     3
370
     9
100
AcDbCircle
 10
450.2522451895665
 20
77.25721812681486
 30
0.0
 40
1.500000019331236
100
AcDbArc
 50
180.0
 51
236.3110504150391
  0
ARC
  5
17A
330
1F
100
AcDbEntity
  8
B-0
  6
Continuous
 62
     3
370
     9
100
AcDbCircle
 10
450.2522451895665
 20
116.3266670618339
 30
0.0
 40
1.500000019331236
100
AcDbArc
 50
123.688949584961
 51
180.0
  0
ARC
  5
17B
330
1F
100
AcDbEntity
  8
B-0
  6
Continuous
 62
     3
370
     9
100
AcDbCircle
 10
450.2522451895665
 20
105.9322149925771
 30
0.0
 40
1.500000019331236
100
AcDbArc
 50
180.0
 51
236.3110504150391
  0
ARC
  5
17C
330
1F
100
AcDbEntity
  8
B-0
  6
Continuous
 62
     3
370
     9
100
AcDbCircle
 10
451.7522253943805
 20
147.948053615624
 30
0.0
 40
1.500000019331236
100
AcDbArc
 50
105.9448394775391
 51
180.0
  0
ARC
  5
17D
330
1F
100
AcDbEntity
  8
B-0
  6
Continuous
 62
     3
370
     9
100
AcDbCircle
 10
451.7522253943805
 20
131.7109287343951
 30
0.0
 40
1.500000019331236
100
AcDbArc
 50
180.0
 51
254.0551605224609
  0
ARC
  5
17E
330
1F
100
AcDbEntity
  8
B-0
  6
Continuous
 62
     3
370
     9
100
AcDbCircle
 10
457.2523177719144
 20
143.5998554724124
 30
0.0
 40
1.500000019331236
100
AcDbArc
 50
0.0
 51
78.6900634765625
  0
ARC
  5
17F
330
1F
100
AcDbEntity
  8
B-0
  6
Continuous
 62
     3
370
     9
100
AcDbCircle
 10
457.2523177719144
 20
136.059250597518
 30
0.0
 40
1.500000019331236
100
AcDbArc
 50
281.3099365234376
 51
0.0000000000000382
  0
ARC
  5
180
330
1F
100
AcDbEntity
  8
B-0
  6
Continuous
 62
     3
370
     9
100
AcDbCircle
 10
450.2522451895665
 20
145.0267790695935
 30
0.0
 40
1.500000019331236
100
AcDbArc
 50
123.688949584961
 51
180.0
  0
ARC
  5
181
330
1F
100
AcDbEntity
  8
B-0
  6
Continuous
 62
     3
370
     9
100
AcDbCircle
 10
450.2522451895665
 20
134.6322651403812
 30
0.0
 40
1.500000019331236
100
AcDbArc
 50
180.0
 51
236.3110504150391
  0
ARC
  5
182
330
1F
100
AcDbEntity
  8
B-0
  6
Continuous
 62
     3
370
     9
100
AcDbCircle
 10
451.7522253943805
 20
176.648103763428
 30
0.0
 40
1.500000019331236
100
AcDbArc
 50
105.9448394775391
 51
180.0
  0
ARC
  5
183
330
1F
100
AcDbEntity
  8
B-0
  6
Continuous
 62
     3
370
     9
100
AcDbCircle
 10
451.7522253943805
 20
160.4109788821991
 30
0.0
 40
1.500000019331236
100
AcDbArc
 50
180.0
 51
254.0551605224609
  0
ARC
  5
184
330
1F
100
AcDbEntity
  8
B-0
  6
Continuous
 62
     3
370
     9
100
AcDbCircle
 10
457.2523177719144
 20
172.2998437602608
 30
0.0
 40
1.500000019331236
100
AcDbArc
 50
0.0
 51
78.6900634765625
  0
ARC
  5
185
330
1F
100
AcDbEntity
  8
B-0
  6
Continuous
 62
     3
370
     9
100
AcDbCircle
 10
457.2523177719144
 20
164.7592388853664
 30
0.0
 40
1.500000019331236
100
AcDbArc
 50
281.3099365234376
 51
0.0000000000000382
  0
ARC
  5
186
330
1F
100
AcDbEntity
  8
B-0
  6
Continuous
 62
     3
370
     9
100
AcDbCircle
 10
456.752241890369
 20
176.9890139790635
 30
0.0
 40
3.000000038662472
100
AcDbArc
 50
180.0
 51
258.6904602050781
  0
ARC
  5
187
330
1F
100
AcDbEntity
  8
B-0
  6
Continuous
 62
     3
370
     9
100
AcDbCircle
 10
456.752241890369
 20
160.0700686665635
 30
0.0
 40
3.000000038662472
100
AcDbArc
 50
101.3095397949219
 51
180.0
  0
ARC
  5
188
330
1F
100
AcDbEntity
  8
B-0
  6
Continuous
 62
     3
370
     9
100
AcDbCircle
 10
450.2522451895665
 20
173.7267673574419
 30
0.0
 40
1.500000019331236
100
AcDbArc
 50
123.688949584961
 51
180.0
  0
ARC
  5
189
330
1F
100
AcDbEntity
  8
B-0
  6
Continuous
 62
     3
370
     9
100
AcDbCircle
 10
450.2522451895665
 20
163.3322534282296
 30
0.0
 40
1.500000019331236
100
AcDbArc
 50
180.0
 51
236.3110504150391
  0
ARC
  5
18A
330
1F
100
AcDbEntity
  8
B-0
  6
Continuous
 62
     3
370
     9
100
AcDbCircle
 10
451.7522253943805
 20
205.3480920512764
 30
0.0
 40
1.500000019331236
100
AcDbArc
 50
105.9448394775391
 51
180.0
  0
ARC
  5
18B
330
1F
100
AcDbEntity
  8
B-0
  6
Continuous
 62
     3
370
     9
100
AcDbCircle
 10
451.7522253943805
 20
189.1109671700475
 30
0.0
 40
1.500000019331236
100
AcDbArc
 50
180.0
 51
254.0551605224609
  0
ARC
  5
18C
330
1F
100
AcDbEntity
  8
B-0
  6
Continuous
 62
     3
370
     9
100
AcDbCircle
 10
450.2522451895665
 20
202.4267556452904
 30
0.0
 40
1.500000019331236
100
AcDbArc
 50
123.688949584961
 51
180.0
  0
ARC
  5
18D
330
1F
100
AcDbEntity
  8
B-0
  6
Continuous
 62
     3
370
     9
100
AcDbCircle
 10
450.2522451895665
 20
192.0323035760336
 30
0.0
 40
1.500000019331236
100
AcDbArc
 50
180.0
 51
236.3110504150391
  0
ARC
  5
18E
330
1F
100
AcDbEntity
  8
B-0
  6
Continuous
 62
     3
370
     9
100
AcDbCircle
 10
451.7522253943805
 20
234.0480184791692
 30
0.0
 40
1.500000019331236
100
AcDbArc
 50
105.9448394775391
 51
180.0
  0
ARC
  5
18F
330
1F
100
AcDbEntity
  8
B-0
  6
Continuous
 62
     3
370
     9
100
AcDbCircle
 10
451.7522253943805
 20
217.810955457896
 30
0.0
 40
1.500000019331236
100
AcDbArc
 50
180.0
 51
254.0551605224609
  0
ARC
  5
190
330
1F
100
AcDbEntity
  8
B-0
  6
Continuous
 62
     3
370
     9
100
AcDbCircle
 10
457.2523177719144
 20
229.6998821959133
 30
0.0
 40
1.500000019331236
100
AcDbArc
 50
0.0
 51
78.6900634765625
  0
ARC
  5
191
330
1F
100
AcDbEntity
  8
B-0
  6
Continuous
 62
     3
370
     9
100
AcDbCircle
 10
457.2523177719144
 20
222.1591536011076
 30
0.0
 40
1.500000019331236
100
AcDbArc
 50
281.3099365234376
 51
0.0000000000000382
  0
ARC
  5
192
330
1F
100
AcDbEntity
  8
B-0
  6
Continuous
 62
     3
370
     9
100
AcDbCircle
 10
456.752241890369
 20
234.3889286948047
 30
0.0
 40
3.000000038662472
100
AcDbArc
 50
180.0
 51
258.6904602050781
  0
ARC
  5
193
330
1F
100
AcDbEntity
  8
B-0
  6
Continuous
 62
     3
370
     9
100
AcDbCircle
 10
456.752241890369
 20
217.470107102216
 30
0.0
 40
3.000000038662472
100
AcDbArc
 50
101.3095397949219
 51
180.0
  0
ARC
  5
194
330
1F
100
AcDbEntity
  8
B-0
  6
Continuous
 62
     3
370
     9
100
AcDbCircle
 10
450.2522451895665
 20
231.1266820731831
 30
0.0
 40
1.500000019331236
100
AcDbArc
 50
123.688949584961
 51
180.0
  0
ARC
  5
195
330
1F
100
AcDbEntity
  8
B-0
  6
Continuous
 62
     3
370
     9
100
AcDbCircle
 10
450.2522451895665
 20
220.7322300039263
 30
0.0
 40
1.500000019331236
100
AcDbArc
 50
180.0
 51
236.3110504150391
  0
ARC
  5
196
330
1F
100
AcDbEntity
  8
B-0
  6
Continuous
 62
     3
370
     9
100
AcDbCircle
 10
482.2520290921215
 20
142.4261865336983
 30
0.0
 40
1.500000019331236
100
AcDbArc
 50
0.0
 51
86.1835174560547
  0
ARC
  5
197
330
1F
100
AcDbEntity
  8
B-0
  6
Continuous
 62
     3
370
     9
100
AcDbCircle
 10
482.2520290921215
 20
137.2329195362321
 30
0.0
 40
1.500000019331236
100
AcDbArc
 50
273.8164825439453
 51
0.0000000000000254
  0
ARC
  5
198
330
1F
100
AcDbEntity
  8
B-0
  6
Continuous
 62
     3
370
     9
100
AcDbCircle
 10
456.752241890369
 20
205.8110519594267
 30
0.0
 40
3.000000038662472
100
AcDbArc
 50
180.0
 51
266.1875915527344
  0
ARC
  5
199
330
1F
100
AcDbEntity
  8
B-0
  6
Continuous
 62
     3
370
     9
100
AcDbCircle
 10
456.752241890369
 20
188.1977286446569
 30
0.0
 40
3.000000038662472
100
AcDbArc
 50
93.81240844726564
 51
180.0
  0
ARC
  5
19A
330
1F
100
AcDbEntity
  8
B-0
  6
Continuous
 62
     3
370
     9
100
AcDbCircle
 10
482.2520290921215
 20
199.6010547307527
 30
0.0
 40
1.500000019331236
100
AcDbArc
 50
0.0
 51
86.1835174560547
  0
ARC
  5
19B
330
1F
100
AcDbEntity
  8
B-0
  6
Continuous
 62
     3
370
     9
100
AcDbCircle
 10
482.2520290921215
 20
194.4077877332866
 30
0.0
 40
1.500000019331236
100
AcDbArc
 50
273.8164825439453
 51
0.0000000000000254
  0
ARC
  5
19C
330
1F
100
AcDbEntity
  8
B-0
  6
Continuous
 62
     3
370
     9
100
AcDbCircle
 10
478.7522402407701
 20
187.6600419100707
 30
0.0
 40
5.000000064437454
100
AcDbArc
 50
93.81404113769531
 51
180.0
  0
ARC
  5
19D
330
1F
100
AcDbEntity
  8
B-0
  6
Continuous
 62
     3
370
     9
100
AcDbCircle
 10
478.7522402407701
 20
206.3488005539686
 30
0.0
 40
5.000000064437454
100
AcDbArc
 50
180.0
 51
266.1859588623047
  0
ARC
  5
19E
330
1F
100
AcDbEntity
  8
B-0
  6
Continuous
 62
     3
370
     9
100
AcDbCircle
 10
491.4746061613783
 20
139.8295530349653
 30
0.0
 40
2.500000032218727
100
AcDbArc
 50
90.0
 51
270.0
  0
ARC
  5
19F
330
1F
100
AcDbEntity
  8
B-0
  6
Continuous
 62
     3
370
     9
100
AcDbCircle
 10
528.474777719655
 20
139.8295530349653
 30
0.0
 40
2.500000032218727
100
AcDbArc
 50
270.0
 51
90.0
  0
ARC
  5
1A0
330
1F
100
AcDbEntity
  8
B-0
  6
Continuous
 62
     3
370
     9
100
AcDbCircle
 10
529.9747579244694
 20
139.8295530349653
 30
0.0
 40
9.000000115987417
100
AcDbArc
 50
196.1276245117188
 51
270.0
  0
ARC
  5
1A1
330
1F
100
AcDbEntity
  8
B-0
  6
Continuous
 62
     3
370
     9
100
AcDbCircle
 10
529.9747579244694
 20
139.8295530349653
 30
0.0
 40
4.000000293190416
100
AcDbArc
 50
218.6825866699219
 51
269.9984893798828
  0
ARC
  5
1A2
330
1F
100
AcDbEntity
  8
B-0
  6
Continuous
 62
     3
370
     9
100
AcDbCircle
 10
529.9747579244694
 20
139.8295530349653
 30
0.0
 40
9.000000115987417
100
AcDbArc
 50
90.0
 51
163.8723754882812
  0
ARC
  5
1A3
330
1F
100
AcDbEntity
  8
B-0
  6
Continuous
 62
     3
370
     9
100
AcDbCircle
 10
529.9747579244694
 20
139.8295530349653
 30
0.0
 40
4.000000293190416
100
AcDbArc
 50
90.0015106201172
 51
141.3174133300782
  0
ARC
  5
1A4
330
1F
100
AcDbEntity
  8
B-0
  6
Continuous
 62
     3
370
     9
100
AcDbCircle
 10
487.9513105268763
 20
139.7316287251573
 30
0.0
 40
11.96423930090827
100
AcDbArc
 50
269.6048278808594
 51
348.4177856445312
  0
ARC
  5
1A5
330
1F
100
AcDbEntity
  8
B-0
  6
Continuous
 62
     3
370
     9
100
AcDbCircle
 10
487.9513105268763
 20
139.896671086855
 30
0.0
 40
6.023801661826469
100
AcDbArc
 50
270.7848968505859
 51
334.7761230468751
  0
ARC
  5
1A6
330
1F
100
AcDbEntity
  8
B-0
  6
Continuous
 62
     3
370
     9
100
AcDbCircle
 10
487.9513105268763
 20
139.7316287251573
 30
0.0
 40
11.96423930090827
100
AcDbArc
 50
12.54110717773438
 51
89.60482788085938
  0
ARC
  5
1A7
330
1F
100
AcDbEntity
  8
B-0
  6
Continuous
 62
     3
370
     9
100
AcDbCircle
 10
487.9513105268763
 20
139.896671086855
 30
0.0
 40
6.023801661826469
100
AcDbArc
 50
23.82115173339844
 51
90.78489685058594
  0
ARC
  5
1A8
330
1F
100
AcDbEntity
  8
B-1
  6
Continuous
 62
     2
370
     9
100
AcDbCircle
 10
470.7522633351534
 20
73.22945455391577
 30
0.0
 40
3.000000038662472
100
AcDbArc
 50
270.0
 51
0.0
  0
ARC
  5
1A9
330
1F
100
AcDbEntity
  8
B-1
  6
Continuous
 62
     2
370
     9
100
AcDbCircle
 10
470.7520158953308
 20
73.22945455391577
 30
0.0
 40
6.200000563183346
100
AcDbArc
 50
270.0
 51
0.0
  0
ARC
  5
1AA
330
1F
100
AcDbEntity
  8
B-1
  6
Continuous
 62
     2
370
     9
100
AcDbCircle
 10
491.9521650190638
 20
53.02939533331825
 30
0.0
 40
5.000000064437454
100
AcDbArc
 50
0.0
 51
90.0
  0
ARC
  5
1AB
330
1F
100
AcDbEntity
  8
B-1
  6
Continuous
 62
     2
370
     9
100
AcDbCircle
 10
491.9521650190638
 20
53.02945719327384
 30
0.0
 40
13.99999921386306
100
AcDbArc
 50
0.0
 51
90.0
  0
ARC
  5
1AC
330
1F
100
AcDbEntity
  8
B-1
  6
JWW_CENTER1
 62
     2
370
     9
100
AcDbCircle
 10
491.9521650190638
 20
53.02945719327384
 30
0.0
 40
9.500000605712067
100
AcDbArc
 50
0.0
 51
90.0
  0
ARC
  5
1AD
330
1F
100
AcDbEntity
  8
B-0
  6
Continuous
 62
     3
370
     9
100
AcDbCircle
 10
-740.6364019414514
 20
-255.7883083261518
 30
0.0
 40
2.000000146595208
100
AcDbArc
 50
3.814193725585938
 51
90.0
  0
ARC
  5
1AE
330
1F
100
AcDbEntity
  8
B-0
  6
Continuous
 62
     3
370
     9
100
AcDbCircle
 10
-736.3619717953629
 20
-267.2883215229425
 30
0.0
 40
1.500000019331236
100
AcDbArc
 50
183.814468383789
 51
270.0005035400391
  0
ARC
  5
1AF
330
1F
100
AcDbEntity
  8
B-0
  6
Continuous
 62
     3
370
     9
100
AcDbCircle
 10
-144.8940371095784
 20
-255.7883083261518
 30
0.0
 40
2.000000146595208
100
AcDbArc
 50
90.0
 51
176.1858062744141
  0
ARC
  5
1B0
330
1F
100
AcDbEntity
  8
B-0
  6
Continuous
 62
     3
370
     9
100
AcDbCircle
 10
-203.4626719675809
 20
-263.788347091724
 30
0.0
 40
15.00000019331236
100
AcDbArc
 50
270.0
 51
304.7778167724609
  0
ARC
  5
1B1
330
1F
100
AcDbEntity
  8
B-0
  6
Continuous
 62
     3
370
     9
100
AcDbCircle
 10
-682.0677052234931
 20
-263.788347091724
 30
0.0
 40
15.00000019331236
100
AcDbArc
 50
235.2221527099609
 51
270.0000457763672
  0
ARC
  5
1B2
330
1F
100
AcDbEntity
  8
B-0
  6
Continuous
 62
     3
370
     9
100
AcDbCircle
 10
-145.896663270896
 20
-246.7883033773553
 30
0.0
 40
1.500000019331236
100
AcDbArc
 50
15.94483947753906
 51
89.99800109863281
  0
ARC
  5
1B3
330
1F
100
AcDbEntity
  8
B-0
  6
Continuous
 62
     3
370
     9
100
AcDbCircle
 10
-149.1685600456003
 20
-267.2883215229425
 30
0.0
 40
1.500000019331236
100
AcDbArc
 50
270.0
 51
356.1855316162109
  0
ARC
  5
1B4
330
1F
100
AcDbEntity
  8
B-0
  6
Continuous
 62
     3
370
     9
100
AcDbCircle
 10
-739.6338376400895
 20
-246.7883033773553
 30
0.0
 40
1.500000019331236
100
AcDbArc
 50
90.0
 51
164.0551605224609
  0
ARC
  5
1B5
330
1F
100
AcDbEntity
  8
B-0
  6
Continuous
 62
     3
370
     9
100
AcDbCircle
 10
-673.765264064683
 20
-288.7883677117093
 30
0.0
 40
3.000004146550153
100
AcDbArc
 50
180.0
 51
0.0
  0
ARC
  5
1B6
330
1F
100
AcDbEntity
  8
B-0
  6
Continuous
 62
     3
370
     9
100
AcDbCircle
 10
-673.765264064683
 20
-263.788347091724
 30
0.0
 40
15.00000019331236
100
AcDbArc
 50
199.4712219238281
 51
258.4630126953125
  0
ARC
  5
1B7
330
1F
100
AcDbEntity
  8
B-0
  6
Continuous
 62
     3
370
     9
100
AcDbCircle
 10
-673.765264064683
 20
-263.788347091724
 30
0.0
 40
15.00000019331236
100
AcDbArc
 50
281.5369873046875
 51
340.5287780761718
  0
ARC
  5
1B8
330
1F
100
AcDbEntity
  8
B-0
  6
Continuous
 62
     3
370
     9
100
AcDbCircle
 10
-673.765264064683
 20
-292.7883561645175
 30
0.0
 40
9.000000115987417
100
AcDbArc
 50
109.4712677001953
 51
180.0
  0
ARC
  5
1B9
330
1F
100
AcDbEntity
  8
B-0
  6
Continuous
 62
     3
370
     9
100
AcDbCircle
 10
-673.765264064683
 20
-292.7883561645175
 30
0.0
 40
9.000000115987417
100
AcDbArc
 50
0.0
 51
70.52873229980467
  0
ARC
  5
1BA
330
1F
100
AcDbEntity
  8
B-0
  6
Continuous
 62
     3
370
     9
100
AcDbCircle
 10
-673.765264064683
 20
-292.7883561645175
 30
0.0
 40
4.000000293190416
100
AcDbArc
 50
359.9996185302735
 51
45.95120239257818
  0
ARC
  5
1BB
330
1F
100
AcDbEntity
  8
B-0
  6
Continuous
 62
     3
370
     9
100
AcDbCircle
 10
-673.765264064683
 20
-292.7883561645175
 30
0.0
 40
4.000000293190416
100
AcDbArc
 50
134.0487976074219
 51
180.0003814697266
  0
ARC
  5
1BC
330
1F
100
AcDbEntity
  8
B-0
  6
Continuous
 62
     3
370
     9
100
AcDbCircle
 10
-673.765264064683
 20
-318.2883908060928
 30
0.0
 40
2.500000032218727
100
AcDbArc
 50
0.0
 51
180.0
  0
ARC
  5
1BD
330
1F
100
AcDbEntity
  8
B-0
  6
Continuous
 62
     3
370
     9
100
AcDbCircle
 10
-673.765264064683
 20
-316.7883487413229
 30
0.0
 40
9.000000115987417
100
AcDbArc
 50
179.9998321533203
 51
253.8724060058594
  0
ARC
  5
1BE
330
1F
100
AcDbEntity
  8
B-0
  6
Continuous
 62
     3
370
     9
100
AcDbCircle
 10
-673.765264064683
 20
-316.7883487413229
 30
0.0
 40
4.000001259752223
100
AcDbArc
 50
180.0
 51
231.3177947998047
  0
ARC
  5
1BF
330
1F
100
AcDbEntity
  8
B-0
  6
Continuous
 62
     3
370
     9
100
AcDbCircle
 10
-673.765264064683
 20
-316.7883487413229
 30
0.0
 40
4.000001259752223
100
AcDbArc
 50
308.6822052001953
 51
0.0
  0
ARC
  5
1C0
330
1F
100
AcDbEntity
  8
B-0
  6
Continuous
 62
     3
370
     9
100
AcDbCircle
 10
-673.765264064683
 20
-316.7883487413229
 30
0.0
 40
9.000000115987417
100
AcDbArc
 50
286.1275939941406
 51
0.0
  0
ARC
  5
1C1
330
1F
100
AcDbEntity
  8
B-0
  6
Continuous
 62
     3
370
     9
100
AcDbCircle
 10
-211.7652677762802
 20
-288.7883677117093
 30
0.0
 40
3.000004146550153
100
AcDbArc
 50
180.0
 51
0.0
  0
ARC
  5
1C2
330
1F
100
AcDbEntity
  8
B-0
  6
Continuous
 62
     3
370
     9
100
AcDbCircle
 10
-211.7652677762802
 20
-263.788347091724
 30
0.0
 40
15.00000019331236
100
AcDbArc
 50
281.5369873046875
 51
340.5287780761718
  0
ARC
  5
1C3
330
1F
100
AcDbEntity
  8
B-0
  6
Continuous
 62
     3
370
     9
100
AcDbCircle
 10
-211.7652677762802
 20
-263.788347091724
 30
0.0
 40
15.00000019331236
100
AcDbArc
 50
199.4712219238281
 51
258.4630126953125
  0
ARC
  5
1C4
330
1F
100
AcDbEntity
  8
B-0
  6
Continuous
 62
     3
370
     9
100
AcDbCircle
 10
-211.7652677762802
 20
-292.7883561645175
 30
0.0
 40
9.000000115987417
100
AcDbArc
 50
0.0
 51
70.52873229980467
  0
ARC
  5
1C5
330
1F
100
AcDbEntity
  8
B-0
  6
Continuous
 62
     3
370
     9
100
AcDbCircle
 10
-211.7652677762802
 20
-292.7883561645175
 30
0.0
 40
9.000000115987417
100
AcDbArc
 50
109.4712677001953
 51
180.0
  0
ARC
  5
1C6
330
1F
100
AcDbEntity
  8
B-0
  6
Continuous
 62
     3
370
     9
100
AcDbCircle
 10
-211.7652677762802
 20
-292.7883561645175
 30
0.0
 40
4.000000293190416
100
AcDbArc
 50
134.0487976074219
 51
180.0003814697266
  0
ARC
  5
1C7
330
1F
100
AcDbEntity
  8
B-0
  6
Continuous
 62
     3
370
     9
100
AcDbCircle
 10
-211.7652677762802
 20
-292.7883561645175
 30
0.0
 40
4.000000293190416
100
AcDbArc
 50
359.9996185302734
 51
45.95120239257813
  0
ARC
  5
1C8
330
1F
100
AcDbEntity
  8
B-0
  6
Continuous
 62
     3
370
     9
100
AcDbCircle
 10
-211.7652677762802
 20
-318.2883908060928
 30
0.0
 40
2.500000032218727
100
AcDbArc
 50
0.0
 51
180.0
  0
ARC
  5
1C9
330
1F
100
AcDbEntity
  8
B-0
  6
Continuous
 62
     3
370
     9
100
AcDbCircle
 10
-211.7652677762802
 20
-316.7883487413229
 30
0.0
 40
9.000000115987417
100
AcDbArc
 50
286.1275939941406
 51
0.0001678466797443
  0
ARC
  5
1CA
330
1F
100
AcDbEntity
  8
B-0
  6
Continuous
 62
     3
370
     9
100
AcDbCircle
 10
-211.7652677762802
 20
-316.7883487413229
 30
0.0
 40
4.000001259752223
100
AcDbArc
 50
308.6822052001953
 51
0.0
  0
ARC
  5
1CB
330
1F
100
AcDbEntity
  8
B-0
  6
Continuous
 62
     3
370
     9
100
AcDbCircle
 10
-211.7652677762802
 20
-316.7883487413229
 30
0.0
 40
4.000001259752223
100
AcDbArc
 50
180.0
 51
231.3177947998047
  0
ARC
  5
1CC
330
1F
100
AcDbEntity
  8
B-0
  6
Continuous
 62
     3
370
     9
100
AcDbCircle
 10
-211.7652677762802
 20
-316.7883487413229
 30
0.0
 40
9.000000115987417
100
AcDbArc
 50
180.0
 51
253.8724060058594
  0
ARC
  5
1CD
330
1F
100
AcDbEntity
  8
B-0
  6
Continuous
 62
     3
370
     9
100
AcDbCircle
 10
-734.9625140184942
 20
-245.2883231725412
 30
0.0
 40
1.500000019331236
100
AcDbArc
 50
90.0
 51
146.3110504150391
  0
ARC
  5
1CE
330
1F
100
AcDbEntity
  8
B-0
  6
Continuous
 62
     3
370
     9
100
AcDbCircle
 10
-722.5680367928554
 20
-245.2883231725412
 30
0.0
 40
1.500000019331236
100
AcDbArc
 50
33.68894958496094
 51
89.99949645996095
  0
ARC
  5
1CF
330
1F
100
AcDbEntity
  8
B-0
  6
Continuous
 62
     3
370
     9
100
AcDbCircle
 10
-712.962515668093
 20
-245.2883231725412
 30
0.0
 40
1.500000019331236
100
AcDbArc
 50
90.0
 51
146.3110504150391
  0
ARC
  5
1D0
330
1F
100
AcDbEntity
  8
B-0
  6
Continuous
 62
     3
370
     9
100
AcDbCircle
 10
-700.5680384424544
 20
-245.2883231725412
 30
0.0
 40
1.500000019331236
100
AcDbArc
 50
33.68894958496094
 51
89.99949645996095
  0
ARC
  5
1D1
330
1F
100
AcDbEntity
  8
B-0
  6
Continuous
 62
     3
370
     9
100
AcDbCircle
 10
-690.9625173176919
 20
-245.2883231725412
 30
0.0
 40
1.500000019331236
100
AcDbArc
 50
90.0
 51
146.3110504150391
  0
ARC
  5
1D2
330
1F
100
AcDbEntity
  8
B-0
  6
Continuous
 62
     3
370
     9
100
AcDbCircle
 10
-678.5680091620752
 20
-245.2883231725412
 30
0.0
 40
1.500000019331236
100
AcDbArc
 50
33.68894958496094
 51
89.99949645996095
  0
ARC
  5
1D3
330
1F
100
AcDbEntity
  8
B-0
  6
Continuous
 62
     3
370
     9
100
AcDbCircle
 10
-668.9625189672906
 20
-245.2883231725412
 30
0.0
 40
1.500000019331236
100
AcDbArc
 50
90.0
 51
146.3110504150391
  0
ARC
  5
1D4
330
1F
100
AcDbEntity
  8
B-0
  6
Continuous
 62
     3
370
     9
100
AcDbCircle
 10
-656.5680108116742
 20
-245.2883231725412
 30
0.0
 40
1.500000019331236
100
AcDbArc
 50
33.68894958496094
 51
89.99949645996095
  0
ARC
  5
1D5
330
1F
100
AcDbEntity
  8
B-0
  6
Continuous
 62
     3
370
     9
100
AcDbCircle
 10
-646.9624896869117
 20
-245.2883231725412
 30
0.0
 40
1.500000019331236
100
AcDbArc
 50
90.0
 51
146.3110504150391
  0
ARC
  5
1D6
330
1F
100
AcDbEntity
  8
B-0
  6
Continuous
 62
     3
370
     9
100
AcDbCircle
 10
-634.5680124612728
 20
-245.2883231725412
 30
0.0
 40
1.500000019331236
100
AcDbArc
 50
33.68894958496094
 51
89.99949645996095
  0
ARC
  5
1D7
330
1F
100
AcDbEntity
  8
B-0
  6
Continuous
 62
     3
370
     9
100
AcDbCircle
 10
-624.9625222664882
 20
-245.2883231725412
 30
0.0
 40
1.500000019331236
100
AcDbArc
 50
90.0
 51
146.3110504150391
  0
ARC
  5
1D8
330
1F
100
AcDbEntity
  8
B-0
  6
Continuous
 62
     3
370
     9
100
AcDbCircle
 10
-612.5680141108717
 20
-245.2883231725412
 30
0.0
 40
1.500000019331236
100
AcDbArc
 50
33.68894958496094
 51
89.99949645996095
  0
ARC
  5
1D9
330
1F
100
AcDbEntity
  8
B-0
  6
Continuous
 62
     3
370
     9
100
AcDbCircle
 10
-602.9624929861093
 20
-245.2883231725412
 30
0.0
 40
1.500000019331236
100
AcDbArc
 50
90.0
 51
146.3110504150391
  0
ARC
  5
1DA
330
1F
100
AcDbEntity
  8
B-0
  6
Continuous
 62
     3
370
     9
100
AcDbCircle
 10
-590.5680466904483
 20
-245.2883231725412
 30
0.0
 40
1.500000019331236
100
AcDbArc
 50
33.68894958496094
 51
89.99949645996095
  0
ARC
  5
1DB
330
1F
100
AcDbEntity
  8
B-0
  6
Continuous
 62
     3
370
     9
100
AcDbCircle
 10
-580.962494635708
 20
-245.2883231725412
 30
0.0
 40
1.500000019331236
100
AcDbArc
 50
90.0
 51
146.3110504150391
  0
ARC
  5
1DC
330
1F
100
AcDbEntity
  8
B-0
  6
Continuous
 62
     3
370
     9
100
AcDbCircle
 10
-568.5680174100695
 20
-245.2883231725412
 30
0.0
 40
1.500000019331236
100
AcDbArc
 50
33.68894958496094
 51
89.99949645996095
  0
ARC
  5
1DD
330
1F
100
AcDbEntity
  8
B-0
  6
Continuous
 62
     3
370
     9
100
AcDbCircle
 10
-558.962496285307
 20
-245.2883231725412
 30
0.0
 40
1.500000019331236
100
AcDbArc
 50
90.0
 51
146.3110504150391
  0
ARC
  5
1DE
330
1F
100
AcDbEntity
  8
B-0
  6
Continuous
 62
     3
370
     9
100
AcDbCircle
 10
-546.5679881296903
 20
-245.2883231725412
 30
0.0
 40
1.500000019331236
100
AcDbArc
 50
33.68894958496094
 51
89.99949645996095
  0
ARC
  5
1DF
330
1F
100
AcDbEntity
  8
B-0
  6
Continuous
 62
     3
370
     9
100
AcDbCircle
 10
-536.9624979349056
 20
-245.2883231725412
 30
0.0
 40
1.500000019331236
100
AcDbArc
 50
90.0
 51
146.3110504150391
  0
ARC
  5
1E0
330
1F
100
AcDbEntity
  8
B-0
  6
Continuous
 62
     3
370
     9
100
AcDbCircle
 10
-524.5679897792892
 20
-245.2883231725412
 30
0.0
 40
1.500000019331236
100
AcDbArc
 50
33.68894958496094
 51
89.99949645996095
  0
ARC
  5
1E1
330
1F
100
AcDbEntity
  8
B-0
  6
Continuous
 62
     3
370
     9
100
AcDbCircle
 10
-514.9624377245489
 20
-245.2883231725412
 30
0.0
 40
1.500000019331236
100
AcDbArc
 50
90.0
 51
146.3110504150391
  0
ARC
  5
1E2
330
1F
100
AcDbEntity
  8
B-0
  6
Continuous
 62
     3
370
     9
100
AcDbCircle
 10
-502.5679914288879
 20
-245.2883231725412
 30
0.0
 40
1.500000019331236
100
AcDbArc
 50
33.68894958496094
 51
89.99949645996095
  0
ARC
  5
1E3
330
1F
100
AcDbEntity
  8
B-0
  6
Continuous
 62
     3
370
     9
100
AcDbCircle
 10
-492.9625012341033
 20
-245.2883231725412
 30
0.0
 40
1.500000019331236
100
AcDbArc
 50
90.0
 51
146.3110504150391
  0
ARC
  5
1E4
330
1F
100
AcDbEntity
  8
B-0
  6
Continuous
 62
     3
370
     9
100
AcDbCircle
 10
-480.5679930784868
 20
-245.2883231725412
 30
0.0
 40
1.500000019331236
100
AcDbArc
 50
33.68894958496094
 51
89.99949645996095
  0
ARC
  5
1E5
330
1F
100
AcDbEntity
  8
B-0
  6
Continuous
 62
     3
370
     9
100
AcDbCircle
 10
-470.9625028837021
 20
-245.2883231725412
 30
0.0
 40
1.500000019331236
100
AcDbArc
 50
90.0
 51
146.3110504150391
  0
ARC
  5
1E6
330
1F
100
AcDbEntity
  8
B-0
  6
Continuous
 62
     3
370
     9
100
AcDbCircle
 10
-458.5679947280856
 20
-245.2883231725412
 30
0.0
 40
1.500000019331236
100
AcDbArc
 50
33.68894958496094
 51
89.99949645996095
  0
ARC
  5
1E7
330
1F
100
AcDbEntity
  8
B-0
  6
Continuous
 62
     3
370
     9
100
AcDbCircle
 10
-448.9624426733452
 20
-245.2883231725412
 30
0.0
 40
1.500000019331236
100
AcDbArc
 50
90.0
 51
146.3110504150391
  0
ARC
  5
1E8
330
1F
100
AcDbEntity
  8
B-0
  6
Continuous
 62
     3
370
     9
100
AcDbCircle
 10
-436.5679963776844
 20
-245.2883231725412
 30
0.0
 40
1.500000019331236
100
AcDbArc
 50
33.68894958496094
 51
89.99949645996095
  0
ARC
  5
1E9
330
1F
100
AcDbEntity
  8
B-0
  6
Continuous
 62
     3
370
     9
100
AcDbCircle
 10
-426.9624443229441
 20
-245.2883231725412
 30
0.0
 40
1.500000019331236
100
AcDbArc
 50
90.0
 51
146.3110504150391
  0
ARC
  5
1EA
330
1F
100
AcDbEntity
  8
B-0
  6
Continuous
 62
     3
370
     9
100
AcDbCircle
 10
-414.5679361673275
 20
-245.2883231725412
 30
0.0
 40
1.500000019331236
100
AcDbArc
 50
33.68894958496094
 51
89.99949645996095
  0
ARC
  5
1EB
330
1F
100
AcDbEntity
  8
B-0
  6
Continuous
 62
     3
370
     9
100
AcDbCircle
 10
-404.9623841125873
 20
-245.2883231725412
 30
0.0
 40
1.500000019331236
100
AcDbArc
 50
90.0
 51
146.3110504150391
  0
ARC
  5
1EC
330
1F
100
AcDbEntity
  8
B-0
  6
Continuous
 62
     3
370
     9
100
AcDbCircle
 10
-392.5678759569707
 20
-245.2883231725412
 30
0.0
 40
1.500000019331236
100
AcDbArc
 50
33.68894958496094
 51
89.99949645996095
  0
ARC
  5
1ED
330
1F
100
AcDbEntity
  8
B-0
  6
Continuous
 62
     3
370
     9
100
AcDbCircle
 10
-382.9623857621862
 20
-245.2883231725412
 30
0.0
 40
1.500000019331236
100
AcDbArc
 50
90.0
 51
146.3110504150391
  0
ARC
  5
1EE
330
1F
100
AcDbEntity
  8
B-0
  6
Continuous
 62
     3
370
     9
100
AcDbCircle
 10
-370.5678776065696
 20
-245.2883231725412
 30
0.0
 40
1.500000019331236
100
AcDbArc
 50
33.68894958496094
 51
89.99949645996095
  0
ARC
  5
1EF
330
1F
100
AcDbEntity
  8
B-0
  6
Continuous
 62
     3
370
     9
100
AcDbCircle
 10
-360.962387411785
 20
-245.2883231725412
 30
0.0
 40
1.500000019331236
100
AcDbArc
 50
90.0
 51
146.3110504150391
  0
ARC
  5
1F0
330
1F
100
AcDbEntity
  8
B-0
  6
Continuous
 62
     3
370
     9
100
AcDbCircle
 10
-348.5678792561685
 20
-245.2883231725412
 30
0.0
 40
1.500000019331236
100
AcDbArc
 50
33.68894958496094
 51
89.99949645996095
  0
ARC
  5
1F1
330
1F
100
AcDbEntity
  8
B-0
  6
Continuous
 62
     3
370
     9
100
AcDbCircle
 10
-338.9623890613838
 20
-245.2883231725412
 30
0.0
 40
1.500000019331236
100
AcDbArc
 50
90.0
 51
146.3110504150391
  0
ARC
  5
1F2
330
1F
100
AcDbEntity
  8
B-0
  6
Continuous
 62
     3
370
     9
100
AcDbCircle
 10
-326.5678809057673
 20
-245.2883231725412
 30
0.0
 40
1.500000019331236
100
AcDbArc
 50
33.68894958496094
 51
89.99949645996095
  0
ARC
  5
1F3
330
1F
100
AcDbEntity
  8
B-0
  6
Continuous
 62
     3
370
     9
100
AcDbCircle
 10
-316.9623907109826
 20
-245.2883231725412
 30
0.0
 40
1.500000019331236
100
AcDbArc
 50
90.0
 51
146.3110504150391
  0
ARC
  5
1F4
330
1F
100
AcDbEntity
  8
B-0
  6
Continuous
 62
     3
370
     9
100
AcDbCircle
 10
-304.5678825553661
 20
-245.2883231725412
 30
0.0
 40
1.500000019331236
100
AcDbArc
 50
33.68894958496094
 51
89.99949645996095
  0
ARC
  5
1F5
330
1F
100
AcDbEntity
  8
B-0
  6
Continuous
 62
     3
370
     9
100
AcDbCircle
 10
-294.9623923605814
 20
-245.2883231725412
 30
0.0
 40
1.500000019331236
100
AcDbArc
 50
90.0
 51
146.3110504150391
  0
ARC
  5
1F6
330
1F
100
AcDbEntity
  8
B-0
  6
Continuous
 62
     3
370
     9
100
AcDbCircle
 10
-282.5678842049647
 20
-245.2883231725412
 30
0.0
 40
1.500000019331236
100
AcDbArc
 50
33.68894958496094
 51
89.99949645996095
  0
ARC
  5
1F7
330
1F
100
AcDbEntity
  8
B-0
  6
Continuous
 62
     3
370
     9
100
AcDbCircle
 10
-272.9623321502245
 20
-245.2883231725412
 30
0.0
 40
1.500000019331236
100
AcDbArc
 50
90.0
 51
146.3110504150391
  0
ARC
  5
1F8
330
1F
100
AcDbEntity
  8
B-0
  6
Continuous
 62
     3
370
     9
100
AcDbCircle
 10
-260.567823994608
 20
-245.2883231725412
 30
0.0
 40
1.500000019331236
100
AcDbArc
 50
33.68894958496094
 51
89.99949645996095
  0
ARC
  5
1F9
330
1F
100
AcDbEntity
  8
B-0
  6
Continuous
 62
     3
370
     9
100
AcDbCircle
 10
-250.9623337998233
 20
-245.2883231725412
 30
0.0
 40
1.500000019331236
100
AcDbArc
 50
90.0
 51
146.3110504150391
  0
ARC
  5
1FA
330
1F
100
AcDbEntity
  8
B-0
  6
Continuous
 62
     3
370
     9
100
AcDbCircle
 10
-238.5678256442068
 20
-245.2883231725412
 30
0.0
 40
1.500000019331236
100
AcDbArc
 50
33.68894958496094
 51
89.99949645996095
  0
ARC
  5
1FB
330
1F
100
AcDbEntity
  8
B-0
  6
Continuous
 62
     3
370
     9
100
AcDbCircle
 10
-228.9623354494222
 20
-245.2883231725412
 30
0.0
 40
1.500000019331236
100
AcDbArc
 50
90.0
 51
146.3110504150391
  0
ARC
  5
1FC
330
1F
100
AcDbEntity
  8
B-0
  6
Continuous
 62
     3
370
     9
100
AcDbCircle
 10
-216.5678272938056
 20
-245.2883231725412
 30
0.0
 40
1.500000019331236
100
AcDbArc
 50
33.68894958496094
 51
89.99949645996095
  0
ARC
  5
1FD
330
1F
100
AcDbEntity
  8
B-0
  6
Continuous
 62
     3
370
     9
100
AcDbCircle
 10
-206.9622752390653
 20
-245.2883231725412
 30
0.0
 40
1.500000019331236
100
AcDbArc
 50
90.0
 51
146.3110504150391
  0
ARC
  5
1FE
330
1F
100
AcDbEntity
  8
B-0
  6
Continuous
 62
     3
370
     9
100
AcDbCircle
 10
-194.5677670834487
 20
-245.2883231725412
 30
0.0
 40
1.500000019331236
100
AcDbArc
 50
33.68894958496094
 51
89.99949645996095
  0
ARC
  5
1FF
330
1F
100
AcDbEntity
  8
B-0
  6
Continuous
 62
     3
370
     9
100
AcDbCircle
 10
-184.9623387486198
 20
-245.2883231725412
 30
0.0
 40
1.500000019331236
100
AcDbArc
 50
90.0
 51
146.3110504150391
  0
ARC
  5
200
330
1F
100
AcDbEntity
  8
B-0
  6
Continuous
 62
     3
370
     9
100
AcDbCircle
 10
-172.5678305930033
 20
-245.2883231725412
 30
0.0
 40
1.500000019331236
100
AcDbArc
 50
33.68894958496094
 51
89.99949645996095
  0
ARC
  5
201
330
1F
100
AcDbEntity
  8
B-0
  6
Continuous
 62
     3
370
     9
100
AcDbCircle
 10
-162.9622785382629
 20
-245.2883231725412
 30
0.0
 40
1.500000019331236
100
AcDbArc
 50
90.0
 51
146.3110504150391
  0
ARC
  5
202
330
1F
100
AcDbEntity
  8
B-0
  6
Continuous
 62
     3
370
     9
100
AcDbCircle
 10
-150.5677703826464
 20
-245.2883231725412
 30
0.0
 40
1.500000019331236
100
AcDbArc
 50
33.68894958496094
 51
89.99949645996095
  0
ARC
  5
203
330
1F
100
AcDbEntity
  8
B-0
  6
Continuous
 62
     3
370
     9
100
AcDbCircle
 10
456.752241890369
 20
148.2889638312595
 30
0.0
 40
3.000000038662472
100
AcDbArc
 50
180.0
 51
258.6904602050781
  0
ARC
  5
204
330
1F
100
AcDbEntity
  8
B-0
  6
Continuous
 62
     3
370
     9
100
AcDbCircle
 10
456.752241890369
 20
131.3700803787153
 30
0.0
 40
3.000000038662472
100
AcDbArc
 50
101.3095397949219
 51
180.0
  0
CIRCLE
  5
205
330
1F
100
AcDbEntity
  8
B-1
  6
Continuous
 62
     2
370
     9
100
AcDbCircle
 10
-642.7652298355075
 20
62.52947616366031
 30
0.0
 40
4.500000057993709
  0
CIRCLE
  5
206
330
1F
100
AcDbEntity
  8
B-1
  6
Continuous
 62
     2
370
     9
100
AcDbCircle
 10
-42.76529169546301
 20
62.52947616366031
 30
0.0
 40
4.500000057993709
  0
TEXT
  5
207
330
1F
100
AcDbEntity
  8
B-E
  6
Continuous
 62
     7
370
     9
100
AcDbText
 10
567.4069676610617
 20
-20.30910000161632
 30
0.0
 40
11.43
  1
シャックル：呼び６
 41
1.148148148148148
  7
ＭＳ ゴシック
100
AcDbText
  0
TEXT
  5
208
330
1F
100
AcDbEntity
  8
B-0
  6
Continuous
 62
     7
370
     9
100
AcDbText
 10
-598.1704478052474
 20
315.7902726229614
 30
0.0
 40
9.525
  1
ＧＸＭ－２－２５０
 50
180.0
 41
1.106666666666666
  7
ＭＳ ゴシック
100
AcDbText
  0
LINE
  5
209
330
1F
100
AcDbEntity
  8
B-E
  6
Continuous
 62
     7
370
     9
100
AcDbLine
 10
556.8311339538191
 20
-26.65439306934223
 30
0.0
 11
771.6550177939482
 21
-26.65439306934223
 31
0.0
  0
LINE
  5
20A
330
1F
100
AcDbEntity
  8
B-F
  6
Continuous
 62
     7
370
     9
100
AcDbLine
 10
-741.7652533422906
 20
-7.970459501985854
 30
0.0
 11
-143.7651547787612
 21
-7.970459501985854
 31
0.0
  0
LINE
  5
20B
330
1F
100
AcDbEntity
  8
B-F
  6
Continuous
 62
     7
370
     9
100
AcDbLine
 10
-741.7652533422906
 20
63.02955204520588
 30
0.0
 11
-741.7652533422906
 21
-9.170418921854928
 31
0.0
  0
LINE
  5
20C
330
1F
100
AcDbEntity
  8
B-F
  6
Continuous
 62
     7
370
     9
100
AcDbLine
 10
-741.7652533422906
 20
-7.970459501985854
 30
0.0
 11
-729.8679136503039
 21
-6.40416542470545
 31
0.0
  0
LINE
  5
20D
330
1F
100
AcDbEntity
  8
B-F
  6
Continuous
 62
     7
370
     9
100
AcDbLine
 10
-741.7652533422906
 20
-7.970459501985854
 30
0.0
 11
-729.8679136503039
 21
-9.536753579266257
 31
0.0
  0
LINE
  5
20E
330
1F
100
AcDbEntity
  8
B-F
  6
Continuous
 62
     7
370
     9
100
AcDbLine
 10
-143.7651547787612
 20
-7.970459501985854
 30
0.0
 11
-155.6624944707482
 21
-6.40416542470545
 31
0.0
  0
LINE
  5
20F
330
1F
100
AcDbEntity
  8
B-F
  6
Continuous
 62
     7
370
     9
100
AcDbLine
 10
-143.7651547787612
 20
-7.970459501985854
 30
0.0
 11
-155.6624944707482
 21
-9.536753579266257
 31
0.0
  0
LINE
  5
210
330
1F
100
AcDbEntity
  8
B-F
  6
Continuous
 62
     7
370
     9
100
AcDbLine
 10
-141.7651605523571
 20
63.02955204520588
 30
0.0
 11
-141.7651605523571
 21
-9.470439706800047
 31
0.0
  0
LINE
  5
211
330
1F
100
AcDbEntity
  8
B-F
  6
Continuous
 62
     7
370
     9
100
AcDbLine
 10
-141.7651605523571
 20
-7.970459501985854
 30
0.0
 11
-126.8934704723845
 21
-6.012591905385332
 31
0.0
  0
LINE
  5
212
330
1F
100
AcDbEntity
  8
B-F
  6
Continuous
 62
     7
370
     9
100
AcDbLine
 10
-141.7651605523571
 20
-7.970459501985854
 30
0.0
 11
-126.8934704723845
 21
-9.928327098586305
 31
0.0
  0
LINE
  5
213
330
1F
100
AcDbEntity
  8
B-F
  6
Continuous
 62
     7
370
     9
100
AcDbLine
 10
-141.7651605523571
 20
-7.970459501985854
 30
0.0
 11
87.23476604049559
 21
-7.970459501985854
 31
0.0
  0
LINE
  5
214
330
1F
100
AcDbEntity
  8
B-F
  6
Continuous
 62
     7
370
     9
100
AcDbLine
 10
-143.7651547787612
 20
63.02955204520588
 30
0.0
 11
-143.7651547787612
 21
-9.470439706800047
 31
0.0
  0
LINE
  5
215
330
1F
100
AcDbEntity
  8
B-F
  6
Continuous
 62
     7
370
     9
100
AcDbLine
 10
443.7522484887642
 20
72.22948837069156
 30
0.0
 11
372.2522847799381
 21
72.22948837069156
 31
0.0
  0
LINE
  5
216
330
1F
100
AcDbEntity
  8
B-F
  6
Continuous
 62
     7
370
     9
100
AcDbLine
 10
373.7522649847522
 20
72.22948837069156
 30
0.0
 11
373.7522649847522
 21
70.22943228433179
 31
0.0
  0
LINE
  5
217
330
1F
100
AcDbEntity
  8
B-F
  6
Continuous
 62
     7
370
     9
100
AcDbLine
 10
443.7522484887642
 20
70.22943228433179
 30
0.0
 11
372.2522847799381
 21
70.22943228433179
 31
0.0
  0
LINE
  5
218
330
1F
100
AcDbEntity
  8
B-F
  6
Continuous
 62
     7
370
     9
100
AcDbLine
 10
373.7522649847522
 20
72.22948837069156
 30
0.0
 11
371.7943973881517
 21
87.10117845066408
 31
0.0
  0
LINE
  5
219
330
1F
100
AcDbEntity
  8
B-F
  6
Continuous
 62
     7
370
     9
100
AcDbLine
 10
373.7522649847522
 20
72.22948837069156
 30
0.0
 11
375.7101325813527
 21
87.10117845066408
 31
0.0
  0
LINE
  5
21A
330
1F
100
AcDbEntity
  8
B-F
  6
Continuous
 62
     7
370
     9
100
AcDbLine
 10
443.7522484887642
 20
67.02947863805848
 30
0.0
 11
322.2522435399677
 21
67.02947863805848
 31
0.0
  0
LINE
  5
21B
330
1F
100
AcDbEntity
  8
B-F
  6
Continuous
 62
     7
370
     9
100
AcDbLine
 10
373.7522649847522
 20
67.02947863805848
 30
0.0
 11
371.7943973881517
 21
52.15778855808595
 31
0.0
  0
LINE
  5
21C
330
1F
100
AcDbEntity
  8
B-F
  6
Continuous
 62
     7
370
     9
100
AcDbLine
 10
373.7522649847522
 20
67.02947863805848
 30
0.0
 11
375.7101325813527
 21
52.15778855808595
 31
0.0
  0
LINE
  5
21D
330
1F
100
AcDbEntity
  8
B-F
  6
Continuous
 62
     7
370
     9
100
AcDbLine
 10
373.7522649847522
 20
70.22943228433179
 30
0.0
 11
373.7522649847522
 21
19.60856452936982
 31
0.0
  0
LINE
  5
21E
330
1F
100
AcDbEntity
  8
B-F
  6
Continuous
 62
     7
370
     9
100
AcDbLine
 10
323.7522237447819
 20
67.02947863805848
 30
0.0
 11
321.7943561481814
 21
81.901168718031
 31
0.0
  0
LINE
  5
21F
330
1F
100
AcDbEntity
  8
B-F
  6
Continuous
 62
     7
370
     9
100
AcDbLine
 10
323.7522237447819
 20
67.02947863805848
 30
0.0
 11
325.7100913413824
 21
81.901168718031
 31
0.0
  0
LINE
  5
220
330
1F
100
AcDbEntity
  8
B-F
  6
Continuous
 62
     7
370
     9
100
AcDbLine
 10
448.7522649847523
 20
110.6847298059745
 30
0.0
 11
442.5921268803392
 21
97.00798848946265
 31
0.0
  0
LINE
  5
221
330
1F
100
AcDbEntity
  8
B-F
  6
Continuous
 62
     7
370
     9
100
AcDbLine
 10
448.7522649847523
 20
110.6847298059745
 30
0.0
 11
439.2622054672269
 21
99.06841989254546
 31
0.0
  0
LINE
  5
222
330
1F
100
AcDbEntity
  8
B-F
  6
Continuous
 62
     7
370
     9
100
AcDbLine
 10
627.9528858937472
 20
191.5533219393676
 30
0.0
 11
552.2737873005252
 21
143.8295414877735
 31
0.0
  0
LINE
  5
223
330
1F
100
AcDbEntity
  8
B-F
  6
Continuous
 62
     7
370
     9
100
AcDbLine
 10
552.2737873005252
 20
143.8295414877735
 30
0.0
 11
563.8088132322185
 21
153.4182676345746
 31
0.0
  0
LINE
  5
224
330
1F
100
AcDbEntity
  8
B-F
  6
Continuous
 62
     7
370
     9
100
AcDbLine
 10
552.2737873005252
 20
143.8295414877735
 30
0.0
 11
565.8974527750815
 21
150.1060381687806
 31
0.0
  0
LINE
  5
225
330
1F
100
AcDbEntity
  8
B-F
  6
Continuous
 62
     7
370
     9
100
AcDbLine
 10
448.7522649847523
 20
62.02946214207033
 30
0.0
 11
448.7522649847523
 21
-59.47048094677049
 31
0.0
  0
LINE
  5
226
330
1F
100
AcDbEntity
  8
B-F
  6
Continuous
 62
     7
370
     9
100
AcDbLine
 10
473.7522237447819
 20
-7.970521361941518
 30
0.0
 11
488.6238519647987
 21
-6.012653765340996
 31
0.0
  0
LINE
  5
227
330
1F
100
AcDbEntity
  8
B-F
  6
Continuous
 62
     7
370
     9
100
AcDbLine
 10
473.7522237447819
 20
-7.970521361941518
 30
0.0
 11
488.6238519647987
 21
-9.92838895854197
 31
0.0
  0
LINE
  5
228
330
1F
100
AcDbEntity
  8
B-F
  6
Continuous
 62
     7
370
     9
100
AcDbLine
 10
448.7522649847523
 20
-7.970521361941518
 30
0.0
 11
433.8806367647356
 21
-6.012653765340996
 31
0.0
  0
LINE
  5
229
330
1F
100
AcDbEntity
  8
B-F
  6
Continuous
 62
     7
370
     9
100
AcDbLine
 10
448.7522649847523
 20
-7.970521361941518
 30
0.0
 11
433.8806367647356
 21
-9.92838895854197
 31
0.0
  0
LINE
  5
22A
330
1F
100
AcDbEntity
  8
B-F
  6
Continuous
 62
     7
370
     9
100
AcDbLine
 10
505.9520627439373
 20
-57.9705007419563
 30
0.0
 11
520.8236909639544
 21
-56.01263314535578
 31
0.0
  0
LINE
  5
22B
330
1F
100
AcDbEntity
  8
B-F
  6
Continuous
 62
     7
370
     9
100
AcDbLine
 10
505.9520627439373
 20
-57.9705007419563
 30
0.0
 11
520.8236909639544
 21
-59.92836833855677
 31
0.0
  0
LINE
  5
22C
330
1F
100
AcDbEntity
  8
B-F
  6
Continuous
 62
     7
370
     9
100
AcDbLine
 10
448.7522649847523
 20
-57.9705007419563
 30
0.0
 11
433.8806367647356
 21
-56.01263314535578
 31
0.0
  0
LINE
  5
22D
330
1F
100
AcDbEntity
  8
B-F
  6
Continuous
 62
     7
370
     9
100
AcDbLine
 10
448.7522649847523
 20
-57.9705007419563
 30
0.0
 11
433.8806367647356
 21
-59.92836833855677
 31
0.0
  0
LINE
  5
22E
330
1F
100
AcDbEntity
  8
B-F
  6
Continuous
 62
     7
370
     9
100
AcDbLine
 10
505.9520627439373
 20
33.02939120932125
 30
0.0
 11
505.9520627439373
 21
-59.47048094677049
 31
0.0
  0
LINE
  5
22F
330
1F
100
AcDbEntity
  8
B-F
  6
Continuous
 62
     7
370
     9
100
AcDbLine
 10
473.7522237447819
 20
53.02939533331825
 30
0.0
 11
473.7522237447819
 21
-9.47050156675564
 31
0.0
  0
LINE
  5
230
330
1F
100
AcDbEntity
  8
B-F
  6
Continuous
 62
     7
370
     9
100
AcDbLine
 10
476.9521155310993
 20
53.02939533331825
 30
0.0
 11
476.9521155310993
 21
-59.47048094677049
 31
0.0
  0
LINE
  5
231
330
1F
100
AcDbEntity
  8
B-F
  6
Continuous
 62
     7
370
     9
100
AcDbLine
 10
476.9521155310993
 20
-57.9705007419563
 30
0.0
 11
386.7547327845834
 21
-57.9705007419563
 31
0.0
  0
LINE
  5
232
330
1F
100
AcDbEntity
  8
B-F
  6
Continuous
 62
     7
370
     9
100
AcDbLine
 10
546.8371632374972
 20
-57.9705007419563
 30
0.0
 11
476.9521155310993
 21
-57.9705007419563
 31
0.0
  0
LINE
  5
233
330
1F
100
AcDbEntity
  8
B-F
  6
Continuous
 62
     7
370
     9
100
AcDbLine
 10
495.6845473036923
 20
-7.970521361941518
 30
0.0
 11
409.3858264026156
 21
-7.970521361941518
 31
0.0
  0
LINE
  5
234
330
1F
100
AcDbEntity
  8
B-F
  6
Continuous
 62
     7
370
     9
100
AcDbLine
 10
510.9520792399253
 20
38.0294077053094
 30
0.0
 11
582.4520429487513
 21
38.0294077053094
 31
0.0
  0
LINE
  5
235
330
1F
100
AcDbEntity
  8
B-F
  6
Continuous
 62
     7
370
     9
100
AcDbLine
 10
580.9520627439373
 20
38.0294077053094
 30
0.0
 11
578.9941951473368
 21
23.15771762533688
 31
0.0
  0
LINE
  5
236
330
1F
100
AcDbEntity
  8
B-F
  6
Continuous
 62
     7
370
     9
100
AcDbLine
 10
580.9520627439373
 20
38.0294077053094
 30
0.0
 11
582.9099303405378
 21
23.15771762533688
 31
0.0
  0
LINE
  5
237
330
1F
100
AcDbEntity
  8
B-F
  6
Continuous
 62
     7
370
     9
100
AcDbLine
 10
580.9520627439373
 20
67.02947863805848
 30
0.0
 11
580.9520627439373
 21
97.22944713072111
 31
0.0
  0
LINE
  5
238
330
1F
100
AcDbEntity
  8
B-F
  6
Continuous
 62
     7
370
     9
100
AcDbLine
 10
580.9520627439373
 20
97.22944713072111
 30
0.0
 11
578.9941951473368
 21
112.1011372106936
 31
0.0
  0
LINE
  5
239
330
1F
100
AcDbEntity
  8
B-F
  6
Continuous
 62
     7
370
     9
100
AcDbLine
 10
580.9520627439373
 20
97.22944713072111
 30
0.0
 11
582.9099303405378
 21
112.1011372106936
 31
0.0
  0
LINE
  5
23A
330
1F
100
AcDbEntity
  8
B-F
  6
Continuous
 62
     7
370
     9
100
AcDbLine
 10
496.9521815150523
 20
67.02947863805848
 30
0.0
 11
582.4520429487513
 21
67.02947863805848
 31
0.0
  0
LINE
  5
23B
330
1F
100
AcDbEntity
  8
B-F
  6
Continuous
 62
     7
370
     9
100
AcDbLine
 10
481.9521320270877
 20
97.22944713072111
 30
0.0
 11
582.4520429487513
 21
97.22944713072111
 31
0.0
  0
LINE
  5
23C
330
1F
100
AcDbEntity
  8
B-F
  6
Continuous
 62
     7
370
     9
100
AcDbLine
 10
580.9520627439373
 20
19.86262336726044
 30
0.0
 11
580.9520627439373
 21
67.02947863805848
 31
0.0
  0
LINE
  5
23D
330
1F
100
AcDbEntity
  8
B-F
  6
Continuous
 62
     7
370
     9
100
AcDbLine
 10
356.7348386228437
 20
-38.02901613601242
 30
0.0
 11
448.7522649847523
 21
110.6847298059745
 31
0.0
  0
TEXT
  5
23E
330
1F
100
AcDbEntity
  8
B-F
  6
Continuous
 62
     2
370
     9
100
AcDbText
 10
-359.0152916954631
 20
407.299372073975
 30
0.0
 40
15.24
  1
600
 41
1.083333333333333
  7
ＭＳ ゴシック
100
AcDbText
  0
TEXT
  5
23F
330
1F
100
AcDbEntity
  8
B-F
  6
Continuous
 62
     2
370
     9
100
AcDbText
 10
-709.5152696320791
 20
407.299372073975
 30
0.0
 40
15.24
  1
100
 41
1.083333333333333
  7
ＭＳ ゴシック
100
AcDbText
  0
TEXT
  5
240
330
1F
100
AcDbEntity
  8
B-F
  6
Continuous
 62
     2
370
     9
100
AcDbText
 10
55.4629896865049
 20
407.299372073975
 30
0.0
 40
15.24
  1
600
 41
1.083333333333333
  7
ＭＳ ゴシック
100
AcDbText
  0
TEXT
  5
241
330
1F
100
AcDbEntity
  8
B-F
  6
Continuous
 62
     2
370
     9
100
AcDbText
 10
-344.0152236495119
 20
457.2994133139453
 30
0.0
 40
15.24
  1
2000
 41
1.09375
  7
ＭＳ ゴシック
100
AcDbText
  0
TEXT
  5
242
330
1F
100
AcDbEntity
  8
B-F
  6
Continuous
 62
     2
370
     9
100
AcDbText
 10
-455.2653053109713
 20
-3.150465275602478
 30
0.0
 40
15.24
  1
598
 50
0.0001090558823325
 41
1.083333333333332
  7
ＭＳ ゴシック
100
AcDbText
  0
TEXT
  5
243
330
1F
100
AcDbEntity
  8
B-F
  6
Continuous
 62
     2
370
     9
100
AcDbText
 10
55.25118119832918
 20
-2.650451253991708
 30
0.0
 40
15.24
  1
598
 41
1.083333333333333
  7
ＭＳ ゴシック
100
AcDbText
  0
TEXT
  5
244
330
1F
100
AcDbEntity
  8
B-F
  6
Continuous
 62
     2
370
     9
100
AcDbText
 10
-148.1795575085174
 20
-27.98210309626372
 30
0.0
 40
15.24
  1
2
 41
0.9999999999999998
  7
ＭＳ ゴシック
100
AcDbText
  0
TEXT
  5
245
330
1F
100
AcDbEntity
  8
B-F
  6
Continuous
 62
     2
370
     9
100
AcDbText
 10
368.4322567367583
 20
73.94169564938133
 30
0.0
 40
15.24
  1
2
 50
90.0
 41
0.9999999999999998
  7
ＭＳ ゴシック
100
AcDbText
  0
TEXT
  5
246
330
1F
100
AcDbEntity
  8
B-F
  6
Continuous
 62
     2
370
     9
100
AcDbText
 10
368.4322567367583
 20
18.93459206447327
 30
0.0
 40
15.24
  1
3.2
 50
90.0
 41
1.083333333333333
  7
ＭＳ ゴシック
100
AcDbText
  0
TEXT
  5
247
330
1F
100
AcDbEntity
  8
B-F
  6
Continuous
 62
     2
370
     9
100
AcDbText
 10
368.4322567367583
 20
181.9469574572097
 30
0.0
 40
15.24
  1
250
 50
90.0
 41
1.083333333333333
  7
ＭＳ ゴシック
100
AcDbText
  0
TEXT
  5
248
330
1F
100
AcDbEntity
  8
B-F
  6
Continuous
 62
     2
370
     9
100
AcDbText
 10
318.432215496788
 20
169.5044521619975
 30
0.0
 40
15.24
  1
260.4
 50
90.0
 41
1.1
  7
ＭＳ ゴシック
100
AcDbText
  0
TEXT
  5
249
330
1F
100
AcDbEntity
  8
B-F
  6
Continuous
 62
     2
370
     9
100
AcDbText
 10
411.5114623229595
 20
-2.650513113947373
 30
0.0
 40
15.24
  1
25
 41
1.0625
  7
ＭＳ ゴシック
100
AcDbText
  0
TEXT
  5
24A
330
1F
100
AcDbEntity
  8
B-F
  6
Continuous
 62
     2
370
     9
100
AcDbText
 10
521.7590176175121
 20
-52.65049249396215
 30
0.0
 40
15.24
  1
29
 41
1.0625
  7
ＭＳ ゴシック
100
AcDbText
  0
TEXT
  5
24B
330
1F
100
AcDbEntity
  8
B-F
  6
Continuous
 62
     2
370
     9
100
AcDbText
 10
388.9984964762538
 20
-52.65049249396215
 30
0.0
 40
15.24
  1
28.2
 41
1.09375
  7
ＭＳ ゴシック
100
AcDbText
  0
TEXT
  5
24C
330
1F
100
AcDbEntity
  8
B-F
  6
Continuous
 62
     2
370
     9
100
AcDbText
 10
575.632054495943
 20
41.90444317168394
 30
0.0
 40
15.24
  1
29
 50
90.0
 41
1.0625
  7
ＭＳ ゴシック
100
AcDbText
  0
TEXT
  5
24D
330
1F
100
AcDbEntity
  8
B-F
  6
Continuous
 62
     2
370
     9
100
AcDbText
 10
604.158278168346
 20
60.2544628843898
 30
0.0
 40
15.24
  1
30.2
 50
90.0
 41
1.09375
  7
ＭＳ ゴシック
100
AcDbText
  0
TEXT
  5
24E
330
1F
100
AcDbEntity
  8
B-F
  6
Continuous
 62
     2
370
     9
100
AcDbText
 10
575.632054495943
 20
180.7544212320197
 30
0.0
 40
15.24
  1
200
 50
90.0
 41
1.083333333333333
  7
ＭＳ ゴシック
100
AcDbText
  0
LWPOLYLINE
  5
24F
330
1F
100
AcDbEntity
  8
B-F
  6
Continuous
 62
     7
370
     9
100
AcDbPolyline
 90
        4
 70
     1
 43
1.0
 10
374.2522649847521
 20
70.22943228433179
 42
0.4142135623731
 10
373.7522649847522
 20
70.72943228433179
 42
0.4142135623731
 10
373.2522649847522
 20
70.22943228433179
 42
0.4142135623731
 10
373.7522649847522
 20
69.72943228433179
 42
0.4142135623731
  0
LWPOLYLINE
  5
250
330
1F
100
AcDbEntity
  8
B-F
  6
Continuous
 62
     7
370
     9
100
AcDbPolyline
 90
        4
 70
     1
 43
1.0
 10
477.4521155310993
 20
-57.9705007419563
 42
0.4142135623731
 10
476.9521155310993
 20
-57.4705007419563
 42
0.4142135623731
 10
476.4521155310993
 20
-57.9705007419563
 42
0.4142135623731
 10
476.9521155310993
 20
-58.47050074195629
 42
0.4142135623731
  0
LWPOLYLINE
  5
251
330
1F
100
AcDbEntity
  8
B-F
  6
Continuous
 62
     7
370
     9
100
AcDbPolyline
 90
        4
 70
     1
 43
1.0
 10
581.4520627439373
 20
67.02947863805848
 42
0.4142135623731
 10
580.9520627439373
 20
67.52947863805848
 42
0.4142135623731
 10
580.4520627439374
 20
67.02947863805848
 42
0.4142135623731
 10
580.9520627439373
 20
66.52947863805848
 42
0.4142135623731
  0
TEXT
  5
252
330
1F
100
AcDbEntity
  8
B-F
  6
Continuous
 62
     2
370
     9
100
AcDbText
 10
385.2824740878985
 20
-411.0267428898659
 30
0.0
 40
15.24
  1
仕様
 41
1.0625
  7
ＭＳ ゴシック
100
AcDbText
  0
TEXT
  5
253
330
1F
100
AcDbEntity
  8
B-F
  6
Continuous
 62
     2
370
     9
100
AcDbText
 10
385.2824493439161
 20
-435.0267354666713
 30
0.0
 40
15.24
  1
適用荷重：Ｔ－２
 41
1.109375
  7
ＭＳ ゴシック
100
AcDbText
  0
TEXT
  5
254
330
1F
100
AcDbEntity
  8
B-F
  6
Continuous
 62
     2
370
     9
100
AcDbText
 10
385.2824988318808
 20
-483.0267206202819
 30
0.0
 40
15.24
  1
接触圧子：φ１５０ｍｍ
 41
1.113636363636364
  7
ＭＳ ゴシック
100
AcDbText
  0
TEXT
  5
255
330
1F
100
AcDbEntity
  8
B-F
  6
Continuous
 62
     2
370
     9
100
AcDbText
 10
385.2824988318808
 20
-459.0267589734544
 30
0.0
 40
15.24
  1
破壊荷重：２０ｋＮ（２，０４１ｋｇｆ）以上
 41
1.119047619047619
  7
ＭＳ ゴシック
100
AcDbText
  0
TEXT
  5
256
330
1F
100
AcDbEntity
  8
B-F
  6
Continuous
 62
     2
370
     9
100
AcDbText
 10
385.2825858278313
 20
-507.0267441270647
 30
0.0
 40
15.24
  1
蓋 質 量：１１．０ｋｇ
 50
359.9999920352485
 41
1.113636363636364
  7
ＭＳ ゴシック
100
AcDbText
  0
TEXT
  5
257
330
1F
100
AcDbEntity
  8
F-5ﾚｲﾔ
  6
Continuous
 62
     2
370
     9
100
AcDbText
 10
-413.4424080801857
 20
-661.2715070124394
 30
0.0
 40
15.24
  1
細目ノンスリップタイプ（すきま８ｍｍ）側溝用
 41
0.8988636363636362
  7
ＭＳ ゴシック
100
AcDbText
  0
TEXT
  5
258
330
1F
100
AcDbEntity
  8
F-5ﾚｲﾔ
  6
Continuous
 62
     2
370
     9
100
AcDbText
 10
-209.3380886321114
 20
-685.429529648175
 30
0.0
 40
15.24
  1
鋳鉄製みぞ蓋　ＧＸＭ－２－２５０＋Ｌ－２５Ｇ
 41
0.8988636363636364
  7
ＭＳ ゴシック
100
AcDbText
  0
LINE
  5
259
330
1F
100
AcDbEntity
  8
B-0
  6
Continuous
 62
     3
370
     9
100
AcDbLine
 10
451.340238089693
 20
321.5402952224653
 30
0.0
 11
453.7522814807404
 21
322.2294769884599
 31
0.0
  0
LINE
  5
25A
330
1F
100
AcDbEntity
  8
B-0
  6
Continuous
 62
     3
370
     9
100
AcDbLine
 10
450.2522451895665
 20
303.9109501791799
 30
0.0
 11
450.2522451895665
 21
320.097968496325
 31
0.0
  0
LINE
  5
25B
330
1F
100
AcDbEntity
  8
B-0
  6
Continuous
 62
     3
370
     9
100
AcDbLine
 10
451.340238089693
 20
302.4686853129953
 30
0.0
 11
453.7522814807404
 21
301.7795035470008
 31
0.0
  0
LINE
  5
25C
330
1F
100
AcDbEntity
  8
B-0
  6
Continuous
 62
     3
370
     9
100
AcDbLine
 10
451.340238089693
 20
292.8902279188335
 30
0.0
 11
453.7522814807404
 21
293.5794715447838
 31
0.0
  0
LINE
  5
25D
330
1F
100
AcDbEntity
  8
B-0
  6
Continuous
 62
     3
370
     9
100
AcDbLine
 10
450.2522451895665
 20
291.4479011926932
 30
0.0
 11
450.2522451895665
 21
275.2109618913315
 31
0.0
  0
LINE
  5
25E
330
1F
100
AcDbEntity
  8
B-0
  6
Continuous
 62
     3
370
     9
100
AcDbLine
 10
456.6022933578519
 20
307.3720765582445
 30
0.0
 11
472.3272178062263
 21
308.1581928747563
 31
0.0
  0
LINE
  5
25F
330
1F
100
AcDbEntity
  8
B-0
  6
Continuous
 62
     3
370
     9
100
AcDbLine
 10
473.7522237447819
 20
316.826195441532
 30
0.0
 11
473.7522237447819
 21
309.6563172809007
 31
0.0
  0
LINE
  5
260
330
1F
100
AcDbEntity
  8
B-0
  6
Continuous
 62
     3
370
     9
100
AcDbLine
 10
472.3519617884898
 20
318.3228352087406
 30
0.0
 11
460.6191077185993
 21
319.1050543480461
 31
0.0
  0
LINE
  5
261
330
1F
100
AcDbEntity
  8
B-0
  6
Continuous
 62
     3
370
     9
100
AcDbLine
 10
453.7522814807404
 20
322.2294769884599
 30
0.0
 11
458.7522979767288
 21
321.2294489452799
 31
0.0
  0
LINE
  5
262
330
1F
100
AcDbEntity
  8
B-0
  6
Continuous
 62
     3
370
     9
100
AcDbLine
 10
458.7522979767288
 20
321.1005946576427
 30
0.0
 11
458.7522979767288
 21
321.2294489452799
 31
0.0
  0
LINE
  5
263
330
1F
100
AcDbEntity
  8
B-0
  6
Continuous
 62
     3
370
     9
100
AcDbLine
 10
458.7522979767288
 20
287.0997649094375
 30
0.0
 11
458.7522979767288
 21
279.5590981745872
 31
0.0
  0
LINE
  5
264
330
1F
100
AcDbEntity
  8
B-0
  6
Continuous
 62
     3
370
     9
100
AcDbLine
 10
456.1638299921425
 20
277.8118018670494
 30
0.0
 11
457.546276281205
 21
278.0882540088885
 31
0.0
  0
LINE
  5
265
330
1F
100
AcDbEntity
  8
B-0
  6
Continuous
 62
     3
370
     9
100
AcDbLine
 10
456.1638299921425
 20
288.8470612169755
 30
0.0
 11
457.546276281205
 21
288.5706090751364
 31
0.0
  0
LINE
  5
266
330
1F
100
AcDbEntity
  8
B-0
  6
Continuous
 62
     3
370
     9
100
AcDbLine
 10
453.7522814807404
 20
291.7889351282401
 30
0.0
 11
453.7522814807404
 21
293.5794715447838
 31
0.0
  0
LINE
  5
267
330
1F
100
AcDbEntity
  8
B-0
  6
Continuous
 62
     3
370
     9
100
AcDbLine
 10
453.7522814807404
 20
304.375765886
 30
0.0
 11
453.7522814807404
 21
301.7795035470008
 31
0.0
  0
LINE
  5
268
330
1F
100
AcDbEntity
  8
B-0
  6
Continuous
 62
     3
370
     9
100
AcDbLine
 10
449.4201050660446
 20
305.5592086977081
 30
0.0
 11
450.2522451895665
 21
305.0044486153602
 31
0.0
  0
LINE
  5
269
330
1F
100
AcDbEntity
  8
B-0
  6
Continuous
 62
     3
370
     9
100
AcDbLine
 10
449.4201050660446
 20
318.4497718377526
 30
0.0
 11
450.2522451895665
 21
319.0044700601448
 31
0.0
  0
LINE
  5
26A
330
1F
100
AcDbEntity
  8
B-0
  6
Continuous
 62
     3
370
     9
100
AcDbLine
 10
448.7522649847523
 20
317.2017472323365
 30
0.0
 11
448.7522649847523
 21
306.8072333031242
 31
0.0
  0
LINE
  5
26B
330
1F
100
AcDbEntity
  8
B-0
  6
Continuous
 62
     3
370
     9
100
AcDbLine
 10
449.4201050660446
 20
276.8842118319458
 30
0.0
 11
450.2522451895665
 21
276.3294517495979
 31
0.0
  0
LINE
  5
26C
330
1F
100
AcDbEntity
  8
B-0
  6
Continuous
 62
     3
370
     9
100
AcDbLine
 10
448.7522649847523
 20
288.5267503665742
 30
0.0
 11
448.7522649847523
 21
278.1322364373619
 31
0.0
  0
LINE
  5
26D
330
1F
100
AcDbEntity
  8
B-0
  6
Continuous
 62
     3
370
     9
100
AcDbLine
 10
449.4201050660446
 20
289.7747749719901
 30
0.0
 11
450.2522451895665
 21
290.3294113344268
 31
0.0
  0
LINE
  5
26E
330
1F
100
AcDbEntity
  8
B-0
  6
Continuous
 62
     3
370
     9
100
AcDbLine
 10
451.340238089693
 20
273.7686351651911
 30
0.0
 11
453.7522814807404
 21
273.0795152591523
 31
0.0
  0
LINE
  5
26F
330
1F
100
AcDbEntity
  8
B-0
  6
Continuous
 62
     3
370
     9
100
AcDbLine
 10
453.7522814807404
 20
274.8699279557846
 30
0.0
 11
453.7522814807404
 21
273.0795152591523
 31
0.0
  0
LINE
  5
270
330
1F
100
AcDbEntity
  8
B-0
  6
Continuous
 62
     3
370
     9
100
AcDbLine
 10
453.7522814807404
 20
293.5794715447838
 30
0.0
 11
453.7522814807404
 21
301.7795035470008
 31
0.0
  0
LINE
  5
271
330
1F
100
AcDbEntity
  8
B-0
  6
Continuous
 62
     3
370
     9
100
AcDbLine
 10
451.340238089693
 20
264.1902396309852
 30
0.0
 11
453.7522814807404
 21
264.8794213969796
 31
0.0
  0
LINE
  5
272
330
1F
100
AcDbEntity
  8
B-0
  6
Continuous
 62
     3
370
     9
100
AcDbLine
 10
450.2522451895665
 20
262.747912904845
 30
0.0
 11
450.2522451895665
 21
246.5109117435273
 31
0.0
  0
LINE
  5
273
330
1F
100
AcDbEntity
  8
B-0
  6
Continuous
 62
     3
370
     9
100
AcDbLine
 10
458.7522979767288
 20
258.399776621589
 30
0.0
 11
458.7522979767288
 21
250.8590480267833
 31
0.0
  0
LINE
  5
274
330
1F
100
AcDbEntity
  8
B-0
  6
Continuous
 62
     3
370
     9
100
AcDbLine
 10
456.1638299921425
 20
249.111813579201
 30
0.0
 11
457.546276281205
 21
249.38826572104
 31
0.0
  0
LINE
  5
275
330
1F
100
AcDbEntity
  8
B-0
  6
Continuous
 62
     3
370
     9
100
AcDbLine
 10
456.1638299921425
 20
260.147072929127
 30
0.0
 11
457.546276281205
 21
259.870620787288
 31
0.0
  0
LINE
  5
276
330
1F
100
AcDbEntity
  8
B-0
  6
Continuous
 62
     3
370
     9
100
AcDbLine
 10
449.4201050660446
 20
248.1842235440974
 30
0.0
 11
450.2522451895665
 21
247.6294634617495
 31
0.0
  0
LINE
  5
277
330
1F
100
AcDbEntity
  8
B-0
  6
Continuous
 62
     3
370
     9
100
AcDbLine
 10
448.7522649847523
 20
259.8267620787258
 30
0.0
 11
448.7522649847523
 21
249.4322481495135
 31
0.0
  0
LINE
  5
278
330
1F
100
AcDbEntity
  8
B-0
  6
Continuous
 62
     3
370
     9
100
AcDbLine
 10
449.4201050660446
 20
261.0747866841419
 30
0.0
 11
450.2522451895665
 21
261.6293611866229
 31
0.0
  0
LINE
  5
279
330
1F
100
AcDbEntity
  8
B-0
  6
Continuous
 62
     3
370
     9
100
AcDbLine
 10
451.340238089693
 20
245.0685850173872
 30
0.0
 11
453.7522814807404
 21
244.3795269713039
 31
0.0
  0
LINE
  5
27A
330
1F
100
AcDbEntity
  8
B-0
  6
Continuous
 62
     3
370
     9
100
AcDbLine
 10
453.7522814807404
 20
246.1699396679361
 30
0.0
 11
453.7522814807404
 21
244.3795269713039
 31
0.0
  0
LINE
  5
27B
330
1F
100
AcDbEntity
  8
B-0
  6
Continuous
 62
     3
370
     9
100
AcDbLine
 10
453.7522814807404
 20
263.4361049115489
 30
0.0
 11
453.7522814807404
 21
264.8794213969796
 31
0.0
  0
LINE
  5
27C
330
1F
100
AcDbEntity
  8
B-0
  6
Continuous
 62
     3
370
     9
100
AcDbLine
 10
453.7522814807404
 20
236.1795269713039
 30
0.0
 11
453.7522814807404
 21
244.3795269713039
 31
0.0
  0
LINE
  5
27D
330
1F
100
AcDbEntity
  8
B-0
  6
Continuous
 62
     3
370
     9
100
AcDbLine
 10
453.7522814807404
 20
264.8794213969796
 30
0.0
 11
453.7522814807404
 21
273.0795152591523
 31
0.0
  0
LINE
  5
27E
330
1F
100
AcDbEntity
  8
B-0
  6
Continuous
 62
     3
370
     9
100
AcDbLine
 10
473.7522237447819
 20
206.3488005539686
 30
0.0
 11
473.7522237447819
 21
309.6563172809007
 31
0.0
  0
LINE
  5
27F
330
1F
100
AcDbEntity
  8
B-1
  6
Continuous
 62
     2
370
     9
100
AcDbLine
 10
473.7522237447819
 20
321.2294489452799
 30
0.0
 11
473.7522237447819
 21
316.826195441532
 31
0.0
  0
LINE
  5
280
330
1F
100
AcDbEntity
  8
B-1
  6
Continuous
 62
     2
370
     9
100
AcDbLine
 10
470.7522633351534
 20
324.2295330748195
 30
0.0
 11
448.7522649847523
 21
324.2295330748195
 31
0.0
  0
LINE
  5
281
330
1F
100
AcDbEntity
  8
B-1
  6
Continuous
 62
     2
370
     9
100
AcDbLine
 10
491.9521650190638
 20
327.4294867210929
 30
0.0
 11
448.7522649847523
 21
327.4294867210929
 31
0.0
  0
LINE
  5
282
330
1F
100
AcDbEntity
  8
B-1
  6
Continuous
 62
     2
370
     9
100
AcDbLine
 10
448.7522649847523
 20
324.2295330748195
 30
0.0
 11
448.7522649847523
 21
327.4294867210929
 31
0.0
  0
LINE
  5
283
330
1F
100
AcDbEntity
  8
B-1
  6
Continuous
 62
     2
370
     9
100
AcDbLine
 10
496.9521815150523
 20
341.4294463059218
 30
0.0
 11
496.9521815150523
 21
356.4296195137977
 31
0.0
  0
LINE
  5
284
330
1F
100
AcDbEntity
  8
B-1
  6
Continuous
 62
     2
370
     9
100
AcDbLine
 10
505.9520627439373
 20
341.4294463059218
 30
0.0
 11
505.9520627439373
 21
356.4296195137977
 31
0.0
  0
LINE
  5
285
330
1F
100
AcDbEntity
  8
B-1
  6
Continuous
 62
     2
370
     9
100
AcDbLine
 10
505.9520627439373
 20
356.4296195137977
 30
0.0
 11
496.9521815150523
 21
356.4296195137977
 31
0.0
  0
LINE
  5
286
330
1F
100
AcDbEntity
  8
B-1
  6
Continuous
 62
     2
370
     9
100
AcDbLine
 10
491.9521650190638
 20
336.4294916698893
 30
0.0
 11
466.9520825391231
 21
336.4294916698893
 31
0.0
  0
LINE
  5
287
330
1F
100
AcDbEntity
  8
B-1
  6
Continuous
 62
     2
370
     9
100
AcDbLine
 10
466.9520825391231
 20
327.4294867210929
 30
0.0
 11
466.9520825391231
 21
336.4294916698893
 31
0.0
  0
LINE
  5
288
330
1F
100
AcDbEntity
  8
B-1
  6
Continuous
 62
     2
370
     9
100
AcDbLine
 10
476.9521155310993
 20
321.2294489452799
 30
0.0
 11
476.9521155310993
 21
297.2295182284302
 31
0.0
  0
LINE
  5
289
330
1F
100
AcDbEntity
  8
B-1
  6
Continuous
 62
     2
370
     9
100
AcDbLine
 10
476.9521155310993
 20
297.2295182284302
 30
0.0
 11
473.7522237447819
 21
297.2295182284302
 31
0.0
  0
LINE
  5
28A
330
1F
100
AcDbEntity
  8
B-1
  6
JWW_CENTER1
 62
     2
370
     9
100
AcDbLine
 10
501.4521221294946
 20
341.4294463059218
 30
0.0
 11
501.4521221294946
 21
361.4296360097859
 31
0.0
  0
LINE
  5
28B
330
1F
100
AcDbEntity
  8
B-1
  6
JWW_CENTER1
 62
     2
370
     9
100
AcDbLine
 10
491.9521650190638
 20
331.9294891954911
 30
0.0
 11
461.952066043135
 21
331.9294891954911
 31
0.0
  0
LINE
  5
28C
330
1F
100
AcDbEntity
  8
B-E
  6
Continuous
 62
     7
370
     9
100
AcDbLine
 10
231.4319310399675
 20
433.5391058617179
 30
0.0
 11
416.4700285246595
 21
433.5391058617179
 31
0.0
  0
LINE
  5
28D
330
1F
100
AcDbEntity
  8
B-E
  6
Continuous
 62
     7
370
     9
100
AcDbLine
 10
416.4700285246595
 20
433.5391058617179
 30
0.0
 11
458.4324820059727
 21
327.4294867210929
 31
0.0
  0
LINE
  5
28E
330
1F
100
AcDbEntity
  8
B-E
  6
Continuous
 62
     7
370
     9
100
AcDbLine
 10
458.4324820059727
 20
327.4294867210929
 30
0.0
 11
451.1426573913191
 21
340.5389722442135
 31
0.0
  0
LINE
  5
28F
330
1F
100
AcDbEntity
  8
B-E
  6
Continuous
 62
     7
370
     9
100
AcDbLine
 10
458.4324820059727
 20
327.4294867210929
 30
0.0
 11
454.784105541129
 21
341.9790101519945
 31
0.0
  0
LINE
  5
290
330
1F
100
AcDbEntity
  8
B-E
  6
Continuous
 62
     7
370
     9
100
AcDbLine
 10
543.1440001647566
 20
431.8583708664686
 30
0.0
 11
734.453954833781
 21
431.8583708664686
 31
0.0
  0
ARC
  5
291
330
1F
100
AcDbEntity
  8
B-0
  6
Continuous
 62
     3
370
     9
100
AcDbCircle
 10
460.7522303431773
 20
321.1005946576427
 30
0.0
 40
2.000000146595208
100
AcDbArc
 50
180.0
 51
266.1865234375
  0
ARC
  5
292
330
1F
100
AcDbEntity
  8
B-0
  6
Continuous
 62
     3
370
     9
100
AcDbCircle
 10
451.7522253943805
 20
320.097968496325
 30
0.0
 40
1.500000019331236
100
AcDbArc
 50
105.9448394775391
 51
180.0
  0
ARC
  5
293
330
1F
100
AcDbEntity
  8
B-0
  6
Continuous
 62
     3
370
     9
100
AcDbCircle
 10
451.7522253943805
 20
303.9109501791799
 30
0.0
 40
1.500000019331236
100
AcDbArc
 50
180.0
 51
254.0551605224609
  0
ARC
  5
294
330
1F
100
AcDbEntity
  8
B-0
  6
Continuous
 62
     3
370
     9
100
AcDbCircle
 10
451.7522253943805
 20
275.2109618913315
 30
0.0
 40
1.500000019331236
100
AcDbArc
 50
180.0
 51
254.0551605224609
  0
ARC
  5
295
330
1F
100
AcDbEntity
  8
B-0
  6
Continuous
 62
     3
370
     9
100
AcDbCircle
 10
451.7522253943805
 20
291.4479011926932
 30
0.0
 40
1.500000019331236
100
AcDbArc
 50
105.9448394775391
 51
180.0
  0
ARC
  5
296
330
1F
100
AcDbEntity
  8
B-0
  6
Continuous
 62
     3
370
     9
100
AcDbCircle
 10
472.2522435399675
 20
309.6563172809007
 30
0.0
 40
1.500000019331236
100
AcDbArc
 50
272.864501953125
 51
0.0
  0
ARC
  5
297
330
1F
100
AcDbEntity
  8
B-0
  6
Continuous
 62
     3
370
     9
100
AcDbCircle
 10
456.752241890369
 20
304.375765886
 30
0.0
 40
3.000000038662472
100
AcDbArc
 50
92.86241149902344
 51
180.0
  0
ARC
  5
298
330
1F
100
AcDbEntity
  8
B-0
  6
Continuous
 62
     3
370
     9
100
AcDbCircle
 10
472.2522435399675
 20
316.826195441532
 30
0.0
 40
1.500000019331236
100
AcDbArc
 50
0.0
 51
86.1835174560547
  0
ARC
  5
299
330
1F
100
AcDbEntity
  8
B-0
  6
Continuous
 62
     3
370
     9
100
AcDbCircle
 10
457.2523177719144
 20
279.5590981745872
 30
0.0
 40
1.500000019331236
100
AcDbArc
 50
281.3099365234376
 51
0.0000000000000382
  0
ARC
  5
29A
330
1F
100
AcDbEntity
  8
B-0
  6
Continuous
 62
     3
370
     9
100
AcDbCircle
 10
457.2523177719144
 20
287.0997649094375
 30
0.0
 40
1.500000019331236
100
AcDbArc
 50
0.0
 51
78.6900634765625
  0
ARC
  5
29B
330
1F
100
AcDbEntity
  8
B-0
  6
Continuous
 62
     3
370
     9
100
AcDbCircle
 10
456.752241890369
 20
274.8699279557846
 30
0.0
 40
3.000000038662472
100
AcDbArc
 50
101.3095397949219
 51
180.0
  0
ARC
  5
29C
330
1F
100
AcDbEntity
  8
B-0
  6
Continuous
 62
     3
370
     9
100
AcDbCircle
 10
456.752241890369
 20
291.7889351282401
 30
0.0
 40
3.000000038662472
100
AcDbArc
 50
180.0
 51
258.6904602050781
  0
ARC
  5
29D
330
1F
100
AcDbEntity
  8
B-0
  6
Continuous
 62
     3
370
     9
100
AcDbCircle
 10
450.2522451895665
 20
306.8072333031242
 30
0.0
 40
1.500000019331236
100
AcDbArc
 50
180.0
 51
236.3110504150391
  0
ARC
  5
29E
330
1F
100
AcDbEntity
  8
B-0
  6
Continuous
 62
     3
370
     9
100
AcDbCircle
 10
450.2522451895665
 20
317.2017472323365
 30
0.0
 40
1.500000019331236
100
AcDbArc
 50
123.688949584961
 51
180.0
  0
ARC
  5
29F
330
1F
100
AcDbEntity
  8
B-0
  6
Continuous
 62
     3
370
     9
100
AcDbCircle
 10
450.2522451895665
 20
278.1322364373619
 30
0.0
 40
1.500000019331236
100
AcDbArc
 50
180.0
 51
236.3110504150391
  0
ARC
  5
2A0
330
1F
100
AcDbEntity
  8
B-0
  6
Continuous
 62
     3
370
     9
100
AcDbCircle
 10
450.2522451895665
 20
288.5267503665742
 30
0.0
 40
1.500000019331236
100
AcDbArc
 50
123.688949584961
 51
180.0
  0
ARC
  5
2A1
330
1F
100
AcDbEntity
  8
B-0
  6
Continuous
 62
     3
370
     9
100
AcDbCircle
 10
451.7522253943805
 20
246.5109117435273
 30
0.0
 40
1.500000019331236
100
AcDbArc
 50
180.0
 51
254.0551605224609
  0
ARC
  5
2A2
330
1F
100
AcDbEntity
  8
B-0
  6
Continuous
 62
     3
370
     9
100
AcDbCircle
 10
451.7522253943805
 20
262.747912904845
 30
0.0
 40
1.500000019331236
100
AcDbArc
 50
105.9448394775391
 51
180.0
  0
ARC
  5
2A3
330
1F
100
AcDbEntity
  8
B-0
  6
Continuous
 62
     3
370
     9
100
AcDbCircle
 10
457.2523177719144
 20
250.8590480267833
 30
0.0
 40
1.500000019331236
100
AcDbArc
 50
281.3099365234376
 51
0.0000000000000382
  0
ARC
  5
2A4
330
1F
100
AcDbEntity
  8
B-0
  6
Continuous
 62
     3
370
     9
100
AcDbCircle
 10
457.2523177719144
 20
258.399776621589
 30
0.0
 40
1.500000019331236
100
AcDbArc
 50
0.0
 51
78.6900634765625
  0
ARC
  5
2A5
330
1F
100
AcDbEntity
  8
B-0
  6
Continuous
 62
     3
370
     9
100
AcDbCircle
 10
456.752241890369
 20
246.1699396679361
 30
0.0
 40
3.000000038662472
100
AcDbArc
 50
101.3095397949219
 51
180.0
  0
ARC
  5
2A6
330
1F
100
AcDbEntity
  8
B-0
  6
Continuous
 62
     3
370
     9
100
AcDbCircle
 10
456.752241890369
 20
263.0889468403919
 30
0.0
 40
3.000000038662472
100
AcDbArc
 50
180.0
 51
258.6904602050781
  0
ARC
  5
2A7
330
1F
100
AcDbEntity
  8
B-0
  6
Continuous
 62
     3
370
     9
100
AcDbCircle
 10
450.2522451895665
 20
249.4322481495135
 30
0.0
 40
1.500000019331236
100
AcDbArc
 50
180.0
 51
236.3110504150391
  0
ARC
  5
2A8
330
1F
100
AcDbEntity
  8
B-0
  6
Continuous
 62
     3
370
     9
100
AcDbCircle
 10
450.2522451895665
 20
259.8267620787258
 30
0.0
 40
1.500000019331236
100
AcDbArc
 50
123.688949584961
 51
180.0
  0
ARC
  5
2A9
330
1F
100
AcDbEntity
  8
B-1
  6
Continuous
 62
     2
370
     9
100
AcDbCircle
 10
470.7522633351534
 20
321.2294489452799
 30
0.0
 40
3.000000038662472
100
AcDbArc
 50
0.0
 51
90.0
  0
ARC
  5
2AA
330
1F
100
AcDbEntity
  8
B-1
  6
Continuous
 62
     2
370
     9
100
AcDbCircle
 10
470.7520158953308
 20
321.2294489452799
 30
0.0
 40
6.200000563183346
100
AcDbArc
 50
0.0
 51
90.0
  0
ARC
  5
2AB
330
1F
100
AcDbEntity
  8
B-1
  6
Continuous
 62
     2
370
     9
100
AcDbCircle
 10
491.9521650190638
 20
341.4294463059218
 30
0.0
 40
5.000000064437454
100
AcDbArc
 50
270.0
 51
0.0
  0
ARC
  5
2AC
330
1F
100
AcDbEntity
  8
B-1
  6
Continuous
 62
     2
370
     9
100
AcDbCircle
 10
491.9521650190638
 20
341.4294463059218
 30
0.0
 40
13.99999921386306
100
AcDbArc
 50
270.0
 51
0.0
  0
ARC
  5
2AD
330
1F
100
AcDbEntity
  8
B-1
  6
JWW_CENTER1
 62
     2
370
     9
100
AcDbCircle
 10
491.9521650190638
 20
341.4294463059218
 30
0.0
 40
9.500000605712067
100
AcDbArc
 50
270.0
 51
0.0
  0
TEXT
  5
2AE
330
1F
100
AcDbEntity
  8
B-E
  6
Continuous
 62
     7
370
     9
100
AcDbText
 10
233.9305577489521
 20
438.9039804922077
 30
0.0
 40
11.43
  1
受枠：Ｌ－２５Ｇ
 41
1.145833333333333
  7
ＭＳ ゴシック
100
AcDbText
  0
TEXT
  5
2AF
330
1F
100
AcDbEntity
  8
B-E
  6
Continuous
 62
     7
370
     9
100
AcDbText
 10
546.050061285692
 20
414.203176477744
 30
0.0
 40
11.43
  1
ＳＳ４００，樹脂系塗装
 41
1.151515151515152
  7
ＭＳ ゴシック
100
AcDbText
  0
TEXT
  5
2B0
330
1F
100
AcDbEntity
  8
B-E
  6
Continuous
 62
     7
370
     9
100
AcDbText
 10
232.9732089511797
 20
415.895541144657
 30
0.0
 40
11.43
  1
ＳＰＨＣ，樹脂系塗装
 41
1.15
  7
ＭＳ ゴシック
100
AcDbText
  0
TEXT
  5
2B1
330
1F
100
AcDbEntity
  8
B-E
  6
Continuous
 62
     7
370
     9
100
AcDbText
 10
547.3743674644294
 20
438.2037257941503
 30
0.0
 40
11.43
  1
アンカー：φ９
 41
1.142857142857143
  7
ＭＳ ゴシック
100
AcDbText
  0
LINE
  5
2B2
330
1F
100
AcDbEntity
  8
B-4
  6
Continuous
 62
     7
370
     9
100
AcDbLine
 10
458.7522979767288
 20
254.6294741841418
 30
0.0
 11
448.7522649847523
 21
254.6294741841418
 31
0.0
  0
LINE
  5
2B3
330
1F
100
AcDbEntity
  8
B-4
  6
Continuous
 62
     7
370
     9
100
AcDbLine
 10
458.7522979767288
 20
254.6294741841418
 30
0.0
 11
471.1453587439013
 21
256.2610515868924
 31
0.0
  0
LINE
  5
2B4
330
1F
100
AcDbEntity
  8
B-4
  6
Continuous
 62
     7
370
     9
100
AcDbLine
 10
458.7522979767288
 20
254.6294741841418
 30
0.0
 11
471.1453587439013
 21
252.9978967813912
 31
0.0
  0
LINE
  5
2B5
330
1F
100
AcDbEntity
  8
B-4
  6
Continuous
 62
     7
370
     9
100
AcDbLine
 10
448.7522649847523
 20
254.6294741841418
 30
0.0
 11
436.3592042175796
 21
256.2610515868924
 31
0.0
  0
LINE
  5
2B6
330
1F
100
AcDbEntity
  8
B-4
  6
Continuous
 62
     7
370
     9
100
AcDbLine
 10
448.7522649847523
 20
254.6294741841418
 30
0.0
 11
436.3592042175796
 21
252.9978967813912
 31
0.0
  0
TEXT
  5
2B7
330
1F
100
AcDbEntity
  8
B-4
  6
Continuous
 62
     2
370
   211
100
AcDbText
 10
414.4266187724881
 20
262.4494741841418
 30
0.0
 40
15.24
  1
10
 41
1.0625
  7
ＭＳ ゴシック
100
AcDbText
  0
LINE
  5
2B8
330
1F
100
AcDbEntity
  8
B-4
  6
Continuous
 62
     7
370
     9
100
AcDbLine
 10
448.7522649847523
 20
254.6294741841418
 30
0.0
 11
413.0072119435197
 21
254.6294741841418
 31
0.0
  0
LINE
  5
2B9
330
1F
100
AcDbEntity
  8
B-4
  6
Continuous
 62
     7
370
     9
100
AcDbLine
 10
458.7522979767288
 20
254.6294741841418
 30
0.0
 11
484.3765096004468
 21
254.6294741841418
 31
0.0
  0
LINE
  5
2BA
330
1F
100
AcDbEntity
  8
B-F
  6
Continuous
 62
     7
370
     9
100
AcDbLine
 10
443.7522484887642
 20
327.4294867210929
 30
0.0
 11
322.2522435399677
 21
327.4294867210929
 31
0.0
  0
LINE
  5
2BB
330
1F
100
AcDbEntity
  8
B-F
  6
Continuous
 62
     7
370
     9
100
AcDbLine
 10
443.7522484887642
 20
324.2295330748195
 30
0.0
 11
372.2522847799381
 21
324.2295330748195
 31
0.0
  0
LINE
  5
2BC
330
1F
100
AcDbEntity
  8
B-F
  6
Continuous
 62
     7
370
     9
100
AcDbLine
 10
373.7522649847522
 20
327.4294867210929
 30
0.0
 11
371.7943973881517
 21
342.3011768010654
 31
0.0
  0
LINE
  5
2BD
330
1F
100
AcDbEntity
  8
B-F
  6
Continuous
 62
     7
370
     9
100
AcDbLine
 10
373.7522649847522
 20
327.4294867210929
 30
0.0
 11
375.7101325813527
 21
342.3011768010654
 31
0.0
  0
LINE
  5
2BE
330
1F
100
AcDbEntity
  8
B-F
  6
Continuous
 62
     7
370
     9
100
AcDbLine
 10
373.7522649847522
 20
324.2295330748195
 30
0.0
 11
373.7522649847522
 21
322.2294769884599
 31
0.0
  0
LINE
  5
2BF
330
1F
100
AcDbEntity
  8
B-F
  6
Continuous
 62
     7
370
     9
100
AcDbLine
 10
443.7522484887642
 20
322.2294769884599
 30
0.0
 11
372.2522847799381
 21
322.2294769884599
 31
0.0
  0
LINE
  5
2C0
330
1F
100
AcDbEntity
  8
B-F
  6
Continuous
 62
     7
370
     9
100
AcDbLine
 10
373.7522649847522
 20
322.2294769884599
 30
0.0
 11
371.7943973881517
 21
307.3577869084872
 31
0.0
  0
LINE
  5
2C1
330
1F
100
AcDbEntity
  8
B-F
  6
Continuous
 62
     7
370
     9
100
AcDbLine
 10
373.7522649847522
 20
322.2294769884599
 30
0.0
 11
375.7101325813527
 21
307.3577869084872
 31
0.0
  0
LINE
  5
2C2
330
1F
100
AcDbEntity
  8
B-F
  6
Continuous
 62
     7
370
     9
100
AcDbLine
 10
373.7522649847522
 20
322.2294769884599
 30
0.0
 11
373.7522649847522
 21
72.22948837069156
 31
0.0
  0
LINE
  5
2C3
330
1F
100
AcDbEntity
  8
B-F
  6
Continuous
 62
     7
370
     9
100
AcDbLine
 10
373.7522649847522
 20
377.4040416593318
 30
0.0
 11
373.7522649847522
 21
324.2295330748195
 31
0.0
  0
LINE
  5
2C4
330
1F
100
AcDbEntity
  8
B-F
  6
Continuous
 62
     7
370
     9
100
AcDbLine
 10
323.7522237447819
 20
67.02947863805848
 30
0.0
 11
323.7522237447819
 21
327.4294867210929
 31
0.0
  0
LINE
  5
2C5
330
1F
100
AcDbEntity
  8
B-F
  6
Continuous
 62
     7
370
     9
100
AcDbLine
 10
323.7522237447819
 20
327.4294867210929
 30
0.0
 11
321.7943561481814
 21
312.5577966411203
 31
0.0
  0
LINE
  5
2C6
330
1F
100
AcDbEntity
  8
B-F
  6
Continuous
 62
     7
370
     9
100
AcDbLine
 10
323.7522237447819
 20
327.4294867210929
 30
0.0
 11
325.7100913413824
 21
312.5577966411203
 31
0.0
  0
LINE
  5
2C7
330
1F
100
AcDbEntity
  8
B-F
  6
Continuous
 62
     7
370
     9
100
AcDbLine
 10
543.1440001647566
 20
431.8583708664686
 30
0.0
 11
501.4521221294946
 21
356.4296195137977
 31
0.0
  0
LINE
  5
2C8
330
1F
100
AcDbEntity
  8
B-F
  6
Continuous
 62
     7
370
     9
100
AcDbLine
 10
501.4521221294946
 20
356.4296195137977
 30
0.0
 11
506.9327904809517
 21
370.392524985187
 31
0.0
  0
LINE
  5
2C9
330
1F
100
AcDbEntity
  8
B-F
  6
Continuous
 62
     7
370
     9
100
AcDbLine
 10
501.4521221294946
 20
356.4296195137977
 30
0.0
 11
510.3599557443596
 21
368.4982494230036
 31
0.0
  0
LINE
  5
2CA
330
1F
100
AcDbEntity
  8
B-F
  6
Continuous
 62
     7
370
     9
100
AcDbLine
 10
580.9520627439373
 20
97.22944713072111
 30
0.0
 11
580.9520627439373
 21
297.2295182284302
 31
0.0
  0
LINE
  5
2CB
330
1F
100
AcDbEntity
  8
B-F
  6
Continuous
 62
     7
370
     9
100
AcDbLine
 10
580.9520627439373
 20
297.2295182284302
 30
0.0
 11
578.9941951473368
 21
282.3578281484578
 31
0.0
  0
LINE
  5
2CC
330
1F
100
AcDbEntity
  8
B-F
  6
Continuous
 62
     7
370
     9
100
AcDbLine
 10
580.9520627439373
 20
297.2295182284302
 30
0.0
 11
582.9099303405378
 21
282.3578281484578
 31
0.0
  0
LINE
  5
2CD
330
1F
100
AcDbEntity
  8
B-F
  6
Continuous
 62
     7
370
     9
100
AcDbLine
 10
580.9520627439373
 20
297.2295182284302
 30
0.0
 11
580.9520627439373
 21
327.4294248611372
 31
0.0
  0
LINE
  5
2CE
330
1F
100
AcDbEntity
  8
B-F
  6
Continuous
 62
     7
370
     9
100
AcDbLine
 10
510.9520792399253
 20
356.4296195137977
 30
0.0
 11
582.4520429487513
 21
356.4296195137977
 31
0.0
  0
LINE
  5
2CF
330
1F
100
AcDbEntity
  8
B-F
  6
Continuous
 62
     7
370
     9
100
AcDbLine
 10
580.9520627439373
 20
356.4296195137977
 30
0.0
 11
578.9941951473368
 21
371.3013095937703
 31
0.0
  0
LINE
  5
2D0
330
1F
100
AcDbEntity
  8
B-F
  6
Continuous
 62
     7
370
     9
100
AcDbLine
 10
580.9520627439373
 20
356.4296195137977
 30
0.0
 11
582.9099303405378
 21
371.3013095937703
 31
0.0
  0
LINE
  5
2D1
330
1F
100
AcDbEntity
  8
B-F
  6
Continuous
 62
     7
370
     9
100
AcDbLine
 10
496.9521815150523
 20
327.4294248611372
 30
0.0
 11
582.4520429487513
 21
327.4294248611372
 31
0.0
  0
LINE
  5
2D2
330
1F
100
AcDbEntity
  8
B-F
  6
Continuous
 62
     7
370
     9
100
AcDbLine
 10
481.9521320270877
 20
297.2295182284302
 30
0.0
 11
582.4520429487513
 21
297.2295182284302
 31
0.0
  0
LINE
  5
2D3
330
1F
100
AcDbEntity
  8
B-F
  6
Continuous
 62
     7
370
     9
100
AcDbLine
 10
580.9520627439373
 20
327.4294248611372
 30
0.0
 11
580.9520627439373
 21
376.8244138748091
 31
0.0
  0
TEXT
  5
2D4
330
1F
100
AcDbEntity
  8
B-F
  6
Continuous
 62
     2
370
     9
100
AcDbText
 10
368.4322567367583
 20
343.1832296608098
 30
0.0
 40
15.24
  1
3.2
 50
90.0
 41
1.083333333333333
  7
ＭＳ ゴシック
100
AcDbText
  0
TEXT
  5
2D5
330
1F
100
AcDbEntity
  8
B-F
  6
Continuous
 62
     2
370
     9
100
AcDbText
 10
368.4322567367583
 20
311.4512931802619
 30
0.0
 40
15.24
  1
2
 50
90.0
 41
0.9999999999999998
  7
ＭＳ ゴシック
100
AcDbText
  0
TEXT
  5
2D6
330
1F
100
AcDbEntity
  8
B-F
  6
Continuous
 62
     2
370
     9
100
AcDbText
 10
601.7399250618214
 20
290.4545024747615
 30
0.0
 40
15.24
  1
30.2
 50
90.0
 41
1.09375
  7
ＭＳ ゴシック
100
AcDbText
  0
TEXT
  5
2D7
330
1F
100
AcDbEntity
  8
B-F
  6
Continuous
 62
     2
370
     9
100
AcDbText
 10
575.632054495943
 20
331.3045221874674
 30
0.0
 40
15.24
  1
29
 50
90.0
 41
1.0625
  7
ＭＳ ゴシック
100
AcDbText
  0
LWPOLYLINE
  5
2D8
330
1F
100
AcDbEntity
  8
B-F
  6
Continuous
 62
     7
370
     9
100
AcDbPolyline
 90
        4
 70
     1
 43
1.0
 10
374.2522649847521
 20
324.2295330748195
 42
0.4142135623731
 10
373.7522649847522
 20
324.7295330748195
 42
0.4142135623731
 10
373.2522649847522
 20
324.2295330748195
 42
0.4142135623731
 10
373.7522649847522
 20
323.7295330748196
 42
0.4142135623731
  0
LWPOLYLINE
  5
2D9
330
1F
100
AcDbEntity
  8
B-F
  6
Continuous
 62
     7
370
     9
100
AcDbPolyline
 90
        4
 70
     1
 43
1.0
 10
581.4520627439373
 20
327.4294248611372
 42
0.4142135623731
 10
580.9520627439373
 20
327.9294248611371
 42
0.4142135623731
 10
580.4520627439374
 20
327.4294248611372
 42
0.4142135623731
 10
580.9520627439373
 20
326.9294248611372
 42
0.4142135623731
  0
LINE
  5
2DA
330
1F
100
AcDbEntity
  8
B-0
  6
Continuous
 62
     3
370
     9
100
AcDbLine
 10
-146.2651011667996
 20
120.3794839167746
 30
0.0
 11
-739.2652760242744
 21
120.3794839167746
 31
0.0
  0
LINE
  5
2DB
330
1F
100
AcDbEntity
  8
B-0
  6
Continuous
 62
     3
370
     9
100
AcDbLine
 10
-145.2651349835754
 20
121.3795119599546
 30
0.0
 11
-740.2652731374765
 21
121.3795119599546
 31
0.0
  0
LINE
  5
2DC
330
1F
100
AcDbEntity
  8
B-0
  6
Continuous
 62
     3
370
     9
100
AcDbLine
 10
-145.2651349835754
 20
100.8794938143676
 30
0.0
 11
-740.2652731374765
 21
100.8794938143676
 31
0.0
  0
LINE
  5
2DD
330
1F
100
AcDbEntity
  8
B-0
  6
Continuous
 62
     3
370
     9
100
AcDbLine
 10
-146.2651011667996
 20
101.8794599975918
 30
0.0
 11
-739.2652760242744
 21
101.8794599975918
 31
0.0
  0
LINE
  5
2DE
330
1F
100
AcDbEntity
  8
B-0
  6
Continuous
 62
     3
370
     9
100
AcDbLine
 10
-740.7652871590664
 20
132.0794903502101
 30
0.0
 11
-740.7652871590664
 21
147.5795538597645
 31
0.0
  0
LINE
  5
2DF
330
1F
100
AcDbEntity
  8
B-0
  6
Continuous
 62
     3
370
     9
100
AcDbLine
 10
-146.2651011667996
 20
149.0795340645787
 30
0.0
 11
-739.2652760242744
 21
149.0795340645787
 31
0.0
  0
LINE
  5
2E0
330
1F
100
AcDbEntity
  8
B-0
  6
Continuous
 62
     3
370
     9
100
AcDbLine
 10
-145.2651349835754
 20
150.0795621077586
 30
0.0
 11
-740.2652731374765
 21
150.0795621077586
 31
0.0
  0
LINE
  5
2E1
330
1F
100
AcDbEntity
  8
B-0
  6
Continuous
 62
     3
370
     9
100
AcDbLine
 10
-145.2651349835754
 20
129.5794821022159
 30
0.0
 11
-740.2652731374765
 21
129.5794821022159
 31
0.0
  0
LINE
  5
2E2
330
1F
100
AcDbEntity
  8
B-0
  6
Continuous
 62
     3
370
     9
100
AcDbLine
 10
-146.2651011667996
 20
130.5795101453959
 30
0.0
 11
-739.2652760242744
 21
130.5795101453959
 31
0.0
  0
LINE
  5
2E3
330
1F
100
AcDbEntity
  8
B-0
  6
Continuous
 62
     3
370
     9
100
AcDbLine
 10
-144.7651209619854
 20
147.5794919998089
 30
0.0
 11
-144.7651209619854
 21
132.0794903502101
 31
0.0
  0
LINE
  5
2E4
330
1F
100
AcDbEntity
  8
B-0
  6
Continuous
 62
     3
370
     9
100
AcDbLine
 10
-143.7651547787612
 20
131.0794623070301
 30
0.0
 11
-143.7651547787612
 21
148.5794581830331
 31
0.0
  0
LINE
  5
2E5
330
1F
100
AcDbEntity
  8
B-0
  6
Continuous
 62
     3
370
     9
100
AcDbLine
 10
-740.7652871590664
 20
160.7794786380585
 30
0.0
 11
-740.7652871590664
 21
176.2795421476129
 31
0.0
  0
LINE
  5
2E6
330
1F
100
AcDbEntity
  8
B-0
  6
Continuous
 62
     3
370
     9
100
AcDbLine
 10
-741.7652533422906
 20
159.7795124548343
 30
0.0
 11
-741.7652533422906
 21
177.2795083308371
 31
0.0
  0
LINE
  5
2E7
330
1F
100
AcDbEntity
  8
B-0
  6
Continuous
 62
     3
370
     9
100
AcDbLine
 10
-146.2651011667996
 20
177.7795842123828
 30
0.0
 11
-739.2652760242744
 21
177.7795842123828
 31
0.0
  0
LINE
  5
2E8
330
1F
100
AcDbEntity
  8
B-0
  6
Continuous
 62
     3
370
     9
100
AcDbLine
 10
-145.2651349835754
 20
178.779550395607
 30
0.0
 11
-740.2652731374765
 21
178.779550395607
 31
0.0
  0
LINE
  5
2E9
330
1F
100
AcDbEntity
  8
B-0
  6
Continuous
 62
     3
370
     9
100
AcDbLine
 10
-145.2651349835754
 20
158.2795941099757
 30
0.0
 11
-740.2652731374765
 21
158.2795941099757
 31
0.0
  0
LINE
  5
2EA
330
1F
100
AcDbEntity
  8
B-0
  6
Continuous
 62
     3
370
     9
100
AcDbLine
 10
-146.2651011667996
 20
159.2795602931999
 30
0.0
 11
-739.2652760242744
 21
159.2795602931999
 31
0.0
  0
LINE
  5
2EB
330
1F
100
AcDbEntity
  8
B-0
  6
Continuous
 62
     3
370
     9
100
AcDbLine
 10
-144.7651209619854
 20
176.2794802876573
 30
0.0
 11
-144.7651209619854
 21
160.7794786380585
 31
0.0
  0
LINE
  5
2EC
330
1F
100
AcDbEntity
  8
B-0
  6
Continuous
 62
     3
370
     9
100
AcDbLine
 10
-143.7651547787612
 20
159.7795124548343
 30
0.0
 11
-143.7651547787612
 21
177.2795083308371
 31
0.0
  0
LINE
  5
2ED
330
1F
100
AcDbEntity
  8
B-0
  6
Continuous
 62
     3
370
     9
100
AcDbLine
 10
-740.7652871590664
 20
189.4794669259068
 30
0.0
 11
-740.7652871590664
 21
204.9795304354613
 31
0.0
  0
LINE
  5
2EE
330
1F
100
AcDbEntity
  8
B-0
  6
Continuous
 62
     3
370
     9
100
AcDbLine
 10
-741.7652533422906
 20
188.4795007426825
 30
0.0
 11
-741.7652533422906
 21
205.9795584786411
 31
0.0
  0
LINE
  5
2EF
330
1F
100
AcDbEntity
  8
B-0
  6
Continuous
 62
     3
370
     9
100
AcDbLine
 10
-146.2651011667996
 20
206.4795725002311
 30
0.0
 11
-739.2652760242744
 21
206.4795725002311
 31
0.0
  0
LINE
  5
2F0
330
1F
100
AcDbEntity
  8
B-0
  6
Continuous
 62
     3
370
     9
100
AcDbLine
 10
-145.2651349835754
 20
207.4795386834553
 30
0.0
 11
-740.2652731374765
 21
207.4795386834553
 31
0.0
  0
LINE
  5
2F1
330
1F
100
AcDbEntity
  8
B-0
  6
Continuous
 62
     3
370
     9
100
AcDbLine
 10
-145.2651349835754
 20
186.9795205378684
 30
0.0
 11
-740.2652731374765
 21
186.9795205378684
 31
0.0
  0
LINE
  5
2F2
330
1F
100
AcDbEntity
  8
B-0
  6
Continuous
 62
     3
370
     9
100
AcDbLine
 10
-146.2651011667996
 20
187.9794867210926
 30
0.0
 11
-739.2652760242744
 21
187.9794867210926
 31
0.0
  0
LINE
  5
2F3
330
1F
100
AcDbEntity
  8
B-0
  6
Continuous
 62
     3
370
     9
100
AcDbLine
 10
-144.7651209619854
 20
204.9795304354613
 30
0.0
 11
-144.7651209619854
 21
189.4794669259068
 31
0.0
  0
LINE
  5
2F4
330
1F
100
AcDbEntity
  8
B-0
  6
Continuous
 62
     3
370
     9
100
AcDbLine
 10
-143.7651547787612
 20
188.4795007426825
 30
0.0
 11
-143.7651547787612
 21
205.9795584786411
 31
0.0
  0
LINE
  5
2F5
330
1F
100
AcDbEntity
  8
B-0
  6
Continuous
 62
     3
370
     9
100
AcDbLine
 10
-740.7652871590664
 20
218.1794552137552
 30
0.0
 11
-740.7652871590664
 21
233.6795805832654
 31
0.0
  0
LINE
  5
2F6
330
1F
100
AcDbEntity
  8
B-0
  6
Continuous
 62
     3
370
     9
100
AcDbLine
 10
-741.7652533422906
 20
217.179489030531
 30
0.0
 11
-741.7652533422906
 21
234.6795467664896
 31
0.0
  0
LINE
  5
2F7
330
1F
100
AcDbEntity
  8
B-0
  6
Continuous
 62
     3
370
     9
100
AcDbLine
 10
-146.2651011667996
 20
235.1794989281238
 30
0.0
 11
-739.2652760242744
 21
235.1794989281238
 31
0.0
  0
LINE
  5
2F8
330
1F
100
AcDbEntity
  8
B-0
  6
Continuous
 62
     3
370
     9
100
AcDbLine
 10
-145.2651349835754
 20
236.1794651113482
 30
0.0
 11
-740.2652731374765
 21
236.1794651113482
 31
0.0
  0
LINE
  5
2F9
330
1F
100
AcDbEntity
  8
B-0
  6
Continuous
 62
     3
370
     9
100
AcDbLine
 10
-145.2651349835754
 20
215.6795088257168
 30
0.0
 11
-740.2652731374765
 21
215.6795088257168
 31
0.0
  0
LINE
  5
2FA
330
1F
100
AcDbEntity
  8
B-0
  6
Continuous
 62
     3
370
     9
100
AcDbLine
 10
-146.2651011667996
 20
216.679475008941
 30
0.0
 11
-739.2652760242744
 21
216.679475008941
 31
0.0
  0
LINE
  5
2FB
330
1F
100
AcDbEntity
  8
B-0
  6
Continuous
 62
     3
370
     9
100
AcDbLine
 10
-144.7651209619854
 20
233.679456863354
 30
0.0
 11
-144.7651209619854
 21
218.1794552137552
 31
0.0
  0
LINE
  5
2FC
330
1F
100
AcDbEntity
  8
B-0
  6
Continuous
 62
     3
370
     9
100
AcDbLine
 10
-143.7651547787612
 20
217.179489030531
 30
0.0
 11
-143.7651547787612
 21
234.679484906534
 31
0.0
  0
LINE
  5
2FD
330
1F
100
AcDbEntity
  8
B-0
  6
Continuous
 62
     3
370
     9
100
AcDbLine
 10
-740.7652871590664
 20
246.879567221515
 30
0.0
 11
-740.7652871590664
 21
262.3795688711139
 31
0.0
  0
LINE
  5
2FE
330
1F
100
AcDbEntity
  8
B-0
  6
Continuous
 62
     3
370
     9
100
AcDbLine
 10
-741.7652533422906
 20
234.6795467664896
 30
0.0
 11
-741.7652533422906
 21
263.3795350543381
 31
0.0
  0
LINE
  5
2FF
330
1F
100
AcDbEntity
  8
B-0
  6
Continuous
 62
     3
370
     9
100
AcDbLine
 10
-146.2651011667996
 20
263.879549075928
 30
0.0
 11
-739.2652760242744
 21
263.879549075928
 31
0.0
  0
LINE
  5
300
330
1F
100
AcDbEntity
  8
B-0
  6
Continuous
 62
     3
370
     9
100
AcDbLine
 10
-145.2651349835754
 20
264.8794533991964
 30
0.0
 11
-740.2652731374765
 21
264.8794533991964
 31
0.0
  0
LINE
  5
301
330
1F
100
AcDbEntity
  8
B-0
  6
Continuous
 62
     3
370
     9
100
AcDbLine
 10
-145.2651349835754
 20
244.3794971135652
 30
0.0
 11
-740.2652731374765
 21
244.3794971135652
 31
0.0
  0
LINE
  5
302
330
1F
100
AcDbEntity
  8
B-0
  6
Continuous
 62
     3
370
     9
100
AcDbLine
 10
-146.2651011667996
 20
245.3794632967895
 30
0.0
 11
-739.2652760242744
 21
245.3794632967895
 31
0.0
  0
LINE
  5
303
330
1F
100
AcDbEntity
  8
B-0
  6
Continuous
 62
     3
370
     9
100
AcDbLine
 10
-144.7651209619854
 20
262.3795688711139
 30
0.0
 11
-144.7651209619854
 21
246.879567221515
 31
0.0
  0
LINE
  5
304
330
1F
100
AcDbEntity
  8
B-0
  6
Continuous
 62
     3
370
     9
100
AcDbLine
 10
-143.7651547787612
 20
245.8794154584237
 30
0.0
 11
-143.7651547787612
 21
263.3794731943823
 31
0.0
  0
LINE
  5
305
330
1F
100
AcDbEntity
  8
B-0
  6
Continuous
 62
     3
370
     9
100
AcDbLine
 10
-146.2651011667996
 20
292.5794755038207
 30
0.0
 11
-739.2652760242744
 21
292.5794755038207
 31
0.0
  0
LINE
  5
306
330
1F
100
AcDbEntity
  8
B-0
  6
Continuous
 62
     3
370
     9
100
AcDbLine
 10
-145.2651349835754
 20
273.0794854014136
 30
0.0
 11
-740.2652731374765
 21
273.0794854014136
 31
0.0
  0
LINE
  5
307
330
1F
100
AcDbEntity
  8
B-0
  6
Continuous
 62
     3
370
     9
100
AcDbLine
 10
-146.2651011667996
 20
274.0795753045491
 30
0.0
 11
-739.2652760242744
 21
274.0795753045491
 31
0.0
  0
LINE
  5
308
330
1F
100
AcDbEntity
  8
B-0
  6
Continuous
 62
     3
370
     9
100
AcDbLine
 10
-741.7652533422906
 20
91.17954346729194
 30
0.0
 11
-741.7652533422906
 21
73.72940671555001
 31
0.0
  0
LINE
  5
309
330
1F
100
AcDbEntity
  8
B-0
  6
Continuous
 62
     3
370
     9
100
AcDbLine
 10
-741.7652533422906
 20
119.8795317551404
 30
0.0
 11
-741.7652533422906
 21
102.3794740191818
 31
0.0
  0
LINE
  5
30A
330
1F
100
AcDbEntity
  8
B-0
  6
Continuous
 62
     3
370
     9
100
AcDbLine
 10
-740.7652871590664
 20
103.379440202406
 30
0.0
 11
-740.7652871590664
 21
118.8795655719162
 31
0.0
  0
LINE
  5
30B
330
1F
100
AcDbEntity
  8
B-0
  6
Continuous
 62
     3
370
     9
100
AcDbLine
 10
-146.2651011667996
 20
91.67949562892632
 30
0.0
 11
-739.2652760242744
 21
91.67949562892632
 31
0.0
  0
LINE
  5
30C
330
1F
100
AcDbEntity
  8
B-0
  6
Continuous
 62
     3
370
     9
100
AcDbLine
 10
-145.2651349835754
 20
92.67946181215054
 30
0.0
 11
-740.2652731374765
 21
92.67946181215054
 31
0.0
  0
LINE
  5
30D
330
1F
100
AcDbEntity
  8
B-0
  6
Continuous
 62
     3
370
     9
100
AcDbLine
 10
-143.7651547787612
 20
73.72940671555001
 30
0.0
 11
-143.7651547787612
 21
91.17954346729194
 31
0.0
  0
LINE
  5
30E
330
1F
100
AcDbEntity
  8
B-0
  6
Continuous
 62
     3
370
     9
100
AcDbLine
 10
-144.7651209619854
 20
118.8794418520048
 30
0.0
 11
-144.7651209619854
 21
103.379440202406
 31
0.0
  0
LINE
  5
30F
330
1F
100
AcDbEntity
  8
B-0
  6
Continuous
 62
     3
370
     9
100
AcDbLine
 10
-143.7651547787612
 20
119.8794698951846
 30
0.0
 11
-143.7651547787612
 21
102.3794740191818
 31
0.0
  0
LINE
  5
310
330
1F
100
AcDbEntity
  8
B-0
  6
Continuous
 62
     3
370
     9
100
AcDbLine
 10
-740.7652871590664
 20
304.2794819372562
 30
0.0
 11
-740.7652871590664
 21
319.7293770227712
 31
0.0
  0
LINE
  5
311
330
1F
100
AcDbEntity
  8
B-0
  6
Continuous
 62
     3
370
     9
100
AcDbLine
 10
-741.7652533422906
 20
303.2794538940761
 30
0.0
 11
-741.7652533422906
 21
320.7293432059956
 31
0.0
  0
LINE
  5
312
330
1F
100
AcDbEntity
  8
B-0
  6
Continuous
 62
     3
370
     9
100
AcDbLine
 10
-741.7652533422906
 20
292.0795233421865
 30
0.0
 11
-741.7652533422906
 21
274.5794037462722
 31
0.0
  0
LINE
  5
313
330
1F
100
AcDbEntity
  8
B-0
  6
Continuous
 62
     3
370
     9
100
AcDbLine
 10
-740.7652871590664
 20
291.0795571589621
 30
0.0
 11
-740.7652871590664
 21
275.579431789452
 31
0.0
  0
LINE
  5
314
330
1F
100
AcDbEntity
  8
B-0
  6
Continuous
 62
     3
370
     9
100
AcDbLine
 10
-146.2651011667996
 20
321.2293572275855
 30
0.0
 11
-739.2652760242744
 21
321.2293572275855
 31
0.0
  0
LINE
  5
315
330
1F
100
AcDbEntity
  8
B-0
  6
Continuous
 62
     3
370
     9
100
AcDbLine
 10
-145.2651349835754
 20
322.2293852707654
 30
0.0
 11
-740.2652731374765
 21
322.2293852707654
 31
0.0
  0
LINE
  5
316
330
1F
100
AcDbEntity
  8
B-0
  6
Continuous
 62
     3
370
     9
100
AcDbLine
 10
-143.7651547787612
 20
303.2794538940761
 30
0.0
 11
-143.7651547787612
 21
320.7293432059956
 31
0.0
  0
LINE
  5
317
330
1F
100
AcDbEntity
  8
B-0
  6
Continuous
 62
     3
370
     9
100
AcDbLine
 10
-145.2651349835754
 20
301.7794118293064
 30
0.0
 11
-740.2652731374765
 21
301.7794118293064
 31
0.0
  0
LINE
  5
318
330
1F
100
AcDbEntity
  8
B-0
  6
Continuous
 62
     3
370
     9
100
AcDbLine
 10
-144.7651209619854
 20
304.2794819372562
 30
0.0
 11
-144.7651209619854
 21
319.7293770227712
 31
0.0
  0
LINE
  5
319
330
1F
100
AcDbEntity
  8
B-0
  6
Continuous
 62
     3
370
     9
100
AcDbLine
 10
-146.2651011667996
 20
302.7793780125306
 30
0.0
 11
-739.2652760242744
 21
302.7793780125306
 31
0.0
  0
LINE
  5
31A
330
1F
100
AcDbEntity
  8
B-0
  6
Continuous
 62
     3
370
     9
100
AcDbLine
 10
-144.7651209619854
 20
291.0795571589621
 30
0.0
 11
-144.7651209619854
 21
275.579431789452
 31
0.0
  0
LINE
  5
31B
330
1F
100
AcDbEntity
  8
B-0
  6
Continuous
 62
     3
370
     9
100
AcDbLine
 10
-143.7651547787612
 20
292.0795233421865
 30
0.0
 11
-143.7651547787612
 21
274.5794037462722
 31
0.0
  0
LINE
  5
31C
330
1F
100
AcDbEntity
  8
B-0
  6
Continuous
 62
     3
370
     9
100
AcDbLine
 10
-741.7652533422906
 20
102.3794740191818
 30
0.0
 11
-741.7652533422906
 21
91.17954346729194
 31
0.0
  0
LINE
  5
31D
330
1F
100
AcDbEntity
  8
B-0
  6
Continuous
 62
     3
370
     9
100
AcDbLine
 10
-721.7652801482714
 20
100.8794938143676
 30
0.0
 11
-721.7652801482714
 21
92.67946181215054
 31
0.0
  0
LINE
  5
31E
330
1F
100
AcDbEntity
  8
B-0
  6
Continuous
 62
     3
370
     9
100
AcDbLine
 10
-606.1652612603649
 20
100.8794938143676
 30
0.0
 11
-606.1652612603649
 21
92.67946181215054
 31
0.0
  0
LINE
  5
31F
330
1F
100
AcDbEntity
  8
B-0
  6
Continuous
 62
     3
370
     9
100
AcDbLine
 10
-626.1652653843621
 20
100.8794938143676
 30
0.0
 11
-626.1652653843621
 21
92.67946181215054
 31
0.0
  0
LINE
  5
320
330
1F
100
AcDbEntity
  8
B-0
  6
Continuous
 62
     3
370
     9
100
AcDbLine
 10
-736.7652677762804
 20
140.8044659361476
 30
0.0
 11
-736.7652677762804
 21
146.8045104753157
 31
0.0
  0
LINE
  5
321
330
1F
100
AcDbEntity
  8
B-0
  6
Continuous
 62
     3
370
     9
100
AcDbLine
 10
-730.7652850970679
 20
146.8045104753157
 30
0.0
 11
-736.7652677762804
 21
140.8044659361476
 31
0.0
  0
LINE
  5
322
330
1F
100
AcDbEntity
  8
B-0
  6
Continuous
 62
     3
370
     9
100
AcDbLine
 10
-722.2799859093304
 20
146.8045104753157
 30
0.0
 11
-726.5226200382102
 21
146.8045104753157
 31
0.0
  0
LINE
  5
323
330
1F
100
AcDbEntity
  8
B-0
  6
Continuous
 62
     3
370
     9
100
AcDbLine
 10
-720.7652830350695
 20
140.0294844116543
 30
0.0
 11
-720.7652830350695
 21
144.0765482907189
 31
0.0
  0
LINE
  5
324
330
1F
100
AcDbEntity
  8
B-0
  6
Continuous
 62
     3
370
     9
100
AcDbLine
 10
-736.7652677762804
 20
146.8045104753157
 30
0.0
 11
-730.7652850970679
 21
146.8045104753157
 31
0.0
  0
LINE
  5
325
330
1F
100
AcDbEntity
  8
B-0
  6
Continuous
 62
     3
370
     9
100
AcDbLine
 10
-726.5226200382102
 20
146.8045104753157
 30
0.0
 11
-733.2976461018716
 21
140.0294844116543
 31
0.0
  0
LINE
  5
326
330
1F
100
AcDbEntity
  8
B-0
  6
Continuous
 62
     3
370
     9
100
AcDbLine
 10
-722.2799859093304
 20
146.8045104753157
 30
0.0
 11
-729.0550119729916
 21
140.0294844116543
 31
0.0
  0
LINE
  5
327
330
1F
100
AcDbEntity
  8
B-0
  6
Continuous
 62
     3
370
     9
100
AcDbLine
 10
-720.7652830350695
 20
144.0765482907189
 30
0.0
 11
-724.8123469141341
 21
140.0294844116543
 31
0.0
  0
LINE
  5
328
330
1F
100
AcDbEntity
  8
B-0
  6
Continuous
 62
     3
370
     9
100
AcDbLine
 10
-736.7652677762804
 20
139.2545028871611
 30
0.0
 11
-736.7652677762804
 21
133.254458347993
 31
0.0
  0
LINE
  5
329
330
1F
100
AcDbEntity
  8
B-0
  6
Continuous
 62
     3
370
     9
100
AcDbLine
 10
-730.7652850970679
 20
133.254458347993
 30
0.0
 11
-736.7652677762804
 21
139.2545028871611
 31
0.0
  0
LINE
  5
32A
330
1F
100
AcDbEntity
  8
B-0
  6
Continuous
 62
     3
370
     9
100
AcDbLine
 10
-722.2799859093304
 20
133.254458347993
 30
0.0
 11
-726.5226200382102
 21
133.254458347993
 31
0.0
  0
LINE
  5
32B
330
1F
100
AcDbEntity
  8
B-0
  6
Continuous
 62
     3
370
     9
100
AcDbLine
 10
-720.7652830350695
 20
140.0294844116543
 30
0.0
 11
-720.7652830350695
 21
135.9824205325897
 31
0.0
  0
LINE
  5
32C
330
1F
100
AcDbEntity
  8
B-0
  6
Continuous
 62
     3
370
     9
100
AcDbLine
 10
-736.7652677762804
 20
133.254458347993
 30
0.0
 11
-730.7652850970679
 21
133.254458347993
 31
0.0
  0
LINE
  5
32D
330
1F
100
AcDbEntity
  8
B-0
  6
Continuous
 62
     3
370
     9
100
AcDbLine
 10
-726.5226200382102
 20
133.254458347993
 30
0.0
 11
-733.2976461018716
 21
140.0294844116543
 31
0.0
  0
LINE
  5
32E
330
1F
100
AcDbEntity
  8
B-0
  6
Continuous
 62
     3
370
     9
100
AcDbLine
 10
-722.2799859093304
 20
133.254458347993
 30
0.0
 11
-729.0550119729916
 21
140.0294844116543
 31
0.0
  0
LINE
  5
32F
330
1F
100
AcDbEntity
  8
B-0
  6
Continuous
 62
     3
370
     9
100
AcDbLine
 10
-720.7652830350695
 20
135.9824205325897
 30
0.0
 11
-724.8123469141341
 21
140.0294844116543
 31
0.0
  0
LINE
  5
330
330
1F
100
AcDbEntity
  8
B-0
  6
Continuous
 62
     3
370
     9
100
AcDbLine
 10
-714.765300355857
 20
140.8044659361476
 30
0.0
 11
-714.765300355857
 21
146.8045104753157
 31
0.0
  0
LINE
  5
331
330
1F
100
AcDbEntity
  8
B-0
  6
Continuous
 62
     3
370
     9
100
AcDbLine
 10
-708.7652558166889
 20
146.8045104753157
 30
0.0
 11
-714.765300355857
 21
140.8044659361476
 31
0.0
  0
LINE
  5
332
330
1F
100
AcDbEntity
  8
B-0
  6
Continuous
 62
     3
370
     9
100
AcDbLine
 10
-700.2799875589291
 20
146.8045104753157
 30
0.0
 11
-704.5226216878091
 21
146.8045104753157
 31
0.0
  0
LINE
  5
333
330
1F
100
AcDbEntity
  8
B-0
  6
Continuous
 62
     3
370
     9
100
AcDbLine
 10
-698.7652846846681
 20
140.0294844116543
 30
0.0
 11
-698.7652846846681
 21
144.0765482907189
 31
0.0
  0
LINE
  5
334
330
1F
100
AcDbEntity
  8
B-0
  6
Continuous
 62
     3
370
     9
100
AcDbLine
 10
-714.765300355857
 20
146.8045104753157
 30
0.0
 11
-708.7652558166889
 21
146.8045104753157
 31
0.0
  0
LINE
  5
335
330
1F
100
AcDbEntity
  8
B-0
  6
Continuous
 62
     3
370
     9
100
AcDbLine
 10
-704.5226216878091
 20
146.8045104753157
 30
0.0
 11
-711.2976168214925
 21
140.0294844116543
 31
0.0
  0
LINE
  5
336
330
1F
100
AcDbEntity
  8
B-0
  6
Continuous
 62
     3
370
     9
100
AcDbLine
 10
-700.2799875589291
 20
146.8045104753157
 30
0.0
 11
-707.0550136225905
 21
140.0294844116543
 31
0.0
  0
LINE
  5
337
330
1F
100
AcDbEntity
  8
B-0
  6
Continuous
 62
     3
370
     9
100
AcDbLine
 10
-698.7652846846681
 20
144.0765482907189
 30
0.0
 11
-702.8123485637327
 21
140.0294844116543
 31
0.0
  0
LINE
  5
338
330
1F
100
AcDbEntity
  8
B-0
  6
Continuous
 62
     3
370
     9
100
AcDbLine
 10
-714.765300355857
 20
139.2545028871611
 30
0.0
 11
-714.765300355857
 21
133.254458347993
 31
0.0
  0
LINE
  5
339
330
1F
100
AcDbEntity
  8
B-0
  6
Continuous
 62
     3
370
     9
100
AcDbLine
 10
-708.7652558166889
 20
133.254458347993
 30
0.0
 11
-714.765300355857
 21
139.2545028871611
 31
0.0
  0
LINE
  5
33A
330
1F
100
AcDbEntity
  8
B-0
  6
Continuous
 62
     3
370
     9
100
AcDbLine
 10
-700.2799875589291
 20
133.254458347993
 30
0.0
 11
-704.5226216878091
 21
133.254458347993
 31
0.0
  0
LINE
  5
33B
330
1F
100
AcDbEntity
  8
B-0
  6
Continuous
 62
     3
370
     9
100
AcDbLine
 10
-698.7652846846681
 20
140.0294844116543
 30
0.0
 11
-698.7652846846681
 21
135.9824205325897
 31
0.0
  0
LINE
  5
33C
330
1F
100
AcDbEntity
  8
B-0
  6
Continuous
 62
     3
370
     9
100
AcDbLine
 10
-714.765300355857
 20
133.254458347993
 30
0.0
 11
-708.7652558166889
 21
133.254458347993
 31
0.0
  0
LINE
  5
33D
330
1F
100
AcDbEntity
  8
B-0
  6
Continuous
 62
     3
370
     9
100
AcDbLine
 10
-704.5226216878091
 20
133.254458347993
 30
0.0
 11
-711.2976168214925
 21
140.0294844116543
 31
0.0
  0
LINE
  5
33E
330
1F
100
AcDbEntity
  8
B-0
  6
Continuous
 62
     3
370
     9
100
AcDbLine
 10
-700.2799875589291
 20
133.254458347993
 30
0.0
 11
-707.0550136225905
 21
140.0294844116543
 31
0.0
  0
LINE
  5
33F
330
1F
100
AcDbEntity
  8
B-0
  6
Continuous
 62
     3
370
     9
100
AcDbLine
 10
-698.7652846846681
 20
135.9824205325897
 30
0.0
 11
-702.8123485637327
 21
140.0294844116543
 31
0.0
  0
LINE
  5
340
330
1F
100
AcDbEntity
  8
B-0
  6
Continuous
 62
     3
370
     9
100
AcDbLine
 10
-692.7652710754779
 20
140.8044659361476
 30
0.0
 11
-692.7652710754779
 21
146.8045104753157
 31
0.0
  0
LINE
  5
341
330
1F
100
AcDbEntity
  8
B-0
  6
Continuous
 62
     3
370
     9
100
AcDbLine
 10
-686.7652574662877
 20
146.8045104753157
 30
0.0
 11
-692.7652710754779
 21
140.8044659361476
 31
0.0
  0
LINE
  5
342
330
1F
100
AcDbEntity
  8
B-0
  6
Continuous
 62
     3
370
     9
100
AcDbLine
 10
-678.279989208528
 20
146.8045104753157
 30
0.0
 11
-682.5226233374078
 21
146.8045104753157
 31
0.0
  0
LINE
  5
343
330
1F
100
AcDbEntity
  8
B-0
  6
Continuous
 62
     3
370
     9
100
AcDbLine
 10
-676.765286334267
 20
140.0294844116543
 30
0.0
 11
-676.765286334267
 21
144.0765482907189
 31
0.0
  0
LINE
  5
344
330
1F
100
AcDbEntity
  8
B-0
  6
Continuous
 62
     3
370
     9
100
AcDbLine
 10
-692.7652710754779
 20
146.8045104753157
 30
0.0
 11
-686.7652574662877
 21
146.8045104753157
 31
0.0
  0
LINE
  5
345
330
1F
100
AcDbEntity
  8
B-0
  6
Continuous
 62
     3
370
     9
100
AcDbLine
 10
-682.5226233374078
 20
146.8045104753157
 30
0.0
 11
-689.2976184710914
 21
140.0294844116543
 31
0.0
  0
LINE
  5
346
330
1F
100
AcDbEntity
  8
B-0
  6
Continuous
 62
     3
370
     9
100
AcDbLine
 10
-678.279989208528
 20
146.8045104753157
 30
0.0
 11
-685.0550152721893
 21
140.0294844116543
 31
0.0
  0
LINE
  5
347
330
1F
100
AcDbEntity
  8
B-0
  6
Continuous
 62
     3
370
     9
100
AcDbLine
 10
-676.765286334267
 20
144.0765482907189
 30
0.0
 11
-680.8123502133317
 21
140.0294844116543
 31
0.0
  0
LINE
  5
348
330
1F
100
AcDbEntity
  8
B-0
  6
Continuous
 62
     3
370
     9
100
AcDbLine
 10
-692.7652710754779
 20
139.2545028871611
 30
0.0
 11
-692.7652710754779
 21
133.254458347993
 31
0.0
  0
LINE
  5
349
330
1F
100
AcDbEntity
  8
B-0
  6
Continuous
 62
     3
370
     9
100
AcDbLine
 10
-686.7652574662877
 20
133.254458347993
 30
0.0
 11
-692.7652710754779
 21
139.2545028871611
 31
0.0
  0
LINE
  5
34A
330
1F
100
AcDbEntity
  8
B-0
  6
Continuous
 62
     3
370
     9
100
AcDbLine
 10
-678.279989208528
 20
133.254458347993
 30
0.0
 11
-682.5226233374078
 21
133.254458347993
 31
0.0
  0
LINE
  5
34B
330
1F
100
AcDbEntity
  8
B-0
  6
Continuous
 62
     3
370
     9
100
AcDbLine
 10
-676.765286334267
 20
140.0294844116543
 30
0.0
 11
-676.765286334267
 21
135.9824205325897
 31
0.0
  0
LINE
  5
34C
330
1F
100
AcDbEntity
  8
B-0
  6
Continuous
 62
     3
370
     9
100
AcDbLine
 10
-692.7652710754779
 20
133.254458347993
 30
0.0
 11
-686.7652574662877
 21
133.254458347993
 31
0.0
  0
LINE
  5
34D
330
1F
100
AcDbEntity
  8
B-0
  6
Continuous
 62
     3
370
     9
100
AcDbLine
 10
-682.5226233374078
 20
133.254458347993
 30
0.0
 11
-689.2976184710914
 21
140.0294844116543
 31
0.0
  0
LINE
  5
34E
330
1F
100
AcDbEntity
  8
B-0
  6
Continuous
 62
     3
370
     9
100
AcDbLine
 10
-678.279989208528
 20
133.254458347993
 30
0.0
 11
-685.0550152721893
 21
140.0294844116543
 31
0.0
  0
LINE
  5
34F
330
1F
100
AcDbEntity
  8
B-0
  6
Continuous
 62
     3
370
     9
100
AcDbLine
 10
-676.765286334267
 20
135.9824205325897
 30
0.0
 11
-680.8123502133317
 21
140.0294844116543
 31
0.0
  0
LINE
  5
350
330
1F
100
AcDbEntity
  8
B-0
  6
Continuous
 62
     3
370
     9
100
AcDbLine
 10
-731.0078998431617
 20
175.5294901852501
 30
0.0
 11
-735.2505339720416
 21
175.5294901852501
 31
0.0
  0
LINE
  5
351
330
1F
100
AcDbEntity
  8
B-0
  6
Continuous
 62
     3
370
     9
100
AcDbLine
 10
-726.7652657142817
 20
175.5294901852501
 30
0.0
 11
-720.7652830350695
 21
175.5294901852501
 31
0.0
  0
LINE
  5
352
330
1F
100
AcDbEntity
  8
B-0
  6
Continuous
 62
     3
370
     9
100
AcDbLine
 10
-726.7652657142817
 20
175.5294901852501
 30
0.0
 11
-720.7652830350695
 21
169.5295693659934
 31
0.0
  0
LINE
  5
353
330
1F
100
AcDbEntity
  8
B-0
  6
Continuous
 62
     3
370
     9
100
AcDbLine
 10
-720.7652830350695
 20
169.5295693659934
 30
0.0
 11
-720.7652830350695
 21
175.5294901852501
 31
0.0
  0
LINE
  5
354
330
1F
100
AcDbEntity
  8
B-0
  6
Continuous
 62
     3
370
     9
100
AcDbLine
 10
-736.7652677762804
 20
168.5295413228135
 30
0.0
 11
-736.7652677762804
 21
172.8016517205647
 31
0.0
  0
LINE
  5
355
330
1F
100
AcDbEntity
  8
B-0
  6
Continuous
 62
     3
370
     9
100
AcDbLine
 10
-736.7652677762804
 20
172.8016517205647
 30
0.0
 11
-732.4931573785291
 21
168.5295413228135
 31
0.0
  0
LINE
  5
356
330
1F
100
AcDbEntity
  8
B-0
  6
Continuous
 62
     3
370
     9
100
AcDbLine
 10
-735.2505339720416
 20
175.5294901852501
 30
0.0
 11
-728.2505232496492
 21
168.5295413228135
 31
0.0
  0
LINE
  5
357
330
1F
100
AcDbEntity
  8
B-0
  6
Continuous
 62
     3
370
     9
100
AcDbLine
 10
-731.0078998431617
 20
175.5294901852501
 30
0.0
 11
-724.0078891207693
 21
168.5295413228135
 31
0.0
  0
LINE
  5
358
330
1F
100
AcDbEntity
  8
B-0
  6
Continuous
 62
     3
370
     9
100
AcDbLine
 10
-731.0078998431617
 20
161.5294687404655
 30
0.0
 11
-735.2505339720416
 21
161.5294687404655
 31
0.0
  0
LINE
  5
359
330
1F
100
AcDbEntity
  8
B-0
  6
Continuous
 62
     3
370
     9
100
AcDbLine
 10
-726.7652657142817
 20
161.5294687404655
 30
0.0
 11
-720.7652830350695
 21
161.5294687404655
 31
0.0
  0
LINE
  5
35A
330
1F
100
AcDbEntity
  8
B-0
  6
Continuous
 62
     3
370
     9
100
AcDbLine
 10
-726.7652657142817
 20
161.5294687404655
 30
0.0
 11
-720.7652830350695
 21
167.529451419678
 31
0.0
  0
LINE
  5
35B
330
1F
100
AcDbEntity
  8
B-0
  6
Continuous
 62
     3
370
     9
100
AcDbLine
 10
-720.7652830350695
 20
167.529451419678
 30
0.0
 11
-720.7652830350695
 21
161.5294687404655
 31
0.0
  0
LINE
  5
35C
330
1F
100
AcDbEntity
  8
B-0
  6
Continuous
 62
     3
370
     9
100
AcDbLine
 10
-736.7652677762804
 20
168.5295413228135
 30
0.0
 11
-736.7652677762804
 21
164.2573690651065
 31
0.0
  0
LINE
  5
35D
330
1F
100
AcDbEntity
  8
B-0
  6
Continuous
 62
     3
370
     9
100
AcDbLine
 10
-736.7652677762804
 20
164.2573690651065
 30
0.0
 11
-732.4931573785291
 21
168.5295413228135
 31
0.0
  0
LINE
  5
35E
330
1F
100
AcDbEntity
  8
B-0
  6
Continuous
 62
     3
370
     9
100
AcDbLine
 10
-735.2505339720416
 20
161.5294687404655
 30
0.0
 11
-728.2505232496492
 21
168.5295413228135
 31
0.0
  0
LINE
  5
35F
330
1F
100
AcDbEntity
  8
B-0
  6
Continuous
 62
     3
370
     9
100
AcDbLine
 10
-731.0078998431617
 20
161.5294687404655
 30
0.0
 11
-724.0078891207693
 21
168.5295413228135
 31
0.0
  0
LINE
  5
360
330
1F
100
AcDbEntity
  8
B-0
  6
Continuous
 62
     3
370
     9
100
AcDbLine
 10
-709.0079014927605
 20
175.5294901852501
 30
0.0
 11
-713.2505356216403
 21
175.5294901852501
 31
0.0
  0
LINE
  5
361
330
1F
100
AcDbEntity
  8
B-0
  6
Continuous
 62
     3
370
     9
100
AcDbLine
 10
-704.7652673638806
 20
175.5294901852501
 30
0.0
 11
-698.7652846846681
 21
175.5294901852501
 31
0.0
  0
LINE
  5
362
330
1F
100
AcDbEntity
  8
B-0
  6
Continuous
 62
     3
370
     9
100
AcDbLine
 10
-704.7652673638806
 20
175.5294901852501
 30
0.0
 11
-698.7652846846681
 21
169.5295693659934
 31
0.0
  0
LINE
  5
363
330
1F
100
AcDbEntity
  8
B-0
  6
Continuous
 62
     3
370
     9
100
AcDbLine
 10
-698.7652846846681
 20
169.5295693659934
 30
0.0
 11
-698.7652846846681
 21
175.5294901852501
 31
0.0
  0
LINE
  5
364
330
1F
100
AcDbEntity
  8
B-0
  6
Continuous
 62
     3
370
     9
100
AcDbLine
 10
-714.765300355857
 20
168.5295413228135
 30
0.0
 11
-714.765300355857
 21
172.8016517205647
 31
0.0
  0
LINE
  5
365
330
1F
100
AcDbEntity
  8
B-0
  6
Continuous
 62
     3
370
     9
100
AcDbLine
 10
-714.765300355857
 20
172.8016517205647
 30
0.0
 11
-710.4931899581056
 21
168.5295413228135
 31
0.0
  0
LINE
  5
366
330
1F
100
AcDbEntity
  8
B-0
  6
Continuous
 62
     3
370
     9
100
AcDbLine
 10
-713.2505356216403
 20
175.5294901852501
 30
0.0
 11
-706.2505248992479
 21
168.5295413228135
 31
0.0
  0
LINE
  5
367
330
1F
100
AcDbEntity
  8
B-0
  6
Continuous
 62
     3
370
     9
100
AcDbLine
 10
-709.0079014927605
 20
175.5294901852501
 30
0.0
 11
-702.0078598403903
 21
168.5295413228135
 31
0.0
  0
LINE
  5
368
330
1F
100
AcDbEntity
  8
B-0
  6
Continuous
 62
     3
370
     9
100
AcDbLine
 10
-709.0079014927605
 20
161.5294687404655
 30
0.0
 11
-713.2505356216403
 21
161.5294687404655
 31
0.0
  0
LINE
  5
369
330
1F
100
AcDbEntity
  8
B-0
  6
Continuous
 62
     3
370
     9
100
AcDbLine
 10
-704.7652673638806
 20
161.5294687404655
 30
0.0
 11
-698.7652846846681
 21
161.5294687404655
 31
0.0
  0
LINE
  5
36A
330
1F
100
AcDbEntity
  8
B-0
  6
Continuous
 62
     3
370
     9
100
AcDbLine
 10
-704.7652673638806
 20
161.5294687404655
 30
0.0
 11
-698.7652846846681
 21
167.529451419678
 31
0.0
  0
LINE
  5
36B
330
1F
100
AcDbEntity
  8
B-0
  6
Continuous
 62
     3
370
     9
100
AcDbLine
 10
-698.7652846846681
 20
167.529451419678
 30
0.0
 11
-698.7652846846681
 21
161.5294687404655
 31
0.0
  0
LINE
  5
36C
330
1F
100
AcDbEntity
  8
B-0
  6
Continuous
 62
     3
370
     9
100
AcDbLine
 10
-714.765300355857
 20
168.5295413228135
 30
0.0
 11
-714.765300355857
 21
164.2573690651065
 31
0.0
  0
LINE
  5
36D
330
1F
100
AcDbEntity
  8
B-0
  6
Continuous
 62
     3
370
     9
100
AcDbLine
 10
-714.765300355857
 20
164.2573690651065
 30
0.0
 11
-710.4931899581056
 21
168.5295413228135
 31
0.0
  0
LINE
  5
36E
330
1F
100
AcDbEntity
  8
B-0
  6
Continuous
 62
     3
370
     9
100
AcDbLine
 10
-713.2505356216403
 20
161.5294687404655
 30
0.0
 11
-706.2505248992479
 21
168.5295413228135
 31
0.0
  0
LINE
  5
36F
330
1F
100
AcDbEntity
  8
B-0
  6
Continuous
 62
     3
370
     9
100
AcDbLine
 10
-709.0079014927605
 20
161.5294687404655
 30
0.0
 11
-702.0078598403903
 21
168.5295413228135
 31
0.0
  0
LINE
  5
370
330
1F
100
AcDbEntity
  8
B-0
  6
Continuous
 62
     3
370
     9
100
AcDbLine
 10
-736.7652677762804
 20
198.2045043718
 30
0.0
 11
-736.7652677762804
 21
204.2044870510124
 31
0.0
  0
LINE
  5
371
330
1F
100
AcDbEntity
  8
B-0
  6
Continuous
 62
     3
370
     9
100
AcDbLine
 10
-730.7652850970679
 20
204.2044870510124
 30
0.0
 11
-736.7652677762804
 21
198.2045043718
 31
0.0
  0
LINE
  5
372
330
1F
100
AcDbEntity
  8
B-0
  6
Continuous
 62
     3
370
     9
100
AcDbLine
 10
-722.2799859093304
 20
204.2044870510124
 30
0.0
 11
-726.5226200382102
 21
204.2044870510124
 31
0.0
  0
LINE
  5
373
330
1F
100
AcDbEntity
  8
B-0
  6
Continuous
 62
     3
370
     9
100
AcDbLine
 10
-720.7652830350695
 20
197.4295228473068
 30
0.0
 11
-720.7652830350695
 21
201.4766485863269
 31
0.0
  0
LINE
  5
374
330
1F
100
AcDbEntity
  8
B-0
  6
Continuous
 62
     3
370
     9
100
AcDbLine
 10
-736.7652677762804
 20
204.2044870510124
 30
0.0
 11
-730.7652850970679
 21
204.2044870510124
 31
0.0
  0
LINE
  5
375
330
1F
100
AcDbEntity
  8
B-0
  6
Continuous
 62
     3
370
     9
100
AcDbLine
 10
-726.5226200382102
 20
204.2044870510124
 30
0.0
 11
-733.2976461018716
 21
197.4295228473068
 31
0.0
  0
LINE
  5
376
330
1F
100
AcDbEntity
  8
B-0
  6
Continuous
 62
     3
370
     9
100
AcDbLine
 10
-722.2799859093304
 20
204.2044870510124
 30
0.0
 11
-729.0550119729916
 21
197.4295228473068
 31
0.0
  0
LINE
  5
377
330
1F
100
AcDbEntity
  8
B-0
  6
Continuous
 62
     3
370
     9
100
AcDbLine
 10
-720.7652830350695
 20
201.4766485863269
 30
0.0
 11
-724.8123469141341
 21
197.4295228473068
 31
0.0
  0
LINE
  5
378
330
1F
100
AcDbEntity
  8
B-0
  6
Continuous
 62
     3
370
     9
100
AcDbLine
 10
-736.7652677762804
 20
196.6545413228135
 30
0.0
 11
-736.7652677762804
 21
190.6544967836454
 31
0.0
  0
LINE
  5
379
330
1F
100
AcDbEntity
  8
B-0
  6
Continuous
 62
     3
370
     9
100
AcDbLine
 10
-730.7652850970679
 20
190.6544967836454
 30
0.0
 11
-736.7652677762804
 21
196.6545413228135
 31
0.0
  0
LINE
  5
37A
330
1F
100
AcDbEntity
  8
B-0
  6
Continuous
 62
     3
370
     9
100
AcDbLine
 10
-722.2799859093304
 20
190.6544967836454
 30
0.0
 11
-726.5226200382102
 21
190.6544967836454
 31
0.0
  0
LINE
  5
37B
330
1F
100
AcDbEntity
  8
B-0
  6
Continuous
 62
     3
370
     9
100
AcDbLine
 10
-720.7652830350695
 20
197.4295228473068
 30
0.0
 11
-720.7652830350695
 21
193.3824589682422
 31
0.0
  0
LINE
  5
37C
330
1F
100
AcDbEntity
  8
B-0
  6
Continuous
 62
     3
370
     9
100
AcDbLine
 10
-736.7652677762804
 20
190.6544967836454
 30
0.0
 11
-730.7652850970679
 21
190.6544967836454
 31
0.0
  0
LINE
  5
37D
330
1F
100
AcDbEntity
  8
B-0
  6
Continuous
 62
     3
370
     9
100
AcDbLine
 10
-726.5226200382102
 20
190.6544967836454
 30
0.0
 11
-733.2976461018716
 21
197.4295228473068
 31
0.0
  0
LINE
  5
37E
330
1F
100
AcDbEntity
  8
B-0
  6
Continuous
 62
     3
370
     9
100
AcDbLine
 10
-722.2799859093304
 20
190.6544967836454
 30
0.0
 11
-729.0550119729916
 21
197.4295228473068
 31
0.0
  0
LINE
  5
37F
330
1F
100
AcDbEntity
  8
B-0
  6
Continuous
 62
     3
370
     9
100
AcDbLine
 10
-720.7652830350695
 20
193.3824589682422
 30
0.0
 11
-724.8123469141341
 21
197.4295228473068
 31
0.0
  0
LINE
  5
380
330
1F
100
AcDbEntity
  8
B-0
  6
Continuous
 62
     3
370
     9
100
AcDbLine
 10
-741.7652533422906
 20
131.0794623070301
 30
0.0
 11
-741.7652533422906
 21
119.8795317551404
 31
0.0
  0
LINE
  5
381
330
1F
100
AcDbEntity
  8
B-0
  6
Continuous
 62
     3
370
     9
100
AcDbLine
 10
-741.7652533422906
 20
188.4795007426825
 30
0.0
 11
-741.7652533422906
 21
177.2795083308371
 31
0.0
  0
LINE
  5
382
330
1F
100
AcDbEntity
  8
B-0
  6
Continuous
 62
     3
370
     9
100
AcDbLine
 10
-741.7652533422906
 20
217.179489030531
 30
0.0
 11
-741.7652533422906
 21
205.9795584786411
 31
0.0
  0
LINE
  5
383
330
1F
100
AcDbEntity
  8
B-0
  6
Continuous
 62
     3
370
     9
100
AcDbLine
 10
-741.7652533422906
 20
274.5794037462722
 30
0.0
 11
-741.7652533422906
 21
263.3795350543381
 31
0.0
  0
LINE
  5
384
330
1F
100
AcDbEntity
  8
B-0
  6
Continuous
 62
     3
370
     9
100
AcDbLine
 10
-741.7652533422906
 20
292.0795233421865
 30
0.0
 11
-741.7652533422906
 21
303.2794538940761
 31
0.0
  0
LINE
  5
385
330
1F
100
AcDbEntity
  8
B-0
  6
Continuous
 62
     3
370
     9
100
AcDbLine
 10
-510.5652464964555
 20
100.8794938143676
 30
0.0
 11
-510.5652464964555
 21
92.67946181215054
 31
0.0
  0
LINE
  5
386
330
1F
100
AcDbEntity
  8
B-0
  6
Continuous
 62
     3
370
     9
100
AcDbLine
 10
-490.5651805125028
 20
100.8794938143676
 30
0.0
 11
-490.5651805125028
 21
92.67946181215054
 31
0.0
  0
LINE
  5
387
330
1F
100
AcDbEntity
  8
B-0
  6
Continuous
 62
     3
370
     9
100
AcDbLine
 10
-374.9652544145299
 20
100.8794938143676
 30
0.0
 11
-374.9652544145299
 21
92.67946181215054
 31
0.0
  0
LINE
  5
388
330
1F
100
AcDbEntity
  8
B-0
  6
Continuous
 62
     3
370
     9
100
AcDbLine
 10
-394.9651966785713
 20
100.8794938143676
 30
0.0
 11
-394.9651966785713
 21
92.67946181215054
 31
0.0
  0
LINE
  5
389
330
1F
100
AcDbEntity
  8
B-0
  6
Continuous
 62
     3
370
     9
100
AcDbLine
 10
-279.3652087206426
 20
100.8794938143676
 30
0.0
 11
-279.3652087206426
 21
92.67946181215054
 31
0.0
  0
LINE
  5
38A
330
1F
100
AcDbEntity
  8
B-0
  6
Continuous
 62
     3
370
     9
100
AcDbLine
 10
-259.3652045966456
 20
100.8794938143676
 30
0.0
 11
-259.3652045966456
 21
92.67946181215054
 31
0.0
  0
LINE
  5
38B
330
1F
100
AcDbEntity
  8
B-0
  6
Continuous
 62
     3
370
     9
100
AcDbLine
 10
-163.7651589027582
 20
100.8794938143676
 30
0.0
 11
-163.7651589027582
 21
92.67946181215054
 31
0.0
  0
LINE
  5
38C
330
1F
100
AcDbEntity
  8
B-0
  6
Continuous
 62
     3
370
     9
100
AcDbLine
 10
-143.7651547787612
 20
102.3794740191818
 30
0.0
 11
-143.7651547787612
 21
91.17954346729194
 31
0.0
  0
LINE
  5
38D
330
1F
100
AcDbEntity
  8
B-0
  6
Continuous
 62
     3
370
     9
100
AcDbLine
 10
-721.7652801482714
 20
129.5794821022159
 30
0.0
 11
-721.7652801482714
 21
121.3795119599546
 31
0.0
  0
LINE
  5
38E
330
1F
100
AcDbEntity
  8
B-0
  6
Continuous
 62
     3
370
     9
100
AcDbLine
 10
-606.1652612603649
 20
129.5794821022159
 30
0.0
 11
-606.1652612603649
 21
121.3795119599546
 31
0.0
  0
LINE
  5
38F
330
1F
100
AcDbEntity
  8
B-0
  6
Continuous
 62
     3
370
     9
100
AcDbLine
 10
-626.1652653843621
 20
129.5794821022159
 30
0.0
 11
-626.1652653843621
 21
121.3795119599546
 31
0.0
  0
LINE
  5
390
330
1F
100
AcDbEntity
  8
B-0
  6
Continuous
 62
     3
370
     9
100
AcDbLine
 10
-510.5652464964555
 20
129.5794821022159
 30
0.0
 11
-510.5652464964555
 21
121.3795119599546
 31
0.0
  0
LINE
  5
391
330
1F
100
AcDbEntity
  8
B-0
  6
Continuous
 62
     3
370
     9
100
AcDbLine
 10
-490.5651805125028
 20
129.5794821022159
 30
0.0
 11
-490.5651805125028
 21
121.3795119599546
 31
0.0
  0
LINE
  5
392
330
1F
100
AcDbEntity
  8
B-0
  6
Continuous
 62
     3
370
     9
100
AcDbLine
 10
-374.9652544145299
 20
129.5794821022159
 30
0.0
 11
-374.9652544145299
 21
121.3795119599546
 31
0.0
  0
LINE
  5
393
330
1F
100
AcDbEntity
  8
B-0
  6
Continuous
 62
     3
370
     9
100
AcDbLine
 10
-394.9651966785713
 20
129.5794821022159
 30
0.0
 11
-394.9651966785713
 21
121.3795119599546
 31
0.0
  0
LINE
  5
394
330
1F
100
AcDbEntity
  8
B-0
  6
Continuous
 62
     3
370
     9
100
AcDbLine
 10
-279.3652087206426
 20
129.5794821022159
 30
0.0
 11
-279.3652087206426
 21
121.3795119599546
 31
0.0
  0
LINE
  5
395
330
1F
100
AcDbEntity
  8
B-0
  6
Continuous
 62
     3
370
     9
100
AcDbLine
 10
-259.3652045966456
 20
129.5794821022159
 30
0.0
 11
-259.3652045966456
 21
121.3795119599546
 31
0.0
  0
LINE
  5
396
330
1F
100
AcDbEntity
  8
B-0
  6
Continuous
 62
     3
370
     9
100
AcDbLine
 10
-163.7651589027582
 20
129.5794821022159
 30
0.0
 11
-163.7651589027582
 21
121.3795119599546
 31
0.0
  0
LINE
  5
397
330
1F
100
AcDbEntity
  8
B-0
  6
Continuous
 62
     3
370
     9
100
AcDbLine
 10
-721.7652801482714
 20
158.2795941099757
 30
0.0
 11
-721.7652801482714
 21
150.0795621077586
 31
0.0
  0
LINE
  5
398
330
1F
100
AcDbEntity
  8
B-0
  6
Continuous
 62
     3
370
     9
100
AcDbLine
 10
-606.1652612603649
 20
158.2795941099757
 30
0.0
 11
-606.1652612603649
 21
150.0795621077586
 31
0.0
  0
LINE
  5
399
330
1F
100
AcDbEntity
  8
B-0
  6
Continuous
 62
     3
370
     9
100
AcDbLine
 10
-626.1652653843621
 20
158.2795941099757
 30
0.0
 11
-626.1652653843621
 21
150.0795621077586
 31
0.0
  0
LINE
  5
39A
330
1F
100
AcDbEntity
  8
B-0
  6
Continuous
 62
     3
370
     9
100
AcDbLine
 10
-510.5652464964555
 20
158.2795941099757
 30
0.0
 11
-510.5652464964555
 21
150.0795621077586
 31
0.0
  0
LINE
  5
39B
330
1F
100
AcDbEntity
  8
B-0
  6
Continuous
 62
     3
370
     9
100
AcDbLine
 10
-490.5651805125028
 20
158.2795941099757
 30
0.0
 11
-490.5651805125028
 21
150.0795621077586
 31
0.0
  0
LINE
  5
39C
330
1F
100
AcDbEntity
  8
B-0
  6
Continuous
 62
     3
370
     9
100
AcDbLine
 10
-374.9652544145299
 20
158.2795941099757
 30
0.0
 11
-374.9652544145299
 21
150.0795621077586
 31
0.0
  0
LINE
  5
39D
330
1F
100
AcDbEntity
  8
B-0
  6
Continuous
 62
     3
370
     9
100
AcDbLine
 10
-394.9651966785713
 20
158.2795941099757
 30
0.0
 11
-394.9651966785713
 21
150.0795621077586
 31
0.0
  0
LINE
  5
39E
330
1F
100
AcDbEntity
  8
B-0
  6
Continuous
 62
     3
370
     9
100
AcDbLine
 10
-279.3652087206426
 20
158.2795941099757
 30
0.0
 11
-279.3652087206426
 21
150.0795621077586
 31
0.0
  0
LINE
  5
39F
330
1F
100
AcDbEntity
  8
B-0
  6
Continuous
 62
     3
370
     9
100
AcDbLine
 10
-259.3652045966456
 20
158.2795941099757
 30
0.0
 11
-259.3652045966456
 21
150.0795621077586
 31
0.0
  0
LINE
  5
3A0
330
1F
100
AcDbEntity
  8
B-0
  6
Continuous
 62
     3
370
     9
100
AcDbLine
 10
-163.7651589027582
 20
158.2795941099757
 30
0.0
 11
-163.7651589027582
 21
150.0795621077586
 31
0.0
  0
LINE
  5
3A1
330
1F
100
AcDbEntity
  8
B-0
  6
Continuous
 62
     3
370
     9
100
AcDbLine
 10
-721.7652801482714
 20
186.9795205378684
 30
0.0
 11
-721.7652801482714
 21
178.779550395607
 31
0.0
  0
LINE
  5
3A2
330
1F
100
AcDbEntity
  8
B-0
  6
Continuous
 62
     3
370
     9
100
AcDbLine
 10
-606.1652612603649
 20
186.9795205378684
 30
0.0
 11
-606.1652612603649
 21
178.779550395607
 31
0.0
  0
LINE
  5
3A3
330
1F
100
AcDbEntity
  8
B-0
  6
Continuous
 62
     3
370
     9
100
AcDbLine
 10
-626.1652653843621
 20
186.9795205378684
 30
0.0
 11
-626.1652653843621
 21
178.779550395607
 31
0.0
  0
LINE
  5
3A4
330
1F
100
AcDbEntity
  8
B-0
  6
Continuous
 62
     3
370
     9
100
AcDbLine
 10
-510.5652464964555
 20
186.9795205378684
 30
0.0
 11
-510.5652464964555
 21
178.779550395607
 31
0.0
  0
LINE
  5
3A5
330
1F
100
AcDbEntity
  8
B-0
  6
Continuous
 62
     3
370
     9
100
AcDbLine
 10
-490.5651805125028
 20
186.9795205378684
 30
0.0
 11
-490.5651805125028
 21
178.779550395607
 31
0.0
  0
LINE
  5
3A6
330
1F
100
AcDbEntity
  8
B-0
  6
Continuous
 62
     3
370
     9
100
AcDbLine
 10
-374.9652544145299
 20
186.9795205378684
 30
0.0
 11
-374.9652544145299
 21
178.779550395607
 31
0.0
  0
LINE
  5
3A7
330
1F
100
AcDbEntity
  8
B-0
  6
Continuous
 62
     3
370
     9
100
AcDbLine
 10
-394.9651966785713
 20
186.9795205378684
 30
0.0
 11
-394.9651966785713
 21
178.779550395607
 31
0.0
  0
LINE
  5
3A8
330
1F
100
AcDbEntity
  8
B-0
  6
Continuous
 62
     3
370
     9
100
AcDbLine
 10
-279.3652087206426
 20
186.9795205378684
 30
0.0
 11
-279.3652087206426
 21
178.779550395607
 31
0.0
  0
LINE
  5
3A9
330
1F
100
AcDbEntity
  8
B-0
  6
Continuous
 62
     3
370
     9
100
AcDbLine
 10
-259.3652045966456
 20
186.9795205378684
 30
0.0
 11
-259.3652045966456
 21
178.779550395607
 31
0.0
  0
LINE
  5
3AA
330
1F
100
AcDbEntity
  8
B-0
  6
Continuous
 62
     3
370
     9
100
AcDbLine
 10
-163.7651589027582
 20
186.9795205378684
 30
0.0
 11
-163.7651589027582
 21
178.779550395607
 31
0.0
  0
LINE
  5
3AB
330
1F
100
AcDbEntity
  8
B-0
  6
Continuous
 62
     3
370
     9
100
AcDbLine
 10
-721.7652801482714
 20
215.6795088257168
 30
0.0
 11
-721.7652801482714
 21
207.4794768234997
 31
0.0
  0
LINE
  5
3AC
330
1F
100
AcDbEntity
  8
B-0
  6
Continuous
 62
     3
370
     9
100
AcDbLine
 10
-606.1652612603649
 20
215.6795088257168
 30
0.0
 11
-606.1652612603649
 21
207.4794768234997
 31
0.0
  0
LINE
  5
3AD
330
1F
100
AcDbEntity
  8
B-0
  6
Continuous
 62
     3
370
     9
100
AcDbLine
 10
-626.1652653843621
 20
215.6795088257168
 30
0.0
 11
-626.1652653843621
 21
207.4794768234997
 31
0.0
  0
LINE
  5
3AE
330
1F
100
AcDbEntity
  8
B-0
  6
Continuous
 62
     3
370
     9
100
AcDbLine
 10
-510.5652464964555
 20
215.6795088257168
 30
0.0
 11
-510.5652464964555
 21
207.4794768234997
 31
0.0
  0
LINE
  5
3AF
330
1F
100
AcDbEntity
  8
B-0
  6
Continuous
 62
     3
370
     9
100
AcDbLine
 10
-490.5651805125028
 20
215.6795088257168
 30
0.0
 11
-490.5651805125028
 21
207.4794768234997
 31
0.0
  0
LINE
  5
3B0
330
1F
100
AcDbEntity
  8
B-0
  6
Continuous
 62
     3
370
     9
100
AcDbLine
 10
-374.9652544145299
 20
215.6795088257168
 30
0.0
 11
-374.9652544145299
 21
207.4794768234997
 31
0.0
  0
LINE
  5
3B1
330
1F
100
AcDbEntity
  8
B-0
  6
Continuous
 62
     3
370
     9
100
AcDbLine
 10
-394.9651966785713
 20
215.6795088257168
 30
0.0
 11
-394.9651966785713
 21
207.4794768234997
 31
0.0
  0
LINE
  5
3B2
330
1F
100
AcDbEntity
  8
B-0
  6
Continuous
 62
     3
370
     9
100
AcDbLine
 10
-279.3652087206426
 20
215.6795088257168
 30
0.0
 11
-279.3652087206426
 21
207.4794768234997
 31
0.0
  0
LINE
  5
3B3
330
1F
100
AcDbEntity
  8
B-0
  6
Continuous
 62
     3
370
     9
100
AcDbLine
 10
-259.3652045966456
 20
215.6795088257168
 30
0.0
 11
-259.3652045966456
 21
207.4794768234997
 31
0.0
  0
LINE
  5
3B4
330
1F
100
AcDbEntity
  8
B-0
  6
Continuous
 62
     3
370
     9
100
AcDbLine
 10
-163.7651589027582
 20
215.6795088257168
 30
0.0
 11
-163.7651589027582
 21
207.4794768234997
 31
0.0
  0
LINE
  5
3B5
330
1F
100
AcDbEntity
  8
B-0
  6
Continuous
 62
     3
370
     9
100
AcDbLine
 10
-721.7652801482714
 20
244.3794971135652
 30
0.0
 11
-721.7652801482714
 21
236.1794651113482
 31
0.0
  0
LINE
  5
3B6
330
1F
100
AcDbEntity
  8
B-0
  6
Continuous
 62
     3
370
     9
100
AcDbLine
 10
-606.1652612603649
 20
244.3794971135652
 30
0.0
 11
-606.1652612603649
 21
236.1794651113482
 31
0.0
  0
LINE
  5
3B7
330
1F
100
AcDbEntity
  8
B-0
  6
Continuous
 62
     3
370
     9
100
AcDbLine
 10
-626.1652653843621
 20
244.3794971135652
 30
0.0
 11
-626.1652653843621
 21
236.1794651113482
 31
0.0
  0
LINE
  5
3B8
330
1F
100
AcDbEntity
  8
B-0
  6
Continuous
 62
     3
370
     9
100
AcDbLine
 10
-510.5652464964555
 20
244.3794971135652
 30
0.0
 11
-510.5652464964555
 21
236.1794651113482
 31
0.0
  0
LINE
  5
3B9
330
1F
100
AcDbEntity
  8
B-0
  6
Continuous
 62
     3
370
     9
100
AcDbLine
 10
-490.5651805125028
 20
244.3794971135652
 30
0.0
 11
-490.5651805125028
 21
236.1794651113482
 31
0.0
  0
LINE
  5
3BA
330
1F
100
AcDbEntity
  8
B-0
  6
Continuous
 62
     3
370
     9
100
AcDbLine
 10
-374.9652544145299
 20
244.3794971135652
 30
0.0
 11
-374.9652544145299
 21
236.1794651113482
 31
0.0
  0
LINE
  5
3BB
330
1F
100
AcDbEntity
  8
B-0
  6
Continuous
 62
     3
370
     9
100
AcDbLine
 10
-394.9651966785713
 20
244.3794971135652
 30
0.0
 11
-394.9651966785713
 21
236.1794651113482
 31
0.0
  0
LINE
  5
3BC
330
1F
100
AcDbEntity
  8
B-0
  6
Continuous
 62
     3
370
     9
100
AcDbLine
 10
-279.3652087206426
 20
244.3794971135652
 30
0.0
 11
-279.3652087206426
 21
236.1794651113482
 31
0.0
  0
LINE
  5
3BD
330
1F
100
AcDbEntity
  8
B-0
  6
Continuous
 62
     3
370
     9
100
AcDbLine
 10
-259.3652045966456
 20
244.3794971135652
 30
0.0
 11
-259.3652045966456
 21
236.1794651113482
 31
0.0
  0
LINE
  5
3BE
330
1F
100
AcDbEntity
  8
B-0
  6
Continuous
 62
     3
370
     9
100
AcDbLine
 10
-163.7651589027582
 20
244.3794971135652
 30
0.0
 11
-163.7651589027582
 21
236.1794651113482
 31
0.0
  0
LINE
  5
3BF
330
1F
100
AcDbEntity
  8
B-0
  6
Continuous
 62
     3
370
     9
100
AcDbLine
 10
-721.7652801482714
 20
273.0794854014136
 30
0.0
 11
-721.7652801482714
 21
264.8794533991964
 31
0.0
  0
LINE
  5
3C0
330
1F
100
AcDbEntity
  8
B-0
  6
Continuous
 62
     3
370
     9
100
AcDbLine
 10
-606.1652612603649
 20
273.0794854014136
 30
0.0
 11
-606.1652612603649
 21
264.8794533991964
 31
0.0
  0
LINE
  5
3C1
330
1F
100
AcDbEntity
  8
B-0
  6
Continuous
 62
     3
370
     9
100
AcDbLine
 10
-626.1652653843621
 20
273.0794854014136
 30
0.0
 11
-626.1652653843621
 21
264.8794533991964
 31
0.0
  0
LINE
  5
3C2
330
1F
100
AcDbEntity
  8
B-0
  6
Continuous
 62
     3
370
     9
100
AcDbLine
 10
-510.5652464964555
 20
273.0794854014136
 30
0.0
 11
-510.5652464964555
 21
264.8794533991964
 31
0.0
  0
LINE
  5
3C3
330
1F
100
AcDbEntity
  8
B-0
  6
Continuous
 62
     3
370
     9
100
AcDbLine
 10
-490.5651805125028
 20
273.0794854014136
 30
0.0
 11
-490.5651805125028
 21
264.8794533991964
 31
0.0
  0
LINE
  5
3C4
330
1F
100
AcDbEntity
  8
B-0
  6
Continuous
 62
     3
370
     9
100
AcDbLine
 10
-374.9652544145299
 20
273.0794854014136
 30
0.0
 11
-374.9652544145299
 21
264.8794533991964
 31
0.0
  0
LINE
  5
3C5
330
1F
100
AcDbEntity
  8
B-0
  6
Continuous
 62
     3
370
     9
100
AcDbLine
 10
-394.9651966785713
 20
273.0794854014136
 30
0.0
 11
-394.9651966785713
 21
264.8794533991964
 31
0.0
  0
LINE
  5
3C6
330
1F
100
AcDbEntity
  8
B-0
  6
Continuous
 62
     3
370
     9
100
AcDbLine
 10
-279.3652087206426
 20
273.0794854014136
 30
0.0
 11
-279.3652087206426
 21
264.8794533991964
 31
0.0
  0
LINE
  5
3C7
330
1F
100
AcDbEntity
  8
B-0
  6
Continuous
 62
     3
370
     9
100
AcDbLine
 10
-259.3652045966456
 20
273.0794854014136
 30
0.0
 11
-259.3652045966456
 21
264.8794533991964
 31
0.0
  0
LINE
  5
3C8
330
1F
100
AcDbEntity
  8
B-0
  6
Continuous
 62
     3
370
     9
100
AcDbLine
 10
-163.7651589027582
 20
273.0794854014136
 30
0.0
 11
-163.7651589027582
 21
264.8794533991964
 31
0.0
  0
LINE
  5
3C9
330
1F
100
AcDbEntity
  8
B-0
  6
Continuous
 62
     3
370
     9
100
AcDbLine
 10
-721.7652801482714
 20
301.7795974091733
 30
0.0
 11
-721.7652801482714
 21
293.5794416870449
 31
0.0
  0
LINE
  5
3CA
330
1F
100
AcDbEntity
  8
B-0
  6
Continuous
 62
     3
370
     9
100
AcDbLine
 10
-606.1652612603649
 20
301.7795974091733
 30
0.0
 11
-606.1652612603649
 21
293.5794416870449
 31
0.0
  0
LINE
  5
3CB
330
1F
100
AcDbEntity
  8
B-0
  6
Continuous
 62
     3
370
     9
100
AcDbLine
 10
-626.1652653843621
 20
301.7795974091733
 30
0.0
 11
-626.1652653843621
 21
293.5794416870449
 31
0.0
  0
LINE
  5
3CC
330
1F
100
AcDbEntity
  8
B-0
  6
Continuous
 62
     3
370
     9
100
AcDbLine
 10
-510.5652464964555
 20
301.7795974091733
 30
0.0
 11
-510.5652464964555
 21
293.5794416870449
 31
0.0
  0
LINE
  5
3CD
330
1F
100
AcDbEntity
  8
B-0
  6
Continuous
 62
     3
370
     9
100
AcDbLine
 10
-490.5651805125028
 20
301.7795974091733
 30
0.0
 11
-490.5651805125028
 21
293.5794416870449
 31
0.0
  0
LINE
  5
3CE
330
1F
100
AcDbEntity
  8
B-0
  6
Continuous
 62
     3
370
     9
100
AcDbLine
 10
-374.9652544145299
 20
301.7795974091733
 30
0.0
 11
-374.9652544145299
 21
293.5794416870449
 31
0.0
  0
LINE
  5
3CF
330
1F
100
AcDbEntity
  8
B-0
  6
Continuous
 62
     3
370
     9
100
AcDbLine
 10
-394.9651966785713
 20
301.7795974091733
 30
0.0
 11
-394.9651966785713
 21
293.5794416870449
 31
0.0
  0
LINE
  5
3D0
330
1F
100
AcDbEntity
  8
B-0
  6
Continuous
 62
     3
370
     9
100
AcDbLine
 10
-279.3652087206426
 20
301.7795974091733
 30
0.0
 11
-279.3652087206426
 21
293.5794416870449
 31
0.0
  0
LINE
  5
3D1
330
1F
100
AcDbEntity
  8
B-0
  6
Continuous
 62
     3
370
     9
100
AcDbLine
 10
-259.3652045966456
 20
301.7795974091733
 30
0.0
 11
-259.3652045966456
 21
293.5794416870449
 31
0.0
  0
LINE
  5
3D2
330
1F
100
AcDbEntity
  8
B-0
  6
Continuous
 62
     3
370
     9
100
AcDbLine
 10
-163.7651589027582
 20
301.7795974091733
 30
0.0
 11
-163.7651589027582
 21
293.5794416870449
 31
0.0
  0
LINE
  5
3D3
330
1F
100
AcDbEntity
  8
B-0
  6
Continuous
 62
     3
370
     9
100
AcDbLine
 10
-143.7651547787612
 20
131.0794623070301
 30
0.0
 11
-143.7651547787612
 21
119.8795317551404
 31
0.0
  0
LINE
  5
3D4
330
1F
100
AcDbEntity
  8
B-0
  6
Continuous
 62
     3
370
     9
100
AcDbLine
 10
-143.7651547787612
 20
159.7795124548343
 30
0.0
 11
-143.7651547787612
 21
148.5795200429888
 31
0.0
  0
LINE
  5
3D5
330
1F
100
AcDbEntity
  8
B-0
  6
Continuous
 62
     3
370
     9
100
AcDbLine
 10
-143.7651547787612
 20
188.4795007426825
 30
0.0
 11
-143.7651547787612
 21
177.2795083308371
 31
0.0
  0
LINE
  5
3D6
330
1F
100
AcDbEntity
  8
B-0
  6
Continuous
 62
     3
370
     9
100
AcDbLine
 10
-143.7651547787612
 20
217.179489030531
 30
0.0
 11
-143.7651547787612
 21
205.9795584786411
 31
0.0
  0
LINE
  5
3D7
330
1F
100
AcDbEntity
  8
B-0
  6
Continuous
 62
     3
370
     9
100
AcDbLine
 10
-143.7651547787612
 20
245.8794154584237
 30
0.0
 11
-143.7651547787612
 21
234.6795467664896
 31
0.0
  0
LINE
  5
3D8
330
1F
100
AcDbEntity
  8
B-0
  6
Continuous
 62
     3
370
     9
100
AcDbLine
 10
-143.7651547787612
 20
274.5794037462722
 30
0.0
 11
-143.7651547787612
 21
263.3795350543381
 31
0.0
  0
LINE
  5
3D9
330
1F
100
AcDbEntity
  8
B-0
  6
Continuous
 62
     3
370
     9
100
AcDbLine
 10
-143.7651547787612
 20
303.2794538940761
 30
0.0
 11
-143.7651547787612
 21
292.0795233421865
 31
0.0
  0
LINE
  5
3DA
330
1F
100
AcDbEntity
  8
B-0
  6
Continuous
 62
     3
370
     9
100
AcDbLine
 10
-720.7652830350695
 20
306.00432308089
 30
0.0
 11
-720.7652830350695
 21
318.0043502992704
 31
0.0
  0
LINE
  5
3DB
330
1F
100
AcDbEntity
  8
B-0
  6
Continuous
 62
     3
370
     9
100
AcDbLine
 10
-721.7652801482714
 20
305.0043568976657
 30
0.0
 11
-721.7652801482714
 21
319.0043783424504
 31
0.0
  0
LINE
  5
3DC
330
1F
100
AcDbEntity
  8
B-0
  6
Continuous
 62
     3
370
     9
100
AcDbLine
 10
-720.7652830350695
 20
318.0043502992704
 30
0.0
 11
-595.765210865121
 21
318.0043502992704
 31
0.0
  0
LINE
  5
3DD
330
1F
100
AcDbEntity
  8
B-0
  6
Continuous
 62
     3
370
     9
100
AcDbLine
 10
-721.7652801482714
 20
319.0043783424504
 30
0.0
 11
-594.765213751919
 21
319.0043783424504
 31
0.0
  0
LINE
  5
3DE
330
1F
100
AcDbEntity
  8
B-0
  6
Continuous
 62
     3
370
     9
100
AcDbLine
 10
-595.765210865121
 20
306.00432308089
 30
0.0
 11
-595.765210865121
 21
318.0043502992704
 31
0.0
  0
LINE
  5
3DF
330
1F
100
AcDbEntity
  8
B-0
  6
Continuous
 62
     3
370
     9
100
AcDbLine
 10
-720.7652830350695
 20
306.00432308089
 30
0.0
 11
-595.765210865121
 21
306.00432308089
 31
0.0
  0
LINE
  5
3E0
330
1F
100
AcDbEntity
  8
B-0
  6
Continuous
 62
     3
370
     9
100
AcDbLine
 10
-721.7652801482714
 20
305.0043568976657
 30
0.0
 11
-594.765213751919
 21
305.0043568976657
 31
0.0
  0
LINE
  5
3E1
330
1F
100
AcDbEntity
  8
B-0
  6
Continuous
 62
     3
370
     9
100
AcDbLine
 10
-594.765213751919
 20
305.0043568976657
 30
0.0
 11
-594.765213751919
 21
319.0043783424504
 31
0.0
  0
LINE
  5
3E2
330
1F
100
AcDbEntity
  8
B-0
  6
Continuous
 62
     3
370
     9
100
AcDbLine
 10
-665.7652562290887
 20
129.5794821022159
 30
0.0
 11
-665.7652562290887
 21
121.3795119599546
 31
0.0
  0
LINE
  5
3E3
330
1F
100
AcDbEntity
  8
B-0
  6
Continuous
 62
     3
370
     9
100
AcDbLine
 10
-681.7652719002773
 20
129.5794821022159
 30
0.0
 11
-681.7652719002773
 21
121.3795119599546
 31
0.0
  0
LINE
  5
3E4
330
1F
100
AcDbEntity
  8
B-0
  6
Continuous
 62
     3
370
     9
100
AcDbLine
 10
-665.7652562290887
 20
158.2795941099757
 30
0.0
 11
-665.7652562290887
 21
150.0795621077586
 31
0.0
  0
LINE
  5
3E5
330
1F
100
AcDbEntity
  8
B-0
  6
Continuous
 62
     3
370
     9
100
AcDbLine
 10
-681.7652719002773
 20
158.2795941099757
 30
0.0
 11
-681.7652719002773
 21
150.0795621077586
 31
0.0
  0
LINE
  5
3E6
330
1F
100
AcDbEntity
  8
B-0
  6
Continuous
 62
     3
370
     9
100
AcDbLine
 10
-219.7651209619854
 20
129.5794821022159
 30
0.0
 11
-219.7651209619854
 21
121.3795119599546
 31
0.0
  0
LINE
  5
3E7
330
1F
100
AcDbEntity
  8
B-0
  6
Continuous
 62
     3
370
     9
100
AcDbLine
 10
-203.7651671507524
 20
129.5794821022159
 30
0.0
 11
-203.7651671507524
 21
121.3795119599546
 31
0.0
  0
LINE
  5
3E8
330
1F
100
AcDbEntity
  8
B-0
  6
Continuous
 62
     3
370
     9
100
AcDbLine
 10
-219.7651209619854
 20
158.2795941099757
 30
0.0
 11
-219.7651209619854
 21
150.0795621077586
 31
0.0
  0
LINE
  5
3E9
330
1F
100
AcDbEntity
  8
B-0
  6
Continuous
 62
     3
370
     9
100
AcDbLine
 10
-203.7651671507524
 20
158.2795941099757
 30
0.0
 11
-203.7651671507524
 21
150.0795621077586
 31
0.0
  0
LINE
  5
3EA
330
1F
100
AcDbEntity
  8
B-0
  6
Continuous
 62
     3
370
     9
100
AcDbLine
 10
-145.2651349835754
 20
293.5794416870449
 30
0.0
 11
-740.2652731374765
 21
293.5794416870449
 31
0.0
  0
LINE
  5
3EB
330
1F
100
AcDbEntity
  8
B-1
  6
Continuous
 62
     2
370
     9
100
AcDbLine
 10
-647.2652632398836
 20
331.9293974777967
 30
0.0
 11
-647.2652632398836
 21
356.4295277961032
 31
0.0
  0
LINE
  5
3EC
330
1F
100
AcDbEntity
  8
B-1
  6
Continuous
 62
     2
370
     9
100
AcDbLine
 10
-638.2652892210649
 20
331.9293974777967
 30
0.0
 11
-638.2652892210649
 21
356.4295277961032
 31
0.0
  0
LINE
  5
3ED
330
1F
100
AcDbEntity
  8
B-1
  6
Continuous
 62
     2
370
     9
100
AcDbLine
 10
-647.2652632398836
 20
356.4295277961032
 30
0.0
 11
-638.2652892210649
 21
356.4295277961032
 31
0.0
  0
LINE
  5
3EE
330
1F
100
AcDbEntity
  8
B-1
  6
Continuous
 62
     2
370
     9
100
AcDbLine
 10
-47.26523230990562
 20
331.9293974777967
 30
0.0
 11
-47.26523230990562
 21
356.4295277961032
 31
0.0
  0
LINE
  5
3EF
330
1F
100
AcDbEntity
  8
B-1
  6
Continuous
 62
     2
370
     9
100
AcDbLine
 10
-38.26522736110928
 20
331.9293974777967
 30
0.0
 11
-38.26522736110928
 21
356.4295277961032
 31
0.0
  0
LINE
  5
3F0
330
1F
100
AcDbEntity
  8
B-1
  6
Continuous
 62
     2
370
     9
100
AcDbLine
 10
-47.26523230990562
 20
356.4295277961032
 30
0.0
 11
-38.26522736110928
 21
356.4295277961032
 31
0.0
  0
LINE
  5
3F1
330
1F
100
AcDbEntity
  8
B-1
  6
Continuous
 62
     2
370
     9
100
AcDbLine
 10
-742.7652504554928
 20
297.2293646507803
 30
0.0
 11
-742.7652504554928
 21
327.4293331434428
 31
0.0
  0
LINE
  5
3F2
330
1F
100
AcDbEntity
  8
B-1
  6
Continuous
 62
     2
370
     9
100
AcDbLine
 10
-742.7652504554928
 20
297.2293646507803
 30
0.0
 11
-741.7652533422906
 21
297.2293646507803
 31
0.0
  0
LINE
  5
3F3
330
1F
100
AcDbEntity
  8
B-1
  6
Continuous
 62
     2
370
     9
100
AcDbLine
 10
-742.7652504554928
 20
97.67954016809428
 30
0.0
 11
-742.7652504554928
 21
67.02954049801421
 31
0.0
  0
LINE
  5
3F4
330
1F
100
AcDbEntity
  8
B-1
  6
Continuous
 62
     2
370
     9
100
AcDbLine
 10
-742.7652504554928
 20
97.67954016809428
 30
0.0
 11
-741.7652533422906
 21
97.67954016809428
 31
0.0
  0
LINE
  5
3F5
330
1F
100
AcDbEntity
  8
B-1
  6
Continuous
 62
     2
370
     9
100
AcDbLine
 10
87.23476604049559
 20
327.4293331434428
 30
0.0
 11
-742.7652504554928
 21
327.4293331434428
 31
0.0
  0
LINE
  5
3F6
330
1F
100
AcDbEntity
  8
B-1
  6
Continuous
 62
     2
370
     9
100
AcDbLine
 10
87.23476604049559
 20
324.2293794971696
 30
0.0
 11
-742.7652504554928
 21
324.2293794971696
 31
0.0
  0
LINE
  5
3F7
330
1F
100
AcDbEntity
  8
B-1
  6
JWW_DASHED3
 62
     2
370
     9
100
AcDbLine
 10
87.23476604049559
 20
297.2293646507803
 30
0.0
 11
-741.7652533422906
 21
297.2293646507803
 31
0.0
  0
LINE
  5
3F8
330
1F
100
AcDbEntity
  8
B-1
  6
JWW_DASHED3
 62
     2
370
     9
100
AcDbLine
 10
87.23476604049559
 20
97.67954016809428
 30
0.0
 11
-741.7652533422906
 21
97.67954016809428
 31
0.0
  0
LINE
  5
3F9
330
1F
100
AcDbEntity
  8
B-1
  6
JWW_CENTER1
 62
     2
370
     9
100
AcDbLine
 10
-34.26523890830094
 20
331.9293974777967
 30
0.0
 11
-51.26522076271396
 21
331.9293974777967
 31
0.0
  0
LINE
  5
3FA
330
1F
100
AcDbEntity
  8
B-1
  6
JWW_CENTER1
 62
     2
370
     9
100
AcDbLine
 10
-42.76529169546301
 20
323.4294065505902
 30
0.0
 11
-42.76529169546301
 21
360.4295162489115
 31
0.0
  0
LINE
  5
3FB
330
1F
100
AcDbEntity
  8
B-1
  6
JWW_CENTER1
 62
     2
370
     9
100
AcDbLine
 10
-634.265238908301
 20
331.9293974777967
 30
0.0
 11
-651.265220762714
 21
331.9293974777967
 31
0.0
  0
LINE
  5
3FC
330
1F
100
AcDbEntity
  8
B-1
  6
JWW_CENTER1
 62
     2
370
     9
100
AcDbLine
 10
-642.7652916954632
 20
323.4294065505902
 30
0.0
 11
-642.7652916954632
 21
360.4295162489115
 31
0.0
  0
LINE
  5
3FD
330
1F
100
AcDbEntity
  8
B-0
  6
JWW_PHANTOM2
 62
     3
370
     9
100
AcDbLine
 10
-141.7651605523571
 20
72.22942651073582
 30
0.0
 11
-141.7651605523571
 21
322.2293852707654
 31
0.0
  0
LINE
  5
3FE
330
1F
100
AcDbEntity
  8
B-0
  6
JWW_PHANTOM2
 62
     3
370
     9
100
AcDbLine
 10
-141.7651605523571
 20
322.2293852707654
 30
0.0
 11
87.23476604049559
 21
322.2293852707654
 31
0.0
  0
LINE
  5
3FF
330
1F
100
AcDbEntity
  8
B-0
  6
JWW_CENTER1
 62
     3
370
     9
100
AcDbLine
 10
-766.7652430322981
 20
197.4544524094372
 30
0.0
 11
112.2347248005251
 21
197.0044212320197
 31
0.0
  0
LINE
  5
400
330
1F
100
AcDbEntity
  8
B-0
  6
Continuous
 62
     3
370
     9
100
AcDbLine
 10
-741.7652842722684
 20
148.5795200429888
 30
0.0
 11
-741.7652842722684
 21
131.0794623070301
 31
0.0
  0
ARC
  5
401
330
1F
100
AcDbEntity
  8
B-0
  6
Continuous
 62
     3
370
     9
100
AcDbCircle
 10
-739.2652760242744
 20
118.8795655719162
 30
0.0
 40
1.500000019331236
100
AcDbArc
 50
90.0
 51
180.0
  0
ARC
  5
402
330
1F
100
AcDbEntity
  8
B-0
  6
Continuous
 62
     3
370
     9
100
AcDbCircle
 10
-740.2652731374765
 20
119.8795317551404
 30
0.0
 40
1.500000019331236
100
AcDbArc
 50
90.0
 51
180.0
  0
ARC
  5
403
330
1F
100
AcDbEntity
  8
B-0
  6
Continuous
 62
     3
370
     9
100
AcDbCircle
 10
-739.2652760242744
 20
103.379440202406
 30
0.0
 40
1.500000019331236
100
AcDbArc
 50
180.0
 51
270.0
  0
ARC
  5
404
330
1F
100
AcDbEntity
  8
B-0
  6
Continuous
 62
     3
370
     9
100
AcDbCircle
 10
-740.2652731374765
 20
102.3794740191818
 30
0.0
 40
1.500000019331236
100
AcDbArc
 50
180.0
 51
270.0
  0
ARC
  5
405
330
1F
100
AcDbEntity
  8
B-0
  6
Continuous
 62
     3
370
     9
100
AcDbCircle
 10
-146.2651011667996
 20
118.8795655719162
 30
0.0
 40
1.500000019331236
100
AcDbArc
 50
359.9980010986328
 51
89.99999999999997
  0
ARC
  5
406
330
1F
100
AcDbEntity
  8
B-0
  6
Continuous
 62
     3
370
     9
100
AcDbCircle
 10
-145.2651349835754
 20
119.8795317551404
 30
0.0
 40
1.500000019331236
100
AcDbArc
 50
359.9980010986328
 51
89.99999999999997
  0
ARC
  5
407
330
1F
100
AcDbEntity
  8
B-0
  6
Continuous
 62
     3
370
     9
100
AcDbCircle
 10
-145.2651349835754
 20
102.3794740191818
 30
0.0
 40
1.500000019331236
100
AcDbArc
 50
270.0
 51
0.0
  0
ARC
  5
408
330
1F
100
AcDbEntity
  8
B-0
  6
Continuous
 62
     3
370
     9
100
AcDbCircle
 10
-146.2651011667996
 20
103.379440202406
 30
0.0
 40
1.500000019331236
100
AcDbArc
 50
270.0
 51
0.0
  0
ARC
  5
409
330
1F
100
AcDbEntity
  8
B-0
  6
Continuous
 62
     3
370
     9
100
AcDbCircle
 10
-739.2652760242744
 20
147.5795538597645
 30
0.0
 40
1.500000019331236
100
AcDbArc
 50
90.0
 51
180.0
  0
ARC
  5
40A
330
1F
100
AcDbEntity
  8
B-0
  6
Continuous
 62
     3
370
     9
100
AcDbCircle
 10
-740.2652731374765
 20
148.5795200429888
 30
0.0
 40
1.500000019331236
100
AcDbArc
 50
90.0
 51
180.0
  0
ARC
  5
40B
330
1F
100
AcDbEntity
  8
B-0
  6
Continuous
 62
     3
370
     9
100
AcDbCircle
 10
-739.2652760242744
 20
132.0794903502101
 30
0.0
 40
1.500000019331236
100
AcDbArc
 50
180.0
 51
270.0
  0
ARC
  5
40C
330
1F
100
AcDbEntity
  8
B-0
  6
Continuous
 62
     3
370
     9
100
AcDbCircle
 10
-740.2652731374765
 20
131.0794623070301
 30
0.0
 40
1.500000019331236
100
AcDbArc
 50
180.0
 51
270.0
  0
ARC
  5
40D
330
1F
100
AcDbEntity
  8
B-0
  6
Continuous
 62
     3
370
     9
100
AcDbCircle
 10
-146.2651011667996
 20
147.5795538597645
 30
0.0
 40
1.500000019331236
100
AcDbArc
 50
359.9980010986328
 51
89.99999999999997
  0
ARC
  5
40E
330
1F
100
AcDbEntity
  8
B-0
  6
Continuous
 62
     3
370
     9
100
AcDbCircle
 10
-145.2651349835754
 20
148.5795200429888
 30
0.0
 40
1.500000019331236
100
AcDbArc
 50
359.9980010986328
 51
89.99999999999997
  0
ARC
  5
40F
330
1F
100
AcDbEntity
  8
B-0
  6
Continuous
 62
     3
370
     9
100
AcDbCircle
 10
-145.2651349835754
 20
131.0794623070301
 30
0.0
 40
1.500000019331236
100
AcDbArc
 50
270.0
 51
0.0
  0
ARC
  5
410
330
1F
100
AcDbEntity
  8
B-0
  6
Continuous
 62
     3
370
     9
100
AcDbCircle
 10
-146.2651011667996
 20
132.0794903502101
 30
0.0
 40
1.500000019331236
100
AcDbArc
 50
270.0
 51
0.0
  0
ARC
  5
411
330
1F
100
AcDbEntity
  8
B-0
  6
Continuous
 62
     3
370
     9
100
AcDbCircle
 10
-739.2652760242744
 20
176.2795421476129
 30
0.0
 40
1.500000019331236
100
AcDbArc
 50
90.0
 51
180.0
  0
ARC
  5
412
330
1F
100
AcDbEntity
  8
B-0
  6
Continuous
 62
     3
370
     9
100
AcDbCircle
 10
-740.2652731374765
 20
177.2795083308371
 30
0.0
 40
1.500000019331236
100
AcDbArc
 50
90.0
 51
180.0
  0
ARC
  5
413
330
1F
100
AcDbEntity
  8
B-0
  6
Continuous
 62
     3
370
     9
100
AcDbCircle
 10
-739.2652760242744
 20
160.7794786380585
 30
0.0
 40
1.500000019331236
100
AcDbArc
 50
180.0
 51
270.0
  0
ARC
  5
414
330
1F
100
AcDbEntity
  8
B-0
  6
Continuous
 62
     3
370
     9
100
AcDbCircle
 10
-740.2652731374765
 20
159.7795124548343
 30
0.0
 40
1.500000019331236
100
AcDbArc
 50
180.0
 51
270.0
  0
ARC
  5
415
330
1F
100
AcDbEntity
  8
B-0
  6
Continuous
 62
     3
370
     9
100
AcDbCircle
 10
-146.2651011667996
 20
176.2795421476129
 30
0.0
 40
1.500000019331236
100
AcDbArc
 50
359.9980010986328
 51
89.99999999999997
  0
ARC
  5
416
330
1F
100
AcDbEntity
  8
B-0
  6
Continuous
 62
     3
370
     9
100
AcDbCircle
 10
-145.2651349835754
 20
177.2795083308371
 30
0.0
 40
1.500000019331236
100
AcDbArc
 50
359.9980010986328
 51
89.99999999999997
  0
ARC
  5
417
330
1F
100
AcDbEntity
  8
B-0
  6
Continuous
 62
     3
370
     9
100
AcDbCircle
 10
-145.2651349835754
 20
159.7795124548343
 30
0.0
 40
1.500000019331236
100
AcDbArc
 50
270.0
 51
0.0
  0
ARC
  5
418
330
1F
100
AcDbEntity
  8
B-0
  6
Continuous
 62
     3
370
     9
100
AcDbCircle
 10
-146.2651011667996
 20
160.7794786380585
 30
0.0
 40
1.500000019331236
100
AcDbArc
 50
270.0
 51
0.0
  0
ARC
  5
419
330
1F
100
AcDbEntity
  8
B-0
  6
Continuous
 62
     3
370
     9
100
AcDbCircle
 10
-739.2652760242744
 20
204.9795304354613
 30
0.0
 40
1.500000019331236
100
AcDbArc
 50
90.0
 51
180.0
  0
ARC
  5
41A
330
1F
100
AcDbEntity
  8
B-0
  6
Continuous
 62
     3
370
     9
100
AcDbCircle
 10
-740.2652731374765
 20
205.9795584786411
 30
0.0
 40
1.500000019331236
100
AcDbArc
 50
90.0
 51
180.0
  0
ARC
  5
41B
330
1F
100
AcDbEntity
  8
B-0
  6
Continuous
 62
     3
370
     9
100
AcDbCircle
 10
-739.2652760242744
 20
189.4794669259068
 30
0.0
 40
1.500000019331236
100
AcDbArc
 50
180.0
 51
270.0
  0
ARC
  5
41C
330
1F
100
AcDbEntity
  8
B-0
  6
Continuous
 62
     3
370
     9
100
AcDbCircle
 10
-740.2652731374765
 20
188.4795007426825
 30
0.0
 40
1.500000019331236
100
AcDbArc
 50
180.0
 51
270.0
  0
ARC
  5
41D
330
1F
100
AcDbEntity
  8
B-0
  6
Continuous
 62
     3
370
     9
100
AcDbCircle
 10
-146.2651011667996
 20
204.9795304354613
 30
0.0
 40
1.500000019331236
100
AcDbArc
 50
359.9980010986328
 51
89.99999999999997
  0
ARC
  5
41E
330
1F
100
AcDbEntity
  8
B-0
  6
Continuous
 62
     3
370
     9
100
AcDbCircle
 10
-145.2651349835754
 20
205.9795584786411
 30
0.0
 40
1.500000019331236
100
AcDbArc
 50
359.9980010986328
 51
89.99999999999997
  0
ARC
  5
41F
330
1F
100
AcDbEntity
  8
B-0
  6
Continuous
 62
     3
370
     9
100
AcDbCircle
 10
-145.2651349835754
 20
188.4795007426825
 30
0.0
 40
1.500000019331236
100
AcDbArc
 50
270.0
 51
0.0
  0
ARC
  5
420
330
1F
100
AcDbEntity
  8
B-0
  6
Continuous
 62
     3
370
     9
100
AcDbCircle
 10
-146.2651011667996
 20
189.4794669259068
 30
0.0
 40
1.500000019331236
100
AcDbArc
 50
270.0
 51
0.0
  0
ARC
  5
421
330
1F
100
AcDbEntity
  8
B-0
  6
Continuous
 62
     3
370
     9
100
AcDbCircle
 10
-739.2652760242744
 20
233.6795805832654
 30
0.0
 40
1.500000019331236
100
AcDbArc
 50
90.0
 51
180.0
  0
ARC
  5
422
330
1F
100
AcDbEntity
  8
B-0
  6
Continuous
 62
     3
370
     9
100
AcDbCircle
 10
-740.2652731374765
 20
234.6795467664896
 30
0.0
 40
1.500000019331236
100
AcDbArc
 50
90.0
 51
180.0
  0
ARC
  5
423
330
1F
100
AcDbEntity
  8
B-0
  6
Continuous
 62
     3
370
     9
100
AcDbCircle
 10
-739.2652760242744
 20
218.1794552137552
 30
0.0
 40
1.500000019331236
100
AcDbArc
 50
180.0
 51
270.0
  0
ARC
  5
424
330
1F
100
AcDbEntity
  8
B-0
  6
Continuous
 62
     3
370
     9
100
AcDbCircle
 10
-740.2652731374765
 20
217.179489030531
 30
0.0
 40
1.500000019331236
100
AcDbArc
 50
180.0
 51
270.0
  0
ARC
  5
425
330
1F
100
AcDbEntity
  8
B-0
  6
Continuous
 62
     3
370
     9
100
AcDbCircle
 10
-146.2651011667996
 20
233.6795805832654
 30
0.0
 40
1.500000019331236
100
AcDbArc
 50
359.9980010986328
 51
89.99999999999997
  0
ARC
  5
426
330
1F
100
AcDbEntity
  8
B-0
  6
Continuous
 62
     3
370
     9
100
AcDbCircle
 10
-145.2651349835754
 20
234.6795467664896
 30
0.0
 40
1.500000019331236
100
AcDbArc
 50
359.9980010986328
 51
89.99999999999997
  0
ARC
  5
427
330
1F
100
AcDbEntity
  8
B-0
  6
Continuous
 62
     3
370
     9
100
AcDbCircle
 10
-145.2651349835754
 20
217.179489030531
 30
0.0
 40
1.500000019331236
100
AcDbArc
 50
270.0
 51
0.0
  0
ARC
  5
428
330
1F
100
AcDbEntity
  8
B-0
  6
Continuous
 62
     3
370
     9
100
AcDbCircle
 10
-146.2651011667996
 20
218.1794552137552
 30
0.0
 40
1.500000019331236
100
AcDbArc
 50
270.0
 51
0.0
  0
ARC
  5
429
330
1F
100
AcDbEntity
  8
B-0
  6
Continuous
 62
     3
370
     9
100
AcDbCircle
 10
-739.2652760242744
 20
262.3795688711139
 30
0.0
 40
1.500000019331236
100
AcDbArc
 50
90.0
 51
180.0
  0
ARC
  5
42A
330
1F
100
AcDbEntity
  8
B-0
  6
Continuous
 62
     3
370
     9
100
AcDbCircle
 10
-740.2652731374765
 20
263.3795350543381
 30
0.0
 40
1.500000019331236
100
AcDbArc
 50
90.0
 51
180.0
  0
ARC
  5
42B
330
1F
100
AcDbEntity
  8
B-0
  6
Continuous
 62
     3
370
     9
100
AcDbCircle
 10
-739.2652760242744
 20
246.879567221515
 30
0.0
 40
1.500000019331236
100
AcDbArc
 50
180.0
 51
270.0
  0
ARC
  5
42C
330
1F
100
AcDbEntity
  8
B-0
  6
Continuous
 62
     3
370
     9
100
AcDbCircle
 10
-740.2652731374765
 20
245.8794154584237
 30
0.0
 40
1.500000019331236
100
AcDbArc
 50
180.0
 51
270.0
  0
ARC
  5
42D
330
1F
100
AcDbEntity
  8
B-0
  6
Continuous
 62
     3
370
     9
100
AcDbCircle
 10
-146.2651011667996
 20
262.3795688711139
 30
0.0
 40
1.500000019331236
100
AcDbArc
 50
359.9980010986328
 51
89.99999999999997
  0
ARC
  5
42E
330
1F
100
AcDbEntity
  8
B-0
  6
Continuous
 62
     3
370
     9
100
AcDbCircle
 10
-145.2651349835754
 20
263.3795350543381
 30
0.0
 40
1.500000019331236
100
AcDbArc
 50
359.9980010986328
 51
89.99999999999997
  0
ARC
  5
42F
330
1F
100
AcDbEntity
  8
B-0
  6
Continuous
 62
     3
370
     9
100
AcDbCircle
 10
-145.2651349835754
 20
245.8794154584237
 30
0.0
 40
1.500000019331236
100
AcDbArc
 50
270.0
 51
0.0
  0
ARC
  5
430
330
1F
100
AcDbEntity
  8
B-0
  6
Continuous
 62
     3
370
     9
100
AcDbCircle
 10
-146.2651011667996
 20
246.879567221515
 30
0.0
 40
1.500000019331236
100
AcDbArc
 50
270.0
 51
0.0
  0
ARC
  5
431
330
1F
100
AcDbEntity
  8
B-0
  6
Continuous
 62
     3
370
     9
100
AcDbCircle
 10
-739.2652760242744
 20
291.0795571589621
 30
0.0
 40
1.500000019331236
100
AcDbArc
 50
90.0
 51
180.0
  0
ARC
  5
432
330
1F
100
AcDbEntity
  8
B-0
  6
Continuous
 62
     3
370
     9
100
AcDbCircle
 10
-740.2652731374765
 20
292.0795233421865
 30
0.0
 40
1.500000019331236
100
AcDbArc
 50
90.0
 51
180.0
  0
ARC
  5
433
330
1F
100
AcDbEntity
  8
B-0
  6
Continuous
 62
     3
370
     9
100
AcDbCircle
 10
-739.2652760242744
 20
275.579431789452
 30
0.0
 40
1.500000019331236
100
AcDbArc
 50
180.0
 51
270.0
  0
ARC
  5
434
330
1F
100
AcDbEntity
  8
B-0
  6
Continuous
 62
     3
370
     9
100
AcDbCircle
 10
-740.2652731374765
 20
274.5794037462722
 30
0.0
 40
1.500000019331236
100
AcDbArc
 50
180.0
 51
270.0
  0
ARC
  5
435
330
1F
100
AcDbEntity
  8
B-0
  6
Continuous
 62
     3
370
     9
100
AcDbCircle
 10
-146.2651011667996
 20
291.0795571589621
 30
0.0
 40
1.500000019331236
100
AcDbArc
 50
359.9980010986328
 51
89.99999999999997
  0
ARC
  5
436
330
1F
100
AcDbEntity
  8
B-0
  6
Continuous
 62
     3
370
     9
100
AcDbCircle
 10
-145.2651349835754
 20
292.0795233421865
 30
0.0
 40
1.500000019331236
100
AcDbArc
 50
359.9980010986328
 51
89.99999999999997
  0
ARC
  5
437
330
1F
100
AcDbEntity
  8
B-0
  6
Continuous
 62
     3
370
     9
100
AcDbCircle
 10
-145.2651349835754
 20
274.5794037462722
 30
0.0
 40
1.500000019331236
100
AcDbArc
 50
270.0
 51
0.0
  0
ARC
  5
438
330
1F
100
AcDbEntity
  8
B-0
  6
Continuous
 62
     3
370
     9
100
AcDbCircle
 10
-146.2651011667996
 20
275.579431789452
 30
0.0
 40
1.500000019331236
100
AcDbArc
 50
270.0
 51
0.0
  0
ARC
  5
439
330
1F
100
AcDbEntity
  8
B-0
  6
Continuous
 62
     3
370
     9
100
AcDbCircle
 10
-739.2652760242744
 20
90.17951542411213
 30
0.0
 40
1.500000019331236
100
AcDbArc
 50
90.0
 51
180.0
  0
ARC
  5
43A
330
1F
100
AcDbEntity
  8
B-0
  6
Continuous
 62
     3
370
     9
100
AcDbCircle
 10
-740.2652731374765
 20
91.17954346729194
 30
0.0
 40
1.500000019331236
100
AcDbArc
 50
90.0
 51
180.0
  0
ARC
  5
43B
330
1F
100
AcDbEntity
  8
B-0
  6
Continuous
 62
     3
370
     9
100
AcDbCircle
 10
-146.2651011667996
 20
90.17951542411213
 30
0.0
 40
1.500000019331236
100
AcDbArc
 50
0.0
 51
90.0
  0
ARC
  5
43C
330
1F
100
AcDbEntity
  8
B-0
  6
Continuous
 62
     3
370
     9
100
AcDbCircle
 10
-145.2651349835754
 20
91.17954346729194
 30
0.0
 40
1.500000019331236
100
AcDbArc
 50
0.0
 51
90.0
  0
ARC
  5
43D
330
1F
100
AcDbEntity
  8
B-0
  6
Continuous
 62
     3
370
     9
100
AcDbCircle
 10
-739.2652760242744
 20
319.7293770227712
 30
0.0
 40
1.500000019331236
100
AcDbArc
 50
90.0
 51
180.0
  0
ARC
  5
43E
330
1F
100
AcDbEntity
  8
B-0
  6
Continuous
 62
     3
370
     9
100
AcDbCircle
 10
-740.2652731374765
 20
320.7293432059956
 30
0.0
 40
1.500000019331236
100
AcDbArc
 50
90.0
 51
180.0
  0
ARC
  5
43F
330
1F
100
AcDbEntity
  8
B-0
  6
Continuous
 62
     3
370
     9
100
AcDbCircle
 10
-739.2652760242744
 20
304.2794819372562
 30
0.0
 40
1.500000019331236
100
AcDbArc
 50
180.0
 51
270.0
  0
ARC
  5
440
330
1F
100
AcDbEntity
  8
B-0
  6
Continuous
 62
     3
370
     9
100
AcDbCircle
 10
-740.2652731374765
 20
303.2794538940761
 30
0.0
 40
1.500000019331236
100
AcDbArc
 50
180.0
 51
270.0
  0
ARC
  5
441
330
1F
100
AcDbEntity
  8
B-0
  6
Continuous
 62
     3
370
     9
100
AcDbCircle
 10
-146.2651011667996
 20
319.7293770227712
 30
0.0
 40
1.500000019331236
100
AcDbArc
 50
0.0
 51
90.0
  0
ARC
  5
442
330
1F
100
AcDbEntity
  8
B-0
  6
Continuous
 62
     3
370
     9
100
AcDbCircle
 10
-145.2651349835754
 20
320.7293432059956
 30
0.0
 40
1.500000019331236
100
AcDbArc
 50
0.0
 51
90.0
  0
ARC
  5
443
330
1F
100
AcDbEntity
  8
B-0
  6
Continuous
 62
     3
370
     9
100
AcDbCircle
 10
-145.2651349835754
 20
303.2794538940761
 30
0.0
 40
1.500000019331236
100
AcDbArc
 50
270.0
 51
0.0
  0
ARC
  5
444
330
1F
100
AcDbEntity
  8
B-0
  6
Continuous
 62
     3
370
     9
100
AcDbCircle
 10
-146.2651011667996
 20
304.2794819372562
 30
0.0
 40
1.500000019331236
100
AcDbArc
 50
270.0
 51
0.0
  0
CIRCLE
  5
445
330
1F
100
AcDbEntity
  8
B-1
  6
Continuous
 62
     2
370
     9
100
AcDbCircle
 10
-642.7652298355075
 20
331.9293974777967
 30
0.0
 40
4.500000057993709
  0
CIRCLE
  5
446
330
1F
100
AcDbEntity
  8
B-1
  6
Continuous
 62
     2
370
     9
100
AcDbCircle
 10
-42.76529169546301
 20
331.9293974777967
 30
0.0
 40
4.500000057993709
  0
LINE
  5
447
330
1F
100
AcDbEntity
  8
B-F
  6
Continuous
 62
     2
370
     9
100
AcDbLine
 10
87.23476604049559
 20
217.4543946734786
 30
0.0
 11
97.23479903247188
 21
217.4543946734786
 31
0.0
  0
LINE
  5
448
330
1F
100
AcDbEntity
  8
B-F
  6
Continuous
 62
     2
370
     9
100
AcDbLine
 10
97.23479903247188
 20
217.4543946734786
 30
0.0
 11
77.2347330485191
 21
177.4543864254845
 31
0.0
  0
LINE
  5
449
330
1F
100
AcDbEntity
  8
B-F
  6
Continuous
 62
     2
370
     9
100
AcDbLine
 10
77.2347330485191
 20
177.4543864254845
 30
0.0
 11
87.23476604049559
 21
177.4543864254845
 31
0.0
  0
LINE
  5
44A
330
1F
100
AcDbEntity
  8
B-F
  6
Continuous
 62
     2
370
     9
100
AcDbLine
 10
87.23476604049559
 20
217.4543946734786
 30
0.0
 11
87.23476604049559
 21
347.4293372674397
 31
0.0
  0
LINE
  5
44B
330
1F
100
AcDbEntity
  8
B-F
  6
Continuous
 62
     2
370
     9
100
AcDbLine
 10
87.23476604049559
 20
47.02953637401707
 30
0.0
 11
87.23476604049559
 21
177.4543864254845
 31
0.0
  0
LINE
  5
44C
330
1F
100
AcDbEntity
  8
B-F
  6
Continuous
 62
     7
370
     9
100
AcDbLine
 10
-742.7652813854705
 20
402.4293950033985
 30
0.0
 11
-642.7652916954632
 21
402.4293950033985
 31
0.0
  0
LINE
  5
44D
330
1F
100
AcDbEntity
  8
B-F
  6
Continuous
 62
     7
370
     9
100
AcDbLine
 10
-642.7652916954632
 20
365.4295327448996
 30
0.0
 11
-642.7652916954632
 21
403.9293752082126
 31
0.0
  0
LINE
  5
44E
330
1F
100
AcDbEntity
  8
B-F
  6
Continuous
 62
     7
370
     9
100
AcDbLine
 10
-742.7652813854705
 20
402.4293950033985
 30
0.0
 11
-727.8936222354758
 21
404.387262599999
 31
0.0
  0
LINE
  5
44F
330
1F
100
AcDbEntity
  8
B-F
  6
Continuous
 62
     7
370
     9
100
AcDbLine
 10
-742.7652813854705
 20
402.4293950033985
 30
0.0
 11
-727.8936222354758
 21
400.471527406798
 31
0.0
  0
LINE
  5
450
330
1F
100
AcDbEntity
  8
B-F
  6
Continuous
 62
     7
370
     9
100
AcDbLine
 10
-642.7652916954632
 20
402.4293950033985
 30
0.0
 11
-657.6369508454579
 21
404.387262599999
 31
0.0
  0
LINE
  5
451
330
1F
100
AcDbEntity
  8
B-F
  6
Continuous
 62
     7
370
     9
100
AcDbLine
 10
-642.7652916954632
 20
402.4293950033985
 30
0.0
 11
-657.6369508454579
 21
400.471527406798
 31
0.0
  0
LINE
  5
452
330
1F
100
AcDbEntity
  8
B-F
  6
Continuous
 62
     7
370
     9
100
AcDbLine
 10
-642.7652916954632
 20
402.4293950033985
 30
0.0
 11
-42.76529169546301
 21
402.4293950033985
 31
0.0
  0
LINE
  5
453
330
1F
100
AcDbEntity
  8
B-F
  6
Continuous
 62
     7
370
     9
100
AcDbLine
 10
-42.76529169546301
 20
365.4295327448996
 30
0.0
 11
-42.76529169546301
 21
403.9293752082126
 31
0.0
  0
LINE
  5
454
330
1F
100
AcDbEntity
  8
B-F
  6
Continuous
 62
     7
370
     9
100
AcDbLine
 10
-642.7652916954632
 20
402.4293950033985
 30
0.0
 11
-627.8936325454684
 21
404.387262599999
 31
0.0
  0
LINE
  5
455
330
1F
100
AcDbEntity
  8
B-F
  6
Continuous
 62
     7
370
     9
100
AcDbLine
 10
-642.7652916954632
 20
402.4293950033985
 30
0.0
 11
-627.8936325454684
 21
400.471527406798
 31
0.0
  0
LINE
  5
456
330
1F
100
AcDbEntity
  8
B-F
  6
Continuous
 62
     7
370
     9
100
AcDbLine
 10
-42.76529169546301
 20
402.4293950033985
 30
0.0
 11
-57.63698177543569
 21
404.387262599999
 31
0.0
  0
LINE
  5
457
330
1F
100
AcDbEntity
  8
B-F
  6
Continuous
 62
     7
370
     9
100
AcDbLine
 10
-42.76529169546301
 20
402.4293950033985
 30
0.0
 11
-57.63698177543569
 21
400.471527406798
 31
0.0
  0
LINE
  5
458
330
1F
100
AcDbEntity
  8
B-F
  6
Continuous
 62
     7
370
     9
100
AcDbLine
 10
-42.76529169546301
 20
402.4293950033985
 30
0.0
 11
87.23476604049559
 21
402.4293950033985
 31
0.0
  0
LINE
  5
459
330
1F
100
AcDbEntity
  8
B-F
  6
Continuous
 62
     7
370
     9
100
AcDbLine
 10
-42.76529169546301
 20
402.4293950033985
 30
0.0
 11
-27.89360161549052
 21
404.387262599999
 31
0.0
  0
LINE
  5
45A
330
1F
100
AcDbEntity
  8
B-F
  6
Continuous
 62
     7
370
     9
100
AcDbLine
 10
-42.76529169546301
 20
402.4293950033985
 30
0.0
 11
-27.89360161549052
 21
400.471527406798
 31
0.0
  0
LINE
  5
45B
330
1F
100
AcDbEntity
  8
B-F
  6
Continuous
 62
     7
370
     9
100
AcDbLine
 10
-742.7652813854705
 20
332.4293496394308
 30
0.0
 11
-742.7652813854705
 21
453.9294164481831
 31
0.0
  0
LINE
  5
45C
330
1F
100
AcDbEntity
  8
B-F
  6
Continuous
 62
     7
370
     9
100
AcDbLine
 10
-742.7652813854705
 20
452.4294362433689
 30
0.0
 11
87.23476604049559
 21
452.4294362433689
 31
0.0
  0
LINE
  5
45D
330
1F
100
AcDbEntity
  8
B-F
  6
Continuous
 62
     7
370
     9
100
AcDbLine
 10
-742.7652813854705
 20
452.4294362433689
 30
0.0
 11
-727.8936222354758
 21
454.3873038399694
 31
0.0
  0
LINE
  5
45E
330
1F
100
AcDbEntity
  8
B-F
  6
Continuous
 62
     7
370
     9
100
AcDbLine
 10
-742.7652813854705
 20
452.4294362433689
 30
0.0
 11
-727.8936222354758
 21
450.4715686467683
 31
0.0
  0
LINE
  5
45F
330
1F
100
AcDbEntity
  8
B-F
  6
Continuous
 62
     7
370
     9
100
AcDbLine
 10
-746.7652698382789
 20
158.2795941099757
 30
0.0
 11
-793.2652747870753
 21
158.2795941099757
 31
0.0
  0
LINE
  5
460
330
1F
100
AcDbEntity
  8
B-F
  6
Continuous
 62
     7
370
     9
100
AcDbLine
 10
-746.7652698382789
 20
150.0795621077586
 30
0.0
 11
-793.265305717053
 21
150.0795621077586
 31
0.0
  0
LINE
  5
461
330
1F
100
AcDbEntity
  8
B-F
  6
Continuous
 62
     7
370
     9
100
AcDbLine
 10
-791.7652945822612
 20
158.2795941099757
 30
0.0
 11
-793.7231931088395
 21
173.1512841899482
 31
0.0
  0
LINE
  5
462
330
1F
100
AcDbEntity
  8
B-F
  6
Continuous
 62
     7
370
     9
100
AcDbLine
 10
-791.7652945822612
 20
158.2795941099757
 30
0.0
 11
-789.8073960556827
 21
173.1512841899482
 31
0.0
  0
LINE
  5
463
330
1F
100
AcDbEntity
  8
B-F
  6
Continuous
 62
     7
370
     9
100
AcDbLine
 10
-746.7652698382789
 20
129.5794821022159
 30
0.0
 11
-793.265305717053
 21
129.5794821022159
 31
0.0
  0
LINE
  5
464
330
1F
100
AcDbEntity
  8
B-F
  6
Continuous
 62
     7
370
     9
100
AcDbLine
 10
-791.7652945822612
 20
129.5794821022159
 30
0.0
 11
-793.7231931088395
 21
114.7077920222434
 31
0.0
  0
LINE
  5
465
330
1F
100
AcDbEntity
  8
B-F
  6
Continuous
 62
     7
370
     9
100
AcDbLine
 10
-791.7652945822612
 20
129.5794821022159
 30
0.0
 11
-789.8073960556827
 21
114.7077920222434
 31
0.0
  0
LINE
  5
466
330
1F
100
AcDbEntity
  8
B-F
  6
Continuous
 62
     7
370
     9
100
AcDbLine
 10
-791.7652945822612
 20
186.987747911971
 30
0.0
 11
-791.7652945822612
 21
150.0795621077586
 31
0.0
  0
LINE
  5
467
330
1F
100
AcDbEntity
  8
B-F
  6
Continuous
 62
     7
370
     9
100
AcDbLine
 10
-791.7652945822612
 20
150.0795621077586
 30
0.0
 11
-791.7652945822612
 21
107.5291916078642
 31
0.0
  0
TEXT
  5
468
330
1F
100
AcDbEntity
  8
B-F
  6
Continuous
 62
     2
370
     9
100
AcDbText
 10
-797.0853028302552
 20
128.5198251857781
 30
0.0
 40
15.24
  1
20
 50
90.0
 41
1.0625
  7
ＭＳ ゴシック
100
AcDbText
  0
TEXT
  5
469
330
1F
100
AcDbEntity
  8
B-F
  6
Continuous
 62
     2
370
     9
100
AcDbText
 10
-797.0852719002775
 20
175.1085806129581
 30
0.0
 40
15.24
  1
8
 50
90.0
 41
0.9999999999999998
  7
ＭＳ ゴシック
100
AcDbText
  0
LWPOLYLINE
  5
46A
330
1F
100
AcDbEntity
  8
B-F
  6
Continuous
 62
     7
370
     9
100
AcDbPolyline
 90
        4
 70
     1
 43
1.0
 10
-791.2652945822612
 20
150.0795621077586
 42
0.4142135623731
 10
-791.7652945822612
 20
150.5795621077586
 42
0.4142135623731
 10
-792.265294582261
 20
150.0795621077586
 42
0.4142135623731
 10
-791.7652945822612
 20
149.5795621077586
 42
0.4142135623731
  0
LINE
  5
46B
330
1F
100
AcDbEntity
  8
B-0
  6
Continuous
 62
     3
370
     9
100
AcDbLine
 10
-144.7651209619854
 20
74.72937289877437
 30
0.0
 11
-144.7651209619854
 21
90.17951542411213
 31
0.0
  0
LINE
  5
46C
330
1F
100
AcDbEntity
  8
B-0
  6
Continuous
 62
     3
370
     9
100
AcDbLine
 10
-740.7652871590664
 20
74.72937289877437
 30
0.0
 11
-740.7652871590664
 21
90.17951542411213
 31
0.0
  0
LINE
  5
46D
330
1F
100
AcDbEntity
  8
B-0
  6
Continuous
 62
     3
370
     9
100
AcDbLine
 10
-254.765174573947
 20
76.45446148223067
 30
0.0
 11
-254.765174573947
 21
88.45442684065554
 31
0.0
  0
LINE
  5
46E
330
1F
100
AcDbEntity
  8
B-0
  6
Continuous
 62
     3
370
     9
100
AcDbLine
 10
-255.7651407571713
 20
75.45449529900645
 30
0.0
 11
-255.7651407571713
 21
89.4544548838355
 31
0.0
  0
LINE
  5
46F
330
1F
100
AcDbEntity
  8
B-0
  6
Continuous
 62
     3
370
     9
100
AcDbLine
 10
-254.765174573947
 20
88.45442684065554
 30
0.0
 11
-164.7651250859826
 21
88.45442684065554
 31
0.0
  0
LINE
  5
470
330
1F
100
AcDbEntity
  8
B-0
  6
Continuous
 62
     3
370
     9
100
AcDbLine
 10
-255.7651407571713
 20
89.4544548838355
 30
0.0
 11
-163.7651589027582
 21
89.4544548838355
 31
0.0
  0
LINE
  5
471
330
1F
100
AcDbEntity
  8
B-0
  6
Continuous
 62
     3
370
     9
100
AcDbLine
 10
-163.7651589027582
 20
75.45449529900645
 30
0.0
 11
-163.7651589027582
 21
89.4544548838355
 31
0.0
  0
LINE
  5
472
330
1F
100
AcDbEntity
  8
B-0
  6
Continuous
 62
     3
370
     9
100
AcDbLine
 10
-255.7651407571713
 20
75.45449529900645
 30
0.0
 11
-163.7651589027582
 21
75.45449529900645
 31
0.0
  0
LINE
  5
473
330
1F
100
AcDbEntity
  8
B-0
  6
Continuous
 62
     3
370
     9
100
AcDbLine
 10
-254.765174573947
 20
76.45446148223067
 30
0.0
 11
-164.7651250859826
 21
76.45446148223067
 31
0.0
  0
LINE
  5
474
330
1F
100
AcDbEntity
  8
B-0
  6
Continuous
 62
     3
370
     9
100
AcDbLine
 10
-164.7651250859826
 20
76.45446148223067
 30
0.0
 11
-164.7651250859826
 21
88.45442684065554
 31
0.0
  0
TEXT
  5
475
330
1F
100
AcDbEntity
  8
B-0
  6
Continuous
 62
     7
370
     9
100
AcDbText
 10
-252.0552631244116
 20
78.4487507360842
 30
0.0
 40
9.525
  1
ＫＡＮＥＳＯ
 41
1.1
  7
ＭＳ ゴシック
100
AcDbText
  0
LINE
  5
476
330
1F
100
AcDbEntity
  8
B-0
  6
Continuous
 62
     3
370
     9
100
AcDbLine
 10
-736.7652677762804
 20
83.22942568593648
 30
0.0
 11
-736.7652677762804
 21
89.22947022510458
 31
0.0
  0
LINE
  5
477
330
1F
100
AcDbEntity
  8
B-0
  6
Continuous
 62
     3
370
     9
100
AcDbLine
 10
-730.7652850970679
 20
89.22947022510458
 30
0.0
 11
-736.7652677762804
 21
83.22942568593648
 31
0.0
  0
LINE
  5
478
330
1F
100
AcDbEntity
  8
B-0
  6
Continuous
 62
     3
370
     9
100
AcDbLine
 10
-722.2799859093304
 20
89.22947022510458
 30
0.0
 11
-726.5226200382102
 21
89.22947022510458
 31
0.0
  0
LINE
  5
479
330
1F
100
AcDbEntity
  8
B-0
  6
Continuous
 62
     3
370
     9
100
AcDbLine
 10
-720.7652830350695
 20
82.45444416144325
 30
0.0
 11
-720.7652830350695
 21
86.50150804050783
 31
0.0
  0
LINE
  5
47A
330
1F
100
AcDbEntity
  8
B-0
  6
Continuous
 62
     3
370
     9
100
AcDbLine
 10
-736.7652677762804
 20
89.22947022510458
 30
0.0
 11
-730.7652850970679
 21
89.22947022510458
 31
0.0
  0
LINE
  5
47B
330
1F
100
AcDbEntity
  8
B-0
  6
Continuous
 62
     3
370
     9
100
AcDbLine
 10
-726.5226200382102
 20
89.22947022510458
 30
0.0
 11
-733.2976461018716
 21
82.45444416144325
 31
0.0
  0
LINE
  5
47C
330
1F
100
AcDbEntity
  8
B-0
  6
Continuous
 62
     3
370
     9
100
AcDbLine
 10
-722.2799859093304
 20
89.22947022510458
 30
0.0
 11
-729.0550119729916
 21
82.45444416144325
 31
0.0
  0
LINE
  5
47D
330
1F
100
AcDbEntity
  8
B-0
  6
Continuous
 62
     3
370
     9
100
AcDbLine
 10
-720.7652830350695
 20
86.50150804050783
 30
0.0
 11
-724.8123469141341
 21
82.45444416144325
 31
0.0
  0
LINE
  5
47E
330
1F
100
AcDbEntity
  8
B-0
  6
Continuous
 62
     3
370
     9
100
AcDbLine
 10
-736.7652677762804
 20
81.67940077699429
 30
0.0
 11
-736.7652677762804
 21
75.67941809778192
 31
0.0
  0
LINE
  5
47F
330
1F
100
AcDbEntity
  8
B-0
  6
Continuous
 62
     3
370
     9
100
AcDbLine
 10
-730.7652850970679
 20
75.67941809778192
 30
0.0
 11
-736.7652677762804
 21
81.67940077699429
 31
0.0
  0
LINE
  5
480
330
1F
100
AcDbEntity
  8
B-0
  6
Continuous
 62
     3
370
     9
100
AcDbLine
 10
-722.2799859093304
 20
75.67941809778192
 30
0.0
 11
-726.5226200382102
 21
75.67941809778192
 31
0.0
  0
LINE
  5
481
330
1F
100
AcDbEntity
  8
B-0
  6
Continuous
 62
     3
370
     9
100
AcDbLine
 10
-720.7652830350695
 20
82.45444416144325
 30
0.0
 11
-720.7652830350695
 21
78.40731842242293
 31
0.0
  0
LINE
  5
482
330
1F
100
AcDbEntity
  8
B-0
  6
Continuous
 62
     3
370
     9
100
AcDbLine
 10
-736.7652677762804
 20
75.67941809778192
 30
0.0
 11
-730.7652850970679
 21
75.67941809778192
 31
0.0
  0
LINE
  5
483
330
1F
100
AcDbEntity
  8
B-0
  6
Continuous
 62
     3
370
     9
100
AcDbLine
 10
-726.5226200382102
 20
75.67941809778192
 30
0.0
 11
-733.2976461018716
 21
82.45444416144325
 31
0.0
  0
LINE
  5
484
330
1F
100
AcDbEntity
  8
B-0
  6
Continuous
 62
     3
370
     9
100
AcDbLine
 10
-722.2799859093304
 20
75.67941809778192
 30
0.0
 11
-729.0550119729916
 21
82.45444416144325
 31
0.0
  0
LINE
  5
485
330
1F
100
AcDbEntity
  8
B-0
  6
Continuous
 62
     3
370
     9
100
AcDbLine
 10
-720.7652830350695
 20
78.40731842242293
 30
0.0
 11
-724.8123469141341
 21
82.45444416144325
 31
0.0
  0
LINE
  5
486
330
1F
100
AcDbEntity
  8
B-0
  6
Continuous
 62
     3
370
     9
100
AcDbLine
 10
-714.765300355857
 20
83.22942568593648
 30
0.0
 11
-714.765300355857
 21
89.22947022510458
 31
0.0
  0
LINE
  5
487
330
1F
100
AcDbEntity
  8
B-0
  6
Continuous
 62
     3
370
     9
100
AcDbLine
 10
-708.7652558166889
 20
89.22947022510458
 30
0.0
 11
-714.765300355857
 21
83.22942568593648
 31
0.0
  0
LINE
  5
488
330
1F
100
AcDbEntity
  8
B-0
  6
Continuous
 62
     3
370
     9
100
AcDbLine
 10
-700.2799875589291
 20
89.22947022510458
 30
0.0
 11
-704.5226216878091
 21
89.22947022510458
 31
0.0
  0
LINE
  5
489
330
1F
100
AcDbEntity
  8
B-0
  6
Continuous
 62
     3
370
     9
100
AcDbLine
 10
-698.7652846846681
 20
82.45444416144325
 30
0.0
 11
-698.7652846846681
 21
86.50150804050783
 31
0.0
  0
LINE
  5
48A
330
1F
100
AcDbEntity
  8
B-0
  6
Continuous
 62
     3
370
     9
100
AcDbLine
 10
-714.765300355857
 20
89.22947022510458
 30
0.0
 11
-708.7652558166889
 21
89.22947022510458
 31
0.0
  0
LINE
  5
48B
330
1F
100
AcDbEntity
  8
B-0
  6
Continuous
 62
     3
370
     9
100
AcDbLine
 10
-704.5226216878091
 20
89.22947022510458
 30
0.0
 11
-711.2976168214925
 21
82.45444416144325
 31
0.0
  0
LINE
  5
48C
330
1F
100
AcDbEntity
  8
B-0
  6
Continuous
 62
     3
370
     9
100
AcDbLine
 10
-700.2799875589291
 20
89.22947022510458
 30
0.0
 11
-707.0550136225905
 21
82.45444416144325
 31
0.0
  0
LINE
  5
48D
330
1F
100
AcDbEntity
  8
B-0
  6
Continuous
 62
     3
370
     9
100
AcDbLine
 10
-698.7652846846681
 20
86.50150804050783
 30
0.0
 11
-702.8123485637327
 21
82.45444416144325
 31
0.0
  0
LINE
  5
48E
330
1F
100
AcDbEntity
  8
B-0
  6
Continuous
 62
     3
370
     9
100
AcDbLine
 10
-714.765300355857
 20
81.67940077699429
 30
0.0
 11
-714.765300355857
 21
75.67941809778192
 31
0.0
  0
LINE
  5
48F
330
1F
100
AcDbEntity
  8
B-0
  6
Continuous
 62
     3
370
     9
100
AcDbLine
 10
-708.7652558166889
 20
75.67941809778192
 30
0.0
 11
-714.765300355857
 21
81.67940077699429
 31
0.0
  0
LINE
  5
490
330
1F
100
AcDbEntity
  8
B-0
  6
Continuous
 62
     3
370
     9
100
AcDbLine
 10
-700.2799875589291
 20
75.67941809778192
 30
0.0
 11
-704.5226216878091
 21
75.67941809778192
 31
0.0
  0
LINE
  5
491
330
1F
100
AcDbEntity
  8
B-0
  6
Continuous
 62
     3
370
     9
100
AcDbLine
 10
-698.7652846846681
 20
82.45444416144325
 30
0.0
 11
-698.7652846846681
 21
78.40731842242293
 31
0.0
  0
LINE
  5
492
330
1F
100
AcDbEntity
  8
B-0
  6
Continuous
 62
     3
370
     9
100
AcDbLine
 10
-714.765300355857
 20
75.67941809778192
 30
0.0
 11
-708.7652558166889
 21
75.67941809778192
 31
0.0
  0
LINE
  5
493
330
1F
100
AcDbEntity
  8
B-0
  6
Continuous
 62
     3
370
     9
100
AcDbLine
 10
-704.5226216878091
 20
75.67941809778192
 30
0.0
 11
-711.2976168214925
 21
82.45444416144325
 31
0.0
  0
LINE
  5
494
330
1F
100
AcDbEntity
  8
B-0
  6
Continuous
 62
     3
370
     9
100
AcDbLine
 10
-700.2799875589291
 20
75.67941809778192
 30
0.0
 11
-707.0550136225905
 21
82.45444416144325
 31
0.0
  0
LINE
  5
495
330
1F
100
AcDbEntity
  8
B-0
  6
Continuous
 62
     3
370
     9
100
AcDbLine
 10
-698.7652846846681
 20
78.40731842242293
 30
0.0
 11
-702.8123485637327
 21
82.45444416144325
 31
0.0
  0
LINE
  5
496
330
1F
100
AcDbEntity
  8
B-0
  6
Continuous
 62
     3
370
     9
100
AcDbLine
 10
-692.7652710754779
 20
83.22942568593648
 30
0.0
 11
-692.7652710754779
 21
89.22947022510458
 31
0.0
  0
LINE
  5
497
330
1F
100
AcDbEntity
  8
B-0
  6
Continuous
 62
     3
370
     9
100
AcDbLine
 10
-686.7652574662877
 20
89.22947022510458
 30
0.0
 11
-692.7652710754779
 21
83.22942568593648
 31
0.0
  0
LINE
  5
498
330
1F
100
AcDbEntity
  8
B-0
  6
Continuous
 62
     3
370
     9
100
AcDbLine
 10
-678.279989208528
 20
89.22947022510458
 30
0.0
 11
-682.5226233374078
 21
89.22947022510458
 31
0.0
  0
LINE
  5
499
330
1F
100
AcDbEntity
  8
B-0
  6
Continuous
 62
     3
370
     9
100
AcDbLine
 10
-676.765286334267
 20
82.45444416144325
 30
0.0
 11
-676.765286334267
 21
86.50150804050783
 31
0.0
  0
LINE
  5
49A
330
1F
100
AcDbEntity
  8
B-0
  6
Continuous
 62
     3
370
     9
100
AcDbLine
 10
-692.7652710754779
 20
89.22947022510458
 30
0.0
 11
-686.7652574662877
 21
89.22947022510458
 31
0.0
  0
LINE
  5
49B
330
1F
100
AcDbEntity
  8
B-0
  6
Continuous
 62
     3
370
     9
100
AcDbLine
 10
-682.5226233374078
 20
89.22947022510458
 30
0.0
 11
-689.2976184710914
 21
82.45444416144325
 31
0.0
  0
LINE
  5
49C
330
1F
100
AcDbEntity
  8
B-0
  6
Continuous
 62
     3
370
     9
100
AcDbLine
 10
-678.279989208528
 20
89.22947022510458
 30
0.0
 11
-685.0550152721893
 21
82.45444416144325
 31
0.0
  0
LINE
  5
49D
330
1F
100
AcDbEntity
  8
B-0
  6
Continuous
 62
     3
370
     9
100
AcDbLine
 10
-676.765286334267
 20
86.50150804050783
 30
0.0
 11
-680.8123502133317
 21
82.45444416144325
 31
0.0
  0
LINE
  5
49E
330
1F
100
AcDbEntity
  8
B-0
  6
Continuous
 62
     3
370
     9
100
AcDbLine
 10
-692.7652710754779
 20
81.67940077699429
 30
0.0
 11
-692.7652710754779
 21
75.67941809778192
 31
0.0
  0
LINE
  5
49F
330
1F
100
AcDbEntity
  8
B-0
  6
Continuous
 62
     3
370
     9
100
AcDbLine
 10
-686.7652574662877
 20
75.67941809778192
 30
0.0
 11
-692.7652710754779
 21
81.67940077699429
 31
0.0
  0
LINE
  5
4A0
330
1F
100
AcDbEntity
  8
B-0
  6
Continuous
 62
     3
370
     9
100
AcDbLine
 10
-678.279989208528
 20
75.67941809778192
 30
0.0
 11
-682.5226233374078
 21
75.67941809778192
 31
0.0
  0
LINE
  5
4A1
330
1F
100
AcDbEntity
  8
B-0
  6
Continuous
 62
     3
370
     9
100
AcDbLine
 10
-676.765286334267
 20
82.45444416144325
 30
0.0
 11
-676.765286334267
 21
78.40731842242293
 31
0.0
  0
LINE
  5
4A2
330
1F
100
AcDbEntity
  8
B-0
  6
Continuous
 62
     3
370
     9
100
AcDbLine
 10
-692.7652710754779
 20
75.67941809778192
 30
0.0
 11
-686.7652574662877
 21
75.67941809778192
 31
0.0
  0
LINE
  5
4A3
330
1F
100
AcDbEntity
  8
B-0
  6
Continuous
 62
     3
370
     9
100
AcDbLine
 10
-682.5226233374078
 20
75.67941809778192
 30
0.0
 11
-689.2976184710914
 21
82.45444416144325
 31
0.0
  0
LINE
  5
4A4
330
1F
100
AcDbEntity
  8
B-0
  6
Continuous
 62
     3
370
     9
100
AcDbLine
 10
-678.279989208528
 20
75.67941809778192
 30
0.0
 11
-685.0550152721893
 21
82.45444416144325
 31
0.0
  0
LINE
  5
4A5
330
1F
100
AcDbEntity
  8
B-0
  6
Continuous
 62
     3
370
     9
100
AcDbLine
 10
-676.765286334267
 20
78.40731842242293
 30
0.0
 11
-680.8123502133317
 21
82.45444416144325
 31
0.0
  0
LINE
  5
4A6
330
1F
100
AcDbEntity
  8
B-0
  6
Continuous
 62
     3
370
     9
100
AcDbLine
 10
-670.7652727250768
 20
83.22942568593648
 30
0.0
 11
-670.7652727250768
 21
89.22947022510458
 31
0.0
  0
LINE
  5
4A7
330
1F
100
AcDbEntity
  8
B-0
  6
Continuous
 62
     3
370
     9
100
AcDbLine
 10
-664.7652591158865
 20
89.22947022510458
 30
0.0
 11
-670.7652727250768
 21
83.22942568593648
 31
0.0
  0
LINE
  5
4A8
330
1F
100
AcDbEntity
  8
B-0
  6
Continuous
 62
     3
370
     9
100
AcDbLine
 10
-656.2799599281489
 20
89.22947022510458
 30
0.0
 11
-660.5225940570289
 21
89.22947022510458
 31
0.0
  0
LINE
  5
4A9
330
1F
100
AcDbEntity
  8
B-0
  6
Continuous
 62
     3
370
     9
100
AcDbLine
 10
-654.7652261239101
 20
82.45444416144325
 30
0.0
 11
-654.7652261239101
 21
86.50150804050783
 31
0.0
  0
LINE
  5
4AA
330
1F
100
AcDbEntity
  8
B-0
  6
Continuous
 62
     3
370
     9
100
AcDbLine
 10
-670.7652727250768
 20
89.22947022510458
 30
0.0
 11
-664.7652591158865
 21
89.22947022510458
 31
0.0
  0
LINE
  5
4AB
330
1F
100
AcDbEntity
  8
B-0
  6
Continuous
 62
     3
370
     9
100
AcDbLine
 10
-660.5225940570289
 20
89.22947022510458
 30
0.0
 11
-667.2976201206902
 21
82.45444416144325
 31
0.0
  0
LINE
  5
4AC
330
1F
100
AcDbEntity
  8
B-0
  6
Continuous
 62
     3
370
     9
100
AcDbLine
 10
-656.2799599281489
 20
89.22947022510458
 30
0.0
 11
-663.0549550618325
 21
82.45444416144325
 31
0.0
  0
LINE
  5
4AD
330
1F
100
AcDbEntity
  8
B-0
  6
Continuous
 62
     3
370
     9
100
AcDbLine
 10
-654.7652261239101
 20
86.50150804050783
 30
0.0
 11
-658.8122900029748
 21
82.45444416144325
 31
0.0
  0
LINE
  5
4AE
330
1F
100
AcDbEntity
  8
B-0
  6
Continuous
 62
     3
370
     9
100
AcDbLine
 10
-670.7652727250768
 20
81.67940077699429
 30
0.0
 11
-670.7652727250768
 21
75.67941809778192
 31
0.0
  0
LINE
  5
4AF
330
1F
100
AcDbEntity
  8
B-0
  6
Continuous
 62
     3
370
     9
100
AcDbLine
 10
-664.7652591158865
 20
75.67941809778192
 30
0.0
 11
-670.7652727250768
 21
81.67940077699429
 31
0.0
  0
LINE
  5
4B0
330
1F
100
AcDbEntity
  8
B-0
  6
Continuous
 62
     3
370
     9
100
AcDbLine
 10
-656.2799599281489
 20
75.67941809778192
 30
0.0
 11
-660.5225940570289
 21
75.67941809778192
 31
0.0
  0
LINE
  5
4B1
330
1F
100
AcDbEntity
  8
B-0
  6
Continuous
 62
     3
370
     9
100
AcDbLine
 10
-654.7652261239101
 20
82.45444416144325
 30
0.0
 11
-654.7652261239101
 21
78.40731842242293
 31
0.0
  0
LINE
  5
4B2
330
1F
100
AcDbEntity
  8
B-0
  6
Continuous
 62
     3
370
     9
100
AcDbLine
 10
-670.7652727250768
 20
75.67941809778192
 30
0.0
 11
-664.7652591158865
 21
75.67941809778192
 31
0.0
  0
LINE
  5
4B3
330
1F
100
AcDbEntity
  8
B-0
  6
Continuous
 62
     3
370
     9
100
AcDbLine
 10
-660.5225940570289
 20
75.67941809778192
 30
0.0
 11
-667.2976201206902
 21
82.45444416144325
 31
0.0
  0
LINE
  5
4B4
330
1F
100
AcDbEntity
  8
B-0
  6
Continuous
 62
     3
370
     9
100
AcDbLine
 10
-656.2799599281489
 20
75.67941809778192
 30
0.0
 11
-663.0549550618325
 21
82.45444416144325
 31
0.0
  0
LINE
  5
4B5
330
1F
100
AcDbEntity
  8
B-0
  6
Continuous
 62
     3
370
     9
100
AcDbLine
 10
-654.7652261239101
 20
78.40731842242293
 30
0.0
 11
-658.8122900029748
 21
82.45444416144325
 31
0.0
  0
LINE
  5
4B6
330
1F
100
AcDbEntity
  8
B-0
  6
Continuous
 62
     3
370
     9
100
AcDbLine
 10
-648.7652434446977
 20
83.22942568593648
 30
0.0
 11
-648.7652434446977
 21
89.22947022510458
 31
0.0
  0
LINE
  5
4B7
330
1F
100
AcDbEntity
  8
B-0
  6
Continuous
 62
     3
370
     9
100
AcDbLine
 10
-642.7652607654853
 20
89.22947022510458
 30
0.0
 11
-648.7652434446977
 21
83.22942568593648
 31
0.0
  0
LINE
  5
4B8
330
1F
100
AcDbEntity
  8
B-0
  6
Continuous
 62
     3
370
     9
100
AcDbLine
 10
-634.2799615777477
 20
89.22947022510458
 30
0.0
 11
-638.5225957066277
 21
89.22947022510458
 31
0.0
  0
LINE
  5
4B9
330
1F
100
AcDbEntity
  8
B-0
  6
Continuous
 62
     3
370
     9
100
AcDbLine
 10
-632.7652277735091
 20
82.45444416144325
 30
0.0
 11
-632.7652277735091
 21
86.50150804050783
 31
0.0
  0
LINE
  5
4BA
330
1F
100
AcDbEntity
  8
B-0
  6
Continuous
 62
     3
370
     9
100
AcDbLine
 10
-648.7652434446977
 20
89.22947022510458
 30
0.0
 11
-642.7652607654853
 21
89.22947022510458
 31
0.0
  0
LINE
  5
4BB
330
1F
100
AcDbEntity
  8
B-0
  6
Continuous
 62
     3
370
     9
100
AcDbLine
 10
-638.5225957066277
 20
89.22947022510458
 30
0.0
 11
-645.297621770289
 21
82.45444416144325
 31
0.0
  0
LINE
  5
4BC
330
1F
100
AcDbEntity
  8
B-0
  6
Continuous
 62
     3
370
     9
100
AcDbLine
 10
-634.2799615777477
 20
89.22947022510458
 30
0.0
 11
-641.0549567114313
 21
82.45444416144325
 31
0.0
  0
LINE
  5
4BD
330
1F
100
AcDbEntity
  8
B-0
  6
Continuous
 62
     3
370
     9
100
AcDbLine
 10
-632.7652277735091
 20
86.50150804050783
 30
0.0
 11
-636.8122916525737
 21
82.45444416144325
 31
0.0
  0
LINE
  5
4BE
330
1F
100
AcDbEntity
  8
B-0
  6
Continuous
 62
     3
370
     9
100
AcDbLine
 10
-648.7652434446977
 20
81.67940077699429
 30
0.0
 11
-648.7652434446977
 21
75.67941809778192
 31
0.0
  0
LINE
  5
4BF
330
1F
100
AcDbEntity
  8
B-0
  6
Continuous
 62
     3
370
     9
100
AcDbLine
 10
-642.7652607654853
 20
75.67941809778192
 30
0.0
 11
-648.7652434446977
 21
81.67940077699429
 31
0.0
  0
LINE
  5
4C0
330
1F
100
AcDbEntity
  8
B-0
  6
Continuous
 62
     3
370
     9
100
AcDbLine
 10
-634.2799615777477
 20
75.67941809778192
 30
0.0
 11
-638.5225957066277
 21
75.67941809778192
 31
0.0
  0
LINE
  5
4C1
330
1F
100
AcDbEntity
  8
B-0
  6
Continuous
 62
     3
370
     9
100
AcDbLine
 10
-632.7652277735091
 20
82.45444416144325
 30
0.0
 11
-632.7652277735091
 21
78.40731842242293
 31
0.0
  0
LINE
  5
4C2
330
1F
100
AcDbEntity
  8
B-0
  6
Continuous
 62
     3
370
     9
100
AcDbLine
 10
-648.7652434446977
 20
75.67941809778192
 30
0.0
 11
-642.7652607654853
 21
75.67941809778192
 31
0.0
  0
LINE
  5
4C3
330
1F
100
AcDbEntity
  8
B-0
  6
Continuous
 62
     3
370
     9
100
AcDbLine
 10
-638.5225957066277
 20
75.67941809778192
 30
0.0
 11
-645.297621770289
 21
82.45444416144325
 31
0.0
  0
LINE
  5
4C4
330
1F
100
AcDbEntity
  8
B-0
  6
Continuous
 62
     3
370
     9
100
AcDbLine
 10
-634.2799615777477
 20
75.67941809778192
 30
0.0
 11
-641.0549567114313
 21
82.45444416144325
 31
0.0
  0
LINE
  5
4C5
330
1F
100
AcDbEntity
  8
B-0
  6
Continuous
 62
     3
370
     9
100
AcDbLine
 10
-632.7652277735091
 20
78.40731842242293
 30
0.0
 11
-636.8122916525737
 21
82.45444416144325
 31
0.0
  0
LINE
  5
4C6
330
1F
100
AcDbEntity
  8
B-0
  6
Continuous
 62
     3
370
     9
100
AcDbLine
 10
-731.0078998431617
 20
118.1295544467898
 30
0.0
 11
-735.2505339720416
 21
118.1295544467898
 31
0.0
  0
LINE
  5
4C7
330
1F
100
AcDbEntity
  8
B-0
  6
Continuous
 62
     3
370
     9
100
AcDbLine
 10
-726.7652657142817
 20
118.1295544467898
 30
0.0
 11
-720.7652830350695
 21
118.1295544467898
 31
0.0
  0
LINE
  5
4C8
330
1F
100
AcDbEntity
  8
B-0
  6
Continuous
 62
     3
370
     9
100
AcDbLine
 10
-726.7652657142817
 20
118.1295544467898
 30
0.0
 11
-720.7652830350695
 21
112.1295099076217
 31
0.0
  0
LINE
  5
4C9
330
1F
100
AcDbEntity
  8
B-0
  6
Continuous
 62
     3
370
     9
100
AcDbLine
 10
-720.7652830350695
 20
112.1295099076217
 30
0.0
 11
-720.7652830350695
 21
118.1295544467898
 31
0.0
  0
LINE
  5
4CA
330
1F
100
AcDbEntity
  8
B-0
  6
Continuous
 62
     3
370
     9
100
AcDbLine
 10
-736.7652677762804
 20
111.1295437243975
 30
0.0
 11
-736.7652677762804
 21
115.401592262193
 31
0.0
  0
LINE
  5
4CB
330
1F
100
AcDbEntity
  8
B-0
  6
Continuous
 62
     3
370
     9
100
AcDbLine
 10
-736.7652677762804
 20
115.401592262193
 30
0.0
 11
-732.4931573785291
 21
111.1295437243975
 31
0.0
  0
LINE
  5
4CC
330
1F
100
AcDbEntity
  8
B-0
  6
Continuous
 62
     3
370
     9
100
AcDbLine
 10
-735.2505339720416
 20
118.1295544467898
 30
0.0
 11
-728.2505232496492
 21
111.1295437243975
 31
0.0
  0
LINE
  5
4CD
330
1F
100
AcDbEntity
  8
B-0
  6
Continuous
 62
     3
370
     9
100
AcDbLine
 10
-731.0078998431617
 20
118.1295544467898
 30
0.0
 11
-724.0078891207693
 21
111.1295437243975
 31
0.0
  0
LINE
  5
4CE
330
1F
100
AcDbEntity
  8
B-0
  6
Continuous
 62
     3
370
     9
100
AcDbLine
 10
-731.0078998431617
 20
104.1294711420494
 30
0.0
 11
-735.2505339720416
 21
104.1294711420494
 31
0.0
  0
LINE
  5
4CF
330
1F
100
AcDbEntity
  8
B-0
  6
Continuous
 62
     3
370
     9
100
AcDbLine
 10
-726.7652657142817
 20
104.1294711420494
 30
0.0
 11
-720.7652830350695
 21
104.1294711420494
 31
0.0
  0
LINE
  5
4D0
330
1F
100
AcDbEntity
  8
B-0
  6
Continuous
 62
     3
370
     9
100
AcDbLine
 10
-726.7652657142817
 20
104.1294711420494
 30
0.0
 11
-720.7652830350695
 21
110.1295156812175
 31
0.0
  0
LINE
  5
4D1
330
1F
100
AcDbEntity
  8
B-0
  6
Continuous
 62
     3
370
     9
100
AcDbLine
 10
-720.7652830350695
 20
110.1295156812175
 30
0.0
 11
-720.7652830350695
 21
104.1294711420494
 31
0.0
  0
LINE
  5
4D2
330
1F
100
AcDbEntity
  8
B-0
  6
Continuous
 62
     3
370
     9
100
AcDbLine
 10
-736.7652677762804
 20
111.1295437243975
 30
0.0
 11
-736.7652677762804
 21
106.8574333266462
 31
0.0
  0
LINE
  5
4D3
330
1F
100
AcDbEntity
  8
B-0
  6
Continuous
 62
     3
370
     9
100
AcDbLine
 10
-736.7652677762804
 20
106.8574333266462
 30
0.0
 11
-732.4931573785291
 21
111.1295437243975
 31
0.0
  0
LINE
  5
4D4
330
1F
100
AcDbEntity
  8
B-0
  6
Continuous
 62
     3
370
     9
100
AcDbLine
 10
-735.2505339720416
 20
104.1294711420494
 30
0.0
 11
-728.2505232496492
 21
111.1295437243975
 31
0.0
  0
LINE
  5
4D5
330
1F
100
AcDbEntity
  8
B-0
  6
Continuous
 62
     3
370
     9
100
AcDbLine
 10
-731.0078998431617
 20
104.1294711420494
 30
0.0
 11
-724.0078891207693
 21
111.1295437243975
 31
0.0
  0
LINE
  5
4D6
330
1F
100
AcDbEntity
  8
B-0
  6
Continuous
 62
     3
370
     9
100
AcDbLine
 10
-709.0079014927605
 20
118.1295544467898
 30
0.0
 11
-713.2505356216403
 21
118.1295544467898
 31
0.0
  0
LINE
  5
4D7
330
1F
100
AcDbEntity
  8
B-0
  6
Continuous
 62
     3
370
     9
100
AcDbLine
 10
-704.7652673638806
 20
118.1295544467898
 30
0.0
 11
-698.7652846846681
 21
118.1295544467898
 31
0.0
  0
LINE
  5
4D8
330
1F
100
AcDbEntity
  8
B-0
  6
Continuous
 62
     3
370
     9
100
AcDbLine
 10
-704.7652673638806
 20
118.1295544467898
 30
0.0
 11
-698.7652846846681
 21
112.1295099076217
 31
0.0
  0
LINE
  5
4D9
330
1F
100
AcDbEntity
  8
B-0
  6
Continuous
 62
     3
370
     9
100
AcDbLine
 10
-698.7652846846681
 20
112.1295099076217
 30
0.0
 11
-698.7652846846681
 21
118.1295544467898
 31
0.0
  0
LINE
  5
4DA
330
1F
100
AcDbEntity
  8
B-0
  6
Continuous
 62
     3
370
     9
100
AcDbLine
 10
-714.765300355857
 20
111.1295437243975
 30
0.0
 11
-714.765300355857
 21
115.401592262193
 31
0.0
  0
LINE
  5
4DB
330
1F
100
AcDbEntity
  8
B-0
  6
Continuous
 62
     3
370
     9
100
AcDbLine
 10
-714.765300355857
 20
115.401592262193
 30
0.0
 11
-710.4931899581056
 21
111.1295437243975
 31
0.0
  0
LINE
  5
4DC
330
1F
100
AcDbEntity
  8
B-0
  6
Continuous
 62
     3
370
     9
100
AcDbLine
 10
-713.2505356216403
 20
118.1295544467898
 30
0.0
 11
-706.2505248992479
 21
111.1295437243975
 31
0.0
  0
LINE
  5
4DD
330
1F
100
AcDbEntity
  8
B-0
  6
Continuous
 62
     3
370
     9
100
AcDbLine
 10
-709.0079014927605
 20
118.1295544467898
 30
0.0
 11
-702.0078598403903
 21
111.1295437243975
 31
0.0
  0
LINE
  5
4DE
330
1F
100
AcDbEntity
  8
B-0
  6
Continuous
 62
     3
370
     9
100
AcDbLine
 10
-709.0079014927605
 20
104.1294711420494
 30
0.0
 11
-713.2505356216403
 21
104.1294711420494
 31
0.0
  0
LINE
  5
4DF
330
1F
100
AcDbEntity
  8
B-0
  6
Continuous
 62
     3
370
     9
100
AcDbLine
 10
-704.7652673638806
 20
104.1294711420494
 30
0.0
 11
-698.7652846846681
 21
104.1294711420494
 31
0.0
  0
LINE
  5
4E0
330
1F
100
AcDbEntity
  8
B-0
  6
Continuous
 62
     3
370
     9
100
AcDbLine
 10
-704.7652673638806
 20
104.1294711420494
 30
0.0
 11
-698.7652846846681
 21
110.1295156812175
 31
0.0
  0
LINE
  5
4E1
330
1F
100
AcDbEntity
  8
B-0
  6
Continuous
 62
     3
370
     9
100
AcDbLine
 10
-698.7652846846681
 20
110.1295156812175
 30
0.0
 11
-698.7652846846681
 21
104.1294711420494
 31
0.0
  0
LINE
  5
4E2
330
1F
100
AcDbEntity
  8
B-0
  6
Continuous
 62
     3
370
     9
100
AcDbLine
 10
-714.765300355857
 20
111.1295437243975
 30
0.0
 11
-714.765300355857
 21
106.8574333266462
 31
0.0
  0
LINE
  5
4E3
330
1F
100
AcDbEntity
  8
B-0
  6
Continuous
 62
     3
370
     9
100
AcDbLine
 10
-714.765300355857
 20
106.8574333266462
 30
0.0
 11
-710.4931899581056
 21
111.1295437243975
 31
0.0
  0
LINE
  5
4E4
330
1F
100
AcDbEntity
  8
B-0
  6
Continuous
 62
     3
370
     9
100
AcDbLine
 10
-713.2505356216403
 20
104.1294711420494
 30
0.0
 11
-706.2505248992479
 21
111.1295437243975
 31
0.0
  0
LINE
  5
4E5
330
1F
100
AcDbEntity
  8
B-0
  6
Continuous
 62
     3
370
     9
100
AcDbLine
 10
-709.0079014927605
 20
104.1294711420494
 30
0.0
 11
-702.0078598403903
 21
111.1295437243975
 31
0.0
  0
LINE
  5
4E6
330
1F
100
AcDbEntity
  8
B-0
  6
Continuous
 62
     3
370
     9
100
AcDbLine
 10
-687.0079031423593
 20
118.1295544467898
 30
0.0
 11
-691.2505372712392
 21
118.1295544467898
 31
0.0
  0
LINE
  5
4E7
330
1F
100
AcDbEntity
  8
B-0
  6
Continuous
 62
     3
370
     9
100
AcDbLine
 10
-682.7652690134794
 20
118.1295544467898
 30
0.0
 11
-676.765286334267
 21
118.1295544467898
 31
0.0
  0
LINE
  5
4E8
330
1F
100
AcDbEntity
  8
B-0
  6
Continuous
 62
     3
370
     9
100
AcDbLine
 10
-682.7652690134794
 20
118.1295544467898
 30
0.0
 11
-676.765286334267
 21
112.1295099076217
 31
0.0
  0
LINE
  5
4E9
330
1F
100
AcDbEntity
  8
B-0
  6
Continuous
 62
     3
370
     9
100
AcDbLine
 10
-676.765286334267
 20
112.1295099076217
 30
0.0
 11
-676.765286334267
 21
118.1295544467898
 31
0.0
  0
LINE
  5
4EA
330
1F
100
AcDbEntity
  8
B-0
  6
Continuous
 62
     3
370
     9
100
AcDbLine
 10
-692.7652710754779
 20
111.1295437243975
 30
0.0
 11
-692.7652710754779
 21
115.401592262193
 31
0.0
  0
LINE
  5
4EB
330
1F
100
AcDbEntity
  8
B-0
  6
Continuous
 62
     3
370
     9
100
AcDbLine
 10
-692.7652710754779
 20
115.401592262193
 30
0.0
 11
-688.4931606777268
 21
111.1295437243975
 31
0.0
  0
LINE
  5
4EC
330
1F
100
AcDbEntity
  8
B-0
  6
Continuous
 62
     3
370
     9
100
AcDbLine
 10
-691.2505372712392
 20
118.1295544467898
 30
0.0
 11
-684.250495618869
 21
111.1295437243975
 31
0.0
  0
LINE
  5
4ED
330
1F
100
AcDbEntity
  8
B-0
  6
Continuous
 62
     3
370
     9
100
AcDbLine
 10
-687.0079031423593
 20
118.1295544467898
 30
0.0
 11
-680.007892419967
 21
111.1295437243975
 31
0.0
  0
LINE
  5
4EE
330
1F
100
AcDbEntity
  8
B-0
  6
Continuous
 62
     3
370
     9
100
AcDbLine
 10
-687.0079031423593
 20
104.1294711420494
 30
0.0
 11
-691.2505372712392
 21
104.1294711420494
 31
0.0
  0
LINE
  5
4EF
330
1F
100
AcDbEntity
  8
B-0
  6
Continuous
 62
     3
370
     9
100
AcDbLine
 10
-682.7652690134794
 20
104.1294711420494
 30
0.0
 11
-676.765286334267
 21
104.1294711420494
 31
0.0
  0
LINE
  5
4F0
330
1F
100
AcDbEntity
  8
B-0
  6
Continuous
 62
     3
370
     9
100
AcDbLine
 10
-682.7652690134794
 20
104.1294711420494
 30
0.0
 11
-676.765286334267
 21
110.1295156812175
 31
0.0
  0
LINE
  5
4F1
330
1F
100
AcDbEntity
  8
B-0
  6
Continuous
 62
     3
370
     9
100
AcDbLine
 10
-676.765286334267
 20
110.1295156812175
 30
0.0
 11
-676.765286334267
 21
104.1294711420494
 31
0.0
  0
LINE
  5
4F2
330
1F
100
AcDbEntity
  8
B-0
  6
Continuous
 62
     3
370
     9
100
AcDbLine
 10
-692.7652710754779
 20
111.1295437243975
 30
0.0
 11
-692.7652710754779
 21
106.8574333266462
 31
0.0
  0
LINE
  5
4F3
330
1F
100
AcDbEntity
  8
B-0
  6
Continuous
 62
     3
370
     9
100
AcDbLine
 10
-692.7652710754779
 20
106.8574333266462
 30
0.0
 11
-688.4931606777268
 21
111.1295437243975
 31
0.0
  0
LINE
  5
4F4
330
1F
100
AcDbEntity
  8
B-0
  6
Continuous
 62
     3
370
     9
100
AcDbLine
 10
-691.2505372712392
 20
104.1294711420494
 30
0.0
 11
-684.250495618869
 21
111.1295437243975
 31
0.0
  0
LINE
  5
4F5
330
1F
100
AcDbEntity
  8
B-0
  6
Continuous
 62
     3
370
     9
100
AcDbLine
 10
-687.0079031423593
 20
104.1294711420494
 30
0.0
 11
-680.007892419967
 21
111.1295437243975
 31
0.0
  0
LINE
  5
4F6
330
1F
100
AcDbEntity
  8
B-0
  6
Continuous
 62
     3
370
     9
100
AcDbLine
 10
-665.0079357219358
 20
118.1295544467898
 30
0.0
 11
-669.2505389208379
 21
118.1295544467898
 31
0.0
  0
LINE
  5
4F7
330
1F
100
AcDbEntity
  8
B-0
  6
Continuous
 62
     3
370
     9
100
AcDbLine
 10
-660.7652397331004
 20
118.1295544467898
 30
0.0
 11
-654.7652261239101
 21
118.1295544467898
 31
0.0
  0
LINE
  5
4F8
330
1F
100
AcDbEntity
  8
B-0
  6
Continuous
 62
     3
370
     9
100
AcDbLine
 10
-660.7652397331004
 20
118.1295544467898
 30
0.0
 11
-654.7652261239101
 21
112.1295099076217
 31
0.0
  0
LINE
  5
4F9
330
1F
100
AcDbEntity
  8
B-0
  6
Continuous
 62
     3
370
     9
100
AcDbLine
 10
-654.7652261239101
 20
112.1295099076217
 30
0.0
 11
-654.7652261239101
 21
118.1295544467898
 31
0.0
  0
LINE
  5
4FA
330
1F
100
AcDbEntity
  8
B-0
  6
Continuous
 62
     3
370
     9
100
AcDbLine
 10
-670.7652727250768
 20
111.1295437243975
 30
0.0
 11
-670.7652727250768
 21
115.401592262193
 31
0.0
  0
LINE
  5
4FB
330
1F
100
AcDbEntity
  8
B-0
  6
Continuous
 62
     3
370
     9
100
AcDbLine
 10
-670.7652727250768
 20
115.401592262193
 30
0.0
 11
-666.4931313973476
 21
111.1295437243975
 31
0.0
  0
LINE
  5
4FC
330
1F
100
AcDbEntity
  8
B-0
  6
Continuous
 62
     3
370
     9
100
AcDbLine
 10
-669.2505389208379
 20
118.1295544467898
 30
0.0
 11
-662.2505281984456
 21
111.1295437243975
 31
0.0
  0
LINE
  5
4FD
330
1F
100
AcDbEntity
  8
B-0
  6
Continuous
 62
     3
370
     9
100
AcDbLine
 10
-665.0079357219358
 20
118.1295544467898
 30
0.0
 11
-658.0078631395879
 21
111.1295437243975
 31
0.0
  0
LINE
  5
4FE
330
1F
100
AcDbEntity
  8
B-0
  6
Continuous
 62
     3
370
     9
100
AcDbLine
 10
-665.0079357219358
 20
104.1294711420494
 30
0.0
 11
-669.2505389208379
 21
104.1294711420494
 31
0.0
  0
LINE
  5
4FF
330
1F
100
AcDbEntity
  8
B-0
  6
Continuous
 62
     3
370
     9
100
AcDbLine
 10
-660.7652397331004
 20
104.1294711420494
 30
0.0
 11
-654.7652261239101
 21
104.1294711420494
 31
0.0
  0
LINE
  5
500
330
1F
100
AcDbEntity
  8
B-0
  6
Continuous
 62
     3
370
     9
100
AcDbLine
 10
-660.7652397331004
 20
104.1294711420494
 30
0.0
 11
-654.7652261239101
 21
110.1295156812175
 31
0.0
  0
LINE
  5
501
330
1F
100
AcDbEntity
  8
B-0
  6
Continuous
 62
     3
370
     9
100
AcDbLine
 10
-654.7652261239101
 20
110.1295156812175
 30
0.0
 11
-654.7652261239101
 21
104.1294711420494
 31
0.0
  0
LINE
  5
502
330
1F
100
AcDbEntity
  8
B-0
  6
Continuous
 62
     3
370
     9
100
AcDbLine
 10
-670.7652727250768
 20
111.1295437243975
 30
0.0
 11
-670.7652727250768
 21
106.8574333266462
 31
0.0
  0
LINE
  5
503
330
1F
100
AcDbEntity
  8
B-0
  6
Continuous
 62
     3
370
     9
100
AcDbLine
 10
-670.7652727250768
 20
106.8574333266462
 30
0.0
 11
-666.4931313973476
 21
111.1295437243975
 31
0.0
  0
LINE
  5
504
330
1F
100
AcDbEntity
  8
B-0
  6
Continuous
 62
     3
370
     9
100
AcDbLine
 10
-669.2505389208379
 20
104.1294711420494
 30
0.0
 11
-662.2505281984456
 21
111.1295437243975
 31
0.0
  0
LINE
  5
505
330
1F
100
AcDbEntity
  8
B-0
  6
Continuous
 62
     3
370
     9
100
AcDbLine
 10
-665.0079357219358
 20
104.1294711420494
 30
0.0
 11
-658.0078631395879
 21
111.1295437243975
 31
0.0
  0
TEXT
  5
506
330
1F
100
AcDbEntity
  8
B-E
  6
Continuous
 62
     7
370
     9
100
AcDbText
 10
634.2982079614204
 20
172.5167328808267
 30
0.0
 40
11.43
  1
ＳＷＲＭ，溶融亜鉛めっき
 41
1.152777777777778
  7
ＭＳ ゴシック
100
AcDbText
  0
TEXT
  5
507
330
1F
100
AcDbEntity
  8
B-E
  6
Continuous
 62
     7
370
     9
100
AcDbText
 10
635.7206199058356
 20
197.8986150070936
 30
0.0
 40
11.43
  1
鎖：φ６×３００（両シャックル）
 41
1.15625
  7
ＭＳ ゴシック
100
AcDbText
  0
LINE
  5
508
330
1F
100
AcDbEntity
  8
B-E
  6
Continuous
 62
     7
370
     9
100
AcDbLine
 10
627.9528858937472
 20
191.5533219393676
 30
0.0
 11
906.0193440991886
 21
191.5533219393676
 31
0.0
  0
TEXT
  5
509
330
1F
100
AcDbEntity
  8
B-E
  6
Continuous
 62
     7
370
     9
100
AcDbText
 10
567.1452670566485
 20
-44.37379809204072
 30
0.0
 40
11.43
  1
Ｓ２０Ｃ，溶融亜鉛めっき
 41
1.152777777777778
  7
ＭＳ ゴシック
100
AcDbText
  0
ENDSEC
  0
SECTION
  2
OBJECTS
  0
DICTIONARY
  5
C
330
0
100
AcDbDictionary
281
     1
  3
ACAD_DETAILVIEWSTYLE
350
511
  3
ACAD_GROUP
350
D
  3
ACAD_LAYOUT
350
1A
  3
ACAD_MATERIAL
350
43
  3
ACAD_MLEADERSTYLE
350
6B
  3
ACAD_MLINESTYLE
350
17
  3
ACAD_PLOTSETTINGS
350
19
  3
ACAD_PLOTSTYLENAME
350
E
  3
ACAD_SCALELIST
350
47
  3
ACAD_SECTIONVIEWSTYLE
350
512
  3
ACAD_TABLESTYLE
350
69
  3
ACAD_VISUALSTYLE
350
2A
  3
ACDB_RECOMPOSE_DATA
350
50E
  3
AcDbVariableDictionary
350
50A
  0
SUN
  5
6D
330
29
100
AcDbSun
 90
        1
290
     0
 63
     7
421
 16777215
 40
1.0
291
     1
 91
  2455826
 92
 54000000
292
     0
 70
     2
 71
   256
280
     1
  0
DICTIONARY
  5
511
102
{ACAD_REACTORS
330
C
102
}
330
C
100
AcDbDictionary
281
     1
  0
DICTIONARY
  5
D
102
{ACAD_REACTORS
330
C
102
}
330
C
100
AcDbDictionary
281
     1
  0
DICTIONARY
  5
1A
102
{ACAD_REACTORS
330
C
102
}
330
C
100
AcDbDictionary
281
     1
  3
Layout1
350
1E
  3
Layout2
350
26
  3
Model
350
22
  0
DICTIONARY
  5
43
102
{ACAD_REACTORS
330
C
102
}
330
C
100
AcDbDictionary
281
     1
  3
ByBlock
350
45
  3
ByLayer
350
44
  3
Global
350
46
  0
DICTIONARY
  5
6B
102
{ACAD_REACTORS
330
C
102
}
330
C
100
AcDbDictionary
281
     1
  3
Standard
350
6C
  0
DICTIONARY
  5
17
102
{ACAD_REACTORS
330
C
102
}
330
C
100
AcDbDictionary
281
     1
  3
Standard
350
18
  0
DICTIONARY
  5
19
102
{ACAD_REACTORS
330
C
102
}
330
C
100
AcDbDictionary
281
     1
  0
ACDBDICTIONARYWDFLT
  5
E
102
{ACAD_REACTORS
330
C
102
}
330
C
100
AcDbDictionary
281
     1
  3
Normal
350
F
100
AcDbDictionaryWithDefault
340
F
  0
DICTIONARY
  5
47
102
{ACAD_REACTORS
330
C
102
}
330
C
100
AcDbDictionary
281
     1
  3
A0
350
48
  3
A1
350
49
  3
A2
350
4A
  3
A3
350
4B
  3
A4
350
4C
  3
A5
350
4D
  3
A6
350
4E
  3
A7
350
4F
  3
A8
350
50
  3
A9
350
51
  3
B0
350
52
  3
B1
350
53
  3
B2
350
54
  3
B3
350
55
  3
B4
350
56
  3
B5
350
57
  3
B6
350
58
  3
B7
350
59
  3
B8
350
5A
  3
B9
350
5B
  3
C0
350
5C
  3
C1
350
5D
  3
C2
350
5E
  3
C3
350
5F
  3
C4
350
60
  3
C5
350
61
  3
C6
350
62
  3
C7
350
63
  3
C8
350
64
  3
C9
350
65
  3
D0
350
66
  3
D1
350
67
  3
D2
350
68
  0
DICTIONARY
  5
512
102
{ACAD_REACTORS
330
C
102
}
330
C
100
AcDbDictionary
281
     1
  0
DICTIONARY
  5
69
102
{ACAD_REACTORS
330
C
102
}
330
C
100
AcDbDictionary
281
     1
  3
Standard
350
6A
  0
DICTIONARY
  5
2A
102
{ACAD_REACTORS
330
C
102
}
330
C
100
AcDbDictionary
281
     1
  3
2dWireframe
350
2F
  3
Basic
350
32
  3
Brighten
350
36
  3
ColorChange
350
3A
  3
Conceptual
350
34
  3
Dim
350
35
  3
EdgeColorOff
350
3D
  3
Facepattern
350
39
  3
Flat
350
2B
  3
FlatWithEdges
350
2C
  3
Gouraud
350
2D
  3
GouraudWithEdges
350
2E
  3
Hidden
350
31
  3
JitterOff
350
3B
  3
Linepattern
350
38
  3
OverhangOff
350
3C
  3
Realistic
350
33
  3
Shaded
350
42
  3
Shaded with edges
350
41
  3
Shades of Gray
350
3E
  3
Sketchy
350
3F
  3
Thicken
350
37
  3
Wireframe
350
30
  3
X-Ray
350
40
  0
XRECORD
  5
50E
102
{ACAD_REACTORS
330
C
102
}
330
C
100
AcDbXrecord
280
     1
 90
        1
330
6A
  0
DICTIONARY
  5
50A
102
{ACAD_REACTORS
330
C
102
}
330
C
100
AcDbDictionary
281
     1
  3
CANNOSCALE
350
50B
  3
CENTEREXE
350
513
  3
CENTERLTYPEFILE
350
514
  3
CMLEADERSTYLE
350
510
  3
CTABLESTYLE
350
50F
  0
LAYOUT
  5
1E
102
{ACAD_REACTORS
330
1A
102
}
330
1A
100
AcDbPlotSettings
  1

  2
none_device
  4

  6

 40
0.0
 41
0.0
 42
0.0
 43
0.0
 44
0.0
 45
0.0
 46
0.0
 47
0.0
 48
0.0
 49
0.0
140
0.0
141
0.0
142
1.0
143
1.0
 70
   688
 72
     1
 73
     0
 74
     5
  7

 75
    16
 76
     0
 77
     5
 78
   300
147
1.0
148
0.0
149
0.0
100
AcDbLayout
  1
Layout1
 70
     1
 71
     1
 10
0.0
 20
0.0
 11
420.0
 21
297.0
 12
0.0
 22
0.0
 32
0.0
 14
1.000000000000000E+20
 24
1.000000000000000E+20
 34
1.000000000000000E+20
 15
-1.000000000000000E+20
 25
-1.000000000000000E+20
 35
-1.000000000000000E+20
146
0.0
 13
0.0
 23
0.0
 33
0.0
 16
1.0
 26
0.0
 36
0.0
 17
0.0
 27
1.0
 37
0.0
 76
     0
330
1B
  0
LAYOUT
  5
26
102
{ACAD_REACTORS
330
1A
102
}
330
1A
100
AcDbPlotSettings
  1

  2
none_device
  4

  6

 40
0.0
 41
0.0
 42
0.0
 43
0.0
 44
0.0
 45
0.0
 46
0.0
 47
0.0
 48
0.0
 49
0.0
140
0.0
141
0.0
142
1.0
143
1.0
 70
   688
 72
     1
 73
     0
 74
     5
  7

 75
    16
 76
     0
 77
     5
 78
   300
147
1.0
148
0.0
149
0.0
100
AcDbLayout
  1
Layout2
 70
     1
 71
     2
 10
0.0
 20
0.0
 11
0.0
 21
0.0
 12
0.0
 22
0.0
 32
0.0
 14
0.0
 24
0.0
 34
0.0
 15
0.0
 25
0.0
 35
0.0
146
0.0
 13
0.0
 23
0.0
 33
0.0
 16
1.0
 26
0.0
 36
0.0
 17
0.0
 27
1.0
 37
0.0
 76
     0
330
23
  0
LAYOUT
  5
22
102
{ACAD_REACTORS
330
1A
102
}
330
1A
100
AcDbPlotSettings
  1

  2
none_device
  4
Letter_(8.50_x_11.00_Inches)
  6

 40
6.35
 41
6.35
 42
6.35000508
 43
6.35000508
 44
215.9
 45
279.4
 46
0.0
 47
0.0
 48
0.0
 49
0.0
140
0.0
141
0.0
142
1.0
143
1.0
 70
  1712
 72
     1
 73
     0
 74
     0
  7

 75
     0
 76
     0
 77
     5
 78
   300
147
1.0
148
0.0
149
0.0
100
AcDbLayout
  1
Model
 70
     1
 71
     0
 10
-1050.0
 20
-742.5
 11
1050.0
 21
742.5
 12
0.0
 22
0.0
 32
0.0
 14
-1050.0
 24
-742.5
 34
0.0
 15
1050.0
 25
742.5
 35
0.0
146
0.0
 13
0.0
 23
0.0
 33
0.0
 16
1.0
 26
0.0
 36
0.0
 17
0.0
 27
1.0
 37
0.0
 76
     0
330
1F
331
29
  0
MATERIAL
  5
45
102
{ACAD_REACTORS
330
43
102
}
330
43
100
AcDbMaterial
  1
ByBlock
 72
     1
 94
      127
  0
MATERIAL
  5
44
102
{ACAD_REACTORS
330
43
102
}
330
43
100
AcDbMaterial
  1
ByLayer
 72
     1
 94
      127
  0
MATERIAL
  5
46
102
{ACAD_REACTORS
330
43
102
}
330
43
100
AcDbMaterial
  1
Global
 72
     1
 94
      127
  0
MLEADERSTYLE
  5
6C
102
{ACAD_REACTORS
330
6B
102
}
330
6B
100
AcDbMLeaderStyle
179
     2
170
     2
171
     1
172
     0
 90
        2
 40
0.0
 41
0.0
173
     1
 91
-1056964608
340
14
 92
       -2
290
     1
 42
2.0
291
     1
 43
8.0
  3
Standard
341
0
 44
4.0
300

342
11
174
     1
178
     6
175
     1
176
     0
 93
-1056964608
 45
4.0
292
     0
297
     0
 46
4.0
343
0
 94
-1056964608
 47
1.0
 49
1.0
140
1.0
293
     1
141
0.0
294
     1
177
     0
142
1.0
295
     0
296
     0
143
3.75
271
     0
272
     9
273
     9
298
     0
  0
MLINESTYLE
  5
18
102
{ACAD_REACTORS
330
17
102
}
330
17
100
AcDbMlineStyle
  2
Standard
 70
     0
  3

 62
   256
 51
90.0
 52
90.0
 71
     2
 49
0.5
 62
   256
  6
BYLAYER
 49
-0.5
 62
   256
  6
BYLAYER
  0
ACDBPLACEHOLDER
  5
F
102
{ACAD_REACTORS
330
E
102
}
330
E
  0
SCALE
  5
48
102
{ACAD_REACTORS
330
47
102
}
330
47
100
AcDbScale
 70
     0
300
1:1
140
1.0
141
1.0
290
     1
  0
SCALE
  5
49
102
{ACAD_REACTORS
330
47
102
}
330
47
100
AcDbScale
 70
     0
300
1:2
140
1.0
141
2.0
290
     0
  0
SCALE
  5
4A
102
{ACAD_REACTORS
330
47
102
}
330
47
100
AcDbScale
 70
     0
300
1:4
140
1.0
141
4.0
290
     0
  0
SCALE
  5
4B
102
{ACAD_REACTORS
330
47
102
}
330
47
100
AcDbScale
 70
     0
300
1:5
140
1.0
141
5.0
290
     0
  0
SCALE
  5
4C
102
{ACAD_REACTORS
330
47
102
}
330
47
100
AcDbScale
 70
     0
300
1:8
140
1.0
141
8.0
290
     0
  0
SCALE
  5
4D
102
{ACAD_REACTORS
330
47
102
}
330
47
100
AcDbScale
 70
     0
300
1:10
140
1.0
141
10.0
290
     0
  0
SCALE
  5
4E
102
{ACAD_REACTORS
330
47
102
}
330
47
100
AcDbScale
 70
     0
300
1:16
140
1.0
141
16.0
290
     0
  0
SCALE
  5
4F
102
{ACAD_REACTORS
330
47
102
}
330
47
100
AcDbScale
 70
     0
300
1:20
140
1.0
141
20.0
290
     0
  0
SCALE
  5
50
102
{ACAD_REACTORS
330
47
102
}
330
47
100
AcDbScale
 70
     0
300
1:30
140
1.0
141
30.0
290
     0
  0
SCALE
  5
51
102
{ACAD_REACTORS
330
47
102
}
330
47
100
AcDbScale
 70
     0
300
1:40
140
1.0
141
40.0
290
     0
  0
SCALE
  5
52
102
{ACAD_REACTORS
330
47
102
}
330
47
100
AcDbScale
 70
     0
300
1:50
140
1.0
141
50.0
290
     0
  0
SCALE
  5
53
102
{ACAD_REACTORS
330
47
102
}
330
47
100
AcDbScale
 70
     0
300
1:100
140
1.0
141
100.0
290
     0
  0
SCALE
  5
54
102
{ACAD_REACTORS
330
47
102
}
330
47
100
AcDbScale
 70
     0
300
2:1
140
2.0
141
1.0
290
     0
  0
SCALE
  5
55
102
{ACAD_REACTORS
330
47
102
}
330
47
100
AcDbScale
 70
     0
300
4:1
140
4.0
141
1.0
290
     0
  0
SCALE
  5
56
102
{ACAD_REACTORS
330
47
102
}
330
47
100
AcDbScale
 70
     0
300
8:1
140
8.0
141
1.0
290
     0
  0
SCALE
  5
57
102
{ACAD_REACTORS
330
47
102
}
330
47
100
AcDbScale
 70
     0
300
10:1
140
10.0
141
1.0
290
     0
  0
SCALE
  5
58
102
{ACAD_REACTORS
330
47
102
}
330
47
100
AcDbScale
 70
     0
300
100:1
140
100.0
141
1.0
290
     0
  0
SCALE
  5
59
102
{ACAD_REACTORS
330
47
102
}
330
47
100
AcDbScale
 70
     0
300
1/128" = 1'-0"
140
0.0078125
141
12.0
290
     0
  0
SCALE
  5
5A
102
{ACAD_REACTORS
330
47
102
}
330
47
100
AcDbScale
 70
     0
300
1/64" = 1'-0"
140
0.015625
141
12.0
290
     0
  0
SCALE
  5
5B
102
{ACAD_REACTORS
330
47
102
}
330
47
100
AcDbScale
 70
     0
300
1/32" = 1'-0"
140
0.03125
141
12.0
290
     0
  0
SCALE
  5
5C
102
{ACAD_REACTORS
330
47
102
}
330
47
100
AcDbScale
 70
     0
300
1/16" = 1'-0"
140
0.0625
141
12.0
290
     0
  0
SCALE
  5
5D
102
{ACAD_REACTORS
330
47
102
}
330
47
100
AcDbScale
 70
     0
300
3/32" = 1'-0"
140
0.09375
141
12.0
290
     0
  0
SCALE
  5
5E
102
{ACAD_REACTORS
330
47
102
}
330
47
100
AcDbScale
 70
     0
300
1/8" = 1'-0"
140
0.125
141
12.0
290
     0
  0
SCALE
  5
5F
102
{ACAD_REACTORS
330
47
102
}
330
47
100
AcDbScale
 70
     0
300
3/16" = 1'-0"
140
0.1875
141
12.0
290
     0
  0
SCALE
  5
60
102
{ACAD_REACTORS
330
47
102
}
330
47
100
AcDbScale
 70
     0
300
1/4" = 1'-0"
140
0.25
141
12.0
290
     0
  0
SCALE
  5
61
102
{ACAD_REACTORS
330
47
102
}
330
47
100
AcDbScale
 70
     0
300
3/8" = 1'-0"
140
0.375
141
12.0
290
     0
  0
SCALE
  5
62
102
{ACAD_REACTORS
330
47
102
}
330
47
100
AcDbScale
 70
     0
300
1/2" = 1'-0"
140
0.5
141
12.0
290
     0
  0
SCALE
  5
63
102
{ACAD_REACTORS
330
47
102
}
330
47
100
AcDbScale
 70
     0
300
3/4" = 1'-0"
140
0.75
141
12.0
290
     0
  0
SCALE
  5
64
102
{ACAD_REACTORS
330
47
102
}
330
47
100
AcDbScale
 70
     0
300
1" = 1'-0"
140
1.0
141
12.0
290
     0
  0
SCALE
  5
65
102
{ACAD_REACTORS
330
47
102
}
330
47
100
AcDbScale
 70
     0
300
1-1/2" = 1'-0"
140
1.5
141
12.0
290
     0
  0
SCALE
  5
66
102
{ACAD_REACTORS
330
47
102
}
330
47
100
AcDbScale
 70
     0
300
3" = 1'-0"
140
3.0
141
12.0
290
     0
  0
SCALE
  5
67
102
{ACAD_REACTORS
330
47
102
}
330
47
100
AcDbScale
 70
     0
300
6" = 1'-0"
140
6.0
141
12.0
290
     0
  0
SCALE
  5
68
102
{ACAD_REACTORS
330
47
102
}
330
47
100
AcDbScale
 70
     0
300
1'-0" = 1'-0"
140
12.0
141
12.0
290
     0
  0
TABLESTYLE
  5
6A
102
{ACAD_REACTORS
330
69
102
}
102
{ACAD_XDICTIONARY
360
50C
102
}
330
69
100
AcDbTableStyle
  3
Standard
 70
     0
 71
     0
 40
0.06
 41
0.06
280
     0
281
     0
  7
Standard
140
4.5
170
     2
 62
     0
 63
   257
283
     0
 90
        4
 91
        0
  1

274
    -2
284
     1
 64
     0
275
    -2
285
     1
 65
     0
276
    -2
286
     1
 66
     0
277
    -2
287
     1
 67
     0
278
    -2
288
     1
 68
     0
279
    -2
289
     1
 69
     0
  7
Standard
140
6.0
170
     5
 62
     0
 63
   257
283
     0
 90
        4
 91
        0
  1

274
    -2
284
     1
 64
     0
275
    -2
285
     1
 65
     0
276
    -2
286
     1
 66
     0
277
    -2
287
     1
 67
     0
278
    -2
288
     1
 68
     0
279
    -2
289
     1
 69
     0
  7
Standard
140
4.5
170
     5
 62
     0
 63
   257
283
     0
 90
        4
 91
        0
  1

274
    -2
284
     1
 64
     0
275
    -2
285
     1
 65
     0
276
    -2
286
     1
 66
     0
277
    -2
287
     1
 67
     0
278
    -2
288
     1
 68
     0
279
    -2
289
     1
 69
     0
  0
VISUALSTYLE
  5
2F
102
{ACAD_REACTORS
330
2A
102
}
330
2A
100
AcDbVisualStyle
  2
2dWireframe
 70
     4
177
     3
291
     0
 70
    58
 90
        0
176
     1
 90
        2
176
     1
 90
        0
176
     1
 90
        0
176
     1
 40
0.6
176
     1
 40
30.0
176
     1
 62
     7
420
 16777215
176
     1
 90
        1
176
     1
 90
        4
176
     1
 62
     7
176
     1
 62
   257
176
     1
 90
        1
176
     1
 90
        1
176
     1
 40
1.0
176
     1
 90
        0
176
     1
 62
   257
176
     1
 40
1.0
176
     1
 90
        1
176
     1
 90
        6
176
     1
 90
        2
176
     1
 62
     7
176
     1
 90
        5
176
     1
 90
        0
176
     1
 90
        0
176
     1
290
     0
176
     1
 90
        1
176
     1
 40
0.0
176
     1
 90
        0
176
     1
290
     1
176
     1
290
     1
176
     1
290
     0
176
     1
290
     0
176
     1
290
     0
176
     1
290
     0
176
     1
290
     0
176
     1
290
     0
176
     1
290
     0
176
     1
 90
       50
176
     1
 40
0.0
176
     1
 40
1.0
176
     1
 90
        0
176
     1
 62
    18
420
        0
176
     1
 90
       50
176
     1
 90
        3
176
     1
 62
     5
420
      255
176
     1
290
     0
176
     1
 90
       50
176
     1
 90
       50
176
     1
 90
       50
176
     1
290
     0
176
     1
 90
       50
176
     1
 62
   256
176
     0
 40
1.0
176
     0
 90
        2
176
     1
  1
strokes_ogs.tif
176
     1
290
     0
176
     1
 40
1.0
176
     1
 40
1.0
176
     1
  0
VISUALSTYLE
  5
32
102
{ACAD_REACTORS
330
2A
102
}
330
2A
100
AcDbVisualStyle
  2
Basic
 70
     7
177
     3
291
     1
 70
    58
 90
        1
176
     1
 90
        0
176
     1
 90
        1
176
     1
 90
        0
176
     1
 40
0.6
176
     1
 40
30.0
176
     1
 62
     7
420
 16777215
176
     1
 90
        0
176
     1
 90
        4
176
     1
 62
     7
176
     1
 62
   257
176
     1
 90
        1
176
     1
 90
        1
176
     1
 40
1.0
176
     1
 90
        8
176
     1
 62
     7
176
     1
 40
1.0
176
     1
 90
        1
176
     1
 90
        6
176
     1
 90
        2
176
     1
 62
     7
176
     1
 90
        5
176
     1
 90
        0
176
     1
 90
        0
176
     1
290
     0
176
     1
 90
        1
176
     1
 40
0.0
176
     1
 90
        0
176
     1
290
     0
176
     1
290
     1
176
     1
290
     1
176
     1
290
     0
176
     1
290
     0
176
     1
290
     0
176
     1
290
     0
176
     1
290
     0
176
     1
290
     0
176
     1
 90
       50
176
     1
 40
0.0
176
     1
 40
1.0
176
     1
 90
        0
176
     1
 62
    18
420
        0
176
     1
 90
       50
176
     1
 90
        3
176
     1
 62
     5
420
      255
176
     1
290
     0
176
     1
 90
       50
176
     1
 90
       50
176
     1
 90
       50
176
     1
290
     0
176
     1
 90
       50
176
     1
 62
   256
176
     0
 40
1.0
176
     0
 90
        2
176
     1
  1
strokes_ogs.tif
176
     1
290
     0
176
     1
 40
1.0
176
     1
 40
1.0
176
     1
  0
VISUALSTYLE
  5
36
102
{ACAD_REACTORS
330
2A
102
}
330
2A
100
AcDbVisualStyle
  2
Brighten
 70
    12
177
     3
291
     1
 70
    58
 90
        2
176
     1
 90
        2
176
     1
 90
        0
176
     1
 90
        0
176
     1
 40
0.6
176
     1
 40
30.0
176
     1
 62
     7
420
 16777215
176
     1
 90
        1
176
     1
 90
        4
176
     1
 62
     7
176
     1
 62
   257
176
     1
 90
        1
176
     1
 90
        1
176
     1
 40
1.0
176
     1
 90
        8
176
     1
 62
     7
176
     1
 40
1.0
176
     1
 90
        1
176
     1
 90
        6
176
     1
 90
        2
176
     1
 62
     7
176
     1
 90
        5
176
     1
 90
        0
176
     1
 90
        0
176
     1
290
     0
176
     1
 90
        1
176
     1
 40
50.0
176
     1
 90
        0
176
     1
290
     0
176
     1
290
     1
176
     1
290
     1
176
     1
290
     0
176
     1
290
     0
176
     1
290
     0
176
     1
290
     0
176
     1
290
     0
176
     1
290
     0
176
     1
 90
       50
176
     1
 40
0.0
176
     1
 40
1.0
176
     1
 90
        0
176
     1
 62
    18
420
        0
176
     1
 90
       50
176
     1
 90
        3
176
     1
 62
     5
420
      255
176
     1
290
     0
176
     1
 90
       50
176
     1
 90
       50
176
     1
 90
       50
176
     1
290
     0
176
     1
 90
       50
176
     1
 62
   256
176
     0
 40
1.0
176
     0
 90
        2
176
     1
  1
strokes_ogs.tif
176
     1
290
     0
176
     1
 40
1.0
176
     1
 40
1.0
176
     1
  0
VISUALSTYLE
  5
3A
102
{ACAD_REACTORS
330
2A
102
}
330
2A
100
AcDbVisualStyle
  2
ColorChange
 70
    16
177
     3
291
     1
 70
    58
 90
        2
176
     1
 90
        2
176
     1
 90
        3
176
     1
 90
        0
176
     1
 40
0.6
176
     1
 40
30.0
176
     1
 62
     8
420
  8421504
176
     1
 90
        1
176
     1
 90
        4
176
     1
 62
     7
176
     1
 62
   257
176
     1
 90
        1
176
     1
 90
        1
176
     1
 40
1.0
176
     1
 90
        8
176
     1
 62
     8
420
  8421504
176
     1
 40
1.0
176
     1
 90
        1
176
     1
 90
        6
176
     1
 90
        2
176
     1
 62
     7
176
     1
 90
        5
176
     1
 90
        0
176
     1
 90
        0
176
     1
290
     0
176
     1
 90
        1
176
     1
 40
0.0
176
     1
 90
        0
176
     1
290
     0
176
     1
290
     1
176
     1
290
     1
176
     1
290
     0
176
     1
290
     0
176
     1
290
     0
176
     1
290
     0
176
     1
290
     0
176
     1
290
     0
176
     1
 90
       50
176
     1
 40
0.0
176
     1
 40
1.0
176
     1
 90
        0
176
     1
 62
    18
420
        0
176
     1
 90
       50
176
     1
 90
        3
176
     1
 62
     5
420
      255
176
     1
290
     0
176
     1
 90
       50
176
     1
 90
       50
176
     1
 90
       50
176
     1
290
     0
176
     1
 90
       50
176
     1
 62
   256
176
     0
 40
1.0
176
     0
 90
        2
176
     1
  1
strokes_ogs.tif
176
     1
290
     0
176
     1
 40
1.0
176
     1
 40
1.0
176
     1
  0
VISUALSTYLE
  5
34
102
{ACAD_REACTORS
330
2A
102
}
330
2A
100
AcDbVisualStyle
  2
Conceptual
 70
     9
177
     3
291
     0
 70
    58
 90
        3
176
     1
 90
        2
176
     1
 90
        0
176
     1
 90
        0
176
     1
 40
0.6
176
     1
 40
30.0
176
     1
 62
     7
420
 16777215
176
     1
 90
        2
176
     1
 90
        2
176
     1
 62
     7
176
     1
 62
   257
176
     1
 90
        1
176
     1
 90
        1
176
     1
 40
179.0
176
     1
 90
        8
176
     1
 62
     7
176
     1
 40
1.0
176
     1
 90
        1
176
     1
 90
        6
176
     1
 90
        2
176
     1
 62
     7
176
     1
 90
        3
176
     1
 90
        0
176
     1
 90
        0
176
     1
290
     0
176
     1
 90
        1
176
     1
 40
0.0
176
     1
 90
        0
176
     1
290
     0
176
     1
290
     1
176
     1
290
     1
176
     1
290
     0
176
     1
290
     0
176
     1
290
     0
176
     1
290
     0
176
     1
290
     0
176
     1
290
     0
176
     1
 90
       50
176
     1
 40
0.0
176
     1
 40
1.0
176
     1
 90
        0
176
     1
 62
    18
420
        0
176
     1
 90
       50
176
     1
 90
        3
176
     1
 62
     5
420
      255
176
     1
290
     0
176
     1
 90
       50
176
     1
 90
       50
176
     1
 90
       50
176
     1
290
     0
176
     1
 90
       50
176
     1
 62
   256
176
     0
 40
1.0
176
     0
 90
        2
176
     1
  1
strokes_ogs.tif
176
     1
290
     0
176
     1
 40
1.0
176
     1
 40
1.0
176
     1
  0
VISUALSTYLE
  5
35
102
{ACAD_REACTORS
330
2A
102
}
330
2A
100
AcDbVisualStyle
  2
Dim
 70
    11
177
     3
291
     1
 70
    58
 90
        2
176
     1
 90
        2
176
     1
 90
        0
176
     1
 90
        0
176
     1
 40
0.6
176
     1
 40
30.0
176
     1
 62
     7
420
 16777215
176
     1
 90
        1
176
     1
 90
        4
176
     1
 62
     7
176
     1
 62
   257
176
     1
 90
        1
176
     1
 90
        1
176
     1
 40
1.0
176
     1
 90
        8
176
     1
 62
     7
176
     1
 40
1.0
176
     1
 90
        1
176
     1
 90
        6
176
     1
 90
        2
176
     1
 62
     7
176
     1
 90
        5
176
     1
 90
        0
176
     1
 90
        0
176
     1
290
     0
176
     1
 90
        1
176
     1
 40
-50.0
176
     1
 90
        0
176
     1
290
     0
176
     1
290
     1
176
     1
290
     1
176
     1
290
     0
176
     1
290
     0
176
     1
290
     0
176
     1
290
     0
176
     1
290
     0
176
     1
290
     0
176
     1
 90
       50
176
     1
 40
0.0
176
     1
 40
1.0
176
     1
 90
        0
176
     1
 62
    18
420
        0
176
     1
 90
       50
176
     1
 90
        3
176
     1
 62
     5
420
      255
176
     1
290
     0
176
     1
 90
       50
176
     1
 90
       50
176
     1
 90
       50
176
     1
290
     0
176
     1
 90
       50
176
     1
 62
   256
176
     0
 40
1.0
176
     0
 90
        2
176
     1
  1
strokes_ogs.tif
176
     1
290
     0
176
     1
 40
1.0
176
     1
 40
1.0
176
     1
  0
VISUALSTYLE
  5
3D
102
{ACAD_REACTORS
330
2A
102
}
330
2A
100
AcDbVisualStyle
  2
EdgeColorOff
 70
    22
177
     3
291
     1
 70
    58
 90
        2
176
     0
 90
        2
176
     0
 90
        0
176
     0
 90
        0
176
     0
 40
0.6
176
     0
 40
30.0
176
     0
 62
     7
420
 16777215
176
     0
 90
        1
176
     0
 90
        4
176
     0
 62
     7
176
     0
 62
   257
176
     0
 90
        1
176
     0
 90
        1
176
     0
 40
1.0
176
     0
 90
        8
176
     2
 62
     7
176
     0
 40
1.0
176
     0
 90
        1
176
     0
 90
        6
176
     0
 90
        2
176
     0
 62
     7
176
     0
 90
        5
176
     0
 90
        0
176
     0
 90
        0
176
     0
290
     0
176
     0
 90
        1
176
     0
 40
0.0
176
     0
 90
        0
176
     0
290
     0
176
     0
290
     1
176
     0
290
     1
176
     0
290
     0
176
     0
290
     0
176
     0
290
     0
176
     0
290
     0
176
     0
290
     0
176
     0
290
     0
176
     0
 90
       50
176
     0
 40
0.0
176
     0
 40
1.0
176
     0
 90
        0
176
     0
 62
    18
420
        0
176
     0
 90
       50
176
     0
 90
        3
176
     0
 62
     5
420
      255
176
     0
290
     0
176
     0
 90
       50
176
     0
 90
       50
176
     0
 90
       50
176
     0
290
     0
176
     0
 90
       50
176
     0
 62
   256
176
     0
 40
1.0
176
     0
 90
        2
176
     0
  1
strokes_ogs.tif
176
     0
290
     0
176
     0
 40
1.0
176
     0
 40
1.0
176
     0
  0
VISUALSTYLE
  5
39
102
{ACAD_REACTORS
330
2A
102
}
330
2A
100
AcDbVisualStyle
  2
Facepattern
 70
    15
177
     3
291
     1
 70
    58
 90
        2
176
     1
 90
        2
176
     1
 90
        0
176
     1
 90
        0
176
     1
 40
0.6
176
     1
 40
30.0
176
     1
 62
     7
420
 16777215
176
     1
 90
        1
176
     1
 90
        4
176
     1
 62
     7
176
     1
 62
   257
176
     1
 90
        1
176
     1
 90
        1
176
     1
 40
1.0
176
     1
 90
        8
176
     1
 62
     7
176
     1
 40
1.0
176
     1
 90
        1
176
     1
 90
        6
176
     1
 90
        2
176
     1
 62
     7
176
     1
 90
        5
176
     1
 90
        0
176
     1
 90
        0
176
     1
290
     0
176
     1
 90
        1
176
     1
 40
0.0
176
     1
 90
        0
176
     1
290
     0
176
     1
290
     1
176
     1
290
     1
176
     1
290
     0
176
     1
290
     0
176
     1
290
     0
176
     1
290
     0
176
     1
290
     0
176
     1
290
     0
176
     1
 90
       50
176
     1
 40
0.0
176
     1
 40
1.0
176
     1
 90
        0
176
     1
 62
    18
420
        0
176
     1
 90
       50
176
     1
 90
        3
176
     1
 62
     5
420
      255
176
     1
290
     0
176
     1
 90
       50
176
     1
 90
       50
176
     1
 90
       50
176
     1
290
     0
176
     1
 90
       50
176
     1
 62
   256
176
     0
 40
1.0
176
     0
 90
        2
176
     1
  1
strokes_ogs.tif
176
     1
290
     0
176
     1
 40
1.0
176
     1
 40
1.0
176
     1
  0
VISUALSTYLE
  5
2B
102
{ACAD_REACTORS
330
2A
102
}
330
2A
100
AcDbVisualStyle
  2
Flat
 70
     0
177
     3
291
     1
 70
    58
 90
        2
176
     1
 90
        1
176
     1
 90
        1
176
     1
 90
        2
176
     1
 40
0.6
176
     1
 40
30.0
176
     1
 62
     7
420
 16777215
176
     1
 90
        0
176
     1
 90
        0
176
     1
 62
     7
176
     1
 62
   257
176
     1
 90
        1
176
     1
 90
        1
176
     1
 40
1.0
176
     1
 90
        8
176
     1
 62
     7
176
     1
 40
1.0
176
     1
 90
        1
176
     1
 90
        6
176
     1
 90
        2
176
     1
 62
     7
176
     1
 90
        5
176
     1
 90
        0
176
     1
 90
        0
176
     1
290
     0
176
     1
 90
       13
176
     1
 40
0.0
176
     1
 90
        0
176
     1
290
     0
176
     1
290
     1
176
     1
290
     1
176
     1
290
     0
176
     1
290
     0
176
     1
290
     0
176
     1
290
     0
176
     1
290
     0
176
     1
290
     0
176
     1
 90
       50
176
     1
 40
0.0
176
     1
 40
1.0
176
     1
 90
        0
176
     1
 62
    18
420
        0
176
     1
 90
       50
176
     1
 90
        3
176
     1
 62
     5
420
      255
176
     1
290
     0
176
     1
 90
       50
176
     1
 90
       50
176
     1
 90
       50
176
     1
290
     0
176
     1
 90
       50
176
     1
 62
   256
176
     0
 40
1.0
176
     0
 90
        2
176
     1
  1
strokes_ogs.tif
176
     1
290
     0
176
     1
 40
1.0
176
     1
 40
1.0
176
     1
  0
VISUALSTYLE
  5
2C
102
{ACAD_REACTORS
330
2A
102
}
330
2A
100
AcDbVisualStyle
  2
FlatWithEdges
 70
     1
177
     3
291
     1
 70
    58
 90
        2
176
     1
 90
        1
176
     1
 90
        1
176
     1
 90
        2
176
     1
 40
0.6
176
     1
 40
30.0
176
     1
 62
     7
420
 16777215
176
     1
 90
        1
176
     1
 90
        0
176
     1
 62
     7
176
     1
 62
   257
176
     1
 90
        1
176
     1
 90
        1
176
     1
 40
1.0
176
     1
 90
        0
176
     1
 62
   257
176
     1
 40
1.0
176
     1
 90
        1
176
     1
 90
        6
176
     1
 90
        2
176
     1
 62
     7
176
     1
 90
        5
176
     1
 90
        0
176
     1
 90
        0
176
     1
290
     0
176
     1
 90
       13
176
     1
 40
0.0
176
     1
 90
        0
176
     1
290
     0
176
     1
290
     1
176
     1
290
     1
176
     1
290
     0
176
     1
290
     0
176
     1
290
     0
176
     1
290
     0
176
     1
290
     0
176
     1
290
     0
176
     1
 90
       50
176
     1
 40
0.0
176
     1
 40
1.0
176
     1
 90
        0
176
     1
 62
    18
420
        0
176
     1
 90
       50
176
     1
 90
        3
176
     1
 62
     5
420
      255
176
     1
290
     0
176
     1
 90
       50
176
     1
 90
       50
176
     1
 90
       50
176
     1
290
     0
176
     1
 90
       50
176
     1
 62
   256
176
     0
 40
1.0
176
     0
 90
        2
176
     1
  1
strokes_ogs.tif
176
     1
290
     0
176
     1
 40
1.0
176
     1
 40
1.0
176
     1
  0
VISUALSTYLE
  5
2D
102
{ACAD_REACTORS
330
2A
102
}
330
2A
100
AcDbVisualStyle
  2
Gouraud
 70
     2
177
     3
291
     1
 70
    58
 90
        2
176
     1
 90
        2
176
     1
 90
        1
176
     1
 90
        2
176
     1
 40
0.6
176
     1
 40
30.0
176
     1
 62
     7
420
 16777215
176
     1
 90
        0
176
     1
 90
        0
176
     1
 62
     7
176
     1
 62
   257
176
     1
 90
        1
176
     1
 90
        1
176
     1
 40
1.0
176
     1
 90
        0
176
     1
 62
     7
176
     1
 40
1.0
176
     1
 90
        1
176
     1
 90
        6
176
     1
 90
        2
176
     1
 62
     7
176
     1
 90
        5
176
     1
 90
        0
176
     1
 90
        0
176
     1
290
     0
176
     1
 90
       13
176
     1
 40
0.0
176
     1
 90
        0
176
     1
290
     0
176
     1
290
     1
176
     1
290
     1
176
     1
290
     0
176
     1
290
     0
176
     1
290
     0
176
     1
290
     0
176
     1
290
     0
176
     1
290
     0
176
     1
 90
       50
176
     1
 40
0.0
176
     1
 40
1.0
176
     1
 90
        0
176
     1
 62
    18
420
        0
176
     1
 90
       50
176
     1
 90
        3
176
     1
 62
     5
420
      255
176
     1
290
     0
176
     1
 90
       50
176
     1
 90
       50
176
     1
 90
       50
176
     1
290
     0
176
     1
 90
       50
176
     1
 62
   256
176
     0
 40
1.0
176
     0
 90
        2
176
     1
  1
strokes_ogs.tif
176
     1
290
     0
176
     1
 40
1.0
176
     1
 40
1.0
176
     1
  0
VISUALSTYLE
  5
2E
102
{ACAD_REACTORS
330
2A
102
}
330
2A
100
AcDbVisualStyle
  2
GouraudWithEdges
 70
     3
177
     3
291
     1
 70
    58
 90
        2
176
     1
 90
        2
176
     1
 90
        1
176
     1
 90
        2
176
     1
 40
0.6
176
     1
 40
30.0
176
     1
 62
     7
420
 16777215
176
     1
 90
        1
176
     1
 90
        0
176
     1
 62
     7
176
     1
 62
   257
176
     1
 90
        1
176
     1
 90
        1
176
     1
 40
1.0
176
     1
 90
        0
176
     1
 62
   257
176
     1
 40
1.0
176
     1
 90
        1
176
     1
 90
        6
176
     1
 90
        2
176
     1
 62
     7
176
     1
 90
        5
176
     1
 90
        0
176
     1
 90
        0
176
     1
290
     0
176
     1
 90
       13
176
     1
 40
0.0
176
     1
 90
        0
176
     1
290
     0
176
     1
290
     1
176
     1
290
     1
176
     1
290
     0
176
     1
290
     0
176
     1
290
     0
176
     1
290
     0
176
     1
290
     0
176
     1
290
     0
176
     1
 90
       50
176
     1
 40
0.0
176
     1
 40
1.0
176
     1
 90
        0
176
     1
 62
    18
420
        0
176
     1
 90
       50
176
     1
 90
        3
176
     1
 62
     5
420
      255
176
     1
290
     0
176
     1
 90
       50
176
     1
 90
       50
176
     1
 90
       50
176
     1
290
     0
176
     1
 90
       50
176
     1
 62
   256
176
     0
 40
1.0
176
     0
 90
        2
176
     1
  1
strokes_ogs.tif
176
     1
290
     0
176
     1
 40
1.0
176
     1
 40
1.0
176
     1
  0
VISUALSTYLE
  5
31
102
{ACAD_REACTORS
330
2A
102
}
330
2A
100
AcDbVisualStyle
  2
Hidden
 70
     6
177
     3
291
     0
 70
    58
 90
        1
176
     1
 90
        2
176
     1
 90
        2
176
     1
 90
        0
176
     1
 40
0.6
176
     1
 40
30.0
176
     1
 62
     7
420
 16777215
176
     1
 90
        2
176
     1
 90
        2
176
     1
 62
     7
176
     1
 62
   257
176
     1
 90
        2
176
     1
 90
        1
176
     1
 40
40.0
176
     1
 90
        0
176
     1
 62
   257
176
     1
 40
1.0
176
     1
 90
        1
176
     1
 90
        6
176
     1
 90
        2
176
     1
 62
     7
176
     1
 90
        3
176
     1
 90
        0
176
     1
 90
        0
176
     1
290
     0
176
     1
 90
        1
176
     1
 40
0.0
176
     1
 90
        0
176
     1
290
     0
176
     1
290
     1
176
     1
290
     1
176
     1
290
     0
176
     1
290
     0
176
     1
290
     0
176
     1
290
     0
176
     1
290
     0
176
     1
290
     0
176
     1
 90
       50
176
     1
 40
0.0
176
     1
 40
1.0
176
     1
 90
        0
176
     1
 62
    18
420
        0
176
     1
 90
       50
176
     1
 90
        3
176
     1
 62
     5
420
      255
176
     1
290
     0
176
     1
 90
       50
176
     1
 90
       50
176
     1
 90
       50
176
     1
290
     0
176
     1
 90
       50
176
     1
 62
   256
176
     0
 40
1.0
176
     0
 90
        2
176
     1
  1
strokes_ogs.tif
176
     1
290
     0
176
     1
 40
1.0
176
     1
 40
1.0
176
     1
  0
VISUALSTYLE
  5
3B
102
{ACAD_REACTORS
330
2A
102
}
330
2A
100
AcDbVisualStyle
  2
JitterOff
 70
    20
177
     3
291
     1
 70
    58
 90
        2
176
     0
 90
        2
176
     0
 90
        0
176
     0
 90
        0
176
     0
 40
0.6
176
     0
 40
30.0
176
     0
 62
     7
420
 16777215
176
     0
 90
        1
176
     0
 90
        4
176
     0
 62
     7
176
     0
 62
   257
176
     0
 90
        1
176
     0
 90
        1
176
     0
 40
1.0
176
     0
 90
       10
176
     2
 62
     7
176
     0
 40
1.0
176
     0
 90
        1
176
     0
 90
        6
176
     0
 90
        2
176
     0
 62
     7
176
     0
 90
        5
176
     0
 90
        0
176
     0
 90
        0
176
     0
290
     0
176
     0
 90
        1
176
     0
 40
0.0
176
     0
 90
        0
176
     0
290
     0
176
     0
290
     1
176
     0
290
     1
176
     0
290
     0
176
     0
290
     0
176
     0
290
     0
176
     0
290
     0
176
     0
290
     0
176
     0
290
     0
176
     0
 90
       50
176
     0
 40
0.0
176
     0
 40
1.0
176
     0
 90
        0
176
     0
 62
    18
420
        0
176
     0
 90
       50
176
     0
 90
        3
176
     0
 62
     5
420
      255
176
     0
290
     0
176
     0
 90
       50
176
     0
 90
       50
176
     0
 90
       50
176
     0
290
     0
176
     0
 90
       50
176
     0
 62
   256
176
     0
 40
1.0
176
     0
 90
        2
176
     0
  1
strokes_ogs.tif
176
     0
290
     0
176
     0
 40
1.0
176
     0
 40
1.0
176
     0
  0
VISUALSTYLE
  5
38
102
{ACAD_REACTORS
330
2A
102
}
330
2A
100
AcDbVisualStyle
  2
Linepattern
 70
    14
177
     3
291
     1
 70
    58
 90
        2
176
     1
 90
        2
176
     1
 90
        0
176
     1
 90
        0
176
     1
 40
0.6
176
     1
 40
30.0
176
     1
 62
     7
420
 16777215
176
     1
 90
        1
176
     1
 90
        4
176
     1
 62
     7
176
     1
 62
   257
176
     1
 90
        7
176
     1
 90
        7
176
     1
 40
1.0
176
     1
 90
        8
176
     1
 62
     7
176
     1
 40
1.0
176
     1
 90
        1
176
     1
 90
        6
176
     1
 90
        2
176
     1
 62
     7
176
     1
 90
        5
176
     1
 90
        0
176
     1
 90
        0
176
     1
290
     0
176
     1
 90
        1
176
     1
 40
0.0
176
     1
 90
        0
176
     1
290
     0
176
     1
290
     1
176
     1
290
     1
176
     1
290
     0
176
     1
290
     0
176
     1
290
     0
176
     1
290
     0
176
     1
290
     0
176
     1
290
     0
176
     1
 90
       50
176
     1
 40
0.0
176
     1
 40
1.0
176
     1
 90
        0
176
     1
 62
    18
420
        0
176
     1
 90
       50
176
     1
 90
        3
176
     1
 62
     5
420
      255
176
     1
290
     0
176
     1
 90
       50
176
     1
 90
       50
176
     1
 90
       50
176
     1
290
     0
176
     1
 90
       50
176
     1
 62
   256
176
     0
 40
1.0
176
     0
 90
        2
176
     1
  1
strokes_ogs.tif
176
     1
290
     0
176
     1
 40
1.0
176
     1
 40
1.0
176
     1
  0
VISUALSTYLE
  5
3C
102
{ACAD_REACTORS
330
2A
102
}
330
2A
100
AcDbVisualStyle
  2
OverhangOff
 70
    21
177
     3
291
     1
 70
    58
 90
        2
176
     0
 90
        2
176
     0
 90
        0
176
     0
 90
        0
176
     0
 40
0.6
176
     0
 40
30.0
176
     0
 62
     7
420
 16777215
176
     0
 90
        1
176
     0
 90
        4
176
     0
 62
     7
176
     0
 62
   257
176
     0
 90
        1
176
     0
 90
        1
176
     0
 40
1.0
176
     0
 90
        9
176
     2
 62
     7
176
     0
 40
1.0
176
     0
 90
        1
176
     0
 90
        6
176
     0
 90
        2
176
     0
 62
     7
176
     0
 90
        5
176
     0
 90
        0
176
     0
 90
        0
176
     0
290
     0
176
     0
 90
        1
176
     0
 40
0.0
176
     0
 90
        0
176
     0
290
     0
176
     0
290
     1
176
     0
290
     1
176
     0
290
     0
176
     0
290
     0
176
     0
290
     0
176
     0
290
     0
176
     0
290
     0
176
     0
290
     0
176
     0
 90
       50
176
     0
 40
0.0
176
     0
 40
1.0
176
     0
 90
        0
176
     0
 62
    18
420
        0
176
     0
 90
       50
176
     0
 90
        3
176
     0
 62
     5
420
      255
176
     0
290
     0
176
     0
 90
       50
176
     0
 90
       50
176
     0
 90
       50
176
     0
290
     0
176
     0
 90
       50
176
     0
 62
   256
176
     0
 40
1.0
176
     0
 90
        2
176
     0
  1
strokes_ogs.tif
176
     0
290
     0
176
     0
 40
1.0
176
     0
 40
1.0
176
     0
  0
VISUALSTYLE
  5
33
102
{ACAD_REACTORS
330
2A
102
}
330
2A
100
AcDbVisualStyle
  2
Realistic
 70
     8
177
     3
291
     0
 70
    58
 90
        2
176
     1
 90
        3
176
     1
 90
        0
176
     1
 90
        2
176
     1
 40
0.6
176
     1
 40
30.0
176
     1
 62
     7
420
 16777215
176
     1
 90
        0
176
     1
 90
        0
176
     1
 62
     7
176
     1
 62
   257
176
     1
 90
        1
176
     1
 90
        1
176
     1
 40
1.0
176
     1
 90
        8
176
     1
 62
   257
176
     1
 40
1.0
176
     1
 90
        1
176
     1
 90
        6
176
     1
 90
        2
176
     1
 62
     7
176
     1
 90
        3
176
     1
 90
        0
176
     1
 90
        0
176
     1
290
     0
176
     1
 90
       13
176
     1
 40
0.0
176
     1
 90
        0
176
     1
290
     0
176
     1
290
     1
176
     1
290
     1
176
     1
290
     0
176
     1
290
     0
176
     1
290
     0
176
     1
290
     0
176
     1
290
     0
176
     1
290
     0
176
     1
 90
       50
176
     1
 40
0.0
176
     1
 40
1.0
176
     1
 90
        0
176
     1
 62
    18
420
        0
176
     1
 90
       50
176
     1
 90
        3
176
     1
 62
     5
420
      255
176
     1
290
     0
176
     1
 90
       50
176
     1
 90
       50
176
     1
 90
       50
176
     1
290
     0
176
     1
 90
       50
176
     1
 62
   256
176
     0
 40
1.0
176
     0
 90
        2
176
     1
  1
strokes_ogs.tif
176
     1
290
     0
176
     1
 40
1.0
176
     1
 40
1.0
176
     1
  0
VISUALSTYLE
  5
42
102
{ACAD_REACTORS
330
2A
102
}
330
2A
100
AcDbVisualStyle
  2
Shaded
 70
    27
177
     3
291
     0
 70
    58
 90
        2
176
     1
 90
        2
176
     1
 90
        1
176
     1
 90
        2
176
     1
 40
0.6
176
     1
 40
30.0
176
     1
 62
     7
420
 16777215
176
     1
 90
        0
176
     1
 90
        4
176
     1
 62
     7
176
     1
 62
   257
176
     1
 90
        1
176
     1
 90
        1
176
     1
 40
1.0
176
     1
 90
        8
176
     1
 62
   257
176
     1
 40
1.0
176
     1
 90
        1
176
     1
 90
        6
176
     1
 90
        2
176
     1
 62
     8
420
  7895160
176
     1
 90
        3
176
     1
 90
        0
176
     1
 90
        0
176
     1
290
     0
176
     1
 90
        5
176
     1
 40
0.0
176
     1
 90
        0
176
     1
290
     0
176
     1
290
     1
176
     1
290
     1
176
     1
290
     0
176
     1
290
     0
176
     1
290
     0
176
     1
290
     0
176
     1
290
     0
176
     1
290
     0
176
     1
 90
       50
176
     1
 40
0.0
176
     1
 40
1.0
176
     1
 90
        0
176
     1
 62
    18
420
        0
176
     1
 90
       50
176
     1
 90
        3
176
     1
 62
     5
420
      255
176
     1
290
     0
176
     1
 90
       50
176
     1
 90
       50
176
     1
 90
       50
176
     1
290
     0
176
     1
 90
       50
176
     1
 62
   256
176
     0
 40
1.0
176
     0
 90
        2
176
     1
  1
strokes_ogs.tif
176
     1
290
     0
176
     1
 40
1.0
176
     1
 40
1.0
176
     1
  0
VISUALSTYLE
  5
41
102
{ACAD_REACTORS
330
2A
102
}
330
2A
100
AcDbVisualStyle
  2
Shaded with edges
 70
    26
177
     3
291
     0
 70
    58
 90
        2
176
     1
 90
        2
176
     1
 90
        1
176
     1
 90
        2
176
     1
 40
0.6
176
     1
 40
30.0
176
     1
 62
     7
420
 16777215
176
     1
 90
        1
176
     1
 90
       10
176
     1
 62
     7
176
     1
 62
   257
176
     1
 90
        2
176
     1
 90
        1
176
     1
 40
1.0
176
     1
 90
        8
176
     1
 62
   257
176
     1
 40
1.0
176
     1
 90
        1
176
     1
 90
        6
176
     1
 90
        2
176
     1
 62
     7
176
     1
 90
        3
176
     1
 90
        0
176
     1
 90
        0
176
     1
290
     0
176
     1
 90
        5
176
     1
 40
0.0
176
     1
 90
        0
176
     1
290
     0
176
     1
290
     1
176
     1
290
     1
176
     1
290
     0
176
     1
290
     0
176
     1
290
     0
176
     1
290
     0
176
     1
290
     0
176
     1
290
     0
176
     1
 90
       50
176
     1
 40
0.0
176
     1
 40
1.0
176
     1
 90
        0
176
     1
 62
    18
420
        0
176
     1
 90
       50
176
     1
 90
        3
176
     1
 62
     5
420
      255
176
     1
290
     0
176
     1
 90
       50
176
     1
 90
       50
176
     1
 90
       50
176
     1
290
     0
176
     1
 90
       50
176
     1
 62
   256
176
     0
 40
1.0
176
     0
 90
        2
176
     1
  1
strokes_ogs.tif
176
     1
290
     0
176
     1
 40
1.0
176
     1
 40
1.0
176
     1
  0
VISUALSTYLE
  5
3E
102
{ACAD_REACTORS
330
2A
102
}
330
2A
100
AcDbVisualStyle
  2
Shades of Gray
 70
    23
177
     3
291
     0
 70
    58
 90
        2
176
     1
 90
        2
176
     1
 90
        3
176
     1
 90
        0
176
     1
 40
0.6
176
     1
 40
30.0
176
     1
 62
     7
420
 16777215
176
     1
 90
        2
176
     1
 90
        2
176
     1
 62
     7
176
     1
 62
     7
176
     1
 90
        1
176
     1
 90
        1
176
     1
 40
40.0
176
     1
 90
        8
176
     1
 62
     7
176
     1
 40
1.0
176
     1
 90
        1
176
     1
 90
        6
176
     1
 90
        2
176
     1
 62
     7
176
     1
 90
        3
176
     1
 90
        0
176
     1
 90
        0
176
     1
290
     0
176
     1
 90
        1
176
     1
 40
0.0
176
     1
 90
        0
176
     1
290
     0
176
     1
290
     1
176
     1
290
     1
176
     1
290
     0
176
     1
290
     0
176
     1
290
     0
176
     1
290
     0
176
     1
290
     0
176
     1
290
     0
176
     1
 90
       50
176
     1
 40
0.0
176
     1
 40
1.0
176
     1
 90
        0
176
     1
 62
    18
420
        0
176
     1
 90
       50
176
     1
 90
        3
176
     1
 62
     5
420
      255
176
     1
290
     0
176
     1
 90
       50
176
     1
 90
       50
176
     1
 90
       50
176
     1
290
     0
176
     1
 90
       50
176
     1
 62
   256
176
     0
 40
1.0
176
     0
 90
        2
176
     1
  1
strokes_ogs.tif
176
     1
290
     0
176
     1
 40
1.0
176
     1
 40
1.0
176
     1
  0
VISUALSTYLE
  5
3F
102
{ACAD_REACTORS
330
2A
102
}
330
2A
100
AcDbVisualStyle
  2
Sketchy
 70
    24
177
     3
291
     0
 70
    58
 90
        1
176
     1
 90
        2
176
     1
 90
        2
176
     1
 90
        0
176
     1
 40
0.6
176
     1
 40
30.0
176
     1
 62
     7
420
 16777215
176
     1
 90
        2
176
     1
 90
        2
176
     1
 62
     7
176
     1
 62
     7
176
     1
 90
        1
176
     1
 90
        1
176
     1
 40
40.0
176
     1
 90
       11
176
     1
 62
     7
176
     1
 40
1.0
176
     1
 90
        1
176
     1
 90
        6
176
     1
 90
        2
176
     1
 62
     7
176
     1
 90
        6
176
     1
 90
        0
176
     1
 90
        0
176
     1
290
     0
176
     1
 90
        1
176
     1
 40
0.0
176
     1
 90
        0
176
     1
290
     0
176
     1
290
     1
176
     1
290
     1
176
     1
290
     0
176
     1
290
     0
176
     1
290
     0
176
     1
290
     0
176
     1
290
     0
176
     1
290
     0
176
     1
 90
       50
176
     1
 40
0.0
176
     1
 40
1.0
176
     1
 90
        0
176
     1
 62
    18
420
        0
176
     1
 90
       50
176
     1
 90
        3
176
     1
 62
     5
420
      255
176
     1
290
     0
176
     1
 90
       50
176
     1
 90
       50
176
     1
 90
       50
176
     1
290
     0
176
     1
 90
       50
176
     1
 62
   256
176
     0
 40
1.0
176
     0
 90
        2
176
     1
  1
strokes_ogs.tif
176
     1
290
     0
176
     1
 40
1.0
176
     1
 40
1.0
176
     1
  0
VISUALSTYLE
  5
37
102
{ACAD_REACTORS
330
2A
102
}
330
2A
100
AcDbVisualStyle
  2
Thicken
 70
    13
177
     3
291
     1
 70
    58
 90
        2
176
     1
 90
        2
176
     1
 90
        0
176
     1
 90
        0
176
     1
 40
0.6
176
     1
 40
30.0
176
     1
 62
     7
420
 16777215
176
     1
 90
        1
176
     1
 90
        4
176
     1
 62
     7
176
     1
 62
   257
176
     1
 90
        1
176
     1
 90
        1
176
     1
 40
1.0
176
     1
 90
       12
176
     1
 62
     7
176
     1
 40
1.0
176
     1
 90
        1
176
     1
 90
        6
176
     1
 90
        2
176
     1
 62
     7
176
     1
 90
        5
176
     1
 90
        0
176
     1
 90
        0
176
     1
290
     0
176
     1
 90
        1
176
     1
 40
0.0
176
     1
 90
        0
176
     1
290
     0
176
     1
290
     1
176
     1
290
     1
176
     1
290
     0
176
     1
290
     0
176
     1
290
     0
176
     1
290
     0
176
     1
290
     0
176
     1
290
     0
176
     1
 90
       50
176
     1
 40
0.0
176
     1
 40
1.0
176
     1
 90
        0
176
     1
 62
    18
420
        0
176
     1
 90
       50
176
     1
 90
        3
176
     1
 62
     5
420
      255
176
     1
290
     0
176
     1
 90
       50
176
     1
 90
       50
176
     1
 90
       50
176
     1
290
     0
176
     1
 90
       50
176
     1
 62
   256
176
     0
 40
1.0
176
     0
 90
        2
176
     1
  1
strokes_ogs.tif
176
     1
290
     0
176
     1
 40
1.0
176
     1
 40
1.0
176
     1
  0
VISUALSTYLE
  5
30
102
{ACAD_REACTORS
330
2A
102
}
330
2A
100
AcDbVisualStyle
  2
Wireframe
 70
     5
177
     3
291
     0
 70
    58
 90
        0
176
     1
 90
        2
176
     1
 90
        0
176
     1
 90
        0
176
     1
 40
0.6
176
     1
 40
30.0
176
     1
 62
     7
420
 16777215
176
     1
 90
        1
176
     1
 90
        4
176
     1
 62
     7
176
     1
 62
   257
176
     1
 90
        1
176
     1
 90
        1
176
     1
 40
1.0
176
     1
 90
        0
176
     1
 62
   257
176
     1
 40
1.0
176
     1
 90
        1
176
     1
 90
        6
176
     1
 90
        2
176
     1
 62
     7
176
     1
 90
        3
176
     1
 90
        0
176
     1
 90
        0
176
     1
290
     0
176
     1
 90
        1
176
     1
 40
0.0
176
     1
 90
        0
176
     1
290
     0
176
     1
290
     1
176
     1
290
     1
176
     1
290
     0
176
     1
290
     0
176
     1
290
     0
176
     1
290
     0
176
     1
290
     0
176
     1
290
     0
176
     1
 90
       50
176
     1
 40
0.0
176
     1
 40
1.0
176
     1
 90
        0
176
     1
 62
    18
420
        0
176
     1
 90
       50
176
     1
 90
        3
176
     1
 62
     5
420
      255
176
     1
290
     0
176
     1
 90
       50
176
     1
 90
       50
176
     1
 90
       50
176
     1
290
     0
176
     1
 90
       50
176
     1
 62
   256
176
     0
 40
1.0
176
     0
 90
        2
176
     1
  1
strokes_ogs.tif
176
     1
290
     0
176
     1
 40
1.0
176
     1
 40
1.0
176
     1
  0
VISUALSTYLE
  5
40
102
{ACAD_REACTORS
330
2A
102
}
330
2A
100
AcDbVisualStyle
  2
X-Ray
 70
    25
177
     3
291
     0
 70
    58
 90
        2
176
     1
 90
        2
176
     1
 90
        1
176
     1
 90
        1
176
     1
 40
0.5
176
     1
 40
30.0
176
     1
 62
     7
420
 16777215
176
     1
 90
        1
176
     1
 90
        0
176
     1
 62
     7
176
     1
 62
   257
176
     1
 90
        1
176
     1
 90
        1
176
     1
 40
1.0
176
     1
 90
        8
176
     1
 62
     7
176
     1
 40
1.0
176
     1
 90
        1
176
     1
 90
        6
176
     1
 90
        2
176
     1
 62
     7
176
     1
 90
        3
176
     1
 90
        0
176
     1
 90
        0
176
     1
290
     0
176
     1
 90
       13
176
     1
 40
0.0
176
     1
 90
        0
176
     1
290
     0
176
     1
290
     1
176
     1
290
     1
176
     1
290
     0
176
     1
290
     0
176
     1
290
     0
176
     1
290
     0
176
     1
290
     0
176
     1
290
     0
176
     1
 90
       50
176
     1
 40
0.0
176
     1
 40
1.0
176
     1
 90
        0
176
     1
 62
    18
420
        0
176
     1
 90
       50
176
     1
 90
        3
176
     1
 62
     5
420
      255
176
     1
290
     0
176
     1
 90
       50
176
     1
 90
       50
176
     1
 90
       50
176
     1
290
     0
176
     1
 90
       50
176
     1
 62
   256
176
     0
 40
1.0
176
     0
 90
        2
176
     1
  1
strokes_ogs.tif
176
     1
290
     0
176
     1
 40
1.0
176
     1
 40
1.0
176
     1
  0
DICTIONARYVAR
  5
50B
102
{ACAD_REACTORS
330
50A
102
}
330
50A
100
DictionaryVariables
280
     0
  1
1:1
  0
DICTIONARYVAR
  5
513
102
{ACAD_REACTORS
330
50A
102
}
330
50A
100
DictionaryVariables
280
     0
  1
3.500000
  0
DICTIONARYVAR
  5
514
102
{ACAD_REACTORS
330
50A
102
}
330
50A
100
DictionaryVariables
280
     0
  1
acadiso.lin
  0
DICTIONARYVAR
  5
510
102
{ACAD_REACTORS
330
50A
102
}
330
50A
100
DictionaryVariables
280
     0
  1
Standard
  0
DICTIONARYVAR
  5
50F
102
{ACAD_REACTORS
330
50A
102
}
330
50A
100
DictionaryVariables
280
     0
  1
Standard
  0
DICTIONARY
  5
50C
330
6A
100
AcDbDictionary
280
     1
281
     1
  3
ACAD_ROUNDTRIP_2008_TABLESTYLE_CELLSTYLEMAP
360
50D
  0
CELLSTYLEMAP
  5
50D
102
{ACAD_REACTORS
330
50C
102
}
330
50C
100
AcDbCellStyleMap
 90
        3
300
CELLSTYLE
  1
TABLEFORMAT_BEGIN
 90
        5
170
     1
 91
        0
 92
    32768
 62
   257
 93
        1
300
CONTENTFORMAT
  1
CONTENTFORMAT_BEGIN
 90
        0
 91
        0
 92
        4
 93
        0
300

 40
0.0
140
1.0
 94
        5
 62
     0
340
11
144
6.0
309
CONTENTFORMAT_END
171
     1
301
MARGIN
  1
CELLMARGIN_BEGIN
 40
1.5
 40
1.5
 40
1.5
 40
1.5
 40
1.5
 40
1.5
309
CELLMARGIN_END
 94
        6
 95
        1
302
GRIDFORMAT
  1
GRIDFORMAT_BEGIN
 90
        0
 91
        1
 62
     0
 92
       -2
340
14
 93
        0
 40
0.045
309
GRIDFORMAT_END
 95
        2
302
GRIDFORMAT
  1
GRIDFORMAT_BEGIN
 90
        0
 91
        1
 62
     0
 92
       -2
340
14
 93
        0
 40
0.045
309
GRIDFORMAT_END
 95
        4
302
GRIDFORMAT
  1
GRIDFORMAT_BEGIN
 90
        0
 91
        1
 62
     0
 92
       -2
340
14
 93
        0
 40
0.045
309
GRIDFORMAT_END
 95
        8
302
GRIDFORMAT
  1
GRIDFORMAT_BEGIN
 90
        0
 91
        1
 62
     0
 92
       -2
340
14
 93
        0
 40
0.045
309
GRIDFORMAT_END
 95
       16
302
GRIDFORMAT
  1
GRIDFORMAT_BEGIN
 90
        0
 91
        1
 62
     0
 92
       -2
340
14
 93
        0
 40
0.045
309
GRIDFORMAT_END
 95
       32
302
GRIDFORMAT
  1
GRIDFORMAT_BEGIN
 90
        0
 91
        1
 62
     0
 92
       -2
340
14
 93
        0
 40
0.045
309
GRIDFORMAT_END
309
TABLEFORMAT_END
  1
CELLSTYLE_BEGIN
 90
        1
 91
        1
300
_TITLE
309
CELLSTYLE_END
300
CELLSTYLE
  1
TABLEFORMAT_BEGIN
 90
        5
170
     1
 91
        0
 92
        0
 62
   257
 93
        1
300
CONTENTFORMAT
  1
CONTENTFORMAT_BEGIN
 90
        0
 91
        0
 92
        4
 93
        0
300

 40
0.0
140
1.0
 94
        5
 62
     0
340
11
144
4.5
309
CONTENTFORMAT_END
171
     1
301
MARGIN
  1
CELLMARGIN_BEGIN
 40
1.5
 40
1.5
 40
1.5
 40
1.5
 40
1.5
 40
1.5
309
CELLMARGIN_END
 94
        6
 95
        1
302
GRIDFORMAT
  1
GRIDFORMAT_BEGIN
 90
        0
 91
        1
 62
     0
 92
       -2
340
14
 93
        0
 40
0.045
309
GRIDFORMAT_END
 95
        2
302
GRIDFORMAT
  1
GRIDFORMAT_BEGIN
 90
        0
 91
        1
 62
     0
 92
       -2
340
14
 93
        0
 40
0.045
309
GRIDFORMAT_END
 95
        4
302
GRIDFORMAT
  1
GRIDFORMAT_BEGIN
 90
        0
 91
        1
 62
     0
 92
       -2
340
14
 93
        0
 40
0.045
309
GRIDFORMAT_END
 95
        8
302
GRIDFORMAT
  1
GRIDFORMAT_BEGIN
 90
        0
 91
        1
 62
     0
 92
       -2
340
14
 93
        0
 40
0.045
309
GRIDFORMAT_END
 95
       16
302
GRIDFORMAT
  1
GRIDFORMAT_BEGIN
 90
        0
 91
        1
 62
     0
 92
       -2
340
14
 93
        0
 40
0.045
309
GRIDFORMAT_END
 95
       32
302
GRIDFORMAT
  1
GRIDFORMAT_BEGIN
 90
        0
 91
        1
 62
     0
 92
       -2
340
14
 93
        0
 40
0.045
309
GRIDFORMAT_END
309
TABLEFORMAT_END
  1
CELLSTYLE_BEGIN
 90
        2
 91
        1
300
_HEADER
309
CELLSTYLE_END
300
CELLSTYLE
  1
TABLEFORMAT_BEGIN
 90
        5
170
     1
 91
        0
 92
        0
 62
   257
 93
        1
300
CONTENTFORMAT
  1
CONTENTFORMAT_BEGIN
 90
        0
 91
        0
 92
        4
 93
        0
300

 40
0.0
140
1.0
 94
        2
 62
     0
340
11
144
4.5
309
CONTENTFORMAT_END
171
     1
301
MARGIN
  1
CELLMARGIN_BEGIN
 40
1.5
 40
1.5
 40
1.5
 40
1.5
 40
1.5
 40
1.5
309
CELLMARGIN_END
 94
        6
 95
        1
302
GRIDFORMAT
  1
GRIDFORMAT_BEGIN
 90
        0
 91
        1
 62
     0
 92
       -2
340
14
 93
        0
 40
0.045
309
GRIDFORMAT_END
 95
        2
302
GRIDFORMAT
  1
GRIDFORMAT_BEGIN
 90
        0
 91
        1
 62
     0
 92
       -2
340
14
 93
        0
 40
0.045
309
GRIDFORMAT_END
 95
        4
302
GRIDFORMAT
  1
GRIDFORMAT_BEGIN
 90
        0
 91
        1
 62
     0
 92
       -2
340
14
 93
        0
 40
0.045
309
GRIDFORMAT_END
 95
        8
302
GRIDFORMAT
  1
GRIDFORMAT_BEGIN
 90
        0
 91
        1
 62
     0
 92
       -2
340
14
 93
        0
 40
0.045
309
GRIDFORMAT_END
 95
       16
302
GRIDFORMAT
  1
GRIDFORMAT_BEGIN
 90
        0
 91
        1
 62
     0
 92
       -2
340
14
 93
        0
 40
0.045
309
GRIDFORMAT_END
 95
       32
302
GRIDFORMAT
  1
GRIDFORMAT_BEGIN
 90
        0
 91
        1
 62
     0
 92
       -2
340
14
 93
        0
 40
0.045
309
GRIDFORMAT_END
309
TABLEFORMAT_END
  1
CELLSTYLE_BEGIN
 90
        3
 91
        2
300
_DATA
309
CELLSTYLE_END
  0
ENDSEC
  0
EOF
