  0
SECTION
  2
HEADER
  9
$ACADVER
  1
AC1018
  9
$ACADMAINTVER
 70
     0
  9
$DWGCODEPAGE
  3
ANSI_932
  9
$INSBASE
 10
0.0
 20
0.0
 30
0.0
  9
$EXTMIN
 10
-630.0
 20
-445.5
 30
0.0
  9
$EXTMAX
 10
630.0
 20
445.5
 30
0.0
  9
$LIMMIN
 10
-630.0
 20
-445.5
  9
$LIMMAX
 10
630.0
 20
445.5
  9
$ORTHOMODE
 70
     0
  9
$REGENMODE
 70
     1
  9
$FILLMODE
 70
     1
  9
$QTEXTMODE
 70
     0
  9
$MIRRTEXT
 70
     1
  9
$LTSCALE
 40
3.0
  9
$ATTMODE
 70
     1
  9
$TEXTSIZE
 40
2.5
  9
$TRACEWID
 40
1.0
  9
$TEXTSTYLE
  7
Standard
  9
$CLAYER
  8
0
  9
$CELTYPE
  6
ByLayer
  9
$CECOLOR
 62
   256
  9
$CELTSCALE
 40
1.0
  9
$DISPSILH
 70
     0
  9
$DIMSCALE
 40
1.0
  9
$DIMASZ
 40
2.5
  9
$DIMEXO
 40
0.625
  9
$DIMDLI
 40
3.75
  9
$DIMRND
 40
0.0
  9
$DIMDLE
 40
0.0
  9
$DIMEXE
 40
1.25
  9
$DIMTP
 40
0.0
  9
$DIMTM
 40
0.0
  9
$DIMTXT
 40
2.5
  9
$DIMCEN
 40
2.5
  9
$DIMTSZ
 40
0.0
  9
$DIMTOL
 70
     0
  9
$DIMLIM
 70
     0
  9
$DIMTIH
 70
     0
  9
$DIMTOH
 70
     0
  9
$DIMSE1
 70
     0
  9
$DIMSE2
 70
     0
  9
$DIMTAD
 70
     1
  9
$DIMZIN
 70
     8
  9
$DIMBLK
  1

  9
$DIMASO
 70
     1
  9
$DIMSHO
 70
     1
  9
$DIMPOST
  1

  9
$DIMAPOST
  1

  9
$DIMALT
 70
     0
  9
$DIMALTD
 70
     3
  9
$DIMALTF
 40
0.03937007874016
  9
$DIMLFAC
 40
1.0
  9
$DIMTOFL
 70
     1
  9
$DIMTVP
 40
0.0
  9
$DIMTIX
 70
     0
  9
$DIMSOXD
 70
     0
  9
$DIMSAH
 70
     0
  9
$DIMBLK1
  1

  9
$DIMBLK2
  1

  9
$DIMSTYLE
  2
ISO-25
  9
$DIMCLRD
 70
     0
  9
$DIMCLRE
 70
     0
  9
$DIMCLRT
 70
     0
  9
$DIMTFAC
 40
1.0
  9
$DIMGAP
 40
0.625
  9
$DIMJUST
 70
     0
  9
$DIMSD1
 70
     0
  9
$DIMSD2
 70
     0
  9
$DIMTOLJ
 70
     0
  9
$DIMTZIN
 70
     8
  9
$DIMALTZ
 70
     0
  9
$DIMALTTZ
 70
     0
  9
$DIMUPT
 70
     0
  9
$DIMDEC
 70
     2
  9
$DIMTDEC
 70
     2
  9
$DIMALTU
 70
     2
  9
$DIMALTTD
 70
     3
  9
$DIMTXSTY
  7
Standard
  9
$DIMAUNIT
 70
     0
  9
$DIMADEC
 70
     0
  9
$DIMALTRND
 40
0.0
  9
$DIMAZIN
 70
     0
  9
$DIMDSEP
 70
    44
  9
$DIMATFIT
 70
     3
  9
$DIMFRAC
 70
     0
  9
$DIMLDRBLK
  1

  9
$DIMLUNIT
 70
     2
  9
$DIMLWD
 70
    -2
  9
$DIMLWE
 70
    -2
  9
$DIMTMOVE
 70
     0
  9
$LUNITS
 70
     2
  9
$LUPREC
 70
     4
  9
$SKETCHINC
 40
1.0
  9
$FILLETRAD
 40
10.0
  9
$AUNITS
 70
     0
  9
$AUPREC
 70
     0
  9
$MENU
  1
.
  9
$ELEVATION
 40
0.0
  9
$PELEVATION
 40
0.0
  9
$THICKNESS
 40
0.0
  9
$LIMCHECK
 70
     0
  9
$CHAMFERA
 40
10.0
  9
$CHAMFERB
 40
10.0
  9
$CHAMFERC
 40
20.0
  9
$CHAMFERD
 40
0.0
  9
$SKPOLY
 70
     0
  9
$TDCREATE
 40
2459018.607004283
  9
$TDUCREATE
 40
2459018.232004283
  9
$TDUPDATE
 40
2459018.607004294
  9
$TDUUPDATE
 40
2459018.232004294
  9
$TDINDWG
 40
0.0000000116
  9
$TDUSRTIMER
 40
0.0000000116
  9
$USRTIMER
 70
     1
  9
$ANGBASE
 50
0.0
  9
$ANGDIR
 70
     0
  9
$PDMODE
 70
     0
  9
$PDSIZE
 40
0.0
  9
$PLINEWID
 40
0.0
  9
$SPLFRAME
 70
     0
  9
$SPLINETYPE
 70
     6
  9
$SPLINESEGS
 70
     8
  9
$HANDSEED
  5
3F7
  9
$SURFTAB1
 70
     6
  9
$SURFTAB2
 70
     6
  9
$SURFTYPE
 70
     6
  9
$SURFU
 70
     6
  9
$SURFV
 70
     6
  9
$UCSBASE
  2

  9
$UCSNAME
  2

  9
$UCSORG
 10
0.0
 20
0.0
 30
0.0
  9
$UCSXDIR
 10
1.0
 20
0.0
 30
0.0
  9
$UCSYDIR
 10
0.0
 20
1.0
 30
0.0
  9
$UCSORTHOREF
  2

  9
$UCSORTHOVIEW
 70
     0
  9
$UCSORGTOP
 10
0.0
 20
0.0
 30
0.0
  9
$UCSORGBOTTOM
 10
0.0
 20
0.0
 30
0.0
  9
$UCSORGLEFT
 10
0.0
 20
0.0
 30
0.0
  9
$UCSORGRIGHT
 10
0.0
 20
0.0
 30
0.0
  9
$UCSORGFRONT
 10
0.0
 20
0.0
 30
0.0
  9
$UCSORGBACK
 10
0.0
 20
0.0
 30
0.0
  9
$PUCSBASE
  2

  9
$PUCSNAME
  2

  9
$PUCSORG
 10
0.0
 20
0.0
 30
0.0
  9
$PUCSXDIR
 10
1.0
 20
0.0
 30
0.0
  9
$PUCSYDIR
 10
0.0
 20
1.0
 30
0.0
  9
$PUCSORTHOREF
  2

  9
$PUCSORTHOVIEW
 70
     0
  9
$PUCSORGTOP
 10
0.0
 20
0.0
 30
0.0
  9
$PUCSORGBOTTOM
 10
0.0
 20
0.0
 30
0.0
  9
$PUCSORGLEFT
 10
0.0
 20
0.0
 30
0.0
  9
$PUCSORGRIGHT
 10
0.0
 20
0.0
 30
0.0
  9
$PUCSORGFRONT
 10
0.0
 20
0.0
 30
0.0
  9
$PUCSORGBACK
 10
0.0
 20
0.0
 30
0.0
  9
$USERI1
 70
     0
  9
$USERI2
 70
     0
  9
$USERI3
 70
     0
  9
$USERI4
 70
     0
  9
$USERI5
 70
     0
  9
$USERR1
 40
0.0
  9
$USERR2
 40
0.0
  9
$USERR3
 40
0.0
  9
$USERR4
 40
0.0
  9
$USERR5
 40
0.0
  9
$WORLDVIEW
 70
     1
  9
$SHADEDGE
 70
     3
  9
$SHADEDIF
 70
    70
  9
$TILEMODE
 70
     1
  9
$MAXACTVP
 70
    64
  9
$PINSBASE
 10
0.0
 20
0.0
 30
0.0
  9
$PLIMCHECK
 70
     0
  9
$PEXTMIN
 10
1.000000000000000E+20
 20
1.000000000000000E+20
 30
1.000000000000000E+20
  9
$PEXTMAX
 10
-1.000000000000000E+20
 20
-1.000000000000000E+20
 30
-1.000000000000000E+20
  9
$PLIMMIN
 10
0.0
 20
0.0
  9
$PLIMMAX
 10
420.0
 20
297.0
  9
$UNITMODE
 70
     0
  9
$VISRETAIN
 70
     1
  9
$PLINEGEN
 70
     0
  9
$PSLTSCALE
 70
     1
  9
$TREEDEPTH
 70
  3020
  9
$CMLSTYLE
  2
Standard
  9
$CMLJUST
 70
     0
  9
$CMLSCALE
 40
20.0
  9
$PROXYGRAPHICS
 70
     1
  9
$MEASUREMENT
 70
     1
  9
$CELWEIGHT
370
    -1
  9
$ENDCAPS
280
     0
  9
$JOINSTYLE
280
     0
  9
$LWDISPLAY
290
     0
  9
$INSUNITS
 70
     4
  9
$HYPERLINKBASE
  1

  9
$STYLESHEET
  1

  9
$XEDIT
290
     1
  9
$CEPSNTYPE
380
     0
  9
$PSTYLEMODE
290
     1
  9
$FINGERPRINTGUID
  2
{F80B5EE3-31AB-4220-BCA2-F5D50AFB2400}
  9
$VERSIONGUID
  2
{FAEB1C32-E019-11D5-929B-00C0DF256EC4}
  9
$EXTNAMES
290
     1
  9
$PSVPSCALE
 40
0.0
  9
$OLESTARTUP
290
     0
  9
$SORTENTS
280
   127
  9
$INDEXCTL
280
     0
  9
$HIDETEXT
280
     1
  9
$XCLIPFRAME
290
     0
  9
$HALOGAP
280
     0
  9
$OBSCOLOR
 70
   257
  9
$OBSLTYPE
280
     0
  9
$INTERSECTIONDISPLAY
280
     0
  9
$INTERSECTIONCOLOR
 70
   257
  9
$DIMASSOC
280
     2
  9
$PROJECTNAME
  1

  0
ENDSEC
  0
SECTION
  2
CLASSES
  0
CLASS
  1
ACDBDICTIONARYWDFLT
  2
AcDbDictionaryWithDefault
  3
ObjectDBX Classes
 90
        0
 91
        4
280
     0
281
     0
  0
CLASS
  1
VISUALSTYLE
  2
AcDbVisualStyle
  3
ObjectDBX Classes
 90
     4095
 91
        4
280
     0
281
     0
  0
ENDSEC
  0
SECTION
  2
TABLES
  0
TABLE
  2
VPORT
  5
8
330
0
100
AcDbSymbolTable
 70
     1
  0
VPORT
  5
29
330
8
100
AcDbSymbolTableRecord
100
AcDbViewportTableRecord
  2
*Active
 70
     0
 10
0.0
 20
0.0
 11
1.0
 21
1.0
 12
0.0
 22
0.0
 13
0.0
 23
0.0
 14
10.0
 24
10.0
 15
10.0
 25
10.0
 16
0.0
 26
0.0
 36
1.0
 17
0.0
 27
0.0
 37
0.0
 40
980.1
 41
1.414141414141414
 42
50.0
 43
0.0
 44
0.0
 50
0.0
 51
0.0
 71
     0
 72
 10000
 73
     1
 74
     3
 75
     0
 76
     0
 77
     0
 78
     0
281
     0
 65
     1
110
0.0
120
0.0
130
0.0
111
1.0
121
0.0
131
0.0
112
0.0
122
1.0
132
0.0
 79
     0
146
0.0
  0
ENDTAB
  0
TABLE
  2
LTYPE
  5
5
330
0
100
AcDbSymbolTable
 70
     4
  0
LTYPE
  5
14
330
5
100
AcDbSymbolTableRecord
100
AcDbLinetypeTableRecord
  2
ByBlock
 70
     0
  3

 72
    65
 73
     0
 40
0.0
  0
LTYPE
  5
15
330
5
100
AcDbSymbolTableRecord
100
AcDbLinetypeTableRecord
  2
ByLayer
 70
     0
  3

 72
    65
 73
     0
 40
0.0
  0
LTYPE
  5
16
330
5
100
AcDbSymbolTableRecord
100
AcDbLinetypeTableRecord
  2
Continuous
 70
     0
  3
Solid line
 72
    65
 73
     0
 40
0.0
  0
LTYPE
  5
3C
330
5
100
AcDbSymbolTableRecord
100
AcDbLinetypeTableRecord
  2
JWW_DASHED1
 70
     0
  3
-  --  --  --  --  --  --  --  -
 72
    65
 73
     2
 40
1.693333333333333
 49
0.8466666666666667
 74
     0
 49
-0.8466666666666667
 74
     0
  0
LTYPE
  5
3D
330
5
100
AcDbSymbolTableRecord
100
AcDbLinetypeTableRecord
  2
JWW_PHANTOM1
 70
     0
  3
----  -  -  --------  -  -  ----
 72
    65
 73
     6
 40
6.773333333333333
 49
3.386666666666667
 74
     0
 49
-0.8466666666666667
 74
     0
 49
0.4233333333333333
 74
     0
 49
-0.8466666666666667
 74
     0
 49
0.4233333333333333
 74
     0
 49
-0.8466666666666667
 74
     0
  0
LTYPE
  5
3E
330
5
100
AcDbSymbolTableRecord
100
AcDbLinetypeTableRecord
  2
JWW_CENTER1
 70
     0
  3
-----  --  ----------  --  -----
 72
    65
 73
     4
 40
6.773333333333333
 49
4.233333333333333
 74
     0
 49
-0.8466666666666667
 74
     0
 49
0.8466666666666667
 74
     0
 49
-0.8466666666666667
 74
     0
  0
ENDTAB
  0
TABLE
  2
LAYER
  5
2
330
0
100
AcDbSymbolTable
 70
    15
  0
LAYER
  5
10
330
2
100
AcDbSymbolTableRecord
100
AcDbLayerTableRecord
  2
0
 70
     0
 62
     7
  6
Continuous
370
    -3
390
F
  0
LAYER
  5
3F
330
2
100
AcDbSymbolTableRecord
100
AcDbLayerTableRecord
  2
3-5
 70
     0
 62
     7
  6
Continuous
370
    -1
390
F
  0
LAYER
  5
40
330
2
100
AcDbSymbolTableRecord
100
AcDbLayerTableRecord
  2
通り芯
 70
     0
 62
     7
  6
Continuous
370
    -1
390
F
  0
LAYER
  5
41
330
2
100
AcDbSymbolTableRecord
100
AcDbLayerTableRecord
  2
0-A
 70
     0
 62
     7
  6
Continuous
370
    -1
390
F
  0
LAYER
  5
42
330
2
100
AcDbSymbolTableRecord
100
AcDbLayerTableRecord
  2
建具
 70
     0
 62
     7
  6
Continuous
370
    -1
390
F
  0
LAYER
  5
43
330
2
100
AcDbSymbolTableRecord
100
AcDbLayerTableRecord
  2
仕上
 70
     0
 62
     7
  6
Continuous
370
    -1
390
F
  0
LAYER
  5
44
330
2
100
AcDbSymbolTableRecord
100
AcDbLayerTableRecord
  2
躯体
 70
     0
 62
     7
  6
Continuous
370
    -1
390
F
  0
LAYER
  5
45
330
2
100
AcDbSymbolTableRecord
100
AcDbLayerTableRecord
  2
0-C
 70
     0
 62
     7
  6
Continuous
370
    -1
390
F
  0
LAYER
  5
46
330
2
100
AcDbSymbolTableRecord
100
AcDbLayerTableRecord
  2
0-B
 70
     0
 62
     7
  6
Continuous
370
    -1
390
F
  0
LAYER
  5
47
330
2
100
AcDbSymbolTableRecord
100
AcDbLayerTableRecord
  2
3-4
 70
     0
 62
     7
  6
Continuous
370
    -1
390
F
  0
LAYER
  5
48
330
2
100
AcDbSymbolTableRecord
100
AcDbLayerTableRecord
  2
寸法
 70
     0
 62
     7
  6
Continuous
370
    -1
390
F
  0
LAYER
  5
49
330
2
100
AcDbSymbolTableRecord
100
AcDbLayerTableRecord
  2
その他
 70
     0
 62
     7
  6
Continuous
370
    -1
390
F
  0
LAYER
  5
4A
330
2
100
AcDbSymbolTableRecord
100
AcDbLayerTableRecord
  2
F-5ﾚｲﾔ
 70
     0
 62
     7
  6
Continuous
370
    -1
390
F
  0
LAYER
  5
4B
330
2
100
AcDbSymbolTableRecord
100
AcDbLayerTableRecord
  2
0-8
 70
     0
 62
     7
  6
Continuous
370
    -1
390
F
  0
LAYER
  5
4C
330
2
100
AcDbSymbolTableRecord
100
AcDbLayerTableRecord
  2
0-F
 70
     0
 62
     7
  6
Continuous
370
    -1
390
F
  0
ENDTAB
  0
TABLE
  2
STYLE
  5
3
330
0
100
AcDbSymbolTable
 70
     2
  0
STYLE
  5
11
330
3
100
AcDbSymbolTableRecord
100
AcDbTextStyleTableRecord
  2
Standard
 70
     0
 40
0.0
 41
1.0
 50
0.0
 71
     0
 42
2.5
  3
txt
  4

1001
ACAD
1000

1071
        0
  0
STYLE
  5
3B
330
3
100
AcDbSymbolTableRecord
100
AcDbTextStyleTableRecord
  2
ＭＳ ゴシック
 70
     0
 40
1.0
 41
1.0
 50
0.0
 71
     0
 42
10.0
  3

  4

1001
ACAD
1000
MS Gothic
1071
    32817
  0
ENDTAB
  0
TABLE
  2
VIEW
  5
6
330
0
100
AcDbSymbolTable
 70
     0
  0
ENDTAB
  0
TABLE
  2
UCS
  5
7
330
0
100
AcDbSymbolTable
 70
     0
  0
ENDTAB
  0
TABLE
  2
APPID
  5
9
330
0
100
AcDbSymbolTable
 70
     1
  0
APPID
  5
12
330
9
100
AcDbSymbolTableRecord
100
AcDbRegAppTableRecord
  2
ACAD
 70
     0
  0
ENDTAB
  0
TABLE
  2
DIMSTYLE
  5
A
330
0
100
AcDbSymbolTable
 70
     1
100
AcDbDimStyleTable
  0
DIMSTYLE
105
27
330
A
100
AcDbSymbolTableRecord
100
AcDbDimStyleTableRecord
  2
ISO-25
 70
     0
 41
2.5
 42
0.625
 43
3.75
 44
1.25
 73
     0
 74
     0
 77
     1
 78
     8
140
2.5
141
2.5
143
0.03937007874016
147
0.625
171
     3
172
     1
271
     2
272
     2
274
     3
278
    44
283
     0
284
     8
340
11
  0
ENDTAB
  0
TABLE
  2
BLOCK_RECORD
  5
1
330
0
100
AcDbSymbolTable
 70
     1
  0
BLOCK_RECORD
  5
1F
330
1
100
AcDbSymbolTableRecord
100
AcDbBlockTableRecord
  2
*Model_Space
340
22
  0
BLOCK_RECORD
  5
1B
330
1
100
AcDbSymbolTableRecord
100
AcDbBlockTableRecord
  2
*Paper_Space
340
1E
  0
BLOCK_RECORD
  5
23
330
1
100
AcDbSymbolTableRecord
100
AcDbBlockTableRecord
  2
*Paper_Space0
340
26
  0
ENDTAB
  0
ENDSEC
  0
SECTION
  2
BLOCKS
  0
BLOCK
  5
20
330
1F
100
AcDbEntity
  8
0
100
AcDbBlockBegin
  2
*Model_Space
 70
     0
 10
0.0
 20
0.0
 30
0.0
  3
*Model_Space
  1

  0
ENDBLK
  5
21
330
1F
100
AcDbEntity
  8
0
100
AcDbBlockEnd
  0
BLOCK
  5
1C
330
1B
100
AcDbEntity
 67
     1
  8
0
100
AcDbBlockBegin
  2
*Paper_Space
 70
     0
 10
0.0
 20
0.0
 30
0.0
  3
*Paper_Space
  1

  0
ENDBLK
  5
1D
330
1B
100
AcDbEntity
 67
     1
  8
0
100
AcDbBlockEnd
  0
BLOCK
  5
24
330
23
100
AcDbEntity
  8
0
100
AcDbBlockBegin
  2
*Paper_Space0
 70
     0
 10
0.0
 20
0.0
 30
0.0
  3
*Paper_Space0
  1

  0
ENDBLK
  5
25
330
23
100
AcDbEntity
  8
0
100
AcDbBlockEnd
  0
ENDSEC
  0
SECTION
  2
ENTITIES
  0
TEXT
  5
4D
330
1F
100
AcDbEntity
  8
3-5
  6
Continuous
 62
     7
370
     9
100
AcDbText
 10
-129.2993524557794
 20
-106.8702374529909
 30
0.0
 40
6.858000000000001
  1
(別途)
 41
1.138888888888889
  7
ＭＳ ゴシック
100
AcDbText
  0
LINE
  5
4E
330
1F
100
AcDbEntity
  8
通り芯
  6
Continuous
 62
     3
370
     9
100
AcDbLine
 10
-305.7271169982261
 20
176.0550131862772
 30
0.0
 11
-306.0693868367728
 21
174.3311781800935
 31
0.0
  0
LINE
  5
4F
330
1F
100
AcDbEntity
  8
通り芯
  6
Continuous
 62
     3
370
     9
100
AcDbLine
 10
-282.7271090448032
 20
151.0549959244039
 30
0.0
 11
-281.7271043905779
 21
150.0549912701786
 31
0.0
  0
LINE
  5
50
330
1F
100
AcDbEntity
  8
通り芯
  6
Continuous
 62
     3
370
     9
100
AcDbLine
 10
-273.8112473038072
 20
150.0549912701786
 30
0.0
 11
-281.7271043905779
 21
150.0549912701786
 31
0.0
  0
LINE
  5
51
330
1F
100
AcDbEntity
  8
通り芯
  6
Continuous
 62
     3
370
     9
100
AcDbLine
 10
-265.0697905760833
 20
148.9946385176109
 30
0.0
 11
-262.2168812964773
 21
109.0549986344591
 31
0.0
  0
LINE
  5
52
330
1F
100
AcDbEntity
  8
通り芯
  6
Continuous
 62
     3
370
     9
100
AcDbLine
 10
-132.7271045673207
 20
176.0550131862772
 30
0.0
 11
-132.3847356350165
 21
174.3311781800935
 31
0.0
  0
LINE
  5
53
330
1F
100
AcDbEntity
  8
通り芯
  6
Continuous
 62
     3
370
     9
100
AcDbLine
 10
-155.7270629738648
 20
151.0549959244039
 30
0.0
 11
-156.7270676280901
 21
150.0549912701786
 31
0.0
  0
LINE
  5
54
330
1F
100
AcDbEntity
  8
通り芯
  6
Continuous
 62
     3
370
     9
100
AcDbLine
 10
-164.6429247148608
 20
150.0549912701786
 30
0.0
 11
-156.7270676280901
 21
150.0549912701786
 31
0.0
  0
LINE
  5
55
330
1F
100
AcDbEntity
  8
通り芯
  6
JWW_DASHED1
 62
     3
370
     9
100
AcDbLine
 10
-307.3940226407024
 20
167.0296032963196
 30
0.0
 11
-309.5530278831275
 21
167.7310880059525
 31
0.0
  0
LINE
  5
56
330
1F
100
AcDbEntity
  8
通り芯
  6
JWW_DASHED1
 62
     3
370
     9
100
AcDbLine
 10
-151.2491647112222
 20
156.5726354380456
 30
0.0
 11
-140.4724708442422
 21
157.3261443703875
 31
0.0
  0
LINE
  5
57
330
1F
100
AcDbEntity
  8
通り芯
  6
Continuous
 62
     3
370
     9
100
AcDbLine
 10
-166.8904702296488
 20
155.4788385423078
 30
0.0
 11
-151.2491647112222
 21
156.5726354380456
 31
0.0
  0
LINE
  5
58
330
1F
100
AcDbEntity
  8
通り芯
  6
JWW_DASHED1
 62
     3
370
     9
100
AcDbLine
 10
-137.7041380866974
 20
159.9532189765576
 30
0.0
 11
-137.107692760058
 21
164.8112904400062
 31
0.0
  0
LINE
  5
59
330
1F
100
AcDbEntity
  8
通り芯
  6
Continuous
 62
     3
370
     9
100
AcDbLine
 10
-137.107692760058
 20
164.8112904400062
 30
0.0
 11
-135.7271185299964
 21
176.0550131862772
 31
0.0
  0
LINE
  5
5A
330
1F
100
AcDbEntity
  8
通り芯
  6
Continuous
 62
     3
370
     9
100
AcDbLine
 10
-268.823957580525
 20
145.4112596042912
 30
0.0
 11
-266.2270074766474
 21
109.0549986344591
 31
0.0
  0
LINE
  5
5B
330
1F
100
AcDbEntity
  8
通り芯
  6
Continuous
 62
     3
370
     9
100
AcDbLine
 10
-116.2271020929225
 20
176.0550131862772
 30
0.0
 11
-136.5373586385306
 21
169.455814855954
 31
0.0
  0
LINE
  5
5C
330
1F
100
AcDbEntity
  8
通り芯
  6
Continuous
 62
     3
370
     9
100
AcDbLine
 10
-148.5555981937422
 20
162.0017346793244
 30
0.0
 11
-149.9219029227178
 21
157.6222365179201
 31
0.0
  0
LINE
  5
5D
330
1F
100
AcDbEntity
  8
通り芯
  6
Continuous
 62
     3
370
     9
100
AcDbLine
 10
-289.898524278047
 20
162.0017346793244
 30
0.0
 11
-288.5322195490714
 21
157.6222365179201
 31
0.0
  0
LINE
  5
5E
330
1F
100
AcDbEntity
  8
通り芯
  6
Continuous
 62
     3
370
     9
100
AcDbLine
 10
-172.2271149951418
 20
109.0549986344591
 30
0.0
 11
-266.2270074766474
 21
109.0549986344591
 31
0.0
  0
LINE
  5
5F
330
1F
100
AcDbEntity
  8
通り芯
  6
Continuous
 62
     3
370
     9
100
AcDbLine
 10
-305.3840048627403
 20
147.3784193321168
 30
0.0
 11
-307.5010438988467
 21
165.2312002375863
 31
0.0
  0
LINE
  5
60
330
1F
100
AcDbEntity
  8
通り芯
  6
Continuous
 62
     3
370
     9
100
AcDbLine
 10
-311.2269691823892
 20
128.0550870647385
 30
0.0
 11
-311.2269691823892
 21
122.0550095925084
 31
0.0
  0
LINE
  5
61
330
1F
100
AcDbEntity
  8
通り芯
  6
Continuous
 62
     3
370
     9
100
AcDbLine
 10
-297.052003541176
 20
152.2551204219832
 30
0.0
 11
-303.4019315244047
 21
152.2551204219832
 31
0.0
  0
LINE
  5
62
330
1F
100
AcDbEntity
  8
通り芯
  6
Continuous
 62
     3
370
     9
100
AcDbLine
 10
-297.052003541176
 20
152.2551204219832
 30
0.0
 11
-297.8670496969509
 21
153.0551043266119
 31
0.0
  0
LINE
  5
63
330
1F
100
AcDbEntity
  8
通り芯
  6
Continuous
 62
     3
370
     9
100
AcDbLine
 10
-302.5870340092661
 20
153.0551043266119
 30
0.0
 11
-303.4019315244047
 21
152.2551204219832
 31
0.0
  0
LINE
  5
64
330
1F
100
AcDbEntity
  8
通り芯
  6
Continuous
 62
     3
370
     9
100
AcDbLine
 10
-297.8670496969509
 20
153.0551043266119
 30
0.0
 11
-302.5870340092661
 21
153.0551043266119
 31
0.0
  0
LINE
  5
65
330
1F
100
AcDbEntity
  8
通り芯
  6
Continuous
 62
     3
370
     9
100
AcDbLine
 10
-305.2269412570378
 20
128.0550870647385
 30
0.0
 11
-311.2269691823892
 21
128.0550870647385
 31
0.0
  0
LINE
  5
66
330
1F
100
AcDbEntity
  8
通り芯
  6
Continuous
 62
     3
370
     9
100
AcDbLine
 10
-297.2269040232359
 20
130.0550468263102
 30
0.0
 11
-297.2269040232359
 21
143.0550577843595
 31
0.0
  0
LINE
  5
67
330
1F
100
AcDbEntity
  8
通り芯
  6
Continuous
 62
     3
370
     9
100
AcDbLine
 10
-305.2269412570378
 20
122.0550095925084
 30
0.0
 11
-311.2269691823892
 21
122.0550095925084
 31
0.0
  0
LINE
  5
68
330
1F
100
AcDbEntity
  8
通り芯
  6
Continuous
 62
     3
370
     9
100
AcDbLine
 10
-303.2269319485873
 20
130.0550468263102
 30
0.0
 11
-303.2269319485873
 21
143.0550577843595
 31
0.0
  0
LINE
  5
69
330
1F
100
AcDbEntity
  8
通り芯
  6
Continuous
 62
     3
370
     9
100
AcDbLine
 10
-302.5870340092661
 20
143.0550577843595
 30
0.0
 11
-302.5870340092661
 21
154.0550594339584
 31
0.0
  0
LINE
  5
6A
330
1F
100
AcDbEntity
  8
通り芯
  6
Continuous
 62
     3
370
     9
100
AcDbLine
 10
-297.8670496969509
 20
143.0550577843595
 30
0.0
 11
-297.8670496969509
 21
154.0550594339584
 31
0.0
  0
LINE
  5
6B
330
1F
100
AcDbEntity
  8
通り芯
  6
Continuous
 62
     3
370
     9
100
AcDbLine
 10
-297.052003541176
 20
143.0550577843595
 30
0.0
 11
-297.052003541176
 21
152.2551204219832
 31
0.0
  0
LINE
  5
6C
330
1F
100
AcDbEntity
  8
通り芯
  6
Continuous
 62
     3
370
     9
100
AcDbLine
 10
-303.4019315244047
 20
143.0550577843595
 30
0.0
 11
-303.4019315244047
 21
152.2551204219832
 31
0.0
  0
LINE
  5
6D
330
1F
100
AcDbEntity
  8
通り芯
  6
Continuous
 62
     3
370
     9
100
AcDbLine
 10
-297.052003541176
 20
143.0550577843595
 30
0.0
 11
-303.4019315244047
 21
143.0550577843595
 31
0.0
  0
LINE
  5
6E
330
1F
100
AcDbEntity
  8
通り芯
  6
Continuous
 62
     3
370
     9
100
AcDbLine
 10
-169.6301648912642
 20
145.4112596042912
 30
0.0
 11
-172.2271149951418
 21
109.0549986344591
 31
0.0
  0
LINE
  5
6F
330
1F
100
AcDbEntity
  8
通り芯
  6
Continuous
 62
     3
370
     9
100
AcDbLine
 10
-173.3843814425847
 20
148.9946385176109
 30
0.0
 11
-176.2372907221907
 21
109.0549986344591
 31
0.0
  0
LINE
  5
70
330
1F
100
AcDbEntity
  8
通り芯
  6
JWW_PHANTOM1
 62
     3
370
     9
100
AcDbLine
 10
-144.2271333174716
 20
146.0550222001565
 30
0.0
 11
-147.2270977332685
 21
146.0550222001565
 31
0.0
  0
LINE
  5
71
330
1F
100
AcDbEntity
  8
通り芯
  6
JWW_PHANTOM1
 62
     3
370
     9
100
AcDbLine
 10
-147.2270977332685
 20
146.0550222001565
 30
0.0
 11
-148.2271023874937
 21
151.0549463775251
 31
0.0
  0
LINE
  5
72
330
1F
100
AcDbEntity
  8
通り芯
  6
Continuous
 62
     3
370
     9
100
AcDbLine
 10
-323.2271241268496
 20
167.0550208451289
 30
0.0
 11
-324.2271287810747
 21
168.0550254993541
 31
0.0
  0
LINE
  5
73
330
1F
100
AcDbEntity
  8
通り芯
  6
Continuous
 62
     3
370
     9
100
AcDbLine
 10
-323.2271241268496
 20
167.0550208451289
 30
0.0
 11
-318.2271504026021
 21
167.0550208451289
 31
0.0
  0
LINE
  5
74
330
1F
100
AcDbEntity
  8
通り芯
  6
Continuous
 62
     3
370
     9
100
AcDbLine
 10
-309.5530774300062
 20
167.7310880059525
 30
0.0
 11
-309.7073664104976
 21
167.7812294472682
 31
0.0
  0
LINE
  5
75
330
1F
100
AcDbEntity
  8
通り芯
  6
Continuous
 62
     3
370
     9
100
AcDbLine
 10
-115.2269983449398
 20
167.0550208451289
 30
0.0
 11
-114.2269936907144
 21
168.0550254993541
 31
0.0
  0
LINE
  5
76
330
1F
100
AcDbEntity
  8
通り芯
  6
Continuous
 62
     3
370
     9
100
AcDbLine
 10
-115.2269983449398
 20
167.0550208451289
 30
0.0
 11
-120.2270216160659
 21
167.0550208451289
 31
0.0
  0
LINE
  5
77
330
1F
100
AcDbEntity
  8
通り芯
  6
Continuous
 62
     3
370
     9
100
AcDbLine
 10
-271.5636026952617
 20
155.4789376360653
 30
0.0
 11
-287.204957760567
 21
156.5726354380456
 31
0.0
  0
LINE
  5
78
330
1F
100
AcDbEntity
  8
通り芯
  6
JWW_DASHED1
 62
     3
370
     9
100
AcDbLine
 10
-287.204957760567
 20
156.5726354380456
 30
0.0
 11
-297.9817011744259
 21
157.3261443703875
 31
0.0
  0
LINE
  5
79
330
1F
100
AcDbEntity
  8
通り芯
  6
Continuous
 62
     3
370
     9
100
AcDbLine
 10
-301.3464297117313
 20
164.8112408931275
 30
0.0
 11
-302.7269543949141
 21
176.0550131862772
 31
0.0
  0
LINE
  5
7A
330
1F
100
AcDbEntity
  8
通り芯
  6
JWW_DASHED1
 62
     3
370
     9
100
AcDbLine
 10
-300.7499843850919
 20
159.9532189765576
 30
0.0
 11
-301.3464297117313
 21
164.8112408931275
 31
0.0
  0
LINE
  5
7B
330
1F
100
AcDbEntity
  8
通り芯
  6
Continuous
 62
     3
370
     9
100
AcDbLine
 10
-115.1175492897357
 20
175.1790243696146
 30
0.0
 11
-114.2269936907144
 21
168.0550254993541
 31
0.0
  0
LINE
  5
7C
330
1F
100
AcDbEntity
  8
通り芯
  6
Continuous
 62
     3
370
     9
100
AcDbLine
 10
-323.3365731820535
 20
175.1790243696146
 30
0.0
 11
-324.2271287810747
 21
168.0550254993541
 31
0.0
  0
LINE
  5
7D
330
1F
100
AcDbEntity
  8
通り芯
  6
JWW_CENTER1
 62
     3
370
     9
100
AcDbLine
 10
-305.227089897674
 20
125.0550731020628
 30
0.0
 11
-312.1889713805974
 21
125.0550731020628
 31
0.0
  0
LINE
  5
7E
330
1F
100
AcDbEntity
  8
通り芯
  6
JWW_PHANTOM1
 62
     3
370
     9
100
AcDbLine
 10
-143.227178210125
 20
153.1237763005878
 30
0.0
 11
-144.2271333174716
 21
146.0550222001565
 31
0.0
  0
LINE
  5
7F
330
1F
100
AcDbEntity
  8
通り芯
  6
Continuous
 62
     3
370
     9
100
AcDbLine
 10
-149.227107041719
 20
151.0549959244039
 30
0.0
 11
-155.7270629738648
 21
151.0549959244039
 31
0.0
  0
LINE
  5
80
330
1F
100
AcDbEntity
  8
通り芯
  6
JWW_PHANTOM1
 62
     3
370
     9
100
AcDbLine
 10
-149.227107041719
 20
151.0549959244039
 30
0.0
 11
-148.2271023874937
 21
151.0549959244039
 31
0.0
  0
LINE
  5
81
330
1F
100
AcDbEntity
  8
通り芯
  6
JWW_DASHED1
 62
     3
370
     9
100
AcDbLine
 10
-304.7201757809729
 20
159.4657767832133
 30
0.0
 11
-305.3434755159061
 21
164.5420527007672
 31
0.0
  0
LINE
  5
82
330
1F
100
AcDbEntity
  8
通り芯
  6
JWW_DASHED1
 62
     3
370
     9
100
AcDbLine
 10
-291.0758076645132
 20
152.8335306847501
 30
0.0
 11
-298.2605510081463
 21
153.3358864886044
 31
0.0
  0
LINE
  5
83
330
1F
100
AcDbEntity
  8
通り芯
  6
Continuous
 62
     3
370
     9
100
AcDbLine
 10
-303.8944770462624
 20
146.0550222001565
 30
0.0
 11
-302.5870340092661
 21
146.0550222001565
 31
0.0
  0
LINE
  5
84
330
1F
100
AcDbEntity
  8
通り芯
  6
Continuous
 62
     3
370
     9
100
AcDbLine
 10
-297.8670496969509
 20
154.0550594339584
 30
0.0
 11
-302.5870340092661
 21
154.0550594339584
 31
0.0
  0
LINE
  5
85
330
1F
100
AcDbEntity
  8
通り芯
  6
Continuous
 62
     3
370
     9
100
AcDbLine
 10
-297.8670496969509
 20
154.0550594339584
 30
0.0
 11
-300.2270666265479
 21
155.4175986001474
 31
0.0
  0
LINE
  5
86
330
1F
100
AcDbEntity
  8
通り芯
  6
Continuous
 62
     3
370
     9
100
AcDbLine
 10
-302.5870340092661
 20
154.0550594339584
 30
0.0
 11
-300.2270666265479
 21
155.4175986001474
 31
0.0
  0
LINE
  5
87
330
1F
100
AcDbEntity
  8
通り芯
  6
JWW_CENTER1
 62
     3
370
     9
100
AcDbLine
 10
-300.2270666265479
 20
130.0550468263102
 30
0.0
 11
-300.2270666265479
 21
155.6860435893261
 31
0.0
  0
LINE
  5
88
330
1F
100
AcDbEntity
  8
通り芯
  6
Continuous
 62
     3
370
     9
100
AcDbLine
 10
-288.997365646969
 20
151.0549959244039
 30
0.0
 11
-282.7271090448032
 21
151.0549959244039
 31
0.0
  0
LINE
  5
89
330
1F
100
AcDbEntity
  8
通り芯
  6
Continuous
 62
     3
370
     9
100
AcDbLine
 10
-290.9859296264235
 20
147.2608941356732
 30
0.0
 11
-290.4682142901504
 21
149.8491735357659
 31
0.0
  0
LINE
  5
8A
330
1F
100
AcDbEntity
  8
通り芯
  6
Continuous
 62
     3
370
     9
100
AcDbLine
 10
-297.8670496969509
 20
146.0550222001565
 30
0.0
 11
-292.4567287227261
 21
146.0550222001565
 31
0.0
  0
LINE
  5
8B
330
1F
100
AcDbEntity
  8
通り芯
  6
Continuous
 62
     3
370
     9
100
AcDbLine
 10
-146.227142625922
 20
156.05501919553
 30
0.0
 11
-140.2272137943282
 21
156.05501919553
 31
0.0
  0
LINE
  5
8C
330
1F
100
AcDbEntity
  8
通り芯
  6
Continuous
 62
     3
370
     9
100
AcDbLine
 10
-145.7271650722487
 20
155.5550416418568
 30
0.0
 11
-140.7272408948801
 21
155.5550416418568
 31
0.0
  0
LINE
  5
8D
330
1F
100
AcDbEntity
  8
通り芯
  6
Continuous
 62
     3
370
     9
100
AcDbLine
 10
-140.7272408948801
 20
155.5550416418568
 30
0.0
 11
-143.227178210125
 21
154.1116419695142
 31
0.0
  0
LINE
  5
8E
330
1F
100
AcDbEntity
  8
通り芯
  6
Continuous
 62
     3
370
     9
100
AcDbLine
 10
-145.7271650722487
 20
155.5550416418568
 30
0.0
 11
-143.227178210125
 21
154.1116419695142
 31
0.0
  0
LINE
  5
8F
330
1F
100
AcDbEntity
  8
通り芯
  6
Continuous
 62
     3
370
     9
100
AcDbLine
 10
-147.1236438503957
 20
163.0550022282279
 30
0.0
 11
-145.7271650722487
 21
163.0550022282279
 31
0.0
  0
LINE
  5
90
330
1F
100
AcDbEntity
  8
通り芯
  6
Continuous
 62
     3
370
     9
100
AcDbLine
 10
-131.0600502842081
 20
167.0296032963196
 30
0.0
 11
-128.7468056081704
 21
167.7812294472682
 31
0.0
  0
LINE
  5
91
330
1F
100
AcDbEntity
  8
通り芯
  6
Continuous
 62
     3
370
     9
100
AcDbLine
 10
-133.7340457845739
 20
159.4656776894557
 30
0.0
 11
-133.1106469558833
 21
164.5420527007672
 31
0.0
  0
LINE
  5
92
330
1F
100
AcDbEntity
  8
通り芯
  6
Continuous
 62
     3
370
     9
100
AcDbLine
 10
-147.3783148072761
 20
152.8335306847501
 30
0.0
 11
-140.193571463643
 21
153.3358864886044
 31
0.0
  0
LINE
  5
93
330
1F
100
AcDbEntity
  8
通り芯
  6
Continuous
 62
     3
370
     9
100
AcDbLine
 10
-291.3304290745149
 20
163.0550022282279
 30
0.0
 11
-299.3613835606695
 21
163.0550022282279
 31
0.0
  0
LINE
  5
94
330
1F
100
AcDbEntity
  8
通り芯
  6
Continuous
 62
     3
370
     9
100
AcDbLine
 10
-322.2270203788668
 20
176.0550131862772
 30
0.0
 11
-309.9389485218709
 21
172.062377054313
 31
0.0
  0
LINE
  5
95
330
1F
100
AcDbEntity
  8
通り芯
  6
JWW_DASHED1
 62
     3
370
     9
100
AcDbLine
 10
-309.9389980687498
 20
172.062377054313
 30
0.0
 11
-301.9168133801375
 21
169.455814855954
 31
0.0
  0
LINE
  5
96
330
1F
100
AcDbEntity
  8
通り芯
  6
Continuous
 62
     3
370
     9
100
AcDbLine
 10
-166.4022352862442
 20
155.4958826686048
 30
0.0
 11
-272.0519367324238
 21
155.4958826686048
 31
0.0
  0
LINE
  5
97
330
1F
100
AcDbEntity
  8
通り芯
  6
Continuous
 62
     3
370
     9
100
AcDbLine
 10
-140.2272137943282
 20
158.7017143656932
 30
0.0
 11
-140.2272137943282
 21
156.05501919553
 31
0.0
  0
LINE
  5
98
330
1F
100
AcDbEntity
  8
通り芯
  6
Continuous
 62
     3
370
     9
100
AcDbLine
 10
-140.7272408948801
 20
158.20173681202
 30
0.0
 11
-140.7272408948801
 21
155.5550416418568
 31
0.0
  0
LINE
  5
99
330
1F
100
AcDbEntity
  8
通り芯
  6
Continuous
 62
     3
370
     9
100
AcDbLine
 10
-145.7271650722487
 20
158.20173681202
 30
0.0
 11
-145.7271650722487
 21
155.5550416418568
 31
0.0
  0
LINE
  5
9A
330
1F
100
AcDbEntity
  8
通り芯
  6
Continuous
 62
     3
370
     9
100
AcDbLine
 10
-146.227142625922
 20
158.7017143656932
 30
0.0
 11
-146.227142625922
 21
156.05501919553
 31
0.0
  0
LINE
  5
9B
330
1F
100
AcDbEntity
  8
通り芯
  6
Continuous
 62
     3
370
     9
100
AcDbLine
 10
-116.1098741777514
 20
176.0550131862772
 30
0.0
 11
-322.3442978409165
 21
176.0550131862772
 31
0.0
  0
LINE
  5
9C
330
1F
100
AcDbEntity
  8
0-A
  6
Continuous
 62
     4
370
     9
100
AcDbLine
 10
-143.7273539513134
 20
171.2017477700693
 30
0.0
 11
-142.7271511095731
 21
171.2017477700693
 31
0.0
  0
LINE
  5
9D
330
1F
100
AcDbEntity
  8
0-A
  6
Continuous
 62
     4
370
     9
100
AcDbLine
 10
-143.7273539513134
 20
174.0837906143924
 30
0.0
 11
-143.7273539513134
 21
171.2017477700693
 31
0.0
  0
LINE
  5
9E
330
1F
100
AcDbEntity
  8
0-A
  6
Continuous
 62
     4
370
     9
100
AcDbLine
 10
-145.7271650722487
 20
158.20173681202
 30
0.0
 11
-140.7272408948801
 21
158.20173681202
 31
0.0
  0
LINE
  5
9F
330
1F
100
AcDbEntity
  8
0-A
  6
Continuous
 62
     4
370
     9
100
AcDbLine
 10
-146.2271921728008
 20
158.701763912572
 30
0.0
 11
-140.2272137943282
 21
158.701763912572
 31
0.0
  0
LINE
  5
A0
330
1F
100
AcDbEntity
  8
0-A
  6
Continuous
 62
     4
370
     9
100
AcDbLine
 10
-146.2271921728008
 20
158.701763912572
 30
0.0
 11
-145.7271650722487
 21
158.20173681202
 31
0.0
  0
LINE
  5
A1
330
1F
100
AcDbEntity
  8
0-A
  6
Continuous
 62
     4
370
     9
100
AcDbLine
 10
-140.2272137943282
 20
158.701763912572
 30
0.0
 11
-140.7272408948801
 21
158.20173681202
 31
0.0
  0
LINE
  5
A2
330
1F
100
AcDbEntity
  8
0-A
  6
Continuous
 62
     4
370
     9
100
AcDbLine
 10
-140.7272408948801
 20
170.2017926627228
 30
0.0
 11
-140.7272408948801
 21
158.20173681202
 31
0.0
  0
LINE
  5
A3
330
1F
100
AcDbEntity
  8
0-A
  6
Continuous
 62
     4
370
     9
100
AcDbLine
 10
-145.7271650722487
 20
170.2017926627228
 30
0.0
 11
-145.7271650722487
 21
158.20173681202
 31
0.0
  0
LINE
  5
A4
330
1F
100
AcDbEntity
  8
0-A
  6
Continuous
 62
     4
370
     9
100
AcDbLine
 10
-146.2271921728008
 20
170.2017926627228
 30
0.0
 11
-146.2271921728008
 21
158.701763912572
 31
0.0
  0
LINE
  5
A5
330
1F
100
AcDbEntity
  8
0-A
  6
Continuous
 62
     4
370
     9
100
AcDbLine
 10
-140.2272137943282
 20
170.2017926627228
 30
0.0
 11
-140.2272137943282
 21
158.701763912572
 31
0.0
  0
LINE
  5
A6
330
1F
100
AcDbEntity
  8
0-A
  6
Continuous
 62
     4
370
     9
100
AcDbLine
 10
-142.7271511095731
 20
174.0836915206349
 30
0.0
 11
-142.7271511095731
 21
171.2017477700693
 31
0.0
  0
LINE
  5
A7
330
1F
100
AcDbEntity
  8
0-A
  6
JWW_CENTER1
 62
     4
370
     9
100
AcDbLine
 10
-143.227178210125
 20
175.2369446708973
 30
0.0
 11
-143.227178210125
 21
153.784830757144
 31
0.0
  0
LINE
  5
A8
330
1F
100
AcDbEntity
  8
0-A
  6
Continuous
 62
     4
370
     9
100
AcDbLine
 10
-148.4771654846485
 20
170.2017926627228
 30
0.0
 11
-137.9772404824805
 21
170.2017926627228
 31
0.0
  0
LINE
  5
A9
330
1F
100
AcDbEntity
  8
通り芯
  6
Continuous
 62
     3
370
     9
100
AcDbLine
 10
-140.7272408948801
 20
163.0550022282279
 30
0.0
 11
-137.3233207764673
 21
163.0550022282279
 31
0.0
  0
LINE
  5
AA
330
1F
100
AcDbEntity
  8
建具
  6
Continuous
 62
     4
370
     9
100
AcDbLine
 10
-284.7270688063749
 20
151.0549959244039
 30
0.0
 11
-284.7270688063749
 21
106.0551333124197
 31
0.0
  0
LINE
  5
AB
330
1F
100
AcDbEntity
  8
建具
  6
Continuous
 62
     4
370
     9
100
AcDbLine
 10
-289.2271145238279
 20
151.0549959244039
 30
0.0
 11
-289.2271145238279
 21
106.0551333124197
 31
0.0
  0
LINE
  5
AC
330
1F
100
AcDbEntity
  8
建具
  6
Continuous
 62
     4
370
     9
100
AcDbLine
 10
-153.7270536654143
 20
151.0549959244039
 30
0.0
 11
-153.7270536654143
 21
106.0551333124197
 31
0.0
  0
LINE
  5
AD
330
1F
100
AcDbEntity
  8
建具
  6
Continuous
 62
     4
370
     9
100
AcDbLine
 10
-149.2270079479614
 20
151.0549959244039
 30
0.0
 11
-149.2270079479614
 21
106.0551333124197
 31
0.0
  0
LINE
  5
AE
330
1F
100
AcDbEntity
  8
仕上
  6
Continuous
 62
     2
370
     9
100
AcDbLine
 10
-199.72706957226
 20
11.55516418348326
 30
0.0
 11
-200.7270246796066
 21
12.05519128403525
 31
0.0
  0
LINE
  5
AF
330
1F
100
AcDbEntity
  8
仕上
  6
Continuous
 62
     2
370
     9
100
AcDbLine
 10
-199.72706957226
 20
11.55516418348326
 30
0.0
 11
-200.7270246796066
 21
11.05523617668878
 31
0.0
  0
LINE
  5
B0
330
1F
100
AcDbEntity
  8
仕上
  6
Continuous
 62
     2
370
     9
100
AcDbLine
 10
-199.72706957226
 20
19.05517431673313
 30
0.0
 11
-200.7270246796066
 21
19.55520141728515
 31
0.0
  0
LINE
  5
B1
330
1F
100
AcDbEntity
  8
仕上
  6
Continuous
 62
     2
370
     9
100
AcDbLine
 10
-199.72706957226
 20
19.05517431673313
 30
0.0
 11
-200.7270246796066
 21
18.55524630993868
 31
0.0
  0
LINE
  5
B2
330
1F
100
AcDbEntity
  8
仕上
  6
Continuous
 62
     2
370
     9
100
AcDbLine
 10
-199.72706957226
 20
26.55518444998301
 30
0.0
 11
-200.7270246796066
 21
27.05521155053502
 31
0.0
  0
LINE
  5
B3
330
1F
100
AcDbEntity
  8
仕上
  6
Continuous
 62
     2
370
     9
100
AcDbLine
 10
-199.72706957226
 20
26.55518444998301
 30
0.0
 11
-200.7270246796066
 21
26.05525644318856
 31
0.0
  0
LINE
  5
B4
330
1F
100
AcDbEntity
  8
仕上
  6
Continuous
 62
     2
370
     9
100
AcDbLine
 10
-199.72706957226
 20
34.05519458323288
 30
0.0
 11
-200.7270246796066
 21
34.55522168378489
 31
0.0
  0
LINE
  5
B5
330
1F
100
AcDbEntity
  8
仕上
  6
Continuous
 62
     2
370
     9
100
AcDbLine
 10
-199.72706957226
 20
34.05519458323288
 30
0.0
 11
-200.7270246796066
 21
33.55516748268091
 31
0.0
  0
LINE
  5
B6
330
1F
100
AcDbEntity
  8
仕上
  6
Continuous
 62
     2
370
     9
100
AcDbLine
 10
-199.72706957226
 20
41.55520471648275
 30
0.0
 11
-200.7270246796066
 21
42.05523181703477
 31
0.0
  0
LINE
  5
B7
330
1F
100
AcDbEntity
  8
仕上
  6
Continuous
 62
     2
370
     9
100
AcDbLine
 10
-199.72706957226
 20
41.55520471648275
 30
0.0
 11
-200.7270246796066
 21
41.05517761593079
 31
0.0
  0
LINE
  5
B8
330
1F
100
AcDbEntity
  8
仕上
  6
Continuous
 62
     2
370
     9
100
AcDbLine
 10
-199.72706957226
 20
49.05521484973263
 30
0.0
 11
-200.7270246796066
 21
49.55524195028464
 31
0.0
  0
LINE
  5
B9
330
1F
100
AcDbEntity
  8
仕上
  6
Continuous
 62
     2
370
     9
100
AcDbLine
 10
-199.72706957226
 20
49.05521484973263
 30
0.0
 11
-200.7270246796066
 21
48.55518774918067
 31
0.0
  0
LINE
  5
BA
330
1F
100
AcDbEntity
  8
仕上
  6
Continuous
 62
     2
370
     9
100
AcDbLine
 10
-200.7270246796066
 20
18.55524630993868
 30
0.0
 11
-200.7270246796066
 21
12.05519128403525
 31
0.0
  0
LINE
  5
BB
330
1F
100
AcDbEntity
  8
仕上
  6
Continuous
 62
     2
370
     9
100
AcDbLine
 10
-200.7270246796066
 20
33.55516748268091
 30
0.0
 11
-200.7270246796066
 21
27.05521155053502
 31
0.0
  0
LINE
  5
BC
330
1F
100
AcDbEntity
  8
仕上
  6
Continuous
 62
     2
370
     9
100
AcDbLine
 10
-200.7270246796066
 20
41.05517761593079
 30
0.0
 11
-200.7270246796066
 21
34.55522168378489
 31
0.0
  0
LINE
  5
BD
330
1F
100
AcDbEntity
  8
仕上
  6
Continuous
 62
     2
370
     9
100
AcDbLine
 10
-200.7270246796066
 20
48.55518774918067
 30
0.0
 11
-200.7270246796066
 21
42.05523181703477
 31
0.0
  0
LINE
  5
BE
330
1F
100
AcDbEntity
  8
仕上
  6
Continuous
 62
     2
370
     9
100
AcDbLine
 10
-200.7270246796066
 20
26.05525644318856
 30
0.0
 11
-200.7270246796066
 21
19.55520141728515
 31
0.0
  0
LINE
  5
BF
330
1F
100
AcDbEntity
  8
仕上
  6
Continuous
 62
     2
370
     9
100
AcDbLine
 10
-199.72706957226
 20
4.055154050233391
 30
0.0
 11
-198.7270153711561
 21
4.055154050233391
 31
0.0
  0
LINE
  5
C0
330
1F
100
AcDbEntity
  8
仕上
  6
Continuous
 62
     2
370
     9
100
AcDbLine
 10
-200.7270246796066
 20
5.055208251337397
 30
0.0
 11
-200.7270246796066
 21
11.05523617668878
 31
0.0
  0
LINE
  5
C1
330
1F
100
AcDbEntity
  8
仕上
  6
Continuous
 62
     2
370
     9
100
AcDbLine
 10
-284.2270912527017
 20
101.0551595881722
 30
0.0
 11
-154.2270807659664
 21
101.0551595881722
 31
0.0
  0
LINE
  5
C2
330
1F
100
AcDbEntity
  8
仕上
  6
Continuous
 62
     2
370
     9
100
AcDbLine
 10
-281.7270548436992
 20
74.18737363728694
 30
0.0
 11
-281.7270548436992
 21
101.0551595881722
 31
0.0
  0
LINE
  5
C3
330
1F
100
AcDbEntity
  8
仕上
  6
Continuous
 62
     2
370
     9
100
AcDbLine
 10
-156.7270180812113
 20
74.18737363728694
 30
0.0
 11
-156.7270180812113
 21
101.0551595881722
 31
0.0
  0
LINE
  5
C4
330
1F
100
AcDbEntity
  8
仕上
  6
Continuous
 62
     2
370
     9
100
AcDbLine
 10
-281.2898531854281
 20
64.63552816039264
 30
0.0
 11
-253.0568525369002
 21
54.1797494272091
 31
0.0
  0
LINE
  5
C5
330
1F
100
AcDbEntity
  8
仕上
  6
Continuous
 62
     2
370
     9
100
AcDbLine
 10
-157.1642197394822
 20
64.63552816039264
 30
0.0
 11
-185.7334950542258
 21
54.05518857398004
 31
0.0
  0
LINE
  5
C6
330
1F
100
AcDbEntity
  8
仕上
  6
JWW_PHANTOM1
 62
     2
370
     9
100
AcDbLine
 10
-157.1643188332398
 20
69.96746597240245
 30
0.0
 11
-154.2270807659664
 21
71.05521814893028
 31
0.0
  0
LINE
  5
C7
330
1F
100
AcDbEntity
  8
仕上
  6
Continuous
 62
     2
370
     9
100
AcDbLine
 10
-198.7270153711561
 20
54.05518857398004
 30
0.0
 11
-185.7334950542258
 21
54.05518857398004
 31
0.0
  0
LINE
  5
C8
330
1F
100
AcDbEntity
  8
仕上
  6
JWW_DASHED1
 62
     2
370
     9
100
AcDbLine
 10
-199.4216626115187
 20
54.3177870314638
 30
0.0
 11
-157.1642197394822
 21
69.96746597240245
 31
0.0
  0
LINE
  5
C9
330
1F
100
AcDbEntity
  8
仕上
  6
Continuous
 62
     2
370
     9
100
AcDbLine
 10
-203.227061088609
 20
0.0551354333324454
 30
0.0
 11
-203.227061088609
 21
52.4422394824848
 31
0.0
  0
LINE
  5
CA
330
1F
100
AcDbEntity
  8
仕上
  6
Continuous
 62
     2
370
     9
100
AcDbLine
 10
-158.0324792430567
 20
72.311826088308
 30
0.0
 11
-200.2898230213355
 21
56.66214714736929
 31
0.0
  0
LINE
  5
CB
330
1F
100
AcDbEntity
  8
仕上
  6
Continuous
 62
     2
370
     9
100
AcDbLine
 10
-200.7270246796066
 20
52.05517926552959
 30
0.0
 11
-200.7270246796066
 21
49.55524195028464
 31
0.0
  0
LINE
  5
CC
330
1F
100
AcDbEntity
  8
仕上
  6
JWW_DASHED1
 62
     2
370
     9
100
AcDbLine
 10
-200.7270246796066
 20
52.4422394824848
 30
0.0
 11
-200.7270246796066
 21
52.05517926552959
 31
0.0
  0
LINE
  5
CD
330
1F
100
AcDbEntity
  8
仕上
  6
Continuous
 62
     2
370
     9
100
AcDbLine
 10
-238.7271024464079
 20
11.55516418348326
 30
0.0
 11
-237.7271473390614
 21
12.05519128403525
 31
0.0
  0
LINE
  5
CE
330
1F
100
AcDbEntity
  8
仕上
  6
Continuous
 62
     2
370
     9
100
AcDbLine
 10
-238.7271024464079
 20
11.55516418348326
 30
0.0
 11
-237.7271473390614
 21
11.05523617668878
 31
0.0
  0
LINE
  5
CF
330
1F
100
AcDbEntity
  8
仕上
  6
Continuous
 62
     2
370
     9
100
AcDbLine
 10
-238.7271024464079
 20
19.05517431673313
 30
0.0
 11
-237.7271473390614
 21
19.55520141728515
 31
0.0
  0
LINE
  5
D0
330
1F
100
AcDbEntity
  8
仕上
  6
Continuous
 62
     2
370
     9
100
AcDbLine
 10
-238.7271024464079
 20
19.05517431673313
 30
0.0
 11
-237.7271473390614
 21
18.55524630993868
 31
0.0
  0
LINE
  5
D1
330
1F
100
AcDbEntity
  8
仕上
  6
Continuous
 62
     2
370
     9
100
AcDbLine
 10
-238.7271024464079
 20
26.55518444998301
 30
0.0
 11
-237.7271473390614
 21
27.05521155053502
 31
0.0
  0
LINE
  5
D2
330
1F
100
AcDbEntity
  8
仕上
  6
Continuous
 62
     2
370
     9
100
AcDbLine
 10
-238.7271024464079
 20
26.55518444998301
 30
0.0
 11
-237.7271473390614
 21
26.05525644318856
 31
0.0
  0
LINE
  5
D3
330
1F
100
AcDbEntity
  8
仕上
  6
Continuous
 62
     2
370
     9
100
AcDbLine
 10
-238.7271024464079
 20
34.05519458323288
 30
0.0
 11
-237.7271473390614
 21
34.55522168378489
 31
0.0
  0
LINE
  5
D4
330
1F
100
AcDbEntity
  8
仕上
  6
Continuous
 62
     2
370
     9
100
AcDbLine
 10
-238.7271024464079
 20
34.05519458323288
 30
0.0
 11
-237.7271473390614
 21
33.55516748268091
 31
0.0
  0
LINE
  5
D5
330
1F
100
AcDbEntity
  8
仕上
  6
Continuous
 62
     2
370
     9
100
AcDbLine
 10
-238.7271024464079
 20
41.55520471648275
 30
0.0
 11
-237.7271473390614
 21
42.05523181703477
 31
0.0
  0
LINE
  5
D6
330
1F
100
AcDbEntity
  8
仕上
  6
Continuous
 62
     2
370
     9
100
AcDbLine
 10
-238.7271024464079
 20
41.55520471648275
 30
0.0
 11
-237.7271473390614
 21
41.05517761593079
 31
0.0
  0
LINE
  5
D7
330
1F
100
AcDbEntity
  8
仕上
  6
Continuous
 62
     2
370
     9
100
AcDbLine
 10
-238.7271024464079
 20
49.05521484973263
 30
0.0
 11
-237.7271473390614
 21
49.55524195028464
 31
0.0
  0
LINE
  5
D8
330
1F
100
AcDbEntity
  8
仕上
  6
Continuous
 62
     2
370
     9
100
AcDbLine
 10
-238.7271024464079
 20
49.05521484973263
 30
0.0
 11
-237.7271473390614
 21
48.55518774918067
 31
0.0
  0
LINE
  5
D9
330
1F
100
AcDbEntity
  8
仕上
  6
Continuous
 62
     2
370
     9
100
AcDbLine
 10
-237.7271473390614
 20
18.55524630993868
 30
0.0
 11
-237.7271473390614
 21
12.05519128403525
 31
0.0
  0
LINE
  5
DA
330
1F
100
AcDbEntity
  8
仕上
  6
Continuous
 62
     2
370
     9
100
AcDbLine
 10
-237.7271473390614
 20
33.55516748268091
 30
0.0
 11
-237.7271473390614
 21
27.05521155053502
 31
0.0
  0
LINE
  5
DB
330
1F
100
AcDbEntity
  8
仕上
  6
Continuous
 62
     2
370
     9
100
AcDbLine
 10
-237.7271473390614
 20
41.05517761593079
 30
0.0
 11
-237.7271473390614
 21
34.55522168378489
 31
0.0
  0
LINE
  5
DC
330
1F
100
AcDbEntity
  8
仕上
  6
Continuous
 62
     2
370
     9
100
AcDbLine
 10
-237.7271473390614
 20
48.55518774918067
 30
0.0
 11
-237.7271473390614
 21
42.05523181703477
 31
0.0
  0
LINE
  5
DD
330
1F
100
AcDbEntity
  8
仕上
  6
Continuous
 62
     2
370
     9
100
AcDbLine
 10
-237.7271473390614
 20
26.05525644318856
 30
0.0
 11
-237.7271473390614
 21
19.55520141728515
 31
0.0
  0
LINE
  5
DE
330
1F
100
AcDbEntity
  8
仕上
  6
Continuous
 62
     2
370
     9
100
AcDbLine
 10
-238.7271024464079
 20
4.055154050233391
 30
0.0
 11
-239.727156647512
 21
4.055154050233391
 31
0.0
  0
LINE
  5
DF
330
1F
100
AcDbEntity
  8
仕上
  6
Continuous
 62
     2
370
     9
100
AcDbLine
 10
-237.7271473390614
 20
5.055208251337397
 30
0.0
 11
-237.7271473390614
 21
11.05523617668878
 31
0.0
  0
LINE
  5
E0
330
1F
100
AcDbEntity
  8
仕上
  6
Continuous
 62
     2
370
     9
100
AcDbLine
 10
-237.7271473390614
 20
52.05517926552959
 30
0.0
 11
-237.7271473390614
 21
49.55524195028464
 31
0.0
  0
LINE
  5
E1
330
1F
100
AcDbEntity
  8
仕上
  6
JWW_DASHED1
 62
     2
370
     9
100
AcDbLine
 10
-237.7271473390614
 20
52.4422394824848
 30
0.0
 11
-237.7271473390614
 21
52.05517926552959
 31
0.0
  0
LINE
  5
E2
330
1F
100
AcDbEntity
  8
仕上
  6
Continuous
 62
     2
370
     9
100
AcDbLine
 10
-239.7271071006332
 20
54.05518857398004
 30
0.0
 11
-252.3623043902952
 21
54.05518857398004
 31
0.0
  0
LINE
  5
E3
330
1F
100
AcDbEntity
  8
仕上
  6
JWW_DASHED1
 62
     2
370
     9
100
AcDbLine
 10
-239.0325094071493
 20
54.3177870314638
 30
0.0
 11
-281.2899027323069
 21
69.96736687864495
 31
0.0
  0
LINE
  5
E4
330
1F
100
AcDbEntity
  8
仕上
  6
Continuous
 62
     2
370
     9
100
AcDbLine
 10
-203.227061088609
 20
55.57439497084145
 30
0.0
 11
-235.2270118363015
 21
55.57439497084145
 31
0.0
  0
LINE
  5
E5
330
1F
100
AcDbEntity
  8
仕上
  6
Continuous
 62
     2
370
     9
100
AcDbLine
 10
-280.4216927756113
 20
72.311826088308
 30
0.0
 11
-238.1643489973325
 21
56.66214714736929
 31
0.0
  0
LINE
  5
E6
330
1F
100
AcDbEntity
  8
仕上
  6
Continuous
 62
     2
370
     9
100
AcDbLine
 10
-235.227110930059
 20
0.0551354333324454
 30
0.0
 11
-235.227110930059
 21
52.4422394824848
 31
0.0
  0
LINE
  5
E7
330
1F
100
AcDbEntity
  8
仕上
  6
Continuous
 62
     2
370
     9
100
AcDbLine
 10
-198.7270153711561
 20
0.0551354333324454
 30
0.0
 11
-239.727156647512
 21
0.0551354333324454
 31
0.0
  0
LINE
  5
E8
330
1F
100
AcDbEntity
  8
仕上
  6
Continuous
 62
     2
370
     9
100
AcDbLine
 10
-154.2270807659664
 20
95.05513166282088
 30
0.0
 11
-151.7270443569639
 21
92.55519434757592
 31
0.0
  0
LINE
  5
E9
330
1F
100
AcDbEntity
  8
仕上
  6
Continuous
 62
     2
370
     9
100
AcDbLine
 10
-154.2270807659664
 20
91.5551401464719
 30
0.0
 11
-151.7270443569639
 21
91.5551401464719
 31
0.0
  0
LINE
  5
EA
330
1F
100
AcDbEntity
  8
仕上
  6
Continuous
 62
     2
370
     9
100
AcDbLine
 10
-151.7270443569639
 20
92.55519434757592
 30
0.0
 11
-151.7270443569639
 21
91.5551401464719
 31
0.0
  0
LINE
  5
EB
330
1F
100
AcDbEntity
  8
仕上
  6
Continuous
 62
     2
370
     9
100
AcDbLine
 10
-154.2270807659664
 20
100.0552044808258
 30
0.0
 11
-151.7270443569639
 21
97.55516807182333
 31
0.0
  0
LINE
  5
EC
330
1F
100
AcDbEntity
  8
仕上
  6
Continuous
 62
     2
370
     9
100
AcDbLine
 10
-154.2270807659664
 20
96.55521296447687
 30
0.0
 11
-151.7270443569639
 21
96.55521296447687
 31
0.0
  0
LINE
  5
ED
330
1F
100
AcDbEntity
  8
仕上
  6
Continuous
 62
     2
370
     9
100
AcDbLine
 10
-151.7270443569639
 20
97.55516807182333
 30
0.0
 11
-151.7270443569639
 21
96.55521296447687
 31
0.0
  0
LINE
  5
EE
330
1F
100
AcDbEntity
  8
仕上
  6
Continuous
 62
     2
370
     9
100
AcDbLine
 10
-154.2270807659664
 20
90.05525703233096
 30
0.0
 11
-151.7270443569639
 21
87.555121529571
 31
0.0
  0
LINE
  5
EF
330
1F
100
AcDbEntity
  8
仕上
  6
Continuous
 62
     2
370
     9
100
AcDbLine
 10
-154.2270807659664
 20
86.55516642222453
 30
0.0
 11
-151.7270443569639
 21
86.55516642222453
 31
0.0
  0
LINE
  5
F0
330
1F
100
AcDbEntity
  8
仕上
  6
Continuous
 62
     2
370
     9
100
AcDbLine
 10
-151.7270443569639
 20
87.555121529571
 30
0.0
 11
-151.7270443569639
 21
86.55516642222453
 31
0.0
  0
LINE
  5
F1
330
1F
100
AcDbEntity
  8
仕上
  6
Continuous
 62
     2
370
     9
100
AcDbLine
 10
-154.2270807659664
 20
96.55521296447687
 30
0.0
 11
-154.2270807659664
 21
95.05513166282088
 31
0.0
  0
LINE
  5
F2
330
1F
100
AcDbEntity
  8
仕上
  6
Continuous
 62
     2
370
     9
100
AcDbLine
 10
-154.2270807659664
 20
91.5551401464719
 30
0.0
 11
-154.2270807659664
 21
90.05525703233096
 31
0.0
  0
LINE
  5
F3
330
1F
100
AcDbEntity
  8
仕上
  6
Continuous
 62
     2
370
     9
100
AcDbLine
 10
-154.2270807659664
 20
85.05518421432605
 30
0.0
 11
-151.7270443569639
 21
82.5552468990811
 31
0.0
  0
LINE
  5
F4
330
1F
100
AcDbEntity
  8
仕上
  6
Continuous
 62
     2
370
     9
100
AcDbLine
 10
-154.2270807659664
 20
81.55519269797712
 30
0.0
 11
-151.7270443569639
 21
81.55519269797712
 31
0.0
  0
LINE
  5
F5
330
1F
100
AcDbEntity
  8
仕上
  6
Continuous
 62
     2
370
     9
100
AcDbLine
 10
-151.7270443569639
 20
82.5552468990811
 30
0.0
 11
-151.7270443569639
 21
81.55519269797712
 31
0.0
  0
LINE
  5
F6
330
1F
100
AcDbEntity
  8
仕上
  6
Continuous
 62
     2
370
     9
100
AcDbLine
 10
-154.2270807659664
 20
101.0551595881722
 30
0.0
 11
-154.2270807659664
 21
100.0552044808258
 31
0.0
  0
LINE
  5
F7
330
1F
100
AcDbEntity
  8
仕上
  6
Continuous
 62
     2
370
     9
100
AcDbLine
 10
-154.2270807659664
 20
96.55521296447687
 30
0.0
 11
-154.2270807659664
 21
95.05513166282088
 31
0.0
  0
LINE
  5
F8
330
1F
100
AcDbEntity
  8
仕上
  6
Continuous
 62
     2
370
     9
100
AcDbLine
 10
-154.2270807659664
 20
91.5551401464719
 30
0.0
 11
-154.2270807659664
 21
90.05525703233096
 31
0.0
  0
LINE
  5
F9
330
1F
100
AcDbEntity
  8
仕上
  6
Continuous
 62
     2
370
     9
100
AcDbLine
 10
-154.2270807659664
 20
86.55516642222453
 30
0.0
 11
-154.2270807659664
 21
85.05518421432605
 31
0.0
  0
LINE
  5
FA
330
1F
100
AcDbEntity
  8
仕上
  6
Continuous
 62
     2
370
     9
100
AcDbLine
 10
-154.2270807659664
 20
80.05511139632107
 30
0.0
 11
-151.7270443569639
 21
77.55517408107617
 31
0.0
  0
LINE
  5
FB
330
1F
100
AcDbEntity
  8
仕上
  6
Continuous
 62
     2
370
     9
100
AcDbLine
 10
-154.2270807659664
 20
76.55511987997214
 30
0.0
 11
-151.7270443569639
 21
76.55511987997214
 31
0.0
  0
LINE
  5
FC
330
1F
100
AcDbEntity
  8
仕上
  6
Continuous
 62
     2
370
     9
100
AcDbLine
 10
-151.7270443569639
 20
77.55517408107617
 30
0.0
 11
-151.7270443569639
 21
76.55511987997214
 31
0.0
  0
LINE
  5
FD
330
1F
100
AcDbEntity
  8
仕上
  6
Continuous
 62
     2
370
     9
100
AcDbLine
 10
-154.2270807659664
 20
81.55519269797712
 30
0.0
 11
-154.2270807659664
 21
80.05511139632107
 31
0.0
  0
LINE
  5
FE
330
1F
100
AcDbEntity
  8
仕上
  6
Continuous
 62
     2
370
     9
100
AcDbLine
 10
-154.2270807659664
 20
76.55511987997214
 30
0.0
 11
-154.2270807659664
 21
68.85543582527713
 31
0.0
  0
LINE
  5
FF
330
1F
100
AcDbEntity
  8
仕上
  6
Continuous
 62
     2
370
     9
100
AcDbLine
 10
-284.2270912527017
 20
92.55519434757592
 30
0.0
 11
-286.7270781148254
 21
90.05515793857347
 31
0.0
  0
LINE
  5
100
330
1F
100
AcDbEntity
  8
仕上
  6
Continuous
 62
     2
370
     9
100
AcDbLine
 10
-284.2270912527017
 20
89.05510373746942
 30
0.0
 11
-286.7270781148254
 21
89.05510373746942
 31
0.0
  0
LINE
  5
101
330
1F
100
AcDbEntity
  8
仕上
  6
Continuous
 62
     2
370
     9
100
AcDbLine
 10
-286.7270781148254
 20
90.05515793857347
 30
0.0
 11
-286.7270781148254
 21
89.05510373746942
 31
0.0
  0
LINE
  5
102
330
1F
100
AcDbEntity
  8
仕上
  6
Continuous
 62
     2
370
     9
100
AcDbLine
 10
-284.2270912527017
 20
97.55516807182333
 30
0.0
 11
-286.7270781148254
 21
95.05513166282088
 31
0.0
  0
LINE
  5
103
330
1F
100
AcDbEntity
  8
仕上
  6
Continuous
 62
     2
370
     9
100
AcDbLine
 10
-284.2270912527017
 20
94.05517655547442
 30
0.0
 11
-286.7270781148254
 21
94.05517655547442
 31
0.0
  0
LINE
  5
104
330
1F
100
AcDbEntity
  8
仕上
  6
Continuous
 62
     2
370
     9
100
AcDbLine
 10
-286.7270781148254
 20
95.05513166282088
 30
0.0
 11
-286.7270781148254
 21
94.05517655547442
 31
0.0
  0
LINE
  5
105
330
1F
100
AcDbEntity
  8
仕上
  6
Continuous
 62
     2
370
     9
100
AcDbLine
 10
-284.2270912527017
 20
87.555121529571
 30
0.0
 11
-286.7270781148254
 21
85.05518421432605
 31
0.0
  0
LINE
  5
106
330
1F
100
AcDbEntity
  8
仕上
  6
Continuous
 62
     2
370
     9
100
AcDbLine
 10
-284.2270912527017
 20
84.05513001322201
 30
0.0
 11
-286.7270781148254
 21
84.05513001322201
 31
0.0
  0
LINE
  5
107
330
1F
100
AcDbEntity
  8
仕上
  6
Continuous
 62
     2
370
     9
100
AcDbLine
 10
-286.7270781148254
 20
85.05518421432605
 30
0.0
 11
-286.7270781148254
 21
84.05513001322201
 31
0.0
  0
LINE
  5
108
330
1F
100
AcDbEntity
  8
仕上
  6
Continuous
 62
     2
370
     9
100
AcDbLine
 10
-284.2270912527017
 20
82.55514780532359
 30
0.0
 11
-286.7270781148254
 21
80.05511139632107
 31
0.0
  0
LINE
  5
109
330
1F
100
AcDbEntity
  8
仕上
  6
Continuous
 62
     2
370
     9
100
AcDbLine
 10
-284.2270912527017
 20
79.0551562889746
 30
0.0
 11
-286.7270781148254
 21
79.0551562889746
 31
0.0
  0
LINE
  5
10A
330
1F
100
AcDbEntity
  8
仕上
  6
Continuous
 62
     2
370
     9
100
AcDbLine
 10
-286.7270781148254
 20
80.05511139632107
 30
0.0
 11
-286.7270781148254
 21
79.0551562889746
 31
0.0
  0
LINE
  5
10B
330
1F
100
AcDbEntity
  8
仕上
  6
Continuous
 62
     2
370
     9
100
AcDbLine
 10
-284.2270912527017
 20
101.0551595881722
 30
0.0
 11
-284.2270912527017
 21
97.55516807182333
 31
0.0
  0
LINE
  5
10C
330
1F
100
AcDbEntity
  8
仕上
  6
Continuous
 62
     2
370
     9
100
AcDbLine
 10
-284.2270912527017
 20
94.05517655547442
 30
0.0
 11
-284.2270912527017
 21
92.55519434757592
 31
0.0
  0
LINE
  5
10D
330
1F
100
AcDbEntity
  8
仕上
  6
Continuous
 62
     2
370
     9
100
AcDbLine
 10
-284.2270912527017
 20
89.05510373746942
 30
0.0
 11
-284.2270912527017
 21
87.555121529571
 31
0.0
  0
LINE
  5
10E
330
1F
100
AcDbEntity
  8
仕上
  6
Continuous
 62
     2
370
     9
100
AcDbLine
 10
-284.2270912527017
 20
84.05513001322201
 30
0.0
 11
-284.2270912527017
 21
82.55514780532359
 31
0.0
  0
LINE
  5
10F
330
1F
100
AcDbEntity
  8
仕上
  6
Continuous
 62
     2
370
     9
100
AcDbLine
 10
-284.2270912527017
 20
77.55517408107617
 30
0.0
 11
-285.7270734606001
 21
76.05509277942012
 31
0.0
  0
LINE
  5
110
330
1F
100
AcDbEntity
  8
仕上
  6
Continuous
 62
     2
370
     9
100
AcDbLine
 10
-285.7270734606001
 20
76.05509277942012
 30
0.0
 11
-284.2270912527017
 21
76.05509277942012
 31
0.0
  0
LINE
  5
111
330
1F
100
AcDbEntity
  8
仕上
  6
Continuous
 62
     2
370
     9
100
AcDbLine
 10
-284.2270912527017
 20
77.55517408107617
 30
0.0
 11
-284.2270912527017
 21
79.0551562889746
 31
0.0
  0
LINE
  5
112
330
1F
100
AcDbEntity
  8
仕上
  6
Continuous
 62
     2
370
     9
100
AcDbLine
 10
-284.2270912527017
 20
76.05509277942012
 30
0.0
 11
-284.2270912527017
 21
68.85543582527713
 31
0.0
  0
LINE
  5
113
330
1F
100
AcDbEntity
  8
通り芯
  6
JWW_CENTER1
 62
     3
370
     9
100
AcDbLine
 10
-219.227086009334
 20
189.9873477621512
 30
0.0
 11
-219.227086009334
 21
-36.98085916635234
 31
0.0
  0
LINE
  5
114
330
1F
100
AcDbEntity
  8
躯体
  6
Continuous
 62
     6
370
     5
100
AcDbLine
 10
-154.7271078665183
 20
106.0551333124197
 30
0.0
 11
-157.7270722823153
 21
101.055209135051
 31
0.0
  0
LINE
  5
115
330
1F
100
AcDbEntity
  8
躯体
  6
Continuous
 62
     6
370
     5
100
AcDbLine
 10
-145.227088424818
 20
89.05515328434818
 30
0.0
 11
-148.2270528406149
 21
86.05518886855127
 31
0.0
  0
LINE
  5
116
330
1F
100
AcDbEntity
  8
躯体
  6
Continuous
 62
     6
370
     5
100
AcDbLine
 10
-148.2270528406149
 20
86.05518886855127
 30
0.0
 11
-148.2270528406149
 21
76.05514232629893
 31
0.0
  0
LINE
  5
117
330
1F
100
AcDbEntity
  8
躯体
  6
Continuous
 62
     6
370
     5
100
AcDbLine
 10
-148.9769943976854
 20
108.0551426208701
 30
0.0
 11
-148.9769943976854
 21
106.0551333124197
 31
0.0
  0
LINE
  5
118
330
1F
100
AcDbEntity
  8
躯体
  6
Continuous
 62
     6
370
     5
100
AcDbLine
 10
-145.227088424818
 20
89.05515328434818
 30
0.0
 11
-145.2269893310604
 21
108.0551426208701
 31
0.0
  0
LINE
  5
119
330
1F
100
AcDbEntity
  8
躯体
  6
JWW_DASHED1
 62
     6
370
     5
100
AcDbLine
 10
-145.2269893310604
 20
102.0551642423975
 30
0.0
 11
-148.2270528406149
 21
99.05519982660057
 31
0.0
  0
LINE
  5
11A
330
1F
100
AcDbEntity
  8
躯体
  6
JWW_DASHED1
 62
     6
370
     5
100
AcDbLine
 10
-148.2270528406149
 20
86.05518886855127
 30
0.0
 11
-148.2270528406149
 21
99.05519982660057
 31
0.0
  0
LINE
  5
11B
330
1F
100
AcDbEntity
  8
躯体
  6
Continuous
 62
     6
370
     5
100
AcDbLine
 10
-283.7270641521497
 20
106.0551333124197
 30
0.0
 11
-280.727050189474
 21
101.055209135051
 31
0.0
  0
LINE
  5
11C
330
1F
100
AcDbEntity
  8
躯体
  6
Continuous
 62
     6
370
     5
100
AcDbLine
 10
-293.22708359385
 20
89.05515328434818
 30
0.0
 11
-290.2270696311743
 21
86.05518886855127
 31
0.0
  0
LINE
  5
11D
330
1F
100
AcDbEntity
  8
躯体
  6
Continuous
 62
     6
370
     5
100
AcDbLine
 10
-290.2270696311743
 20
86.05518886855127
 30
0.0
 11
-290.2270696311743
 21
76.05514232629893
 31
0.0
  0
LINE
  5
11E
330
1F
100
AcDbEntity
  8
躯体
  6
Continuous
 62
     6
370
     5
100
AcDbLine
 10
-289.477078527225
 20
108.0551426208701
 30
0.0
 11
-289.477078527225
 21
106.0551333124197
 31
0.0
  0
LINE
  5
11F
330
1F
100
AcDbEntity
  8
躯体
  6
Continuous
 62
     6
370
     5
100
AcDbLine
 10
-293.22708359385
 20
89.05515328434818
 30
0.0
 11
-293.22708359385
 21
108.0551426208701
 31
0.0
  0
LINE
  5
120
330
1F
100
AcDbEntity
  8
躯体
  6
JWW_DASHED1
 62
     6
370
     5
100
AcDbLine
 10
-293.22708359385
 20
102.0551642423975
 30
0.0
 11
-290.2270696311743
 21
99.05519982660057
 31
0.0
  0
LINE
  5
121
330
1F
100
AcDbEntity
  8
躯体
  6
JWW_DASHED1
 62
     6
370
     5
100
AcDbLine
 10
-290.2270696311743
 20
86.05518886855127
 30
0.0
 11
-290.2270696311743
 21
99.05519982660057
 31
0.0
  0
LINE
  5
122
330
1F
100
AcDbEntity
  8
躯体
  6
Continuous
 62
     6
370
     5
100
AcDbLine
 10
-148.9769943976854
 20
106.0551333124197
 30
0.0
 11
-289.477078527225
 21
106.0551333124197
 31
0.0
  0
LINE
  5
123
330
1F
100
AcDbEntity
  8
躯体
  6
Continuous
 62
     6
370
     5
100
AcDbLine
 10
-151.2270172564119
 20
77.55522362795493
 30
0.0
 11
-153.7270536654143
 21
80.05516094319988
 31
0.0
  0
LINE
  5
124
330
1F
100
AcDbEntity
  8
躯体
  6
Continuous
 62
     6
370
     5
100
AcDbLine
 10
-151.2270172564119
 20
81.05521514430386
 30
0.0
 11
-153.7270536654143
 21
81.05521514430386
 31
0.0
  0
LINE
  5
125
330
1F
100
AcDbEntity
  8
躯体
  6
Continuous
 62
     6
370
     5
100
AcDbLine
 10
-153.7270536654143
 20
81.05521514430386
 30
0.0
 11
-153.7270536654143
 21
80.05516094319988
 31
0.0
  0
LINE
  5
126
330
1F
100
AcDbEntity
  8
躯体
  6
Continuous
 62
     6
370
     5
100
AcDbLine
 10
-151.2270172564119
 20
86.05513932167251
 30
0.0
 11
-153.7270536654143
 21
86.05513932167251
 31
0.0
  0
LINE
  5
127
330
1F
100
AcDbEntity
  8
躯体
  6
Continuous
 62
     6
370
     5
100
AcDbLine
 10
-151.2270172564119
 20
82.55514780532359
 30
0.0
 11
-153.7270536654143
 21
85.0552337612048
 31
0.0
  0
LINE
  5
128
330
1F
100
AcDbEntity
  8
躯体
  6
Continuous
 62
     6
370
     5
100
AcDbLine
 10
-151.2270172564119
 20
86.05513932167251
 30
0.0
 11
-153.7270536654143
 21
86.05513932167251
 31
0.0
  0
LINE
  5
129
330
1F
100
AcDbEntity
  8
躯体
  6
Continuous
 62
     6
370
     5
100
AcDbLine
 10
-153.7270536654143
 20
86.05513932167251
 30
0.0
 11
-153.7270536654143
 21
85.0552337612048
 31
0.0
  0
LINE
  5
12A
330
1F
100
AcDbEntity
  8
躯体
  6
Continuous
 62
     6
370
     5
100
AcDbLine
 10
-151.2270172564119
 20
87.55517107644975
 30
0.0
 11
-153.7270536654143
 21
90.05520748545221
 31
0.0
  0
LINE
  5
12B
330
1F
100
AcDbEntity
  8
躯体
  6
Continuous
 62
     6
370
     5
100
AcDbLine
 10
-151.2270172564119
 20
91.05516259279868
 30
0.0
 11
-153.7270536654143
 21
91.05516259279868
 31
0.0
  0
LINE
  5
12C
330
1F
100
AcDbEntity
  8
躯体
  6
Continuous
 62
     6
370
     5
100
AcDbLine
 10
-153.7270536654143
 20
91.05516259279868
 30
0.0
 11
-153.7270536654143
 21
90.05520748545221
 31
0.0
  0
LINE
  5
12D
330
1F
100
AcDbEntity
  8
躯体
  6
Continuous
 62
     6
370
     5
100
AcDbLine
 10
-151.2270172564119
 20
92.55514480069718
 30
0.0
 11
-153.7270536654143
 21
95.05513166282088
 31
0.0
  0
LINE
  5
12E
330
1F
100
AcDbEntity
  8
躯体
  6
Continuous
 62
     6
370
     5
100
AcDbLine
 10
-151.2270172564119
 20
96.05518586392483
 30
0.0
 11
-153.7270536654143
 21
96.05518586392483
 31
0.0
  0
LINE
  5
12F
330
1F
100
AcDbEntity
  8
躯体
  6
Continuous
 62
     6
370
     5
100
AcDbLine
 10
-153.7270536654143
 20
96.05518586392483
 30
0.0
 11
-153.7270536654143
 21
95.05513166282088
 31
0.0
  0
LINE
  5
130
330
1F
100
AcDbEntity
  8
躯体
  6
Continuous
 62
     6
370
     5
100
AcDbLine
 10
-151.2270172564119
 20
92.55514480069718
 30
0.0
 11
-151.2270172564119
 21
91.05516259279868
 31
0.0
  0
LINE
  5
131
330
1F
100
AcDbEntity
  8
躯体
  6
Continuous
 62
     6
370
     5
100
AcDbLine
 10
-151.2270172564119
 20
87.55517107644975
 30
0.0
 11
-151.2270172564119
 21
86.05513932167251
 31
0.0
  0
LINE
  5
132
330
1F
100
AcDbEntity
  8
躯体
  6
Continuous
 62
     6
370
     5
100
AcDbLine
 10
-151.2270172564119
 20
82.55514780532359
 30
0.0
 11
-151.2270172564119
 21
81.05521514430386
 31
0.0
  0
LINE
  5
133
330
1F
100
AcDbEntity
  8
躯体
  6
Continuous
 62
     6
370
     5
100
AcDbLine
 10
-151.2270172564119
 20
77.55522362795493
 30
0.0
 11
-151.2270172564119
 21
76.05514232629893
 31
0.0
  0
LINE
  5
134
330
1F
100
AcDbEntity
  8
躯体
  6
Continuous
 62
     6
370
     5
100
AcDbLine
 10
-151.2270172564119
 20
97.55521761870207
 30
0.0
 11
-153.7270536654143
 21
100.055154933947
 31
0.0
  0
LINE
  5
135
330
1F
100
AcDbEntity
  8
躯体
  6
Continuous
 62
     6
370
     5
100
AcDbLine
 10
-151.2270172564119
 20
96.05518586392483
 30
0.0
 11
-151.2270172564119
 21
97.55521761870207
 31
0.0
  0
LINE
  5
136
330
1F
100
AcDbEntity
  8
躯体
  6
Continuous
 62
     6
370
     5
100
AcDbLine
 10
-153.7270536654143
 20
101.055209135051
 30
0.0
 11
-153.7270536654143
 21
100.055154933947
 31
0.0
  0
LINE
  5
137
330
1F
100
AcDbEntity
  8
躯体
  6
Continuous
 62
     6
370
     5
100
AcDbLine
 10
-287.2270556684986
 20
80.05516094319988
 30
0.0
 11
-284.7271183532536
 21
82.55519735220234
 31
0.0
  0
LINE
  5
138
330
1F
100
AcDbEntity
  8
躯体
  6
Continuous
 62
     6
370
     5
100
AcDbLine
 10
-287.2270556684986
 20
83.55515245954881
 30
0.0
 11
-284.7271183532536
 21
83.55515245954881
 31
0.0
  0
LINE
  5
139
330
1F
100
AcDbEntity
  8
躯体
  6
Continuous
 62
     6
370
     5
100
AcDbLine
 10
-284.7271183532536
 20
83.55515245954881
 30
0.0
 11
-284.7271183532536
 21
82.55519735220234
 31
0.0
  0
LINE
  5
13A
330
1F
100
AcDbEntity
  8
躯体
  6
Continuous
 62
     6
370
     5
100
AcDbLine
 10
-287.2270556684986
 20
88.55512618379622
 30
0.0
 11
-284.7271183532536
 21
88.55512618379622
 31
0.0
  0
LINE
  5
13B
330
1F
100
AcDbEntity
  8
躯体
  6
Continuous
 62
     6
370
     5
100
AcDbLine
 10
-287.2270556684986
 20
85.05518421432605
 30
0.0
 11
-284.7271183532536
 21
87.55517107644975
 31
0.0
  0
LINE
  5
13C
330
1F
100
AcDbEntity
  8
躯体
  6
Continuous
 62
     6
370
     5
100
AcDbLine
 10
-287.2270556684986
 20
88.55512618379622
 30
0.0
 11
-284.7271183532536
 21
88.55512618379622
 31
0.0
  0
LINE
  5
13D
330
1F
100
AcDbEntity
  8
躯体
  6
Continuous
 62
     6
370
     5
100
AcDbLine
 10
-284.7271183532536
 20
88.55512618379622
 30
0.0
 11
-284.7271183532536
 21
87.55517107644975
 31
0.0
  0
LINE
  5
13E
330
1F
100
AcDbEntity
  8
躯体
  6
Continuous
 62
     6
370
     5
100
AcDbLine
 10
-287.2270556684986
 20
90.05510839169466
 30
0.0
 11
-284.7271183532536
 21
92.55514480069718
 31
0.0
  0
LINE
  5
13F
330
1F
100
AcDbEntity
  8
躯体
  6
Continuous
 62
     6
370
     5
100
AcDbLine
 10
-287.2270556684986
 20
93.55519900180113
 30
0.0
 11
-284.7271183532536
 21
93.55519900180113
 31
0.0
  0
LINE
  5
140
330
1F
100
AcDbEntity
  8
躯体
  6
Continuous
 62
     6
370
     5
100
AcDbLine
 10
-284.7271183532536
 20
93.55519900180113
 30
0.0
 11
-284.7271183532536
 21
92.55514480069718
 31
0.0
  0
LINE
  5
141
330
1F
100
AcDbEntity
  8
躯体
  6
Continuous
 62
     6
370
     5
100
AcDbLine
 10
-287.2270556684986
 20
95.05513166282088
 30
0.0
 11
-284.7271183532536
 21
97.55511852494459
 31
0.0
  0
LINE
  5
142
330
1F
100
AcDbEntity
  8
躯体
  6
Continuous
 62
     6
370
     5
100
AcDbLine
 10
-287.2270556684986
 20
98.55517272604854
 30
0.0
 11
-284.7271183532536
 21
98.55517272604854
 31
0.0
  0
LINE
  5
143
330
1F
100
AcDbEntity
  8
躯体
  6
Continuous
 62
     6
370
     5
100
AcDbLine
 10
-284.7271183532536
 20
98.55517272604854
 30
0.0
 11
-284.7271183532536
 21
97.55511852494459
 31
0.0
  0
LINE
  5
144
330
1F
100
AcDbEntity
  8
躯体
  6
Continuous
 62
     6
370
     5
100
AcDbLine
 10
-287.2270556684986
 20
95.05513166282088
 30
0.0
 11
-287.2270556684986
 21
93.55519900180113
 31
0.0
  0
LINE
  5
145
330
1F
100
AcDbEntity
  8
躯体
  6
Continuous
 62
     6
370
     5
100
AcDbLine
 10
-287.2270556684986
 20
90.05510839169466
 30
0.0
 11
-287.2270556684986
 21
88.55512618379622
 31
0.0
  0
LINE
  5
146
330
1F
100
AcDbEntity
  8
躯体
  6
Continuous
 62
     6
370
     5
100
AcDbLine
 10
-287.2270556684986
 20
85.05518421432605
 30
0.0
 11
-287.2270556684986
 21
83.55515245954881
 31
0.0
  0
LINE
  5
147
330
1F
100
AcDbEntity
  8
躯体
  6
Continuous
 62
     6
370
     5
100
AcDbLine
 10
-287.2270556684986
 20
80.05516094319988
 30
0.0
 11
-287.2270556684986
 21
76.05514232629893
 31
0.0
  0
LINE
  5
148
330
1F
100
AcDbEntity
  8
躯体
  6
Continuous
 62
     6
370
     5
100
AcDbLine
 10
-287.2270556684986
 20
98.55517272604854
 30
0.0
 11
-287.2270556684986
 21
100.055154933947
 31
0.0
  0
LINE
  5
149
330
1F
100
AcDbEntity
  8
躯体
  6
Continuous
 62
     6
370
     5
100
AcDbLine
 10
-287.2270556684986
 20
100.055154933947
 30
0.0
 11
-286.2270510142734
 21
101.055209135051
 31
0.0
  0
LINE
  5
14A
330
1F
100
AcDbEntity
  8
躯体
  6
Continuous
 62
     6
370
     5
100
AcDbLine
 10
-153.7270536654143
 20
101.055209135051
 30
0.0
 11
-286.2270510142734
 21
101.055209135051
 31
0.0
  0
LINE
  5
14B
330
1F
100
AcDbEntity
  8
躯体
  6
Continuous
 62
     6
370
     5
100
AcDbLine
 10
-149.2270079479614
 20
108.0551426208701
 30
0.0
 11
-145.2269893310604
 21
108.0551426208701
 31
0.0
  0
LINE
  5
14C
330
1F
100
AcDbEntity
  8
躯体
  6
Continuous
 62
     6
370
     5
100
AcDbLine
 10
-293.22708359385
 20
108.0551426208701
 30
0.0
 11
-289.2270649769491
 21
108.0551426208701
 31
0.0
  0
LINE
  5
14D
330
1F
100
AcDbEntity
  8
躯体
  6
Continuous
 62
     6
370
     5
100
AcDbLine
 10
-148.2270528406149
 20
76.05514232629893
 30
0.0
 11
-154.2270807659664
 21
76.05514232629893
 31
0.0
  0
LINE
  5
14E
330
1F
100
AcDbEntity
  8
躯体
  6
Continuous
 62
     6
370
     5
100
AcDbLine
 10
-285.7270734606001
 20
76.05514232629893
 30
0.0
 11
-290.2270696311743
 21
76.05514232629893
 31
0.0
  0
ARC
  5
14F
330
1F
100
AcDbEntity
  8
通り芯
  6
Continuous
 62
     3
370
     9
100
AcDbCircle
 10
-309.0119264200747
 20
174.915534068313
 30
0.0
 40
3.000000027616052
100
AcDbArc
 50
251.9999389648437
 51
348.7693023681641
  0
ARC
  5
150
330
1F
100
AcDbEntity
  8
通り芯
  6
JWW_DASHED1
 62
     3
370
     9
100
AcDbCircle
 10
-297.7723160647416
 20
160.3188253950052
 30
0.0
 40
3.000000027616052
100
AcDbArc
 50
186.9997253417969
 51
266.0001831054688
  0
ARC
  5
151
330
1F
100
AcDbEntity
  8
通り芯
  6
JWW_DASHED1
 62
     3
370
     9
100
AcDbCircle
 10
-308.3211438362562
 20
164.1763967354409
 30
0.0
 40
3.000000027616052
100
AcDbArc
 50
7.000427246093758
 51
72.00015258789064
  0
ARC
  5
152
330
1F
100
AcDbEntity
  8
通り芯
  6
Continuous
 62
     3
370
     9
100
AcDbCircle
 10
-273.8112473038072
 20
145.0550175459312
 30
0.0
 40
5.000000046026752
100
AcDbArc
 50
4.085678100585942
 51
90.00000000000001
  0
ARC
  5
153
330
1F
100
AcDbEntity
  8
通り芯
  6
Continuous
 62
     3
370
     9
100
AcDbCircle
 10
-272.0519367324238
 20
148.4958500890282
 30
0.0
 40
6.999999290267473
100
AcDbArc
 50
4.085601806640622
 51
85.99998474121094
  0
ARC
  5
154
330
1F
100
AcDbEntity
  8
通り芯
  6
Continuous
 62
     3
370
     9
100
AcDbCircle
 10
-129.4421960517146
 20
174.915534068313
 30
0.0
 40
3.000000027616052
100
AcDbArc
 50
191.2306976318359
 51
288.0000610351562
  0
ARC
  5
155
330
1F
100
AcDbEntity
  8
通り芯
  6
JWW_DASHED1
 62
     3
370
     9
100
AcDbCircle
 10
-140.6818064070475
 20
160.3188253950052
 30
0.0
 40
3.000000027616052
100
AcDbArc
 50
273.9998168945312
 51
353.0002746582031
  0
ARC
  5
156
330
1F
100
AcDbEntity
  8
通り芯
  6
Continuous
 62
     3
370
     9
100
AcDbCircle
 10
-130.1330281824118
 20
164.1763967354409
 30
0.0
 40
3.000000027616052
100
AcDbArc
 50
107.9998474121093
 51
172.9995727539062
  0
ARC
  5
157
330
1F
100
AcDbEntity
  8
通り芯
  6
Continuous
 62
     3
370
     9
100
AcDbCircle
 10
-164.6429247148608
 20
145.0550175459312
 30
0.0
 40
5.000000046026752
100
AcDbArc
 50
90.0
 51
175.9143218994141
  0
ARC
  5
158
330
1F
100
AcDbEntity
  8
通り芯
  6
Continuous
 62
     3
370
     9
100
AcDbCircle
 10
-166.4022352862442
 20
148.4958500890282
 30
0.0
 40
6.999999290267473
100
AcDbArc
 50
94.00001525878906
 51
175.9143981933594
  0
ARC
  5
159
330
1F
100
AcDbEntity
  8
通り芯
  6
Continuous
 62
     3
370
     9
100
AcDbCircle
 10
-288.997365646969
 20
149.5550137165054
 30
0.0
 40
1.500000013808026
100
AcDbArc
 50
90.0
 51
168.6897888183594
  0
ARC
  5
15A
330
1F
100
AcDbEntity
  8
通り芯
  6
Continuous
 62
     3
370
     9
100
AcDbCircle
 10
-292.4567287227261
 20
147.5550539549337
 30
0.0
 40
1.500000013808026
100
AcDbArc
 50
270.0
 51
348.6897888183594
  0
ARC
  5
15B
330
1F
100
AcDbEntity
  8
通り芯
  6
Continuous
 62
     3
370
     9
100
AcDbCircle
 10
-310.4800995318025
 20
164.8779309919526
 30
0.0
 40
3.000000027616052
100
AcDbArc
 50
6.762680053710941
 51
72.00015258789062
  0
ARC
  5
15C
330
1F
100
AcDbEntity
  8
通り芯
  6
Continuous
 62
     3
370
     9
100
AcDbCircle
 10
-139.0927884579985
 20
165.0549619897996
 30
0.0
 40
2.000000018410701
100
AcDbArc
 50
270.0
 51
353.0000152587891
  0
ARC
  5
15D
330
1F
100
AcDbEntity
  8
通り芯
  6
Continuous
 62
     3
370
     9
100
AcDbCircle
 10
-151.3538572660644
 20
158.068951176915
 30
0.0
 40
1.500000013808026
100
AcDbArc
 50
274.0011749267578
 51
342.6733703613281
  0
ARC
  5
15E
330
1F
100
AcDbEntity
  8
通り芯
  6
Continuous
 62
     3
370
     9
100
AcDbCircle
 10
-147.1236438503957
 20
161.5549704734507
 30
0.0
 40
1.500000013808026
100
AcDbArc
 50
90.0
 51
162.673095703125
  0
ARC
  5
15F
330
1F
100
AcDbEntity
  8
通り芯
  6
Continuous
 62
     3
370
     9
100
AcDbCircle
 10
-299.3613835606695
 20
165.0549619897996
 30
0.0
 40
2.000000018410701
100
AcDbArc
 50
186.9999847412109
 51
270.0
  0
ARC
  5
160
330
1F
100
AcDbEntity
  8
通り芯
  6
Continuous
 62
     3
370
     9
100
AcDbCircle
 10
-287.1003147526036
 20
158.068951176915
 30
0.0
 40
1.500000013808026
100
AcDbArc
 50
197.3266296386719
 51
265.9988250732422
  0
ARC
  5
161
330
1F
100
AcDbEntity
  8
通り芯
  6
Continuous
 62
     3
370
     9
100
AcDbCircle
 10
-291.3304290745149
 20
161.5549704734507
 30
0.0
 40
1.500000013808026
100
AcDbArc
 50
17.326904296875
 51
90.0
  0
ARC
  5
162
330
1F
100
AcDbEntity
  8
通り芯
  6
Continuous
 62
     3
370
     9
100
AcDbCircle
 10
-303.8944770462624
 20
147.5550539549337
 30
0.0
 40
1.500000013808026
100
AcDbArc
 50
186.7625885009766
 51
270.0
  0
ARC
  5
163
330
1F
100
AcDbEntity
  8
通り芯
  6
Continuous
 62
     3
370
     9
100
AcDbCircle
 10
-305.2269412570378
 20
130.0550468263102
 30
0.0
 40
2.000000018410701
100
AcDbArc
 50
270.0
 51
0.0
  0
ARC
  5
164
330
1F
100
AcDbEntity
  8
通り芯
  6
Continuous
 62
     3
370
     9
100
AcDbCircle
 10
-305.2269412570378
 20
130.0550468263102
 30
0.0
 40
8.000000073642804
100
AcDbArc
 50
270.0
 51
0.0
  0
ARC
  5
165
330
1F
100
AcDbEntity
  8
通り芯
  6
JWW_CENTER1
 62
     3
370
     9
100
AcDbCircle
 10
-305.227089897674
 20
130.0550468263102
 30
0.0
 40
5.000000046026752
100
AcDbArc
 50
270.0
 51
0.0
  0
ARC
  5
166
330
1F
100
AcDbEntity
  8
通り芯
  6
Continuous
 62
     3
370
     9
100
AcDbCircle
 10
-313.1064804816697
 20
157.3196041823898
 30
0.0
 40
11.00000010125886
100
AcDbArc
 50
72.00042724609375
 51
117.7434387207031
  0
ARC
  5
167
330
1F
100
AcDbEntity
  8
通り芯
  6
Continuous
 62
     3
370
     9
100
AcDbCircle
 10
-125.3476419901195
 20
157.3196041823898
 30
0.0
 40
11.00000010125886
100
AcDbArc
 50
62.25656127929688
 51
107.9995727539062
  0
ARC
  5
168
330
1F
100
AcDbEntity
  8
通り芯
  6
Continuous
 62
     3
370
     9
100
AcDbCircle
 10
-116.1098741777514
 20
175.055008532052
 30
0.0
 40
1.00000000920535
100
AcDbArc
 50
7.124267578125002
 51
90.0
  0
ARC
  5
169
330
1F
100
AcDbEntity
  8
通り芯
  6
Continuous
 62
     3
370
     9
100
AcDbCircle
 10
-322.3442978409165
 20
175.055008532052
 30
0.0
 40
1.00000000920535
100
AcDbArc
 50
90.0
 51
172.8756713867188
  0
ARC
  5
16A
330
1F
100
AcDbEntity
  8
通り芯
  6
Continuous
 62
     3
370
     9
100
AcDbCircle
 10
-147.2388403435371
 20
150.8383769704191
 30
0.0
 40
2.000000018410701
100
AcDbArc
 50
93.99940490722656
 51
173.785140991211
  0
ARC
  5
16B
330
1F
100
AcDbEntity
  8
通り芯
  6
Continuous
 62
     3
370
     9
100
AcDbCircle
 10
-140.6818064070475
 20
160.3188253950052
 30
0.0
 40
6.999999290267473
100
AcDbArc
 50
273.9998168945312
 51
353.0002746582031
  0
ARC
  5
16C
330
1F
100
AcDbEntity
  8
通り芯
  6
JWW_DASHED1
 62
     3
370
     9
100
AcDbCircle
 10
-297.7723160647416
 20
160.3188253950052
 30
0.0
 40
6.999999290267473
100
AcDbArc
 50
186.9997253417969
 51
266.0001831054688
  0
ARC
  5
16D
330
1F
100
AcDbEntity
  8
通り芯
  6
JWW_DASHED1
 62
     3
370
     9
100
AcDbCircle
 10
-291.2152821282522
 20
150.8383769704191
 30
0.0
 40
2.000000018410701
100
AcDbArc
 50
6.214859008789066
 51
86.00059509277344
  0
ELLIPSE
  5
16E
330
1F
100
AcDbEntity
  8
0-A
  6
Continuous
 62
     4
370
     9
100
AcDbEllipse
 10
-143.227178210125
 20
170.2017926627228
 30
0.0
 11
5.24997991990859
 21
0.0
 31
0.0
210
0.0
220
0.0
230
1.0
 40
0.7428
 41
0.0
 42
1.475408021818766
  0
ELLIPSE
  5
16F
330
1F
100
AcDbEntity
  8
0-A
  6
Continuous
 62
     4
370
     9
100
AcDbEllipse
 10
-143.227178210125
 20
170.2017926627228
 30
0.0
 11
5.24997991990859
 21
0.0
 31
0.0
210
0.0
220
0.0
230
1.0
 40
0.7428
 41
1.666184365454919
 42
3.141592653589793
  0
ARC
  5
170
330
1F
100
AcDbEntity
  8
仕上
  6
Continuous
 62
     2
370
     9
100
AcDbCircle
 10
-198.7270153711561
 20
2.055243835540459
 30
0.0
 40
2.000000018410701
100
AcDbArc
 50
270.0
 51
90.0
  0
ARC
  5
171
330
1F
100
AcDbEntity
  8
仕上
  6
Continuous
 62
     2
370
     9
100
AcDbCircle
 10
-199.72706957226
 20
5.055208251337397
 30
0.0
 40
1.00000000920535
100
AcDbArc
 50
180.0
 51
270.0
  0
ARC
  5
172
330
1F
100
AcDbEntity
  8
仕上
  6
Continuous
 62
     2
370
     9
100
AcDbCircle
 10
-252.3623043902952
 20
56.05519788243053
 30
0.0
 40
2.000000018410701
100
AcDbArc
 50
249.6781616210938
 51
270.0
  0
ARC
  5
173
330
1F
100
AcDbEntity
  8
仕上
  6
Continuous
 62
     2
370
     9
100
AcDbCircle
 10
-279.7270950821274
 20
74.18737363728694
 30
0.0
 40
2.000000018410701
100
AcDbArc
 50
180.0
 51
249.6784973144531
  0
ARC
  5
174
330
1F
100
AcDbEntity
  8
仕上
  6
JWW_DASHED1
 62
     2
370
     9
100
AcDbCircle
 10
-279.7270950821274
 20
74.18737363728694
 30
0.0
 40
4.500000041424078
100
AcDbArc
 50
180.0
 51
249.6784973144531
  0
ARC
  5
175
330
1F
100
AcDbEntity
  8
仕上
  6
Continuous
 62
     2
370
     9
100
AcDbCircle
 10
-279.7270455352487
 20
68.85543582527713
 30
0.0
 40
4.500000041424078
100
AcDbArc
 50
180.0
 51
249.6782073974609
  0
ARC
  5
176
330
1F
100
AcDbEntity
  8
仕上
  6
Continuous
 62
     2
370
     9
100
AcDbCircle
 10
-158.7270769365405
 20
74.18737363728694
 30
0.0
 40
2.000000018410701
100
AcDbArc
 50
290.3218383789062
 51
0.0
  0
ARC
  5
177
330
1F
100
AcDbEntity
  8
仕上
  6
JWW_DASHED1
 62
     2
370
     9
100
AcDbCircle
 10
-158.7270769365405
 20
74.18737363728694
 30
0.0
 40
4.500000041424078
100
AcDbArc
 50
290.3218383789062
 51
0.0
  0
ARC
  5
178
330
1F
100
AcDbEntity
  8
仕上
  6
Continuous
 62
     2
370
     9
100
AcDbCircle
 10
-186.0918676283729
 20
56.05519788243053
 30
0.0
 40
2.000000018410701
100
AcDbArc
 50
270.0
 51
290.3218383789062
  0
ARC
  5
179
330
1F
100
AcDbEntity
  8
仕上
  6
Continuous
 62
     2
370
     9
100
AcDbCircle
 10
-158.7271264834193
 20
68.85543582527713
 30
0.0
 40
4.500000041424078
100
AcDbArc
 50
290.3217926025391
 51
0.0
  0
ARC
  5
17A
330
1F
100
AcDbEntity
  8
仕上
  6
Continuous
 62
     2
370
     9
100
AcDbCircle
 10
-198.7270153711561
 20
52.05517926552959
 30
0.0
 40
2.000000018410701
100
AcDbArc
 50
90.0
 51
180.0
  0
ARC
  5
17B
330
1F
100
AcDbEntity
  8
仕上
  6
JWW_DASHED1
 62
     2
370
     9
100
AcDbCircle
 10
-198.7270153711561
 20
52.4422394824848
 30
0.0
 40
2.000000018410701
100
AcDbArc
 50
110.3215026855469
 51
180.0
  0
ARC
  5
17C
330
1F
100
AcDbEntity
  8
仕上
  6
Continuous
 62
     2
370
     9
100
AcDbCircle
 10
-198.7270153711561
 20
52.4422394824848
 30
0.0
 40
4.500000041424078
100
AcDbArc
 50
110.3215026855469
 51
180.0
  0
ARC
  5
17D
330
1F
100
AcDbEntity
  8
仕上
  6
Continuous
 62
     2
370
     9
100
AcDbCircle
 10
-239.727156647512
 20
2.055243835540459
 30
0.0
 40
2.000000018410701
100
AcDbArc
 50
90.0
 51
270.0
  0
ARC
  5
17E
330
1F
100
AcDbEntity
  8
仕上
  6
Continuous
 62
     2
370
     9
100
AcDbCircle
 10
-238.7271024464079
 20
5.055208251337397
 30
0.0
 40
1.00000000920535
100
AcDbArc
 50
270.0
 51
0.0
  0
ARC
  5
17F
330
1F
100
AcDbEntity
  8
仕上
  6
Continuous
 62
     2
370
     9
100
AcDbCircle
 10
-239.7271071006332
 20
52.05517926552959
 30
0.0
 40
2.000000018410701
100
AcDbArc
 50
0.0
 51
90.0
  0
ARC
  5
180
330
1F
100
AcDbEntity
  8
仕上
  6
JWW_DASHED1
 62
     2
370
     9
100
AcDbCircle
 10
-239.7271071006332
 20
52.4422394824848
 30
0.0
 40
2.000000018410701
100
AcDbArc
 50
0.0
 51
69.67832946777344
  0
ARC
  5
181
330
1F
100
AcDbEntity
  8
仕上
  6
Continuous
 62
     2
370
     9
100
AcDbCircle
 10
-239.7271071006332
 20
52.4422394824848
 30
0.0
 40
4.500000041424078
100
AcDbArc
 50
0.0
 51
69.67822265625
  0
LINE
  5
182
330
1F
100
AcDbEntity
  8
0-C
  6
Continuous
 62
     4
370
     9
100
AcDbLine
 10
-238.7271519932867
 20
49.0551900762932
 30
0.0
 11
-243.6307570383255
 21
49.0551900762932
 31
0.0
  0
LINE
  5
183
330
1F
100
AcDbEntity
  8
0-C
  6
Continuous
 62
     4
370
     9
100
AcDbLine
 10
-237.9383656832602
 20
35.63291584392223
 30
0.0
 11
-238.7272015401655
 21
34.05519458323292
 31
0.0
  0
LINE
  5
184
330
1F
100
AcDbEntity
  8
0-C
  6
Continuous
 62
     4
370
     9
100
AcDbLine
 10
-238.8929853965316
 20
38.15351420761453
 30
0.0
 11
-243.6307570383255
 21
49.0551900762932
 31
0.0
  0
LINE
  5
185
330
1F
100
AcDbEntity
  8
0-C
  6
Continuous
 62
     4
370
     9
100
AcDbLine
 10
-238.7272510870443
 20
36.76337742995025
 30
0.0
 11
-238.7272510870443
 21
37.35635447507576
 31
0.0
  0
LINE
  5
186
330
1F
100
AcDbEntity
  8
0-C
  6
Continuous
 62
     4
370
     9
100
AcDbLine
 10
-239.1744612148269
 20
35.39677541970198
 30
0.0
 11
-238.9383703374854
 21
35.86900672126376
 31
0.0
  0
LINE
  5
187
330
1F
100
AcDbEntity
  8
0-C
  6
Continuous
 62
     4
370
     9
100
AcDbLine
 10
-237.9383656832602
 20
28.13290571067239
 30
0.0
 11
-238.7272015401655
 21
26.55518444998299
 31
0.0
  0
LINE
  5
188
330
1F
100
AcDbEntity
  8
0-C
  6
Continuous
 62
     4
370
     9
100
AcDbLine
 10
-238.9383703374854
 20
32.2414072186414
 30
0.0
 11
-239.1744612148269
 21
32.71361374676368
 31
0.0
  0
LINE
  5
189
330
1F
100
AcDbEntity
  8
0-C
  6
Continuous
 62
     4
370
     9
100
AcDbLine
 10
-238.7272510870443
 20
29.26339207013982
 30
0.0
 11
-238.7272510870443
 21
31.3470365099549
 31
0.0
  0
LINE
  5
18A
330
1F
100
AcDbEntity
  8
0-C
  6
Continuous
 62
     4
370
     9
100
AcDbLine
 10
-237.9383656832602
 20
32.47747332254343
 30
0.0
 11
-238.7272015401655
 21
34.05519458323292
 31
0.0
  0
LINE
  5
18B
330
1F
100
AcDbEntity
  8
0-C
  6
Continuous
 62
     4
370
     9
100
AcDbLine
 10
-239.1744612148269
 20
27.89676528645214
 30
0.0
 11
-238.9383703374854
 21
28.36902136145332
 31
0.0
  0
LINE
  5
18C
330
1F
100
AcDbEntity
  8
0-C
  6
Continuous
 62
     4
370
     9
100
AcDbLine
 10
-237.9383656832602
 20
24.97746318929359
 30
0.0
 11
-238.7272015401655
 21
26.55518444998299
 31
0.0
  0
LINE
  5
18D
330
1F
100
AcDbEntity
  8
0-C
  6
Continuous
 62
     4
370
     9
100
AcDbLine
 10
-237.9383656832602
 20
20.63289557742254
 30
0.0
 11
-238.7272015401655
 21
19.05517431673306
 31
0.0
  0
LINE
  5
18E
330
1F
100
AcDbEntity
  8
0-C
  6
Continuous
 62
     4
370
     9
100
AcDbLine
 10
-237.9383656832602
 20
17.47745305604374
 30
0.0
 11
-238.7272015401655
 21
19.05517431673306
 31
0.0
  0
LINE
  5
18F
330
1F
100
AcDbEntity
  8
0-C
  6
Continuous
 62
     4
370
     9
100
AcDbLine
 10
-237.9383656832602
 20
13.13288544417262
 30
0.0
 11
-238.7272015401655
 21
11.55516418348321
 31
0.0
  0
LINE
  5
190
330
1F
100
AcDbEntity
  8
0-C
  6
Continuous
 62
     4
370
     9
100
AcDbLine
 10
-237.9383656832602
 20
9.977442922793813
 30
0.0
 11
-238.7272015401655
 21
11.55516418348321
 31
0.0
  0
LINE
  5
191
330
1F
100
AcDbEntity
  8
0-C
  6
Continuous
 62
     4
370
     9
100
AcDbLine
 10
-238.9384198843642
 20
20.86893690788526
 30
0.0
 11
-239.1744612148269
 21
20.39675515320229
 31
0.0
  0
LINE
  5
192
330
1F
100
AcDbEntity
  8
0-C
  6
Continuous
 62
     4
370
     9
100
AcDbLine
 10
-238.7272510870443
 20
23.84697682982616
 30
0.0
 11
-238.7272510870443
 21
21.76335716345048
 31
0.0
  0
LINE
  5
193
330
1F
100
AcDbEntity
  8
0-C
  6
Continuous
 62
     4
370
     9
100
AcDbLine
 10
-238.9384198843642
 20
24.74139708539147
 30
0.0
 11
-239.1744612148269
 21
25.21360361351384
 31
0.0
  0
LINE
  5
194
330
1F
100
AcDbEntity
  8
0-C
  6
Continuous
 62
     4
370
     9
100
AcDbLine
 10
-238.7272510870443
 20
16.34696669657632
 30
0.0
 11
-238.7272510870443
 21
14.26337180363996
 31
0.0
  0
LINE
  5
195
330
1F
100
AcDbEntity
  8
0-C
  6
Continuous
 62
     4
370
     9
100
AcDbLine
 10
-238.9384198843642
 20
17.24138695214162
 30
0.0
 11
-239.1744612148269
 21
17.713593480264
 31
0.0
  0
LINE
  5
196
330
1F
100
AcDbEntity
  8
0-C
  6
Continuous
 62
     4
370
     9
100
AcDbLine
 10
-239.1744612148269
 20
10.21360812045347
 30
0.0
 11
-238.9383703374854
 21
9.741327272012967
 31
0.0
  0
LINE
  5
197
330
1F
100
AcDbEntity
  8
0-C
  6
Continuous
 62
     4
370
     9
100
AcDbLine
 10
-239.1744612148269
 20
12.89672024651296
 30
0.0
 11
-238.9383703374854
 21
13.36900109495346
 31
0.0
  0
LINE
  5
198
330
1F
100
AcDbEntity
  8
0-C
  6
Continuous
 62
     4
370
     9
100
AcDbLine
 10
-238.7272510870443
 20
8.846956563326472
 30
0.0
 11
-238.7272510870443
 21
6.055237679001976
 31
0.0
  0
LINE
  5
199
330
1F
100
AcDbEntity
  8
0-C
  6
Continuous
 62
     4
370
     9
100
AcDbLine
 10
-241.881851311484
 20
1.720133520976049
 30
0.0
 11
-241.6623586385306
 21
2.560621998999608
 31
0.0
  0
LINE
  5
19A
330
1F
100
AcDbEntity
  8
0-C
  6
Continuous
 62
     4
370
     9
100
AcDbLine
 10
-242.8770994653472
 20
1.856387437594975
 30
0.0
 11
-242.7258823913396
 21
2.499183869324241
 31
0.0
  0
LINE
  5
19B
330
1F
100
AcDbEntity
  8
0-C
  6
Continuous
 62
     4
370
     9
100
AcDbLine
 10
-243.0176144135404
 20
-0.3101241569638091
 30
0.0
 11
-243.0176144135404
 21
-32.02823987148989
 31
0.0
  0
LINE
  5
19C
330
1F
100
AcDbEntity
  8
0-C
  6
Continuous
 62
     4
370
     9
100
AcDbLine
 10
-243.0150875227231
 20
-0.1869506163402832
 30
0.0
 11
-242.9542935024718
 21
1.292469636868447
 31
0.0
  0
LINE
  5
19D
330
1F
100
AcDbEntity
  8
0-C
  6
Continuous
 62
     4
370
     9
100
AcDbLine
 10
-242.4761165754575
 20
3.17896704605559
 30
0.0
 11
-242.1775966308653
 21
3.762183356063275
 31
0.0
  0
LINE
  5
19E
330
1F
100
AcDbEntity
  8
0-C
  6
Continuous
 62
     4
370
     9
100
AcDbLine
 10
-242.0150828684979
 20
-0.2075125710300654
 30
0.0
 11
-241.9590453486085
 21
1.15621572024952
 31
0.0
  0
LINE
  5
19F
330
1F
100
AcDbEntity
  8
0-C
  6
Continuous
 62
     4
370
     9
100
AcDbLine
 10
-242.0176593061939
 20
-0.3306861116535913
 30
0.0
 11
-242.0176593061939
 21
-32.02823987148989
 31
0.0
  0
LINE
  5
1A0
330
1F
100
AcDbEntity
  8
0-C
  6
Continuous
 62
     4
370
     9
100
AcDbLine
 10
-242.5403788772228
 20
49.0551900762932
 30
0.0
 11
-237.8929807423064
 21
38.36141291093563
 31
0.0
  0
LINE
  5
1A1
330
1F
100
AcDbEntity
  8
0-C
  6
Continuous
 62
     4
370
     9
100
AcDbLine
 10
-199.7272182128965
 20
49.0551900762932
 30
0.0
 11
-194.8236131678577
 21
49.0551900762932
 31
0.0
  0
LINE
  5
1A2
330
1F
100
AcDbEntity
  8
0-C
  6
Continuous
 62
     4
370
     9
100
AcDbLine
 10
-200.5159549760442
 20
35.63291584392223
 30
0.0
 11
-199.7271686660177
 21
34.05519458323292
 31
0.0
  0
LINE
  5
1A3
330
1F
100
AcDbEntity
  8
0-C
  6
Continuous
 62
     4
370
     9
100
AcDbLine
 10
-199.5613848096515
 20
38.15351420761453
 30
0.0
 11
-194.8236131678577
 21
49.0551900762932
 31
0.0
  0
LINE
  5
1A4
330
1F
100
AcDbEntity
  8
0-C
  6
Continuous
 62
     4
370
     9
100
AcDbLine
 10
-199.7271191191389
 20
36.76337742995025
 30
0.0
 11
-199.7271191191389
 21
37.35635447507576
 31
0.0
  0
LINE
  5
1A5
330
1F
100
AcDbEntity
  8
0-C
  6
Continuous
 62
     4
370
     9
100
AcDbLine
 10
-199.2799089913563
 20
35.39677541970198
 30
0.0
 11
-199.5159998686978
 21
35.86900672126376
 31
0.0
  0
LINE
  5
1A6
330
1F
100
AcDbEntity
  8
0-C
  6
Continuous
 62
     4
370
     9
100
AcDbLine
 10
-200.5159549760442
 20
28.13290571067239
 30
0.0
 11
-199.7271686660177
 21
26.55518444998299
 31
0.0
  0
LINE
  5
1A7
330
1F
100
AcDbEntity
  8
0-C
  6
Continuous
 62
     4
370
     9
100
AcDbLine
 10
-199.5159998686978
 20
32.2414072186414
 30
0.0
 11
-199.2799089913563
 21
32.71361374676368
 31
0.0
  0
LINE
  5
1A8
330
1F
100
AcDbEntity
  8
0-C
  6
Continuous
 62
     4
370
     9
100
AcDbLine
 10
-199.7271191191389
 20
29.26339207013982
 30
0.0
 11
-199.7271191191389
 21
31.3470365099549
 31
0.0
  0
LINE
  5
1A9
330
1F
100
AcDbEntity
  8
0-C
  6
Continuous
 62
     4
370
     9
100
AcDbLine
 10
-200.5159549760442
 20
32.47747332254343
 30
0.0
 11
-199.7271686660177
 21
34.05519458323292
 31
0.0
  0
LINE
  5
1AA
330
1F
100
AcDbEntity
  8
0-C
  6
Continuous
 62
     4
370
     9
100
AcDbLine
 10
-199.2798594444775
 20
27.89676528645214
 30
0.0
 11
-199.5159998686978
 21
28.36902136145332
 31
0.0
  0
LINE
  5
1AB
330
1F
100
AcDbEntity
  8
0-C
  6
Continuous
 62
     4
370
     9
100
AcDbLine
 10
-200.5159549760442
 20
24.97746318929359
 30
0.0
 11
-199.7271686660177
 21
26.55518444998299
 31
0.0
  0
LINE
  5
1AC
330
1F
100
AcDbEntity
  8
0-C
  6
Continuous
 62
     4
370
     9
100
AcDbLine
 10
-200.5159549760442
 20
20.63289557742254
 30
0.0
 11
-199.7271686660177
 21
19.05517431673306
 31
0.0
  0
LINE
  5
1AD
330
1F
100
AcDbEntity
  8
0-C
  6
Continuous
 62
     4
370
     9
100
AcDbLine
 10
-200.5159549760442
 20
17.47745305604374
 30
0.0
 11
-199.7271686660177
 21
19.05517431673306
 31
0.0
  0
LINE
  5
1AE
330
1F
100
AcDbEntity
  8
0-C
  6
Continuous
 62
     4
370
     9
100
AcDbLine
 10
-200.5159549760442
 20
13.13288544417262
 30
0.0
 11
-199.7271686660177
 21
11.55516418348321
 31
0.0
  0
LINE
  5
1AF
330
1F
100
AcDbEntity
  8
0-C
  6
Continuous
 62
     4
370
     9
100
AcDbLine
 10
-200.5159549760442
 20
9.977442922793813
 30
0.0
 11
-199.7271686660177
 21
11.55516418348321
 31
0.0
  0
LINE
  5
1B0
330
1F
100
AcDbEntity
  8
0-C
  6
Continuous
 62
     4
370
     9
100
AcDbLine
 10
-199.5159998686978
 20
20.86893690788526
 30
0.0
 11
-199.2798594444775
 21
20.39675515320229
 31
0.0
  0
LINE
  5
1B1
330
1F
100
AcDbEntity
  8
0-C
  6
Continuous
 62
     4
370
     9
100
AcDbLine
 10
-199.7271191191389
 20
23.84697682982616
 30
0.0
 11
-199.7271191191389
 21
21.76335716345048
 31
0.0
  0
LINE
  5
1B2
330
1F
100
AcDbEntity
  8
0-C
  6
Continuous
 62
     4
370
     9
100
AcDbLine
 10
-199.5159998686978
 20
24.74139708539147
 30
0.0
 11
-199.2798594444775
 21
25.21360361351384
 31
0.0
  0
LINE
  5
1B3
330
1F
100
AcDbEntity
  8
0-C
  6
Continuous
 62
     4
370
     9
100
AcDbLine
 10
-199.7271191191389
 20
16.34696669657632
 30
0.0
 11
-199.7271191191389
 21
14.26337180363996
 31
0.0
  0
LINE
  5
1B4
330
1F
100
AcDbEntity
  8
0-C
  6
Continuous
 62
     4
370
     9
100
AcDbLine
 10
-199.5159998686978
 20
17.24138695214162
 30
0.0
 11
-199.2798594444775
 21
17.713593480264
 31
0.0
  0
LINE
  5
1B5
330
1F
100
AcDbEntity
  8
0-C
  6
Continuous
 62
     4
370
     9
100
AcDbLine
 10
-199.2798594444775
 20
10.21360812045347
 30
0.0
 11
-199.5159998686978
 21
9.741327272012967
 31
0.0
  0
LINE
  5
1B6
330
1F
100
AcDbEntity
  8
0-C
  6
Continuous
 62
     4
370
     9
100
AcDbLine
 10
-199.2798594444775
 20
12.89672024651296
 30
0.0
 11
-199.5159998686978
 21
13.36900109495346
 31
0.0
  0
LINE
  5
1B7
330
1F
100
AcDbEntity
  8
0-C
  6
Continuous
 62
     4
370
     9
100
AcDbLine
 10
-199.7271191191389
 20
8.846956563326472
 30
0.0
 11
-199.7271191191389
 21
6.055237679001976
 31
0.0
  0
LINE
  5
1B8
330
1F
100
AcDbEntity
  8
0-C
  6
Continuous
 62
     4
370
     9
100
AcDbLine
 10
-196.5725188946992
 20
1.720133520976049
 30
0.0
 11
-196.7920115676525
 21
2.560621998999608
 31
0.0
  0
LINE
  5
1B9
330
1F
100
AcDbEntity
  8
0-C
  6
Continuous
 62
     4
370
     9
100
AcDbLine
 10
-195.5772707408359
 20
1.856387437594975
 30
0.0
 11
-195.7285373617223
 21
2.499183869324241
 31
0.0
  0
LINE
  5
1BA
330
1F
100
AcDbEntity
  8
0-C
  6
Continuous
 62
     4
370
     9
100
AcDbLine
 10
-195.436706245764
 20
-0.3101241569638091
 30
0.0
 11
-195.436706245764
 21
-32.02823987148989
 31
0.0
  0
LINE
  5
1BB
330
1F
100
AcDbEntity
  8
0-C
  6
Continuous
 62
     4
370
     9
100
AcDbLine
 10
-195.43928268346
 20
-0.1869506163402832
 30
0.0
 11
-195.5000271568327
 21
1.292469636868447
 31
0.0
  0
LINE
  5
1BC
330
1F
100
AcDbEntity
  8
0-C
  6
Continuous
 62
     4
370
     9
100
AcDbLine
 10
-195.9782536307256
 20
3.17896704605559
 30
0.0
 11
-196.2767240284392
 21
3.762183356063275
 31
0.0
  0
LINE
  5
1BD
330
1F
100
AcDbEntity
  8
0-C
  6
Continuous
 62
     4
370
     9
100
AcDbLine
 10
-196.4392377908065
 20
-0.2075125710300654
 30
0.0
 11
-196.4953248575748
 21
1.15621572024952
 31
0.0
  0
LINE
  5
1BE
330
1F
100
AcDbEntity
  8
0-C
  6
Continuous
 62
     4
370
     9
100
AcDbLine
 10
-196.436760446868
 20
-0.3306861116535913
 30
0.0
 11
-196.436760446868
 21
-32.02823987148989
 31
0.0
  0
LINE
  5
1BF
330
1F
100
AcDbEntity
  8
0-C
  6
Continuous
 62
     4
370
     9
100
AcDbLine
 10
-195.9139417820815
 20
49.0551900762932
 30
0.0
 11
-200.5613894638768
 21
38.36141291093563
 31
0.0
  0
ARC
  5
1C0
330
1F
100
AcDbEntity
  8
0-C
  6
Continuous
 62
     4
370
     9
100
AcDbCircle
 10
-239.7272557412695
 20
36.52731132604814
 30
0.0
 40
2.000000018410701
100
AcDbArc
 50
333.4358978271484
 51
0.0000000000000064
  0
ARC
  5
1C1
330
1F
100
AcDbEntity
  8
0-C
  6
Continuous
 62
     4
370
     9
100
AcDbCircle
 10
-239.7272557412695
 20
37.56425317839685
 30
0.0
 40
2.000000018410701
100
AcDbArc
 50
0.0
 51
23.48933410644532
  0
ARC
  5
1C2
330
1F
100
AcDbEntity
  8
0-C
  6
Continuous
 62
     4
370
     9
100
AcDbCircle
 10
-240.7272603954947
 20
37.35635447507576
 30
0.0
 40
2.000000018410701
100
AcDbArc
 50
0.0
 51
23.48933410644532
  0
ARC
  5
1C3
330
1F
100
AcDbEntity
  8
0-C
  6
Continuous
 62
     4
370
     9
100
AcDbCircle
 10
-240.7272603954947
 20
36.76337742995025
 30
0.0
 40
2.000000018410701
100
AcDbArc
 50
333.4368591308594
 51
0.0
  0
ARC
  5
1C4
330
1F
100
AcDbEntity
  8
0-C
  6
Continuous
 62
     4
370
     9
100
AcDbCircle
 10
-236.4911509012523
 20
34.05519458323292
 30
0.0
 40
3.000000027616052
100
AcDbArc
 50
153.4362182617188
 51
206.5637817382812
  0
ARC
  5
1C5
330
1F
100
AcDbEntity
  8
0-C
  6
Continuous
 62
     4
370
     9
100
AcDbCircle
 10
-239.7272557412695
 20
29.02730119279829
 30
0.0
 40
2.000000018410701
100
AcDbArc
 50
333.4358978271484
 51
0.0000000000000064
  0
ARC
  5
1C6
330
1F
100
AcDbEntity
  8
0-C
  6
Continuous
 62
     4
370
     9
100
AcDbCircle
 10
-240.7272603954947
 20
31.3470365099549
 30
0.0
 40
2.000000018410701
100
AcDbArc
 50
0.0
 51
26.56314086914063
  0
ARC
  5
1C7
330
1F
100
AcDbEntity
  8
0-C
  6
Continuous
 62
     4
370
     9
100
AcDbCircle
 10
-240.7272603954947
 20
29.26339207013982
 30
0.0
 40
2.000000018410701
100
AcDbArc
 50
333.4368591308594
 51
0.0
  0
ARC
  5
1C8
330
1F
100
AcDbEntity
  8
0-C
  6
Continuous
 62
     4
370
     9
100
AcDbCircle
 10
-239.7272557412695
 20
31.58307784041753
 30
0.0
 40
2.000000018410701
100
AcDbArc
 50
0.0
 51
26.56410217285156
  0
ARC
  5
1C9
330
1F
100
AcDbEntity
  8
0-C
  6
Continuous
 62
     4
370
     9
100
AcDbCircle
 10
-236.4912004481311
 20
26.55520922342239
 30
0.0
 40
3.000000027616052
100
AcDbArc
 50
153.4366455078125
 51
206.564208984375
  0
ARC
  5
1CA
330
1F
100
AcDbEntity
  8
0-C
  6
Continuous
 62
     4
370
     9
100
AcDbCircle
 10
-239.7272557412695
 20
24.08306770716769
 30
0.0
 40
2.000000018410701
100
AcDbArc
 50
0.0
 51
26.56410217285156
  0
ARC
  5
1CB
330
1F
100
AcDbEntity
  8
0-C
  6
Continuous
 62
     4
370
     9
100
AcDbCircle
 10
-239.7272557412695
 20
21.52729105954845
 30
0.0
 40
2.000000018410701
100
AcDbArc
 50
333.4358978271484
 51
0.0000000000000064
  0
ARC
  5
1CC
330
1F
100
AcDbEntity
  8
0-C
  6
Continuous
 62
     4
370
     9
100
AcDbCircle
 10
-236.4912004481311
 20
19.05519909017247
 30
0.0
 40
3.000000027616052
100
AcDbArc
 50
153.4366455078125
 51
206.564208984375
  0
ARC
  5
1CD
330
1F
100
AcDbEntity
  8
0-C
  6
Continuous
 62
     4
370
     9
100
AcDbCircle
 10
-239.7272557412695
 20
16.58305757391784
 30
0.0
 40
2.000000018410701
100
AcDbArc
 50
0.0
 51
26.56410217285156
  0
ARC
  5
1CE
330
1F
100
AcDbEntity
  8
0-C
  6
Continuous
 62
     4
370
     9
100
AcDbCircle
 10
-239.7272557412695
 20
14.02728092629852
 30
0.0
 40
2.000000018410701
100
AcDbArc
 50
333.4358978271484
 51
0.0000000000000064
  0
ARC
  5
1CF
330
1F
100
AcDbEntity
  8
0-C
  6
Continuous
 62
     4
370
     9
100
AcDbCircle
 10
-239.7272557412695
 20
9.083047440667912
 30
0.0
 40
2.000000018410701
100
AcDbArc
 50
0.0
 51
26.56410217285156
  0
ARC
  5
1D0
330
1F
100
AcDbEntity
  8
0-C
  6
Continuous
 62
     4
370
     9
100
AcDbCircle
 10
-240.7272603954947
 20
21.76335716345048
 30
0.0
 40
2.000000018410701
100
AcDbArc
 50
333.4352722167969
 51
0.0000000000000159
  0
ARC
  5
1D1
330
1F
100
AcDbEntity
  8
0-C
  6
Continuous
 62
     4
370
     9
100
AcDbCircle
 10
-240.7272603954947
 20
23.84697682982616
 30
0.0
 40
2.000000018410701
100
AcDbArc
 50
0.0
 51
26.56472778320312
  0
ARC
  5
1D2
330
1F
100
AcDbEntity
  8
0-C
  6
Continuous
 62
     4
370
     9
100
AcDbCircle
 10
-240.7272603954947
 20
14.26337180363996
 30
0.0
 40
2.000000018410701
100
AcDbArc
 50
333.4368591308594
 51
0.0
  0
ARC
  5
1D3
330
1F
100
AcDbEntity
  8
0-C
  6
Continuous
 62
     4
370
     9
100
AcDbCircle
 10
-240.7272603954947
 20
16.34696669657632
 30
0.0
 40
2.000000018410701
100
AcDbArc
 50
0.0
 51
26.56472778320312
  0
ARC
  5
1D4
330
1F
100
AcDbEntity
  8
0-C
  6
Continuous
 62
     4
370
     9
100
AcDbCircle
 10
-240.7272603954947
 20
8.846956563326472
 30
0.0
 40
2.000000018410701
100
AcDbArc
 50
0.0
 51
26.56314086914063
  0
ARC
  5
1D5
330
1F
100
AcDbEntity
  8
0-C
  6
Continuous
 62
     4
370
     9
100
AcDbCircle
 10
-236.4912004481311
 20
11.55516418348321
 30
0.0
 40
3.000000027616052
100
AcDbArc
 50
153.4366455078125
 51
206.5633544921875
  0
ARC
  5
1D6
330
1F
100
AcDbEntity
  8
0-C
  6
Continuous
 62
     4
370
     9
100
AcDbCircle
 10
-239.7272557412695
 20
6.055237679001976
 30
0.0
 40
1.00000000920535
100
AcDbArc
 50
270.0
 51
0.0
  0
ARC
  5
1D7
330
1F
100
AcDbEntity
  8
0-C
  6
Continuous
 62
     4
370
     9
100
AcDbCircle
 10
-239.7272557412695
 20
6.055237679001976
 30
0.0
 40
2.000000018410701
100
AcDbArc
 50
270.0
 51
0.0
  0
ARC
  5
1D8
330
1F
100
AcDbEntity
  8
0-C
  6
Continuous
 62
     4
370
     9
100
AcDbCircle
 10
-238.9616078236289
 20
1.033042179625994
 30
0.0
 40
3.000000027616052
100
AcDbArc
 50
166.7600555419922
 51
177.6469116210938
  0
ARC
  5
1D9
330
1F
100
AcDbEntity
  8
0-C
  6
Continuous
 62
     4
370
     9
100
AcDbCircle
 10
-239.8055893566057
 20
1.812117301413508
 30
0.0
 40
3.000000027616052
100
AcDbArc
 50
152.8951568603516
 51
166.7604064941406
  0
ARC
  5
1DA
330
1F
100
AcDbEntity
  8
0-C
  6
Continuous
 62
     4
370
     9
100
AcDbCircle
 10
-239.9568559774921
 20
1.169296096244921
 30
0.0
 40
3.000000027616052
100
AcDbArc
 50
166.7599334716797
 51
177.6468963623047
  0
ARC
  5
1DB
330
1F
100
AcDbEntity
  8
0-C
  6
Continuous
 62
     4
370
     9
100
AcDbCircle
 10
-240.0176499977435
 20
-0.3101241569638091
 30
0.0
 40
3.000000027616052
100
AcDbArc
 50
177.6468963623047
 51
180.0
  0
ARC
  5
1DC
330
1F
100
AcDbEntity
  8
0-C
  6
Continuous
 62
     4
370
     9
100
AcDbCircle
 10
-239.7272557412695
 20
2.055243835540438
 30
0.0
 40
3.000000027616052
100
AcDbArc
 50
90.0
 51
141.2687377929688
  0
ARC
  5
1DD
330
1F
100
AcDbEntity
  8
0-C
  6
Continuous
 62
     4
370
     9
100
AcDbCircle
 10
-241.2874374068741
 20
3.30657503232905
 30
0.0
 40
1.00000000920535
100
AcDbArc
 50
141.2683715820312
 51
152.8960113525391
  0
ARC
  5
1DE
330
1F
100
AcDbEntity
  8
0-C
  6
Continuous
 62
     4
370
     9
100
AcDbCircle
 10
-239.0176453435182
 20
-0.3306861116535913
 30
0.0
 40
3.000000027616052
100
AcDbArc
 50
177.6468963623047
 51
180.0
  0
ARC
  5
1DF
330
1F
100
AcDbEntity
  8
0-C
  6
Continuous
 62
     4
370
     9
100
AcDbCircle
 10
-198.7271144649136
 20
36.52731132604814
 30
0.0
 40
2.000000018410701
100
AcDbArc
 50
180.0
 51
206.5641021728516
  0
ARC
  5
1E0
330
1F
100
AcDbEntity
  8
0-C
  6
Continuous
 62
     4
370
     9
100
AcDbCircle
 10
-198.7271144649136
 20
37.56425317839685
 30
0.0
 40
2.000000018410701
100
AcDbArc
 50
156.5106658935547
 51
180.0
  0
ARC
  5
1E1
330
1F
100
AcDbEntity
  8
0-C
  6
Continuous
 62
     4
370
     9
100
AcDbCircle
 10
-197.7271098106884
 20
37.35635447507576
 30
0.0
 40
2.000000018410701
100
AcDbArc
 50
156.5106658935547
 51
180.0
  0
ARC
  5
1E2
330
1F
100
AcDbEntity
  8
0-C
  6
Continuous
 62
     4
370
     9
100
AcDbCircle
 10
-197.7271098106884
 20
36.76337742995025
 30
0.0
 40
2.000000018410701
100
AcDbArc
 50
180.0
 51
206.5631408691406
  0
ARC
  5
1E3
330
1F
100
AcDbEntity
  8
0-C
  6
Continuous
 62
     4
370
     9
100
AcDbCircle
 10
-201.9632193049309
 20
34.05519458323292
 30
0.0
 40
3.000000027616052
100
AcDbArc
 50
333.4362182617187
 51
26.56378173828131
  0
ARC
  5
1E4
330
1F
100
AcDbEntity
  8
0-C
  6
Continuous
 62
     4
370
     9
100
AcDbCircle
 10
-198.7271144649136
 20
29.02730119279829
 30
0.0
 40
2.000000018410701
100
AcDbArc
 50
180.0
 51
206.5641021728516
  0
ARC
  5
1E5
330
1F
100
AcDbEntity
  8
0-C
  6
Continuous
 62
     4
370
     9
100
AcDbCircle
 10
-197.7271098106884
 20
31.3470365099549
 30
0.0
 40
2.000000018410701
100
AcDbArc
 50
153.4368591308594
 51
180.0
  0
ARC
  5
1E6
330
1F
100
AcDbEntity
  8
0-C
  6
Continuous
 62
     4
370
     9
100
AcDbCircle
 10
-197.7271098106884
 20
29.26339207013982
 30
0.0
 40
2.000000018410701
100
AcDbArc
 50
180.0
 51
206.5631408691406
  0
ARC
  5
1E7
330
1F
100
AcDbEntity
  8
0-C
  6
Continuous
 62
     4
370
     9
100
AcDbCircle
 10
-198.7271144649136
 20
31.58307784041753
 30
0.0
 40
2.000000018410701
100
AcDbArc
 50
153.4358978271484
 51
180.0
  0
ARC
  5
1E8
330
1F
100
AcDbEntity
  8
0-C
  6
Continuous
 62
     4
370
     9
100
AcDbCircle
 10
-201.9632193049309
 20
26.55520922342239
 30
0.0
 40
3.000000027616052
100
AcDbArc
 50
333.435791015625
 51
26.56335449218756
  0
ARC
  5
1E9
330
1F
100
AcDbEntity
  8
0-C
  6
Continuous
 62
     4
370
     9
100
AcDbCircle
 10
-198.7271144649136
 20
24.08306770716769
 30
0.0
 40
2.000000018410701
100
AcDbArc
 50
153.4358978271484
 51
180.0
  0
ARC
  5
1EA
330
1F
100
AcDbEntity
  8
0-C
  6
Continuous
 62
     4
370
     9
100
AcDbCircle
 10
-198.7271144649136
 20
21.52729105954845
 30
0.0
 40
2.000000018410701
100
AcDbArc
 50
180.0
 51
206.5641021728516
  0
ARC
  5
1EB
330
1F
100
AcDbEntity
  8
0-C
  6
Continuous
 62
     4
370
     9
100
AcDbCircle
 10
-201.9632193049309
 20
19.05519909017247
 30
0.0
 40
3.000000027616052
100
AcDbArc
 50
333.435791015625
 51
26.56335449218756
  0
ARC
  5
1EC
330
1F
100
AcDbEntity
  8
0-C
  6
Continuous
 62
     4
370
     9
100
AcDbCircle
 10
-198.7271144649136
 20
16.58305757391784
 30
0.0
 40
2.000000018410701
100
AcDbArc
 50
153.4358978271484
 51
180.0
  0
ARC
  5
1ED
330
1F
100
AcDbEntity
  8
0-C
  6
Continuous
 62
     4
370
     9
100
AcDbCircle
 10
-198.7271144649136
 20
14.02728092629852
 30
0.0
 40
2.000000018410701
100
AcDbArc
 50
180.0
 51
206.5641021728516
  0
ARC
  5
1EE
330
1F
100
AcDbEntity
  8
0-C
  6
Continuous
 62
     4
370
     9
100
AcDbCircle
 10
-198.7271144649136
 20
9.083047440667912
 30
0.0
 40
2.000000018410701
100
AcDbArc
 50
153.4358978271484
 51
180.0
  0
ARC
  5
1EF
330
1F
100
AcDbEntity
  8
0-C
  6
Continuous
 62
     4
370
     9
100
AcDbCircle
 10
-197.7271098106884
 20
21.76335716345048
 30
0.0
 40
2.000000018410701
100
AcDbArc
 50
180.0
 51
206.5647277832031
  0
ARC
  5
1F0
330
1F
100
AcDbEntity
  8
0-C
  6
Continuous
 62
     4
370
     9
100
AcDbCircle
 10
-197.7271098106884
 20
23.84697682982616
 30
0.0
 40
2.000000018410701
100
AcDbArc
 50
153.4352722167969
 51
180.0
  0
ARC
  5
1F1
330
1F
100
AcDbEntity
  8
0-C
  6
Continuous
 62
     4
370
     9
100
AcDbCircle
 10
-197.7271098106884
 20
14.26337180363996
 30
0.0
 40
2.000000018410701
100
AcDbArc
 50
180.0
 51
206.5631408691406
  0
ARC
  5
1F2
330
1F
100
AcDbEntity
  8
0-C
  6
Continuous
 62
     4
370
     9
100
AcDbCircle
 10
-197.7271098106884
 20
16.34696669657632
 30
0.0
 40
2.000000018410701
100
AcDbArc
 50
153.4352722167969
 51
180.0
  0
ARC
  5
1F3
330
1F
100
AcDbEntity
  8
0-C
  6
Continuous
 62
     4
370
     9
100
AcDbCircle
 10
-197.7271098106884
 20
8.846956563326472
 30
0.0
 40
2.000000018410701
100
AcDbArc
 50
153.4368591308594
 51
180.0
  0
ARC
  5
1F4
330
1F
100
AcDbEntity
  8
0-C
  6
Continuous
 62
     4
370
     9
100
AcDbCircle
 10
-201.9632193049309
 20
11.55516418348321
 30
0.0
 40
3.000000027616052
100
AcDbArc
 50
333.4366455078125
 51
26.5633544921875
  0
ARC
  5
1F5
330
1F
100
AcDbEntity
  8
0-C
  6
Continuous
 62
     4
370
     9
100
AcDbCircle
 10
-198.7271144649136
 20
6.055237679001976
 30
0.0
 40
1.00000000920535
100
AcDbArc
 50
180.0
 51
270.0
  0
ARC
  5
1F6
330
1F
100
AcDbEntity
  8
0-C
  6
Continuous
 62
     4
370
     9
100
AcDbCircle
 10
-198.7271144649136
 20
6.055237679001976
 30
0.0
 40
2.000000018410701
100
AcDbArc
 50
180.0
 51
270.0
  0
ARC
  5
1F7
330
1F
100
AcDbEntity
  8
0-C
  6
Continuous
 62
     4
370
     9
100
AcDbCircle
 10
-199.4928119294331
 20
1.033042179625994
 30
0.0
 40
3.000000027616052
100
AcDbArc
 50
2.35308837890625
 51
13.23994445800781
  0
ARC
  5
1F8
330
1F
100
AcDbEntity
  8
0-C
  6
Continuous
 62
     4
370
     9
100
AcDbCircle
 10
-198.6487313026988
 20
1.812117301413508
 30
0.0
 40
3.000000027616052
100
AcDbArc
 50
13.23959350585937
 51
27.10484313964842
  0
ARC
  5
1F9
330
1F
100
AcDbEntity
  8
0-C
  6
Continuous
 62
     4
370
     9
100
AcDbCircle
 10
-198.4975142286912
 20
1.169296096244921
 30
0.0
 40
3.000000027616052
100
AcDbArc
 50
2.353103637695297
 51
13.24006652832031
  0
ARC
  5
1FA
330
1F
100
AcDbEntity
  8
0-C
  6
Continuous
 62
     4
370
     9
100
AcDbCircle
 10
-198.4367202084397
 20
-0.3101241569638091
 30
0.0
 40
3.000000027616052
100
AcDbArc
 50
0.0
 51
2.353103637695312
  0
ARC
  5
1FB
330
1F
100
AcDbEntity
  8
0-C
  6
Continuous
 62
     4
370
     9
100
AcDbCircle
 10
-198.7271144649136
 20
2.055243835540438
 30
0.0
 40
3.000000027616052
100
AcDbArc
 50
38.73126220703127
 51
90.00000000000003
  0
ARC
  5
1FC
330
1F
100
AcDbEntity
  8
0-C
  6
Continuous
 62
     4
370
     9
100
AcDbCircle
 10
-197.166932799309
 20
3.30657503232905
 30
0.0
 40
1.00000000920535
100
AcDbArc
 50
27.10398864746095
 51
38.73162841796876
  0
ARC
  5
1FD
330
1F
100
AcDbEntity
  8
0-C
  6
Continuous
 62
     4
370
     9
100
AcDbCircle
 10
-199.4367248626649
 20
-0.3306861116535913
 30
0.0
 40
3.000000027616052
100
AcDbArc
 50
0.0
 51
2.353103637695312
  0
LINE
  5
1FE
330
1F
100
AcDbEntity
  8
0-B
  6
Continuous
 62
     3
370
     9
100
AcDbLine
 10
-240.2272332949428
 20
38.55987293385084
 30
0.0
 11
-239.0695704724698
 21
38.55987293385084
 31
0.0
  0
LINE
  5
1FF
330
1F
100
AcDbEntity
  8
0-B
  6
Continuous
 62
     3
370
     9
100
AcDbLine
 10
-240.2272332949428
 20
35.55985897117517
 30
0.0
 11
-239.0929070523707
 21
35.55985897117517
 31
0.0
  0
LINE
  5
200
330
1F
100
AcDbEntity
  8
0-B
  6
Continuous
 62
     3
370
     9
100
AcDbLine
 10
-240.2272332949428
 20
31.80522127138519
 30
0.0
 11
-238.780414887965
 21
31.80522127138519
 31
0.0
  0
LINE
  5
201
330
1F
100
AcDbEntity
  8
0-B
  6
Continuous
 62
     3
370
     9
100
AcDbLine
 10
-240.2272332949428
 20
28.80520730870944
 30
0.0
 11
-238.780414887965
 21
28.80520730870944
 31
0.0
  0
LINE
  5
202
330
1F
100
AcDbEntity
  8
0-B
  6
Continuous
 62
     3
370
     9
100
AcDbLine
 10
-240.2272332949428
 20
24.30518636469586
 30
0.0
 11
-238.7804644348438
 21
24.30518636469586
 31
0.0
  0
LINE
  5
203
330
1F
100
AcDbEntity
  8
0-B
  6
Continuous
 62
     3
370
     9
100
AcDbLine
 10
-240.2272332949428
 20
21.30517240202019
 30
0.0
 11
-238.780414887965
 21
21.30517240202019
 31
0.0
  0
LINE
  5
204
330
1F
100
AcDbEntity
  8
0-B
  6
Continuous
 62
     3
370
     9
100
AcDbLine
 10
-240.2272332949428
 20
16.80517623144601
 30
0.0
 11
-238.7804644348438
 21
16.80517623144601
 31
0.0
  0
LINE
  5
205
330
1F
100
AcDbEntity
  8
0-B
  6
Continuous
 62
     3
370
     9
100
AcDbLine
 10
-240.2272332949428
 20
13.80516226877035
 30
0.0
 11
-238.7804644348438
 21
13.80516226877035
 31
0.0
  0
LINE
  5
206
330
1F
100
AcDbEntity
  8
0-B
  6
Continuous
 62
     3
370
     9
100
AcDbLine
 10
-240.2272332949428
 20
8.025791368023391
 30
0.0
 11
-238.7272510870443
 21
8.025791368023391
 31
0.0
  0
LINE
  5
207
330
1F
100
AcDbEntity
  8
0-B
  6
Continuous
 62
     3
370
     9
100
AcDbLine
 10
-198.2270873643617
 20
38.55987293385084
 30
0.0
 11
-199.3847997337134
 21
38.55987293385084
 31
0.0
  0
LINE
  5
208
330
1F
100
AcDbEntity
  8
0-B
  6
Continuous
 62
     3
370
     9
100
AcDbLine
 10
-198.2270873643617
 20
35.55985897117517
 30
0.0
 11
-199.3614136069338
 21
35.55985897117517
 31
0.0
  0
LINE
  5
209
330
1F
100
AcDbEntity
  8
0-B
  6
Continuous
 62
     3
370
     9
100
AcDbLine
 10
-198.2270873643617
 20
31.80522127138519
 30
0.0
 11
-199.6739553182182
 21
31.80522127138519
 31
0.0
  0
LINE
  5
20A
330
1F
100
AcDbEntity
  8
0-B
  6
Continuous
 62
     3
370
     9
100
AcDbLine
 10
-198.2270873643617
 20
28.80520730870944
 30
0.0
 11
-199.6739553182182
 21
28.80520730870944
 31
0.0
  0
LINE
  5
20B
330
1F
100
AcDbEntity
  8
0-B
  6
Continuous
 62
     3
370
     9
100
AcDbLine
 10
-198.2270873643617
 20
24.30518636469586
 30
0.0
 11
-199.6739057713393
 21
24.30518636469586
 31
0.0
  0
LINE
  5
20C
330
1F
100
AcDbEntity
  8
0-B
  6
Continuous
 62
     3
370
     9
100
AcDbLine
 10
-198.2270873643617
 20
21.30517240202019
 30
0.0
 11
-199.6739553182182
 21
21.30517240202019
 31
0.0
  0
LINE
  5
20D
330
1F
100
AcDbEntity
  8
0-B
  6
Continuous
 62
     3
370
     9
100
AcDbLine
 10
-198.2270873643617
 20
16.80517623144601
 30
0.0
 11
-199.6739057713393
 21
16.80517623144601
 31
0.0
  0
LINE
  5
20E
330
1F
100
AcDbEntity
  8
0-B
  6
Continuous
 62
     3
370
     9
100
AcDbLine
 10
-198.2270873643617
 20
13.80516226877035
 30
0.0
 11
-199.6739057713393
 21
13.80516226877035
 31
0.0
  0
LINE
  5
20F
330
1F
100
AcDbEntity
  8
0-B
  6
Continuous
 62
     3
370
     9
100
AcDbLine
 10
-198.2270873643617
 20
8.025791368023391
 30
0.0
 11
-199.7271191191389
 21
8.025791368023391
 31
0.0
  0
CIRCLE
  5
210
330
1F
100
AcDbEntity
  8
0-B
  6
Continuous
 62
     3
370
     9
100
AcDbCircle
 10
-240.2272332949428
 20
37.05986595251301
 30
0.0
 40
1.500000013808026
  0
CIRCLE
  5
211
330
1F
100
AcDbEntity
  8
0-B
  6
Continuous
 62
     3
370
     9
100
AcDbCircle
 10
-240.2272332949428
 20
30.30521429004736
 30
0.0
 40
1.500000013808026
  0
CIRCLE
  5
212
330
1F
100
AcDbEntity
  8
0-B
  6
Continuous
 62
     3
370
     9
100
AcDbCircle
 10
-240.2272332949428
 20
22.80517938335802
 30
0.0
 40
1.500000013808026
  0
CIRCLE
  5
213
330
1F
100
AcDbEntity
  8
0-B
  6
Continuous
 62
     3
370
     9
100
AcDbCircle
 10
-240.2272332949428
 20
15.30516925010818
 30
0.0
 40
1.500000013808026
  0
CIRCLE
  5
214
330
1F
100
AcDbEntity
  8
0-B
  6
Continuous
 62
     3
370
     9
100
AcDbCircle
 10
-240.2272332949428
 20
6.525784386685558
 30
0.0
 40
1.500000013808026
  0
CIRCLE
  5
215
330
1F
100
AcDbEntity
  8
0-B
  6
Continuous
 62
     3
370
     9
100
AcDbCircle
 10
-198.2270873643617
 20
37.05986595251301
 30
0.0
 40
1.500000013808026
  0
CIRCLE
  5
216
330
1F
100
AcDbEntity
  8
0-B
  6
Continuous
 62
     3
370
     9
100
AcDbCircle
 10
-198.2270873643617
 20
30.30521429004736
 30
0.0
 40
1.500000013808026
  0
CIRCLE
  5
217
330
1F
100
AcDbEntity
  8
0-B
  6
Continuous
 62
     3
370
     9
100
AcDbCircle
 10
-198.2270873643617
 20
22.80517938335802
 30
0.0
 40
1.500000013808026
  0
CIRCLE
  5
218
330
1F
100
AcDbEntity
  8
0-B
  6
Continuous
 62
     3
370
     9
100
AcDbCircle
 10
-198.2270873643617
 20
15.30516925010818
 30
0.0
 40
1.500000013808026
  0
CIRCLE
  5
219
330
1F
100
AcDbEntity
  8
0-B
  6
Continuous
 62
     3
370
     9
100
AcDbCircle
 10
-198.2270873643617
 20
6.525784386685558
 30
0.0
 40
1.500000013808026
  0
LINE
  5
21A
330
1F
100
AcDbEntity
  8
3-4
  6
Continuous
 62
     7
370
     9
100
AcDbLine
 10
-235.2270782915682
 20
-60.22421218803211
 30
0.0
 11
-203.2270284501183
 21
-60.22421218803211
 31
0.0
  0
LINE
  5
21B
330
1F
100
AcDbEntity
  8
3-4
  6
Continuous
 62
     7
370
     9
100
AcDbLine
 10
-235.2270782915682
 20
-60.22421218803211
 30
0.0
 11
-227.7912418312644
 21
-59.24526574638153
 31
0.0
  0
LINE
  5
21C
330
1F
100
AcDbEntity
  8
3-4
  6
Continuous
 62
     7
370
     9
100
AcDbLine
 10
-235.2270782915682
 20
-60.22421218803211
 30
0.0
 11
-227.7912418312644
 21
-61.20315862968235
 31
0.0
  0
LINE
  5
21D
330
1F
100
AcDbEntity
  8
3-4
  6
Continuous
 62
     7
370
     9
100
AcDbLine
 10
-203.2270284501183
 20
-60.22421218803211
 30
0.0
 11
-210.6628649104221
 21
-59.24526574638153
 31
0.0
  0
LINE
  5
21E
330
1F
100
AcDbEntity
  8
3-4
  6
Continuous
 62
     7
370
     9
100
AcDbLine
 10
-203.2270284501183
 20
-60.22421218803211
 30
0.0
 11
-210.6628649104221
 21
-61.20315862968235
 31
0.0
  0
LINE
  5
21F
330
1F
100
AcDbEntity
  8
3-4
  6
Continuous
 62
     7
370
     9
100
AcDbLine
 10
-235.2270782915682
 20
-61.12421218803198
 30
0.0
 11
-235.2270782915682
 21
-5.944864566667576
 31
0.0
  0
LINE
  5
220
330
1F
100
AcDbEntity
  8
3-4
  6
Continuous
 62
     7
370
     9
100
AcDbLine
 10
-203.2270284501183
 20
-61.12421218803198
 30
0.0
 11
-203.2270284501183
 21
-5.944864566667576
 31
0.0
  0
TEXT
  5
221
330
1F
100
AcDbEntity
  8
3-4
  6
Continuous
 62
     2
370
   211
100
AcDbText
 10
-232.3520533708429
 20
-55.53221218803211
 30
0.0
 40
9.144
  1
φ32
 41
1.09375
  7
ＭＳ ゴシック
100
AcDbText
  0
LINE
  5
222
330
1F
100
AcDbEntity
  8
3-4
  6
Continuous
 62
     7
370
     9
100
AcDbLine
 10
-241.727124027432
 20
-85.64517979590931
 30
0.0
 11
-196.7269827142545
 21
-85.64517979590931
 31
0.0
  0
LINE
  5
223
330
1F
100
AcDbEntity
  8
3-4
  6
Continuous
 62
     7
370
     9
100
AcDbLine
 10
-241.727124027432
 20
-85.64517979590931
 30
0.0
 11
-234.2912875671282
 21
-84.66623335425908
 31
0.0
  0
LINE
  5
224
330
1F
100
AcDbEntity
  8
3-4
  6
Continuous
 62
     7
370
     9
100
AcDbLine
 10
-241.727124027432
 20
-85.64517979590931
 30
0.0
 11
-234.2912875671282
 21
-86.62412623755989
 31
0.0
  0
LINE
  5
225
330
1F
100
AcDbEntity
  8
3-4
  6
Continuous
 62
     7
370
     9
100
AcDbLine
 10
-196.7269827142545
 20
-85.64517979590931
 30
0.0
 11
-204.1628191745577
 21
-84.66623335425908
 31
0.0
  0
LINE
  5
226
330
1F
100
AcDbEntity
  8
3-4
  6
Continuous
 62
     7
370
     9
100
AcDbLine
 10
-196.7269827142545
 20
-85.64517979590931
 30
0.0
 11
-204.1628191745577
 21
-86.62412623755989
 31
0.0
  0
LINE
  5
227
330
1F
100
AcDbEntity
  8
3-4
  6
Continuous
 62
     7
370
     9
100
AcDbLine
 10
-241.727124027432
 20
-86.54517979590952
 30
0.0
 11
-241.727124027432
 21
-3.944756164459733
 31
0.0
  0
LINE
  5
228
330
1F
100
AcDbEntity
  8
3-4
  6
Continuous
 62
     7
370
     9
100
AcDbLine
 10
-196.7269827142545
 20
-86.54517979590952
 30
0.0
 11
-196.7269827142545
 21
-3.944756164459733
 31
0.0
  0
TEXT
  5
229
330
1F
100
AcDbEntity
  8
3-4
  6
Continuous
 62
     2
370
   211
100
AcDbText
 10
-232.3520533708429
 20
-80.9531797959093
 30
0.0
 40
9.144
  1
φ45
 41
1.09375
  7
ＭＳ ゴシック
100
AcDbText
  0
LINE
  5
22A
330
1F
100
AcDbEntity
  8
3-4
  6
Continuous
 62
     7
370
     9
100
AcDbLine
 10
-290.2270200842955
 20
-113.8156412697261
 30
0.0
 11
-282.7911836239914
 21
-112.8366948280759
 31
0.0
  0
LINE
  5
22B
330
1F
100
AcDbEntity
  8
3-4
  6
Continuous
 62
     7
370
     9
100
AcDbLine
 10
-290.2270200842955
 20
-113.8156412697261
 30
0.0
 11
-282.7911836239914
 21
-114.7945877113767
 31
0.0
  0
LINE
  5
22C
330
1F
100
AcDbEntity
  8
3-4
  6
Continuous
 62
     7
370
     9
100
AcDbLine
 10
-290.2270200842955
 20
-114.715641269726
 30
0.0
 11
-290.2270200842955
 21
70.0551423262992
 31
0.0
  0
LINE
  5
22D
330
1F
100
AcDbEntity
  8
3-4
  6
Continuous
 62
     7
370
     9
100
AcDbLine
 10
-148.2270528406149
 20
-113.8156412697261
 30
0.0
 11
-155.662889300918
 21
-112.8366948280759
 31
0.0
  0
LINE
  5
22E
330
1F
100
AcDbEntity
  8
3-4
  6
Continuous
 62
     7
370
     9
100
AcDbLine
 10
-148.2270528406149
 20
-113.8156412697261
 30
0.0
 11
-155.662889300918
 21
-114.7945877113767
 31
0.0
  0
LINE
  5
22F
330
1F
100
AcDbEntity
  8
3-4
  6
Continuous
 62
     7
370
     9
100
AcDbLine
 10
-148.2270528406149
 20
-114.715641269726
 30
0.0
 11
-148.2270528406149
 21
70.0551423262992
 31
0.0
  0
LINE
  5
230
330
1F
100
AcDbEntity
  8
3-4
  6
Continuous
 62
     7
370
     9
100
AcDbLine
 10
-290.2270200842955
 20
-113.8156412697261
 30
0.0
 11
-148.2270528406149
 21
-113.8156412697261
 31
0.0
  0
TEXT
  5
231
330
1F
100
AcDbEntity
  8
3-4
  6
Continuous
 62
     2
370
   211
100
AcDbText
 10
-235.7270364624552
 20
-109.1236412697261
 30
0.0
 40
9.144
  1
φ142
 41
1.1
  7
ＭＳ ゴシック
100
AcDbText
  0
TEXT
  5
232
330
1F
100
AcDbEntity
  8
3-4
  6
Continuous
 62
     2
370
   211
100
AcDbText
 10
-101.7841174639302
 20
31.68011875139592
 30
0.0
 40
9.144
  1
76
 50
90.0
 41
1.0625
  7
ＭＳ ゴシック
100
AcDbText
  0
LINE
  5
233
330
1F
100
AcDbEntity
  8
3-4
  6
Continuous
 62
     7
370
     9
100
AcDbLine
 10
-97.09211746393021
 20
0.0551942702505244
 30
0.0
 11
-97.09211746393021
 21
76.05504323254132
 31
0.0
  0
LINE
  5
234
330
1F
100
AcDbEntity
  8
3-4
  6
Continuous
 62
     7
370
     9
100
AcDbLine
 10
-97.09211746393021
 20
0.0551942702505244
 30
0.0
 11
-98.07106390558079
 21
7.491030730554314
 31
0.0
  0
LINE
  5
235
330
1F
100
AcDbEntity
  8
3-4
  6
Continuous
 62
     7
370
     9
100
AcDbLine
 10
-97.09211746393021
 20
0.0551942702505244
 30
0.0
 11
-96.11317102228031
 21
7.491030730554314
 31
0.0
  0
LINE
  5
236
330
1F
100
AcDbEntity
  8
3-4
  6
Continuous
 62
     7
370
     9
100
AcDbLine
 10
-97.09211746393021
 20
76.05504323254132
 30
0.0
 11
-98.07106390558079
 21
68.6192067722377
 31
0.0
  0
LINE
  5
237
330
1F
100
AcDbEntity
  8
3-4
  6
Continuous
 62
     7
370
     9
100
AcDbLine
 10
-97.09211746393021
 20
76.05504323254132
 30
0.0
 11
-96.11317102228031
 21
68.6192067722377
 31
0.0
  0
LINE
  5
238
330
1F
100
AcDbEntity
  8
3-4
  6
Continuous
 62
     7
370
     9
100
AcDbLine
 10
-97.09211746393021
 20
76.05504323254132
 30
0.0
 11
-97.09211746393021
 21
106.0550837655407
 31
0.0
  0
LINE
  5
239
330
1F
100
AcDbEntity
  8
3-4
  6
Continuous
 62
     7
370
     9
100
AcDbLine
 10
-97.09211746393021
 20
76.05504323254132
 30
0.0
 11
-98.07106390558079
 21
83.49087969284477
 31
0.0
  0
LINE
  5
23A
330
1F
100
AcDbEntity
  8
3-4
  6
Continuous
 62
     7
370
     9
100
AcDbLine
 10
-97.09211746393021
 20
76.05504323254132
 30
0.0
 11
-96.11317102228031
 21
83.49087969284477
 31
0.0
  0
LINE
  5
23B
330
1F
100
AcDbEntity
  8
3-4
  6
Continuous
 62
     7
370
     9
100
AcDbLine
 10
-97.09211746393021
 20
106.0550837655407
 30
0.0
 11
-98.07106390558079
 21
98.61924730523708
 31
0.0
  0
LINE
  5
23C
330
1F
100
AcDbEntity
  8
3-4
  6
Continuous
 62
     7
370
     9
100
AcDbLine
 10
-97.09211746393021
 20
106.0550837655407
 30
0.0
 11
-96.11317102228031
 21
98.61924730523708
 31
0.0
  0
TEXT
  5
23D
330
1F
100
AcDbEntity
  8
3-4
  6
Continuous
 62
     2
370
   211
100
AcDbText
 10
-101.7841174639302
 20
84.68006349904084
 30
0.0
 40
9.144
  1
30
 50
90.0
 41
1.0625
  7
ＭＳ ゴシック
100
AcDbText
  0
LINE
  5
23E
330
1F
100
AcDbEntity
  8
3-4
  6
Continuous
 62
     7
370
     9
100
AcDbLine
 10
-119.702440755963
 20
0.0551942702505244
 30
0.0
 11
-120.6813871976129
 21
7.491030730554314
 31
0.0
  0
LINE
  5
23F
330
1F
100
AcDbEntity
  8
3-4
  6
Continuous
 62
     7
370
     9
100
AcDbLine
 10
-119.702440755963
 20
0.0551942702505244
 30
0.0
 11
-118.7234943143121
 21
7.491030730554314
 31
0.0
  0
LINE
  5
240
330
1F
100
AcDbEntity
  8
3-4
  6
Continuous
 62
     7
370
     9
100
AcDbLine
 10
-119.702440755963
 20
0.0551942702505244
 30
0.0
 11
-119.702440755963
 21
53.85958678663388
 31
0.0
  0
LINE
  5
241
330
1F
100
AcDbEntity
  8
3-4
  6
Continuous
 62
     7
370
     9
100
AcDbLine
 10
-119.702440755963
 20
53.85958678663388
 30
0.0
 11
-120.6813871976129
 21
46.42375032633043
 31
0.0
  0
LINE
  5
242
330
1F
100
AcDbEntity
  8
3-4
  6
Continuous
 62
     7
370
     9
100
AcDbLine
 10
-119.702440755963
 20
53.85958678663388
 30
0.0
 11
-118.7234943143121
 21
46.42375032633043
 31
0.0
  0
TEXT
  5
243
330
1F
100
AcDbEntity
  8
3-4
  6
Continuous
 62
     2
370
   211
100
AcDbText
 10
-124.394440755962
 20
20.5823905284422
 30
0.0
 40
9.144
  1
54
 50
90.0
 41
1.0625
  7
ＭＳ ゴシック
100
AcDbText
  0
LINE
  5
244
330
1F
100
AcDbEntity
  8
3-4
  6
Continuous
 62
     7
370
     9
100
AcDbLine
 10
-96.19211746393034
 20
106.0550837655407
 30
0.0
 11
-141.9769897434601
 21
106.0550837655407
 31
0.0
  0
LINE
  5
245
330
1F
100
AcDbEntity
  8
3-4
  6
Continuous
 62
     7
370
     9
100
AcDbLine
 10
-96.19211746393034
 20
0.0551942702505244
 30
0.0
 11
-192.3284016912226
 21
0.0551942702505244
 31
0.0
  0
LINE
  5
246
330
1F
100
AcDbEntity
  8
3-4
  6
Continuous
 62
     7
370
     9
100
AcDbLine
 10
-118.8024407559625
 20
53.85958678663388
 30
0.0
 11
-179.2130438468744
 21
53.85958678663388
 31
0.0
  0
LINE
  5
247
330
1F
100
AcDbEntity
  8
3-5
  6
Continuous
 62
     7
370
     9
100
AcDbLine
 10
-197.2428675162719
 20
21.67322914944745
 30
0.0
 11
-193.102191284109
 21
15.41984603785065
 31
0.0
  0
LINE
  5
248
330
1F
100
AcDbEntity
  8
3-5
  6
Continuous
 62
     7
370
     9
100
AcDbLine
 10
-197.2428675162719
 20
21.67322914944745
 30
0.0
 11
-191.6247867597205
 21
16.70461076876356
 31
0.0
  0
LINE
  5
249
330
1F
100
AcDbEntity
  8
3-5
  6
Continuous
 62
     7
370
     9
100
AcDbLine
 10
-195.436706245764
 20
-16.16918201422689
 30
0.0
 11
-191.5570127916004
 21
-22.5877471733352
 31
0.0
  0
LINE
  5
24A
330
1F
100
AcDbEntity
  8
3-5
  6
Continuous
 62
     7
370
     9
100
AcDbLine
 10
-195.436706245764
 20
-16.16918201422689
 30
0.0
 11
-190.0279632348938
 21
-21.36490131403164
 31
0.0
  0
LINE
  5
24B
330
1F
100
AcDbEntity
  8
3-5
  6
Continuous
 62
     7
370
     9
100
AcDbLine
 10
-132.1133551061876
 20
-95.31399842612245
 30
0.0
 11
-195.436706245764
 21
-16.16918201422689
 31
0.0
  0
TEXT
  5
24C
330
1F
100
AcDbEntity
  8
3-5
  6
Continuous
 62
     7
370
     9
100
AcDbText
 10
-129.2993524557794
 20
-90.4160583593465
 30
0.0
 40
6.858000000000001
  1
仮設排水ホース
 41
1.142857142857143
  7
ＭＳ ゴシック
100
AcDbText
  0
LINE
  5
24D
330
1F
100
AcDbEntity
  8
3-5
  6
Continuous
 62
     7
370
     9
100
AcDbLine
 10
-54.48534980537192
 20
-95.31399842612245
 30
0.0
 11
-132.1133551061876
 21
-95.31399842612245
 31
0.0
  0
LINE
  5
24E
330
1F
100
AcDbEntity
  8
3-5
  6
Continuous
 62
     7
370
     9
100
AcDbLine
 10
-133.0104134835886
 20
-52.20045009819236
 30
0.0
 11
-197.2428675162719
 21
21.67322914944745
 31
0.0
  0
TEXT
  5
24F
330
1F
100
AcDbEntity
  8
3-5
  6
Continuous
 62
     7
370
     9
100
AcDbText
 10
-130.4788892743289
 20
-63.75668912506078
 30
0.0
 40
6.858000000000001
  1
(別途)
 41
1.138888888888889
  7
ＭＳ ゴシック
100
AcDbText
  0
LINE
  5
250
330
1F
100
AcDbEntity
  8
3-5
  6
Continuous
 62
     7
370
     9
100
AcDbLine
 10
-95.79989354465386
 20
-52.20045009819236
 30
0.0
 11
-133.0104134835886
 21
-52.20045009819236
 31
0.0
  0
LINE
  5
251
330
1F
100
AcDbEntity
  8
3-5
  6
Continuous
 62
     7
370
     9
100
AcDbLine
 10
-311.2728263714857
 20
176.0556812737982
 30
0.0
 11
-315.8385364907841
 21
182.0058172007407
 31
0.0
  0
LINE
  5
252
330
1F
100
AcDbEntity
  8
3-5
  6
Continuous
 62
     7
370
     9
100
AcDbLine
 10
-311.2728263714857
 20
176.0556812737982
 30
0.0
 11
-314.1429674781672
 21
182.9847881150144
 31
0.0
  0
LINE
  5
253
330
1F
100
AcDbEntity
  8
3-5
  6
Continuous
 62
     7
370
     9
100
AcDbLine
 10
-376.6434798384329
 20
-18.28708392420435
 30
0.0
 11
-313.6905569190601
 21
-18.28708392420435
 31
0.0
  0
LINE
  5
254
330
1F
100
AcDbEntity
  8
3-5
  6
Continuous
 62
     7
370
     9
100
AcDbLine
 10
-268.5410640838019
 20
59.9141554794631
 30
0.0
 11
-273.106774014692
 21
53.96400482364159
 31
0.0
  0
LINE
  5
255
330
1F
100
AcDbEntity
  8
3-5
  6
Continuous
 62
     7
370
     9
100
AcDbLine
 10
-268.5410640838019
 20
59.9141554794631
 30
0.0
 11
-271.4111889104375
 21
52.98505860616616
 31
0.0
  0
LINE
  5
256
330
1F
100
AcDbEntity
  8
3-5
  6
Continuous
 62
     7
370
     9
100
AcDbLine
 10
-313.6905569190601
 20
-18.28708392420435
 30
0.0
 11
-268.5410640838019
 21
59.9141554794631
 31
0.0
  0
LINE
  5
257
330
1F
100
AcDbEntity
  8
寸法
  6
Continuous
 62
     7
370
     9
100
AcDbLine
 10
-310.727086009334
 20
-141.0414211254073
 30
0.0
 11
-127.7270860093341
 21
-141.0414211254073
 31
0.0
  0
TEXT
  5
258
330
1F
100
AcDbEntity
  8
寸法
  6
Continuous
 62
     2
370
     9
100
AcDbText
 10
-306.227086009334
 20
-155.8494211254072
 30
0.0
 40
9.144
  1
型枠ばらし～たてとい工事前
 41
1.115384615384615
  7
ＭＳ ゴシック
100
AcDbText
  0
LINE
  5
259
330
1F
100
AcDbEntity
  8
通り芯
  6
Continuous
 62
     3
370
     9
100
AcDbLine
 10
198.8235515881083
 20
176.0550131862772
 30
0.0
 11
198.4812817495616
 21
174.3311781800935
 31
0.0
  0
LINE
  5
25A
330
1F
100
AcDbEntity
  8
通り芯
  6
Continuous
 62
     3
370
     9
100
AcDbLine
 10
221.8235595415312
 20
151.0549959244039
 30
0.0
 11
222.8235641957564
 21
150.0549912701786
 31
0.0
  0
LINE
  5
25B
330
1F
100
AcDbEntity
  8
通り芯
  6
Continuous
 62
     3
370
     9
100
AcDbLine
 10
230.7394212825272
 20
150.0549912701786
 30
0.0
 11
222.8235641957564
 21
150.0549912701786
 31
0.0
  0
LINE
  5
25C
330
1F
100
AcDbEntity
  8
通り芯
  6
Continuous
 62
     3
370
     9
100
AcDbLine
 10
239.480878010251
 20
148.9946385176109
 30
0.0
 11
242.3337872898571
 21
109.0549986344591
 31
0.0
  0
LINE
  5
25D
330
1F
100
AcDbEntity
  8
通り芯
  6
Continuous
 62
     3
370
     9
100
AcDbLine
 10
371.8235640190136
 20
176.0550131862772
 30
0.0
 11
372.1659329513179
 21
174.3311781800935
 31
0.0
  0
LINE
  5
25E
330
1F
100
AcDbEntity
  8
通り芯
  6
Continuous
 62
     3
370
     9
100
AcDbLine
 10
348.8236056124695
 20
151.0549959244039
 30
0.0
 11
347.8236009582444
 21
150.0549912701786
 31
0.0
  0
LINE
  5
25F
330
1F
100
AcDbEntity
  8
通り芯
  6
Continuous
 62
     3
370
     9
100
AcDbLine
 10
339.9077438714736
 20
150.0549912701786
 30
0.0
 11
347.8236009582444
 21
150.0549912701786
 31
0.0
  0
LINE
  5
260
330
1F
100
AcDbEntity
  8
通り芯
  6
JWW_DASHED1
 62
     3
370
     9
100
AcDbLine
 10
197.156645945632
 20
167.0296032963196
 30
0.0
 11
194.9976407032069
 21
167.7310880059525
 31
0.0
  0
LINE
  5
261
330
1F
100
AcDbEntity
  8
通り芯
  6
JWW_DASHED1
 62
     3
370
     9
100
AcDbLine
 10
353.3015038751122
 20
156.5726354380456
 30
0.0
 11
364.0781977420922
 21
157.3261443703875
 31
0.0
  0
LINE
  5
262
330
1F
100
AcDbEntity
  8
通り芯
  6
Continuous
 62
     3
370
     9
100
AcDbLine
 10
337.6601983566857
 20
155.4788385423078
 30
0.0
 11
353.3015038751122
 21
156.5726354380456
 31
0.0
  0
LINE
  5
263
330
1F
100
AcDbEntity
  8
通り芯
  6
JWW_DASHED1
 62
     3
370
     9
100
AcDbLine
 10
366.8465304996371
 20
159.9532189765576
 30
0.0
 11
367.4429758262764
 21
164.8112904400062
 31
0.0
  0
LINE
  5
264
330
1F
100
AcDbEntity
  8
通り芯
  6
Continuous
 62
     3
370
     9
100
AcDbLine
 10
367.4429758262764
 20
164.8112904400062
 30
0.0
 11
368.823550056338
 21
176.0550131862772
 31
0.0
  0
LINE
  5
265
330
1F
100
AcDbEntity
  8
通り芯
  6
Continuous
 62
     3
370
     9
100
AcDbLine
 10
235.7267110058094
 20
145.4112596042912
 30
0.0
 11
238.323661109687
 21
109.0549986344591
 31
0.0
  0
LINE
  5
266
330
1F
100
AcDbEntity
  8
通り芯
  6
Continuous
 62
     3
370
     9
100
AcDbLine
 10
388.3235664934119
 20
176.0550131862772
 30
0.0
 11
368.0133099478038
 21
169.455814855954
 31
0.0
  0
LINE
  5
267
330
1F
100
AcDbEntity
  8
通り芯
  6
Continuous
 62
     3
370
     9
100
AcDbLine
 10
355.9950703925922
 20
162.0017346793244
 30
0.0
 11
354.6287656636166
 21
157.6222365179201
 31
0.0
  0
LINE
  5
268
330
1F
100
AcDbEntity
  8
通り芯
  6
Continuous
 62
     3
370
     9
100
AcDbLine
 10
214.6521443082873
 20
162.0017346793244
 30
0.0
 11
216.018449037263
 21
157.6222365179201
 31
0.0
  0
LINE
  5
269
330
1F
100
AcDbEntity
  8
通り芯
  6
Continuous
 62
     3
370
     9
100
AcDbLine
 10
332.3235535911926
 20
109.0549986344591
 30
0.0
 11
238.323661109687
 21
109.0549986344591
 31
0.0
  0
LINE
  5
26A
330
1F
100
AcDbEntity
  8
通り芯
  6
Continuous
 62
     3
370
     9
100
AcDbLine
 10
199.1666637235941
 20
147.3784193321168
 30
0.0
 11
197.0496246874877
 21
165.2312002375863
 31
0.0
  0
LINE
  5
26B
330
1F
100
AcDbEntity
  8
通り芯
  6
Continuous
 62
     3
370
     9
100
AcDbLine
 10
193.3236994039452
 20
128.0550870647385
 30
0.0
 11
193.3236994039452
 21
122.0550095925084
 31
0.0
  0
LINE
  5
26C
330
1F
100
AcDbEntity
  8
通り芯
  6
Continuous
 62
     3
370
     9
100
AcDbLine
 10
207.4986650451584
 20
152.2551204219832
 30
0.0
 11
201.1487370619297
 21
152.2551204219832
 31
0.0
  0
LINE
  5
26D
330
1F
100
AcDbEntity
  8
通り芯
  6
Continuous
 62
     3
370
     9
100
AcDbLine
 10
207.4986650451584
 20
152.2551204219832
 30
0.0
 11
206.6836188893835
 21
153.0551043266119
 31
0.0
  0
LINE
  5
26E
330
1F
100
AcDbEntity
  8
通り芯
  6
Continuous
 62
     3
370
     9
100
AcDbLine
 10
201.9636345770683
 20
153.0551043266119
 30
0.0
 11
201.1487370619297
 21
152.2551204219832
 31
0.0
  0
LINE
  5
26F
330
1F
100
AcDbEntity
  8
通り芯
  6
Continuous
 62
     3
370
     9
100
AcDbLine
 10
206.6836188893835
 20
153.0551043266119
 30
0.0
 11
201.9636345770683
 21
153.0551043266119
 31
0.0
  0
LINE
  5
270
330
1F
100
AcDbEntity
  8
通り芯
  6
Continuous
 62
     3
370
     9
100
AcDbLine
 10
199.3237273292966
 20
128.0550870647385
 30
0.0
 11
193.3236994039452
 21
128.0550870647385
 31
0.0
  0
LINE
  5
271
330
1F
100
AcDbEntity
  8
通り芯
  6
Continuous
 62
     3
370
     9
100
AcDbLine
 10
207.3237645630985
 20
130.0550468263102
 30
0.0
 11
207.3237645630985
 21
143.0550577843595
 31
0.0
  0
LINE
  5
272
330
1F
100
AcDbEntity
  8
通り芯
  6
Continuous
 62
     3
370
     9
100
AcDbLine
 10
199.3237273292966
 20
122.0550095925084
 30
0.0
 11
193.3236994039452
 21
122.0550095925084
 31
0.0
  0
LINE
  5
273
330
1F
100
AcDbEntity
  8
通り芯
  6
Continuous
 62
     3
370
     9
100
AcDbLine
 10
201.3237366377471
 20
130.0550468263102
 30
0.0
 11
201.3237366377471
 21
143.0550577843595
 31
0.0
  0
LINE
  5
274
330
1F
100
AcDbEntity
  8
通り芯
  6
Continuous
 62
     3
370
     9
100
AcDbLine
 10
201.9636345770683
 20
143.0550577843595
 30
0.0
 11
201.9636345770683
 21
154.0550594339584
 31
0.0
  0
LINE
  5
275
330
1F
100
AcDbEntity
  8
通り芯
  6
Continuous
 62
     3
370
     9
100
AcDbLine
 10
206.6836188893835
 20
143.0550577843595
 30
0.0
 11
206.6836188893835
 21
154.0550594339584
 31
0.0
  0
LINE
  5
276
330
1F
100
AcDbEntity
  8
通り芯
  6
Continuous
 62
     3
370
     9
100
AcDbLine
 10
207.4986650451584
 20
143.0550577843595
 30
0.0
 11
207.4986650451584
 21
152.2551204219832
 31
0.0
  0
LINE
  5
277
330
1F
100
AcDbEntity
  8
通り芯
  6
Continuous
 62
     3
370
     9
100
AcDbLine
 10
201.1487370619297
 20
143.0550577843595
 30
0.0
 11
201.1487370619297
 21
152.2551204219832
 31
0.0
  0
LINE
  5
278
330
1F
100
AcDbEntity
  8
通り芯
  6
Continuous
 62
     3
370
     9
100
AcDbLine
 10
207.4986650451584
 20
143.0550577843595
 30
0.0
 11
201.1487370619297
 21
143.0550577843595
 31
0.0
  0
LINE
  5
279
330
1F
100
AcDbEntity
  8
通り芯
  6
Continuous
 62
     3
370
     9
100
AcDbLine
 10
334.9205036950702
 20
145.4112596042912
 30
0.0
 11
332.3235535911926
 21
109.0549986344591
 31
0.0
  0
LINE
  5
27A
330
1F
100
AcDbEntity
  8
通り芯
  6
Continuous
 62
     3
370
     9
100
AcDbLine
 10
331.1662871437497
 20
148.9946385176109
 30
0.0
 11
328.3133778641437
 21
109.0549986344591
 31
0.0
  0
LINE
  5
27B
330
1F
100
AcDbEntity
  8
通り芯
  6
JWW_PHANTOM1
 62
     3
370
     9
100
AcDbLine
 10
360.3235352688629
 20
146.0550222001565
 30
0.0
 11
357.3235708530659
 21
146.0550222001565
 31
0.0
  0
LINE
  5
27C
330
1F
100
AcDbEntity
  8
通り芯
  6
JWW_PHANTOM1
 62
     3
370
     9
100
AcDbLine
 10
357.3235708530659
 20
146.0550222001565
 30
0.0
 11
356.3235661988406
 21
151.0549463775251
 31
0.0
  0
LINE
  5
27D
330
1F
100
AcDbEntity
  8
通り芯
  6
Continuous
 62
     3
370
     9
100
AcDbLine
 10
181.3235444594849
 20
167.0550208451289
 30
0.0
 11
180.3235398052596
 21
168.0550254993541
 31
0.0
  0
LINE
  5
27E
330
1F
100
AcDbEntity
  8
通り芯
  6
Continuous
 62
     3
370
     9
100
AcDbLine
 10
181.3235444594849
 20
167.0550208451289
 30
0.0
 11
186.3235181837323
 21
167.0550208451289
 31
0.0
  0
LINE
  5
27F
330
1F
100
AcDbEntity
  8
通り芯
  6
Continuous
 62
     3
370
     9
100
AcDbLine
 10
194.9975911563282
 20
167.7310880059525
 30
0.0
 11
194.8433021758368
 21
167.7812294472682
 31
0.0
  0
LINE
  5
280
330
1F
100
AcDbEntity
  8
通り芯
  6
Continuous
 62
     3
370
     9
100
AcDbLine
 10
389.3236702413947
 20
167.0550208451289
 30
0.0
 11
390.3236748956199
 21
168.0550254993541
 31
0.0
  0
LINE
  5
281
330
1F
100
AcDbEntity
  8
通り芯
  6
Continuous
 62
     3
370
     9
100
AcDbLine
 10
389.3236702413947
 20
167.0550208451289
 30
0.0
 11
384.3236469702686
 21
167.0550208451289
 31
0.0
  0
LINE
  5
282
330
1F
100
AcDbEntity
  8
通り芯
  6
Continuous
 62
     3
370
     9
100
AcDbLine
 10
232.9870658910727
 20
155.4789376360653
 30
0.0
 11
217.3457108257674
 21
156.5726354380456
 31
0.0
  0
LINE
  5
283
330
1F
100
AcDbEntity
  8
通り芯
  6
JWW_DASHED1
 62
     3
370
     9
100
AcDbLine
 10
217.3457108257674
 20
156.5726354380456
 30
0.0
 11
206.5689674119085
 21
157.3261443703875
 31
0.0
  0
LINE
  5
284
330
1F
100
AcDbEntity
  8
通り芯
  6
Continuous
 62
     3
370
     9
100
AcDbLine
 10
203.204238874603
 20
164.8112408931275
 30
0.0
 11
201.8237141914203
 21
176.0550131862772
 31
0.0
  0
LINE
  5
285
330
1F
100
AcDbEntity
  8
通り芯
  6
JWW_DASHED1
 62
     3
370
     9
100
AcDbLine
 10
203.8006842012425
 20
159.9532189765576
 30
0.0
 11
203.204238874603
 21
164.8112408931275
 31
0.0
  0
LINE
  5
286
330
1F
100
AcDbEntity
  8
通り芯
  6
Continuous
 62
     3
370
     9
100
AcDbLine
 10
389.4331192965988
 20
175.1790243696146
 30
0.0
 11
390.3236748956199
 21
168.0550254993541
 31
0.0
  0
LINE
  5
287
330
1F
100
AcDbEntity
  8
通り芯
  6
Continuous
 62
     3
370
     9
100
AcDbLine
 10
181.2140954042808
 20
175.1790243696146
 30
0.0
 11
180.3235398052596
 21
168.0550254993541
 31
0.0
  0
LINE
  5
288
330
1F
100
AcDbEntity
  8
通り芯
  6
JWW_CENTER1
 62
     3
370
     9
100
AcDbLine
 10
199.3235786886603
 20
125.0550731020628
 30
0.0
 11
192.361697205737
 21
125.0550731020628
 31
0.0
  0
LINE
  5
289
330
1F
100
AcDbEntity
  8
通り芯
  6
JWW_PHANTOM1
 62
     3
370
     9
100
AcDbLine
 10
361.3234903762094
 20
153.1237763005878
 30
0.0
 11
360.3235352688629
 21
146.0550222001565
 31
0.0
  0
LINE
  5
28A
330
1F
100
AcDbEntity
  8
通り芯
  6
Continuous
 62
     3
370
     9
100
AcDbLine
 10
355.3235615446155
 20
151.0549959244039
 30
0.0
 11
348.8236056124695
 21
151.0549959244039
 31
0.0
  0
LINE
  5
28B
330
1F
100
AcDbEntity
  8
通り芯
  6
JWW_PHANTOM1
 62
     3
370
     9
100
AcDbLine
 10
355.3235615446155
 20
151.0549959244039
 30
0.0
 11
356.3235661988406
 21
151.0549959244039
 31
0.0
  0
LINE
  5
28C
330
1F
100
AcDbEntity
  8
通り芯
  6
JWW_DASHED1
 62
     3
370
     9
100
AcDbLine
 10
199.8304928053614
 20
159.4657767832133
 30
0.0
 11
199.2071930704283
 21
164.5420527007672
 31
0.0
  0
LINE
  5
28D
330
1F
100
AcDbEntity
  8
通り芯
  6
JWW_DASHED1
 62
     3
370
     9
100
AcDbLine
 10
213.4748609218212
 20
152.8335306847501
 30
0.0
 11
206.2901175781881
 21
153.3358864886044
 31
0.0
  0
LINE
  5
28E
330
1F
100
AcDbEntity
  8
通り芯
  6
Continuous
 62
     3
370
     9
100
AcDbLine
 10
200.656191540072
 20
146.0550222001565
 30
0.0
 11
201.9636345770683
 21
146.0550222001565
 31
0.0
  0
LINE
  5
28F
330
1F
100
AcDbEntity
  8
通り芯
  6
Continuous
 62
     3
370
     9
100
AcDbLine
 10
206.6836188893835
 20
154.0550594339584
 30
0.0
 11
201.9636345770683
 21
154.0550594339584
 31
0.0
  0
LINE
  5
290
330
1F
100
AcDbEntity
  8
通り芯
  6
Continuous
 62
     3
370
     9
100
AcDbLine
 10
206.6836188893835
 20
154.0550594339584
 30
0.0
 11
204.3236019597865
 21
155.4175986001474
 31
0.0
  0
LINE
  5
291
330
1F
100
AcDbEntity
  8
通り芯
  6
Continuous
 62
     3
370
     9
100
AcDbLine
 10
201.9636345770683
 20
154.0550594339584
 30
0.0
 11
204.3236019597865
 21
155.4175986001474
 31
0.0
  0
LINE
  5
292
330
1F
100
AcDbEntity
  8
通り芯
  6
JWW_CENTER1
 62
     3
370
     9
100
AcDbLine
 10
204.3236019597865
 20
130.0550468263102
 30
0.0
 11
204.3236019597865
 21
155.6860435893261
 31
0.0
  0
LINE
  5
293
330
1F
100
AcDbEntity
  8
通り芯
  6
Continuous
 62
     3
370
     9
100
AcDbLine
 10
215.5533029393654
 20
151.0549959244039
 30
0.0
 11
221.8235595415312
 21
151.0549959244039
 31
0.0
  0
LINE
  5
294
330
1F
100
AcDbEntity
  8
通り芯
  6
Continuous
 62
     3
370
     9
100
AcDbLine
 10
213.5647389599109
 20
147.2608941356732
 30
0.0
 11
214.082454296184
 21
149.8491735357659
 31
0.0
  0
LINE
  5
295
330
1F
100
AcDbEntity
  8
通り芯
  6
Continuous
 62
     3
370
     9
100
AcDbLine
 10
206.6836188893835
 20
146.0550222001565
 30
0.0
 11
212.0939398636083
 21
146.0550222001565
 31
0.0
  0
LINE
  5
296
330
1F
100
AcDbEntity
  8
通り芯
  6
Continuous
 62
     3
370
     9
100
AcDbLine
 10
358.3235259604124
 20
156.05501919553
 30
0.0
 11
364.3234547920063
 21
156.05501919553
 31
0.0
  0
LINE
  5
297
330
1F
100
AcDbEntity
  8
通り芯
  6
Continuous
 62
     3
370
     9
100
AcDbLine
 10
358.8235035140857
 20
155.5550416418568
 30
0.0
 11
363.8234276914543
 21
155.5550416418568
 31
0.0
  0
LINE
  5
298
330
1F
100
AcDbEntity
  8
通り芯
  6
Continuous
 62
     3
370
     9
100
AcDbLine
 10
363.8234276914543
 20
155.5550416418568
 30
0.0
 11
361.3234903762094
 21
154.1116419695142
 31
0.0
  0
LINE
  5
299
330
1F
100
AcDbEntity
  8
通り芯
  6
Continuous
 62
     3
370
     9
100
AcDbLine
 10
358.8235035140857
 20
155.5550416418568
 30
0.0
 11
361.3234903762094
 21
154.1116419695142
 31
0.0
  0
LINE
  5
29A
330
1F
100
AcDbEntity
  8
通り芯
  6
Continuous
 62
     3
370
     9
100
AcDbLine
 10
357.4270247359387
 20
163.0550022282279
 30
0.0
 11
358.8235035140857
 21
163.0550022282279
 31
0.0
  0
LINE
  5
29B
330
1F
100
AcDbEntity
  8
通り芯
  6
Continuous
 62
     3
370
     9
100
AcDbLine
 10
373.4906183021263
 20
167.0296032963196
 30
0.0
 11
375.803862978164
 21
167.7812294472682
 31
0.0
  0
LINE
  5
29C
330
1F
100
AcDbEntity
  8
通り芯
  6
Continuous
 62
     3
370
     9
100
AcDbLine
 10
370.8166228017605
 20
159.4656776894557
 30
0.0
 11
371.4400216304512
 21
164.5420527007672
 31
0.0
  0
LINE
  5
29D
330
1F
100
AcDbEntity
  8
通り芯
  6
Continuous
 62
     3
370
     9
100
AcDbLine
 10
357.1723537790583
 20
152.8335306847501
 30
0.0
 11
364.3570971226915
 21
153.3358864886044
 31
0.0
  0
LINE
  5
29E
330
1F
100
AcDbEntity
  8
通り芯
  6
Continuous
 62
     3
370
     9
100
AcDbLine
 10
213.2202395118195
 20
163.0550022282279
 30
0.0
 11
205.1892850256648
 21
163.0550022282279
 31
0.0
  0
LINE
  5
29F
330
1F
100
AcDbEntity
  8
通り芯
  6
Continuous
 62
     3
370
     9
100
AcDbLine
 10
182.3236482074676
 20
176.0550131862772
 30
0.0
 11
194.6117200644634
 21
172.062377054313
 31
0.0
  0
LINE
  5
2A0
330
1F
100
AcDbEntity
  8
通り芯
  6
JWW_DASHED1
 62
     3
370
     9
100
AcDbLine
 10
194.6116705175846
 20
172.062377054313
 30
0.0
 11
202.633855206197
 21
169.455814855954
 31
0.0
  0
LINE
  5
2A1
330
1F
100
AcDbEntity
  8
通り芯
  6
Continuous
 62
     3
370
     9
100
AcDbLine
 10
338.1484333000902
 20
155.4958826686048
 30
0.0
 11
232.4987318539106
 21
155.4958826686048
 31
0.0
  0
LINE
  5
2A2
330
1F
100
AcDbEntity
  8
通り芯
  6
Continuous
 62
     3
370
     9
100
AcDbLine
 10
363.8234276914543
 20
163.0550022282279
 30
0.0
 11
367.2273478098672
 21
163.0550022282279
 31
0.0
  0
LINE
  5
2A3
330
1F
100
AcDbEntity
  8
建具
  6
Continuous
 62
     4
370
     9
100
AcDbLine
 10
219.8235997799595
 20
151.0549959244039
 30
0.0
 11
219.8235997799595
 21
106.0551333124197
 31
0.0
  0
LINE
  5
2A4
330
1F
100
AcDbEntity
  8
建具
  6
Continuous
 62
     4
370
     9
100
AcDbLine
 10
215.3235540625065
 20
151.0549959244039
 30
0.0
 11
215.3235540625065
 21
106.0551333124197
 31
0.0
  0
LINE
  5
2A5
330
1F
100
AcDbEntity
  8
建具
  6
Continuous
 62
     4
370
     9
100
AcDbLine
 10
350.8236149209201
 20
151.0549959244039
 30
0.0
 11
350.8236149209201
 21
106.0551333124197
 31
0.0
  0
LINE
  5
2A6
330
1F
100
AcDbEntity
  8
建具
  6
Continuous
 62
     4
370
     9
100
AcDbLine
 10
355.323660638373
 20
151.0549959244039
 30
0.0
 11
355.323660638373
 21
106.0551333124197
 31
0.0
  0
LINE
  5
2A7
330
1F
100
AcDbEntity
  8
躯体
  6
Continuous
 62
     6
370
     5
100
AcDbLine
 10
349.8235607198161
 20
106.0551333124197
 30
0.0
 11
346.8235963040191
 21
101.055209135051
 31
0.0
  0
LINE
  5
2A8
330
1F
100
AcDbEntity
  8
躯体
  6
Continuous
 62
     6
370
     5
100
AcDbLine
 10
359.3235801615165
 20
89.05515328434818
 30
0.0
 11
356.3236157457195
 21
86.05518886855127
 31
0.0
  0
LINE
  5
2A9
330
1F
100
AcDbEntity
  8
躯体
  6
Continuous
 62
     6
370
     5
100
AcDbLine
 10
356.3236157457195
 20
86.05518886855127
 30
0.0
 11
356.3236157457195
 21
76.05514232629893
 31
0.0
  0
LINE
  5
2AA
330
1F
100
AcDbEntity
  8
躯体
  6
Continuous
 62
     6
370
     5
100
AcDbLine
 10
355.5736741886491
 20
108.0551426208701
 30
0.0
 11
355.5736741886491
 21
106.0551333124197
 31
0.0
  0
LINE
  5
2AB
330
1F
100
AcDbEntity
  8
躯体
  6
Continuous
 62
     6
370
     5
100
AcDbLine
 10
359.3235801615165
 20
89.05515328434818
 30
0.0
 11
359.3236792552739
 21
108.0551426208701
 31
0.0
  0
LINE
  5
2AC
330
1F
100
AcDbEntity
  8
躯体
  6
JWW_DASHED1
 62
     6
370
     5
100
AcDbLine
 10
359.3236792552739
 20
102.0551642423975
 30
0.0
 11
356.3236157457195
 21
99.05519982660057
 31
0.0
  0
LINE
  5
2AD
330
1F
100
AcDbEntity
  8
躯体
  6
JWW_DASHED1
 62
     6
370
     5
100
AcDbLine
 10
356.3236157457195
 20
86.05518886855127
 30
0.0
 11
356.3236157457195
 21
99.05519982660057
 31
0.0
  0
LINE
  5
2AE
330
1F
100
AcDbEntity
  8
躯体
  6
Continuous
 62
     6
370
     5
100
AcDbLine
 10
211.3235849924844
 20
89.05515328434818
 30
0.0
 11
214.32359895516
 21
86.05518886855127
 31
0.0
  0
LINE
  5
2AF
330
1F
100
AcDbEntity
  8
躯体
  6
Continuous
 62
     6
370
     5
100
AcDbLine
 10
214.32359895516
 20
86.05518886855127
 30
0.0
 11
214.32359895516
 21
76.05514232629893
 31
0.0
  0
LINE
  5
2B0
330
1F
100
AcDbEntity
  8
躯体
  6
Continuous
 62
     6
370
     5
100
AcDbLine
 10
215.0735900591093
 20
108.0551426208701
 30
0.0
 11
215.0735900591093
 21
106.0551333124197
 31
0.0
  0
LINE
  5
2B1
330
1F
100
AcDbEntity
  8
躯体
  6
Continuous
 62
     6
370
     5
100
AcDbLine
 10
211.3235849924844
 20
89.05515328434818
 30
0.0
 11
211.3235849924844
 21
108.0551426208701
 31
0.0
  0
LINE
  5
2B2
330
1F
100
AcDbEntity
  8
躯体
  6
JWW_DASHED1
 62
     6
370
     5
100
AcDbLine
 10
211.3235849924844
 20
102.0551642423975
 30
0.0
 11
214.32359895516
 21
99.05519982660057
 31
0.0
  0
LINE
  5
2B3
330
1F
100
AcDbEntity
  8
躯体
  6
JWW_DASHED1
 62
     6
370
     5
100
AcDbLine
 10
214.32359895516
 20
86.05518886855127
 30
0.0
 11
214.32359895516
 21
99.05519982660057
 31
0.0
  0
LINE
  5
2B4
330
1F
100
AcDbEntity
  8
躯体
  6
Continuous
 62
     6
370
     5
100
AcDbLine
 10
353.3236513299225
 20
77.55522362795493
 30
0.0
 11
350.8236149209201
 21
80.05516094319988
 31
0.0
  0
LINE
  5
2B5
330
1F
100
AcDbEntity
  8
躯体
  6
Continuous
 62
     6
370
     5
100
AcDbLine
 10
353.3236513299225
 20
81.05521514430386
 30
0.0
 11
350.8236149209201
 21
81.05521514430386
 31
0.0
  0
LINE
  5
2B6
330
1F
100
AcDbEntity
  8
躯体
  6
Continuous
 62
     6
370
     5
100
AcDbLine
 10
350.8236149209201
 20
81.05521514430386
 30
0.0
 11
350.8236149209201
 21
80.05516094319988
 31
0.0
  0
LINE
  5
2B7
330
1F
100
AcDbEntity
  8
躯体
  6
Continuous
 62
     6
370
     5
100
AcDbLine
 10
353.3236513299225
 20
86.05513932167251
 30
0.0
 11
350.8236149209201
 21
86.05513932167251
 31
0.0
  0
LINE
  5
2B8
330
1F
100
AcDbEntity
  8
躯体
  6
Continuous
 62
     6
370
     5
100
AcDbLine
 10
353.3236513299225
 20
82.55514780532359
 30
0.0
 11
350.8236149209201
 21
85.0552337612048
 31
0.0
  0
LINE
  5
2B9
330
1F
100
AcDbEntity
  8
躯体
  6
Continuous
 62
     6
370
     5
100
AcDbLine
 10
353.3236513299225
 20
86.05513932167251
 30
0.0
 11
350.8236149209201
 21
86.05513932167251
 31
0.0
  0
LINE
  5
2BA
330
1F
100
AcDbEntity
  8
躯体
  6
Continuous
 62
     6
370
     5
100
AcDbLine
 10
350.8236149209201
 20
86.05513932167251
 30
0.0
 11
350.8236149209201
 21
85.0552337612048
 31
0.0
  0
LINE
  5
2BB
330
1F
100
AcDbEntity
  8
躯体
  6
Continuous
 62
     6
370
     5
100
AcDbLine
 10
353.3236513299225
 20
87.55517107644975
 30
0.0
 11
350.8236149209201
 21
90.05520748545221
 31
0.0
  0
LINE
  5
2BC
330
1F
100
AcDbEntity
  8
躯体
  6
Continuous
 62
     6
370
     5
100
AcDbLine
 10
353.3236513299225
 20
91.05516259279868
 30
0.0
 11
350.8236149209201
 21
91.05516259279868
 31
0.0
  0
LINE
  5
2BD
330
1F
100
AcDbEntity
  8
躯体
  6
Continuous
 62
     6
370
     5
100
AcDbLine
 10
350.8236149209201
 20
91.05516259279868
 30
0.0
 11
350.8236149209201
 21
90.05520748545221
 31
0.0
  0
LINE
  5
2BE
330
1F
100
AcDbEntity
  8
躯体
  6
Continuous
 62
     6
370
     5
100
AcDbLine
 10
353.3236513299225
 20
92.55514480069718
 30
0.0
 11
350.8236149209201
 21
95.05513166282088
 31
0.0
  0
LINE
  5
2BF
330
1F
100
AcDbEntity
  8
躯体
  6
Continuous
 62
     6
370
     5
100
AcDbLine
 10
353.3236513299225
 20
96.05518586392483
 30
0.0
 11
350.8236149209201
 21
96.05518586392483
 31
0.0
  0
LINE
  5
2C0
330
1F
100
AcDbEntity
  8
躯体
  6
Continuous
 62
     6
370
     5
100
AcDbLine
 10
350.8236149209201
 20
96.05518586392483
 30
0.0
 11
350.8236149209201
 21
95.05513166282088
 31
0.0
  0
LINE
  5
2C1
330
1F
100
AcDbEntity
  8
躯体
  6
Continuous
 62
     6
370
     5
100
AcDbLine
 10
353.3236513299225
 20
92.55514480069718
 30
0.0
 11
353.3236513299225
 21
91.05516259279868
 31
0.0
  0
LINE
  5
2C2
330
1F
100
AcDbEntity
  8
躯体
  6
Continuous
 62
     6
370
     5
100
AcDbLine
 10
353.3236513299225
 20
87.55517107644975
 30
0.0
 11
353.3236513299225
 21
86.05513932167251
 31
0.0
  0
LINE
  5
2C3
330
1F
100
AcDbEntity
  8
躯体
  6
Continuous
 62
     6
370
     5
100
AcDbLine
 10
353.3236513299225
 20
82.55514780532359
 30
0.0
 11
353.3236513299225
 21
81.05521514430386
 31
0.0
  0
LINE
  5
2C4
330
1F
100
AcDbEntity
  8
躯体
  6
Continuous
 62
     6
370
     5
100
AcDbLine
 10
353.3236513299225
 20
77.55522362795493
 30
0.0
 11
353.3236513299225
 21
76.05514232629893
 31
0.0
  0
LINE
  5
2C5
330
1F
100
AcDbEntity
  8
躯体
  6
Continuous
 62
     6
370
     5
100
AcDbLine
 10
353.3236513299225
 20
97.55521761870207
 30
0.0
 11
350.8236149209201
 21
100.055154933947
 31
0.0
  0
LINE
  5
2C6
330
1F
100
AcDbEntity
  8
躯体
  6
Continuous
 62
     6
370
     5
100
AcDbLine
 10
353.3236513299225
 20
96.05518586392483
 30
0.0
 11
353.3236513299225
 21
97.55521761870207
 31
0.0
  0
LINE
  5
2C7
330
1F
100
AcDbEntity
  8
躯体
  6
Continuous
 62
     6
370
     5
100
AcDbLine
 10
350.8236149209201
 20
101.055209135051
 30
0.0
 11
350.8236149209201
 21
100.055154933947
 31
0.0
  0
LINE
  5
2C8
330
1F
100
AcDbEntity
  8
躯体
  6
Continuous
 62
     6
370
     5
100
AcDbLine
 10
217.3236129178358
 20
80.05516094319988
 30
0.0
 11
219.8235502330808
 21
82.55519735220234
 31
0.0
  0
LINE
  5
2C9
330
1F
100
AcDbEntity
  8
躯体
  6
Continuous
 62
     6
370
     5
100
AcDbLine
 10
217.3236129178358
 20
83.55515245954881
 30
0.0
 11
219.8235502330808
 21
83.55515245954881
 31
0.0
  0
LINE
  5
2CA
330
1F
100
AcDbEntity
  8
躯体
  6
Continuous
 62
     6
370
     5
100
AcDbLine
 10
219.8235502330808
 20
83.55515245954881
 30
0.0
 11
219.8235502330808
 21
82.55519735220234
 31
0.0
  0
LINE
  5
2CB
330
1F
100
AcDbEntity
  8
躯体
  6
Continuous
 62
     6
370
     5
100
AcDbLine
 10
217.3236129178358
 20
88.55512618379622
 30
0.0
 11
219.8235502330808
 21
88.55512618379622
 31
0.0
  0
LINE
  5
2CC
330
1F
100
AcDbEntity
  8
躯体
  6
Continuous
 62
     6
370
     5
100
AcDbLine
 10
217.3236129178358
 20
85.05518421432605
 30
0.0
 11
219.8235502330808
 21
87.55517107644975
 31
0.0
  0
LINE
  5
2CD
330
1F
100
AcDbEntity
  8
躯体
  6
Continuous
 62
     6
370
     5
100
AcDbLine
 10
217.3236129178358
 20
88.55512618379622
 30
0.0
 11
219.8235502330808
 21
88.55512618379622
 31
0.0
  0
LINE
  5
2CE
330
1F
100
AcDbEntity
  8
躯体
  6
Continuous
 62
     6
370
     5
100
AcDbLine
 10
219.8235502330808
 20
88.55512618379622
 30
0.0
 11
219.8235502330808
 21
87.55517107644975
 31
0.0
  0
LINE
  5
2CF
330
1F
100
AcDbEntity
  8
躯体
  6
Continuous
 62
     6
370
     5
100
AcDbLine
 10
217.3236129178358
 20
90.05510839169466
 30
0.0
 11
219.8235502330808
 21
92.55514480069718
 31
0.0
  0
LINE
  5
2D0
330
1F
100
AcDbEntity
  8
躯体
  6
Continuous
 62
     6
370
     5
100
AcDbLine
 10
217.3236129178358
 20
93.55519900180113
 30
0.0
 11
219.8235502330808
 21
93.55519900180113
 31
0.0
  0
LINE
  5
2D1
330
1F
100
AcDbEntity
  8
躯体
  6
Continuous
 62
     6
370
     5
100
AcDbLine
 10
219.8235502330808
 20
93.55519900180113
 30
0.0
 11
219.8235502330808
 21
92.55514480069718
 31
0.0
  0
LINE
  5
2D2
330
1F
100
AcDbEntity
  8
躯体
  6
Continuous
 62
     6
370
     5
100
AcDbLine
 10
217.3236129178358
 20
95.05513166282088
 30
0.0
 11
219.8235502330808
 21
97.55511852494459
 31
0.0
  0
LINE
  5
2D3
330
1F
100
AcDbEntity
  8
躯体
  6
Continuous
 62
     6
370
     5
100
AcDbLine
 10
217.3236129178358
 20
98.55517272604854
 30
0.0
 11
219.8235502330808
 21
98.55517272604854
 31
0.0
  0
LINE
  5
2D4
330
1F
100
AcDbEntity
  8
躯体
  6
Continuous
 62
     6
370
     5
100
AcDbLine
 10
219.8235502330808
 20
98.55517272604854
 30
0.0
 11
219.8235502330808
 21
97.55511852494459
 31
0.0
  0
LINE
  5
2D5
330
1F
100
AcDbEntity
  8
躯体
  6
Continuous
 62
     6
370
     5
100
AcDbLine
 10
217.3236129178358
 20
95.05513166282088
 30
0.0
 11
217.3236129178358
 21
93.55519900180113
 31
0.0
  0
LINE
  5
2D6
330
1F
100
AcDbEntity
  8
躯体
  6
Continuous
 62
     6
370
     5
100
AcDbLine
 10
217.3236129178358
 20
90.05510839169466
 30
0.0
 11
217.3236129178358
 21
88.55512618379622
 31
0.0
  0
LINE
  5
2D7
330
1F
100
AcDbEntity
  8
躯体
  6
Continuous
 62
     6
370
     5
100
AcDbLine
 10
217.3236129178358
 20
85.05518421432605
 30
0.0
 11
217.3236129178358
 21
83.55515245954881
 31
0.0
  0
LINE
  5
2D8
330
1F
100
AcDbEntity
  8
躯体
  6
Continuous
 62
     6
370
     5
100
AcDbLine
 10
217.3236129178358
 20
80.05516094319988
 30
0.0
 11
217.3236129178358
 21
76.05514232629893
 31
0.0
  0
LINE
  5
2D9
330
1F
100
AcDbEntity
  8
躯体
  6
Continuous
 62
     6
370
     5
100
AcDbLine
 10
217.3236129178358
 20
98.55517272604854
 30
0.0
 11
217.3236129178358
 21
100.055154933947
 31
0.0
  0
LINE
  5
2DA
330
1F
100
AcDbEntity
  8
躯体
  6
Continuous
 62
     6
370
     5
100
AcDbLine
 10
217.3236129178358
 20
100.055154933947
 30
0.0
 11
218.323617572061
 21
101.055209135051
 31
0.0
  0
LINE
  5
2DB
330
1F
100
AcDbEntity
  8
躯体
  6
Continuous
 62
     6
370
     5
100
AcDbLine
 10
355.323660638373
 20
108.0551426208701
 30
0.0
 11
359.3236792552739
 21
108.0551426208701
 31
0.0
  0
LINE
  5
2DC
330
1F
100
AcDbEntity
  8
躯体
  6
Continuous
 62
     6
370
     5
100
AcDbLine
 10
211.3235849924844
 20
108.0551426208701
 30
0.0
 11
215.3236036093853
 21
108.0551426208701
 31
0.0
  0
ARC
  5
2DD
330
1F
100
AcDbEntity
  8
通り芯
  6
Continuous
 62
     3
370
     9
100
AcDbCircle
 10
195.5387421662597
 20
174.915534068313
 30
0.0
 40
3.000000027616052
100
AcDbArc
 50
251.9999389648437
 51
348.7693023681641
  0
ARC
  5
2DE
330
1F
100
AcDbEntity
  8
通り芯
  6
JWW_DASHED1
 62
     3
370
     9
100
AcDbCircle
 10
206.7783525215927
 20
160.3188253950052
 30
0.0
 40
3.000000027616052
100
AcDbArc
 50
186.9997253417969
 51
266.0001831054688
  0
ARC
  5
2DF
330
1F
100
AcDbEntity
  8
通り芯
  6
JWW_DASHED1
 62
     3
370
     9
100
AcDbCircle
 10
196.2295247500782
 20
164.1763967354409
 30
0.0
 40
3.000000027616052
100
AcDbArc
 50
7.000427246093758
 51
72.00015258789064
  0
ARC
  5
2E0
330
1F
100
AcDbEntity
  8
通り芯
  6
Continuous
 62
     3
370
     9
100
AcDbCircle
 10
230.7394212825272
 20
145.0550175459312
 30
0.0
 40
5.000000046026752
100
AcDbArc
 50
4.085678100585942
 51
90.00000000000001
  0
ARC
  5
2E1
330
1F
100
AcDbEntity
  8
通り芯
  6
Continuous
 62
     3
370
     9
100
AcDbCircle
 10
232.4987318539106
 20
148.4958500890282
 30
0.0
 40
6.999999290267473
100
AcDbArc
 50
4.085601806640622
 51
85.99998474121094
  0
ARC
  5
2E2
330
1F
100
AcDbEntity
  8
通り芯
  6
Continuous
 62
     3
370
     9
100
AcDbCircle
 10
375.1084725346199
 20
174.915534068313
 30
0.0
 40
3.000000027616052
100
AcDbArc
 50
191.2306976318359
 51
288.0000610351562
  0
ARC
  5
2E3
330
1F
100
AcDbEntity
  8
通り芯
  6
JWW_DASHED1
 62
     3
370
     9
100
AcDbCircle
 10
363.8688621792869
 20
160.3188253950052
 30
0.0
 40
3.000000027616052
100
AcDbArc
 50
273.9998168945312
 51
353.0002746582031
  0
ARC
  5
2E4
330
1F
100
AcDbEntity
  8
通り芯
  6
Continuous
 62
     3
370
     9
100
AcDbCircle
 10
374.4176404039226
 20
164.1763967354409
 30
0.0
 40
3.000000027616052
100
AcDbArc
 50
107.9998474121093
 51
172.9995727539062
  0
ARC
  5
2E5
330
1F
100
AcDbEntity
  8
通り芯
  6
Continuous
 62
     3
370
     9
100
AcDbCircle
 10
339.9077438714736
 20
145.0550175459312
 30
0.0
 40
5.000000046026752
100
AcDbArc
 50
90.0
 51
175.9143218994141
  0
ARC
  5
2E6
330
1F
100
AcDbEntity
  8
通り芯
  6
Continuous
 62
     3
370
     9
100
AcDbCircle
 10
338.1484333000902
 20
148.4958500890282
 30
0.0
 40
6.999999290267473
100
AcDbArc
 50
94.00001525878906
 51
175.9143981933594
  0
ARC
  5
2E7
330
1F
100
AcDbEntity
  8
通り芯
  6
Continuous
 62
     3
370
     9
100
AcDbCircle
 10
215.5533029393654
 20
149.5550137165054
 30
0.0
 40
1.500000013808026
100
AcDbArc
 50
90.0
 51
168.6897888183594
  0
ARC
  5
2E8
330
1F
100
AcDbEntity
  8
通り芯
  6
Continuous
 62
     3
370
     9
100
AcDbCircle
 10
212.0939398636083
 20
147.5550539549337
 30
0.0
 40
1.500000013808026
100
AcDbArc
 50
270.0
 51
348.6897888183594
  0
ARC
  5
2E9
330
1F
100
AcDbEntity
  8
通り芯
  6
Continuous
 62
     3
370
     9
100
AcDbCircle
 10
194.0705690545319
 20
164.8779309919526
 30
0.0
 40
3.000000027616052
100
AcDbArc
 50
6.762680053710941
 51
72.00015258789062
  0
ARC
  5
2EA
330
1F
100
AcDbEntity
  8
通り芯
  6
Continuous
 62
     3
370
     9
100
AcDbCircle
 10
365.4578801283358
 20
165.0549619897996
 30
0.0
 40
2.000000018410701
100
AcDbArc
 50
270.0
 51
353.0000152587891
  0
ARC
  5
2EB
330
1F
100
AcDbEntity
  8
通り芯
  6
Continuous
 62
     3
370
     9
100
AcDbCircle
 10
353.1968113202701
 20
158.068951176915
 30
0.0
 40
1.500000013808026
100
AcDbArc
 50
274.0011749267578
 51
342.6733703613281
  0
ARC
  5
2EC
330
1F
100
AcDbEntity
  8
通り芯
  6
Continuous
 62
     3
370
     9
100
AcDbCircle
 10
357.4270247359387
 20
161.5549704734507
 30
0.0
 40
1.500000013808026
100
AcDbArc
 50
90.0
 51
162.673095703125
  0
ARC
  5
2ED
330
1F
100
AcDbEntity
  8
通り芯
  6
Continuous
 62
     3
370
     9
100
AcDbCircle
 10
205.1892850256648
 20
165.0549619897996
 30
0.0
 40
2.000000018410701
100
AcDbArc
 50
186.9999847412109
 51
270.0
  0
ARC
  5
2EE
330
1F
100
AcDbEntity
  8
通り芯
  6
Continuous
 62
     3
370
     9
100
AcDbCircle
 10
217.4503538337308
 20
158.068951176915
 30
0.0
 40
1.500000013808026
100
AcDbArc
 50
197.3266296386719
 51
265.9988250732422
  0
ARC
  5
2EF
330
1F
100
AcDbEntity
  8
通り芯
  6
Continuous
 62
     3
370
     9
100
AcDbCircle
 10
213.2202395118195
 20
161.5549704734507
 30
0.0
 40
1.500000013808026
100
AcDbArc
 50
17.326904296875
 51
90.0
  0
ARC
  5
2F0
330
1F
100
AcDbEntity
  8
通り芯
  6
Continuous
 62
     3
370
     9
100
AcDbCircle
 10
200.656191540072
 20
147.5550539549337
 30
0.0
 40
1.500000013808026
100
AcDbArc
 50
186.7625885009766
 51
270.0
  0
ARC
  5
2F1
330
1F
100
AcDbEntity
  8
通り芯
  6
Continuous
 62
     3
370
     9
100
AcDbCircle
 10
199.3237273292966
 20
130.0550468263102
 30
0.0
 40
2.000000018410701
100
AcDbArc
 50
270.0
 51
0.0
  0
ARC
  5
2F2
330
1F
100
AcDbEntity
  8
通り芯
  6
Continuous
 62
     3
370
     9
100
AcDbCircle
 10
199.3237273292966
 20
130.0550468263102
 30
0.0
 40
8.000000073642804
100
AcDbArc
 50
270.0
 51
0.0
  0
ARC
  5
2F3
330
1F
100
AcDbEntity
  8
通り芯
  6
JWW_CENTER1
 62
     3
370
     9
100
AcDbCircle
 10
199.3235786886603
 20
130.0550468263102
 30
0.0
 40
5.000000046026752
100
AcDbArc
 50
270.0
 51
0.0
  0
ARC
  5
2F4
330
1F
100
AcDbEntity
  8
通り芯
  6
Continuous
 62
     3
370
     9
100
AcDbCircle
 10
191.4441881046646
 20
157.3196041823898
 30
0.0
 40
11.00000010125886
100
AcDbArc
 50
72.00042724609375
 51
117.7434387207031
  0
ARC
  5
2F5
330
1F
100
AcDbEntity
  8
通り芯
  6
Continuous
 62
     3
370
     9
100
AcDbCircle
 10
379.203026596215
 20
157.3196041823898
 30
0.0
 40
11.00000010125886
100
AcDbArc
 50
62.25656127929688
 51
107.9995727539062
  0
ARC
  5
2F6
330
1F
100
AcDbEntity
  8
通り芯
  6
Continuous
 62
     3
370
     9
100
AcDbCircle
 10
388.4407944085829
 20
175.055008532052
 30
0.0
 40
1.00000000920535
100
AcDbArc
 50
7.124267578125002
 51
90.0
  0
ARC
  5
2F7
330
1F
100
AcDbEntity
  8
通り芯
  6
Continuous
 62
     3
370
     9
100
AcDbCircle
 10
182.2063707454178
 20
175.055008532052
 30
0.0
 40
1.00000000920535
100
AcDbArc
 50
90.0
 51
172.8756713867188
  0
ARC
  5
2F8
330
1F
100
AcDbEntity
  8
通り芯
  6
Continuous
 62
     3
370
     9
100
AcDbCircle
 10
357.3118282427973
 20
150.8383769704191
 30
0.0
 40
2.000000018410701
100
AcDbArc
 50
93.99940490722656
 51
173.785140991211
  0
ARC
  5
2F9
330
1F
100
AcDbEntity
  8
通り芯
  6
Continuous
 62
     3
370
     9
100
AcDbCircle
 10
363.8688621792869
 20
160.3188253950052
 30
0.0
 40
6.999999290267473
100
AcDbArc
 50
273.9998168945312
 51
353.0002746582031
  0
ARC
  5
2FA
330
1F
100
AcDbEntity
  8
通り芯
  6
JWW_DASHED1
 62
     3
370
     9
100
AcDbCircle
 10
206.7783525215927
 20
160.3188253950052
 30
0.0
 40
6.999999290267473
100
AcDbArc
 50
186.9997253417969
 51
266.0001831054688
  0
ARC
  5
2FB
330
1F
100
AcDbEntity
  8
通り芯
  6
JWW_DASHED1
 62
     3
370
     9
100
AcDbCircle
 10
213.3353864580822
 20
150.8383769704191
 30
0.0
 40
2.000000018410701
100
AcDbArc
 50
6.214859008789066
 51
86.00059509277344
  0
LINE
  5
2FC
330
1F
100
AcDbEntity
  8
建具
  6
Continuous
 62
     4
370
     9
100
AcDbLine
 10
235.3235660810122
 20
147.0513381746829
 30
0.0
 11
228.3235429866288
 21
147.0513381746829
 31
0.0
  0
LINE
  5
2FD
330
1F
100
AcDbEntity
  8
建具
  6
Continuous
 62
     4
370
     9
100
AcDbLine
 10
335.3235990729886
 20
147.0513381746829
 30
0.0
 11
342.323622167372
 21
147.0513381746829
 31
0.0
  0
LINE
  5
2FE
330
1F
100
AcDbEntity
  8
躯体
  6
Continuous
 62
     6
370
     5
100
AcDbLine
 10
228.3235429866288
 20
76.05514232629893
 30
0.0
 11
214.32359895516
 21
76.05514232629893
 31
0.0
  0
LINE
  5
2FF
330
1F
100
AcDbEntity
  8
躯体
  6
Continuous
 62
     6
370
     5
100
AcDbLine
 10
356.3236157457195
 20
76.05514232629893
 30
0.0
 11
342.323622167372
 21
76.05514232629893
 31
0.0
  0
LINE
  5
300
330
1F
100
AcDbEntity
  8
躯体
  6
Continuous
 62
     6
370
     5
100
AcDbLine
 10
220.8236044341847
 20
106.0551333124197
 30
0.0
 11
223.8236183968604
 21
101.055209135051
 31
0.0
  0
LINE
  5
301
330
1F
100
AcDbEntity
  8
躯体
  6
Continuous
 62
     6
370
     5
100
AcDbLine
 10
228.3235429866288
 20
101.055209135051
 30
0.0
 11
218.323617572061
 21
101.055209135051
 31
0.0
  0
LINE
  5
302
330
1F
100
AcDbEntity
  8
躯体
  6
Continuous
 62
     6
370
     5
100
AcDbLine
 10
228.3235429866288
 20
106.0551333124197
 30
0.0
 11
215.0735900591093
 21
106.0551333124197
 31
0.0
  0
LINE
  5
303
330
1F
100
AcDbEntity
  8
躯体
  6
Continuous
 62
     6
370
     5
100
AcDbLine
 10
350.8236149209201
 20
101.055209135051
 30
0.0
 11
342.323622167372
 21
101.055209135051
 31
0.0
  0
LINE
  5
304
330
1F
100
AcDbEntity
  8
躯体
  6
Continuous
 62
     6
370
     5
100
AcDbLine
 10
355.5736741886491
 20
106.0551333124197
 30
0.0
 11
342.323622167372
 21
106.0551333124197
 31
0.0
  0
LINE
  5
305
330
1F
100
AcDbEntity
  8
仕上
  6
Continuous
 62
     6
370
     5
100
AcDbLine
 10
365.323648560953
 20
170.0422759857501
 30
0.0
 11
366.3235528842217
 21
168.9957787438794
 31
0.0
  0
LINE
  5
306
330
1F
100
AcDbEntity
  8
仕上
  6
Continuous
 62
     6
370
     5
100
AcDbLine
 10
364.323595773791
 20
169.0865644148041
 30
0.0
 11
366.3235528842217
 21
168.9957787438794
 31
0.0
  0
LINE
  5
307
330
1F
100
AcDbEntity
  8
仕上
  6
Continuous
 62
     6
370
     5
100
AcDbLine
 10
364.323595773791
 20
170.0877554251504
 30
0.0
 11
365.323648560953
 21
170.0422759857501
 31
0.0
  0
LINE
  5
308
330
1F
100
AcDbEntity
  8
仕上
  6
Continuous
 62
     6
370
     5
100
AcDbLine
 10
213.6625850316035
 20
169.4203359915567
 30
0.0
 11
204.3236122697791
 21
168.9957787438794
 31
0.0
  0
LINE
  5
309
330
1F
100
AcDbEntity
  8
仕上
  6
Continuous
 62
     6
370
     5
100
AcDbLine
 10
355.0835989410207
 20
171.2372866091665
 30
0.0
 11
349.4259863723973
 21
233.4956946143396
 31
0.0
  0
LINE
  5
30A
330
1F
100
AcDbEntity
  8
仕上
  6
Continuous
 62
     6
370
     5
100
AcDbLine
 10
356.9845801223973
 20
169.4203359915567
 30
0.0
 11
358.3235759786052
 21
169.3593915632416
 31
0.0
  0
LINE
  5
30B
330
1F
100
AcDbEntity
  8
仕上
  6
Continuous
 62
     6
370
     5
100
AcDbLine
 10
356.8932253398805
 20
170.4255355270297
 30
0.0
 11
358.3235759786052
 21
170.3604588536766
 31
0.0
  0
LINE
  5
30C
330
1F
100
AcDbEntity
  8
仕上
  6
Continuous
 62
     6
370
     5
100
AcDbLine
 10
350.6080558930898
 20
166.2166831199351
 30
0.0
 11
344.3235792778027
 21
233.4956946143396
 31
0.0
  0
LINE
  5
30D
330
1F
100
AcDbEntity
  8
仕上
  6
Continuous
 62
     6
370
     5
100
AcDbLine
 10
358.0734638058855
 20
169.3707985390651
 30
0.0
 11
356.5735825770005
 21
163.4958843182037
 31
0.0
  0
LINE
  5
30E
330
1F
100
AcDbEntity
  8
仕上
  6
Continuous
 62
     6
370
     5
100
AcDbLine
 10
219.7672718717639
 20
217.4957408031065
 30
0.0
 11
224.9224331365442
 21
218.4956451263751
 31
0.0
  0
LINE
  5
30F
330
1F
100
AcDbEntity
  8
仕上
  6
Continuous
 62
     6
370
     5
100
AcDbLine
 10
356.0736056713839
 20
170.6425897394452
 30
0.0
 11
366.5735660810122
 21
170.6425897394452
 31
0.0
  0
LINE
  5
310
330
1F
100
AcDbEntity
  8
仕上
  6
Continuous
 62
     6
370
     5
100
AcDbLine
 10
360.8235099946523
 20
171.6427415025364
 30
0.0
 11
361.8236122697791
 21
171.6427415025364
 31
0.0
  0
LINE
  5
311
330
1F
100
AcDbEntity
  8
仕上
  6
Continuous
 62
     6
370
     5
100
AcDbLine
 10
361.8236122697791
 20
174.5245741408388
 30
0.0
 11
361.8236122697791
 21
171.6427415025364
 31
0.0
  0
LINE
  5
312
330
1F
100
AcDbEntity
  8
仕上
  6
Continuous
 62
     6
370
     5
100
AcDbLine
 10
360.8235099946523
 20
174.5245741408388
 30
0.0
 11
360.8235099946523
 21
171.6427415025364
 31
0.0
  0
LINE
  5
313
330
1F
100
AcDbEntity
  8
仕上
  6
Continuous
 62
     6
370
     5
100
AcDbLine
 10
358.8235528842217
 20
158.6425748930559
 30
0.0
 11
363.8235693802098
 21
158.6425748930559
 31
0.0
  0
LINE
  5
314
330
1F
100
AcDbEntity
  8
仕上
  6
Continuous
 62
     6
370
     5
100
AcDbLine
 10
358.3235759786052
 20
159.1425765426547
 30
0.0
 11
364.323595773791
 21
159.1425765426547
 31
0.0
  0
LINE
  5
315
330
1F
100
AcDbEntity
  8
仕上
  6
Continuous
 62
     6
370
     5
100
AcDbLine
 10
358.3235759786052
 20
159.1425765426547
 30
0.0
 11
358.8235528842217
 21
158.6425748930559
 31
0.0
  0
LINE
  5
316
330
1F
100
AcDbEntity
  8
仕上
  6
Continuous
 62
     6
370
     5
100
AcDbLine
 10
364.323595773791
 20
159.1425765426547
 30
0.0
 11
363.8235693802098
 21
158.6425748930559
 31
0.0
  0
LINE
  5
317
330
1F
100
AcDbEntity
  8
仕上
  6
Continuous
 62
     6
370
     5
100
AcDbLine
 10
364.323595773791
 20
170.6425897394452
 30
0.0
 11
364.323595773791
 21
159.1425765426547
 31
0.0
  0
LINE
  5
318
330
1F
100
AcDbEntity
  8
仕上
  6
Continuous
 62
     6
370
     5
100
AcDbLine
 10
363.8235693802098
 20
170.6425897394452
 30
0.0
 11
363.8235693802098
 21
158.6425748930559
 31
0.0
  0
LINE
  5
319
330
1F
100
AcDbEntity
  8
仕上
  6
Continuous
 62
     6
370
     5
100
AcDbLine
 10
358.8235528842217
 20
170.6425897394452
 30
0.0
 11
358.8235528842217
 21
158.6425748930559
 31
0.0
  0
LINE
  5
31A
330
1F
100
AcDbEntity
  8
仕上
  6
Continuous
 62
     6
370
     5
100
AcDbLine
 10
215.6714499756491
 20
221.6707434424646
 30
0.0
 11
216.6217178704971
 21
232.1275008590609
 31
0.0
  0
LINE
  5
31B
330
1F
100
AcDbEntity
  8
仕上
  6
Continuous
 62
     6
370
     5
100
AcDbLine
 10
215.1054066373889
 20
226.4916629948295
 30
0.0
 11
215.1959201245088
 21
227.4876577689004
 31
0.0
  0
LINE
  5
31C
330
1F
100
AcDbEntity
  8
仕上
  6
Continuous
 62
     6
370
     5
100
AcDbLine
 10
212.3258656217639
 20
227.7483603660288
 30
0.0
 11
215.1959201245088
 21
227.4876577689004
 31
0.0
  0
LINE
  5
31D
330
1F
100
AcDbEntity
  8
仕上
  6
Continuous
 62
     6
370
     5
100
AcDbLine
 10
212.2353026466794
 20
226.7526130317805
 30
0.0
 11
215.1054066373889
 21
226.4916629948295
 31
0.0
  0
LINE
  5
31E
330
1F
100
AcDbEntity
  8
仕上
  6
Continuous
 62
     6
370
     5
100
AcDbLine
 10
227.8710745269582
 20
223.3232950419157
 30
0.0
 11
228.3235429866288
 21
228.3028730085541
 31
0.0
  0
LINE
  5
31F
330
1F
100
AcDbEntity
  8
仕上
  6
Continuous
 62
     6
370
     5
100
AcDbLine
 10
227.3277956523805
 20
222.8706286303869
 30
0.0
 11
227.8708765751
 21
228.8459539312738
 31
0.0
  0
LINE
  5
320
330
1F
100
AcDbEntity
  8
仕上
  6
Continuous
 62
     6
370
     5
100
AcDbLine
 10
227.3277956523805
 20
222.8706286303869
 30
0.0
 11
227.8710745269582
 21
223.3232950419157
 31
0.0
  0
LINE
  5
321
330
1F
100
AcDbEntity
  8
仕上
  6
Continuous
 62
     6
370
     5
100
AcDbLine
 10
227.8708765751
 20
228.8459539312738
 30
0.0
 11
228.3235429866288
 21
228.3028730085541
 31
0.0
  0
LINE
  5
322
330
1F
100
AcDbEntity
  8
仕上
  6
Continuous
 62
     6
370
     5
100
AcDbLine
 10
216.4180748964683
 20
229.8868342891707
 30
0.0
 11
227.8708765751
 21
228.8459539312738
 31
0.0
  0
LINE
  5
323
330
1F
100
AcDbEntity
  8
仕上
  6
Continuous
 62
     6
370
     5
100
AcDbLine
 10
216.3727934089261
 20
229.3888863900997
 30
0.0
 11
228.3235429866288
 21
228.3028730085541
 31
0.0
  0
LINE
  5
324
330
1F
100
AcDbEntity
  8
仕上
  6
Continuous
 62
     6
370
     5
100
AcDbLine
 10
215.9203249492555
 20
224.4095063753194
 30
0.0
 11
227.8710745269582
 21
223.3232950419157
 31
0.0
  0
LINE
  5
325
330
1F
100
AcDbEntity
  8
仕上
  6
Continuous
 62
     6
370
     5
100
AcDbLine
 10
215.8749939737486
 20
223.9114100123548
 30
0.0
 11
227.3277956523805
 21
222.8706286303869
 31
0.0
  0
LINE
  5
326
330
1F
100
AcDbEntity
  8
仕上
  6
Continuous
 62
     6
370
     5
100
AcDbLine
 10
220.8566504348974
 20
229.4834084023464
 30
0.0
 11
221.221228269568
 21
233.4956946143396
 31
0.0
  0
LINE
  5
327
330
1F
100
AcDbEntity
  8
仕上
  6
Continuous
 62
     6
370
     5
100
AcDbLine
 10
225.9059569435544
 20
229.0246549711808
 30
0.0
 11
226.323585876198
 21
233.4956946143396
 31
0.0
  0
LINE
  5
328
330
1F
100
AcDbEntity
  8
仕上
  6
Continuous
 62
     6
370
     5
100
AcDbLine
 10
220.0391092609108
 20
166.2166831199351
 30
0.0
 11
225.3479306555477
 21
223.0504678934782
 31
0.0
  0
LINE
  5
329
330
1F
100
AcDbEntity
  8
仕上
  6
JWW_CENTER1
 62
     6
370
     5
100
AcDbLine
 10
209.2763182716794
 20
227.523487055218
 30
0.0
 11
231.7380145871355
 21
225.4823064703363
 31
0.0
  0
LINE
  5
32A
330
1F
100
AcDbEntity
  8
仕上
  6
Continuous
 62
     6
370
     5
100
AcDbLine
 10
215.0254340867131
 20
165.314863942359
 30
0.0
 11
220.3136190001422
 21
223.5082315653532
 31
0.0
  0
LINE
  5
32B
330
1F
100
AcDbEntity
  8
仕上
  6
Continuous
 62
     6
370
     5
100
AcDbLine
 10
204.3236122697791
 20
168.9957787438794
 30
0.0
 11
205.1743103799986
 21
164.3169391376715
 31
0.0
  0
LINE
  5
32C
330
1F
100
AcDbEntity
  8
仕上
  6
Continuous
 62
     6
370
     5
100
AcDbLine
 10
366.3235528842217
 20
168.9957787438794
 30
0.0
 11
365.4729042619666
 21
164.3169391376715
 31
0.0
  0
LINE
  5
32D
330
1F
100
AcDbEntity
  8
仕上
  6
Continuous
 62
     6
370
     5
100
AcDbLine
 10
221.221228269568
 20
233.4956946143396
 30
0.0
 11
228.3235429866288
 21
233.4956946143396
 31
0.0
  0
LINE
  5
32E
330
1F
100
AcDbEntity
  8
仕上
  6
Continuous
 62
     6
370
     5
100
AcDbLine
 10
342.323622167372
 20
233.4956946143396
 30
0.0
 11
349.4259863723973
 21
233.4956946143396
 31
0.0
  0
LINE
  5
32F
330
1F
100
AcDbEntity
  8
仕上
  6
Continuous
 62
     6
370
     5
100
AcDbLine
 10
217.0520652100241
 20
163.4958843182037
 30
0.0
 11
206.1581806027605
 21
163.4958843182037
 31
0.0
  0
LINE
  5
330
330
1F
100
AcDbEntity
  8
仕上
  6
Continuous
 62
     6
370
     5
100
AcDbLine
 10
353.5951494319413
 20
163.4958843182037
 30
0.0
 11
358.3235759786052
 21
163.4958843182037
 31
0.0
  0
LINE
  5
331
330
1F
100
AcDbEntity
  8
仕上
  6
Continuous
 62
     6
370
     5
100
AcDbLine
 10
364.4889845512402
 20
163.4958843182037
 30
0.0
 11
364.323595773791
 21
163.4958843182037
 31
0.0
  0
ARC
  5
332
330
1F
100
AcDbEntity
  8
仕上
  6
Continuous
 62
     6
370
     5
100
AcDbCircle
 10
213.5718241046608
 20
171.4182146074773
 30
0.0
 40
2.000000025774982
100
AcDbArc
 50
272.6016998291016
 51
354.8072052001953
  0
ARC
  5
333
330
1F
100
AcDbEntity
  8
仕上
  6
Continuous
 62
     6
370
     5
100
AcDbCircle
 10
357.0754400252689
 20
171.4182146074773
 30
0.0
 40
2.000000025774982
100
AcDbArc
 50
185.1927947998047
 51
267.3983001708984
  0
ARC
  5
334
330
1F
100
AcDbEntity
  8
仕上
  6
Continuous
 62
     6
370
     5
100
AcDbCircle
 10
356.9839367788585
 20
172.4233399110034
 30
0.0
 40
2.000000025774982
100
AcDbArc
 50
185.1927947998047
 51
267.3982543945312
  0
ARC
  5
335
330
1F
100
AcDbEntity
  8
仕上
  6
Continuous
 62
     6
370
     5
100
AcDbCircle
 10
353.5951494319413
 20
166.4959437037611
 30
0.0
 40
3.000000038662472
100
AcDbArc
 50
185.3368988037109
 51
270.0
  0
ARC
  5
336
330
1F
100
AcDbEntity
  8
仕上
  6
Continuous
 62
     6
370
     5
100
AcDbCircle
 10
217.0520652100241
 20
166.4959437037611
 30
0.0
 40
3.000000038662472
100
AcDbArc
 50
270.0
 51
354.6630249023438
  0
ELLIPSE
  5
337
330
1F
100
AcDbEntity
  8
仕上
  6
Continuous
 62
     6
370
     5
100
AcDbEllipse
 10
361.3234869002689
 20
170.6425897394452
 30
0.0
 11
5.249980204814189
 21
0.0
 31
0.0
210
0.0
220
0.0
230
1.0
 40
0.7428
 41
0.0
 42
1.475408288134874
  0
ELLIPSE
  5
338
330
1F
100
AcDbEntity
  8
仕上
  6
Continuous
 62
     6
370
     5
100
AcDbEllipse
 10
361.3234869002689
 20
170.6425897394452
 30
0.0
 11
5.249980204814189
 21
0.0
 31
0.0
210
0.0
220
0.0
230
1.0
 40
0.7428
 41
1.666184365454919
 42
3.141592653589793
  0
ELLIPSE
  5
339
330
1F
100
AcDbEntity
  8
仕上
  6
Continuous
 62
     6
370
     5
100
AcDbEllipse
 10
216.146583923073
 20
226.8991468947451
 30
0.0
 11
0.4751631492990808
 21
5.228433047528582
 31
0.0
210
0.0
220
0.0
230
1.0
 40
0.7428
 41
0.0
 42
1.475408288134874
  0
ELLIPSE
  5
33A
330
1F
100
AcDbEntity
  8
仕上
  6
Continuous
 62
     6
370
     5
100
AcDbEllipse
 10
216.146583923073
 20
226.8991468947451
 30
0.0
 11
0.4751631492990808
 21
5.228433047528582
 31
0.0
210
0.0
220
0.0
230
1.0
 40
0.7428
 41
1.666184365454919
 42
3.141592653589793
  0
ARC
  5
33B
330
1F
100
AcDbEntity
  8
仕上
  6
Continuous
 62
     6
370
     5
100
AcDbCircle
 10
213.0335930024649
 20
165.4957919406698
 30
0.0
 40
2.000000025774982
100
AcDbArc
 50
270.0
 51
354.8082733154297
  0
ARC
  5
33C
330
1F
100
AcDbEntity
  8
仕上
  6
Continuous
 62
     6
370
     5
100
AcDbCircle
 10
206.1581806027605
 20
164.4958381294367
 30
0.0
 40
1.000000012887491
100
AcDbArc
 50
190.3055572509766
 51
270.0
  0
ARC
  5
33D
330
1F
100
AcDbEntity
  8
仕上
  6
Continuous
 62
     6
370
     5
100
AcDbCircle
 10
364.4889845512402
 20
164.4958381294367
 30
0.0
 40
1.000000012887491
100
AcDbArc
 50
270.0
 51
349.6944427490234
  0
LINE
  5
33E
330
1F
100
AcDbEntity
  8
仕上
  6
Continuous
 62
     6
370
     5
100
AcDbLine
 10
358.3235759786052
 20
170.6425897394452
 30
0.0
 11
358.3235759786052
 21
159.1425765426547
 31
0.0
  0
LINE
  5
33F
330
1F
100
AcDbEntity
  8
0-A
  6
JWW_CENTER1
 62
     4
370
     9
100
AcDbLine
 10
361.3234903762094
 20
175.7135724369374
 30
0.0
 11
361.3234903762094
 21
153.7110866092957
 31
0.0
  0
LINE
  5
340
330
1F
100
AcDbEntity
  8
通り芯
  6
Continuous
 62
     3
370
     9
100
AcDbLine
 10
358.8235035140857
 20
158.6426242656352
 30
0.0
 11
358.8235035140857
 21
155.5550416418568
 31
0.0
  0
LINE
  5
341
330
1F
100
AcDbEntity
  8
通り芯
  6
Continuous
 62
     3
370
     9
100
AcDbLine
 10
358.3235259604124
 20
159.1426265633228
 30
0.0
 11
358.3235259604124
 21
156.05501919553
 31
0.0
  0
LINE
  5
342
330
1F
100
AcDbEntity
  8
通り芯
  6
Continuous
 62
     3
370
     9
100
AcDbLine
 10
363.8234276914543
 20
158.6424332113118
 30
0.0
 11
363.8234276914543
 21
155.5550416418568
 31
0.0
  0
LINE
  5
343
330
1F
100
AcDbEntity
  8
通り芯
  6
Continuous
 62
     3
370
     9
100
AcDbLine
 10
364.3234547920063
 20
159.1424355678465
 30
0.0
 11
364.3234547920063
 21
156.05501919553
 31
0.0
  0
ARC
  5
344
330
1F
100
AcDbEntity
  8
建具
  6
Continuous
 62
     4
370
     9
100
AcDbCircle
 10
256.8235627818145
 20
363.0648664114599
 30
0.0
 40
61.51775875607053
100
AcDbArc
 50
242.4009552001953
 51
297.5990447998046
  0
ARC
  5
345
330
1F
100
AcDbEntity
  8
建具
  6
Continuous
 62
     4
370
     9
100
AcDbCircle
 10
313.8236023721861
 20
254.029419832068
 30
0.0
 40
61.51775875607053
100
AcDbArc
 50
62.40095520019528
 51
117.5990447998047
  0
ARC
  5
346
330
1F
100
AcDbEntity
  8
建具
  6
Continuous
 62
     4
370
     9
100
AcDbCircle
 10
256.8235627818145
 20
254.029419832068
 30
0.0
 40
61.51775875607053
100
AcDbArc
 50
62.40095520019532
 51
117.5990447998047
  0
LINE
  5
347
330
1F
100
AcDbEntity
  8
建具
  6
Continuous
 62
     4
370
     9
100
AcDbLine
 10
228.3235429866288
 20
308.547143121764
 30
0.0
 11
228.3235429866288
 21
203.4956451263751
 31
0.0
  0
LINE
  5
348
330
1F
100
AcDbEntity
  8
建具
  6
Continuous
 62
     4
370
     9
100
AcDbLine
 10
228.3235429866288
 20
203.4956451263751
 30
0.0
 11
342.323622167372
 21
203.4956451263751
 31
0.0
  0
LINE
  5
349
330
1F
100
AcDbEntity
  8
建具
  6
Continuous
 62
     4
370
     9
100
AcDbLine
 10
342.323622167372
 20
308.547143121764
 30
0.0
 11
342.323622167372
 21
203.4956451263751
 31
0.0
  0
LINE
  5
34A
330
1F
100
AcDbEntity
  8
通り芯
  6
Continuous
 62
     3
370
     9
100
AcDbLine
 10
388.4407944085829
 20
176.0550131862772
 30
0.0
 11
354.6457973442855
 21
176.0550131862772
 31
0.0
  0
LINE
  5
34B
330
1F
100
AcDbEntity
  8
通り芯
  6
Continuous
 62
     3
370
     9
100
AcDbLine
 10
216.0014197964183
 20
176.0550131862772
 30
0.0
 11
182.2063707454178
 21
176.0550131862772
 31
0.0
  0
LINE
  5
34C
330
1F
100
AcDbEntity
  8
寸法
  6
Continuous
 62
     7
370
     9
100
AcDbLine
 10
180.253738298217
 20
236.7553242156556
 30
0.0
 11
217.6695265434277
 21
194.4115477538561
 31
0.0
  0
LINE
  5
34D
330
1F
100
AcDbEntity
  8
寸法
  6
Continuous
 62
     7
370
     9
100
AcDbLine
 10
217.6695265434277
 20
194.4115477538561
 30
0.0
 11
212.0122593105789
 21
199.3355022069494
 31
0.0
  0
LINE
  5
34E
330
1F
100
AcDbEntity
  8
寸法
  6
Continuous
 62
     7
370
     9
100
AcDbLine
 10
217.6695265434277
 20
194.4115477538561
 30
0.0
 11
213.4794392066781
 21
200.6319310306656
 31
0.0
  0
LINE
  5
34F
330
1F
100
AcDbEntity
  8
その他
  6
Continuous
 62
     7
370
     9
100
AcDbLine
 10
366.6198685489839
 20
314.3651279165937
 30
0.0
 11
407.2783332710746
 21
314.3651279165937
 31
0.0
  0
TEXT
  5
350
330
1F
100
AcDbEntity
  8
寸法
  6
Continuous
 62
     7
370
     9
100
AcDbText
 10
366.7783332710746
 20
316.3465357689971
 30
0.0
 40
6.858000000000001
  1
たてとい
 41
1.125
  7
ＭＳ ゴシック
100
AcDbText
  0
LINE
  5
351
330
1F
100
AcDbEntity
  8
寸法
  6
Continuous
 62
     7
370
     9
100
AcDbLine
 10
342.3235479354253
 20
290.068807303035
 30
0.0
 11
346.8892586529907
 21
296.0189573552193
 31
0.0
  0
LINE
  5
352
330
1F
100
AcDbEntity
  8
寸法
  6
Continuous
 62
     7
370
     9
100
AcDbLine
 10
366.6198685489839
 20
314.3651279165937
 30
0.0
 11
342.3235479354253
 21
290.068807303035
 31
0.0
  0
LINE
  5
353
330
1F
100
AcDbEntity
  8
寸法
  6
Continuous
 62
     7
370
     9
100
AcDbLine
 10
342.3235479354253
 20
290.068807303035
 30
0.0
 11
348.2736979876096
 21
294.6345180206005
 31
0.0
  0
LINE
  5
354
330
1F
100
AcDbEntity
  8
寸法
  6
Continuous
 62
     7
370
     9
100
AcDbLine
 10
-310.727086009334
 20
-141.0414211254073
 30
0.0
 11
-310.727086009334
 21
-162.0414211254073
 31
0.0
  0
LINE
  5
355
330
1F
100
AcDbEntity
  8
寸法
  6
Continuous
 62
     7
370
     9
100
AcDbLine
 10
-310.727086009334
 20
-162.0414211254073
 30
0.0
 11
-127.7270860093341
 21
-162.0414211254073
 31
0.0
  0
LINE
  5
356
330
1F
100
AcDbEntity
  8
寸法
  6
Continuous
 62
     7
370
     9
100
AcDbLine
 10
-127.7270860093341
 20
-141.0414211254073
 30
0.0
 11
-127.7270860093341
 21
-162.0414211254073
 31
0.0
  0
TEXT
  5
357
330
1F
100
AcDbEntity
  8
3-5
  6
Continuous
 62
     7
370
     9
100
AcDbText
 10
-130.4631973899885
 20
-49.17554973561761
 30
0.0
 40
6.858000000000001
  1
番線等
 41
1.111111111111111
  7
ＭＳ ゴシック
100
AcDbText
  0
TEXT
  5
358
330
1F
100
AcDbEntity
  8
F-5ﾚｲﾔ
  6
Continuous
 62
     2
370
     9
100
AcDbText
 10
290.0336933651486
 20
-402.6514720941493
 30
0.0
 40
9.144
  1
１：３
 41
1.083333333333333
  7
ＭＳ ゴシック
100
AcDbText
  0
TEXT
  5
359
330
1F
100
AcDbEntity
  8
F-5ﾚｲﾔ
  6
Continuous
 62
     7
370
     9
100
AcDbText
 10
-245.3507850420912
 20
-288.5759326115628
 30
0.0
 40
6.858000000000001
  1
廊下・踊場用
 41
1.138888888888889
  7
ＭＳ ゴシック
100
AcDbText
  0
LINE
  5
35A
330
1F
100
AcDbEntity
  8
F-5ﾚｲﾔ
  6
Continuous
 62
     7
370
     9
100
AcDbLine
 10
-250.6007850420912
 20
-232.8449326115629
 30
0.0
 11
-250.6007850420912
 21
-322.8449326115629
 31
0.0
  0
LINE
  5
35B
330
1F
100
AcDbEntity
  8
F-5ﾚｲﾔ
  6
Continuous
 62
     7
370
     9
100
AcDbLine
 10
-118.6007850420912
 20
-247.8449326115629
 30
0.0
 11
-118.6007850420912
 21
-322.8449326115629
 31
0.0
  0
LINE
  5
35C
330
1F
100
AcDbEntity
  8
F-5ﾚｲﾔ
  6
Continuous
 62
     7
370
     9
100
AcDbLine
 10
-58.60078504209123
 20
-247.8449326115629
 30
0.0
 11
-58.60078504209123
 21
-322.8449326115629
 31
0.0
  0
LINE
  5
35D
330
1F
100
AcDbEntity
  8
F-5ﾚｲﾔ
  6
Continuous
 62
     7
370
     9
100
AcDbLine
 10
61.39921495790877
 20
-247.8449326115629
 30
0.0
 11
61.39921495790877
 21
-322.8449326115629
 31
0.0
  0
LINE
  5
35E
330
1F
100
AcDbEntity
  8
F-5ﾚｲﾔ
  6
Continuous
 62
     7
370
     9
100
AcDbLine
 10
121.3992149579088
 20
-247.8449326115629
 30
0.0
 11
121.3992149579088
 21
-322.8449326115629
 31
0.0
  0
LINE
  5
35F
330
1F
100
AcDbEntity
  8
F-5ﾚｲﾔ
  6
Continuous
 62
     7
370
     9
100
AcDbLine
 10
-178.6007850420912
 20
-232.8449326115629
 30
0.0
 11
-178.6007850420912
 21
-322.8449326115629
 31
0.0
  0
LINE
  5
360
330
1F
100
AcDbEntity
  8
F-5ﾚｲﾔ
  6
Continuous
 62
     7
370
     9
100
AcDbLine
 10
1.399214957908768
 20
-232.8449326115629
 30
0.0
 11
1.399214957908768
 21
-322.8449326115629
 31
0.0
  0
TEXT
  5
361
330
1F
100
AcDbEntity
  8
F-5ﾚｲﾔ
  6
Continuous
 62
     7
370
     9
100
AcDbText
 10
-245.3507850420912
 20
-273.5759326115628
 30
0.0
 40
6.858000000000001
  1
バルコニー
 41
1.133333333333333
  7
ＭＳ ゴシック
100
AcDbText
  0
TEXT
  5
362
330
1F
100
AcDbEntity
  8
F-5ﾚｲﾔ
  6
Continuous
 62
     7
370
     9
100
AcDbText
 10
-245.3507850420912
 20
-303.5759326115628
 30
0.0
 40
6.858000000000001
  1
バルコニー
 41
1.133333333333333
  7
ＭＳ ゴシック
100
AcDbText
  0
TEXT
  5
363
330
1F
100
AcDbEntity
  8
F-5ﾚｲﾔ
  6
Continuous
 62
     7
370
     9
100
AcDbText
 10
-245.3507850420912
 20
-318.5759326115628
 30
0.0
 40
6.858000000000001
  1
中継用
 41
1.111111111111111
  7
ＭＳ ゴシック
100
AcDbText
  0
TEXT
  5
364
330
1F
100
AcDbEntity
  8
F-5ﾚｲﾔ
  6
Continuous
 62
     7
370
     9
100
AcDbText
 10
-245.3507850420912
 20
-258.5759326115628
 30
0.0
 40
6.858000000000001
  1
屋上用
 41
1.111111111111111
  7
ＭＳ ゴシック
100
AcDbText
  0
TEXT
  5
365
330
1F
100
AcDbEntity
  8
F-5ﾚｲﾔ
  6
Continuous
 62
     7
370
     9
100
AcDbText
 10
-171.1007850420912
 20
-244.1144326115629
 30
0.0
 40
8.001
  1
アスファルト防水･シート防水･屋根部塗膜防水用
 41
0.7142857142857143
  7
ＭＳ ゴシック
100
AcDbText
  0
TEXT
  5
366
330
1F
100
AcDbEntity
  8
F-5ﾚｲﾔ
  6
Continuous
 62
     7
370
     9
100
AcDbText
 10
-250.6007850420912
 20
-229.2618311831576
 30
0.0
 40
6.858000000000001
  1
設定機種
 41
1.125
  7
ＭＳ ゴシック
100
AcDbText
  0
TEXT
  5
367
330
1F
100
AcDbEntity
  8
F-5ﾚｲﾔ
  6
Continuous
 62
     7
370
     9
100
AcDbText
 10
-51.85078504209123
 20
-258.5759326115628
 30
0.0
 40
6.858000000000001
  1
ESP-1H･2H
 41
1.148148148148148
  7
ＭＳ ゴシック
100
AcDbText
  0
TEXT
  5
368
330
1F
100
AcDbEntity
  8
F-5ﾚｲﾔ
  6
Continuous
 62
     7
370
     9
100
AcDbText
 10
68.14921495790877
 20
-258.5759326115628
 30
0.0
 40
6.858000000000001
  1
EMP-1H･2H
 41
1.148148148148148
  7
ＭＳ ゴシック
100
AcDbText
  0
TEXT
  5
369
330
1F
100
AcDbEntity
  8
F-5ﾚｲﾔ
  6
Continuous
 62
     7
370
     9
100
AcDbText
 10
-51.85078504209123
 20
-273.5759326115628
 30
0.0
 40
6.858000000000001
  1
ESR-1H･2H
 41
1.148148148148148
  7
ＭＳ ゴシック
100
AcDbText
  0
TEXT
  5
36A
330
1F
100
AcDbEntity
  8
F-5ﾚｲﾔ
  6
Continuous
 62
     7
370
     9
100
AcDbText
 10
-51.85078504209123
 20
-288.5759326115628
 30
0.0
 40
6.858000000000001
  1
ESF-1H･2H
 41
1.148148148148148
  7
ＭＳ ゴシック
100
AcDbText
  0
TEXT
  5
36B
330
1F
100
AcDbEntity
  8
F-5ﾚｲﾔ
  6
Continuous
 62
     7
370
     9
100
AcDbText
 10
-51.85078504209123
 20
-318.5759326115628
 30
0.0
 40
6.858000000000001
  1
ESJ-1H･2H
 41
1.148148148148148
  7
ＭＳ ゴシック
100
AcDbText
  0
TEXT
  5
36C
330
1F
100
AcDbEntity
  8
F-5ﾚｲﾔ
  6
Continuous
 62
     7
370
     9
100
AcDbText
 10
-51.85078504209123
 20
-303.5759326115628
 30
0.0
 40
6.858000000000001
  1
ESB-1H･2H
 41
1.148148148148148
  7
ＭＳ ゴシック
100
AcDbText
  0
TEXT
  5
36D
330
1F
100
AcDbEntity
  8
F-5ﾚｲﾔ
  6
Continuous
 62
     7
370
     9
100
AcDbText
 10
8.149214957908768
 20
-273.5759326115628
 30
0.0
 40
6.858000000000001
  1
WMR-1H･2H
 41
1.148148148148148
  7
ＭＳ ゴシック
100
AcDbText
  0
TEXT
  5
36E
330
1F
100
AcDbEntity
  8
F-5ﾚｲﾔ
  6
Continuous
 62
     7
370
     9
100
AcDbText
 10
8.149214957908768
 20
-303.5759326115628
 30
0.0
 40
6.858000000000001
  1
WMB-1H･2H
 41
1.148148148148148
  7
ＭＳ ゴシック
100
AcDbText
  0
TEXT
  5
36F
330
1F
100
AcDbEntity
  8
F-5ﾚｲﾔ
  6
Continuous
 62
     7
370
     9
100
AcDbText
 10
8.149214957908768
 20
-318.5759326115628
 30
0.0
 40
6.858000000000001
  1
WMJ-1H･2H
 41
1.148148148148148
  7
ＭＳ ゴシック
100
AcDbText
  0
TEXT
  5
370
330
1F
100
AcDbEntity
  8
F-5ﾚｲﾔ
  6
Continuous
 62
     7
370
     9
100
AcDbText
 10
68.14921495790877
 20
-273.5759326115628
 30
0.0
 40
6.858000000000001
  1
EMR-1H･2H
 41
1.148148148148148
  7
ＭＳ ゴシック
100
AcDbText
  0
TEXT
  5
371
330
1F
100
AcDbEntity
  8
F-5ﾚｲﾔ
  6
Continuous
 62
     7
370
     9
100
AcDbText
 10
68.14921495790877
 20
-288.5759326115628
 30
0.0
 40
6.858000000000001
  1
EMF-1H･2H
 41
1.148148148148148
  7
ＭＳ ゴシック
100
AcDbText
  0
TEXT
  5
372
330
1F
100
AcDbEntity
  8
F-5ﾚｲﾔ
  6
Continuous
 62
     7
370
     9
100
AcDbText
 10
68.14921495790877
 20
-303.5759326115628
 30
0.0
 40
6.858000000000001
  1
EMB-1H･2H
 41
1.148148148148148
  7
ＭＳ ゴシック
100
AcDbText
  0
TEXT
  5
373
330
1F
100
AcDbEntity
  8
F-5ﾚｲﾔ
  6
Continuous
 62
     7
370
     9
100
AcDbText
 10
68.14921495790877
 20
-318.5759326115628
 30
0.0
 40
6.858000000000001
  1
EMJ-1H･2H
 41
1.148148148148148
  7
ＭＳ ゴシック
100
AcDbText
  0
TEXT
  5
374
330
1F
100
AcDbEntity
  8
F-5ﾚｲﾔ
  6
Continuous
 62
     7
370
     9
100
AcDbText
 10
-114.4757850420912
 20
-318.5759326115628
 30
0.0
 40
6.858000000000001
  1
WSJ-1H・2H
 41
1.15
  7
ＭＳ ゴシック
100
AcDbText
  0
TEXT
  5
375
330
1F
100
AcDbEntity
  8
F-5ﾚｲﾔ
  6
Continuous
 62
     7
370
     9
100
AcDbText
 10
-114.4757850420912
 20
-303.5759326115628
 30
0.0
 40
6.858000000000001
  1
WSB-1H・2H
 41
1.15
  7
ＭＳ ゴシック
100
AcDbText
  0
TEXT
  5
376
330
1F
100
AcDbEntity
  8
F-5ﾚｲﾔ
  6
Continuous
 62
     7
370
     9
100
AcDbText
 10
-111.8507850420912
 20
-258.5759326115628
 30
0.0
 40
6.858000000000001
  1
WSP-1H･2H
 41
1.148148148148148
  7
ＭＳ ゴシック
100
AcDbText
  0
LINE
  5
377
330
1F
100
AcDbEntity
  8
F-5ﾚｲﾔ
  6
Continuous
 62
     7
370
     9
100
AcDbLine
 10
-250.6007850420912
 20
-322.8449326115629
 30
0.0
 11
181.3992149579088
 21
-322.8449326115629
 31
0.0
  0
LINE
  5
378
330
1F
100
AcDbEntity
  8
F-5ﾚｲﾔ
  6
Continuous
 62
     7
370
     9
100
AcDbLine
 10
-250.6007850420912
 20
-247.8449326115629
 30
0.0
 11
181.3992149579088
 21
-247.8449326115629
 31
0.0
  0
LINE
  5
379
330
1F
100
AcDbEntity
  8
F-5ﾚｲﾔ
  6
Continuous
 62
     7
370
     9
100
AcDbLine
 10
-250.6007850420912
 20
-262.8449326115629
 30
0.0
 11
181.3992149579088
 21
-262.8449326115629
 31
0.0
  0
LINE
  5
37A
330
1F
100
AcDbEntity
  8
F-5ﾚｲﾔ
  6
Continuous
 62
     7
370
     9
100
AcDbLine
 10
-250.6007850420912
 20
-292.8449326115629
 30
0.0
 11
181.3992149579088
 21
-292.8449326115629
 31
0.0
  0
LINE
  5
37B
330
1F
100
AcDbEntity
  8
F-5ﾚｲﾔ
  6
Continuous
 62
     7
370
     9
100
AcDbLine
 10
-178.6007850420912
 20
-277.8449326115629
 30
0.0
 11
181.3992149579088
 21
-277.8449326115629
 31
0.0
  0
LINE
  5
37C
330
1F
100
AcDbEntity
  8
F-5ﾚｲﾔ
  6
Continuous
 62
     7
370
     9
100
AcDbLine
 10
-178.6007850420912
 20
-307.8449326115629
 30
0.0
 11
181.3992149579088
 21
-307.8449326115629
 31
0.0
  0
LINE
  5
37D
330
1F
100
AcDbEntity
  8
F-5ﾚｲﾔ
  6
Continuous
 62
     7
370
     9
100
AcDbLine
 10
181.3992149579088
 20
-232.8449326115629
 30
0.0
 11
181.3992149579088
 21
-322.8449326115629
 31
0.0
  0
LINE
  5
37E
330
1F
100
AcDbEntity
  8
F-5ﾚｲﾔ
  6
Continuous
 62
     7
370
     9
100
AcDbLine
 10
-250.6007850420912
 20
-232.8449326115629
 30
0.0
 11
181.3992149579088
 21
-232.8449326115629
 31
0.0
  0
TEXT
  5
37F
330
1F
100
AcDbEntity
  8
F-5ﾚｲﾔ
  6
Continuous
 62
     7
370
     9
100
AcDbText
 10
46.39921495790877
 20
-244.1144326115629
 30
0.0
 40
8.001
  1
塗膜防水・モルタル防水用
 41
0.7142857142857141
  7
ＭＳ ゴシック
100
AcDbText
  0
TEXT
  5
380
330
1F
100
AcDbEntity
  8
F-5ﾚｲﾔ
  6
Continuous
 62
     7
370
     9
100
AcDbText
 10
-171.8507850420912
 20
-258.5759326115628
 30
0.0
 40
6.858000000000001
  1
WHP-1H･2H
 41
1.148148148148148
  7
ＭＳ ゴシック
100
AcDbText
  0
TEXT
  5
381
330
1F
100
AcDbEntity
  8
F-5ﾚｲﾔ
  6
Continuous
 62
     7
370
     9
100
AcDbText
 10
-171.8507850420912
 20
-273.5759326115628
 30
0.0
 40
6.858000000000001
  1
WHR-1H･2H
 41
1.148148148148148
  7
ＭＳ ゴシック
100
AcDbText
  0
TEXT
  5
382
330
1F
100
AcDbEntity
  8
F-5ﾚｲﾔ
  6
Continuous
 62
     7
370
     9
100
AcDbText
 10
-171.8507850420912
 20
-303.5759326115628
 30
0.0
 40
6.858000000000001
  1
WHB-1H･2H
 41
1.148148148148148
  7
ＭＳ ゴシック
100
AcDbText
  0
TEXT
  5
383
330
1F
100
AcDbEntity
  8
F-5ﾚｲﾔ
  6
Continuous
 62
     7
370
     9
100
AcDbText
 10
136.0242149579088
 20
-273.5759326115628
 30
0.0
 40
6.858000000000001
  1
EMZ-1H
 41
1.138888888888889
  7
ＭＳ ゴシック
100
AcDbText
  0
LINE
  5
384
330
1F
100
AcDbEntity
  8
0-8
  6
Continuous
 62
     7
370
     9
100
AcDbLine
 10
490.32367489562
 20
176.0550131862772
 30
0.0
 11
388.3235664934119
 21
176.0550131862772
 31
0.0
  0
LINE
  5
385
330
1F
100
AcDbEntity
  8
0-F
  6
Continuous
 62
     7
370
     9
100
AcDbLine
 10
356.323516651962
 20
76.05509277942012
 30
0.0
 11
490.32367489562
 21
76.05509277942012
 31
0.0
  0
LINE
  5
386
330
1F
100
AcDbEntity
  8
0-8
  6
Continuous
 62
     7
370
     9
100
AcDbLine
 10
80.3235398052596
 20
176.0550131862772
 30
0.0
 11
182.3235986605889
 21
176.0550131862772
 31
0.0
  0
LINE
  5
387
330
1F
100
AcDbEntity
  8
0-8
  6
Continuous
 62
     7
370
     9
100
AcDbLine
 10
214.3236485020388
 20
76.05509277942012
 30
0.0
 11
80.3235398052596
 21
76.05509277942012
 31
0.0
  0
LINE
  5
388
330
1F
100
AcDbEntity
  8
0-8
  6
Continuous
 62
     7
370
     9
100
AcDbLine
 10
-14.22699369071441
 20
176.0550131862772
 30
0.0
 11
-116.2271020929225
 21
176.0550131862772
 31
0.0
  0
LINE
  5
389
330
1F
100
AcDbEntity
  8
0-8
  6
Continuous
 62
     7
370
     9
100
AcDbLine
 10
-148.2271519343724
 20
76.05509277942012
 30
0.0
 11
-14.22699369071441
 21
76.05509277942012
 31
0.0
  0
LINE
  5
38A
330
1F
100
AcDbEntity
  8
0-8
  6
Continuous
 62
     7
370
     9
100
AcDbLine
 10
-424.2271287810748
 20
176.0550131862772
 30
0.0
 11
-322.2270699257455
 21
176.0550131862772
 31
0.0
  0
LINE
  5
38B
330
1F
100
AcDbEntity
  8
0-8
  6
Continuous
 62
     7
370
     9
100
AcDbLine
 10
-290.2270200842955
 20
76.05509277942012
 30
0.0
 11
-424.2271287810748
 21
76.05509277942012
 31
0.0
  0
LINE
  5
38C
330
1F
100
AcDbEntity
  8
寸法
  6
Continuous
 62
     7
370
     9
100
AcDbLine
 10
-289.2271145238279
 20
126.7830448348192
 30
0.0
 11
-293.6662592979897
 21
120.7378820021047
 31
0.0
  0
LINE
  5
38D
330
1F
100
AcDbEntity
  8
寸法
  6
Continuous
 62
     7
370
     9
100
AcDbLine
 10
-289.2271145238279
 20
126.7830448348192
 30
0.0
 11
-295.0796023796793
 21
122.0928011420979
 31
0.0
  0
LINE
  5
38E
330
1F
100
AcDbEntity
  8
寸法
  6
Continuous
 62
     7
370
     9
100
AcDbLine
 10
-317.0669440758527
 20
97.74276535882686
 30
0.0
 11
-289.2271145238279
 21
126.7830448348192
 31
0.0
  0
LINE
  5
38F
330
1F
100
AcDbEntity
  8
3-5
  6
Continuous
 62
     7
370
     9
100
AcDbLine
 10
-317.0669440758527
 20
97.74276535882686
 30
0.0
 11
-421.4330701755196
 21
97.74276535882686
 31
0.0
  0
TEXT
  5
390
330
1F
100
AcDbEntity
  8
3-5
  6
Continuous
 62
     7
370
     9
100
AcDbText
 10
-421.4330701755196
 20
101.429499865795
 30
0.0
 40
6.858000000000001
  1
スペーサー
 41
1.133333333333333
  7
ＭＳ ゴシック
100
AcDbText
  0
TEXT
  5
391
330
1F
100
AcDbEntity
  8
3-5
  6
Continuous
 62
     7
370
     9
100
AcDbText
 10
-421.4330701755196
 20
87.72487028348323
 30
0.0
 40
6.858000000000001
  1
硬質ポリ塩化ビニル管
 41
1.15
  7
ＭＳ ゴシック
100
AcDbText
  0
TEXT
  5
392
330
1F
100
AcDbEntity
  8
3-5
  6
Continuous
 62
     7
370
     9
100
AcDbText
 10
-376.6434798384329
 20
-27.37772253296893
 30
0.0
 40
6.858000000000001
  1
ポリエチレン
 41
1.138888888888889
  7
ＭＳ ゴシック
100
AcDbText
  0
TEXT
  5
393
330
1F
100
AcDbEntity
  8
3-5
  6
Continuous
 62
     7
370
     9
100
AcDbText
 10
-376.6434798384329
 20
-14.2943374345631
 30
0.0
 40
6.858000000000001
  1
ホースくち
 41
1.133333333333333
  7
ＭＳ ゴシック
100
AcDbText
  0
TEXT
  5
394
330
1F
100
AcDbEntity
  8
3-5
  6
Continuous
 62
     7
370
     9
100
AcDbText
 10
-430.9709794206874
 20
38.95311143779698
 30
0.0
 40
6.858000000000001
  1
ジョイントスペーサー
 41
1.149999999999999
  7
ＭＳ ゴシック
100
AcDbText
  0
LINE
  5
395
330
1F
100
AcDbEntity
  8
3-5
  6
Continuous
 62
     7
370
     9
100
AcDbLine
 10
-430.9709794206874
 20
34.05517137102103
 30
0.0
 11
-322.4789862841491
 21
34.05517137102103
 31
0.0
  0
LINE
  5
396
330
1F
100
AcDbEntity
  8
3-5
  6
Continuous
 62
     7
370
     9
100
AcDbLine
 10
-322.4789862841491
 20
34.05517137102103
 30
0.0
 11
-291.6406525817414
 21
87.46874847301932
 31
0.0
  0
LINE
  5
397
330
1F
100
AcDbEntity
  8
3-5
  6
Continuous
 62
     7
370
     9
100
AcDbLine
 10
-291.6406525817414
 20
87.46874847301932
 30
0.0
 11
-296.2063625126315
 21
81.51859781719814
 31
0.0
  0
LINE
  5
398
330
1F
100
AcDbEntity
  8
3-5
  6
Continuous
 62
     7
370
     9
100
AcDbLine
 10
-291.6406525817414
 20
87.46874847301932
 30
0.0
 11
-294.5107774083778
 21
80.53965159972272
 31
0.0
  0
LINE
  5
399
330
1F
100
AcDbEntity
  8
3-5
  6
Continuous
 62
     7
370
     9
100
AcDbLine
 10
188.9090393449492
 20
98.35876450174075
 30
0.0
 11
84.54291324528239
 21
98.35876450174075
 31
0.0
  0
LINE
  5
39A
330
1F
100
AcDbEntity
  8
寸法
  6
Continuous
 62
     7
370
     9
100
AcDbLine
 10
215.3235540625065
 20
125.91226974814
 30
0.0
 11
210.8844092883447
 21
119.8671069154255
 31
0.0
  0
LINE
  5
39B
330
1F
100
AcDbEntity
  8
寸法
  6
Continuous
 62
     7
370
     9
100
AcDbLine
 10
215.3235540625065
 20
125.91226974814
 30
0.0
 11
209.4710662066551
 21
121.2220260554187
 31
0.0
  0
LINE
  5
39C
330
1F
100
AcDbEntity
  8
寸法
  6
Continuous
 62
     7
370
     9
100
AcDbLine
 10
188.9090393449492
 20
98.35876450174075
 30
0.0
 11
215.3235540625065
 21
125.91226974814
 31
0.0
  0
LINE
  5
39D
330
1F
100
AcDbEntity
  8
3-5
  6
Continuous
 62
     7
370
     9
100
AcDbLine
 10
73.47397012410747
 20
34.05517137102137
 30
0.0
 11
181.9659632606459
 21
34.05517137102137
 31
0.0
  0
LINE
  5
39E
330
1F
100
AcDbEntity
  8
3-5
  6
Continuous
 62
     7
370
     9
100
AcDbLine
 10
181.9659632606459
 20
34.05517137102137
 30
0.0
 11
212.8429924052652
 21
87.53577096541551
 31
0.0
  0
LINE
  5
39F
330
1F
100
AcDbEntity
  8
3-5
  6
Continuous
 62
     7
370
     9
100
AcDbLine
 10
212.8429924052652
 20
87.53577096541551
 30
0.0
 11
209.9728675786288
 21
80.60667409211891
 31
0.0
  0
LINE
  5
3A0
330
1F
100
AcDbEntity
  8
3-5
  6
Continuous
 62
     7
370
     9
100
AcDbLine
 10
212.8429924052652
 20
87.53577096541551
 30
0.0
 11
208.2772824743751
 21
81.58562030959433
 31
0.0
  0
LINE
  5
3A1
330
1F
100
AcDbEntity
  8
3-5
  6
Continuous
 62
     7
370
     9
100
AcDbLine
 10
-311.2728263714857
 20
176.0556812737982
 30
0.0
 11
-331.5373246688464
 21
211.2489091818655
 31
0.0
  0
LINE
  5
3A2
330
1F
100
AcDbEntity
  8
3-5
  6
Continuous
 62
     7
370
     9
100
AcDbLine
 10
-395.0301041741333
 20
211.2489091818655
 30
0.0
 11
-331.5373246688464
 21
211.2489091818655
 31
0.0
  0
TEXT
  5
3A3
330
1F
100
AcDbEntity
  8
3-5
  6
Continuous
 62
     7
370
     9
100
AcDbText
 10
-395.0301041741329
 20
214.3014430514285
 30
0.0
 40
6.858000000000001
  1
ルーフドレン
 41
1.138888888888889
  7
ＭＳ ゴシック
100
AcDbText
  0
LINE
  5
3A4
330
1F
100
AcDbEntity
  8
3-5
  6
Continuous
 62
     7
370
     9
100
AcDbLine
 10
115.9444426730309
 20
236.7553242156556
 30
0.0
 11
180.253738298217
 21
236.7553242156556
 31
0.0
  0
TEXT
  5
3A5
330
1F
100
AcDbEntity
  8
3-5
  6
Continuous
 62
     7
370
     9
100
AcDbText
 10
115.9444426730309
 20
239.8078580852188
 30
0.0
 40
6.858000000000001
  1
ルーフドレン
 41
1.138888888888889
  7
ＭＳ ゴシック
100
AcDbText
  0
LINE
  5
3A6
330
1F
100
AcDbEntity
  8
寸法
  6
Continuous
 62
     7
370
     9
100
AcDbLine
 10
234.3235876206176
 20
-141.0414211254073
 30
0.0
 11
234.3235876206176
 21
-162.0414211254073
 31
0.0
  0
TEXT
  5
3A7
330
1F
100
AcDbEntity
  8
寸法
  6
Continuous
 62
     2
370
     9
100
AcDbText
 10
238.8235876206176
 20
-155.8494211254072
 30
0.0
 40
9.144
  1
たてとい工事後
 41
1.107142857142857
  7
ＭＳ ゴシック
100
AcDbText
  0
LINE
  5
3A8
330
1F
100
AcDbEntity
  8
寸法
  6
Continuous
 62
     7
370
     9
100
AcDbLine
 10
234.3235876206176
 20
-162.0414211254073
 30
0.0
 11
336.3235876206176
 21
-162.0414211254073
 31
0.0
  0
LINE
  5
3A9
330
1F
100
AcDbEntity
  8
寸法
  6
Continuous
 62
     7
370
     9
100
AcDbLine
 10
234.3235876206176
 20
-141.0414211254073
 30
0.0
 11
336.3235876206176
 21
-141.0414211254073
 31
0.0
  0
LINE
  5
3AA
330
1F
100
AcDbEntity
  8
寸法
  6
Continuous
 62
     7
370
     9
100
AcDbLine
 10
336.3235876206176
 20
-141.0414211254073
 30
0.0
 11
336.3235876206176
 21
-162.0414211254073
 31
0.0
  0
TEXT
  5
3AB
330
1F
100
AcDbEntity
  8
3-5
  6
Continuous
 62
     2
370
     9
100
AcDbText
 10
194.5735876206176
 20
-179.2659884382514
 30
0.0
 40
9.144
  1
※たてとい工事の際はホースくちを
 41
0.9453125
  7
ＭＳ ゴシック
100
AcDbText
  0
TEXT
  5
3AC
330
1F
100
AcDbEntity
  8
3-5
  6
Continuous
 62
     2
370
     9
100
AcDbText
 10
194.5735876206169
 20
-194.2523522335086
 30
0.0
 40
9.144
  1
　取り外して下さい。
 41
0.9425000000000182
  7
ＭＳ ゴシック
100
AcDbText
  0
ARC
  5
3AD
330
1F
100
AcDbEntity
  8
建具
  6
Continuous
 62
     4
370
     9
100
AcDbCircle
 10
313.8236023721861
 20
-115.2043482615122
 30
0.0
 40
61.51775875607053
100
AcDbArc
 50
62.40095520019528
 51
117.5990447998047
  0
ARC
  5
3AE
330
1F
100
AcDbEntity
  8
建具
  6
Continuous
 62
     4
370
     9
100
AcDbCircle
 10
256.8235627818145
 20
-6.168901682120342
 30
0.0
 40
61.51775875607053
100
AcDbArc
 50
242.4009552001953
 51
297.5990447998046
  0
ARC
  5
3AF
330
1F
100
AcDbEntity
  8
建具
  6
Continuous
 62
     4
370
     9
100
AcDbCircle
 10
313.8236023721861
 20
-6.168901682120342
 30
0.0
 40
61.51775875607053
100
AcDbArc
 50
242.4009552001953
 51
297.5990447998047
  0
LINE
  5
3B0
330
1F
100
AcDbEntity
  8
建具
  6
Continuous
 62
     4
370
     9
100
AcDbLine
 10
342.323622167372
 20
147.0513381746829
 30
0.0
 11
342.323622167372
 21
-60.6866249718163
 31
0.0
  0
LINE
  5
3B1
330
1F
100
AcDbEntity
  8
建具
  6
Continuous
 62
     4
370
     9
100
AcDbLine
 10
228.3235429866288
 20
147.0513381746829
 30
0.0
 11
228.3235429866288
 21
-60.6866249718163
 31
0.0
  0
LINE
  5
3B2
330
1F
100
AcDbEntity
  8
通り芯
  6
JWW_CENTER1
 62
     3
370
     9
100
AcDbLine
 10
285.3235825770004
 20
330.8294210319216
 30
0.0
 11
285.3235825770004
 21
-74.53134647662539
 31
0.0
  0
TEXT
  5
3B3
330
1F
100
AcDbEntity
  8
F-5ﾚｲﾔ
  6
Continuous
 62
     2
370
     9
100
AcDbText
 10
-213.1501412262787
 20
-398.2079616777576
 30
0.0
 40
9.144
  1
仮設排水ホース対応型ルーフドレン　Ｈ－１００
 41
1.119318181818182
  7
ＭＳ ゴシック
100
AcDbText
  0
LINE
  5
3B4
330
1F
100
AcDbEntity
  8
0-8
  6
Continuous
 62
     7
370
     9
100
AcDbLine
 10
141.1040727124559
 20
176.0550131862772
 30
0.0
 11
80.3235398052596
 21
115.2744802790811
 31
0.0
  0
LINE
  5
3B5
330
1F
100
AcDbEntity
  8
0-8
  6
Continuous
 62
     7
370
     9
100
AcDbLine
 10
133.1040850255325
 20
176.0550131862772
 30
0.0
 11
80.3235398052596
 21
123.2744679660042
 31
0.0
  0
LINE
  5
3B6
330
1F
100
AcDbEntity
  8
0-8
  6
Continuous
 62
     7
370
     9
100
AcDbLine
 10
137.1041036424334
 20
176.0550131862772
 30
0.0
 11
80.3235398052596
 21
119.2744493491033
 31
0.0
  0
LINE
  5
3B7
330
1F
100
AcDbEntity
  8
0-8
  6
Continuous
 62
     7
370
     9
100
AcDbLine
 10
201.1487370619297
 20
144.0996652226743
 30
0.0
 11
173.0822496034796
 21
116.0331777642241
 31
0.0
  0
LINE
  5
3B8
330
1F
100
AcDbEntity
  8
0-8
  6
Continuous
 62
     7
370
     9
100
AcDbLine
 10
201.3237366377471
 20
140.2746461815908
 30
0.0
 11
177.0822682203805
 21
116.0331777642241
 31
0.0
  0
LINE
  5
3B9
330
1F
100
AcDbEntity
  8
0-8
  6
Continuous
 62
     7
370
     9
100
AcDbLine
 10
201.3237366377471
 20
136.2746771115685
 30
0.0
 11
181.0822372904027
 21
116.0331777642241
 31
0.0
  0
LINE
  5
3BA
330
1F
100
AcDbEntity
  8
0-8
  6
Continuous
 62
     7
370
     9
100
AcDbLine
 10
211.1040817263351
 20
146.0550222001565
 30
0.0
 11
207.3237645630985
 21
142.2747050369199
 31
0.0
  0
LINE
  5
3BB
330
1F
100
AcDbEntity
  8
0-8
  6
Continuous
 62
     7
370
     9
100
AcDbLine
 10
441.104072712456
 20
176.0550131862772
 30
0.0
 11
359.3236073830801
 21
94.27454785690159
 31
0.0
  0
LINE
  5
3BC
330
1F
100
AcDbEntity
  8
0-8
  6
Continuous
 62
     7
370
     9
100
AcDbLine
 10
437.1041036424335
 20
176.0550131862772
 30
0.0
 11
359.323628244883
 21
98.27453778872655
 31
0.0
  0
LINE
  5
3BD
330
1F
100
AcDbEntity
  8
0-8
  6
Continuous
 62
     7
370
     9
100
AcDbLine
 10
433.1040850255326
 20
176.0550131862772
 30
0.0
 11
359.3236491069443
 21
102.2745772676888
 31
0.0
  0
LINE
  5
3BE
330
1F
100
AcDbEntity
  8
0-8
  6
Continuous
 62
     7
370
     9
100
AcDbLine
 10
490.32367489562
 20
125.2746153694412
 30
0.0
 11
441.1041523055987
 21
76.05509277942012
 31
0.0
  0
LINE
  5
3BF
330
1F
100
AcDbEntity
  8
0-8
  6
Continuous
 62
     7
370
     9
100
AcDbLine
 10
490.32367489562
 20
133.2746030563644
 30
0.0
 11
433.1041646186758
 21
76.05509277942012
 31
0.0
  0
LINE
  5
3C0
330
1F
100
AcDbEntity
  8
0-8
  6
Continuous
 62
     7
370
     9
100
AcDbLine
 10
490.32367489562
 20
129.2745844394635
 30
0.0
 11
437.1041832355768
 21
76.05509277942012
 31
0.0
  0
LINE
  5
3C1
330
1F
100
AcDbEntity
  8
0-8
  6
Continuous
 62
     7
370
     9
100
AcDbLine
 10
-289.2271145238279
 20
149.723795020016
 30
0.0
 11
-290.8098829087045
 21
148.1410266351394
 31
0.0
  0
LINE
  5
3C2
330
1F
100
AcDbEntity
  8
0-8
  6
Continuous
 62
     7
370
     9
100
AcDbLine
 10
-303.2269319485873
 20
139.7239962121574
 30
0.0
 11
-331.0998564633201
 21
111.8510716974246
 31
0.0
  0
LINE
  5
3C3
330
1F
100
AcDbEntity
  8
0-8
  6
Continuous
 62
     7
370
     9
100
AcDbLine
 10
-289.2271145238279
 20
145.7238259499936
 30
0.0
 11
-297.2269040232359
 21
137.7240364505857
 31
0.0
  0
LINE
  5
3C4
330
1F
100
AcDbEntity
  8
0-8
  6
Continuous
 62
     7
370
     9
100
AcDbLine
 10
-292.8958873436874
 20
146.0550222001565
 30
0.0
 11
-297.2269040232359
 21
141.7240055206079
 31
0.0
  0
LINE
  5
3C5
330
1F
100
AcDbEntity
  8
0-8
  6
Continuous
 62
     7
370
     9
100
AcDbLine
 10
-296.8959059605883
 20
146.0550222001565
 30
0.0
 11
-297.052003541176
 21
145.8989246195687
 31
0.0
  0
LINE
  5
3C6
330
1F
100
AcDbEntity
  8
0-8
  6
Continuous
 62
     7
370
     9
100
AcDbLine
 10
-303.2269319485873
 20
131.7240085252342
 30
0.0
 11
-306.895853409083
 21
128.0550870647385
 31
0.0
  0
LINE
  5
3C7
330
1F
100
AcDbEntity
  8
0-8
  6
Continuous
 62
     7
370
     9
100
AcDbLine
 10
-311.2269691823892
 20
123.7239712914324
 30
0.0
 11
-323.099868776397
 21
111.8510716974246
 31
0.0
  0
LINE
  5
3C8
330
1F
100
AcDbEntity
  8
0-8
  6
Continuous
 62
     7
370
     9
100
AcDbLine
 10
-303.2269319485873
 20
135.7239775952565
 30
0.0
 11
-310.8958224791053
 21
128.0550870647385
 31
0.0
  0
LINE
  5
3C9
330
1F
100
AcDbEntity
  8
0-8
  6
Continuous
 62
     7
370
     9
100
AcDbLine
 10
-311.2269691823892
 20
127.7239403614546
 30
0.0
 11
-327.0998378464192
 21
111.8510716974246
 31
0.0
  0
LINE
  5
3CA
330
1F
100
AcDbEntity
  8
0-8
  6
Continuous
 62
     7
370
     9
100
AcDbLine
 10
-62.89589635756666
 20
176.0550131862772
 30
0.0
 11
-145.2270640754226
 21
93.723845468421
 31
0.0
  0
LINE
  5
3CB
330
1F
100
AcDbEntity
  8
0-8
  6
Continuous
 62
     7
370
     9
100
AcDbLine
 10
-66.89591497446752
 20
176.0550131862772
 30
0.0
 11
-145.2270432133613
 21
97.72388494738328
 31
0.0
  0
LINE
  5
3CC
330
1F
100
AcDbEntity
  8
0-8
  6
Continuous
 62
     7
370
     9
100
AcDbLine
 10
-58.89592728754418
 20
176.0550131862772
 30
0.0
 11
-145.2270849372255
 21
89.72385553659603
 31
0.0
  0
LINE
  5
3CD
330
1F
100
AcDbEntity
  8
0-8
  6
Continuous
 62
     7
370
     9
100
AcDbLine
 10
-14.22699369071441
 20
120.7239467831071
 30
0.0
 11
-58.89584769440144
 21
76.05509277942012
 31
0.0
  0
LINE
  5
3CE
330
1F
100
AcDbEntity
  8
0-8
  6
Continuous
 62
     7
370
     9
100
AcDbLine
 10
-14.22699369071441
 20
128.7239344700303
 30
0.0
 11
-66.89583538132443
 21
76.05509277942012
 31
0.0
  0
LINE
  5
3CF
330
1F
100
AcDbEntity
  8
0-8
  6
Continuous
 62
     7
370
     9
100
AcDbLine
 10
-14.22699369071441
 20
124.7239158531293
 30
0.0
 11
-62.89581676442342
 21
76.05509277942012
 31
0.0
  0
LINE
  5
3D0
330
1F
100
AcDbEntity
  8
その他
  6
Continuous
 62
     7
370
     9
100
AcDbLine
 10
-40.72768992249758
 20
76.05509277942005
 30
0.0
 11
-40.72768992249758
 21
176.0550131862773
 31
0.0
  0
LINE
  5
3D1
330
1F
100
AcDbEntity
  8
その他
  6
Continuous
 62
     7
370
     9
100
AcDbLine
 10
-40.72768992249758
 20
76.05509277942005
 30
0.0
 11
-41.90242565247803
 21
84.97809653178436
 31
0.0
  0
LINE
  5
3D2
330
1F
100
AcDbEntity
  8
その他
  6
Continuous
 62
     7
370
     9
100
AcDbLine
 10
-40.72768992249758
 20
76.05509277942005
 30
0.0
 11
-39.55295419251712
 21
84.97809653178436
 31
0.0
  0
LINE
  5
3D3
330
1F
100
AcDbEntity
  8
その他
  6
Continuous
 62
     7
370
     9
100
AcDbLine
 10
-40.72768992249758
 20
176.0550131862773
 30
0.0
 11
-41.90242565247803
 21
167.1320094339129
 31
0.0
  0
LINE
  5
3D4
330
1F
100
AcDbEntity
  8
その他
  6
Continuous
 62
     7
370
     9
100
AcDbLine
 10
-40.72768992249758
 20
176.0550131862773
 30
0.0
 11
-39.55295419251712
 21
167.1320094339129
 31
0.0
  0
TEXT
  5
3D5
330
1F
100
AcDbEntity
  8
その他
  6
Continuous
 62
     2
370
   211
100
AcDbText
 10
-43.91968992249758
 20
120.0550529828487
 30
0.0
 40
9.144
  1
Ｃ
 50
90.0
  7
ＭＳ ゴシック
100
AcDbText
  0
LINE
  5
3D6
330
1F
100
AcDbEntity
  8
0-8
  6
Continuous
 62
     7
370
     9
100
AcDbLine
 10
-366.8959149744676
 20
176.0550131862772
 30
0.0
 11
-424.2271287810748
 21
118.7237993796699
 31
0.0
  0
LINE
  5
3D7
330
1F
100
AcDbEntity
  8
0-8
  6
Continuous
 62
     7
370
     9
100
AcDbLine
 10
-358.8959272875443
 20
176.0550131862772
 30
0.0
 11
-424.2271287810748
 21
110.7238116927468
 31
0.0
  0
LINE
  5
3D8
330
1F
100
AcDbEntity
  8
0-8
  6
Continuous
 62
     7
370
     9
100
AcDbLine
 10
-362.8958963575668
 20
176.0550131862772
 30
0.0
 11
-424.2271287810748
 21
114.723780762769
 31
0.0
  0
LINE
  5
3D9
330
1F
100
AcDbEntity
  8
寸法
  6
Continuous
 62
     7
370
     9
100
AcDbLine
 10
241.5627107959227
 20
0.7684946599610996
 30
0.0
 11
259.1037538707057
 21
-3.931613666326541
 31
0.0
  0
LINE
  5
3DA
330
1F
100
AcDbEntity
  8
寸法
  6
Continuous
 62
     7
370
     9
100
AcDbLine
 10
259.1037538707057
 20
-3.931613666326541
 30
0.0
 11
290.8043994799929
 21
4.562548724227167
 31
0.0
  0
LINE
  5
3DB
330
1F
100
AcDbEntity
  8
寸法
  6
Continuous
 62
     7
370
     9
100
AcDbLine
 10
290.8043994799929
 20
4.562548724227167
 30
0.0
 11
302.6763064088183
 21
-2.291699936924374
 31
0.0
  0
LINE
  5
3DC
330
1F
100
AcDbEntity
  8
寸法
  6
Continuous
 62
     7
370
     9
100
AcDbLine
 10
228.3235429866288
 20
-2.778929662999325
 30
0.0
 11
241.5627107959227
 21
0.7684946599610996
 31
0.0
  0
LINE
  5
3DD
330
1F
100
AcDbEntity
  8
寸法
  6
Continuous
 62
     7
370
     9
100
AcDbLine
 10
302.6763064088183
 20
-2.291699936924374
 30
0.0
 11
327.0906209454807
 21
4.250095926933749
 31
0.0
  0
LINE
  5
3DE
330
1F
100
AcDbEntity
  8
寸法
  6
Continuous
 62
     7
370
     9
100
AcDbLine
 10
327.0906209454807
 20
4.250095926933749
 30
0.0
 11
342.323622167372
 21
-4.544681429091121
 31
0.0
  0
TEXT
  5
3DF
330
1F
100
AcDbEntity
  8
寸法
  6
Continuous
 62
     7
370
     9
100
AcDbText
 10
366.7784125171814
 20
33.80152216479281
 30
0.0
 40
6.858000000000001
  1
たてとい
 41
1.125
  7
ＭＳ ゴシック
100
AcDbText
  0
LINE
  5
3E0
330
1F
100
AcDbEntity
  8
その他
  6
Continuous
 62
     7
370
     9
100
AcDbLine
 10
366.6199477950906
 20
31.82011431238939
 30
0.0
 11
407.2784125171814
 21
31.82011431238939
 31
0.0
  0
LINE
  5
3E1
330
1F
100
AcDbEntity
  8
寸法
  6
Continuous
 62
     7
370
     9
100
AcDbLine
 10
366.6199477950906
 20
31.82011431238939
 30
0.0
 11
342.3236271815321
 21
7.523793698830666
 31
0.0
  0
LINE
  5
3E2
330
1F
100
AcDbEntity
  8
寸法
  6
Continuous
 62
     7
370
     9
100
AcDbLine
 10
342.3236271815321
 20
7.523793698830666
 30
0.0
 11
346.8893378990974
 21
13.47394375101498
 31
0.0
  0
LINE
  5
3E3
330
1F
100
AcDbEntity
  8
寸法
  6
Continuous
 62
     7
370
     9
100
AcDbLine
 10
342.3236271815321
 20
7.523793698830666
 30
0.0
 11
348.2737772337164
 21
12.08950441639609
 31
0.0
  0
LINE
  5
3E4
330
1F
100
AcDbEntity
  8
寸法
  6
Continuous
 62
     7
370
     9
100
AcDbLine
 10
241.5627107959227
 20
265.1139602914164
 30
0.0
 11
259.1037538707057
 21
260.4138519651288
 31
0.0
  0
LINE
  5
3E5
330
1F
100
AcDbEntity
  8
寸法
  6
Continuous
 62
     7
370
     9
100
AcDbLine
 10
259.1037538707057
 20
260.4138519651288
 30
0.0
 11
290.8043994799929
 21
268.9080143556825
 31
0.0
  0
LINE
  5
3E6
330
1F
100
AcDbEntity
  8
寸法
  6
Continuous
 62
     7
370
     9
100
AcDbLine
 10
290.8043994799929
 20
268.9080143556825
 30
0.0
 11
302.6763064088183
 21
262.053765694531
 31
0.0
  0
LINE
  5
3E7
330
1F
100
AcDbEntity
  8
寸法
  6
Continuous
 62
     7
370
     9
100
AcDbLine
 10
228.3235429866288
 20
261.566535968456
 30
0.0
 11
241.5627107959227
 21
265.1139602914164
 31
0.0
  0
LINE
  5
3E8
330
1F
100
AcDbEntity
  8
寸法
  6
Continuous
 62
     7
370
     9
100
AcDbLine
 10
302.6763064088183
 20
262.053765694531
 30
0.0
 11
327.0906209454807
 21
268.5955615583891
 31
0.0
  0
LINE
  5
3E9
330
1F
100
AcDbEntity
  8
寸法
  6
Continuous
 62
     7
370
     9
100
AcDbLine
 10
327.0906209454807
 20
268.5955615583891
 30
0.0
 11
342.323622167372
 21
259.8007842023642
 31
0.0
  0
LINE
  5
3EA
330
1F
100
AcDbEntity
  8
建具
  6
Continuous
 62
     4
370
     9
100
AcDbLine
 10
235.3235660810122
 20
263.4421865035953
 30
0.0
 11
235.3235660810122
 21
203.4956451263751
 31
0.0
  0
LINE
  5
3EB
330
1F
100
AcDbEntity
  8
建具
  6
Continuous
 62
     4
370
     9
100
AcDbLine
 10
335.3235990729886
 20
263.8422494202401
 30
0.0
 11
335.3235990729886
 21
203.4956451263751
 31
0.0
  0
TEXT
  5
3EC
330
1F
100
AcDbEntity
  8
3-5
  6
Continuous
 62
     7
370
     9
100
AcDbText
 10
-430.9709794206874
 20
23.60018478504352
 30
0.0
 40
6.858000000000001
  1
ポリエチレン
 41
1.138888888888889
  7
ＭＳ ゴシック
100
AcDbText
  0
TEXT
  5
3ED
330
1F
100
AcDbEntity
  8
3-5
  6
Continuous
 62
     7
370
     9
100
AcDbText
 10
73.47397012410747
 20
23.60018478504386
 30
0.0
 40
6.858000000000001
  1
ポリエチレン
 41
1.138888888888889
  7
ＭＳ ゴシック
100
AcDbText
  0
TEXT
  5
3EE
330
1F
100
AcDbEntity
  8
3-5
  6
Continuous
 62
     7
370
     9
100
AcDbText
 10
73.47397012410747
 20
38.95311143779733
 30
0.0
 40
6.858000000000001
  1
ジョイントスペーサー
 41
1.15
  7
ＭＳ ゴシック
100
AcDbText
  0
TEXT
  5
3EF
330
1F
100
AcDbEntity
  8
3-5
  6
Continuous
 62
     7
370
     9
100
AcDbText
 10
84.54291324528239
 20
102.0454990087088
 30
0.0
 40
6.858000000000001
  1
スペーサー
 41
1.133333333333333
  7
ＭＳ ゴシック
100
AcDbText
  0
TEXT
  5
3F0
330
1F
100
AcDbEntity
  8
3-5
  6
Continuous
 62
     7
370
     9
100
AcDbText
 10
84.54291324528239
 20
88.34086942639703
 30
0.0
 40
6.858000000000001
  1
硬質ポリ塩化ビニル管
 41
1.149999999999999
  7
ＭＳ ゴシック
100
AcDbText
  0
TEXT
  5
3F1
330
1F
100
AcDbEntity
  8
F-5ﾚｲﾔ
  6
Continuous
 62
     7
370
     9
100
AcDbText
 10
8.149214957908768
 20
-258.5759326115628
 30
0.0
 40
6.858000000000001
  1
WMP-1H･2H
 41
1.148148148148148
  7
ＭＳ ゴシック
100
AcDbText
  0
TEXT
  5
3F2
330
1F
100
AcDbEntity
  8
F-5ﾚｲﾔ
  6
Continuous
 62
     7
370
     9
100
AcDbText
 10
8.149214957908768
 20
-288.5759326115628
 30
0.0
 40
6.858000000000001
  1
WMF-1H･2H
 41
1.148148148148148
  7
ＭＳ ゴシック
100
AcDbText
  0
LINE
  5
3F3
330
1F
100
AcDbEntity
  8
建具
  6
Continuous
 62
     4
370
     9
100
AcDbLine
 10
235.3235660810122
 20
147.0513381746829
 30
0.0
 11
235.3235660810122
 21
-0.9032791278600953
 31
0.0
  0
LINE
  5
3F4
330
1F
100
AcDbEntity
  8
建具
  6
Continuous
 62
     4
370
     9
100
AcDbLine
 10
335.3235990729886
 20
147.0513381746829
 30
0.0
 11
335.3235990729886
 21
-0.5032162112152747
 31
0.0
  0
ENDSEC
  0
SECTION
  2
OBJECTS
  0
DICTIONARY
  5
C
330
0
100
AcDbDictionary
281
     1
  3
ACAD_GROUP
350
D
  3
ACAD_LAYOUT
350
1A
  3
ACAD_MLEADERSTYLE
350
3F6
  3
ACAD_MLINESTYLE
350
17
  3
ACAD_PLOTSETTINGS
350
19
  3
ACAD_PLOTSTYLENAME
350
E
  3
ACAD_TABLESTYLE
350
3F5
  3
ACAD_VISUALSTYLE
350
2A
  0
DICTIONARY
  5
D
102
{ACAD_REACTORS
330
C
102
}
330
C
100
AcDbDictionary
281
     1
  0
DICTIONARY
  5
1A
102
{ACAD_REACTORS
330
C
102
}
330
C
100
AcDbDictionary
281
     1
  3
Layout1
350
1E
  3
Layout2
350
26
  3
Model
350
22
  0
DICTIONARY
  5
3F6
102
{ACAD_REACTORS
330
C
102
}
330
C
100
AcDbDictionary
281
     1
  0
DICTIONARY
  5
17
102
{ACAD_REACTORS
330
C
102
}
330
C
100
AcDbDictionary
281
     1
  3
Standard
350
18
  0
DICTIONARY
  5
19
102
{ACAD_REACTORS
330
C
102
}
330
C
100
AcDbDictionary
281
     1
  0
ACDBDICTIONARYWDFLT
  5
E
102
{ACAD_REACTORS
330
C
102
}
330
C
100
AcDbDictionary
281
     1
  3
Normal
350
F
100
AcDbDictionaryWithDefault
340
F
  0
DICTIONARY
  5
3F5
102
{ACAD_REACTORS
330
C
102
}
330
C
100
AcDbDictionary
281
     1
  0
DICTIONARY
  5
2A
102
{ACAD_REACTORS
330
C
102
}
330
C
100
AcDbDictionary
281
     1
  3
2dWireframe
350
2F
  3
3D Hidden
350
31
  3
3dWireframe
350
30
  3
Basic
350
32
  3
Brighten
350
36
  3
ColorChange
350
3A
  3
Conceptual
350
34
  3
Dim
350
35
  3
Facepattern
350
39
  3
Flat
350
2B
  3
FlatWithEdges
350
2C
  3
Gouraud
350
2D
  3
GouraudWithEdges
350
2E
  3
Linepattern
350
38
  3
Realistic
350
33
  3
Thicken
350
37
  0
LAYOUT
  5
1E
102
{ACAD_REACTORS
330
1A
102
}
330
1A
100
AcDbPlotSettings
  1

  2
none_device
  4

  6

 40
0.0
 41
0.0
 42
0.0
 43
0.0
 44
0.0
 45
0.0
 46
0.0
 47
0.0
 48
0.0
 49
0.0
140
0.0
141
0.0
142
1.0
143
1.0
 70
   688
 72
     0
 73
     0
 74
     5
  7

 75
    16
 76
     0
 77
     5
 78
   300
147
1.0
148
0.0
149
0.0
100
AcDbLayout
  1
Layout1
 70
     1
 71
     1
 10
0.0
 20
0.0
 11
420.0
 21
297.0
 12
0.0
 22
0.0
 32
0.0
 14
1.000000000000000E+20
 24
1.000000000000000E+20
 34
1.000000000000000E+20
 15
-1.000000000000000E+20
 25
-1.000000000000000E+20
 35
-1.000000000000000E+20
146
0.0
 13
0.0
 23
0.0
 33
0.0
 16
1.0
 26
0.0
 36
0.0
 17
0.0
 27
1.0
 37
0.0
 76
     0
330
1B
  0
LAYOUT
  5
26
102
{ACAD_REACTORS
330
1A
102
}
330
1A
100
AcDbPlotSettings
  1

  2
none_device
  4

  6

 40
0.0
 41
0.0
 42
0.0
 43
0.0
 44
0.0
 45
0.0
 46
0.0
 47
0.0
 48
0.0
 49
0.0
140
0.0
141
0.0
142
1.0
143
1.0
 70
   688
 72
     0
 73
     0
 74
     5
  7

 75
    16
 76
     0
 77
     5
 78
   300
147
1.0
148
0.0
149
0.0
100
AcDbLayout
  1
Layout2
 70
     1
 71
     2
 10
0.0
 20
0.0
 11
0.0
 21
0.0
 12
0.0
 22
0.0
 32
0.0
 14
0.0
 24
0.0
 34
0.0
 15
0.0
 25
0.0
 35
0.0
146
0.0
 13
0.0
 23
0.0
 33
0.0
 16
1.0
 26
0.0
 36
0.0
 17
0.0
 27
1.0
 37
0.0
 76
     0
330
23
  0
LAYOUT
  5
22
102
{ACAD_REACTORS
330
1A
102
}
330
1A
100
AcDbPlotSettings
  1

  2
none_device
  4

  6

 40
0.0
 41
0.0
 42
0.0
 43
0.0
 44
0.0
 45
0.0
 46
0.0
 47
0.0
 48
0.0
 49
0.0
140
0.0
141
0.0
142
1.0
143
1.0
 70
  1712
 72
     0
 73
     0
 74
     0
  7

 75
     0
 76
     0
 77
     5
 78
   300
147
1.0
148
0.0
149
0.0
100
AcDbLayout
  1
Model
 70
     1
 71
     0
 10
-630.0
 20
-445.5
 11
630.0
 21
445.5
 12
0.0
 22
0.0
 32
0.0
 14
-630.0
 24
-445.5
 34
0.0
 15
630.0
 25
445.5
 35
0.0
146
0.0
 13
0.0
 23
0.0
 33
0.0
 16
1.0
 26
0.0
 36
0.0
 17
0.0
 27
1.0
 37
0.0
 76
     0
330
1F
331
29
  0
MLINESTYLE
  5
18
102
{ACAD_REACTORS
330
17
102
}
330
17
100
AcDbMlineStyle
  2
Standard
 70
     0
  3

 62
   256
 51
90.0
 52
90.0
 71
     2
 49
0.5
 62
   256
  6
BYLAYER
 49
-0.5
 62
   256
  6
BYLAYER
  0
ACDBPLACEHOLDER
  5
F
102
{ACAD_REACTORS
330
E
102
}
330
E
  0
VISUALSTYLE
  5
2F
102
{ACAD_REACTORS
330
2A
102
}
330
2A
100
AcDbVisualStyle
  2
2dWireframe
 70
     4
 71
     0
 72
     2
 73
     0
 90
        0
 40
-0.6
 41
-30.0
 62
     5
 63
     7
421
 16777215
 74
     1
 91
        4
 64
     7
 65
   257
 75
     1
175
     1
 42
1.0
 92
        0
 66
   257
 43
1.0
 76
     1
 77
     6
 78
     2
 67
     7
 79
     5
170
     0
171
     0
290
     0
174
     0
 93
        1
 44
0.0
173
     0
291
     0
 45
0.0
1001
ACAD
1000
AcDbSavedByObjectVersion
1070
     0
  0
VISUALSTYLE
  5
31
102
{ACAD_REACTORS
330
2A
102
}
330
2A
100
AcDbVisualStyle
  2
3D Hidden
 70
     6
 71
     1
 72
     2
 73
     2
 90
        0
 40
-0.6
 41
-30.0
 62
     5
 63
     7
421
 16777215
 74
     2
 91
        2
 64
     7
 65
   257
 75
     2
175
     1
 42
40.0
 92
        0
 66
   257
 43
1.0
 76
     1
 77
     6
 78
     2
 67
     7
 79
     3
170
     0
171
     0
290
     0
174
     0
 93
        1
 44
0.0
173
     0
291
     0
 45
0.0
1001
ACAD
1000
AcDbSavedByObjectVersion
1070
     0
  0
VISUALSTYLE
  5
30
102
{ACAD_REACTORS
330
2A
102
}
330
2A
100
AcDbVisualStyle
  2
3dWireframe
 70
     5
 71
     0
 72
     2
 73
     0
 90
        0
 40
-0.6
 41
-30.0
 62
     5
 63
     7
421
 16777215
 74
     1
 91
        4
 64
     7
 65
   257
 75
     1
175
     1
 42
1.0
 92
        0
 66
   257
 43
1.0
 76
     1
 77
     6
 78
     2
 67
     7
 79
     5
170
     0
171
     0
290
     0
174
     0
 93
        1
 44
0.0
173
     0
291
     0
 45
0.0
1001
ACAD
1000
AcDbSavedByObjectVersion
1070
     0
  0
VISUALSTYLE
  5
32
102
{ACAD_REACTORS
330
2A
102
}
330
2A
100
AcDbVisualStyle
  2
Basic
 70
     7
 71
     1
 72
     0
 73
     1
 90
        0
 40
-0.6
 41
-30.0
 62
     5
 63
     7
421
 16777215
 74
     0
 91
        4
 64
     7
 65
   257
 75
     1
175
     1
 42
1.0
 92
        8
 66
     7
 43
1.0
 76
     1
 77
     6
 78
     2
 67
     7
 79
     5
170
     0
171
     0
290
     0
174
     0
 93
        1
 44
0.0
173
     0
291
     1
 45
0.0
1001
ACAD
1000
AcDbSavedByObjectVersion
1070
     0
  0
VISUALSTYLE
  5
36
102
{ACAD_REACTORS
330
2A
102
}
330
2A
100
AcDbVisualStyle
  2
Brighten
 70
    12
 71
     2
 72
     2
 73
     0
 90
        0
 40
-0.6
 41
-30.0
 62
     5
 63
     7
421
 16777215
 74
     1
 91
        4
 64
     7
 65
   257
 75
     1
175
     1
 42
1.0
 92
        8
 66
     7
 43
1.0
 76
     1
 77
     6
 78
     2
 67
     7
 79
     5
170
     0
171
     0
290
     0
174
     0
 93
        1
 44
50.0
173
     0
291
     1
 45
0.0
1001
ACAD
1000
AcDbSavedByObjectVersion
1070
     0
  0
VISUALSTYLE
  5
3A
102
{ACAD_REACTORS
330
2A
102
}
330
2A
100
AcDbVisualStyle
  2
ColorChange
 70
    16
 71
     2
 72
     2
 73
     3
 90
        0
 40
-0.6
 41
-30.0
 62
     5
 63
     8
421
  8421504
 74
     1
 91
        4
 64
     7
 65
   257
 75
     1
175
     1
 42
1.0
 92
        8
 66
     8
424
  8421504
 43
1.0
 76
     1
 77
     6
 78
     2
 67
     7
 79
     5
170
     0
171
     0
290
     0
174
     0
 93
        1
 44
0.0
173
     0
291
     1
 45
0.0
1001
ACAD
1000
AcDbSavedByObjectVersion
1070
     0
  0
VISUALSTYLE
  5
34
102
{ACAD_REACTORS
330
2A
102
}
330
2A
100
AcDbVisualStyle
  2
Conceptual
 70
     9
 71
     3
 72
     2
 73
     0
 90
        0
 40
-0.6
 41
-30.0
 62
     5
 63
     7
421
 16777215
 74
     2
 91
        2
 64
     7
 65
   257
 75
     1
175
     1
 42
40.0
 92
        8
 66
     7
 43
1.0
 76
     1
 77
     6
 78
     2
 67
     7
 79
     3
170
     0
171
     0
290
     0
174
     0
 93
        1
 44
0.0
173
     0
291
     0
 45
0.0
1001
ACAD
1000
AcDbSavedByObjectVersion
1070
     0
  0
VISUALSTYLE
  5
35
102
{ACAD_REACTORS
330
2A
102
}
330
2A
100
AcDbVisualStyle
  2
Dim
 70
    11
 71
     2
 72
     2
 73
     0
 90
        0
 40
-0.6
 41
-30.0
 62
     5
 63
     7
421
 16777215
 74
     1
 91
        4
 64
     7
 65
   257
 75
     1
175
     1
 42
1.0
 92
        8
 66
     7
 43
1.0
 76
     1
 77
     6
 78
     2
 67
     7
 79
     5
170
     0
171
     0
290
     0
174
     0
 93
        1
 44
-50.0
173
     0
291
     1
 45
0.0
1001
ACAD
1000
AcDbSavedByObjectVersion
1070
     0
  0
VISUALSTYLE
  5
39
102
{ACAD_REACTORS
330
2A
102
}
330
2A
100
AcDbVisualStyle
  2
Facepattern
 70
    15
 71
     2
 72
     2
 73
     0
 90
        0
 40
-0.6
 41
-30.0
 62
     5
 63
     7
421
 16777215
 74
     1
 91
        4
 64
     7
 65
   257
 75
     1
175
     1
 42
1.0
 92
        8
 66
     7
 43
1.0
 76
     1
 77
     6
 78
     2
 67
     7
 79
     5
170
     0
171
     0
290
     0
174
     0
 93
        1
 44
0.0
173
     0
291
     1
 45
0.0
1001
ACAD
1000
AcDbSavedByObjectVersion
1070
     0
  0
VISUALSTYLE
  5
2B
102
{ACAD_REACTORS
330
2A
102
}
330
2A
100
AcDbVisualStyle
  2
Flat
 70
     0
 71
     2
 72
     1
 73
     1
 90
        2
 40
-0.6
 41
30.0
 62
     5
 63
     7
421
 16777215
 74
     0
 91
        4
 64
     7
 65
   257
 75
     1
175
     1
 42
1.0
 92
        8
 66
     7
 43
1.0
 76
     1
 77
     6
 78
     2
 67
     7
 79
     5
170
     0
171
     0
290
     0
174
     0
 93
       13
 44
0.0
173
     0
291
     1
 45
0.0
1001
ACAD
1000
AcDbSavedByObjectVersion
1070
     0
  0
VISUALSTYLE
  5
2C
102
{ACAD_REACTORS
330
2A
102
}
330
2A
100
AcDbVisualStyle
  2
FlatWithEdges
 70
     1
 71
     2
 72
     1
 73
     1
 90
        2
 40
-0.6
 41
30.0
 62
     5
 63
     7
421
 16777215
 74
     1
 91
        4
 64
     7
 65
   257
 75
     1
175
     1
 42
1.0
 92
        0
 66
   257
 43
1.0
 76
     1
 77
     6
 78
     2
 67
     7
 79
     5
170
     0
171
     0
290
     0
174
     0
 93
       13
 44
0.0
173
     0
291
     1
 45
0.0
1001
ACAD
1000
AcDbSavedByObjectVersion
1070
     0
  0
VISUALSTYLE
  5
2D
102
{ACAD_REACTORS
330
2A
102
}
330
2A
100
AcDbVisualStyle
  2
Gouraud
 70
     2
 71
     2
 72
     2
 73
     1
 90
        2
 40
-0.6
 41
30.0
 62
     5
 63
     7
421
 16777215
 74
     0
 91
        4
 64
     7
 65
   257
 75
     1
175
     1
 42
1.0
 92
        0
 66
     7
 43
1.0
 76
     1
 77
     6
 78
     2
 67
     7
 79
     5
170
     0
171
     0
290
     0
174
     0
 93
       13
 44
0.0
173
     0
291
     1
 45
0.0
1001
ACAD
1000
AcDbSavedByObjectVersion
1070
     0
  0
VISUALSTYLE
  5
2E
102
{ACAD_REACTORS
330
2A
102
}
330
2A
100
AcDbVisualStyle
  2
GouraudWithEdges
 70
     3
 71
     2
 72
     2
 73
     1
 90
        2
 40
-0.6
 41
30.0
 62
     5
 63
     7
421
 16777215
 74
     1
 91
        4
 64
     7
 65
   257
 75
     1
175
     1
 42
1.0
 92
        0
 66
   257
 43
1.0
 76
     1
 77
     6
 78
     2
 67
     7
 79
     5
170
     0
171
     0
290
     0
174
     0
 93
       13
 44
0.0
173
     0
291
     1
 45
0.0
1001
ACAD
1000
AcDbSavedByObjectVersion
1070
     0
  0
VISUALSTYLE
  5
38
102
{ACAD_REACTORS
330
2A
102
}
330
2A
100
AcDbVisualStyle
  2
Linepattern
 70
    14
 71
     2
 72
     2
 73
     0
 90
        0
 40
-0.6
 41
-30.0
 62
     5
 63
     7
421
 16777215
 74
     1
 91
        4
 64
     7
 65
   257
 75
     7
175
     7
 42
1.0
 92
        8
 66
     7
 43
1.0
 76
     1
 77
     6
 78
     2
 67
     7
 79
     5
170
     0
171
     0
290
     0
174
     0
 93
        1
 44
0.0
173
     0
291
     1
 45
0.0
1001
ACAD
1000
AcDbSavedByObjectVersion
1070
     0
  0
VISUALSTYLE
  5
33
102
{ACAD_REACTORS
330
2A
102
}
330
2A
100
AcDbVisualStyle
  2
Realistic
 70
     8
 71
     2
 72
     2
 73
     0
 90
        0
 40
-0.6
 41
-30.0
 62
     5
 63
     7
421
 16777215
 74
     1
 91
        0
 64
     7
 65
   257
 75
     1
175
     1
 42
1.0
 92
        8
 66
     8
424
  7895160
 43
1.0
 76
     1
 77
     6
 78
     2
 67
     7
 79
     5
170
     0
171
     0
290
     0
174
     0
 93
       13
 44
0.0
173
     0
291
     0
 45
0.0
1001
ACAD
1000
AcDbSavedByObjectVersion
1070
     0
  0
VISUALSTYLE
  5
37
102
{ACAD_REACTORS
330
2A
102
}
330
2A
100
AcDbVisualStyle
  2
Thicken
 70
    13
 71
     2
 72
     2
 73
     0
 90
        0
 40
-0.6
 41
-30.0
 62
     5
 63
     7
421
 16777215
 74
     1
 91
        4
 64
     7
 65
   257
 75
     1
175
     1
 42
1.0
 92
       12
 66
     7
 43
1.0
 76
     1
 77
     6
 78
     2
 67
     7
 79
     5
170
     0
171
     0
290
     0
174
     0
 93
        1
 44
0.0
173
     0
291
     1
 45
0.0
1001
ACAD
1000
AcDbSavedByObjectVersion
1070
     0
  0
ENDSEC
  0
EOF
