  0
SECTION
  2
HEADER
  9
$ACADVER
  1
AC1018
  9
$ACADMAINTVER
 70
     0
  9
$DWGCODEPAGE
  3
ANSI_932
  9
$INSBASE
 10
0.0
 20
0.0
 30
0.0
  9
$EXTMIN
 10
-630.0
 20
-445.5
 30
0.0
  9
$EXTMAX
 10
630.0
 20
445.5
 30
0.0
  9
$LIMMIN
 10
-630.0
 20
-445.5
  9
$LIMMAX
 10
630.0
 20
445.5
  9
$ORTHOMODE
 70
     0
  9
$REGENMODE
 70
     1
  9
$FILLMODE
 70
     1
  9
$QTEXTMODE
 70
     0
  9
$MIRRTEXT
 70
     1
  9
$LTSCALE
 40
3.0
  9
$ATTMODE
 70
     1
  9
$TEXTSIZE
 40
2.5
  9
$TRACEWID
 40
1.0
  9
$TEXTSTYLE
  7
Standard
  9
$CLAYER
  8
0
  9
$CELTYPE
  6
ByLayer
  9
$CECOLOR
 62
   256
  9
$CELTSCALE
 40
1.0
  9
$DISPSILH
 70
     0
  9
$DIMSCALE
 40
1.0
  9
$DIMASZ
 40
2.5
  9
$DIMEXO
 40
0.625
  9
$DIMDLI
 40
3.75
  9
$DIMRND
 40
0.0
  9
$DIMDLE
 40
0.0
  9
$DIMEXE
 40
1.25
  9
$DIMTP
 40
0.0
  9
$DIMTM
 40
0.0
  9
$DIMTXT
 40
2.5
  9
$DIMCEN
 40
2.5
  9
$DIMTSZ
 40
0.0
  9
$DIMTOL
 70
     0
  9
$DIMLIM
 70
     0
  9
$DIMTIH
 70
     0
  9
$DIMTOH
 70
     0
  9
$DIMSE1
 70
     0
  9
$DIMSE2
 70
     0
  9
$DIMTAD
 70
     1
  9
$DIMZIN
 70
     8
  9
$DIMBLK
  1

  9
$DIMASO
 70
     1
  9
$DIMSHO
 70
     1
  9
$DIMPOST
  1

  9
$DIMAPOST
  1

  9
$DIMALT
 70
     0
  9
$DIMALTD
 70
     3
  9
$DIMALTF
 40
0.03937007874016
  9
$DIMLFAC
 40
1.0
  9
$DIMTOFL
 70
     1
  9
$DIMTVP
 40
0.0
  9
$DIMTIX
 70
     0
  9
$DIMSOXD
 70
     0
  9
$DIMSAH
 70
     0
  9
$DIMBLK1
  1

  9
$DIMBLK2
  1

  9
$DIMSTYLE
  2
ISO-25
  9
$DIMCLRD
 70
     0
  9
$DIMCLRE
 70
     0
  9
$DIMCLRT
 70
     0
  9
$DIMTFAC
 40
1.0
  9
$DIMGAP
 40
0.625
  9
$DIMJUST
 70
     0
  9
$DIMSD1
 70
     0
  9
$DIMSD2
 70
     0
  9
$DIMTOLJ
 70
     0
  9
$DIMTZIN
 70
     8
  9
$DIMALTZ
 70
     0
  9
$DIMALTTZ
 70
     0
  9
$DIMUPT
 70
     0
  9
$DIMDEC
 70
     2
  9
$DIMTDEC
 70
     2
  9
$DIMALTU
 70
     2
  9
$DIMALTTD
 70
     3
  9
$DIMTXSTY
  7
Standard
  9
$DIMAUNIT
 70
     0
  9
$DIMADEC
 70
     0
  9
$DIMALTRND
 40
0.0
  9
$DIMAZIN
 70
     0
  9
$DIMDSEP
 70
    44
  9
$DIMATFIT
 70
     3
  9
$DIMFRAC
 70
     0
  9
$DIMLDRBLK
  1

  9
$DIMLUNIT
 70
     2
  9
$DIMLWD
 70
    -2
  9
$DIMLWE
 70
    -2
  9
$DIMTMOVE
 70
     0
  9
$LUNITS
 70
     2
  9
$LUPREC
 70
     4
  9
$SKETCHINC
 40
1.0
  9
$FILLETRAD
 40
10.0
  9
$AUNITS
 70
     0
  9
$AUPREC
 70
     0
  9
$MENU
  1
.
  9
$ELEVATION
 40
0.0
  9
$PELEVATION
 40
0.0
  9
$THICKNESS
 40
0.0
  9
$LIMCHECK
 70
     0
  9
$CHAMFERA
 40
10.0
  9
$CHAMFERB
 40
10.0
  9
$CHAMFERC
 40
20.0
  9
$CHAMFERD
 40
0.0
  9
$SKPOLY
 70
     0
  9
$TDCREATE
 40
2459018.607001632
  9
$TDUCREATE
 40
2459018.232001632
  9
$TDUPDATE
 40
2459018.607001644
  9
$TDUUPDATE
 40
2459018.232001644
  9
$TDINDWG
 40
0.0000000116
  9
$TDUSRTIMER
 40
0.0000000116
  9
$USRTIMER
 70
     1
  9
$ANGBASE
 50
0.0
  9
$ANGDIR
 70
     0
  9
$PDMODE
 70
     0
  9
$PDSIZE
 40
0.0
  9
$PLINEWID
 40
0.0
  9
$SPLFRAME
 70
     0
  9
$SPLINETYPE
 70
     6
  9
$SPLINESEGS
 70
     8
  9
$HANDSEED
  5
3FE
  9
$SURFTAB1
 70
     6
  9
$SURFTAB2
 70
     6
  9
$SURFTYPE
 70
     6
  9
$SURFU
 70
     6
  9
$SURFV
 70
     6
  9
$UCSBASE
  2

  9
$UCSNAME
  2

  9
$UCSORG
 10
0.0
 20
0.0
 30
0.0
  9
$UCSXDIR
 10
1.0
 20
0.0
 30
0.0
  9
$UCSYDIR
 10
0.0
 20
1.0
 30
0.0
  9
$UCSORTHOREF
  2

  9
$UCSORTHOVIEW
 70
     0
  9
$UCSORGTOP
 10
0.0
 20
0.0
 30
0.0
  9
$UCSORGBOTTOM
 10
0.0
 20
0.0
 30
0.0
  9
$UCSORGLEFT
 10
0.0
 20
0.0
 30
0.0
  9
$UCSORGRIGHT
 10
0.0
 20
0.0
 30
0.0
  9
$UCSORGFRONT
 10
0.0
 20
0.0
 30
0.0
  9
$UCSORGBACK
 10
0.0
 20
0.0
 30
0.0
  9
$PUCSBASE
  2

  9
$PUCSNAME
  2

  9
$PUCSORG
 10
0.0
 20
0.0
 30
0.0
  9
$PUCSXDIR
 10
1.0
 20
0.0
 30
0.0
  9
$PUCSYDIR
 10
0.0
 20
1.0
 30
0.0
  9
$PUCSORTHOREF
  2

  9
$PUCSORTHOVIEW
 70
     0
  9
$PUCSORGTOP
 10
0.0
 20
0.0
 30
0.0
  9
$PUCSORGBOTTOM
 10
0.0
 20
0.0
 30
0.0
  9
$PUCSORGLEFT
 10
0.0
 20
0.0
 30
0.0
  9
$PUCSORGRIGHT
 10
0.0
 20
0.0
 30
0.0
  9
$PUCSORGFRONT
 10
0.0
 20
0.0
 30
0.0
  9
$PUCSORGBACK
 10
0.0
 20
0.0
 30
0.0
  9
$USERI1
 70
     0
  9
$USERI2
 70
     0
  9
$USERI3
 70
     0
  9
$USERI4
 70
     0
  9
$USERI5
 70
     0
  9
$USERR1
 40
0.0
  9
$USERR2
 40
0.0
  9
$USERR3
 40
0.0
  9
$USERR4
 40
0.0
  9
$USERR5
 40
0.0
  9
$WORLDVIEW
 70
     1
  9
$SHADEDGE
 70
     3
  9
$SHADEDIF
 70
    70
  9
$TILEMODE
 70
     1
  9
$MAXACTVP
 70
    64
  9
$PINSBASE
 10
0.0
 20
0.0
 30
0.0
  9
$PLIMCHECK
 70
     0
  9
$PEXTMIN
 10
1.000000000000000E+20
 20
1.000000000000000E+20
 30
1.000000000000000E+20
  9
$PEXTMAX
 10
-1.000000000000000E+20
 20
-1.000000000000000E+20
 30
-1.000000000000000E+20
  9
$PLIMMIN
 10
0.0
 20
0.0
  9
$PLIMMAX
 10
420.0
 20
297.0
  9
$UNITMODE
 70
     0
  9
$VISRETAIN
 70
     1
  9
$PLINEGEN
 70
     0
  9
$PSLTSCALE
 70
     1
  9
$TREEDEPTH
 70
  3020
  9
$CMLSTYLE
  2
Standard
  9
$CMLJUST
 70
     0
  9
$CMLSCALE
 40
20.0
  9
$PROXYGRAPHICS
 70
     1
  9
$MEASUREMENT
 70
     1
  9
$CELWEIGHT
370
    -1
  9
$ENDCAPS
280
     0
  9
$JOINSTYLE
280
     0
  9
$LWDISPLAY
290
     0
  9
$INSUNITS
 70
     4
  9
$HYPERLINKBASE
  1

  9
$STYLESHEET
  1

  9
$XEDIT
290
     1
  9
$CEPSNTYPE
380
     0
  9
$PSTYLEMODE
290
     1
  9
$FINGERPRINTGUID
  2
{C3AFAC9C-62E6-414D-82FE-664EAA58F7AE}
  9
$VERSIONGUID
  2
{FAEB1C32-E019-11D5-929B-00C0DF256EC4}
  9
$EXTNAMES
290
     1
  9
$PSVPSCALE
 40
0.0
  9
$OLESTARTUP
290
     0
  9
$SORTENTS
280
   127
  9
$INDEXCTL
280
     0
  9
$HIDETEXT
280
     1
  9
$XCLIPFRAME
290
     0
  9
$HALOGAP
280
     0
  9
$OBSCOLOR
 70
   257
  9
$OBSLTYPE
280
     0
  9
$INTERSECTIONDISPLAY
280
     0
  9
$INTERSECTIONCOLOR
 70
   257
  9
$DIMASSOC
280
     2
  9
$PROJECTNAME
  1

  0
ENDSEC
  0
SECTION
  2
CLASSES
  0
CLASS
  1
ACDBDICTIONARYWDFLT
  2
AcDbDictionaryWithDefault
  3
ObjectDBX Classes
 90
        0
 91
        4
280
     0
281
     0
  0
CLASS
  1
VISUALSTYLE
  2
AcDbVisualStyle
  3
ObjectDBX Classes
 90
     4095
 91
        4
280
     0
281
     0
  0
ENDSEC
  0
SECTION
  2
TABLES
  0
TABLE
  2
VPORT
  5
8
330
0
100
AcDbSymbolTable
 70
     1
  0
VPORT
  5
29
330
8
100
AcDbSymbolTableRecord
100
AcDbViewportTableRecord
  2
*Active
 70
     0
 10
0.0
 20
0.0
 11
1.0
 21
1.0
 12
0.0
 22
0.0
 13
0.0
 23
0.0
 14
10.0
 24
10.0
 15
10.0
 25
10.0
 16
0.0
 26
0.0
 36
1.0
 17
0.0
 27
0.0
 37
0.0
 40
980.1
 41
1.414141414141414
 42
50.0
 43
0.0
 44
0.0
 50
0.0
 51
0.0
 71
     0
 72
 10000
 73
     1
 74
     3
 75
     0
 76
     0
 77
     0
 78
     0
281
     0
 65
     1
110
0.0
120
0.0
130
0.0
111
1.0
121
0.0
131
0.0
112
0.0
122
1.0
132
0.0
 79
     0
146
0.0
  0
ENDTAB
  0
TABLE
  2
LTYPE
  5
5
330
0
100
AcDbSymbolTable
 70
     4
  0
LTYPE
  5
14
330
5
100
AcDbSymbolTableRecord
100
AcDbLinetypeTableRecord
  2
ByBlock
 70
     0
  3

 72
    65
 73
     0
 40
0.0
  0
LTYPE
  5
15
330
5
100
AcDbSymbolTableRecord
100
AcDbLinetypeTableRecord
  2
ByLayer
 70
     0
  3

 72
    65
 73
     0
 40
0.0
  0
LTYPE
  5
16
330
5
100
AcDbSymbolTableRecord
100
AcDbLinetypeTableRecord
  2
Continuous
 70
     0
  3
Solid line
 72
    65
 73
     0
 40
0.0
  0
LTYPE
  5
3C
330
5
100
AcDbSymbolTableRecord
100
AcDbLinetypeTableRecord
  2
JWW_DASHED1
 70
     0
  3
-  --  --  --  --  --  --  --  -
 72
    65
 73
     2
 40
1.693333333333333
 49
0.8466666666666667
 74
     0
 49
-0.8466666666666667
 74
     0
  0
LTYPE
  5
3D
330
5
100
AcDbSymbolTableRecord
100
AcDbLinetypeTableRecord
  2
JWW_PHANTOM1
 70
     0
  3
----  -  -  --------  -  -  ----
 72
    65
 73
     6
 40
6.773333333333333
 49
3.386666666666667
 74
     0
 49
-0.8466666666666667
 74
     0
 49
0.4233333333333333
 74
     0
 49
-0.8466666666666667
 74
     0
 49
0.4233333333333333
 74
     0
 49
-0.8466666666666667
 74
     0
  0
LTYPE
  5
3E
330
5
100
AcDbSymbolTableRecord
100
AcDbLinetypeTableRecord
  2
JWW_CENTER1
 70
     0
  3
-----  --  ----------  --  -----
 72
    65
 73
     4
 40
6.773333333333333
 49
4.233333333333333
 74
     0
 49
-0.8466666666666667
 74
     0
 49
0.8466666666666667
 74
     0
 49
-0.8466666666666667
 74
     0
  0
ENDTAB
  0
TABLE
  2
LAYER
  5
2
330
0
100
AcDbSymbolTable
 70
    14
  0
LAYER
  5
10
330
2
100
AcDbSymbolTableRecord
100
AcDbLayerTableRecord
  2
0
 70
     0
 62
     7
  6
Continuous
370
    -3
390
F
  0
LAYER
  5
3F
330
2
100
AcDbSymbolTableRecord
100
AcDbLayerTableRecord
  2
通り芯
 70
     0
 62
     7
  6
Continuous
370
    -1
390
F
  0
LAYER
  5
40
330
2
100
AcDbSymbolTableRecord
100
AcDbLayerTableRecord
  2
0-A
 70
     0
 62
     7
  6
Continuous
370
    -1
390
F
  0
LAYER
  5
41
330
2
100
AcDbSymbolTableRecord
100
AcDbLayerTableRecord
  2
建具
 70
     0
 62
     7
  6
Continuous
370
    -1
390
F
  0
LAYER
  5
42
330
2
100
AcDbSymbolTableRecord
100
AcDbLayerTableRecord
  2
仕上
 70
     0
 62
     7
  6
Continuous
370
    -1
390
F
  0
LAYER
  5
43
330
2
100
AcDbSymbolTableRecord
100
AcDbLayerTableRecord
  2
躯体
 70
     0
 62
     7
  6
Continuous
370
    -1
390
F
  0
LAYER
  5
44
330
2
100
AcDbSymbolTableRecord
100
AcDbLayerTableRecord
  2
0-C
 70
     0
 62
     7
  6
Continuous
370
    -1
390
F
  0
LAYER
  5
45
330
2
100
AcDbSymbolTableRecord
100
AcDbLayerTableRecord
  2
0-B
 70
     0
 62
     7
  6
Continuous
370
    -1
390
F
  0
LAYER
  5
46
330
2
100
AcDbSymbolTableRecord
100
AcDbLayerTableRecord
  2
3-5
 70
     0
 62
     7
  6
Continuous
370
    -1
390
F
  0
LAYER
  5
47
330
2
100
AcDbSymbolTableRecord
100
AcDbLayerTableRecord
  2
寸法
 70
     0
 62
     7
  6
Continuous
370
    -1
390
F
  0
LAYER
  5
48
330
2
100
AcDbSymbolTableRecord
100
AcDbLayerTableRecord
  2
3-4
 70
     0
 62
     7
  6
Continuous
370
    -1
390
F
  0
LAYER
  5
49
330
2
100
AcDbSymbolTableRecord
100
AcDbLayerTableRecord
  2
その他
 70
     0
 62
     7
  6
Continuous
370
    -1
390
F
  0
LAYER
  5
4A
330
2
100
AcDbSymbolTableRecord
100
AcDbLayerTableRecord
  2
F-5ﾚｲﾔ
 70
     0
 62
     7
  6
Continuous
370
    -1
390
F
  0
LAYER
  5
4B
330
2
100
AcDbSymbolTableRecord
100
AcDbLayerTableRecord
  2
0-8
 70
     0
 62
     7
  6
Continuous
370
    -1
390
F
  0
ENDTAB
  0
TABLE
  2
STYLE
  5
3
330
0
100
AcDbSymbolTable
 70
     2
  0
STYLE
  5
11
330
3
100
AcDbSymbolTableRecord
100
AcDbTextStyleTableRecord
  2
Standard
 70
     0
 40
0.0
 41
1.0
 50
0.0
 71
     0
 42
2.5
  3
txt
  4

1001
ACAD
1000

1071
        0
  0
STYLE
  5
3B
330
3
100
AcDbSymbolTableRecord
100
AcDbTextStyleTableRecord
  2
ＭＳ ゴシック
 70
     0
 40
1.0
 41
1.0
 50
0.0
 71
     0
 42
10.0
  3

  4

1001
ACAD
1000
MS Gothic
1071
    32817
  0
ENDTAB
  0
TABLE
  2
VIEW
  5
6
330
0
100
AcDbSymbolTable
 70
     0
  0
ENDTAB
  0
TABLE
  2
UCS
  5
7
330
0
100
AcDbSymbolTable
 70
     0
  0
ENDTAB
  0
TABLE
  2
APPID
  5
9
330
0
100
AcDbSymbolTable
 70
     1
  0
APPID
  5
12
330
9
100
AcDbSymbolTableRecord
100
AcDbRegAppTableRecord
  2
ACAD
 70
     0
  0
ENDTAB
  0
TABLE
  2
DIMSTYLE
  5
A
330
0
100
AcDbSymbolTable
 70
     1
100
AcDbDimStyleTable
  0
DIMSTYLE
105
27
330
A
100
AcDbSymbolTableRecord
100
AcDbDimStyleTableRecord
  2
ISO-25
 70
     0
 41
2.5
 42
0.625
 43
3.75
 44
1.25
 73
     0
 74
     0
 77
     1
 78
     8
140
2.5
141
2.5
143
0.03937007874016
147
0.625
171
     3
172
     1
271
     2
272
     2
274
     3
278
    44
283
     0
284
     8
340
11
  0
ENDTAB
  0
TABLE
  2
BLOCK_RECORD
  5
1
330
0
100
AcDbSymbolTable
 70
     1
  0
BLOCK_RECORD
  5
1F
330
1
100
AcDbSymbolTableRecord
100
AcDbBlockTableRecord
  2
*Model_Space
340
22
  0
BLOCK_RECORD
  5
1B
330
1
100
AcDbSymbolTableRecord
100
AcDbBlockTableRecord
  2
*Paper_Space
340
1E
  0
BLOCK_RECORD
  5
23
330
1
100
AcDbSymbolTableRecord
100
AcDbBlockTableRecord
  2
*Paper_Space0
340
26
  0
ENDTAB
  0
ENDSEC
  0
SECTION
  2
BLOCKS
  0
BLOCK
  5
20
330
1F
100
AcDbEntity
  8
0
100
AcDbBlockBegin
  2
*Model_Space
 70
     0
 10
0.0
 20
0.0
 30
0.0
  3
*Model_Space
  1

  0
ENDBLK
  5
21
330
1F
100
AcDbEntity
  8
0
100
AcDbBlockEnd
  0
BLOCK
  5
1C
330
1B
100
AcDbEntity
 67
     1
  8
0
100
AcDbBlockBegin
  2
*Paper_Space
 70
     0
 10
0.0
 20
0.0
 30
0.0
  3
*Paper_Space
  1

  0
ENDBLK
  5
1D
330
1B
100
AcDbEntity
 67
     1
  8
0
100
AcDbBlockEnd
  0
BLOCK
  5
24
330
23
100
AcDbEntity
  8
0
100
AcDbBlockBegin
  2
*Paper_Space0
 70
     0
 10
0.0
 20
0.0
 30
0.0
  3
*Paper_Space0
  1

  0
ENDBLK
  5
25
330
23
100
AcDbEntity
  8
0
100
AcDbBlockEnd
  0
ENDSEC
  0
SECTION
  2
ENTITIES
  0
LINE
  5
4C
330
1F
100
AcDbEntity
  8
通り芯
  6
Continuous
 62
     3
370
     9
100
AcDbLine
 10
-232.6739607653406
 20
116.5255657234144
 30
0.0
 11
-161.6739275966216
 21
116.5255657234144
 31
0.0
  0
LINE
  5
4D
330
1F
100
AcDbEntity
  8
通り芯
  6
Continuous
 62
     3
370
     9
100
AcDbLine
 10
-271.5162859243619
 20
181.8018939096851
 30
0.0
 11
-271.1739665389364
 21
183.5255802752324
 31
0.0
  0
LINE
  5
4E
330
1F
100
AcDbEntity
  8
通り芯
  6
Continuous
 62
     3
370
     9
100
AcDbLine
 10
-267.3636629208478
 20
176.9263819449091
 30
0.0
 11
-287.6739194664559
 21
183.5255802752324
 31
0.0
  0
LINE
  5
4F
330
1F
100
AcDbEntity
  8
通り芯
  6
Continuous
 62
     3
370
     9
100
AcDbLine
 10
-231.6402642335514
 20
158.1966708320804
 30
0.0
 11
-228.6637850382917
 21
116.5255657234144
 31
0.0
  0
LINE
  5
50
330
1F
100
AcDbEntity
  8
通り芯
  6
Continuous
 62
     3
370
     9
100
AcDbLine
 10
-247.6739314849615
 20
157.5255583591338
 30
0.0
 11
-248.6739856860656
 21
158.5255630133591
 31
0.0
  0
LINE
  5
51
330
1F
100
AcDbEntity
  8
通り芯
  6
Continuous
 62
     3
370
     9
100
AcDbLine
 10
-240.2580519518641
 20
157.5255583591338
 30
0.0
 11
-247.6739314849615
 21
157.5255583591338
 31
0.0
  0
LINE
  5
52
330
1F
100
AcDbEntity
  8
通り芯
  6
Continuous
 62
     3
370
     9
100
AcDbLine
 10
-122.8317015313577
 20
181.8018939096851
 30
0.0
 11
-123.1739218230256
 21
183.5255802752324
 31
0.0
  0
LINE
  5
53
330
1F
100
AcDbEntity
  8
通り芯
  6
Continuous
 62
     3
370
     9
100
AcDbLine
 10
-146.6740064238794
 20
157.5255583591338
 30
0.0
 11
-145.6739522227753
 21
158.5255630133591
 31
0.0
  0
LINE
  5
54
330
1F
100
AcDbEntity
  8
通り芯
  6
Continuous
 62
     3
370
     9
100
AcDbLine
 10
-139.0003840274176
 20
169.4678920960689
 30
0.0
 11
-140.3708506942098
 21
165.027005351868
 31
0.0
  0
LINE
  5
55
330
1F
100
AcDbEntity
  8
通り芯
  6
Continuous
 62
     3
370
     9
100
AcDbLine
 10
-118.9620902993807
 20
179.5329441432682
 30
0.0
 11
-106.6740679892637
 21
183.5255802752324
 31
0.0
  0
LINE
  5
56
330
1F
100
AcDbEntity
  8
通り芯
  6
Continuous
 62
     3
370
     9
100
AcDbLine
 10
-235.2708613223395
 20
152.8818266932464
 30
0.0
 11
-232.6739607653406
 21
116.5255657234144
 31
0.0
  0
LINE
  5
57
330
1F
100
AcDbEntity
  8
通り芯
  6
JWW_DASHED1
 62
     3
370
     9
100
AcDbLine
 10
-128.1596260461871
 20
167.3532808570224
 30
0.0
 11
-127.6083674729864
 21
171.842822636176
 31
0.0
  0
LINE
  5
58
330
1F
100
AcDbEntity
  8
通り芯
  6
Continuous
 62
     3
370
     9
100
AcDbLine
 10
-127.6083674729864
 20
171.842822636176
 30
0.0
 11
-126.1739357857014
 21
183.5255802752324
 31
0.0
  0
LINE
  5
59
330
1F
100
AcDbEntity
  8
通り芯
  6
JWW_DASHED1
 62
     3
370
     9
100
AcDbLine
 10
-141.6994997953199
 20
163.9729945997828
 30
0.0
 11
-130.9280083506106
 21
164.7261567039734
 31
0.0
  0
LINE
  5
5A
330
1F
100
AcDbEntity
  8
通り芯
  6
JWW_DASHED1
 62
     3
370
     9
100
AcDbLine
 10
-272.8409712751703
 20
174.5001703852748
 30
0.0
 11
-273.8900768862571
 21
174.8410529112159
 31
0.0
  0
LINE
  5
5B
330
1F
100
AcDbEntity
  8
通り芯
  6
Continuous
 62
     3
370
     9
100
AcDbLine
 10
-255.3475043345445
 20
169.4678920960689
 30
0.0
 11
-253.9770872146309
 21
165.027005351868
 31
0.0
  0
LINE
  5
5C
330
1F
100
AcDbEntity
  8
通り芯
  6
Continuous
 62
     3
370
     9
100
AcDbLine
 10
-255.4151358240664
 20
157.3197406247211
 30
0.0
 11
-255.9328016134606
 21
154.7314612246284
 31
0.0
  0
LINE
  5
5D
330
1F
100
AcDbEntity
  8
通り芯
  6
Continuous
 62
     3
370
     9
100
AcDbLine
 10
-253.944287180885
 20
158.5255630133591
 30
0.0
 11
-248.6739856860656
 21
158.5255630133591
 31
0.0
  0
LINE
  5
5E
330
1F
100
AcDbEntity
  8
通り芯
  6
Continuous
 62
     3
370
     9
100
AcDbLine
 10
-270.3320164279892
 20
154.8475991084665
 30
0.0
 11
-272.5222362040395
 21
173.1762777845268
 31
0.0
  0
LINE
  5
5F
330
1F
100
AcDbEntity
  8
通り芯
  6
Continuous
 62
     3
370
     9
100
AcDbLine
 10
-276.1738411694264
 20
135.5256541536938
 30
0.0
 11
-276.1738411694264
 21
129.5256757752211
 31
0.0
  0
LINE
  5
60
330
1F
100
AcDbEntity
  8
通り芯
  6
Continuous
 62
     3
370
     9
100
AcDbLine
 10
-261.9989250750918
 20
159.7256875109384
 30
0.0
 11
-268.3489026051993
 21
159.7256875109384
 31
0.0
  0
LINE
  5
61
330
1F
100
AcDbEntity
  8
通り芯
  6
Continuous
 62
     3
370
     9
100
AcDbLine
 10
-261.9989250750918
 20
159.7256875109384
 30
0.0
 11
-262.8140207777456
 21
160.525671415567
 31
0.0
  0
LINE
  5
62
330
1F
100
AcDbEntity
  8
通り芯
  6
Continuous
 62
     3
370
     9
100
AcDbLine
 10
-267.5339059963032
 20
160.525671415567
 30
0.0
 11
-268.3489026051993
 21
159.7256875109384
 31
0.0
  0
LINE
  5
63
330
1F
100
AcDbEntity
  8
通り芯
  6
Continuous
 62
     3
370
     9
100
AcDbLine
 10
-262.8140207777456
 20
160.525671415567
 30
0.0
 11
-267.5339059963032
 21
160.525671415567
 31
0.0
  0
LINE
  5
64
330
1F
100
AcDbEntity
  8
通り芯
  6
Continuous
 62
     3
370
     9
100
AcDbLine
 10
-270.1738627909536
 20
135.5256541536938
 30
0.0
 11
-276.1738411694264
 21
135.5256541536938
 31
0.0
  0
LINE
  5
65
330
1F
100
AcDbEntity
  8
通り芯
  6
Continuous
 62
     3
370
     9
100
AcDbLine
 10
-262.1738255571518
 20
137.5256634621442
 30
0.0
 11
-262.1738255571518
 21
150.5256248733147
 31
0.0
  0
LINE
  5
66
330
1F
100
AcDbEntity
  8
通り芯
  6
Continuous
 62
     3
370
     9
100
AcDbLine
 10
-270.1738627909536
 20
129.5256757752211
 30
0.0
 11
-276.1738411694264
 21
129.5256757752211
 31
0.0
  0
LINE
  5
67
330
1F
100
AcDbEntity
  8
通り芯
  6
Continuous
 62
     3
370
     9
100
AcDbLine
 10
-268.1738534825033
 20
137.5256634621442
 30
0.0
 11
-268.1738534825033
 21
150.5256248733147
 31
0.0
  0
LINE
  5
68
330
1F
100
AcDbEntity
  8
通り芯
  6
Continuous
 62
     3
370
     9
100
AcDbLine
 10
-267.5339059963032
 20
150.5256248733147
 30
0.0
 11
-267.5339059963032
 21
161.5256760697924
 31
0.0
  0
LINE
  5
69
330
1F
100
AcDbEntity
  8
通り芯
  6
Continuous
 62
     3
370
     9
100
AcDbLine
 10
-262.8140207777456
 20
150.5256248733147
 30
0.0
 11
-262.8140207777456
 21
161.5256760697924
 31
0.0
  0
LINE
  5
6A
330
1F
100
AcDbEntity
  8
通り芯
  6
Continuous
 62
     3
370
     9
100
AcDbLine
 10
-261.9989250750918
 20
150.5256248733147
 30
0.0
 11
-261.9989250750918
 21
159.7256875109384
 31
0.0
  0
LINE
  5
6B
330
1F
100
AcDbEntity
  8
通り芯
  6
Continuous
 62
     3
370
     9
100
AcDbLine
 10
-268.3489026051993
 20
150.5256248733147
 30
0.0
 11
-268.3489026051993
 21
159.7256875109384
 31
0.0
  0
LINE
  5
6C
330
1F
100
AcDbEntity
  8
通り芯
  6
Continuous
 62
     3
370
     9
100
AcDbLine
 10
-261.9989250750918
 20
150.5256248733147
 30
0.0
 11
-268.3489026051993
 21
150.5256248733147
 31
0.0
  0
LINE
  5
6D
330
1F
100
AcDbEntity
  8
通り芯
  6
JWW_PHANTOM1
 62
     3
370
     9
100
AcDbLine
 10
-133.1739683652781
 20
158.5255630133591
 30
0.0
 11
-135.1740272206072
 21
153.5255397422329
 31
0.0
  0
LINE
  5
6E
330
1F
100
AcDbEntity
  8
通り芯
  6
JWW_PHANTOM1
 62
     3
370
     9
100
AcDbLine
 10
-135.1740272206072
 20
153.5255397422329
 30
0.0
 11
-138.1739420895255
 21
153.5255397422329
 31
0.0
  0
LINE
  5
6F
330
1F
100
AcDbEntity
  8
通り芯
  6
JWW_PHANTOM1
 62
     3
370
     9
100
AcDbLine
 10
-138.1739420895255
 20
153.5255397422329
 30
0.0
 11
-139.1739962906294
 21
158.5255630133591
 31
0.0
  0
LINE
  5
70
330
1F
100
AcDbEntity
  8
通り芯
  6
Continuous
 62
     3
370
     9
100
AcDbLine
 10
-288.6739736675599
 20
174.5256374809629
 30
0.0
 11
-289.6739783217851
 21
175.5255925883092
 31
0.0
  0
LINE
  5
71
330
1F
100
AcDbEntity
  8
通り芯
  6
Continuous
 62
     3
370
     9
100
AcDbLine
 10
-288.6739736675599
 20
174.5256374809629
 30
0.0
 11
-283.6739999433125
 21
174.5256374809629
 31
0.0
  0
LINE
  5
72
330
1F
100
AcDbEntity
  8
通り芯
  6
Continuous
 62
     3
370
     9
100
AcDbLine
 10
-273.8900768862571
 20
174.8410529112159
 30
0.0
 11
-275.1541168574504
 21
175.2517965362234
 31
0.0
  0
LINE
  5
73
330
1F
100
AcDbEntity
  8
通り芯
  6
Continuous
 62
     3
370
     9
100
AcDbLine
 10
-105.6739146944021
 20
174.5256374809629
 30
0.0
 11
-104.6739100401769
 21
175.5255925883092
 31
0.0
  0
LINE
  5
74
330
1F
100
AcDbEntity
  8
通り芯
  6
Continuous
 62
     3
370
     9
100
AcDbLine
 10
-105.6739146944021
 20
174.5256374809629
 30
0.0
 11
-110.6739875124072
 21
174.5256374809629
 31
0.0
  0
LINE
  5
75
330
1F
100
AcDbEntity
  8
通り芯
  6
Continuous
 62
     3
370
     9
100
AcDbLine
 10
-236.2787934771679
 20
162.828263512669
 30
0.0
 11
-252.648438113521
 21
163.9729945997828
 31
0.0
  0
LINE
  5
76
330
1F
100
AcDbEntity
  8
通り芯
  6
JWW_DASHED1
 62
     3
370
     9
100
AcDbLine
 10
-252.648438113521
 20
163.9729450529042
 30
0.0
 11
-263.4199295582303
 21
164.7262062508522
 31
0.0
  0
LINE
  5
77
330
1F
100
AcDbEntity
  8
通り芯
  6
Continuous
 62
     3
370
     9
100
AcDbLine
 10
-266.7395208889756
 20
171.842822636176
 30
0.0
 11
-268.1740021231395
 21
183.5255802752324
 31
0.0
  0
LINE
  5
78
330
1F
100
AcDbEntity
  8
通り芯
  6
JWW_DASHED1
 62
     3
370
     9
100
AcDbLine
 10
-266.1882623157749
 20
167.3532808570224
 30
0.0
 11
-266.7395208889756
 21
171.842822636176
 31
0.0
  0
LINE
  5
79
330
1F
100
AcDbEntity
  8
通り芯
  6
JWW_DASHED1
 62
     3
370
     9
100
AcDbLine
 10
-270.1584041647772
 20
166.8657395699204
 30
0.0
 11
-270.790424150374
 21
172.0126693366012
 31
0.0
  0
LINE
  5
7A
330
1F
100
AcDbEntity
  8
通り芯
  6
Continuous
 62
     3
370
     9
100
AcDbLine
 10
-131.4067302932914
 20
158.5255630133591
 30
0.0
 11
-145.6739522227753
 21
158.5255630133591
 31
0.0
  0
LINE
  5
7B
330
1F
100
AcDbEntity
  8
通り芯
  6
Continuous
 62
     3
370
     9
100
AcDbLine
 10
-121.5069666336706
 20
174.5001703852748
 30
0.0
 11
-119.1937219576329
 21
175.2517965362234
 31
0.0
  0
LINE
  5
7C
330
1F
100
AcDbEntity
  8
通り芯
  6
Continuous
 62
     3
370
     9
100
AcDbLine
 10
-124.4588210301813
 20
164.6723983405074
 30
0.0
 11
-123.5575137584669
 21
172.0126197897224
 31
0.0
  0
LINE
  5
7D
330
1F
100
AcDbEntity
  8
通り芯
  6
Continuous
 62
     3
370
     9
100
AcDbLine
 10
-137.5669928245866
 20
170.525569317183
 30
0.0
 11
-136.1739327810749
 21
170.525569317183
 31
0.0
  0
LINE
  5
7E
330
1F
100
AcDbEntity
  8
通り芯
  6
Continuous
 62
     3
370
     9
100
AcDbLine
 10
-256.7808955373754
 20
170.525569317183
 30
0.0
 11
-265.2507858225582
 21
170.525569317183
 31
0.0
  0
LINE
  5
7F
330
1F
100
AcDbEntity
  8
通り芯
  6
JWW_CENTER1
 62
     3
370
     9
100
AcDbLine
 10
-270.1739618847112
 20
132.525640191018
 30
0.0
 11
-276.8906358645994
 21
132.525640191018
 31
0.0
  0
LINE
  5
80
330
1F
100
AcDbEntity
  8
通り芯
  6
Continuous
 62
     3
370
     9
100
AcDbLine
 10
-262.8140207777456
 20
153.5255892891117
 30
0.0
 11
-257.403650256642
 21
153.5255892891117
 31
0.0
  0
LINE
  5
81
330
1F
100
AcDbEntity
  8
通り芯
  6
Continuous
 62
     3
370
     9
100
AcDbLine
 10
-268.8425381583901
 20
153.5255892891117
 30
0.0
 11
-267.5339059963032
 21
153.5255892891117
 31
0.0
  0
LINE
  5
82
330
1F
100
AcDbEntity
  8
通り芯
  6
Continuous
 62
     3
370
     9
100
AcDbLine
 10
-262.8140207777456
 20
161.5256760697924
 30
0.0
 11
-267.5339059963032
 21
161.5256760697924
 31
0.0
  0
LINE
  5
83
330
1F
100
AcDbEntity
  8
通り芯
  6
Continuous
 62
     3
370
     9
100
AcDbLine
 10
-262.8140207777456
 20
161.5256760697924
 30
0.0
 11
-265.1739881604638
 21
162.8882152359813
 31
0.0
  0
LINE
  5
84
330
1F
100
AcDbEntity
  8
通り芯
  6
Continuous
 62
     3
370
     9
100
AcDbLine
 10
-267.5339059963032
 20
161.5256760697924
 30
0.0
 11
-265.1739881604638
 21
162.8882152359813
 31
0.0
  0
LINE
  5
85
330
1F
100
AcDbEntity
  8
通り芯
  6
JWW_CENTER1
 62
     3
370
     9
100
AcDbLine
 10
-265.1739881604638
 20
137.5256634621442
 30
0.0
 11
-265.1739881604638
 21
163.080853500641
 31
0.0
  0
LINE
  5
86
330
1F
100
AcDbEntity
  8
通り芯
  6
Continuous
 62
     3
370
     9
100
AcDbLine
 10
-136.673959881627
 20
163.5255862844852
 30
0.0
 11
-130.6739319562755
 21
163.5255862844852
 31
0.0
  0
LINE
  5
87
330
1F
100
AcDbEntity
  8
通り芯
  6
Continuous
 62
     3
370
     9
100
AcDbLine
 10
-136.1739327810749
 20
162.5255816302599
 30
0.0
 11
-131.1739590568275
 21
162.5255816302599
 31
0.0
  0
LINE
  5
88
330
1F
100
AcDbEntity
  8
通り芯
  6
Continuous
 62
     3
370
     9
100
AcDbLine
 10
-131.1739590568275
 20
162.5255816302599
 30
0.0
 11
-133.6739459189512
 21
161.082281051675
 31
0.0
  0
LINE
  5
89
330
1F
100
AcDbEntity
  8
通り芯
  6
Continuous
 62
     3
370
     9
100
AcDbLine
 10
-136.1739327810749
 20
162.5255816302599
 30
0.0
 11
-133.6739459189512
 21
161.082281051675
 31
0.0
  0
LINE
  5
8A
330
1F
100
AcDbEntity
  8
通り芯
  6
Continuous
 62
     3
370
     9
100
AcDbLine
 10
-154.0898364100982
 20
157.5255583591338
 30
0.0
 11
-146.6740064238794
 21
157.5255583591338
 31
0.0
  0
LINE
  5
8B
330
1F
100
AcDbEntity
  8
通り芯
  6
Continuous
 62
     3
370
     9
100
AcDbLine
 10
-159.0772252271378
 20
152.8817771463676
 30
0.0
 11
-161.6739275966216
 21
116.5255657234144
 31
0.0
  0
LINE
  5
8C
330
1F
100
AcDbEntity
  8
通り芯
  6
Continuous
 62
     3
370
     9
100
AcDbLine
 10
-158.0690948847942
 20
162.828263512669
 30
0.0
 11
-141.6994997953199
 21
163.9729945997828
 31
0.0
  0
LINE
  5
8D
330
1F
100
AcDbEntity
  8
通り芯
  6
Continuous
 62
     3
370
     9
100
AcDbLine
 10
-130.6739319562755
 20
166.0952360581602
 30
0.0
 11
-130.6739319562755
 21
163.5255862844852
 31
0.0
  0
LINE
  5
8E
330
1F
100
AcDbEntity
  8
通り芯
  6
Continuous
 62
     3
370
     9
100
AcDbLine
 10
-131.1739590568275
 20
165.5952585044871
 30
0.0
 11
-131.1739590568275
 21
162.5255816302599
 31
0.0
  0
LINE
  5
8F
330
1F
100
AcDbEntity
  8
通り芯
  6
Continuous
 62
     3
370
     9
100
AcDbLine
 10
-136.1739327810749
 20
165.5952585044871
 30
0.0
 11
-136.1739327810749
 21
162.5255816302599
 31
0.0
  0
LINE
  5
90
330
1F
100
AcDbEntity
  8
通り芯
  6
Continuous
 62
     3
370
     9
100
AcDbLine
 10
-136.673959881627
 20
166.0951865112814
 30
0.0
 11
-136.673959881627
 21
163.5255862844852
 31
0.0
  0
LINE
  5
91
330
1F
100
AcDbEntity
  8
0-A
  6
Continuous
 62
     4
370
     9
100
AcDbLine
 10
-134.1741216601396
 20
178.5952199156576
 30
0.0
 11
-133.1739683652781
 21
178.5952199156576
 31
0.0
  0
LINE
  5
92
330
1F
100
AcDbEntity
  8
0-A
  6
Continuous
 62
     4
370
     9
100
AcDbLine
 10
-134.1741216601396
 20
181.4772627599807
 30
0.0
 11
-134.1741216601396
 21
178.5952199156576
 31
0.0
  0
LINE
  5
93
330
1F
100
AcDbEntity
  8
0-A
  6
Continuous
 62
     4
370
     9
100
AcDbLine
 10
-136.1738832341962
 20
165.5952089576083
 30
0.0
 11
-131.1740086037063
 21
165.5952089576083
 31
0.0
  0
LINE
  5
94
330
1F
100
AcDbEntity
  8
0-A
  6
Continuous
 62
     4
370
     9
100
AcDbLine
 10
-136.673959881627
 20
166.0951865112814
 30
0.0
 11
-130.674031050033
 21
166.0951865112814
 31
0.0
  0
LINE
  5
95
330
1F
100
AcDbEntity
  8
0-A
  6
Continuous
 62
     4
370
     9
100
AcDbLine
 10
-136.673959881627
 20
166.0951865112814
 30
0.0
 11
-136.1738832341962
 21
165.5952089576083
 31
0.0
  0
LINE
  5
96
330
1F
100
AcDbEntity
  8
0-A
  6
Continuous
 62
     4
370
     9
100
AcDbLine
 10
-130.674031050033
 20
166.0951865112814
 30
0.0
 11
-131.1740086037063
 21
165.5952089576083
 31
0.0
  0
LINE
  5
97
330
1F
100
AcDbEntity
  8
0-A
  6
Continuous
 62
     4
370
     9
100
AcDbLine
 10
-131.1740086037063
 20
177.5952648083109
 30
0.0
 11
-131.1740086037063
 21
165.5952089576083
 31
0.0
  0
LINE
  5
98
330
1F
100
AcDbEntity
  8
0-A
  6
Continuous
 62
     4
370
     9
100
AcDbLine
 10
-136.1738832341962
 20
177.5952648083109
 30
0.0
 11
-136.1738832341962
 21
165.5952089576083
 31
0.0
  0
LINE
  5
99
330
1F
100
AcDbEntity
  8
0-A
  6
Continuous
 62
     4
370
     9
100
AcDbLine
 10
-136.673959881627
 20
177.5952648083109
 30
0.0
 11
-136.673959881627
 21
166.0951865112814
 31
0.0
  0
LINE
  5
9A
330
1F
100
AcDbEntity
  8
0-A
  6
Continuous
 62
     4
370
     9
100
AcDbLine
 10
-133.1739683652781
 20
181.4772132131017
 30
0.0
 11
-133.1739683652781
 21
178.5952199156576
 31
0.0
  0
LINE
  5
9B
330
1F
100
AcDbEntity
  8
0-A
  6
Continuous
 62
     4
370
     9
100
AcDbLine
 10
-138.9239331934747
 20
177.5952648083109
 30
0.0
 11
-128.4239586444278
 21
177.5952648083109
 31
0.0
  0
LINE
  5
9C
330
1F
100
AcDbEntity
  8
0-A
  6
JWW_CENTER1
 62
     4
370
     9
100
AcDbLine
 10
-133.6739459189512
 20
182.7075613067311
 30
0.0
 11
-133.6739459189512
 21
160.7396643849769
 31
0.0
  0
LINE
  5
9D
330
1F
100
AcDbEntity
  8
建具
  6
Continuous
 62
     4
370
     9
100
AcDbLine
 10
-254.1738874171074
 20
158.5255630133591
 30
0.0
 11
-254.1738874171074
 21
113.5257004013748
 31
0.0
  0
LINE
  5
9E
330
1F
100
AcDbEntity
  8
建具
  6
Continuous
 62
     4
370
     9
100
AcDbLine
 10
-250.6738959007585
 20
158.5255630133591
 30
0.0
 11
-250.6738959007585
 21
113.5257004013748
 31
0.0
  0
LINE
  5
9F
330
1F
100
AcDbEntity
  8
建具
  6
Continuous
 62
     4
370
     9
100
AcDbLine
 10
-143.6739429143249
 20
158.5255630133591
 30
0.0
 11
-143.6739429143249
 21
113.5257004013748
 31
0.0
  0
LINE
  5
A0
330
1F
100
AcDbEntity
  8
0-A
  6
Continuous
 62
     4
370
     9
100
AcDbLine
 10
-130.674031050033
 20
177.5952648083109
 30
0.0
 11
-130.674031050033
 21
166.0951865112814
 31
0.0
  0
LINE
  5
A1
330
1F
100
AcDbEntity
  8
仕上
  6
Continuous
 62
     2
370
     9
100
AcDbLine
 10
-177.6739525173466
 20
19.02583036619595
 30
0.0
 11
-178.6739571715717
 21
19.52585746674808
 31
0.0
  0
LINE
  5
A2
330
1F
100
AcDbEntity
  8
仕上
  6
Continuous
 62
     2
370
     9
100
AcDbLine
 10
-177.6739525173466
 20
19.02583036619595
 30
0.0
 11
-178.6739571715717
 21
18.52580326564399
 31
0.0
  0
LINE
  5
A3
330
1F
100
AcDbEntity
  8
仕上
  6
Continuous
 62
     2
370
     9
100
AcDbLine
 10
-177.6739525173466
 20
26.52574140568825
 30
0.0
 11
-178.6739571715717
 21
27.02576850624038
 31
0.0
  0
LINE
  5
A4
330
1F
100
AcDbEntity
  8
仕上
  6
Continuous
 62
     2
370
     9
100
AcDbLine
 10
-177.6739525173466
 20
26.52574140568825
 30
0.0
 11
-178.6739571715717
 21
26.02581339889375
 31
0.0
  0
LINE
  5
A5
330
1F
100
AcDbEntity
  8
仕上
  6
Continuous
 62
     2
370
     9
100
AcDbLine
 10
-177.6739525173466
 20
34.02575153893818
 30
0.0
 11
-178.6739571715717
 21
34.52577863949014
 31
0.0
  0
LINE
  5
A6
330
1F
100
AcDbEntity
  8
仕上
  6
Continuous
 62
     2
370
     9
100
AcDbLine
 10
-177.6739525173466
 20
34.02575153893818
 30
0.0
 11
-178.6739571715717
 21
33.52582353214368
 31
0.0
  0
LINE
  5
A7
330
1F
100
AcDbEntity
  8
仕上
  6
Continuous
 62
     2
370
     9
100
AcDbLine
 10
-177.6739525173466
 20
41.52576167218811
 30
0.0
 11
-178.6739571715717
 21
42.02578877274007
 31
0.0
  0
LINE
  5
A8
330
1F
100
AcDbEntity
  8
仕上
  6
Continuous
 62
     2
370
     9
100
AcDbLine
 10
-177.6739525173466
 20
41.52576167218811
 30
0.0
 11
-178.6739571715717
 21
41.02583366539361
 31
0.0
  0
LINE
  5
A9
330
1F
100
AcDbEntity
  8
仕上
  6
Continuous
 62
     2
370
     9
100
AcDbLine
 10
-177.6739525173466
 20
49.02577180543787
 30
0.0
 11
-178.6739571715717
 21
49.52579890598983
 31
0.0
  0
LINE
  5
AA
330
1F
100
AcDbEntity
  8
仕上
  6
Continuous
 62
     2
370
     9
100
AcDbLine
 10
-177.6739525173466
 20
49.02577180543787
 30
0.0
 11
-178.6739571715717
 21
48.52584379864354
 31
0.0
  0
LINE
  5
AB
330
1F
100
AcDbEntity
  8
仕上
  6
Continuous
 62
     2
370
     9
100
AcDbLine
 10
-177.6739525173466
 20
56.5257819386878
 30
0.0
 11
-178.6739571715717
 21
57.02580903923976
 31
0.0
  0
LINE
  5
AC
330
1F
100
AcDbEntity
  8
仕上
  6
Continuous
 62
     2
370
     9
100
AcDbLine
 10
-177.6739525173466
 20
56.5257819386878
 30
0.0
 11
-178.6739571715717
 21
56.02585393189347
 31
0.0
  0
LINE
  5
AD
330
1F
100
AcDbEntity
  8
仕上
  6
Continuous
 62
     2
370
     9
100
AcDbLine
 10
-178.6739571715717
 20
26.02581339889375
 30
0.0
 11
-178.6739571715717
 21
19.52585746674808
 31
0.0
  0
LINE
  5
AE
330
1F
100
AcDbEntity
  8
仕上
  6
Continuous
 62
     2
370
     9
100
AcDbLine
 10
-178.6739571715717
 20
41.02583366539361
 30
0.0
 11
-178.6739571715717
 21
34.52577863949014
 31
0.0
  0
LINE
  5
AF
330
1F
100
AcDbEntity
  8
仕上
  6
Continuous
 62
     2
370
     9
100
AcDbLine
 10
-178.6739571715717
 20
48.52584379864354
 30
0.0
 11
-178.6739571715717
 21
42.02578877274007
 31
0.0
  0
LINE
  5
B0
330
1F
100
AcDbEntity
  8
仕上
  6
Continuous
 62
     2
370
     9
100
AcDbLine
 10
-178.6739571715717
 20
56.02585393189347
 30
0.0
 11
-178.6739571715717
 21
49.52579890598983
 31
0.0
  0
LINE
  5
B1
330
1F
100
AcDbEntity
  8
仕上
  6
Continuous
 62
     2
370
     9
100
AcDbLine
 10
-178.6739571715717
 20
33.52582353214368
 30
0.0
 11
-178.6739571715717
 21
27.02576850624038
 31
0.0
  0
LINE
  5
B2
330
1F
100
AcDbEntity
  8
仕上
  6
Continuous
 62
     2
370
     9
100
AcDbLine
 10
-177.6739525173466
 20
11.52582023294602
 30
0.0
 11
-176.6739478631213
 21
11.52582023294602
 31
0.0
  0
LINE
  5
B3
330
1F
100
AcDbEntity
  8
仕上
  6
Continuous
 62
     2
370
     9
100
AcDbLine
 10
-178.6739571715717
 20
12.52577534029248
 30
0.0
 11
-178.6739571715717
 21
18.52580326564399
 31
0.0
  0
LINE
  5
B4
330
1F
100
AcDbEntity
  8
仕上
  6
Continuous
 62
     2
370
     9
100
AcDbLine
 10
-250.1740174408428
 20
108.5257266771274
 30
0.0
 11
-144.1740195617557
 21
108.5257266771274
 31
0.0
  0
LINE
  5
B5
330
1F
100
AcDbEntity
  8
仕上
  6
Continuous
 62
     2
370
     9
100
AcDbLine
 10
-227.5391699839586
 20
61.55588016522765
 30
0.0
 11
-247.7506300532984
 21
72.06923237154254
 31
0.0
  0
LINE
  5
B6
330
1F
100
AcDbEntity
  8
仕上
  6
JWW_PHANTOM1
 62
     2
370
     9
100
AcDbLine
 10
-146.1160094751659
 20
77.95569885075199
 30
0.0
 11
-144.1740195617557
 21
78.96576152136763
 31
0.0
  0
LINE
  5
B7
330
1F
100
AcDbEntity
  8
仕上
  6
Continuous
 62
     2
370
     9
100
AcDbLine
 10
-176.6739478631213
 20
61.33014458554928
 30
0.0
 11
-167.7316280888618
 21
61.33014458554928
 31
0.0
  0
LINE
  5
B8
330
1F
100
AcDbEntity
  8
仕上
  6
Continuous
 62
     2
370
     9
100
AcDbLine
 10
-146.6739568770006
 20
81.69747913550097
 30
0.0
 11
-146.6739568770006
 21
108.5257266771274
 31
0.0
  0
LINE
  5
B9
330
1F
100
AcDbEntity
  8
仕上
  6
JWW_DASHED1
 62
     2
370
     9
100
AcDbLine
 10
-177.5969071208584
 20
61.58015813582526
 30
0.0
 11
-146.5973078555425
 21
77.70518983168822
 31
0.0
  0
LINE
  5
BA
330
1F
100
AcDbEntity
  8
仕上
  6
Continuous
 62
     2
370
     9
100
AcDbLine
 10
-178.6739571715717
 20
59.33013527709872
 30
0.0
 11
-178.6739571715717
 21
57.02580903923976
 31
0.0
  0
LINE
  5
BB
330
1F
100
AcDbEntity
  8
仕上
  6
JWW_DASHED1
 62
     2
370
     9
100
AcDbLine
 10
-178.6739571715717
 20
59.80588440705324
 30
0.0
 11
-178.6739571715717
 21
59.33013527709872
 31
0.0
  0
LINE
  5
BC
330
1F
100
AcDbEntity
  8
仕上
  6
Continuous
 62
     2
370
     9
100
AcDbLine
 10
-147.7510069277139
 20
79.9231063129715
 30
0.0
 11
-178.7505566461509
 21
63.79797552335091
 31
0.0
  0
LINE
  5
BD
330
1F
100
AcDbEntity
  8
仕上
  6
Continuous
 62
     2
370
     9
100
AcDbLine
 10
-181.1739440336954
 20
59.80588440705324
 30
0.0
 11
-181.1739440336954
 21
7.525801616045072
 31
0.0
  0
LINE
  5
BE
330
1F
100
AcDbEntity
  8
仕上
  6
Continuous
 62
     2
370
     9
100
AcDbLine
 10
-216.6739358446157
 20
19.02583036619595
 30
0.0
 11
-215.673980737269
 21
19.52585746674808
 31
0.0
  0
LINE
  5
BF
330
1F
100
AcDbEntity
  8
仕上
  6
Continuous
 62
     2
370
     9
100
AcDbLine
 10
-216.6739358446157
 20
19.02583036619595
 30
0.0
 11
-215.673980737269
 21
18.52580326564399
 31
0.0
  0
LINE
  5
C0
330
1F
100
AcDbEntity
  8
仕上
  6
Continuous
 62
     2
370
     9
100
AcDbLine
 10
-216.6739358446157
 20
26.52574140568825
 30
0.0
 11
-215.673980737269
 21
27.02576850624038
 31
0.0
  0
LINE
  5
C1
330
1F
100
AcDbEntity
  8
仕上
  6
Continuous
 62
     2
370
     9
100
AcDbLine
 10
-216.6739358446157
 20
26.52574140568825
 30
0.0
 11
-215.673980737269
 21
26.02581339889375
 31
0.0
  0
LINE
  5
C2
330
1F
100
AcDbEntity
  8
仕上
  6
Continuous
 62
     2
370
     9
100
AcDbLine
 10
-216.6739358446157
 20
34.02575153893818
 30
0.0
 11
-215.673980737269
 21
34.52577863949014
 31
0.0
  0
LINE
  5
C3
330
1F
100
AcDbEntity
  8
仕上
  6
Continuous
 62
     2
370
     9
100
AcDbLine
 10
-216.6739358446157
 20
34.02575153893818
 30
0.0
 11
-215.673980737269
 21
33.52582353214368
 31
0.0
  0
LINE
  5
C4
330
1F
100
AcDbEntity
  8
仕上
  6
Continuous
 62
     2
370
     9
100
AcDbLine
 10
-216.6739358446157
 20
41.52576167218811
 30
0.0
 11
-215.673980737269
 21
42.02578877274007
 31
0.0
  0
LINE
  5
C5
330
1F
100
AcDbEntity
  8
仕上
  6
Continuous
 62
     2
370
     9
100
AcDbLine
 10
-216.6739358446157
 20
41.52576167218811
 30
0.0
 11
-215.673980737269
 21
41.02583366539361
 31
0.0
  0
LINE
  5
C6
330
1F
100
AcDbEntity
  8
仕上
  6
Continuous
 62
     2
370
     9
100
AcDbLine
 10
-216.6739358446157
 20
49.02577180543787
 30
0.0
 11
-215.673980737269
 21
49.52579890598983
 31
0.0
  0
LINE
  5
C7
330
1F
100
AcDbEntity
  8
仕上
  6
Continuous
 62
     2
370
     9
100
AcDbLine
 10
-216.6739358446157
 20
49.02577180543787
 30
0.0
 11
-215.673980737269
 21
48.52584379864354
 31
0.0
  0
LINE
  5
C8
330
1F
100
AcDbEntity
  8
仕上
  6
Continuous
 62
     2
370
     9
100
AcDbLine
 10
-216.6739358446157
 20
56.5257819386878
 30
0.0
 11
-215.673980737269
 21
57.02580903923976
 31
0.0
  0
LINE
  5
C9
330
1F
100
AcDbEntity
  8
仕上
  6
Continuous
 62
     2
370
     9
100
AcDbLine
 10
-216.6739358446157
 20
56.5257819386878
 30
0.0
 11
-215.673980737269
 21
56.02585393189347
 31
0.0
  0
LINE
  5
CA
330
1F
100
AcDbEntity
  8
仕上
  6
Continuous
 62
     2
370
     9
100
AcDbLine
 10
-215.673980737269
 20
26.02581339889375
 30
0.0
 11
-215.673980737269
 21
19.52585746674808
 31
0.0
  0
LINE
  5
CB
330
1F
100
AcDbEntity
  8
仕上
  6
Continuous
 62
     2
370
     9
100
AcDbLine
 10
-215.673980737269
 20
41.02583366539361
 30
0.0
 11
-215.673980737269
 21
34.52577863949014
 31
0.0
  0
LINE
  5
CC
330
1F
100
AcDbEntity
  8
仕上
  6
Continuous
 62
     2
370
     9
100
AcDbLine
 10
-215.673980737269
 20
48.52584379864354
 30
0.0
 11
-215.673980737269
 21
42.02578877274007
 31
0.0
  0
LINE
  5
CD
330
1F
100
AcDbEntity
  8
仕上
  6
Continuous
 62
     2
370
     9
100
AcDbLine
 10
-215.673980737269
 20
56.02585393189347
 30
0.0
 11
-215.673980737269
 21
49.52579890598983
 31
0.0
  0
LINE
  5
CE
330
1F
100
AcDbEntity
  8
仕上
  6
Continuous
 62
     2
370
     9
100
AcDbLine
 10
-215.673980737269
 20
33.52582353214368
 30
0.0
 11
-215.673980737269
 21
27.02576850624038
 31
0.0
  0
LINE
  5
CF
330
1F
100
AcDbEntity
  8
仕上
  6
Continuous
 62
     2
370
     9
100
AcDbLine
 10
-216.6739358446157
 20
11.52582023294602
 30
0.0
 11
-217.6739404988408
 21
11.52582023294602
 31
0.0
  0
LINE
  5
D0
330
1F
100
AcDbEntity
  8
仕上
  6
Continuous
 62
     2
370
     9
100
AcDbLine
 10
-215.673980737269
 20
12.52577534029248
 30
0.0
 11
-215.673980737269
 21
18.52580326564399
 31
0.0
  0
LINE
  5
D1
330
1F
100
AcDbEntity
  8
仕上
  6
Continuous
 62
     2
370
     9
100
AcDbLine
 10
-215.673980737269
 20
59.33013527709872
 30
0.0
 11
-215.673980737269
 21
57.02580903923976
 31
0.0
  0
LINE
  5
D2
330
1F
100
AcDbEntity
  8
仕上
  6
JWW_DASHED1
 62
     2
370
     9
100
AcDbLine
 10
-215.673980737269
 20
59.80588440705324
 30
0.0
 11
-215.673980737269
 21
59.33013527709872
 31
0.0
  0
LINE
  5
D3
330
1F
100
AcDbEntity
  8
仕上
  6
Continuous
 62
     2
370
     9
100
AcDbLine
 10
-247.6741296724766
 20
81.69747913550097
 30
0.0
 11
-247.6741296724766
 21
108.5257266771274
 31
0.0
  0
LINE
  5
D4
330
1F
100
AcDbEntity
  8
仕上
  6
JWW_DASHED1
 62
     2
370
     9
100
AcDbLine
 10
-216.7510307879825
 20
61.58015813582526
 30
0.0
 11
-247.7507291470558
 21
77.7053880192033
 31
0.0
  0
LINE
  5
D5
330
1F
100
AcDbEntity
  8
仕上
  6
Continuous
 62
     2
370
     9
100
AcDbLine
 10
-217.6739404988408
 20
61.33014458554928
 30
0.0
 11
-226.6162602731003
 21
61.33014458554928
 31
0.0
  0
LINE
  5
D6
330
1F
100
AcDbEntity
  8
仕上
  6
Continuous
 62
     2
370
     9
100
AcDbLine
 10
-181.1739440336954
 20
62.53750292742913
 30
0.0
 11
-213.1739443282667
 21
62.53750292742913
 31
0.0
  0
LINE
  5
D7
330
1F
100
AcDbEntity
  8
仕上
  6
Continuous
 62
     2
370
     9
100
AcDbLine
 10
-246.5970300748845
 20
79.92320540672895
 30
0.0
 11
-215.5973317158112
 21
63.79797552335091
 31
0.0
  0
LINE
  5
D8
330
1F
100
AcDbEntity
  8
仕上
  6
Continuous
 62
     2
370
     9
100
AcDbLine
 10
-213.1739443282667
 20
59.80588440705324
 30
0.0
 11
-213.1739443282667
 21
7.525801616045072
 31
0.0
  0
LINE
  5
D9
330
1F
100
AcDbEntity
  8
仕上
  6
Continuous
 62
     2
370
     9
100
AcDbLine
 10
-176.6739478631213
 20
7.525801616045072
 30
0.0
 11
-217.6739404988408
 21
7.525801616045072
 31
0.0
  0
LINE
  5
DA
330
1F
100
AcDbEntity
  8
仕上
  6
Continuous
 62
     2
370
     9
100
AcDbLine
 10
-144.1740195617557
 20
102.5257978455337
 30
0.0
 11
-141.6739831527532
 21
100.0257614365312
 31
0.0
  0
LINE
  5
DB
330
1F
100
AcDbEntity
  8
仕上
  6
Continuous
 62
     2
370
     9
100
AcDbLine
 10
-144.1740195617557
 20
99.02570723542706
 30
0.0
 11
-141.6739831527532
 21
99.02570723542706
 31
0.0
  0
LINE
  5
DC
330
1F
100
AcDbEntity
  8
仕上
  6
Continuous
 62
     2
370
     9
100
AcDbLine
 10
-141.6739831527532
 20
100.0257614365312
 30
0.0
 11
-141.6739831527532
 21
99.02570723542706
 31
0.0
  0
LINE
  5
DD
330
1F
100
AcDbEntity
  8
仕上
  6
Continuous
 62
     2
370
     9
100
AcDbLine
 10
-144.1740195617557
 20
107.5257715697811
 30
0.0
 11
-141.6739831527532
 21
105.0257351607786
 31
0.0
  0
LINE
  5
DE
330
1F
100
AcDbEntity
  8
仕上
  6
Continuous
 62
     2
370
     9
100
AcDbLine
 10
-144.1740195617557
 20
104.0256809596745
 30
0.0
 11
-141.6739831527532
 21
104.0256809596745
 31
0.0
  0
LINE
  5
DF
330
1F
100
AcDbEntity
  8
仕上
  6
Continuous
 62
     2
370
     9
100
AcDbLine
 10
-141.6739831527532
 20
105.0257351607786
 30
0.0
 11
-141.6739831527532
 21
104.0256809596745
 31
0.0
  0
LINE
  5
E0
330
1F
100
AcDbEntity
  8
仕上
  6
Continuous
 62
     2
370
     9
100
AcDbLine
 10
-144.1740195617557
 20
97.52572502752864
 30
0.0
 11
-141.6739831527532
 21
95.02578771228374
 31
0.0
  0
LINE
  5
E1
330
1F
100
AcDbEntity
  8
仕上
  6
Continuous
 62
     2
370
     9
100
AcDbLine
 10
-144.1740195617557
 20
94.02573351117965
 30
0.0
 11
-141.6739831527532
 21
94.02573351117965
 31
0.0
  0
LINE
  5
E2
330
1F
100
AcDbEntity
  8
仕上
  6
Continuous
 62
     2
370
     9
100
AcDbLine
 10
-141.6739831527532
 20
95.02578771228374
 30
0.0
 11
-141.6739831527532
 21
94.02573351117965
 31
0.0
  0
LINE
  5
E3
330
1F
100
AcDbEntity
  8
仕上
  6
Continuous
 62
     2
370
     9
100
AcDbLine
 10
-144.1740195617557
 20
104.0256809596745
 30
0.0
 11
-144.1740195617557
 21
102.5257978455337
 31
0.0
  0
LINE
  5
E4
330
1F
100
AcDbEntity
  8
仕上
  6
Continuous
 62
     2
370
     9
100
AcDbLine
 10
-144.1740195617557
 20
99.02570723542706
 30
0.0
 11
-144.1740195617557
 21
97.52572502752864
 31
0.0
  0
LINE
  5
E5
330
1F
100
AcDbEntity
  8
仕上
  6
Continuous
 62
     2
370
     9
100
AcDbLine
 10
-144.1740195617557
 20
92.52575130328123
 30
0.0
 11
-141.6739831527532
 21
90.0257148942787
 31
0.0
  0
LINE
  5
E6
330
1F
100
AcDbEntity
  8
仕上
  6
Continuous
 62
     2
370
     9
100
AcDbLine
 10
-144.1740195617557
 20
89.02575978693224
 30
0.0
 11
-141.6739831527532
 21
89.02575978693224
 31
0.0
  0
LINE
  5
E7
330
1F
100
AcDbEntity
  8
仕上
  6
Continuous
 62
     2
370
     9
100
AcDbLine
 10
-141.6739831527532
 20
90.0257148942787
 30
0.0
 11
-141.6739831527532
 21
89.02575978693224
 31
0.0
  0
LINE
  5
E8
330
1F
100
AcDbEntity
  8
仕上
  6
Continuous
 62
     2
370
     9
100
AcDbLine
 10
-144.1740195617557
 20
108.5257266771274
 30
0.0
 11
-144.1740195617557
 21
107.5257715697811
 31
0.0
  0
LINE
  5
E9
330
1F
100
AcDbEntity
  8
仕上
  6
Continuous
 62
     2
370
     9
100
AcDbLine
 10
-144.1740195617557
 20
94.02573351117965
 30
0.0
 11
-144.1740195617557
 21
92.52575130328123
 31
0.0
  0
LINE
  5
EA
330
1F
100
AcDbEntity
  8
仕上
  6
Continuous
 62
     2
370
     9
100
AcDbLine
 10
-144.1740195617557
 20
87.52577757903381
 30
0.0
 11
-141.6739831527532
 21
85.0257411700313
 31
0.0
  0
LINE
  5
EB
330
1F
100
AcDbEntity
  8
仕上
  6
Continuous
 62
     2
370
     9
100
AcDbLine
 10
-141.6739831527532
 20
85.0257411700313
 30
0.0
 11
-141.6739831527532
 21
84.02578606268483
 31
0.0
  0
LINE
  5
EC
330
1F
100
AcDbEntity
  8
仕上
  6
Continuous
 62
     2
370
     9
100
AcDbLine
 10
-144.1740195617557
 20
89.02575978693224
 30
0.0
 11
-144.1740195617557
 21
87.52577757903381
 31
0.0
  0
LINE
  5
ED
330
1F
100
AcDbEntity
  8
仕上
  6
Continuous
 62
     2
370
     9
100
AcDbLine
 10
-144.1740195617557
 20
84.02578606268483
 30
0.0
 11
-144.1740195617557
 21
76.09917730322084
 31
0.0
  0
LINE
  5
EE
330
1F
100
AcDbEntity
  8
仕上
  6
Continuous
 62
     2
370
     9
100
AcDbLine
 10
-250.1740669877216
 20
100.0257614365312
 30
0.0
 11
-252.674103396724
 21
97.52572502752864
 31
0.0
  0
LINE
  5
EF
330
1F
100
AcDbEntity
  8
仕上
  6
Continuous
 62
     2
370
     9
100
AcDbLine
 10
-250.1740669877216
 20
96.52567082642472
 30
0.0
 11
-252.674103396724
 21
96.52567082642472
 31
0.0
  0
LINE
  5
F0
330
1F
100
AcDbEntity
  8
仕上
  6
Continuous
 62
     2
370
     9
100
AcDbLine
 10
-252.674103396724
 20
97.52572502752864
 30
0.0
 11
-252.674103396724
 21
96.52567082642472
 31
0.0
  0
LINE
  5
F1
330
1F
100
AcDbEntity
  8
仕上
  6
Continuous
 62
     2
370
     9
100
AcDbLine
 10
-250.1740669877216
 20
105.0257351607786
 30
0.0
 11
-252.674103396724
 21
102.525698751776
 31
0.0
  0
LINE
  5
F2
330
1F
100
AcDbEntity
  8
仕上
  6
Continuous
 62
     2
370
     9
100
AcDbLine
 10
-250.1740669877216
 20
101.5257436444294
 30
0.0
 11
-252.674103396724
 21
101.5257436444294
 31
0.0
  0
LINE
  5
F3
330
1F
100
AcDbEntity
  8
仕上
  6
Continuous
 62
     2
370
     9
100
AcDbLine
 10
-252.674103396724
 20
102.525698751776
 30
0.0
 11
-252.674103396724
 21
101.5257436444294
 31
0.0
  0
LINE
  5
F4
330
1F
100
AcDbEntity
  8
仕上
  6
Continuous
 62
     2
370
     9
100
AcDbLine
 10
-250.1740669877216
 20
95.02568861852612
 30
0.0
 11
-252.674103396724
 21
92.5256522095236
 31
0.0
  0
LINE
  5
F5
330
1F
100
AcDbEntity
  8
仕上
  6
Continuous
 62
     2
370
     9
100
AcDbLine
 10
-250.1740669877216
 20
91.5256971021773
 30
0.0
 11
-252.674103396724
 21
91.5256971021773
 31
0.0
  0
LINE
  5
F6
330
1F
100
AcDbEntity
  8
仕上
  6
Continuous
 62
     2
370
     9
100
AcDbLine
 10
-252.674103396724
 20
92.5256522095236
 30
0.0
 11
-252.674103396724
 21
91.5256971021773
 31
0.0
  0
LINE
  5
F7
330
1F
100
AcDbEntity
  8
仕上
  6
Continuous
 62
     2
370
     9
100
AcDbLine
 10
-250.1740669877216
 20
90.0257148942787
 30
0.0
 11
-252.674103396724
 21
87.52577757903381
 31
0.0
  0
LINE
  5
F8
330
1F
100
AcDbEntity
  8
仕上
  6
Continuous
 62
     2
370
     9
100
AcDbLine
 10
-250.1740669877216
 20
86.52572337792989
 30
0.0
 11
-252.674103396724
 21
86.52572337792989
 31
0.0
  0
LINE
  5
F9
330
1F
100
AcDbEntity
  8
仕上
  6
Continuous
 62
     2
370
     9
100
AcDbLine
 10
-252.674103396724
 20
87.52577757903381
 30
0.0
 11
-252.674103396724
 21
86.52572337792989
 31
0.0
  0
LINE
  5
FA
330
1F
100
AcDbEntity
  8
仕上
  6
Continuous
 62
     2
370
     9
100
AcDbLine
 10
-250.1740669877216
 20
108.5257266771274
 30
0.0
 11
-250.1740669877216
 21
105.0257351607786
 31
0.0
  0
LINE
  5
FB
330
1F
100
AcDbEntity
  8
仕上
  6
Continuous
 62
     2
370
     9
100
AcDbLine
 10
-250.1740669877216
 20
101.5257436444294
 30
0.0
 11
-250.1740669877216
 21
100.0257614365312
 31
0.0
  0
LINE
  5
FC
330
1F
100
AcDbEntity
  8
仕上
  6
Continuous
 62
     2
370
     9
100
AcDbLine
 10
-250.1740669877216
 20
96.52567082642472
 30
0.0
 11
-250.1740669877216
 21
95.02568861852612
 31
0.0
  0
LINE
  5
FD
330
1F
100
AcDbEntity
  8
仕上
  6
Continuous
 62
     2
370
     9
100
AcDbLine
 10
-250.1740669877216
 20
91.5256971021773
 30
0.0
 11
-250.1740669877216
 21
90.0257148942787
 31
0.0
  0
LINE
  5
FE
330
1F
100
AcDbEntity
  8
仕上
  6
Continuous
 62
     2
370
     9
100
AcDbLine
 10
-250.1740669877216
 20
85.0257411700313
 30
0.0
 11
-251.6740491956201
 21
83.52575896213287
 31
0.0
  0
LINE
  5
FF
330
1F
100
AcDbEntity
  8
仕上
  6
Continuous
 62
     2
370
     9
100
AcDbLine
 10
-250.1740669877216
 20
85.0257411700313
 30
0.0
 11
-250.1740669877216
 21
86.52572337792989
 31
0.0
  0
LINE
  5
100
330
1F
100
AcDbEntity
  8
仕上
  6
Continuous
 62
     2
370
     9
100
AcDbLine
 10
-251.6740491956201
 20
83.52575896213287
 30
0.0
 11
-250.1740669877216
 21
83.52575896213287
 31
0.0
  0
LINE
  5
101
330
1F
100
AcDbEntity
  8
仕上
  6
Continuous
 62
     2
370
     9
100
AcDbLine
 10
-250.1740174408428
 20
83.52575896213287
 30
0.0
 11
-250.1740174408428
 21
76.06142258159784
 31
0.0
  0
LINE
  5
102
330
1F
100
AcDbEntity
  8
仕上
  6
Continuous
 62
     2
370
     9
100
AcDbLine
 10
-144.1740195617557
 20
84.02578606268483
 30
0.0
 11
-141.6739831527532
 21
84.02578606268483
 31
0.0
  0
LINE
  5
103
330
1F
100
AcDbEntity
  8
仕上
  6
Continuous
 62
     2
370
     9
100
AcDbLine
 10
-166.8086688311247
 20
61.55588016522765
 30
0.0
 11
-146.5972087617849
 21
72.06923237154254
 31
0.0
  0
LINE
  5
104
330
1F
100
AcDbEntity
  8
建具
  6
Continuous
 62
     4
370
     9
100
AcDbLine
 10
-140.1738523042183
 20
158.5256621071166
 30
0.0
 11
-140.1738523042183
 21
113.5257004013748
 31
0.0
  0
LINE
  5
105
330
1F
100
AcDbEntity
  8
通り芯
  6
Continuous
 62
     3
370
     9
100
AcDbLine
 10
-157.7202848582498
 20
162.8404520448466
 30
0.0
 11
-236.6275539568336
 21
162.8404520448466
 31
0.0
  0
LINE
  5
106
330
1F
100
AcDbEntity
  8
通り芯
  6
Continuous
 62
     3
370
     9
100
AcDbLine
 10
-162.7077232221683
 20
158.196720378959
 30
0.0
 11
-165.6840537767917
 21
116.5255657234144
 31
0.0
  0
LINE
  5
107
330
1F
100
AcDbEntity
  8
通り芯
  6
Continuous
 62
     3
370
     9
100
AcDbLine
 10
-131.1739590568275
 20
170.525569317183
 30
0.0
 11
-129.0972511800403
 21
170.525569317183
 31
0.0
  0
LINE
  5
108
330
1F
100
AcDbEntity
  8
躯体
  6
Continuous
 62
     6
370
     9
100
AcDbLine
 10
-144.6738980216712
 20
113.5257004013748
 30
0.0
 11
-147.6739615312257
 21
108.5257266771274
 31
0.0
  0
LINE
  5
109
330
1F
100
AcDbEntity
  8
躯体
  6
Continuous
 62
     6
370
     9
100
AcDbLine
 10
-135.173878579971
 20
96.52567082642472
 30
0.0
 11
-138.1739420895255
 21
93.52570641062769
 31
0.0
  0
LINE
  5
10A
330
1F
100
AcDbEntity
  8
躯体
  6
Continuous
 62
     6
370
     9
100
AcDbLine
 10
-138.1739420895255
 20
93.52565686374888
 30
0.0
 11
-138.1739420895255
 21
83.52565986837524
 31
0.0
  0
LINE
  5
10B
330
1F
100
AcDbEntity
  8
躯体
  6
JWW_DASHED1
 62
     6
370
     9
100
AcDbLine
 10
-138.1739420895255
 20
106.5256678217982
 30
0.0
 11
-138.1739420895255
 21
93.52570641062769
 31
0.0
  0
LINE
  5
10C
330
1F
100
AcDbEntity
  8
躯体
  6
JWW_DASHED1
 62
     6
370
     9
100
AcDbLine
 10
-135.173878579971
 20
109.5256817844738
 30
0.0
 11
-138.1739420895255
 21
106.5256678217982
 31
0.0
  0
LINE
  5
10D
330
1F
100
AcDbEntity
  8
躯体
  6
Continuous
 62
     6
370
     9
100
AcDbLine
 10
-139.9238883008211
 20
115.5257097098253
 30
0.0
 11
-139.9238883008211
 21
113.5257004013748
 31
0.0
  0
LINE
  5
10E
330
1F
100
AcDbEntity
  8
躯体
  6
Continuous
 62
     6
370
     9
100
AcDbLine
 10
-135.173878579971
 20
115.5257097098253
 30
0.0
 11
-135.173878579971
 21
96.52567082642472
 31
0.0
  0
LINE
  5
10F
330
1F
100
AcDbEntity
  8
躯体
  6
Continuous
 62
     6
370
     9
100
AcDbLine
 10
-249.6739407934121
 20
113.5257004013748
 30
0.0
 11
-246.6738772838576
 21
108.5257266771274
 31
0.0
  0
LINE
  5
110
330
1F
100
AcDbEntity
  8
躯体
  6
Continuous
 62
     6
370
     9
100
AcDbLine
 10
-259.1739602351124
 20
96.52567082642472
 30
0.0
 11
-256.1738967255579
 21
93.52570641062769
 31
0.0
  0
LINE
  5
111
330
1F
100
AcDbEntity
  8
躯体
  6
Continuous
 62
     6
370
     9
100
AcDbLine
 10
-256.1738967255579
 20
93.52565686374888
 30
0.0
 11
-256.1738967255579
 21
83.52565986837524
 31
0.0
  0
LINE
  5
112
330
1F
100
AcDbEntity
  8
躯体
  6
JWW_DASHED1
 62
     6
370
     9
100
AcDbLine
 10
-256.1738967255579
 20
106.5256678217982
 30
0.0
 11
-256.1738967255579
 21
93.52570641062769
 31
0.0
  0
LINE
  5
113
330
1F
100
AcDbEntity
  8
躯体
  6
JWW_DASHED1
 62
     6
370
     9
100
AcDbLine
 10
-259.1739602351124
 20
109.5256817844738
 30
0.0
 11
-256.1738967255579
 21
106.5256678217982
 31
0.0
  0
LINE
  5
114
330
1F
100
AcDbEntity
  8
躯体
  6
Continuous
 62
     6
370
     9
100
AcDbLine
 10
-254.4239505142621
 20
115.5257097098253
 30
0.0
 11
-254.4239505142621
 21
113.5257004013748
 31
0.0
  0
LINE
  5
115
330
1F
100
AcDbEntity
  8
躯体
  6
Continuous
 62
     6
370
     9
100
AcDbLine
 10
-259.1739602351124
 20
115.5257097098253
 30
0.0
 11
-259.1739602351124
 21
96.52567082642472
 31
0.0
  0
LINE
  5
116
330
1F
100
AcDbEntity
  8
躯体
  6
Continuous
 62
     6
370
     9
100
AcDbLine
 10
-139.9238883008211
 20
113.5257004013748
 30
0.0
 11
-254.4239505142621
 21
113.5257004013748
 31
0.0
  0
LINE
  5
117
330
1F
100
AcDbEntity
  8
躯体
  6
Continuous
 62
     6
370
     9
100
AcDbLine
 10
-141.1739065053224
 20
85.02569162315248
 30
0.0
 11
-143.6739429143249
 21
87.52567848527619
 31
0.0
  0
LINE
  5
118
330
1F
100
AcDbEntity
  8
躯体
  6
Continuous
 62
     6
370
     9
100
AcDbLine
 10
-141.1739065053224
 20
88.52568313950147
 30
0.0
 11
-143.6739429143249
 21
88.52568313950147
 31
0.0
  0
LINE
  5
119
330
1F
100
AcDbEntity
  8
躯体
  6
Continuous
 62
     6
370
     9
100
AcDbLine
 10
-143.6739429143249
 20
88.52568313950147
 30
0.0
 11
-143.6739429143249
 21
87.52567848527619
 31
0.0
  0
LINE
  5
11A
330
1F
100
AcDbEntity
  8
躯体
  6
Continuous
 62
     6
370
     9
100
AcDbLine
 10
-141.1739065053224
 20
93.52565686374888
 30
0.0
 11
-143.6739429143249
 21
93.52565686374888
 31
0.0
  0
LINE
  5
11B
330
1F
100
AcDbEntity
  8
躯体
  6
Continuous
 62
     6
370
     9
100
AcDbLine
 10
-141.1739065053224
 20
90.0256653473999
 30
0.0
 11
-143.6739429143249
 21
92.5256522095236
 31
0.0
  0
LINE
  5
11C
330
1F
100
AcDbEntity
  8
躯体
  6
Continuous
 62
     6
370
     9
100
AcDbLine
 10
-143.6739429143249
 20
93.52565686374888
 30
0.0
 11
-143.6739429143249
 21
92.5256522095236
 31
0.0
  0
LINE
  5
11D
330
1F
100
AcDbEntity
  8
躯体
  6
Continuous
 62
     6
370
     9
100
AcDbLine
 10
-141.1739065053224
 20
95.02558952476849
 30
0.0
 11
-143.6739429143249
 21
97.52567548064982
 31
0.0
  0
LINE
  5
11E
330
1F
100
AcDbEntity
  8
躯体
  6
Continuous
 62
     6
370
     9
100
AcDbLine
 10
-141.1739065053224
 20
98.5256801348751
 30
0.0
 11
-143.6739429143249
 21
98.5256801348751
 31
0.0
  0
LINE
  5
11F
330
1F
100
AcDbEntity
  8
躯体
  6
Continuous
 62
     6
370
     9
100
AcDbLine
 10
-143.6739429143249
 20
98.5256801348751
 30
0.0
 11
-143.6739429143249
 21
97.52567548064982
 31
0.0
  0
LINE
  5
120
330
1F
100
AcDbEntity
  8
躯体
  6
Continuous
 62
     6
370
     9
100
AcDbLine
 10
-141.1739065053224
 20
100.0256623427735
 30
0.0
 11
-143.6739429143249
 21
102.5256492048972
 31
0.0
  0
LINE
  5
121
330
1F
100
AcDbEntity
  8
躯体
  6
Continuous
 62
     6
370
     9
100
AcDbLine
 10
-141.1739065053224
 20
103.5257034060012
 30
0.0
 11
-143.6739429143249
 21
103.5257034060012
 31
0.0
  0
LINE
  5
122
330
1F
100
AcDbEntity
  8
躯体
  6
Continuous
 62
     6
370
     9
100
AcDbLine
 10
-143.6739429143249
 20
103.5257034060012
 30
0.0
 11
-143.6739429143249
 21
102.5256492048972
 31
0.0
  0
LINE
  5
123
330
1F
100
AcDbEntity
  8
躯体
  6
Continuous
 62
     6
370
     9
100
AcDbLine
 10
-141.1739065053224
 20
100.0256623427735
 30
0.0
 11
-141.1739065053224
 21
98.5256801348751
 31
0.0
  0
LINE
  5
124
330
1F
100
AcDbEntity
  8
躯体
  6
Continuous
 62
     6
370
     9
100
AcDbLine
 10
-141.1739065053224
 20
95.02558952476849
 30
0.0
 11
-141.1739065053224
 21
93.52565686374888
 31
0.0
  0
LINE
  5
125
330
1F
100
AcDbEntity
  8
躯体
  6
Continuous
 62
     6
370
     9
100
AcDbLine
 10
-141.1739065053224
 20
90.0256653473999
 30
0.0
 11
-141.1739065053224
 21
88.52568313950147
 31
0.0
  0
LINE
  5
126
330
1F
100
AcDbEntity
  8
躯体
  6
Continuous
 62
     6
370
     9
100
AcDbLine
 10
-141.1739065053224
 20
85.02569162315248
 30
0.0
 11
-141.1739065053224
 21
83.52565986837524
 31
0.0
  0
LINE
  5
127
330
1F
100
AcDbEntity
  8
躯体
  6
Continuous
 62
     6
370
     9
100
AcDbLine
 10
-143.6739429143249
 20
108.5256771302486
 30
0.0
 11
-143.6739429143249
 21
107.5256724760235
 31
0.0
  0
LINE
  5
128
330
1F
100
AcDbEntity
  8
躯体
  6
Continuous
 62
     6
370
     9
100
AcDbLine
 10
-141.1739065053224
 20
105.0256856138998
 30
0.0
 11
-143.6739429143249
 21
107.5256724760235
 31
0.0
  0
LINE
  5
129
330
1F
100
AcDbEntity
  8
躯体
  6
Continuous
 62
     6
370
     9
100
AcDbLine
 10
-141.1739065053224
 20
103.5257034060012
 30
0.0
 11
-141.1739065053224
 21
105.0256856138998
 31
0.0
  0
LINE
  5
12A
330
1F
100
AcDbEntity
  8
躯体
  6
Continuous
 62
     6
370
     9
100
AcDbLine
 10
-253.1739323097611
 20
87.52567848527619
 30
0.0
 11
-250.6738959007585
 21
90.0256653473999
 31
0.0
  0
LINE
  5
12B
330
1F
100
AcDbEntity
  8
躯体
  6
Continuous
 62
     6
370
     9
100
AcDbLine
 10
-253.1739323097611
 20
91.02567000162517
 30
0.0
 11
-250.6738959007585
 21
91.02567000162517
 31
0.0
  0
LINE
  5
12C
330
1F
100
AcDbEntity
  8
躯体
  6
Continuous
 62
     6
370
     9
100
AcDbLine
 10
-250.6738959007585
 20
91.02567000162517
 30
0.0
 11
-250.6738959007585
 21
90.0256653473999
 31
0.0
  0
LINE
  5
12D
330
1F
100
AcDbEntity
  8
躯体
  6
Continuous
 62
     6
370
     9
100
AcDbLine
 10
-253.1739323097611
 20
96.02564372587258
 30
0.0
 11
-250.6738959007585
 21
96.02564372587258
 31
0.0
  0
LINE
  5
12E
330
1F
100
AcDbEntity
  8
躯体
  6
Continuous
 62
     6
370
     9
100
AcDbLine
 10
-253.1739323097611
 20
92.5256522095236
 30
0.0
 11
-250.6738959007585
 21
95.02568861852612
 31
0.0
  0
LINE
  5
12F
330
1F
100
AcDbEntity
  8
躯体
  6
Continuous
 62
     6
370
     9
100
AcDbLine
 10
-250.6738959007585
 20
96.02564372587258
 30
0.0
 11
-250.6738959007585
 21
95.02568861852612
 31
0.0
  0
LINE
  5
130
330
1F
100
AcDbEntity
  8
躯体
  6
Continuous
 62
     6
370
     9
100
AcDbLine
 10
-253.1739323097611
 20
97.52562593377101
 30
0.0
 11
-250.6738959007585
 21
100.0256623427735
 31
0.0
  0
LINE
  5
131
330
1F
100
AcDbEntity
  8
躯体
  6
Continuous
 62
     6
370
     9
100
AcDbLine
 10
-253.1739323097611
 20
101.0256669969988
 30
0.0
 11
-250.6738959007585
 21
101.0256669969988
 31
0.0
  0
LINE
  5
132
330
1F
100
AcDbEntity
  8
躯体
  6
Continuous
 62
     6
370
     9
100
AcDbLine
 10
-250.6738959007585
 20
101.0256669969988
 30
0.0
 11
-250.6738959007585
 21
100.0256623427735
 31
0.0
  0
LINE
  5
133
330
1F
100
AcDbEntity
  8
躯体
  6
Continuous
 62
     6
370
     9
100
AcDbLine
 10
-253.1739323097611
 20
102.5256492048972
 30
0.0
 11
-250.6738959007585
 21
105.0256360670209
 31
0.0
  0
LINE
  5
134
330
1F
100
AcDbEntity
  8
躯体
  6
Continuous
 62
     6
370
     9
100
AcDbLine
 10
-253.1739323097611
 20
106.0256902681249
 30
0.0
 11
-250.6738959007585
 21
106.0256902681249
 31
0.0
  0
LINE
  5
135
330
1F
100
AcDbEntity
  8
躯体
  6
Continuous
 62
     6
370
     9
100
AcDbLine
 10
-250.6738959007585
 20
106.0256902681249
 30
0.0
 11
-250.6738959007585
 21
105.0256360670209
 31
0.0
  0
LINE
  5
136
330
1F
100
AcDbEntity
  8
躯体
  6
Continuous
 62
     6
370
     9
100
AcDbLine
 10
-253.1739323097611
 20
102.5256492048972
 30
0.0
 11
-253.1739323097611
 21
101.0256669969988
 31
0.0
  0
LINE
  5
137
330
1F
100
AcDbEntity
  8
躯体
  6
Continuous
 62
     6
370
     9
100
AcDbLine
 10
-253.1739323097611
 20
97.52562593377101
 30
0.0
 11
-253.1739323097611
 21
96.02564372587258
 31
0.0
  0
LINE
  5
138
330
1F
100
AcDbEntity
  8
躯体
  6
Continuous
 62
     6
370
     9
100
AcDbLine
 10
-253.1739323097611
 20
92.5256522095236
 30
0.0
 11
-253.1739323097611
 21
91.02567000162517
 31
0.0
  0
LINE
  5
139
330
1F
100
AcDbEntity
  8
躯体
  6
Continuous
 62
     6
370
     9
100
AcDbLine
 10
-253.1739323097611
 20
87.52567848527619
 30
0.0
 11
-253.1739323097611
 21
83.52565986837524
 31
0.0
  0
LINE
  5
13A
330
1F
100
AcDbEntity
  8
躯体
  6
Continuous
 62
     6
370
     9
100
AcDbLine
 10
-253.1739323097611
 20
107.5256724760235
 30
0.0
 11
-252.173878108657
 21
108.5256771302486
 31
0.0
  0
LINE
  5
13B
330
1F
100
AcDbEntity
  8
躯体
  6
Continuous
 62
     6
370
     9
100
AcDbLine
 10
-253.1739323097611
 20
106.0256902681249
 30
0.0
 11
-253.1739323097611
 21
107.5256724760235
 31
0.0
  0
LINE
  5
13C
330
1F
100
AcDbEntity
  8
躯体
  6
Continuous
 62
     6
370
     9
100
AcDbLine
 10
-143.6739429143249
 20
108.5257266771274
 30
0.0
 11
-252.1737790148995
 21
108.5257266771274
 31
0.0
  0
LINE
  5
13D
330
1F
100
AcDbEntity
  8
躯体
  6
Continuous
 62
     6
370
     9
100
AcDbLine
 10
-254.1739369639862
 20
115.5257097098253
 30
0.0
 11
-259.1739602351124
 21
115.5257097098253
 31
0.0
  0
LINE
  5
13E
330
1F
100
AcDbEntity
  8
躯体
  6
Continuous
 62
     6
370
     9
100
AcDbLine
 10
-135.173878579971
 20
115.5257097098253
 30
0.0
 11
-140.1739018510971
 21
115.5257097098253
 31
0.0
  0
LINE
  5
13F
330
1F
100
AcDbEntity
  8
躯体
  6
Continuous
 62
     6
370
     9
100
AcDbLine
 10
-138.1739420895255
 20
83.52565986837524
 30
0.0
 11
-144.0152218152961
 21
83.52565986837524
 31
0.0
  0
LINE
  5
140
330
1F
100
AcDbEntity
  8
躯体
  6
Continuous
 62
     6
370
     9
100
AcDbLine
 10
-251.5153009960394
 20
83.52565986837524
 30
0.0
 11
-256.1738967255579
 21
83.52565986837524
 31
0.0
  0
LINE
  5
141
330
1F
100
AcDbEntity
  8
通り芯
  6
JWW_DASHED1
 62
     3
370
     9
100
AcDbLine
 10
-256.0081624160705
 20
160.198166546894
 30
0.0
 11
-263.698928032587
 21
160.7358988221903
 31
0.0
  0
LINE
  5
142
330
1F
100
AcDbEntity
  8
通り芯
  6
JWW_DASHED1
 62
     3
370
     9
100
AcDbLine
 10
-138.3397754927704
 20
160.198166546894
 30
0.0
 11
-130.6491585168902
 21
160.7358988221903
 31
0.0
  0
ARC
  5
143
330
1F
100
AcDbEntity
  8
通り芯
  6
Continuous
 62
     3
370
     9
100
AcDbCircle
 10
-274.4588255076638
 20
182.3861507041468
 30
0.0
 40
3.000000027616052
100
AcDbArc
 50
252.0001525878906
 51
348.7693023681641
  0
ARC
  5
144
330
1F
100
AcDbEntity
  8
通り芯
  6
JWW_DASHED1
 62
     3
370
     9
100
AcDbCircle
 10
-273.7679933769665
 20
171.6470133712749
 30
0.0
 40
3.000000027616052
100
AcDbArc
 50
7.000427246093758
 51
72.00015258789064
  0
ARC
  5
145
330
1F
100
AcDbEntity
  8
通り芯
  6
Continuous
 62
     3
370
     9
100
AcDbCircle
 10
-236.6275539568336
 20
157.8404783205992
 30
0.0
 40
5.000000046026752
100
AcDbArc
 50
4.085220336914063
 51
86.00001525878906
  0
ARC
  5
146
330
1F
100
AcDbEntity
  8
通り芯
  6
Continuous
 62
     3
370
     9
100
AcDbCircle
 10
-257.403650256642
 20
155.0256705907676
 30
0.0
 40
1.500000013808026
100
AcDbArc
 50
270.0
 51
348.6897888183594
  0
ARC
  5
147
330
1F
100
AcDbEntity
  8
通り芯
  6
Continuous
 62
     3
370
     9
100
AcDbCircle
 10
-274.5081246520406
 20
172.9389482352161
 30
0.0
 40
2.000000018410701
100
AcDbArc
 50
6.814697265624997
 51
71.99948120117188
  0
ARC
  5
148
330
1F
100
AcDbEntity
  8
通り芯
  6
Continuous
 62
     3
370
     9
100
AcDbCircle
 10
-240.2580519518641
 20
152.5255846348864
 30
0.0
 40
5.000000046026752
100
AcDbArc
 50
4.085678100585942
 51
90.00000000000001
  0
ARC
  5
149
330
1F
100
AcDbEntity
  8
通り芯
  6
Continuous
 62
     3
370
     9
100
AcDbCircle
 10
-120.5799940787531
 20
171.6470133712749
 30
0.0
 40
3.000000027616052
100
AcDbArc
 50
107.9998474121093
 51
172.9995727539062
  0
ARC
  5
14A
330
1F
100
AcDbEntity
  8
通り芯
  6
JWW_DASHED1
 62
     3
370
     9
100
AcDbCircle
 10
-131.1374430071736
 20
167.7188872754699
 30
0.0
 40
3.000000027616052
100
AcDbArc
 50
273.9998168945312
 51
353.0002746582031
  0
ARC
  5
14B
330
1F
100
AcDbEntity
  8
通り芯
  6
Continuous
 62
     3
370
     9
100
AcDbCircle
 10
-157.7202848582498
 20
157.8404783205992
 30
0.0
 40
5.000000046026752
100
AcDbArc
 50
93.99998474121094
 51
175.9147796630859
  0
ARC
  5
14C
330
1F
100
AcDbEntity
  8
通り芯
  6
Continuous
 62
     3
370
     9
100
AcDbCircle
 10
-154.0898364100982
 20
152.5255846348864
 30
0.0
 40
5.000000046026752
100
AcDbArc
 50
90.0
 51
175.9143218994141
  0
ARC
  5
14D
330
1F
100
AcDbEntity
  8
通り芯
  6
Continuous
 62
     3
370
     9
100
AcDbCircle
 10
-137.5669928245866
 20
169.0255871092845
 30
0.0
 40
1.500000013808026
100
AcDbArc
 50
90.0
 51
162.8500518798828
  0
ARC
  5
14E
330
1F
100
AcDbEntity
  8
通り芯
  6
Continuous
 62
     3
370
     9
100
AcDbCircle
 10
-141.8041923501621
 20
165.4693103386523
 30
0.0
 40
1.500000013808026
100
AcDbArc
 50
273.9998626708984
 51
342.8496398925781
  0
ARC
  5
14F
330
1F
100
AcDbEntity
  8
通り芯
  6
Continuous
 62
     3
370
     9
100
AcDbCircle
 10
-129.0972511800403
 20
172.0256010719604
 30
0.0
 40
1.500000013808026
100
AcDbArc
 50
270.0
 51
353.0003662109375
  0
ARC
  5
150
330
1F
100
AcDbEntity
  8
通り芯
  6
Continuous
 62
     3
370
     9
100
AcDbCircle
 10
-119.8891619480557
 20
182.3861507041468
 30
0.0
 40
3.000000027616052
100
AcDbArc
 50
191.2306976318359
 51
287.9998474121094
  0
ARC
  5
151
330
1F
100
AcDbEntity
  8
通り芯
  6
JWW_DASHED1
 62
     3
370
     9
100
AcDbCircle
 10
-263.2105444485459
 20
167.7188872754699
 30
0.0
 40
3.000000027616052
100
AcDbArc
 50
186.9997253417969
 51
266.0001831054688
  0
ARC
  5
152
330
1F
100
AcDbEntity
  8
通り芯
  6
Continuous
 62
     3
370
     9
100
AcDbCircle
 10
-256.7808955373754
 20
169.0255871092845
 30
0.0
 40
1.500000013808026
100
AcDbArc
 50
17.1499481201172
 51
90.00000000000001
  0
ARC
  5
153
330
1F
100
AcDbEntity
  8
通り芯
  6
Continuous
 62
     3
370
     9
100
AcDbCircle
 10
-252.5437951055576
 20
165.4693103386523
 30
0.0
 40
1.500000013808026
100
AcDbArc
 50
197.1503601074219
 51
266.0001373291016
  0
ARC
  5
154
330
1F
100
AcDbEntity
  8
通り芯
  6
Continuous
 62
     3
370
     9
100
AcDbCircle
 10
-265.2507858225582
 20
172.0256010719604
 30
0.0
 40
1.500000013808026
100
AcDbArc
 50
186.9996337890625
 51
269.9999999999999
  0
ARC
  5
155
330
1F
100
AcDbEntity
  8
通り芯
  6
Continuous
 62
     3
370
     9
100
AcDbCircle
 10
-131.4067302932914
 20
165.5255460460569
 30
0.0
 40
6.999999290267473
100
AcDbArc
 50
270.0
 51
352.9994812011719
  0
ARC
  5
156
330
1F
100
AcDbEntity
  8
通り芯
  6
Continuous
 62
     3
370
     9
100
AcDbCircle
 10
-253.944287180885
 20
157.0255808054605
 30
0.0
 40
1.500000013808026
100
AcDbArc
 50
90.0
 51
168.6897888183594
  0
ARC
  5
157
330
1F
100
AcDbEntity
  8
通り芯
  6
Continuous
 62
     3
370
     9
100
AcDbCircle
 10
-268.8425381583901
 20
155.0256705907676
 30
0.0
 40
1.500000013808026
100
AcDbArc
 50
186.813949584961
 51
270.0
  0
ARC
  5
158
330
1F
100
AcDbEntity
  8
通り芯
  6
Continuous
 62
     3
370
     9
100
AcDbCircle
 10
-270.1738627909536
 20
137.5256634621442
 30
0.0
 40
2.000000018410701
100
AcDbArc
 50
270.0
 51
0.0
  0
ARC
  5
159
330
1F
100
AcDbEntity
  8
通り芯
  6
Continuous
 62
     3
370
     9
100
AcDbCircle
 10
-270.1738627909536
 20
137.5256634621442
 30
0.0
 40
8.000000073642804
100
AcDbArc
 50
270.0
 51
0.0
  0
ARC
  5
15A
330
1F
100
AcDbEntity
  8
通り芯
  6
JWW_CENTER1
 62
     3
370
     9
100
AcDbCircle
 10
-270.1739618847112
 20
137.5256634621442
 30
0.0
 40
5.000000046026752
100
AcDbArc
 50
270.0
 51
0.0
  0
ARC
  5
15B
330
1F
100
AcDbEntity
  8
通り芯
  6
Continuous
 62
     3
370
     9
100
AcDbCircle
 10
-278.5533300223801
 20
164.7901712713449
 30
0.0
 40
11.00000010125886
100
AcDbArc
 50
71.99998474121092
 51
117.7433929443359
  0
ARC
  5
15C
330
1F
100
AcDbEntity
  8
通り芯
  6
Continuous
 62
     3
370
     9
100
AcDbCircle
 10
-115.7946078864608
 20
164.7901712713449
 30
0.0
 40
11.00000010125886
100
AcDbArc
 50
62.25660705566405
 51
108.0003204345703
  0
ARC
  5
15D
330
1F
100
AcDbEntity
  8
通り芯
  6
JWW_DASHED1
 62
     3
370
     9
100
AcDbCircle
 10
-131.1374430071736
 20
167.7188872754699
 30
0.0
 40
6.999999290267473
100
AcDbArc
 50
273.9998168945312
 51
353.0002746582031
  0
ARC
  5
15E
330
1F
100
AcDbEntity
  8
通り芯
  6
JWW_DASHED1
 62
     3
370
     9
100
AcDbCircle
 10
-263.2104949016672
 20
167.7188872754699
 30
0.0
 40
6.999999290267473
100
AcDbArc
 50
186.9997253417969
 51
266.0001831054688
  0
ELLIPSE
  5
15F
330
1F
100
AcDbEntity
  8
0-A
  6
Continuous
 62
     4
370
     9
100
AcDbEllipse
 10
-133.6739459189512
 20
177.5952648083109
 30
0.0
 11
5.24997991990859
 21
0.0
 31
0.0
210
0.0
220
0.0
230
1.0
 40
0.7428
 41
1.666184365454919
 42
3.141592653589793
  0
ELLIPSE
  5
160
330
1F
100
AcDbEntity
  8
0-A
  6
Continuous
 62
     4
370
     9
100
AcDbEllipse
 10
-133.6739459189512
 20
177.5952648083109
 30
0.0
 11
5.24997991990859
 21
0.0
 31
0.0
210
0.0
220
0.0
230
1.0
 40
0.7428
 41
0.0
 42
1.475408021818766
  0
ARC
  5
161
330
1F
100
AcDbEntity
  8
仕上
  6
Continuous
 62
     2
370
     9
100
AcDbCircle
 10
-176.6739478631213
 20
9.525711830738004
 30
0.0
 40
2.000000018410701
100
AcDbArc
 50
270.0
 51
90.0
  0
ARC
  5
162
330
1F
100
AcDbEntity
  8
仕上
  6
Continuous
 62
     2
370
     9
100
AcDbCircle
 10
-177.6739525173466
 20
12.52577534029248
 30
0.0
 40
1.00000000920535
100
AcDbArc
 50
180.0
 51
270.0
  0
ARC
  5
163
330
1F
100
AcDbEntity
  8
仕上
  6
Continuous
 62
     2
370
     9
100
AcDbCircle
 10
-245.6740212702686
 20
76.06142258159784
 30
0.0
 40
4.500000041424078
100
AcDbArc
 50
180.0
 51
242.5179595947266
  0
ARC
  5
164
330
1F
100
AcDbEntity
  8
仕上
  6
Continuous
 62
     2
370
     9
100
AcDbCircle
 10
-226.6162602731003
 20
63.33015389399984
 30
0.0
 40
2.000000018410701
100
AcDbArc
 50
242.5174713134766
 51
270.0
  0
ARC
  5
165
330
1F
100
AcDbEntity
  8
仕上
  6
Continuous
 62
     2
370
     9
100
AcDbCircle
 10
-167.7316280888618
 20
63.33015389399984
 30
0.0
 40
2.000000018410701
100
AcDbArc
 50
270.0
 51
297.4825286865234
  0
ARC
  5
166
330
1F
100
AcDbEntity
  8
仕上
  6
Continuous
 62
     2
370
     9
100
AcDbCircle
 10
-148.6738670916935
 20
76.06142258159784
 30
0.0
 40
4.500000041424078
100
AcDbArc
 50
297.4820404052734
 51
0.48077392578125
  0
ARC
  5
167
330
1F
100
AcDbEntity
  8
仕上
  6
Continuous
 62
     2
370
     9
100
AcDbCircle
 10
-176.6739478631213
 20
59.33013527709872
 30
0.0
 40
2.000000018410701
100
AcDbArc
 50
90.0
 51
180.0
  0
ARC
  5
168
330
1F
100
AcDbEntity
  8
仕上
  6
JWW_DASHED1
 62
     2
370
     9
100
AcDbCircle
 10
-176.6739478631213
 20
59.80588440705324
 30
0.0
 40
2.000000018410701
100
AcDbArc
 50
117.4818878173828
 51
180.0
  0
ARC
  5
169
330
1F
100
AcDbEntity
  8
仕上
  6
Continuous
 62
     2
370
     9
100
AcDbCircle
 10
-148.6739166385723
 20
81.69747913550097
 30
0.0
 40
2.000000018410701
100
AcDbArc
 50
297.4818878173828
 51
0.0000000000000032
  0
ARC
  5
16A
330
1F
100
AcDbEntity
  8
仕上
  6
JWW_DASHED1
 62
     2
370
     9
100
AcDbCircle
 10
-148.6739166385723
 20
81.69747913550097
 30
0.0
 40
4.500000041424078
100
AcDbArc
 50
297.4818878173828
 51
0.0000000000000032
  0
ARC
  5
16B
330
1F
100
AcDbEntity
  8
仕上
  6
Continuous
 62
     2
370
     9
100
AcDbCircle
 10
-176.6739478631213
 20
59.80588440705324
 30
0.0
 40
4.500000041424078
100
AcDbArc
 50
117.4818878173828
 51
180.0
  0
ARC
  5
16C
330
1F
100
AcDbEntity
  8
仕上
  6
Continuous
 62
     2
370
     9
100
AcDbCircle
 10
-217.6739404988408
 20
9.525711830738004
 30
0.0
 40
2.000000018410701
100
AcDbArc
 50
90.0
 51
270.0
  0
ARC
  5
16D
330
1F
100
AcDbEntity
  8
仕上
  6
Continuous
 62
     2
370
     9
100
AcDbCircle
 10
-216.6739358446157
 20
12.52577534029248
 30
0.0
 40
1.00000000920535
100
AcDbArc
 50
270.0
 51
0.0
  0
ARC
  5
16E
330
1F
100
AcDbEntity
  8
仕上
  6
JWW_DASHED1
 62
     2
370
     9
100
AcDbCircle
 10
-217.6739404988408
 20
59.80588440705324
 30
0.0
 40
2.000000018410701
100
AcDbArc
 50
0.0
 51
62.51811218261719
  0
ARC
  5
16F
330
1F
100
AcDbEntity
  8
仕上
  6
Continuous
 62
     2
370
     9
100
AcDbCircle
 10
-217.6739404988408
 20
59.80588440705324
 30
0.0
 40
4.500000041424078
100
AcDbArc
 50
0.0
 51
62.51811218261719
  0
ARC
  5
170
330
1F
100
AcDbEntity
  8
仕上
  6
Continuous
 62
     2
370
     9
100
AcDbCircle
 10
-245.6741203640262
 20
81.69747913550097
 30
0.0
 40
2.000000018410701
100
AcDbArc
 50
180.0
 51
242.5179595947266
  0
ARC
  5
171
330
1F
100
AcDbEntity
  8
仕上
  6
JWW_DASHED1
 62
     2
370
     9
100
AcDbCircle
 10
-245.6741203640262
 20
81.69747913550097
 30
0.0
 40
4.500000041424078
100
AcDbArc
 50
180.0
 51
242.5179595947266
  0
ARC
  5
172
330
1F
100
AcDbEntity
  8
仕上
  6
Continuous
 62
     2
370
     9
100
AcDbCircle
 10
-217.6739404988408
 20
59.33013527709872
 30
0.0
 40
2.000000018410701
100
AcDbArc
 50
0.0
 51
90.0
  0
ARC
  5
173
330
1F
100
AcDbEntity
  8
通り芯
  6
JWW_DASHED1
 62
     3
370
     9
100
AcDbCircle
 10
-256.1476864266883
 20
158.2030376060024
 30
0.0
 40
2.000000018410701
100
AcDbArc
 50
8.779998779296873
 51
85.9996795654297
  0
ARC
  5
174
330
1F
100
AcDbEntity
  8
通り芯
  6
JWW_DASHED1
 62
     3
370
     9
100
AcDbCircle
 10
-138.2002514821526
 20
158.2030376060024
 30
0.0
 40
2.000000018410701
100
AcDbArc
 50
94.00032043457028
 51
171.2200012207031
  0
LINE
  5
175
330
1F
100
AcDbEntity
  8
通り芯
  6
Continuous
 62
     3
370
     9
100
AcDbLine
 10
170.9588058807447
 20
175.5255925883092
 30
0.0
 11
171.9588105349699
 21
183.5255802752324
 31
0.0
  0
LINE
  5
176
330
1F
100
AcDbEntity
  8
通り芯
  6
Continuous
 62
     3
370
     9
100
AcDbLine
 10
227.9588234371891
 20
116.5255657234144
 30
0.0
 11
298.9588566059082
 21
116.5255657234144
 31
0.0
  0
LINE
  5
177
330
1F
100
AcDbEntity
  8
通り芯
  6
Continuous
 62
     3
370
     9
100
AcDbLine
 10
189.1164982781679
 20
181.8018939096851
 30
0.0
 11
189.4588176635934
 21
183.5255802752324
 31
0.0
  0
LINE
  5
178
330
1F
100
AcDbEntity
  8
通り芯
  6
Continuous
 62
     3
370
     9
100
AcDbLine
 10
193.269121281682
 20
176.9263819449091
 30
0.0
 11
172.9588647360739
 21
183.5255802752324
 31
0.0
  0
LINE
  5
179
330
1F
100
AcDbEntity
  8
通り芯
  6
Continuous
 62
     3
370
     9
100
AcDbLine
 10
228.9925199689783
 20
158.1966708320804
 30
0.0
 11
231.9689991642381
 21
116.5255657234144
 31
0.0
  0
LINE
  5
17A
330
1F
100
AcDbEntity
  8
通り芯
  6
Continuous
 62
     3
370
     9
100
AcDbLine
 10
212.9588527175682
 20
157.5255583591338
 30
0.0
 11
211.9587985164642
 21
158.5255630133591
 31
0.0
  0
LINE
  5
17B
330
1F
100
AcDbEntity
  8
通り芯
  6
Continuous
 62
     3
370
     9
100
AcDbLine
 10
220.3747322506657
 20
157.5255583591338
 30
0.0
 11
212.9588527175682
 21
157.5255583591338
 31
0.0
  0
LINE
  5
17C
330
1F
100
AcDbEntity
  8
通り芯
  6
Continuous
 62
     3
370
     9
100
AcDbLine
 10
355.9587750685953
 20
175.5255925883092
 30
0.0
 11
354.9587208674913
 21
183.5255802752324
 31
0.0
  0
LINE
  5
17D
330
1F
100
AcDbEntity
  8
通り芯
  6
Continuous
 62
     3
370
     9
100
AcDbLine
 10
337.8010826711721
 20
181.8018939096851
 30
0.0
 11
337.4588623795042
 21
183.5255802752324
 31
0.0
  0
LINE
  5
17E
330
1F
100
AcDbEntity
  8
通り芯
  6
Continuous
 62
     3
370
     9
100
AcDbLine
 10
313.9587777786504
 20
157.5255583591338
 30
0.0
 11
314.9588319797545
 21
158.5255630133591
 31
0.0
  0
LINE
  5
17F
330
1F
100
AcDbEntity
  8
通り芯
  6
Continuous
 62
     3
370
     9
100
AcDbLine
 10
321.6324001751121
 20
169.4678920960689
 30
0.0
 11
320.26193350832
 21
165.027005351868
 31
0.0
  0
LINE
  5
180
330
1F
100
AcDbEntity
  8
通り芯
  6
Continuous
 62
     3
370
     9
100
AcDbLine
 10
341.6706939031491
 20
179.5329441432682
 30
0.0
 11
353.9587162132661
 21
183.5255802752324
 31
0.0
  0
LINE
  5
181
330
1F
100
AcDbEntity
  8
通り芯
  6
Continuous
 62
     3
370
     9
100
AcDbLine
 10
225.3619228801902
 20
152.8818266932464
 30
0.0
 11
227.9588234371891
 21
116.5255657234144
 31
0.0
  0
LINE
  5
182
330
1F
100
AcDbEntity
  8
通り芯
  6
JWW_DASHED1
 62
     3
370
     9
100
AcDbLine
 10
332.4731581563427
 20
167.3532808570224
 30
0.0
 11
333.0244167295434
 21
171.842822636176
 31
0.0
  0
LINE
  5
183
330
1F
100
AcDbEntity
  8
通り芯
  6
Continuous
 62
     3
370
     9
100
AcDbLine
 10
333.0244167295434
 20
171.842822636176
 30
0.0
 11
334.4588484168285
 21
183.5255802752324
 31
0.0
  0
LINE
  5
184
330
1F
100
AcDbEntity
  8
通り芯
  6
JWW_DASHED1
 62
     3
370
     9
100
AcDbLine
 10
318.9332844072098
 20
163.9729945997828
 30
0.0
 11
329.7047758519191
 21
164.7261567039734
 31
0.0
  0
LINE
  5
185
330
1F
100
AcDbEntity
  8
通り芯
  6
JWW_DASHED1
 62
     3
370
     9
100
AcDbLine
 10
187.7918129273595
 20
174.5001703852748
 30
0.0
 11
186.7427073162727
 21
174.8410529112159
 31
0.0
  0
LINE
  5
186
330
1F
100
AcDbEntity
  8
通り芯
  6
Continuous
 62
     3
370
     9
100
AcDbLine
 10
205.2852798679853
 20
169.4678920960689
 30
0.0
 11
206.6556969878988
 21
165.027005351868
 31
0.0
  0
LINE
  5
187
330
1F
100
AcDbEntity
  8
通り芯
  6
Continuous
 62
     3
370
     9
100
AcDbLine
 10
205.2176483784634
 20
157.3197406247211
 30
0.0
 11
204.6999825890692
 21
154.7314612246284
 31
0.0
  0
LINE
  5
188
330
1F
100
AcDbEntity
  8
通り芯
  6
Continuous
 62
     3
370
     9
100
AcDbLine
 10
206.6884970216448
 20
158.5255630133591
 30
0.0
 11
211.9587985164642
 21
158.5255630133591
 31
0.0
  0
LINE
  5
189
330
1F
100
AcDbEntity
  8
通り芯
  6
Continuous
 62
     3
370
     9
100
AcDbLine
 10
190.3007677745406
 20
154.8475991084665
 30
0.0
 11
188.1105479984902
 21
173.1762777845268
 31
0.0
  0
LINE
  5
18A
330
1F
100
AcDbEntity
  8
通り芯
  6
Continuous
 62
     3
370
     9
100
AcDbLine
 10
184.4589430331034
 20
135.5256541536938
 30
0.0
 11
184.4589430331034
 21
129.5256757752211
 31
0.0
  0
LINE
  5
18B
330
1F
100
AcDbEntity
  8
通り芯
  6
Continuous
 62
     3
370
     9
100
AcDbLine
 10
198.6338591274379
 20
159.7256875109384
 30
0.0
 11
192.2838815973304
 21
159.7256875109384
 31
0.0
  0
LINE
  5
18C
330
1F
100
AcDbEntity
  8
通り芯
  6
Continuous
 62
     3
370
     9
100
AcDbLine
 10
198.6338591274379
 20
159.7256875109384
 30
0.0
 11
197.8187634247842
 21
160.525671415567
 31
0.0
  0
LINE
  5
18D
330
1F
100
AcDbEntity
  8
通り芯
  6
Continuous
 62
     3
370
     9
100
AcDbLine
 10
193.0988782062265
 20
160.525671415567
 30
0.0
 11
192.2838815973304
 21
159.7256875109384
 31
0.0
  0
LINE
  5
18E
330
1F
100
AcDbEntity
  8
通り芯
  6
Continuous
 62
     3
370
     9
100
AcDbLine
 10
197.8187634247842
 20
160.525671415567
 30
0.0
 11
193.0988782062265
 21
160.525671415567
 31
0.0
  0
LINE
  5
18F
330
1F
100
AcDbEntity
  8
通り芯
  6
Continuous
 62
     3
370
     9
100
AcDbLine
 10
190.4589214115762
 20
135.5256541536938
 30
0.0
 11
184.4589430331034
 21
135.5256541536938
 31
0.0
  0
LINE
  5
190
330
1F
100
AcDbEntity
  8
通り芯
  6
Continuous
 62
     3
370
     9
100
AcDbLine
 10
198.458958645378
 20
137.5256634621442
 30
0.0
 11
198.458958645378
 21
150.5256248733147
 31
0.0
  0
LINE
  5
191
330
1F
100
AcDbEntity
  8
通り芯
  6
Continuous
 62
     3
370
     9
100
AcDbLine
 10
190.4589214115762
 20
129.5256757752211
 30
0.0
 11
184.4589430331034
 21
129.5256757752211
 31
0.0
  0
LINE
  5
192
330
1F
100
AcDbEntity
  8
通り芯
  6
Continuous
 62
     3
370
     9
100
AcDbLine
 10
192.4589307200265
 20
137.5256634621442
 30
0.0
 11
192.4589307200265
 21
150.5256248733147
 31
0.0
  0
LINE
  5
193
330
1F
100
AcDbEntity
  8
通り芯
  6
Continuous
 62
     3
370
     9
100
AcDbLine
 10
193.0988782062265
 20
150.5256248733147
 30
0.0
 11
193.0988782062265
 21
161.5256760697924
 31
0.0
  0
LINE
  5
194
330
1F
100
AcDbEntity
  8
通り芯
  6
Continuous
 62
     3
370
     9
100
AcDbLine
 10
197.8187634247842
 20
150.5256248733147
 30
0.0
 11
197.8187634247842
 21
161.5256760697924
 31
0.0
  0
LINE
  5
195
330
1F
100
AcDbEntity
  8
通り芯
  6
Continuous
 62
     3
370
     9
100
AcDbLine
 10
198.6338591274379
 20
150.5256248733147
 30
0.0
 11
198.6338591274379
 21
159.7256875109384
 31
0.0
  0
LINE
  5
196
330
1F
100
AcDbEntity
  8
通り芯
  6
Continuous
 62
     3
370
     9
100
AcDbLine
 10
192.2838815973304
 20
150.5256248733147
 30
0.0
 11
192.2838815973304
 21
159.7256875109384
 31
0.0
  0
LINE
  5
197
330
1F
100
AcDbEntity
  8
通り芯
  6
Continuous
 62
     3
370
     9
100
AcDbLine
 10
198.6338591274379
 20
150.5256248733147
 30
0.0
 11
192.2838815973304
 21
150.5256248733147
 31
0.0
  0
LINE
  5
198
330
1F
100
AcDbEntity
  8
通り芯
  6
JWW_PHANTOM1
 62
     3
370
     9
100
AcDbLine
 10
327.4588158372517
 20
158.5255630133591
 30
0.0
 11
325.4587569819226
 21
153.5255397422329
 31
0.0
  0
LINE
  5
199
330
1F
100
AcDbEntity
  8
通り芯
  6
JWW_PHANTOM1
 62
     3
370
     9
100
AcDbLine
 10
325.4587569819226
 20
153.5255397422329
 30
0.0
 11
322.4588421130043
 21
153.5255397422329
 31
0.0
  0
LINE
  5
19A
330
1F
100
AcDbEntity
  8
通り芯
  6
JWW_PHANTOM1
 62
     3
370
     9
100
AcDbLine
 10
322.4588421130043
 20
153.5255397422329
 30
0.0
 11
321.4587879119003
 21
158.5255630133591
 31
0.0
  0
LINE
  5
19B
330
1F
100
AcDbEntity
  8
通り芯
  6
Continuous
 62
     3
370
     9
100
AcDbLine
 10
171.9588105349699
 20
174.5256374809629
 30
0.0
 11
170.9588058807447
 21
175.5255925883092
 31
0.0
  0
LINE
  5
19C
330
1F
100
AcDbEntity
  8
通り芯
  6
Continuous
 62
     3
370
     9
100
AcDbLine
 10
171.9588105349699
 20
174.5256374809629
 30
0.0
 11
176.9587842592173
 21
174.5256374809629
 31
0.0
  0
LINE
  5
19D
330
1F
100
AcDbEntity
  8
通り芯
  6
Continuous
 62
     3
370
     9
100
AcDbLine
 10
186.7427073162727
 20
174.8410529112159
 30
0.0
 11
185.4786673450794
 21
175.2517965362234
 31
0.0
  0
LINE
  5
19E
330
1F
100
AcDbEntity
  8
通り芯
  6
Continuous
 62
     3
370
     9
100
AcDbLine
 10
354.9588695081277
 20
174.5256374809629
 30
0.0
 11
355.9588741623529
 21
175.5255925883092
 31
0.0
  0
LINE
  5
19F
330
1F
100
AcDbEntity
  8
通り芯
  6
Continuous
 62
     3
370
     9
100
AcDbLine
 10
354.9588695081277
 20
174.5256374809629
 30
0.0
 11
349.9587966901227
 21
174.5256374809629
 31
0.0
  0
LINE
  5
1A0
330
1F
100
AcDbEntity
  8
通り芯
  6
Continuous
 62
     3
370
     9
100
AcDbLine
 10
224.3539907253619
 20
162.828263512669
 30
0.0
 11
207.9843460890088
 21
163.9729945997828
 31
0.0
  0
LINE
  5
1A1
330
1F
100
AcDbEntity
  8
通り芯
  6
JWW_DASHED1
 62
     3
370
     9
100
AcDbLine
 10
207.9843460890088
 20
163.9729450529042
 30
0.0
 11
197.2128546442995
 21
164.7262062508522
 31
0.0
  0
LINE
  5
1A2
330
1F
100
AcDbEntity
  8
通り芯
  6
Continuous
 62
     3
370
     9
100
AcDbLine
 10
193.8932633135542
 20
171.842822636176
 30
0.0
 11
192.4587820793903
 21
183.5255802752324
 31
0.0
  0
LINE
  5
1A3
330
1F
100
AcDbEntity
  8
通り芯
  6
JWW_DASHED1
 62
     3
370
     9
100
AcDbLine
 10
194.4445218867549
 20
167.3532808570224
 30
0.0
 11
193.8932633135542
 21
171.842822636176
 31
0.0
  0
LINE
  5
1A4
330
1F
100
AcDbEntity
  8
通り芯
  6
JWW_DASHED1
 62
     3
370
     9
100
AcDbLine
 10
190.4743800377526
 20
166.8657395699204
 30
0.0
 11
189.8423600521558
 21
172.0126693366012
 31
0.0
  0
LINE
  5
1A5
330
1F
100
AcDbEntity
  8
通り芯
  6
Continuous
 62
     3
370
     9
100
AcDbLine
 10
329.2260539092383
 20
158.5255630133591
 30
0.0
 11
314.9588319797545
 21
158.5255630133591
 31
0.0
  0
LINE
  5
1A6
330
1F
100
AcDbEntity
  8
通り芯
  6
Continuous
 62
     3
370
     9
100
AcDbLine
 10
339.1258175688592
 20
174.5001703852748
 30
0.0
 11
341.4390622448968
 21
175.2517965362234
 31
0.0
  0
LINE
  5
1A7
330
1F
100
AcDbEntity
  8
通り芯
  6
Continuous
 62
     3
370
     9
100
AcDbLine
 10
336.1739631723484
 20
164.6723983405074
 30
0.0
 11
337.0752704440628
 21
172.0126197897224
 31
0.0
  0
LINE
  5
1A8
330
1F
100
AcDbEntity
  8
通り芯
  6
Continuous
 62
     3
370
     9
100
AcDbLine
 10
323.0657913779431
 20
170.525569317183
 30
0.0
 11
324.4588514214548
 21
170.525569317183
 31
0.0
  0
LINE
  5
1A9
330
1F
100
AcDbEntity
  8
通り芯
  6
Continuous
 62
     3
370
     9
100
AcDbLine
 10
203.8518886651543
 20
170.525569317183
 30
0.0
 11
195.3819983799716
 21
170.525569317183
 31
0.0
  0
LINE
  5
1AA
330
1F
100
AcDbEntity
  8
通り芯
  6
JWW_CENTER1
 62
     3
370
     9
100
AcDbLine
 10
190.4588223178185
 20
132.525640191018
 30
0.0
 11
183.7421483379304
 21
132.525640191018
 31
0.0
  0
LINE
  5
1AB
330
1F
100
AcDbEntity
  8
通り芯
  6
Continuous
 62
     3
370
     9
100
AcDbLine
 10
197.8187634247842
 20
153.5255892891117
 30
0.0
 11
203.2291339458878
 21
153.5255892891117
 31
0.0
  0
LINE
  5
1AC
330
1F
100
AcDbEntity
  8
通り芯
  6
Continuous
 62
     3
370
     9
100
AcDbLine
 10
191.7902460441397
 20
153.5255892891117
 30
0.0
 11
193.0988782062265
 21
153.5255892891117
 31
0.0
  0
LINE
  5
1AD
330
1F
100
AcDbEntity
  8
通り芯
  6
Continuous
 62
     3
370
     9
100
AcDbLine
 10
197.8187634247842
 20
161.5256760697924
 30
0.0
 11
193.0988782062265
 21
161.5256760697924
 31
0.0
  0
LINE
  5
1AE
330
1F
100
AcDbEntity
  8
通り芯
  6
Continuous
 62
     3
370
     9
100
AcDbLine
 10
197.8187634247842
 20
161.5256760697924
 30
0.0
 11
195.458796042066
 21
162.8882152359813
 31
0.0
  0
LINE
  5
1AF
330
1F
100
AcDbEntity
  8
通り芯
  6
Continuous
 62
     3
370
     9
100
AcDbLine
 10
193.0988782062265
 20
161.5256760697924
 30
0.0
 11
195.458796042066
 21
162.8882152359813
 31
0.0
  0
LINE
  5
1B0
330
1F
100
AcDbEntity
  8
通り芯
  6
JWW_CENTER1
 62
     3
370
     9
100
AcDbLine
 10
195.458796042066
 20
137.5256634621442
 30
0.0
 11
195.458796042066
 21
163.080853500641
 31
0.0
  0
LINE
  5
1B1
330
1F
100
AcDbEntity
  8
通り芯
  6
Continuous
 62
     3
370
     9
100
AcDbLine
 10
323.9588243209029
 20
163.5255862844852
 30
0.0
 11
329.9588522462543
 21
163.5255862844852
 31
0.0
  0
LINE
  5
1B2
330
1F
100
AcDbEntity
  8
通り芯
  6
Continuous
 62
     3
370
     9
100
AcDbLine
 10
324.4588514214548
 20
162.5255816302599
 30
0.0
 11
329.4588251457023
 21
162.5255816302599
 31
0.0
  0
LINE
  5
1B3
330
1F
100
AcDbEntity
  8
通り芯
  6
Continuous
 62
     3
370
     9
100
AcDbLine
 10
329.4588251457023
 20
162.5255816302599
 30
0.0
 11
326.9588382835786
 21
161.082281051675
 31
0.0
  0
LINE
  5
1B4
330
1F
100
AcDbEntity
  8
通り芯
  6
Continuous
 62
     3
370
     9
100
AcDbLine
 10
324.4588514214548
 20
162.5255816302599
 30
0.0
 11
326.9588382835786
 21
161.082281051675
 31
0.0
  0
LINE
  5
1B5
330
1F
100
AcDbEntity
  8
通り芯
  6
Continuous
 62
     3
370
     9
100
AcDbLine
 10
306.5429477924316
 20
157.5255583591338
 30
0.0
 11
313.9587777786504
 21
157.5255583591338
 31
0.0
  0
LINE
  5
1B6
330
1F
100
AcDbEntity
  8
通り芯
  6
Continuous
 62
     3
370
     9
100
AcDbLine
 10
301.5555589753919
 20
152.8817771463676
 30
0.0
 11
298.9588566059082
 21
116.5255657234144
 31
0.0
  0
LINE
  5
1B7
330
1F
100
AcDbEntity
  8
通り芯
  6
Continuous
 62
     3
370
     9
100
AcDbLine
 10
302.5636893177356
 20
162.828263512669
 30
0.0
 11
318.9332844072098
 21
163.9729945997828
 31
0.0
  0
LINE
  5
1B8
330
1F
100
AcDbEntity
  8
通り芯
  6
Continuous
 62
     3
370
     9
100
AcDbLine
 10
329.9588522462543
 20
166.0952360581602
 30
0.0
 11
329.9588522462543
 21
163.5255862844852
 31
0.0
  0
LINE
  5
1B9
330
1F
100
AcDbEntity
  8
通り芯
  6
Continuous
 62
     3
370
     9
100
AcDbLine
 10
329.4588251457023
 20
165.5952585044871
 30
0.0
 11
329.4588251457023
 21
162.5255816302599
 31
0.0
  0
LINE
  5
1BA
330
1F
100
AcDbEntity
  8
通り芯
  6
Continuous
 62
     3
370
     9
100
AcDbLine
 10
324.4588514214548
 20
165.5952585044871
 30
0.0
 11
324.4588514214548
 21
162.5255816302599
 31
0.0
  0
LINE
  5
1BB
330
1F
100
AcDbEntity
  8
通り芯
  6
Continuous
 62
     3
370
     9
100
AcDbLine
 10
323.9588243209029
 20
166.0951865112814
 30
0.0
 11
323.9588243209029
 21
163.5255862844852
 31
0.0
  0
LINE
  5
1BC
330
1F
100
AcDbEntity
  8
0-A
  6
Continuous
 62
     4
370
     9
100
AcDbLine
 10
326.4586625423902
 20
178.5952199156576
 30
0.0
 11
327.4588158372517
 21
178.5952199156576
 31
0.0
  0
LINE
  5
1BD
330
1F
100
AcDbEntity
  8
0-A
  6
Continuous
 62
     4
370
     9
100
AcDbLine
 10
326.4586625423902
 20
181.4772627599807
 30
0.0
 11
326.4586625423902
 21
178.5952199156576
 31
0.0
  0
LINE
  5
1BE
330
1F
100
AcDbEntity
  8
0-A
  6
Continuous
 62
     4
370
     9
100
AcDbLine
 10
324.4589009683336
 20
165.5952089576083
 30
0.0
 11
329.4587755988235
 21
165.5952089576083
 31
0.0
  0
LINE
  5
1BF
330
1F
100
AcDbEntity
  8
0-A
  6
Continuous
 62
     4
370
     9
100
AcDbLine
 10
323.9588243209029
 20
166.0951865112814
 30
0.0
 11
329.9587531524967
 21
166.0951865112814
 31
0.0
  0
LINE
  5
1C0
330
1F
100
AcDbEntity
  8
0-A
  6
Continuous
 62
     4
370
     9
100
AcDbLine
 10
323.9588243209029
 20
166.0951865112814
 30
0.0
 11
324.4589009683336
 21
165.5952089576083
 31
0.0
  0
LINE
  5
1C1
330
1F
100
AcDbEntity
  8
0-A
  6
Continuous
 62
     4
370
     9
100
AcDbLine
 10
329.9587531524967
 20
166.0951865112814
 30
0.0
 11
329.4587755988235
 21
165.5952089576083
 31
0.0
  0
LINE
  5
1C2
330
1F
100
AcDbEntity
  8
0-A
  6
Continuous
 62
     4
370
     9
100
AcDbLine
 10
329.4587755988235
 20
177.5952648083109
 30
0.0
 11
329.4587755988235
 21
165.5952089576083
 31
0.0
  0
LINE
  5
1C3
330
1F
100
AcDbEntity
  8
0-A
  6
Continuous
 62
     4
370
     9
100
AcDbLine
 10
324.4589009683336
 20
177.5952648083109
 30
0.0
 11
324.4589009683336
 21
165.5952089576083
 31
0.0
  0
LINE
  5
1C4
330
1F
100
AcDbEntity
  8
0-A
  6
Continuous
 62
     4
370
     9
100
AcDbLine
 10
323.9588243209029
 20
177.5952648083109
 30
0.0
 11
323.9588243209029
 21
166.0951865112814
 31
0.0
  0
LINE
  5
1C5
330
1F
100
AcDbEntity
  8
0-A
  6
Continuous
 62
     4
370
     9
100
AcDbLine
 10
327.4588158372517
 20
181.4772132131017
 30
0.0
 11
327.4588158372517
 21
178.5952199156576
 31
0.0
  0
LINE
  5
1C6
330
1F
100
AcDbEntity
  8
0-A
  6
Continuous
 62
     4
370
     9
100
AcDbLine
 10
321.7088510090551
 20
177.5952648083109
 30
0.0
 11
332.208825558102
 21
177.5952648083109
 31
0.0
  0
LINE
  5
1C7
330
1F
100
AcDbEntity
  8
0-A
  6
JWW_CENTER1
 62
     4
370
     9
100
AcDbLine
 10
326.9588382835786
 20
182.7075613067311
 30
0.0
 11
326.9588382835786
 21
160.7396643849769
 31
0.0
  0
LINE
  5
1C8
330
1F
100
AcDbEntity
  8
建具
  6
Continuous
 62
     4
370
     9
100
AcDbLine
 10
206.4588967854223
 20
158.5255630133591
 30
0.0
 11
206.4588967854223
 21
113.5257004013748
 31
0.0
  0
LINE
  5
1C9
330
1F
100
AcDbEntity
  8
建具
  6
Continuous
 62
     4
370
     9
100
AcDbLine
 10
209.9588883017712
 20
158.5255630133591
 30
0.0
 11
209.9588883017712
 21
113.5257004013748
 31
0.0
  0
LINE
  5
1CA
330
1F
100
AcDbEntity
  8
建具
  6
Continuous
 62
     4
370
     9
100
AcDbLine
 10
316.9588412882049
 20
158.5255630133591
 30
0.0
 11
316.9588412882049
 21
113.5257004013748
 31
0.0
  0
LINE
  5
1CB
330
1F
100
AcDbEntity
  8
0-A
  6
Continuous
 62
     4
370
     9
100
AcDbLine
 10
329.9587531524967
 20
177.5952648083109
 30
0.0
 11
329.9587531524967
 21
166.0951865112814
 31
0.0
  0
LINE
  5
1CC
330
1F
100
AcDbEntity
  8
建具
  6
Continuous
 62
     4
370
     9
100
AcDbLine
 10
320.4589318983114
 20
158.5256621071166
 30
0.0
 11
320.4589318983114
 21
113.5257004013748
 31
0.0
  0
LINE
  5
1CD
330
1F
100
AcDbEntity
  8
通り芯
  6
Continuous
 62
     3
370
     9
100
AcDbLine
 10
302.9124993442799
 20
162.8404520448466
 30
0.0
 11
224.0052302456961
 21
162.8404520448466
 31
0.0
  0
LINE
  5
1CE
330
1F
100
AcDbEntity
  8
通り芯
  6
Continuous
 62
     3
370
     9
100
AcDbLine
 10
297.9250609803615
 20
158.196720378959
 30
0.0
 11
294.9487304257381
 21
116.5255657234144
 31
0.0
  0
LINE
  5
1CF
330
1F
100
AcDbEntity
  8
通り芯
  6
Continuous
 62
     3
370
     9
100
AcDbLine
 10
329.4588251457023
 20
170.525569317183
 30
0.0
 11
331.5355330224894
 21
170.525569317183
 31
0.0
  0
LINE
  5
1D0
330
1F
100
AcDbEntity
  8
躯体
  6
Continuous
 62
     6
370
     9
100
AcDbLine
 10
315.9588861808586
 20
113.5257004013748
 30
0.0
 11
312.9588226713041
 21
108.5257266771274
 31
0.0
  0
LINE
  5
1D1
330
1F
100
AcDbEntity
  8
躯体
  6
Continuous
 62
     6
370
     9
100
AcDbLine
 10
325.4589056225588
 20
96.52567082642472
 30
0.0
 11
322.4588421130043
 21
93.52570641062769
 31
0.0
  0
LINE
  5
1D2
330
1F
100
AcDbEntity
  8
躯体
  6
Continuous
 62
     6
370
     9
100
AcDbLine
 10
322.4588421130043
 20
93.52565686374888
 30
0.0
 11
322.4588421130043
 21
83.52565986837524
 31
0.0
  0
LINE
  5
1D3
330
1F
100
AcDbEntity
  8
躯体
  6
JWW_DASHED1
 62
     6
370
     9
100
AcDbLine
 10
322.4588421130043
 20
106.5256678217982
 30
0.0
 11
322.4588421130043
 21
93.52570641062769
 31
0.0
  0
LINE
  5
1D4
330
1F
100
AcDbEntity
  8
躯体
  6
JWW_DASHED1
 62
     6
370
     9
100
AcDbLine
 10
325.4589056225588
 20
109.5256817844738
 30
0.0
 11
322.4588421130043
 21
106.5256678217982
 31
0.0
  0
LINE
  5
1D5
330
1F
100
AcDbEntity
  8
躯体
  6
Continuous
 62
     6
370
     9
100
AcDbLine
 10
320.7088959017086
 20
115.5257097098253
 30
0.0
 11
320.7088959017086
 21
113.5257004013748
 31
0.0
  0
LINE
  5
1D6
330
1F
100
AcDbEntity
  8
躯体
  6
Continuous
 62
     6
370
     9
100
AcDbLine
 10
325.4589056225588
 20
115.5257097098253
 30
0.0
 11
325.4589056225588
 21
96.52567082642472
 31
0.0
  0
LINE
  5
1D7
330
1F
100
AcDbEntity
  8
躯体
  6
Continuous
 62
     6
370
     9
100
AcDbLine
 10
210.9588434091177
 20
113.5257004013748
 30
0.0
 11
213.9589069186722
 21
108.5257266771274
 31
0.0
  0
LINE
  5
1D8
330
1F
100
AcDbEntity
  8
躯体
  6
Continuous
 62
     6
370
     9
100
AcDbLine
 10
201.4588239674174
 20
96.52567082642472
 30
0.0
 11
204.4588874769719
 21
93.52570641062769
 31
0.0
  0
LINE
  5
1D9
330
1F
100
AcDbEntity
  8
躯体
  6
Continuous
 62
     6
370
     9
100
AcDbLine
 10
204.4588874769719
 20
93.52565686374888
 30
0.0
 11
204.4588874769719
 21
83.52565986837524
 31
0.0
  0
LINE
  5
1DA
330
1F
100
AcDbEntity
  8
躯体
  6
JWW_DASHED1
 62
     6
370
     9
100
AcDbLine
 10
204.4588874769719
 20
106.5256678217982
 30
0.0
 11
204.4588874769719
 21
93.52570641062769
 31
0.0
  0
LINE
  5
1DB
330
1F
100
AcDbEntity
  8
躯体
  6
JWW_DASHED1
 62
     6
370
     9
100
AcDbLine
 10
201.4588239674174
 20
109.5256817844738
 30
0.0
 11
204.4588874769719
 21
106.5256678217982
 31
0.0
  0
LINE
  5
1DC
330
1F
100
AcDbEntity
  8
躯体
  6
Continuous
 62
     6
370
     9
100
AcDbLine
 10
206.2088336882676
 20
115.5257097098253
 30
0.0
 11
206.2088336882676
 21
113.5257004013748
 31
0.0
  0
LINE
  5
1DD
330
1F
100
AcDbEntity
  8
躯体
  6
Continuous
 62
     6
370
     9
100
AcDbLine
 10
201.4588239674174
 20
115.5257097098253
 30
0.0
 11
201.4588239674174
 21
96.52567082642472
 31
0.0
  0
LINE
  5
1DE
330
1F
100
AcDbEntity
  8
躯体
  6
Continuous
 62
     6
370
     9
100
AcDbLine
 10
319.4588776972074
 20
85.02569162315248
 30
0.0
 11
316.9588412882049
 21
87.52567848527619
 31
0.0
  0
LINE
  5
1DF
330
1F
100
AcDbEntity
  8
躯体
  6
Continuous
 62
     6
370
     9
100
AcDbLine
 10
319.4588776972074
 20
88.52568313950147
 30
0.0
 11
316.9588412882049
 21
88.52568313950147
 31
0.0
  0
LINE
  5
1E0
330
1F
100
AcDbEntity
  8
躯体
  6
Continuous
 62
     6
370
     9
100
AcDbLine
 10
316.9588412882049
 20
88.52568313950147
 30
0.0
 11
316.9588412882049
 21
87.52567848527619
 31
0.0
  0
LINE
  5
1E1
330
1F
100
AcDbEntity
  8
躯体
  6
Continuous
 62
     6
370
     9
100
AcDbLine
 10
319.4588776972074
 20
93.52565686374888
 30
0.0
 11
316.9588412882049
 21
93.52565686374888
 31
0.0
  0
LINE
  5
1E2
330
1F
100
AcDbEntity
  8
躯体
  6
Continuous
 62
     6
370
     9
100
AcDbLine
 10
319.4588776972074
 20
90.0256653473999
 30
0.0
 11
316.9588412882049
 21
92.5256522095236
 31
0.0
  0
LINE
  5
1E3
330
1F
100
AcDbEntity
  8
躯体
  6
Continuous
 62
     6
370
     9
100
AcDbLine
 10
316.9588412882049
 20
93.52565686374888
 30
0.0
 11
316.9588412882049
 21
92.5256522095236
 31
0.0
  0
LINE
  5
1E4
330
1F
100
AcDbEntity
  8
躯体
  6
Continuous
 62
     6
370
     9
100
AcDbLine
 10
319.4588776972074
 20
95.02558952476849
 30
0.0
 11
316.9588412882049
 21
97.52567548064982
 31
0.0
  0
LINE
  5
1E5
330
1F
100
AcDbEntity
  8
躯体
  6
Continuous
 62
     6
370
     9
100
AcDbLine
 10
319.4588776972074
 20
98.5256801348751
 30
0.0
 11
316.9588412882049
 21
98.5256801348751
 31
0.0
  0
LINE
  5
1E6
330
1F
100
AcDbEntity
  8
躯体
  6
Continuous
 62
     6
370
     9
100
AcDbLine
 10
316.9588412882049
 20
98.5256801348751
 30
0.0
 11
316.9588412882049
 21
97.52567548064982
 31
0.0
  0
LINE
  5
1E7
330
1F
100
AcDbEntity
  8
躯体
  6
Continuous
 62
     6
370
     9
100
AcDbLine
 10
319.4588776972074
 20
100.0256623427735
 30
0.0
 11
316.9588412882049
 21
102.5256492048972
 31
0.0
  0
LINE
  5
1E8
330
1F
100
AcDbEntity
  8
躯体
  6
Continuous
 62
     6
370
     9
100
AcDbLine
 10
319.4588776972074
 20
103.5257034060012
 30
0.0
 11
316.9588412882049
 21
103.5257034060012
 31
0.0
  0
LINE
  5
1E9
330
1F
100
AcDbEntity
  8
躯体
  6
Continuous
 62
     6
370
     9
100
AcDbLine
 10
316.9588412882049
 20
103.5257034060012
 30
0.0
 11
316.9588412882049
 21
102.5256492048972
 31
0.0
  0
LINE
  5
1EA
330
1F
100
AcDbEntity
  8
躯体
  6
Continuous
 62
     6
370
     9
100
AcDbLine
 10
319.4588776972074
 20
100.0256623427735
 30
0.0
 11
319.4588776972074
 21
98.5256801348751
 31
0.0
  0
LINE
  5
1EB
330
1F
100
AcDbEntity
  8
躯体
  6
Continuous
 62
     6
370
     9
100
AcDbLine
 10
319.4588776972074
 20
95.02558952476849
 30
0.0
 11
319.4588776972074
 21
93.52565686374888
 31
0.0
  0
LINE
  5
1EC
330
1F
100
AcDbEntity
  8
躯体
  6
Continuous
 62
     6
370
     9
100
AcDbLine
 10
319.4588776972074
 20
90.0256653473999
 30
0.0
 11
319.4588776972074
 21
88.52568313950147
 31
0.0
  0
LINE
  5
1ED
330
1F
100
AcDbEntity
  8
躯体
  6
Continuous
 62
     6
370
     9
100
AcDbLine
 10
319.4588776972074
 20
85.02569162315248
 30
0.0
 11
319.4588776972074
 21
83.52565986837524
 31
0.0
  0
LINE
  5
1EE
330
1F
100
AcDbEntity
  8
躯体
  6
Continuous
 62
     6
370
     9
100
AcDbLine
 10
316.9588412882049
 20
108.5256771302486
 30
0.0
 11
316.9588412882049
 21
107.5256724760235
 31
0.0
  0
LINE
  5
1EF
330
1F
100
AcDbEntity
  8
躯体
  6
Continuous
 62
     6
370
     9
100
AcDbLine
 10
319.4588776972074
 20
105.0256856138998
 30
0.0
 11
316.9588412882049
 21
107.5256724760235
 31
0.0
  0
LINE
  5
1F0
330
1F
100
AcDbEntity
  8
躯体
  6
Continuous
 62
     6
370
     9
100
AcDbLine
 10
319.4588776972074
 20
103.5257034060012
 30
0.0
 11
319.4588776972074
 21
105.0256856138998
 31
0.0
  0
LINE
  5
1F1
330
1F
100
AcDbEntity
  8
躯体
  6
Continuous
 62
     6
370
     9
100
AcDbLine
 10
207.4588518927687
 20
87.52567848527619
 30
0.0
 11
209.9588883017712
 21
90.0256653473999
 31
0.0
  0
LINE
  5
1F2
330
1F
100
AcDbEntity
  8
躯体
  6
Continuous
 62
     6
370
     9
100
AcDbLine
 10
207.4588518927687
 20
91.02567000162517
 30
0.0
 11
209.9588883017712
 21
91.02567000162517
 31
0.0
  0
LINE
  5
1F3
330
1F
100
AcDbEntity
  8
躯体
  6
Continuous
 62
     6
370
     9
100
AcDbLine
 10
209.9588883017712
 20
91.02567000162517
 30
0.0
 11
209.9588883017712
 21
90.0256653473999
 31
0.0
  0
LINE
  5
1F4
330
1F
100
AcDbEntity
  8
躯体
  6
Continuous
 62
     6
370
     9
100
AcDbLine
 10
207.4588518927687
 20
96.02564372587258
 30
0.0
 11
209.9588883017712
 21
96.02564372587258
 31
0.0
  0
LINE
  5
1F5
330
1F
100
AcDbEntity
  8
躯体
  6
Continuous
 62
     6
370
     9
100
AcDbLine
 10
207.4588518927687
 20
92.5256522095236
 30
0.0
 11
209.9588883017712
 21
95.02568861852612
 31
0.0
  0
LINE
  5
1F6
330
1F
100
AcDbEntity
  8
躯体
  6
Continuous
 62
     6
370
     9
100
AcDbLine
 10
209.9588883017712
 20
96.02564372587258
 30
0.0
 11
209.9588883017712
 21
95.02568861852612
 31
0.0
  0
LINE
  5
1F7
330
1F
100
AcDbEntity
  8
躯体
  6
Continuous
 62
     6
370
     9
100
AcDbLine
 10
207.4588518927687
 20
97.52562593377101
 30
0.0
 11
209.9588883017712
 21
100.0256623427735
 31
0.0
  0
LINE
  5
1F8
330
1F
100
AcDbEntity
  8
躯体
  6
Continuous
 62
     6
370
     9
100
AcDbLine
 10
207.4588518927687
 20
101.0256669969988
 30
0.0
 11
209.9588883017712
 21
101.0256669969988
 31
0.0
  0
LINE
  5
1F9
330
1F
100
AcDbEntity
  8
躯体
  6
Continuous
 62
     6
370
     9
100
AcDbLine
 10
209.9588883017712
 20
101.0256669969988
 30
0.0
 11
209.9588883017712
 21
100.0256623427735
 31
0.0
  0
LINE
  5
1FA
330
1F
100
AcDbEntity
  8
躯体
  6
Continuous
 62
     6
370
     9
100
AcDbLine
 10
207.4588518927687
 20
102.5256492048972
 30
0.0
 11
209.9588883017712
 21
105.0256360670209
 31
0.0
  0
LINE
  5
1FB
330
1F
100
AcDbEntity
  8
躯体
  6
Continuous
 62
     6
370
     9
100
AcDbLine
 10
207.4588518927687
 20
106.0256902681249
 30
0.0
 11
209.9588883017712
 21
106.0256902681249
 31
0.0
  0
LINE
  5
1FC
330
1F
100
AcDbEntity
  8
躯体
  6
Continuous
 62
     6
370
     9
100
AcDbLine
 10
209.9588883017712
 20
106.0256902681249
 30
0.0
 11
209.9588883017712
 21
105.0256360670209
 31
0.0
  0
LINE
  5
1FD
330
1F
100
AcDbEntity
  8
躯体
  6
Continuous
 62
     6
370
     9
100
AcDbLine
 10
207.4588518927687
 20
102.5256492048972
 30
0.0
 11
207.4588518927687
 21
101.0256669969988
 31
0.0
  0
LINE
  5
1FE
330
1F
100
AcDbEntity
  8
躯体
  6
Continuous
 62
     6
370
     9
100
AcDbLine
 10
207.4588518927687
 20
97.52562593377101
 30
0.0
 11
207.4588518927687
 21
96.02564372587258
 31
0.0
  0
LINE
  5
1FF
330
1F
100
AcDbEntity
  8
躯体
  6
Continuous
 62
     6
370
     9
100
AcDbLine
 10
207.4588518927687
 20
92.5256522095236
 30
0.0
 11
207.4588518927687
 21
91.02567000162517
 31
0.0
  0
LINE
  5
200
330
1F
100
AcDbEntity
  8
躯体
  6
Continuous
 62
     6
370
     9
100
AcDbLine
 10
207.4588518927687
 20
87.52567848527619
 30
0.0
 11
207.4588518927687
 21
83.52565986837524
 31
0.0
  0
LINE
  5
201
330
1F
100
AcDbEntity
  8
躯体
  6
Continuous
 62
     6
370
     9
100
AcDbLine
 10
207.4588518927687
 20
107.5256724760235
 30
0.0
 11
208.4589060938728
 21
108.5256771302486
 31
0.0
  0
LINE
  5
202
330
1F
100
AcDbEntity
  8
躯体
  6
Continuous
 62
     6
370
     9
100
AcDbLine
 10
207.4588518927687
 20
106.0256902681249
 30
0.0
 11
207.4588518927687
 21
107.5256724760235
 31
0.0
  0
LINE
  5
203
330
1F
100
AcDbEntity
  8
躯体
  6
Continuous
 62
     6
370
     9
100
AcDbLine
 10
206.4588472385436
 20
115.5257097098253
 30
0.0
 11
201.4588239674174
 21
115.5257097098253
 31
0.0
  0
LINE
  5
204
330
1F
100
AcDbEntity
  8
躯体
  6
Continuous
 62
     6
370
     9
100
AcDbLine
 10
325.4589056225588
 20
115.5257097098253
 30
0.0
 11
320.4588823514326
 21
115.5257097098253
 31
0.0
  0
LINE
  5
205
330
1F
100
AcDbEntity
  8
通り芯
  6
JWW_DASHED1
 62
     3
370
     9
100
AcDbLine
 10
204.6246217864592
 20
160.198166546894
 30
0.0
 11
196.9338561699428
 21
160.7358988221903
 31
0.0
  0
LINE
  5
206
330
1F
100
AcDbEntity
  8
通り芯
  6
JWW_DASHED1
 62
     3
370
     9
100
AcDbLine
 10
322.2930087097594
 20
160.198166546894
 30
0.0
 11
329.9836256856396
 21
160.7358988221903
 31
0.0
  0
ARC
  5
207
330
1F
100
AcDbEntity
  8
通り芯
  6
Continuous
 62
     3
370
     9
100
AcDbCircle
 10
186.1739586948659
 20
182.3861507041468
 30
0.0
 40
3.000000027616052
100
AcDbArc
 50
252.0001525878906
 51
348.7693023681641
  0
ARC
  5
208
330
1F
100
AcDbEntity
  8
通り芯
  6
JWW_DASHED1
 62
     3
370
     9
100
AcDbCircle
 10
186.8647908255632
 20
171.6470133712749
 30
0.0
 40
3.000000027616052
100
AcDbArc
 50
7.000427246093758
 51
72.00015258789064
  0
ARC
  5
209
330
1F
100
AcDbEntity
  8
通り芯
  6
Continuous
 62
     3
370
     9
100
AcDbCircle
 10
224.0052302456961
 20
157.8404783205992
 30
0.0
 40
5.000000046026752
100
AcDbArc
 50
4.085220336914063
 51
86.00001525878906
  0
ARC
  5
20A
330
1F
100
AcDbEntity
  8
通り芯
  6
Continuous
 62
     3
370
     9
100
AcDbCircle
 10
203.2291339458878
 20
155.0256705907676
 30
0.0
 40
1.500000013808026
100
AcDbArc
 50
270.0
 51
348.6897888183594
  0
ARC
  5
20B
330
1F
100
AcDbEntity
  8
通り芯
  6
Continuous
 62
     3
370
     9
100
AcDbCircle
 10
186.1246595504892
 20
172.9389482352161
 30
0.0
 40
2.000000018410701
100
AcDbArc
 50
6.814697265624997
 51
71.99948120117188
  0
ARC
  5
20C
330
1F
100
AcDbEntity
  8
通り芯
  6
Continuous
 62
     3
370
     9
100
AcDbCircle
 10
220.3747322506657
 20
152.5255846348864
 30
0.0
 40
5.000000046026752
100
AcDbArc
 50
4.085678100585942
 51
90.00000000000001
  0
ARC
  5
20D
330
1F
100
AcDbEntity
  8
通り芯
  6
Continuous
 62
     3
370
     9
100
AcDbCircle
 10
340.0527901237767
 20
171.6470133712749
 30
0.0
 40
3.000000027616052
100
AcDbArc
 50
107.9998474121093
 51
172.9995727539062
  0
ARC
  5
20E
330
1F
100
AcDbEntity
  8
通り芯
  6
JWW_DASHED1
 62
     3
370
     9
100
AcDbCircle
 10
329.4953411953562
 20
167.7188872754699
 30
0.0
 40
3.000000027616052
100
AcDbArc
 50
273.9998168945312
 51
353.0002746582031
  0
ARC
  5
20F
330
1F
100
AcDbEntity
  8
通り芯
  6
Continuous
 62
     3
370
     9
100
AcDbCircle
 10
302.9124993442799
 20
157.8404783205992
 30
0.0
 40
5.000000046026752
100
AcDbArc
 50
93.99998474121094
 51
175.9147796630859
  0
ARC
  5
210
330
1F
100
AcDbEntity
  8
通り芯
  6
Continuous
 62
     3
370
     9
100
AcDbCircle
 10
306.5429477924316
 20
152.5255846348864
 30
0.0
 40
5.000000046026752
100
AcDbArc
 50
90.0
 51
175.9143218994141
  0
ARC
  5
211
330
1F
100
AcDbEntity
  8
通り芯
  6
Continuous
 62
     3
370
     9
100
AcDbCircle
 10
323.0657913779431
 20
169.0255871092845
 30
0.0
 40
1.500000013808026
100
AcDbArc
 50
90.0
 51
162.8500518798828
  0
ARC
  5
212
330
1F
100
AcDbEntity
  8
通り芯
  6
Continuous
 62
     3
370
     9
100
AcDbCircle
 10
318.8285918523677
 20
165.4693103386523
 30
0.0
 40
1.500000013808026
100
AcDbArc
 50
273.9998626708984
 51
342.8496398925781
  0
ARC
  5
213
330
1F
100
AcDbEntity
  8
通り芯
  6
Continuous
 62
     3
370
     9
100
AcDbCircle
 10
331.5355330224894
 20
172.0256010719604
 30
0.0
 40
1.500000013808026
100
AcDbArc
 50
270.0
 51
353.0003662109375
  0
ARC
  5
214
330
1F
100
AcDbEntity
  8
通り芯
  6
Continuous
 62
     3
370
     9
100
AcDbCircle
 10
340.7436222544741
 20
182.3861507041468
 30
0.0
 40
3.000000027616052
100
AcDbArc
 50
191.2306976318359
 51
287.9998474121094
  0
ARC
  5
215
330
1F
100
AcDbEntity
  8
通り芯
  6
JWW_DASHED1
 62
     3
370
     9
100
AcDbCircle
 10
197.4222397539838
 20
167.7188872754699
 30
0.0
 40
3.000000027616052
100
AcDbArc
 50
186.9997253417969
 51
266.0001831054688
  0
ARC
  5
216
330
1F
100
AcDbEntity
  8
通り芯
  6
Continuous
 62
     3
370
     9
100
AcDbCircle
 10
203.8518886651543
 20
169.0255871092845
 30
0.0
 40
1.500000013808026
100
AcDbArc
 50
17.1499481201172
 51
90.00000000000001
  0
ARC
  5
217
330
1F
100
AcDbEntity
  8
通り芯
  6
Continuous
 62
     3
370
     9
100
AcDbCircle
 10
208.0889890969721
 20
165.4693103386523
 30
0.0
 40
1.500000013808026
100
AcDbArc
 50
197.1503601074219
 51
266.0001373291016
  0
ARC
  5
218
330
1F
100
AcDbEntity
  8
通り芯
  6
Continuous
 62
     3
370
     9
100
AcDbCircle
 10
195.3819983799716
 20
172.0256010719604
 30
0.0
 40
1.500000013808026
100
AcDbArc
 50
186.9996337890625
 51
269.9999999999999
  0
ARC
  5
219
330
1F
100
AcDbEntity
  8
通り芯
  6
Continuous
 62
     3
370
     9
100
AcDbCircle
 10
329.2260539092383
 20
165.5255460460569
 30
0.0
 40
6.999999290267473
100
AcDbArc
 50
270.0
 51
352.9994812011719
  0
ARC
  5
21A
330
1F
100
AcDbEntity
  8
通り芯
  6
Continuous
 62
     3
370
     9
100
AcDbCircle
 10
206.6884970216448
 20
157.0255808054605
 30
0.0
 40
1.500000013808026
100
AcDbArc
 50
90.0
 51
168.6897888183594
  0
ARC
  5
21B
330
1F
100
AcDbEntity
  8
通り芯
  6
Continuous
 62
     3
370
     9
100
AcDbCircle
 10
191.7902460441397
 20
155.0256705907676
 30
0.0
 40
1.500000013808026
100
AcDbArc
 50
186.813949584961
 51
270.0
  0
ARC
  5
21C
330
1F
100
AcDbEntity
  8
通り芯
  6
Continuous
 62
     3
370
     9
100
AcDbCircle
 10
190.4589214115762
 20
137.5256634621442
 30
0.0
 40
2.000000018410701
100
AcDbArc
 50
270.0
 51
0.0
  0
ARC
  5
21D
330
1F
100
AcDbEntity
  8
通り芯
  6
Continuous
 62
     3
370
     9
100
AcDbCircle
 10
190.4589214115762
 20
137.5256634621442
 30
0.0
 40
8.000000073642804
100
AcDbArc
 50
270.0
 51
0.0
  0
ARC
  5
21E
330
1F
100
AcDbEntity
  8
通り芯
  6
JWW_CENTER1
 62
     3
370
     9
100
AcDbCircle
 10
190.4588223178185
 20
137.5256634621442
 30
0.0
 40
5.000000046026752
100
AcDbArc
 50
270.0
 51
0.0
  0
ARC
  5
21F
330
1F
100
AcDbEntity
  8
通り芯
  6
Continuous
 62
     3
370
     9
100
AcDbCircle
 10
182.0794541801497
 20
164.7901712713449
 30
0.0
 40
11.00000010125886
100
AcDbArc
 50
71.99998474121092
 51
117.7433929443359
  0
ARC
  5
220
330
1F
100
AcDbEntity
  8
通り芯
  6
Continuous
 62
     3
370
     9
100
AcDbCircle
 10
344.8381763160691
 20
164.7901712713449
 30
0.0
 40
11.00000010125886
100
AcDbArc
 50
62.25660705566405
 51
108.0003204345703
  0
ARC
  5
221
330
1F
100
AcDbEntity
  8
通り芯
  6
JWW_DASHED1
 62
     3
370
     9
100
AcDbCircle
 10
329.4953411953562
 20
167.7188872754699
 30
0.0
 40
6.999999290267473
100
AcDbArc
 50
273.9998168945312
 51
353.0002746582031
  0
ARC
  5
222
330
1F
100
AcDbEntity
  8
通り芯
  6
JWW_DASHED1
 62
     3
370
     9
100
AcDbCircle
 10
197.4222893008626
 20
167.7188872754699
 30
0.0
 40
6.999999290267473
100
AcDbArc
 50
186.9997253417969
 51
266.0001831054688
  0
ELLIPSE
  5
223
330
1F
100
AcDbEntity
  8
0-A
  6
Continuous
 62
     4
370
     9
100
AcDbEllipse
 10
326.9588382835786
 20
177.5952648083109
 30
0.0
 11
5.24997991990859
 21
0.0
 31
0.0
210
0.0
220
0.0
230
1.0
 40
0.7428
 41
1.666184365454919
 42
3.141592653589793
  0
ELLIPSE
  5
224
330
1F
100
AcDbEntity
  8
0-A
  6
Continuous
 62
     4
370
     9
100
AcDbEllipse
 10
326.9588382835786
 20
177.5952648083109
 30
0.0
 11
5.24997991990859
 21
0.0
 31
0.0
210
0.0
220
0.0
230
1.0
 40
0.7428
 41
0.0
 42
1.475408021818766
  0
ARC
  5
225
330
1F
100
AcDbEntity
  8
通り芯
  6
JWW_DASHED1
 62
     3
370
     9
100
AcDbCircle
 10
204.4850977758415
 20
158.2030376060024
 30
0.0
 40
2.000000018410701
100
AcDbArc
 50
8.779998779296873
 51
85.9996795654297
  0
ARC
  5
226
330
1F
100
AcDbEntity
  8
通り芯
  6
JWW_DASHED1
 62
     3
370
     9
100
AcDbCircle
 10
322.4325327203771
 20
158.2030376060024
 30
0.0
 40
2.000000018410701
100
AcDbArc
 50
94.00032043457028
 51
171.2200012207031
  0
LINE
  5
227
330
1F
100
AcDbEntity
  8
通り芯
  6
Continuous
 62
     4
370
     9
100
AcDbLine
 10
224.4587856142448
 20
155.4101138137484
 30
0.0
 11
218.9588911885691
 21
155.4101138137484
 31
0.0
  0
LINE
  5
228
330
1F
100
AcDbEntity
  8
通り芯
  6
Continuous
 62
     4
370
     9
100
AcDbLine
 10
302.4589439757314
 20
155.4101138137484
 30
0.0
 11
307.9588878893715
 21
155.4101138137484
 31
0.0
  0
LINE
  5
229
330
1F
100
AcDbEntity
  8
躯体
  6
Continuous
 62
     6
370
     9
100
AcDbLine
 10
320.7088959017086
 20
113.5257004013748
 30
0.0
 11
307.9588878893715
 21
113.5257004013748
 31
0.0
  0
LINE
  5
22A
330
1F
100
AcDbEntity
  8
躯体
  6
Continuous
 62
     6
370
     9
100
AcDbLine
 10
218.9588911885691
 20
113.5257004013748
 30
0.0
 11
206.2088336882676
 21
113.5257004013748
 31
0.0
  0
LINE
  5
22B
330
1F
100
AcDbEntity
  8
躯体
  6
Continuous
 62
     6
370
     9
100
AcDbLine
 10
322.4588421130043
 20
83.52565986837524
 30
0.0
 11
307.9588878893715
 21
83.52565986837524
 31
0.0
  0
LINE
  5
22C
330
1F
100
AcDbEntity
  8
躯体
  6
Continuous
 62
     6
370
     9
100
AcDbLine
 10
218.9588911885691
 20
83.52565986837524
 30
0.0
 11
204.4588874769719
 21
83.52565986837524
 31
0.0
  0
LINE
  5
22D
330
1F
100
AcDbEntity
  8
躯体
  6
Continuous
 62
     6
370
     9
100
AcDbLine
 10
316.9588412882049
 20
108.5257266771274
 30
0.0
 11
307.9588878893715
 21
108.5257266771274
 31
0.0
  0
LINE
  5
22E
330
1F
100
AcDbEntity
  8
躯体
  6
Continuous
 62
     6
370
     9
100
AcDbLine
 10
218.9588911885691
 20
108.5257266771274
 30
0.0
 11
208.4590051876303
 21
108.5257266771274
 31
0.0
  0
LINE
  5
22F
330
1F
100
AcDbEntity
  8
通り芯
  6
Continuous
 62
     6
370
     9
100
AcDbLine
 10
315.9815055093019
 20
173.2579991456061
 30
0.0
 11
309.959018178221
 21
240.5255046882581
 31
0.0
  0
LINE
  5
230
330
1F
100
AcDbEntity
  8
通り芯
  6
Continuous
 62
     6
370
     9
100
AcDbLine
 10
331.9589422966753
 20
176.0254650978865
 30
0.0
 11
330.9590379734068
 21
170.525496440264
 31
0.0
  0
LINE
  5
231
330
1F
100
AcDbEntity
  8
通り芯
  6
JWW_DASHED1
 62
     6
370
     9
100
AcDbLine
 10
316.4114569451128
 20
224.525550877025
 30
0.0
 11
311.3019730715909
 21
225.5254799442758
 31
0.0
  0
LINE
  5
232
330
1F
100
AcDbEntity
  8
通り芯
  6
Continuous
 62
     6
370
     9
100
AcDbLine
 10
210.5064210498425
 20
224.525550877025
 30
0.0
 11
215.615954411329
 21
225.5254799442758
 31
0.0
  0
LINE
  5
233
330
1F
100
AcDbEntity
  8
通り芯
  6
Continuous
 62
     6
370
     9
100
AcDbLine
 10
330.9590379734068
 20
177.0708983485199
 30
0.0
 11
331.9589422966753
 21
176.0254650978865
 31
0.0
  0
LINE
  5
234
330
1F
100
AcDbEntity
  8
通り芯
  6
Continuous
 62
     6
370
     9
100
AcDbLine
 10
323.2089752886516
 20
176.4143910111044
 30
0.0
 11
321.7089455958729
 21
170.525496440264
 31
0.0
  0
LINE
  5
235
330
1F
100
AcDbEntity
  8
通り芯
  6
Continuous
 62
     6
370
     9
100
AcDbLine
 10
329.959034674209
 20
170.525496440264
 30
0.0
 11
330.9590379734068
 21
170.525496440264
 31
0.0
  0
LINE
  5
236
330
1F
100
AcDbEntity
  8
通り芯
  6
Continuous
 62
     6
370
     9
100
AcDbLine
 10
321.7089455958729
 20
177.5951985887015
 30
0.0
 11
332.2089060055013
 21
177.5951985887015
 31
0.0
  0
LINE
  5
237
330
1F
100
AcDbEntity
  8
通り芯
  6
Continuous
 62
     6
370
     9
100
AcDbLine
 10
326.458899407106
 20
178.5951523999346
 30
0.0
 11
327.4589521942682
 21
178.5951523999346
 31
0.0
  0
LINE
  5
238
330
1F
100
AcDbEntity
  8
通り芯
  6
Continuous
 62
     6
370
     9
100
AcDbLine
 10
327.4589521942682
 20
181.4771335021306
 30
0.0
 11
327.4589521942682
 21
178.5951523999346
 31
0.0
  0
LINE
  5
239
330
1F
100
AcDbEntity
  8
通り芯
  6
Continuous
 62
     6
370
     9
100
AcDbLine
 10
326.458899407106
 20
181.4771335021306
 30
0.0
 11
326.458899407106
 21
178.5951523999346
 31
0.0
  0
LINE
  5
23A
330
1F
100
AcDbEntity
  8
通り芯
  6
Continuous
 62
     6
370
     9
100
AcDbLine
 10
324.4589917846397
 20
165.5951095103653
 30
0.0
 11
329.4589587926634
 21
165.5951095103653
 31
0.0
  0
LINE
  5
23B
330
1F
100
AcDbEntity
  8
通り芯
  6
Continuous
 62
     6
370
     9
100
AcDbLine
 10
323.9589653910587
 20
166.0952101358932
 30
0.0
 11
329.959034674209
 21
166.0952101358932
 31
0.0
  0
LINE
  5
23C
330
1F
100
AcDbEntity
  8
通り芯
  6
Continuous
 62
     6
370
     9
100
AcDbLine
 10
323.9589653910587
 20
166.0952101358932
 30
0.0
 11
324.4589917846397
 21
165.5951095103653
 31
0.0
  0
LINE
  5
23D
330
1F
100
AcDbEntity
  8
通り芯
  6
Continuous
 62
     6
370
     9
100
AcDbLine
 10
329.959034674209
 20
166.0952101358932
 30
0.0
 11
329.4589587926634
 21
165.5951095103653
 31
0.0
  0
LINE
  5
23E
330
1F
100
AcDbEntity
  8
通り芯
  6
Continuous
 62
     6
370
     9
100
AcDbLine
 10
329.959034674209
 20
177.5951985887015
 30
0.0
 11
329.959034674209
 21
166.0952101358932
 31
0.0
  0
LINE
  5
23F
330
1F
100
AcDbEntity
  8
通り芯
  6
Continuous
 62
     6
370
     9
100
AcDbLine
 10
329.4589587926634
 20
177.5951985887015
 30
0.0
 11
329.4589587926634
 21
165.5951095103653
 31
0.0
  0
LINE
  5
240
330
1F
100
AcDbEntity
  8
通り芯
  6
Continuous
 62
     6
370
     9
100
AcDbLine
 10
324.4589917846397
 20
177.5951985887015
 30
0.0
 11
324.4589917846397
 21
165.5951095103653
 31
0.0
  0
LINE
  5
241
330
1F
100
AcDbEntity
  8
通り芯
  6
Continuous
 62
     6
370
     9
100
AcDbLine
 10
323.9589653910587
 20
177.5951985887015
 30
0.0
 11
323.9589653910587
 21
166.0952101358932
 31
0.0
  0
LINE
  5
242
330
1F
100
AcDbEntity
  8
通り芯
  6
Continuous
 62
     6
370
     9
100
AcDbLine
 10
322.456213860231
 20
176.4479191070714
 30
0.0
 11
323.9589653910587
 21
176.3810856109777
 31
0.0
  0
LINE
  5
243
330
1F
100
AcDbEntity
  8
通り芯
  6
Continuous
 62
     6
370
     9
100
AcDbLine
 10
322.3662942286854
 20
177.4528464587395
 30
0.0
 11
323.9589653910587
 21
177.3820044375191
 31
0.0
  0
LINE
  5
244
330
1F
100
AcDbEntity
  8
通り芯
  6
Continuous
 62
     6
370
     9
100
AcDbLine
 10
329.959034674209
 20
176.114345482177
 30
0.0
 11
331.9589422966753
 21
176.0254650978865
 31
0.0
  0
LINE
  5
245
330
1F
100
AcDbEntity
  8
通り芯
  6
Continuous
 62
     6
370
     9
100
AcDbLine
 10
329.959034674209
 20
177.1153632846474
 30
0.0
 11
330.9590379734068
 21
177.0708983485199
 31
0.0
  0
LINE
  5
246
330
1F
100
AcDbEntity
  8
通り芯
  6
Continuous
 62
     6
370
     9
100
AcDbLine
 10
206.3155822618358
 20
228.7018649474431
 30
0.0
 11
207.2518945506872
 21
239.1599832830639
 31
0.0
  0
LINE
  5
247
330
1F
100
AcDbEntity
  8
通り芯
  6
Continuous
 62
     6
370
     9
100
AcDbLine
 10
205.7431549761517
 20
233.5220669243223
 30
0.0
 11
205.8323817761939
 21
234.5181111863578
 31
0.0
  0
LINE
  5
248
330
1F
100
AcDbEntity
  8
通り芯
  6
Continuous
 62
     6
370
     9
100
AcDbLine
 10
202.9618818817682
 20
234.7751764180934
 30
0.0
 11
205.8323817761939
 21
234.5181111863578
 31
0.0
  0
LINE
  5
249
330
1F
100
AcDbEntity
  8
通り芯
  6
Continuous
 62
     6
370
     9
100
AcDbLine
 10
202.8727045696905
 20
233.7790826680934
 30
0.0
 11
205.7431549761517
 21
233.5220669243223
 31
0.0
  0
LINE
  5
24A
330
1F
100
AcDbEntity
  8
通り芯
  6
Continuous
 62
     6
370
     9
100
AcDbLine
 10
218.5131283186347
 20
230.3707723191703
 30
0.0
 11
218.9589653910588
 21
235.350845165454
 31
0.0
  0
LINE
  5
24B
330
1F
100
AcDbEntity
  8
通り芯
  6
Continuous
 62
     6
370
     9
100
AcDbLine
 10
217.9704432996313
 20
229.9173635881736
 30
0.0
 11
218.5054081961685
 21
235.8934064645461
 31
0.0
  0
LINE
  5
24C
330
1F
100
AcDbEntity
  8
通り芯
  6
Continuous
 62
     6
370
     9
100
AcDbLine
 10
217.9704432996313
 20
229.9173635881736
 30
0.0
 11
218.5131283186347
 21
230.3707723191703
 31
0.0
  0
LINE
  5
24D
330
1F
100
AcDbEntity
  8
通り芯
  6
Continuous
 62
     6
370
     9
100
AcDbLine
 10
218.5054081961685
 20
235.8934064645461
 30
0.0
 11
218.9589653910588
 21
235.350845165454
 31
0.0
  0
LINE
  5
24E
330
1F
100
AcDbEntity
  8
通り芯
  6
Continuous
 62
     6
370
     9
100
AcDbLine
 10
207.0512703424945
 20
236.918970297422
 30
0.0
 11
218.5054081961685
 21
235.8934064645461
 31
0.0
  0
LINE
  5
24F
330
1F
100
AcDbEntity
  8
通り芯
  6
Continuous
 62
     6
370
     9
100
AcDbLine
 10
207.0066321984912
 20
236.420923422422
 30
0.0
 11
218.9589653910588
 21
235.350845165454
 31
0.0
  0
LINE
  5
250
330
1F
100
AcDbEntity
  8
通り芯
  6
Continuous
 62
     6
370
     9
100
AcDbLine
 10
206.5608446140317
 20
231.4409990400317
 30
0.0
 11
218.5131283186347
 21
230.3707723191703
 31
0.0
  0
LINE
  5
251
330
1F
100
AcDbEntity
  8
通り芯
  6
Continuous
 62
     6
370
     9
100
AcDbLine
 10
206.5163054459574
 20
230.942877933085
 30
0.0
 11
217.9704432996313
 21
229.9173635881736
 31
0.0
  0
LINE
  5
252
330
1F
100
AcDbEntity
  8
通り芯
  6
JWW_CENTER1
 62
     6
370
     9
100
AcDbLine
 10
200.903380509302
 20
234.4574141978653
 30
0.0
 11
220.948084637258
 21
232.6627331642928
 31
0.0
  0
LINE
  5
253
330
1F
100
AcDbEntity
  8
通り芯
  6
Continuous
 62
     6
370
     9
100
AcDbLine
 10
320.5530057204506
 20
178.2674678428189
 30
0.0
 11
314.9789783239134
 21
240.5255046882581
 31
0.0
  0
LINE
  5
254
330
1F
100
AcDbEntity
  8
通り芯
  6
Continuous
 62
     6
370
     9
100
AcDbLine
 10
211.9388996710419
 20
240.5255046882581
 30
0.0
 11
218.9589653910588
 21
240.5255046882581
 31
0.0
  0
LINE
  5
255
330
1F
100
AcDbEntity
  8
通り芯
  6
Continuous
 62
     6
370
     9
100
AcDbLine
 10
307.9589620918612
 20
240.5255046882581
 30
0.0
 11
314.9789783239134
 21
240.5255046882581
 31
0.0
  0
LINE
  5
256
330
1F
100
AcDbEntity
  8
通り芯
  6
Continuous
 62
     3
370
     9
100
AcDbLine
 10
323.0658560952394
 20
170.525496440264
 30
0.0
 11
324.4589917846397
 21
170.525496440264
 31
0.0
  0
ARC
  5
257
330
1F
100
AcDbEntity
  8
通り芯
  6
Continuous
 62
     4
370
     9
100
AcDbCircle
 10
285.708826824758
 20
289.9192936187902
 30
0.0
 40
38.86146029910526
100
AcDbArc
 50
55.07202148437498
 51
124.927978515625
  0
ARC
  5
258
330
1F
100
AcDbEntity
  8
通り芯
  6
Continuous
 62
     4
370
     9
100
AcDbCircle
 10
241.2088037303746
 20
353.6422237021939
 30
0.0
 40
38.86153143805426
100
AcDbArc
 50
235.0720062255859
 51
304.9279937744141
  0
ARC
  5
259
330
1F
100
AcDbEntity
  8
通り芯
  6
Continuous
 62
     4
370
     9
100
AcDbCircle
 10
241.2088037303746
 20
289.9192441308256
 30
0.0
 40
38.86153143805426
100
AcDbArc
 50
55.07200622558593
 51
124.9279937744141
  0
ARC
  5
25A
330
1F
100
AcDbEntity
  8
通り芯
  6
Continuous
 62
     6
370
     9
100
AcDbCircle
 10
322.5449952685925
 20
178.4458719549388
 30
0.0
 40
2.000000025774982
100
AcDbArc
 50
185.115966796875
 51
267.4557647705079
  0
ARC
  5
25B
330
1F
100
AcDbEntity
  8
通り芯
  6
Continuous
 62
     6
370
     9
100
AcDbCircle
 10
318.9695393194793
 20
173.5255558258214
 30
0.0
 40
3.000000038662472
100
AcDbArc
 50
185.1162567138672
 51
270.0
  0
ARC
  5
25C
330
1F
100
AcDbEntity
  8
通り芯
  6
Continuous
 62
     6
370
     9
100
AcDbCircle
 10
322.4550261490824
 20
179.4507745626247
 30
0.0
 40
2.000000025774982
100
AcDbArc
 50
185.115966796875
 51
267.4557647705079
  0
ELLIPSE
  5
25D
330
1F
100
AcDbEntity
  8
通り芯
  6
Continuous
 62
     6
370
     9
100
AcDbEllipse
 10
326.9588763127226
 20
177.5951985887015
 30
0.0
 11
5.249980204814189
 21
0.0
 31
0.0
210
0.0
220
0.0
230
1.0
 40
0.7428
 41
0.0
 42
1.475408288134874
  0
ELLIPSE
  5
25E
330
1F
100
AcDbEntity
  8
通り芯
  6
Continuous
 62
     6
370
     9
100
AcDbEllipse
 10
326.9588763127226
 20
177.5951985887015
 30
0.0
 11
5.249980204814189
 21
0.0
 31
0.0
210
0.0
220
0.0
230
1.0
 40
0.7428
 41
1.666184365454919
 42
3.141592653589793
  0
ELLIPSE
  5
25F
330
1F
100
AcDbEntity
  8
通り芯
  6
Continuous
 62
     6
370
     9
100
AcDbEllipse
 10
206.7838373821905
 20
233.9310354631736
 30
0.0
 11
0.4681922948720544
 21
5.229061878192232
 31
0.0
210
0.0
220
0.0
230
1.0
 40
0.7428000000000001
 41
0.0
 42
1.475408288134874
  0
ELLIPSE
  5
260
330
1F
100
AcDbEntity
  8
通り芯
  6
Continuous
 62
     6
370
     9
100
AcDbEllipse
 10
206.7838373821905
 20
233.9310354631736
 30
0.0
 11
0.4681922948720544
 21
5.229061878192232
 31
0.0
210
0.0
220
0.0
230
1.0
 40
0.7428000000000001
 41
1.666184365454919
 42
3.141592653589793
  0
LINE
  5
261
330
1F
100
AcDbEntity
  8
通り芯
  6
Continuous
 62
     4
370
     9
100
AcDbLine
 10
218.9589653910588
 20
203.8643850725486
 30
0.0
 11
307.9589620918612
 21
203.8643850725486
 31
0.0
  0
LINE
  5
262
330
1F
100
AcDbEntity
  8
通り芯
  6
Continuous
 62
     4
370
     9
100
AcDbLine
 10
307.9589620918612
 20
321.7807339165097
 30
0.0
 11
307.9589620918612
 21
203.8643850725486
 31
0.0
  0
LINE
  5
263
330
1F
100
AcDbEntity
  8
通り芯
  6
Continuous
 62
     4
370
     9
100
AcDbLine
 10
218.9589653910588
 20
321.7807339165097
 30
0.0
 11
218.9589653910588
 21
203.8643850725486
 31
0.0
  0
LINE
  5
264
330
1F
100
AcDbEntity
  8
通り芯
  6
JWW_CENTER1
 62
     6
370
     9
100
AcDbLine
 10
326.9588763127226
 20
183.7275986889971
 30
0.0
 11
326.9588763127226
 21
162.7858509720419
 31
0.0
  0
LINE
  5
265
330
1F
100
AcDbEntity
  8
通り芯
  6
Continuous
 62
     6
370
     9
100
AcDbLine
 10
204.4617136226888
 20
176.4479191070714
 30
0.0
 11
194.9589851862445
 21
176.0254650978865
 31
0.0
  0
ARC
  5
266
330
1F
100
AcDbEntity
  8
通り芯
  6
Continuous
 62
     6
370
     9
100
AcDbCircle
 10
204.3728827263628
 20
178.4458719549388
 30
0.0
 40
2.000000025774982
100
AcDbArc
 50
272.5442352294922
 51
354.884033203125
  0
LINE
  5
267
330
1F
100
AcDbEntity
  8
通り芯
  6
Continuous
 62
     6
370
     9
100
AcDbLine
 10
194.9589851862445
 20
176.0254650978865
 30
0.0
 11
195.9589389974777
 21
170.525496440264
 31
0.0
  0
ARC
  5
268
330
1F
100
AcDbEntity
  8
通り芯
  6
Continuous
 62
     6
370
     9
100
AcDbCircle
 10
203.8427676503493
 20
172.525478294677
 30
0.0
 40
2.000000025774982
100
AcDbArc
 50
270.0
 51
354.884033203125
  0
ARC
  5
269
330
1F
100
AcDbEntity
  8
通り芯
  6
Continuous
 62
     6
370
     9
100
AcDbCircle
 10
207.9483881634405
 20
173.5255558258214
 30
0.0
 40
3.000000038662472
100
AcDbArc
 50
270.0
 51
354.8837432861328
  0
LINE
  5
26A
330
1F
100
AcDbEntity
  8
通り芯
  6
Continuous
 62
     3
370
     9
100
AcDbLine
 10
171.9588105349699
 20
183.5255802752324
 30
0.0
 11
206.8355959745055
 21
183.5255802752324
 31
0.0
  0
LINE
  5
26B
330
1F
100
AcDbEntity
  8
通り芯
  6
Continuous
 62
     3
370
     9
100
AcDbLine
 10
320.0822413944711
 20
183.5255802752324
 30
0.0
 11
354.9587208674913
 21
183.5255802752324
 31
0.0
  0
LINE
  5
26C
330
1F
100
AcDbEntity
  8
0-C
  6
Continuous
 62
     4
370
     9
100
AcDbLine
 10
-216.6740101649337
 20
56.52585625900589
 30
0.0
 11
-221.5776152099725
 21
56.52585625900589
 31
0.0
  0
LINE
  5
26D
330
1F
100
AcDbEntity
  8
0-C
  6
Continuous
 62
     4
370
     9
100
AcDbLine
 10
-215.8852238549072
 20
43.10358202663492
 30
0.0
 11
-216.6740597118125
 21
41.52586076594552
 31
0.0
  0
LINE
  5
26E
330
1F
100
AcDbEntity
  8
0-C
  6
Continuous
 62
     4
370
     9
100
AcDbLine
 10
-216.8398435681786
 20
45.62418039032716
 30
0.0
 11
-221.5776152099725
 21
56.52585625900589
 31
0.0
  0
LINE
  5
26F
330
1F
100
AcDbEntity
  8
0-C
  6
Continuous
 62
     4
370
     9
100
AcDbLine
 10
-216.6741092586913
 20
44.23404361266292
 30
0.0
 11
-216.6741092586913
 21
44.82702065778839
 31
0.0
  0
LINE
  5
270
330
1F
100
AcDbEntity
  8
0-C
  6
Continuous
 62
     4
370
     9
100
AcDbLine
 10
-217.1213193864739
 20
42.86744160241467
 30
0.0
 11
-216.8852285091324
 21
43.33967290397643
 31
0.0
  0
LINE
  5
271
330
1F
100
AcDbEntity
  8
0-C
  6
Continuous
 62
     4
370
     9
100
AcDbLine
 10
-215.8852238549072
 20
35.60357189338506
 30
0.0
 11
-216.6740597118125
 21
34.02585063269566
 31
0.0
  0
LINE
  5
272
330
1F
100
AcDbEntity
  8
0-C
  6
Continuous
 62
     4
370
     9
100
AcDbLine
 10
-216.8852285091324
 20
39.712073401354
 30
0.0
 11
-217.1213193864739
 21
40.18427992947638
 31
0.0
  0
LINE
  5
273
330
1F
100
AcDbEntity
  8
0-C
  6
Continuous
 62
     4
370
     9
100
AcDbLine
 10
-216.6741092586913
 20
36.73405825285242
 30
0.0
 11
-216.6741092586913
 21
38.81770269266751
 31
0.0
  0
LINE
  5
274
330
1F
100
AcDbEntity
  8
0-C
  6
Continuous
 62
     4
370
     9
100
AcDbLine
 10
-215.8852238549072
 20
39.94813950525612
 30
0.0
 11
-216.6740597118125
 21
41.52586076594552
 31
0.0
  0
LINE
  5
275
330
1F
100
AcDbEntity
  8
0-C
  6
Continuous
 62
     4
370
     9
100
AcDbLine
 10
-217.1213193864739
 20
35.36743146916476
 30
0.0
 11
-216.8852285091324
 21
35.83968754416593
 31
0.0
  0
LINE
  5
276
330
1F
100
AcDbEntity
  8
0-C
  6
Continuous
 62
     4
370
     9
100
AcDbLine
 10
-215.8852238549072
 20
32.44812937200626
 30
0.0
 11
-216.6740597118125
 21
34.02585063269566
 31
0.0
  0
LINE
  5
277
330
1F
100
AcDbEntity
  8
0-C
  6
Continuous
 62
     4
370
     9
100
AcDbLine
 10
-215.8852238549072
 20
28.10356176013515
 30
0.0
 11
-216.6740597118125
 21
26.52584049944575
 31
0.0
  0
LINE
  5
278
330
1F
100
AcDbEntity
  8
0-C
  6
Continuous
 62
     4
370
     9
100
AcDbLine
 10
-215.8852238549072
 20
24.94811923875635
 30
0.0
 11
-216.6740597118125
 21
26.52584049944575
 31
0.0
  0
LINE
  5
279
330
1F
100
AcDbEntity
  8
0-C
  6
Continuous
 62
     4
370
     9
100
AcDbLine
 10
-215.8852238549072
 20
20.60355162688528
 30
0.0
 11
-216.6740597118125
 21
19.02583036619588
 31
0.0
  0
LINE
  5
27A
330
1F
100
AcDbEntity
  8
0-C
  6
Continuous
 62
     4
370
     9
100
AcDbLine
 10
-215.8852238549072
 20
17.44810910550648
 30
0.0
 11
-216.6740597118125
 21
19.02583036619588
 31
0.0
  0
LINE
  5
27B
330
1F
100
AcDbEntity
  8
0-C
  6
Continuous
 62
     4
370
     9
100
AcDbLine
 10
-216.8852780560112
 20
28.33960309059788
 30
0.0
 11
-217.1213193864739
 21
27.8674213359149
 31
0.0
  0
LINE
  5
27C
330
1F
100
AcDbEntity
  8
0-C
  6
Continuous
 62
     4
370
     9
100
AcDbLine
 10
-216.6741092586913
 20
31.31764301253885
 30
0.0
 11
-216.6741092586913
 21
29.23402334616315
 31
0.0
  0
LINE
  5
27D
330
1F
100
AcDbEntity
  8
0-C
  6
Continuous
 62
     4
370
     9
100
AcDbLine
 10
-216.8852780560112
 20
32.21206326810414
 30
0.0
 11
-217.1213193864739
 21
32.68426979622651
 31
0.0
  0
LINE
  5
27E
330
1F
100
AcDbEntity
  8
0-C
  6
Continuous
 62
     4
370
     9
100
AcDbLine
 10
-216.6741092586913
 20
23.81763287928899
 30
0.0
 11
-216.6741092586913
 21
21.73403798635265
 31
0.0
  0
LINE
  5
27F
330
1F
100
AcDbEntity
  8
0-C
  6
Continuous
 62
     4
370
     9
100
AcDbLine
 10
-216.8852780560112
 20
24.71205313485427
 30
0.0
 11
-217.1213193864739
 21
25.18425966297664
 31
0.0
  0
LINE
  5
280
330
1F
100
AcDbEntity
  8
0-C
  6
Continuous
 62
     4
370
     9
100
AcDbLine
 10
-217.1213193864739
 20
17.68427430316614
 30
0.0
 11
-216.8852285091324
 21
17.21199345472562
 31
0.0
  0
LINE
  5
281
330
1F
100
AcDbEntity
  8
0-C
  6
Continuous
 62
     4
370
     9
100
AcDbLine
 10
-217.1213193864739
 20
20.36738642922565
 30
0.0
 11
-216.8852285091324
 21
20.83966727766615
 31
0.0
  0
LINE
  5
282
330
1F
100
AcDbEntity
  8
0-C
  6
Continuous
 62
     4
370
     9
100
AcDbLine
 10
-216.6741092586913
 20
16.31762274603912
 30
0.0
 11
-216.6741092586913
 21
13.52590386171465
 31
0.0
  0
LINE
  5
283
330
1F
100
AcDbEntity
  8
0-C
  6
Continuous
 62
     4
370
     9
100
AcDbLine
 10
-219.828709483131
 20
9.190799703688718
 30
0.0
 11
-219.6092168101776
 21
10.0312881817123
 31
0.0
  0
LINE
  5
284
330
1F
100
AcDbEntity
  8
0-C
  6
Continuous
 62
     4
370
     9
100
AcDbLine
 10
-220.8239576369942
 20
9.327053620307645
 30
0.0
 11
-220.6727405629866
 21
9.969850052036847
 31
0.0
  0
LINE
  5
285
330
1F
100
AcDbEntity
  8
0-C
  6
Continuous
 62
     4
370
     9
100
AcDbLine
 10
-220.9644725851874
 20
7.16054202574886
 30
0.0
 11
-220.9644725851874
 21
-24.5575736887772
 31
0.0
  0
LINE
  5
286
330
1F
100
AcDbEntity
  8
0-C
  6
Continuous
 62
     4
370
     9
100
AcDbLine
 10
-220.9619456943701
 20
7.283715566372365
 30
0.0
 11
-220.9011516741188
 21
8.763135819581052
 31
0.0
  0
LINE
  5
287
330
1F
100
AcDbEntity
  8
0-C
  6
Continuous
 62
     4
370
     9
100
AcDbLine
 10
-220.4229747471045
 20
10.64963322876828
 30
0.0
 11
-220.1244548025122
 21
11.23284953877597
 31
0.0
  0
LINE
  5
288
330
1F
100
AcDbEntity
  8
0-C
  6
Continuous
 62
     4
370
     9
100
AcDbLine
 10
-219.9619410401449
 20
7.263153611682583
 30
0.0
 11
-219.9059035202555
 21
8.626881902962168
 31
0.0
  0
LINE
  5
289
330
1F
100
AcDbEntity
  8
0-C
  6
Continuous
 62
     4
370
     9
100
AcDbLine
 10
-219.9645174778409
 20
7.139980071059099
 30
0.0
 11
-219.9645174778409
 21
-24.5575736887772
 31
0.0
  0
LINE
  5
28A
330
1F
100
AcDbEntity
  8
0-C
  6
Continuous
 62
     4
370
     9
100
AcDbLine
 10
-220.4872370488698
 20
56.52585625900589
 30
0.0
 11
-215.8398389139534
 21
45.83207909364823
 31
0.0
  0
LINE
  5
28B
330
1F
100
AcDbEntity
  8
0-C
  6
Continuous
 62
     4
370
     9
100
AcDbLine
 10
-177.6740763845435
 20
56.52585625900589
 30
0.0
 11
-172.7704713395046
 21
56.52585625900589
 31
0.0
  0
LINE
  5
28C
330
1F
100
AcDbEntity
  8
0-C
  6
Continuous
 62
     4
370
     9
100
AcDbLine
 10
-178.4628131476912
 20
43.10358202663492
 30
0.0
 11
-177.6740268376647
 21
41.52586076594552
 31
0.0
  0
LINE
  5
28D
330
1F
100
AcDbEntity
  8
0-C
  6
Continuous
 62
     4
370
     9
100
AcDbLine
 10
-177.5082429812985
 20
45.62418039032716
 30
0.0
 11
-172.7704713395046
 21
56.52585625900589
 31
0.0
  0
LINE
  5
28E
330
1F
100
AcDbEntity
  8
0-C
  6
Continuous
 62
     4
370
     9
100
AcDbLine
 10
-177.6739772907858
 20
44.23404361266292
 30
0.0
 11
-177.6739772907858
 21
44.82702065778839
 31
0.0
  0
LINE
  5
28F
330
1F
100
AcDbEntity
  8
0-C
  6
Continuous
 62
     4
370
     9
100
AcDbLine
 10
-177.2267671630033
 20
42.86744160241467
 30
0.0
 11
-177.4628580403447
 21
43.33967290397643
 31
0.0
  0
LINE
  5
290
330
1F
100
AcDbEntity
  8
0-C
  6
Continuous
 62
     4
370
     9
100
AcDbLine
 10
-178.4628131476912
 20
35.60357189338506
 30
0.0
 11
-177.6740268376647
 21
34.02585063269566
 31
0.0
  0
LINE
  5
291
330
1F
100
AcDbEntity
  8
0-C
  6
Continuous
 62
     4
370
     9
100
AcDbLine
 10
-177.4628580403447
 20
39.712073401354
 30
0.0
 11
-177.2267671630033
 21
40.18427992947638
 31
0.0
  0
LINE
  5
292
330
1F
100
AcDbEntity
  8
0-C
  6
Continuous
 62
     4
370
     9
100
AcDbLine
 10
-177.6739772907858
 20
36.73405825285242
 30
0.0
 11
-177.6739772907858
 21
38.81770269266751
 31
0.0
  0
LINE
  5
293
330
1F
100
AcDbEntity
  8
0-C
  6
Continuous
 62
     4
370
     9
100
AcDbLine
 10
-178.4628131476912
 20
39.94813950525612
 30
0.0
 11
-177.6740268376647
 21
41.52586076594552
 31
0.0
  0
LINE
  5
294
330
1F
100
AcDbEntity
  8
0-C
  6
Continuous
 62
     4
370
     9
100
AcDbLine
 10
-177.2267176161245
 20
35.36743146916476
 30
0.0
 11
-177.4628580403447
 21
35.83968754416593
 31
0.0
  0
LINE
  5
295
330
1F
100
AcDbEntity
  8
0-C
  6
Continuous
 62
     4
370
     9
100
AcDbLine
 10
-178.4628131476912
 20
32.44812937200626
 30
0.0
 11
-177.6740268376647
 21
34.02585063269566
 31
0.0
  0
LINE
  5
296
330
1F
100
AcDbEntity
  8
0-C
  6
Continuous
 62
     4
370
     9
100
AcDbLine
 10
-178.4628131476912
 20
28.10356176013515
 30
0.0
 11
-177.6740268376647
 21
26.52584049944575
 31
0.0
  0
LINE
  5
297
330
1F
100
AcDbEntity
  8
0-C
  6
Continuous
 62
     4
370
     9
100
AcDbLine
 10
-178.4628131476912
 20
24.94811923875635
 30
0.0
 11
-177.6740268376647
 21
26.52584049944575
 31
0.0
  0
LINE
  5
298
330
1F
100
AcDbEntity
  8
0-C
  6
Continuous
 62
     4
370
     9
100
AcDbLine
 10
-178.4628131476912
 20
20.60355162688528
 30
0.0
 11
-177.6740268376647
 21
19.02583036619588
 31
0.0
  0
LINE
  5
299
330
1F
100
AcDbEntity
  8
0-C
  6
Continuous
 62
     4
370
     9
100
AcDbLine
 10
-178.4628131476912
 20
17.44810910550648
 30
0.0
 11
-177.6740268376647
 21
19.02583036619588
 31
0.0
  0
LINE
  5
29A
330
1F
100
AcDbEntity
  8
0-C
  6
Continuous
 62
     4
370
     9
100
AcDbLine
 10
-177.4628580403447
 20
28.33960309059788
 30
0.0
 11
-177.2267176161245
 21
27.8674213359149
 31
0.0
  0
LINE
  5
29B
330
1F
100
AcDbEntity
  8
0-C
  6
Continuous
 62
     4
370
     9
100
AcDbLine
 10
-177.6739772907858
 20
31.31764301253885
 30
0.0
 11
-177.6739772907858
 21
29.23402334616315
 31
0.0
  0
LINE
  5
29C
330
1F
100
AcDbEntity
  8
0-C
  6
Continuous
 62
     4
370
     9
100
AcDbLine
 10
-177.4628580403447
 20
32.21206326810414
 30
0.0
 11
-177.2267176161245
 21
32.68426979622651
 31
0.0
  0
LINE
  5
29D
330
1F
100
AcDbEntity
  8
0-C
  6
Continuous
 62
     4
370
     9
100
AcDbLine
 10
-177.6739772907858
 20
23.81763287928899
 30
0.0
 11
-177.6739772907858
 21
21.73403798635265
 31
0.0
  0
LINE
  5
29E
330
1F
100
AcDbEntity
  8
0-C
  6
Continuous
 62
     4
370
     9
100
AcDbLine
 10
-177.4628580403447
 20
24.71205313485427
 30
0.0
 11
-177.2267176161245
 21
25.18425966297664
 31
0.0
  0
LINE
  5
29F
330
1F
100
AcDbEntity
  8
0-C
  6
Continuous
 62
     4
370
     9
100
AcDbLine
 10
-177.2267176161245
 20
17.68427430316614
 30
0.0
 11
-177.4628580403447
 21
17.21199345472562
 31
0.0
  0
LINE
  5
2A0
330
1F
100
AcDbEntity
  8
0-C
  6
Continuous
 62
     4
370
     9
100
AcDbLine
 10
-177.2267176161245
 20
20.36738642922565
 30
0.0
 11
-177.4628580403447
 21
20.83966727766615
 31
0.0
  0
LINE
  5
2A1
330
1F
100
AcDbEntity
  8
0-C
  6
Continuous
 62
     4
370
     9
100
AcDbLine
 10
-177.6739772907858
 20
16.31762274603912
 30
0.0
 11
-177.6739772907858
 21
13.52590386171465
 31
0.0
  0
LINE
  5
2A2
330
1F
100
AcDbEntity
  8
0-C
  6
Continuous
 62
     4
370
     9
100
AcDbLine
 10
-174.5193770663461
 20
9.190799703688718
 30
0.0
 11
-174.7388697392995
 21
10.0312881817123
 31
0.0
  0
LINE
  5
2A3
330
1F
100
AcDbEntity
  8
0-C
  6
Continuous
 62
     4
370
     9
100
AcDbLine
 10
-173.5241289124829
 20
9.327053620307645
 30
0.0
 11
-173.6753955333693
 21
9.969850052036847
 31
0.0
  0
LINE
  5
2A4
330
1F
100
AcDbEntity
  8
0-C
  6
Continuous
 62
     4
370
     9
100
AcDbLine
 10
-173.383564417411
 20
7.16054202574886
 30
0.0
 11
-173.383564417411
 21
-24.5575736887772
 31
0.0
  0
LINE
  5
2A5
330
1F
100
AcDbEntity
  8
0-C
  6
Continuous
 62
     4
370
     9
100
AcDbLine
 10
-173.386140855107
 20
7.283715566372365
 30
0.0
 11
-173.4468853284797
 21
8.763135819581052
 31
0.0
  0
LINE
  5
2A6
330
1F
100
AcDbEntity
  8
0-C
  6
Continuous
 62
     4
370
     9
100
AcDbLine
 10
-173.9251118023726
 20
10.64963322876828
 30
0.0
 11
-174.2235822000862
 21
11.23284953877597
 31
0.0
  0
LINE
  5
2A7
330
1F
100
AcDbEntity
  8
0-C
  6
Continuous
 62
     4
370
     9
100
AcDbLine
 10
-174.3860959624535
 20
7.263153611682583
 30
0.0
 11
-174.4421830292217
 21
8.626881902962168
 31
0.0
  0
LINE
  5
2A8
330
1F
100
AcDbEntity
  8
0-C
  6
Continuous
 62
     4
370
     9
100
AcDbLine
 10
-174.383618618515
 20
7.139980071059099
 30
0.0
 11
-174.383618618515
 21
-24.5575736887772
 31
0.0
  0
LINE
  5
2A9
330
1F
100
AcDbEntity
  8
0-C
  6
Continuous
 62
     4
370
     9
100
AcDbLine
 10
-173.8607999537285
 20
56.52585625900589
 30
0.0
 11
-178.5082476355237
 21
45.83207909364823
 31
0.0
  0
ARC
  5
2AA
330
1F
100
AcDbEntity
  8
0-C
  6
Continuous
 62
     4
370
     9
100
AcDbCircle
 10
-217.6741139129165
 20
43.9979775087608
 30
0.0
 40
2.000000018410701
100
AcDbArc
 50
333.4358978271484
 51
0.0000000000000064
  0
ARC
  5
2AB
330
1F
100
AcDbEntity
  8
0-C
  6
Continuous
 62
     4
370
     9
100
AcDbCircle
 10
-217.6741139129165
 20
45.03491936110946
 30
0.0
 40
2.000000018410701
100
AcDbArc
 50
0.0
 51
23.48933410644532
  0
ARC
  5
2AC
330
1F
100
AcDbEntity
  8
0-C
  6
Continuous
 62
     4
370
     9
100
AcDbCircle
 10
-218.6741185671417
 20
44.82702065778839
 30
0.0
 40
2.000000018410701
100
AcDbArc
 50
0.0
 51
23.48933410644532
  0
ARC
  5
2AD
330
1F
100
AcDbEntity
  8
0-C
  6
Continuous
 62
     4
370
     9
100
AcDbCircle
 10
-218.6741185671417
 20
44.23404361266292
 30
0.0
 40
2.000000018410701
100
AcDbArc
 50
333.4368591308594
 51
0.0
  0
ARC
  5
2AE
330
1F
100
AcDbEntity
  8
0-C
  6
Continuous
 62
     4
370
     9
100
AcDbCircle
 10
-214.4380090728993
 20
41.52586076594552
 30
0.0
 40
3.000000027616052
100
AcDbArc
 50
153.4362182617188
 51
206.5637817382812
  0
ARC
  5
2AF
330
1F
100
AcDbEntity
  8
0-C
  6
Continuous
 62
     4
370
     9
100
AcDbCircle
 10
-217.6741139129165
 20
36.49796737551092
 30
0.0
 40
2.000000018410701
100
AcDbArc
 50
333.4358978271484
 51
0.0000000000000064
  0
ARC
  5
2B0
330
1F
100
AcDbEntity
  8
0-C
  6
Continuous
 62
     4
370
     9
100
AcDbCircle
 10
-218.6741185671417
 20
38.81770269266751
 30
0.0
 40
2.000000018410701
100
AcDbArc
 50
0.0
 51
26.56314086914063
  0
ARC
  5
2B1
330
1F
100
AcDbEntity
  8
0-C
  6
Continuous
 62
     4
370
     9
100
AcDbCircle
 10
-218.6741185671417
 20
36.73405825285242
 30
0.0
 40
2.000000018410701
100
AcDbArc
 50
333.4368591308594
 51
0.0
  0
ARC
  5
2B2
330
1F
100
AcDbEntity
  8
0-C
  6
Continuous
 62
     4
370
     9
100
AcDbCircle
 10
-217.6741139129165
 20
39.05374402313022
 30
0.0
 40
2.000000018410701
100
AcDbArc
 50
0.0
 51
26.56410217285156
  0
ARC
  5
2B3
330
1F
100
AcDbEntity
  8
0-C
  6
Continuous
 62
     4
370
     9
100
AcDbCircle
 10
-214.4380586197781
 20
34.02587540613502
 30
0.0
 40
3.000000027616052
100
AcDbArc
 50
153.4366455078125
 51
206.564208984375
  0
ARC
  5
2B4
330
1F
100
AcDbEntity
  8
0-C
  6
Continuous
 62
     4
370
     9
100
AcDbCircle
 10
-217.6741139129165
 20
31.55373388988036
 30
0.0
 40
2.000000018410701
100
AcDbArc
 50
0.0
 51
26.56410217285156
  0
ARC
  5
2B5
330
1F
100
AcDbEntity
  8
0-C
  6
Continuous
 62
     4
370
     9
100
AcDbCircle
 10
-217.6741139129165
 20
28.99795724226105
 30
0.0
 40
2.000000018410701
100
AcDbArc
 50
333.4358978271484
 51
0.0000000000000064
  0
ARC
  5
2B6
330
1F
100
AcDbEntity
  8
0-C
  6
Continuous
 62
     4
370
     9
100
AcDbCircle
 10
-214.4380586197781
 20
26.52586527288516
 30
0.0
 40
3.000000027616052
100
AcDbArc
 50
153.4366455078125
 51
206.564208984375
  0
ARC
  5
2B7
330
1F
100
AcDbEntity
  8
0-C
  6
Continuous
 62
     4
370
     9
100
AcDbCircle
 10
-217.6741139129165
 20
24.05372375663049
 30
0.0
 40
2.000000018410701
100
AcDbArc
 50
0.0
 51
26.56410217285156
  0
ARC
  5
2B8
330
1F
100
AcDbEntity
  8
0-C
  6
Continuous
 62
     4
370
     9
100
AcDbCircle
 10
-217.6741139129165
 20
21.49794710901119
 30
0.0
 40
2.000000018410701
100
AcDbArc
 50
333.4358978271484
 51
0.0000000000000064
  0
ARC
  5
2B9
330
1F
100
AcDbEntity
  8
0-C
  6
Continuous
 62
     4
370
     9
100
AcDbCircle
 10
-217.6741139129165
 20
16.5537136233806
 30
0.0
 40
2.000000018410701
100
AcDbArc
 50
0.0
 51
26.56410217285156
  0
ARC
  5
2BA
330
1F
100
AcDbEntity
  8
0-C
  6
Continuous
 62
     4
370
     9
100
AcDbCircle
 10
-218.6741185671417
 20
29.23402334616315
 30
0.0
 40
2.000000018410701
100
AcDbArc
 50
333.4352722167969
 51
0.0000000000000159
  0
ARC
  5
2BB
330
1F
100
AcDbEntity
  8
0-C
  6
Continuous
 62
     4
370
     9
100
AcDbCircle
 10
-218.6741185671417
 20
31.31764301253885
 30
0.0
 40
2.000000018410701
100
AcDbArc
 50
0.0
 51
26.56472778320312
  0
ARC
  5
2BC
330
1F
100
AcDbEntity
  8
0-C
  6
Continuous
 62
     4
370
     9
100
AcDbCircle
 10
-218.6741185671417
 20
21.73403798635265
 30
0.0
 40
2.000000018410701
100
AcDbArc
 50
333.4368591308594
 51
0.0
  0
ARC
  5
2BD
330
1F
100
AcDbEntity
  8
0-C
  6
Continuous
 62
     4
370
     9
100
AcDbCircle
 10
-218.6741185671417
 20
23.81763287928899
 30
0.0
 40
2.000000018410701
100
AcDbArc
 50
0.0
 51
26.56472778320312
  0
ARC
  5
2BE
330
1F
100
AcDbEntity
  8
0-C
  6
Continuous
 62
     4
370
     9
100
AcDbCircle
 10
-218.6741185671417
 20
16.31762274603912
 30
0.0
 40
2.000000018410701
100
AcDbArc
 50
0.0
 51
26.56314086914063
  0
ARC
  5
2BF
330
1F
100
AcDbEntity
  8
0-C
  6
Continuous
 62
     4
370
     9
100
AcDbCircle
 10
-214.4380586197781
 20
19.02583036619588
 30
0.0
 40
3.000000027616052
100
AcDbArc
 50
153.4366455078125
 51
206.5633544921875
  0
ARC
  5
2C0
330
1F
100
AcDbEntity
  8
0-C
  6
Continuous
 62
     4
370
     9
100
AcDbCircle
 10
-217.6741139129165
 20
13.52590386171465
 30
0.0
 40
1.00000000920535
100
AcDbArc
 50
270.0
 51
0.0
  0
ARC
  5
2C1
330
1F
100
AcDbEntity
  8
0-C
  6
Continuous
 62
     4
370
     9
100
AcDbCircle
 10
-217.6741139129165
 20
13.52590386171465
 30
0.0
 40
2.000000018410701
100
AcDbArc
 50
270.0
 51
0.0
  0
ARC
  5
2C2
330
1F
100
AcDbEntity
  8
0-C
  6
Continuous
 62
     4
370
     9
100
AcDbCircle
 10
-216.9084659952758
 20
8.503708362338664
 30
0.0
 40
3.000000027616052
100
AcDbArc
 50
166.7600555419922
 51
177.6469116210938
  0
ARC
  5
2C3
330
1F
100
AcDbEntity
  8
0-C
  6
Continuous
 62
     4
370
     9
100
AcDbCircle
 10
-217.7524475282527
 20
9.282783484126178
 30
0.0
 40
3.000000027616052
100
AcDbArc
 50
152.8951568603516
 51
166.7604064941406
  0
ARC
  5
2C4
330
1F
100
AcDbEntity
  8
0-C
  6
Continuous
 62
     4
370
     9
100
AcDbCircle
 10
-217.9037141491391
 20
8.639962278957569
 30
0.0
 40
3.000000027616052
100
AcDbArc
 50
166.7599334716797
 51
177.6468963623047
  0
ARC
  5
2C5
330
1F
100
AcDbEntity
  8
0-C
  6
Continuous
 62
     4
370
     9
100
AcDbCircle
 10
-217.9645081693905
 20
7.16054202574886
 30
0.0
 40
3.000000027616052
100
AcDbArc
 50
177.6468963623047
 51
180.0
  0
ARC
  5
2C6
330
1F
100
AcDbEntity
  8
0-C
  6
Continuous
 62
     4
370
     9
100
AcDbCircle
 10
-217.6741139129165
 20
9.525910018253086
 30
0.0
 40
3.000000027616052
100
AcDbArc
 50
90.0
 51
141.2687377929688
  0
ARC
  5
2C7
330
1F
100
AcDbEntity
  8
0-C
  6
Continuous
 62
     4
370
     9
100
AcDbCircle
 10
-219.2342955785211
 20
10.77724121504174
 30
0.0
 40
1.00000000920535
100
AcDbArc
 50
141.2683715820312
 51
152.8960113525391
  0
ARC
  5
2C8
330
1F
100
AcDbEntity
  8
0-C
  6
Continuous
 62
     4
370
     9
100
AcDbCircle
 10
-216.9645035151652
 20
7.139980071059099
 30
0.0
 40
3.000000027616052
100
AcDbArc
 50
177.6468963623047
 51
180.0
  0
ARC
  5
2C9
330
1F
100
AcDbEntity
  8
0-C
  6
Continuous
 62
     4
370
     9
100
AcDbCircle
 10
-176.6739726365606
 20
43.9979775087608
 30
0.0
 40
2.000000018410701
100
AcDbArc
 50
180.0
 51
206.5641021728516
  0
ARC
  5
2CA
330
1F
100
AcDbEntity
  8
0-C
  6
Continuous
 62
     4
370
     9
100
AcDbCircle
 10
-176.6739726365606
 20
45.03491936110946
 30
0.0
 40
2.000000018410701
100
AcDbArc
 50
156.5106658935547
 51
180.0
  0
ARC
  5
2CB
330
1F
100
AcDbEntity
  8
0-C
  6
Continuous
 62
     4
370
     9
100
AcDbCircle
 10
-175.6739679823354
 20
44.82702065778839
 30
0.0
 40
2.000000018410701
100
AcDbArc
 50
156.5106658935547
 51
180.0
  0
ARC
  5
2CC
330
1F
100
AcDbEntity
  8
0-C
  6
Continuous
 62
     4
370
     9
100
AcDbCircle
 10
-175.6739679823354
 20
44.23404361266292
 30
0.0
 40
2.000000018410701
100
AcDbArc
 50
180.0
 51
206.5631408691406
  0
ARC
  5
2CD
330
1F
100
AcDbEntity
  8
0-C
  6
Continuous
 62
     4
370
     9
100
AcDbCircle
 10
-179.9100774765778
 20
41.52586076594552
 30
0.0
 40
3.000000027616052
100
AcDbArc
 50
333.4362182617187
 51
26.56378173828131
  0
ARC
  5
2CE
330
1F
100
AcDbEntity
  8
0-C
  6
Continuous
 62
     4
370
     9
100
AcDbCircle
 10
-176.6739726365606
 20
36.49796737551092
 30
0.0
 40
2.000000018410701
100
AcDbArc
 50
180.0
 51
206.5641021728516
  0
ARC
  5
2CF
330
1F
100
AcDbEntity
  8
0-C
  6
Continuous
 62
     4
370
     9
100
AcDbCircle
 10
-175.6739679823354
 20
38.81770269266751
 30
0.0
 40
2.000000018410701
100
AcDbArc
 50
153.4368591308594
 51
180.0
  0
ARC
  5
2D0
330
1F
100
AcDbEntity
  8
0-C
  6
Continuous
 62
     4
370
     9
100
AcDbCircle
 10
-175.6739679823354
 20
36.73405825285242
 30
0.0
 40
2.000000018410701
100
AcDbArc
 50
180.0
 51
206.5631408691406
  0
ARC
  5
2D1
330
1F
100
AcDbEntity
  8
0-C
  6
Continuous
 62
     4
370
     9
100
AcDbCircle
 10
-176.6739726365606
 20
39.05374402313022
 30
0.0
 40
2.000000018410701
100
AcDbArc
 50
153.4358978271484
 51
180.0
  0
ARC
  5
2D2
330
1F
100
AcDbEntity
  8
0-C
  6
Continuous
 62
     4
370
     9
100
AcDbCircle
 10
-179.9100774765778
 20
34.02587540613502
 30
0.0
 40
3.000000027616052
100
AcDbArc
 50
333.435791015625
 51
26.56335449218756
  0
ARC
  5
2D3
330
1F
100
AcDbEntity
  8
0-C
  6
Continuous
 62
     4
370
     9
100
AcDbCircle
 10
-176.6739726365606
 20
31.55373388988036
 30
0.0
 40
2.000000018410701
100
AcDbArc
 50
153.4358978271484
 51
180.0
  0
ARC
  5
2D4
330
1F
100
AcDbEntity
  8
0-C
  6
Continuous
 62
     4
370
     9
100
AcDbCircle
 10
-176.6739726365606
 20
28.99795724226105
 30
0.0
 40
2.000000018410701
100
AcDbArc
 50
180.0
 51
206.5641021728516
  0
ARC
  5
2D5
330
1F
100
AcDbEntity
  8
0-C
  6
Continuous
 62
     4
370
     9
100
AcDbCircle
 10
-179.9100774765778
 20
26.52586527288516
 30
0.0
 40
3.000000027616052
100
AcDbArc
 50
333.435791015625
 51
26.56335449218756
  0
ARC
  5
2D6
330
1F
100
AcDbEntity
  8
0-C
  6
Continuous
 62
     4
370
     9
100
AcDbCircle
 10
-176.6739726365606
 20
24.05372375663049
 30
0.0
 40
2.000000018410701
100
AcDbArc
 50
153.4358978271484
 51
180.0
  0
ARC
  5
2D7
330
1F
100
AcDbEntity
  8
0-C
  6
Continuous
 62
     4
370
     9
100
AcDbCircle
 10
-176.6739726365606
 20
21.49794710901119
 30
0.0
 40
2.000000018410701
100
AcDbArc
 50
180.0
 51
206.5641021728516
  0
ARC
  5
2D8
330
1F
100
AcDbEntity
  8
0-C
  6
Continuous
 62
     4
370
     9
100
AcDbCircle
 10
-176.6739726365606
 20
16.5537136233806
 30
0.0
 40
2.000000018410701
100
AcDbArc
 50
153.4358978271484
 51
180.0
  0
ARC
  5
2D9
330
1F
100
AcDbEntity
  8
0-C
  6
Continuous
 62
     4
370
     9
100
AcDbCircle
 10
-175.6739679823354
 20
29.23402334616315
 30
0.0
 40
2.000000018410701
100
AcDbArc
 50
180.0
 51
206.5647277832031
  0
ARC
  5
2DA
330
1F
100
AcDbEntity
  8
0-C
  6
Continuous
 62
     4
370
     9
100
AcDbCircle
 10
-175.6739679823354
 20
31.31764301253885
 30
0.0
 40
2.000000018410701
100
AcDbArc
 50
153.4352722167969
 51
180.0
  0
ARC
  5
2DB
330
1F
100
AcDbEntity
  8
0-C
  6
Continuous
 62
     4
370
     9
100
AcDbCircle
 10
-175.6739679823354
 20
21.73403798635265
 30
0.0
 40
2.000000018410701
100
AcDbArc
 50
180.0
 51
206.5631408691406
  0
ARC
  5
2DC
330
1F
100
AcDbEntity
  8
0-C
  6
Continuous
 62
     4
370
     9
100
AcDbCircle
 10
-175.6739679823354
 20
23.81763287928899
 30
0.0
 40
2.000000018410701
100
AcDbArc
 50
153.4352722167969
 51
180.0
  0
ARC
  5
2DD
330
1F
100
AcDbEntity
  8
0-C
  6
Continuous
 62
     4
370
     9
100
AcDbCircle
 10
-175.6739679823354
 20
16.31762274603912
 30
0.0
 40
2.000000018410701
100
AcDbArc
 50
153.4368591308594
 51
180.0
  0
ARC
  5
2DE
330
1F
100
AcDbEntity
  8
0-C
  6
Continuous
 62
     4
370
     9
100
AcDbCircle
 10
-179.9100774765778
 20
19.02583036619588
 30
0.0
 40
3.000000027616052
100
AcDbArc
 50
333.4366455078125
 51
26.5633544921875
  0
ARC
  5
2DF
330
1F
100
AcDbEntity
  8
0-C
  6
Continuous
 62
     4
370
     9
100
AcDbCircle
 10
-176.6739726365606
 20
13.52590386171465
 30
0.0
 40
1.00000000920535
100
AcDbArc
 50
180.0
 51
270.0
  0
ARC
  5
2E0
330
1F
100
AcDbEntity
  8
0-C
  6
Continuous
 62
     4
370
     9
100
AcDbCircle
 10
-176.6739726365606
 20
13.52590386171465
 30
0.0
 40
2.000000018410701
100
AcDbArc
 50
180.0
 51
270.0
  0
ARC
  5
2E1
330
1F
100
AcDbEntity
  8
0-C
  6
Continuous
 62
     4
370
     9
100
AcDbCircle
 10
-177.4396701010801
 20
8.503708362338664
 30
0.0
 40
3.000000027616052
100
AcDbArc
 50
2.35308837890625
 51
13.23994445800781
  0
ARC
  5
2E2
330
1F
100
AcDbEntity
  8
0-C
  6
Continuous
 62
     4
370
     9
100
AcDbCircle
 10
-176.5955894743457
 20
9.282783484126178
 30
0.0
 40
3.000000027616052
100
AcDbArc
 50
13.23959350585937
 51
27.10484313964842
  0
ARC
  5
2E3
330
1F
100
AcDbEntity
  8
0-C
  6
Continuous
 62
     4
370
     9
100
AcDbCircle
 10
-176.4443724003381
 20
8.639962278957569
 30
0.0
 40
3.000000027616052
100
AcDbArc
 50
2.353103637695297
 51
13.24006652832031
  0
ARC
  5
2E4
330
1F
100
AcDbEntity
  8
0-C
  6
Continuous
 62
     4
370
     9
100
AcDbCircle
 10
-176.3835783800866
 20
7.16054202574886
 30
0.0
 40
3.000000027616052
100
AcDbArc
 50
0.0
 51
2.353103637695312
  0
ARC
  5
2E5
330
1F
100
AcDbEntity
  8
0-C
  6
Continuous
 62
     4
370
     9
100
AcDbCircle
 10
-176.6739726365606
 20
9.525910018253086
 30
0.0
 40
3.000000027616052
100
AcDbArc
 50
38.73126220703127
 51
90.00000000000003
  0
ARC
  5
2E6
330
1F
100
AcDbEntity
  8
0-C
  6
Continuous
 62
     4
370
     9
100
AcDbCircle
 10
-175.113790970956
 20
10.77724121504174
 30
0.0
 40
1.00000000920535
100
AcDbArc
 50
27.10398864746095
 51
38.73162841796876
  0
ARC
  5
2E7
330
1F
100
AcDbEntity
  8
0-C
  6
Continuous
 62
     4
370
     9
100
AcDbCircle
 10
-177.3835830343119
 20
7.139980071059099
 30
0.0
 40
3.000000027616052
100
AcDbArc
 50
0.0
 51
2.353103637695312
  0
LINE
  5
2E8
330
1F
100
AcDbEntity
  8
0-B
  6
Continuous
 62
     3
370
     9
100
AcDbLine
 10
-218.1740914665897
 20
46.03053911656351
 30
0.0
 11
-217.0164286441168
 21
46.03053911656351
 31
0.0
  0
LINE
  5
2E9
330
1F
100
AcDbEntity
  8
0-B
  6
Continuous
 62
     3
370
     9
100
AcDbLine
 10
-218.1740914665897
 20
43.0305251538878
 30
0.0
 11
-217.0397652240176
 21
43.0305251538878
 31
0.0
  0
LINE
  5
2EA
330
1F
100
AcDbEntity
  8
0-B
  6
Continuous
 62
     3
370
     9
100
AcDbLine
 10
-218.1740914665897
 20
39.27588745409782
 30
0.0
 11
-216.727273059612
 21
39.27588745409782
 31
0.0
  0
LINE
  5
2EB
330
1F
100
AcDbEntity
  8
0-B
  6
Continuous
 62
     3
370
     9
100
AcDbLine
 10
-218.1740914665897
 20
36.27587349142211
 30
0.0
 11
-216.727273059612
 21
36.27587349142211
 31
0.0
  0
LINE
  5
2EC
330
1F
100
AcDbEntity
  8
0-B
  6
Continuous
 62
     3
370
     9
100
AcDbLine
 10
-218.1740914665897
 20
31.77585254740855
 30
0.0
 11
-216.7273226064908
 21
31.77585254740855
 31
0.0
  0
LINE
  5
2ED
330
1F
100
AcDbEntity
  8
0-B
  6
Continuous
 62
     3
370
     9
100
AcDbLine
 10
-218.1740914665897
 20
28.77583858473286
 30
0.0
 11
-216.727273059612
 21
28.77583858473286
 31
0.0
  0
LINE
  5
2EE
330
1F
100
AcDbEntity
  8
0-B
  6
Continuous
 62
     3
370
     9
100
AcDbLine
 10
-218.1740914665897
 20
24.27584241415868
 30
0.0
 11
-216.7273226064908
 21
24.27584241415868
 31
0.0
  0
LINE
  5
2EF
330
1F
100
AcDbEntity
  8
0-B
  6
Continuous
 62
     3
370
     9
100
AcDbLine
 10
-218.1740914665897
 20
21.27582845148299
 30
0.0
 11
-216.7273226064908
 21
21.27582845148299
 31
0.0
  0
LINE
  5
2F0
330
1F
100
AcDbEntity
  8
0-B
  6
Continuous
 62
     3
370
     9
100
AcDbLine
 10
-218.1740914665897
 20
15.49645755073604
 30
0.0
 11
-216.6741092586913
 21
15.49645755073604
 31
0.0
  0
LINE
  5
2F1
330
1F
100
AcDbEntity
  8
0-B
  6
Continuous
 62
     3
370
     9
100
AcDbLine
 10
-176.1739455360087
 20
46.03053911656351
 30
0.0
 11
-177.3316579053604
 21
46.03053911656351
 31
0.0
  0
LINE
  5
2F2
330
1F
100
AcDbEntity
  8
0-B
  6
Continuous
 62
     3
370
     9
100
AcDbLine
 10
-176.1739455360087
 20
43.0305251538878
 30
0.0
 11
-177.3082717785808
 21
43.0305251538878
 31
0.0
  0
LINE
  5
2F3
330
1F
100
AcDbEntity
  8
0-B
  6
Continuous
 62
     3
370
     9
100
AcDbLine
 10
-176.1739455360087
 20
39.27588745409782
 30
0.0
 11
-177.6208134898651
 21
39.27588745409782
 31
0.0
  0
LINE
  5
2F4
330
1F
100
AcDbEntity
  8
0-B
  6
Continuous
 62
     3
370
     9
100
AcDbLine
 10
-176.1739455360087
 20
36.27587349142211
 30
0.0
 11
-177.6208134898651
 21
36.27587349142211
 31
0.0
  0
LINE
  5
2F5
330
1F
100
AcDbEntity
  8
0-B
  6
Continuous
 62
     3
370
     9
100
AcDbLine
 10
-176.1739455360087
 20
31.77585254740855
 30
0.0
 11
-177.6207639429863
 21
31.77585254740855
 31
0.0
  0
LINE
  5
2F6
330
1F
100
AcDbEntity
  8
0-B
  6
Continuous
 62
     3
370
     9
100
AcDbLine
 10
-176.1739455360087
 20
28.77583858473286
 30
0.0
 11
-177.6208134898651
 21
28.77583858473286
 31
0.0
  0
LINE
  5
2F7
330
1F
100
AcDbEntity
  8
0-B
  6
Continuous
 62
     3
370
     9
100
AcDbLine
 10
-176.1739455360087
 20
24.27584241415868
 30
0.0
 11
-177.6207639429863
 21
24.27584241415868
 31
0.0
  0
LINE
  5
2F8
330
1F
100
AcDbEntity
  8
0-B
  6
Continuous
 62
     3
370
     9
100
AcDbLine
 10
-176.1739455360087
 20
21.27582845148299
 30
0.0
 11
-177.6207639429863
 21
21.27582845148299
 31
0.0
  0
LINE
  5
2F9
330
1F
100
AcDbEntity
  8
0-B
  6
Continuous
 62
     3
370
     9
100
AcDbLine
 10
-176.1739455360087
 20
15.49645755073604
 30
0.0
 11
-177.6739772907858
 21
15.49645755073604
 31
0.0
  0
CIRCLE
  5
2FA
330
1F
100
AcDbEntity
  8
0-B
  6
Continuous
 62
     3
370
     9
100
AcDbCircle
 10
-218.1740914665897
 20
44.53053213522563
 30
0.0
 40
1.500000013808026
  0
CIRCLE
  5
2FB
330
1F
100
AcDbEntity
  8
0-B
  6
Continuous
 62
     3
370
     9
100
AcDbCircle
 10
-218.1740914665897
 20
37.77588047275997
 30
0.0
 40
1.500000013808026
  0
CIRCLE
  5
2FC
330
1F
100
AcDbEntity
  8
0-B
  6
Continuous
 62
     3
370
     9
100
AcDbCircle
 10
-218.1740914665897
 20
30.27584556607071
 30
0.0
 40
1.500000013808026
  0
CIRCLE
  5
2FD
330
1F
100
AcDbEntity
  8
0-B
  6
Continuous
 62
     3
370
     9
100
AcDbCircle
 10
-218.1740914665897
 20
22.77583543282083
 30
0.0
 40
1.500000013808026
  0
CIRCLE
  5
2FE
330
1F
100
AcDbEntity
  8
0-B
  6
Continuous
 62
     3
370
     9
100
AcDbCircle
 10
-218.1740914665897
 20
13.99645056939816
 30
0.0
 40
1.500000013808026
  0
CIRCLE
  5
2FF
330
1F
100
AcDbEntity
  8
0-B
  6
Continuous
 62
     3
370
     9
100
AcDbCircle
 10
-176.1739455360087
 20
44.53053213522563
 30
0.0
 40
1.500000013808026
  0
CIRCLE
  5
300
330
1F
100
AcDbEntity
  8
0-B
  6
Continuous
 62
     3
370
     9
100
AcDbCircle
 10
-176.1739455360087
 20
37.77588047275997
 30
0.0
 40
1.500000013808026
  0
CIRCLE
  5
301
330
1F
100
AcDbEntity
  8
0-B
  6
Continuous
 62
     3
370
     9
100
AcDbCircle
 10
-176.1739455360087
 20
30.27584556607071
 30
0.0
 40
1.500000013808026
  0
CIRCLE
  5
302
330
1F
100
AcDbEntity
  8
0-B
  6
Continuous
 62
     3
370
     9
100
AcDbCircle
 10
-176.1739455360087
 20
22.77583543282083
 30
0.0
 40
1.500000013808026
  0
CIRCLE
  5
303
330
1F
100
AcDbEntity
  8
0-B
  6
Continuous
 62
     3
370
     9
100
AcDbCircle
 10
-176.1739455360087
 20
13.99645056939816
 30
0.0
 40
1.500000013808026
  0
LINE
  5
304
330
1F
100
AcDbEntity
  8
通り芯
  6
Continuous
 62
     6
370
     9
100
AcDbLine
 10
195.9589389974777
 20
170.525496440264
 30
0.0
 11
323.9589653910587
 21
170.525496440264
 31
0.0
  0
LINE
  5
305
330
1F
100
AcDbEntity
  8
通り芯
  6
Continuous
 62
     6
370
     9
100
AcDbLine
 10
205.8347571984912
 20
172.3471484145039
 30
0.0
 11
211.0893038310749
 21
231.0355135128981
 31
0.0
  0
LINE
  5
306
330
1F
100
AcDbEntity
  8
通り芯
  6
Continuous
 62
     6
370
     9
100
AcDbLine
 10
210.9364219736179
 20
173.2579991456061
 30
0.0
 11
216.0692688559628
 21
230.5895994290032
 31
0.0
  0
LINE
  5
307
330
1F
100
AcDbEntity
  8
通り芯
  6
Continuous
 62
     6
370
     9
100
AcDbLine
 10
216.5152723195159
 20
235.5696261164559
 30
0.0
 11
216.9588598167344
 21
240.5255046882581
 31
0.0
  0
LINE
  5
308
330
1F
100
AcDbEntity
  8
通り芯
  6
Continuous
 62
     6
370
     9
100
AcDbLine
 10
211.5351770174003
 20
236.0154881598381
 30
0.0
 11
211.9388996710419
 21
240.5255046882581
 31
0.0
  0
LINE
  5
309
330
1F
100
AcDbEntity
  8
3-5
  6
Continuous
 62
     7
370
     9
100
AcDbLine
 10
-276.7196759121961
 20
183.5262483627534
 30
0.0
 11
-281.2853860314945
 21
189.4763842896959
 31
0.0
  0
LINE
  5
30A
330
1F
100
AcDbEntity
  8
3-5
  6
Continuous
 62
     7
370
     9
100
AcDbLine
 10
-276.7196759121961
 20
183.5262483627534
 30
0.0
 11
-279.5898170188775
 21
190.4553552039696
 31
0.0
  0
LINE
  5
30B
330
1F
100
AcDbEntity
  8
通り芯
  6
Continuous
 62
     3
370
     9
100
AcDbLine
 10
-288.7834699093358
 20
182.6496157661961
 30
0.0
 11
-289.6739783217851
 21
175.5255925883092
 31
0.0
  0
ARC
  5
30C
330
1F
100
AcDbEntity
  8
通り芯
  6
Continuous
 62
     3
370
     9
100
AcDbCircle
 10
-287.7911921271693
 20
182.5255802752324
 30
0.0
 40
1.0
100
AcDbArc
 50
90.0
 51
172.8749399767734
  0
LINE
  5
30D
330
1F
100
AcDbEntity
  8
通り芯
  6
Continuous
 62
     3
370
     9
100
AcDbLine
 10
-105.5645624245064
 20
182.6496218171841
 30
0.0
 11
-104.6740091339344
 21
175.5255925883092
 31
0.0
  0
LINE
  5
30E
330
1F
100
AcDbEntity
  8
通り芯
  6
Continuous
 62
     3
370
     9
100
AcDbLine
 10
-106.556839450276
 20
183.5255802752324
 30
0.0
 11
-287.7911921271693
 21
183.5255802752324
 31
0.0
  0
ARC
  5
30F
330
1F
100
AcDbEntity
  8
通り芯
  6
Continuous
 62
     3
370
     9
100
AcDbCircle
 10
-106.556839450276
 20
182.5255802752324
 30
0.0
 40
1.0
100
AcDbArc
 50
7.125409417529431
 51
89.99999999999996
  0
LINE
  5
310
330
1F
100
AcDbEntity
  8
寸法
  6
Continuous
 62
     7
370
     9
100
AcDbLine
 10
-254.1738874171076
 20
140.8250246696847
 30
0.0
 11
-258.6130321912693
 21
134.7798618369702
 31
0.0
  0
LINE
  5
311
330
1F
100
AcDbEntity
  8
寸法
  6
Continuous
 62
     7
370
     9
100
AcDbLine
 10
-254.1738874171076
 20
140.8250246696847
 30
0.0
 11
-260.026375272959
 21
136.1347809769634
 31
0.0
  0
LINE
  5
312
330
1F
100
AcDbEntity
  8
3-5
  6
Continuous
 62
     7
370
     9
100
AcDbLine
 10
-347.1150269958972
 20
-10.88216644962019
 30
0.0
 11
-284.1621040765244
 21
-10.88216644962019
 31
0.0
  0
LINE
  5
313
330
1F
100
AcDbEntity
  8
3-5
  6
Continuous
 62
     7
370
     9
100
AcDbLine
 10
-284.1621040765244
 20
-10.88216644962019
 30
0.0
 11
-238.9216242042203
 21
67.47666717315893
 31
0.0
  0
LINE
  5
314
330
1F
100
AcDbEntity
  8
3-5
  6
Continuous
 62
     7
370
     9
100
AcDbLine
 10
-238.9216242042203
 20
67.47666717315893
 30
0.0
 11
-241.7917490308559
 21
60.54757029986199
 31
0.0
  0
LINE
  5
315
330
1F
100
AcDbEntity
  8
3-5
  6
Continuous
 62
     7
370
     9
100
AcDbLine
 10
-238.9216242042203
 20
67.47666717315893
 30
0.0
 11
-243.4873341351103
 21
61.52651651733741
 31
0.0
  0
TEXT
  5
316
330
1F
100
AcDbEntity
  8
3-4
  6
Continuous
 62
     2
370
   211
100
AcDbText
 10
-92.73101136706597
 20
39.15068584035099
 30
0.0
 40
9.144
  1
76
 50
90.0
 41
1.0625
  7
ＭＳ ゴシック
100
AcDbText
  0
LINE
  5
317
330
1F
100
AcDbEntity
  8
3-4
  6
Continuous
 62
     7
370
     9
100
AcDbLine
 10
-88.03901136706597
 20
7.525761359205589
 30
0.0
 11
-88.03901136706597
 21
83.52561032149639
 31
0.0
  0
LINE
  5
318
330
1F
100
AcDbEntity
  8
3-4
  6
Continuous
 62
     7
370
     9
100
AcDbLine
 10
-88.03901136706597
 20
7.525761359205589
 30
0.0
 11
-89.01795780871655
 21
14.96159781950938
 31
0.0
  0
LINE
  5
319
330
1F
100
AcDbEntity
  8
3-4
  6
Continuous
 62
     7
370
     9
100
AcDbLine
 10
-88.03901136706597
 20
7.525761359205589
 30
0.0
 11
-87.06006492541607
 21
14.96159781950938
 31
0.0
  0
LINE
  5
31A
330
1F
100
AcDbEntity
  8
3-4
  6
Continuous
 62
     7
370
     9
100
AcDbLine
 10
-88.03901136706597
 20
83.52561032149639
 30
0.0
 11
-89.01795780871655
 21
76.08977386119277
 31
0.0
  0
LINE
  5
31B
330
1F
100
AcDbEntity
  8
3-4
  6
Continuous
 62
     7
370
     9
100
AcDbLine
 10
-88.03901136706597
 20
83.52561032149639
 30
0.0
 11
-87.06006492541607
 21
76.08977386119277
 31
0.0
  0
LINE
  5
31C
330
1F
100
AcDbEntity
  8
3-4
  6
Continuous
 62
     7
370
     9
100
AcDbLine
 10
-88.03901136706597
 20
83.52561032149639
 30
0.0
 11
-88.03901136706597
 21
113.5256508544958
 31
0.0
  0
LINE
  5
31D
330
1F
100
AcDbEntity
  8
3-4
  6
Continuous
 62
     7
370
     9
100
AcDbLine
 10
-88.03901136706597
 20
83.52561032149639
 30
0.0
 11
-89.01795780871655
 21
90.96144678179984
 31
0.0
  0
LINE
  5
31E
330
1F
100
AcDbEntity
  8
3-4
  6
Continuous
 62
     7
370
     9
100
AcDbLine
 10
-88.03901136706597
 20
83.52561032149639
 30
0.0
 11
-87.06006492541607
 21
90.96144678179984
 31
0.0
  0
LINE
  5
31F
330
1F
100
AcDbEntity
  8
3-4
  6
Continuous
 62
     7
370
     9
100
AcDbLine
 10
-88.03901136706597
 20
113.5256508544958
 30
0.0
 11
-89.01795780871655
 21
106.0898143941921
 31
0.0
  0
LINE
  5
320
330
1F
100
AcDbEntity
  8
3-4
  6
Continuous
 62
     7
370
     9
100
AcDbLine
 10
-88.03901136706597
 20
113.5256508544958
 30
0.0
 11
-87.06006492541607
 21
106.0898143941921
 31
0.0
  0
TEXT
  5
321
330
1F
100
AcDbEntity
  8
3-4
  6
Continuous
 62
     2
370
   211
100
AcDbText
 10
-92.73101136706597
 20
92.1506305879959
 30
0.0
 40
9.144
  1
30
 50
90.0
 41
1.0625
  7
ＭＳ ゴシック
100
AcDbText
  0
LINE
  5
322
330
1F
100
AcDbEntity
  8
3-4
  6
Continuous
 62
     7
370
     9
100
AcDbLine
 10
-110.6493346590988
 20
7.525761359205589
 30
0.0
 11
-111.6282811007487
 21
14.96159781950938
 31
0.0
  0
LINE
  5
323
330
1F
100
AcDbEntity
  8
3-4
  6
Continuous
 62
     7
370
     9
100
AcDbLine
 10
-110.6493346590988
 20
7.525761359205589
 30
0.0
 11
-109.6703882174479
 21
14.96159781950938
 31
0.0
  0
LINE
  5
324
330
1F
100
AcDbEntity
  8
3-4
  6
Continuous
 62
     7
370
     9
100
AcDbLine
 10
-110.6493346590988
 20
7.525761359205589
 30
0.0
 11
-110.6493346590988
 21
61.33015387558895
 31
0.0
  0
LINE
  5
325
330
1F
100
AcDbEntity
  8
3-4
  6
Continuous
 62
     7
370
     9
100
AcDbLine
 10
-110.6493346590988
 20
61.33015387558895
 30
0.0
 11
-111.6282811007487
 21
53.8943174152855
 31
0.0
  0
LINE
  5
326
330
1F
100
AcDbEntity
  8
3-4
  6
Continuous
 62
     7
370
     9
100
AcDbLine
 10
-110.6493346590988
 20
61.33015387558895
 30
0.0
 11
-109.6703882174479
 21
53.8943174152855
 31
0.0
  0
TEXT
  5
327
330
1F
100
AcDbEntity
  8
3-4
  6
Continuous
 62
     2
370
   211
100
AcDbText
 10
-115.3413346590978
 20
28.05295761739727
 30
0.0
 40
9.144
  1
54
 50
90.0
 41
1.0625
  7
ＭＳ ゴシック
100
AcDbText
  0
LINE
  5
328
330
1F
100
AcDbEntity
  8
3-4
  6
Continuous
 62
     7
370
     9
100
AcDbLine
 10
-87.1390113670661
 20
7.525761359205589
 30
0.0
 11
-167.0024644995321
 21
7.525761359205589
 31
0.0
  0
LINE
  5
329
330
1F
100
AcDbEntity
  8
3-4
  6
Continuous
 62
     7
370
     9
100
AcDbLine
 10
-109.7493346590983
 20
61.33015387558895
 30
0.0
 11
-160.784365330782
 21
61.33015387558895
 31
0.0
  0
LINE
  5
32A
330
1F
100
AcDbEntity
  8
3-4
  6
Continuous
 62
     7
370
     9
100
AcDbLine
 10
-87.1390113670661
 20
113.5256508544958
 30
0.0
 11
-132.9238836465958
 21
113.5256508544958
 31
0.0
  0
LINE
  5
32B
330
1F
100
AcDbEntity
  8
3-4
  6
Continuous
 62
     7
370
     9
100
AcDbLine
 10
-213.1739364632152
 20
-52.75354600531951
 30
0.0
 11
-181.1738866217653
 21
-52.75354600531951
 31
0.0
  0
LINE
  5
32C
330
1F
100
AcDbEntity
  8
3-4
  6
Continuous
 62
     7
370
     9
100
AcDbLine
 10
-213.1739364632152
 20
-52.75354600531951
 30
0.0
 11
-205.7381000029114
 21
-51.77459956366893
 31
0.0
  0
LINE
  5
32D
330
1F
100
AcDbEntity
  8
3-4
  6
Continuous
 62
     7
370
     9
100
AcDbLine
 10
-213.1739364632152
 20
-52.75354600531951
 30
0.0
 11
-205.7381000029114
 21
-53.73249244696974
 31
0.0
  0
LINE
  5
32E
330
1F
100
AcDbEntity
  8
3-4
  6
Continuous
 62
     7
370
     9
100
AcDbLine
 10
-181.1738866217653
 20
-52.75354600531951
 30
0.0
 11
-188.6097230820691
 21
-51.77459956366893
 31
0.0
  0
LINE
  5
32F
330
1F
100
AcDbEntity
  8
3-4
  6
Continuous
 62
     7
370
     9
100
AcDbLine
 10
-181.1738866217653
 20
-52.75354600531951
 30
0.0
 11
-188.6097230820691
 21
-53.73249244696974
 31
0.0
  0
LINE
  5
330
330
1F
100
AcDbEntity
  8
3-4
  6
Continuous
 62
     7
370
     9
100
AcDbLine
 10
-213.1739364632152
 20
-53.65354600531937
 30
0.0
 11
-213.1739364632152
 21
1.52580161604503
 31
0.0
  0
LINE
  5
331
330
1F
100
AcDbEntity
  8
3-4
  6
Continuous
 62
     7
370
     9
100
AcDbLine
 10
-181.1738866217653
 20
-53.65354600531937
 30
0.0
 11
-181.1738866217653
 21
1.52580161604503
 31
0.0
  0
TEXT
  5
332
330
1F
100
AcDbEntity
  8
3-4
  6
Continuous
 62
     2
370
   211
100
AcDbText
 10
-210.2989115424899
 20
-48.06154600531951
 30
0.0
 40
9.144
  1
φ32
 41
1.09375
  7
ＭＳ ゴシック
100
AcDbText
  0
LINE
  5
333
330
1F
100
AcDbEntity
  8
3-4
  6
Continuous
 62
     7
370
     9
100
AcDbLine
 10
-219.673982199079
 20
-73.36586532539282
 30
0.0
 11
-174.6738408859015
 21
-73.36586532539282
 31
0.0
  0
LINE
  5
334
330
1F
100
AcDbEntity
  8
3-4
  6
Continuous
 62
     7
370
     9
100
AcDbLine
 10
-219.673982199079
 20
-73.36586532539282
 30
0.0
 11
-212.2381457387752
 21
-72.38691888374258
 31
0.0
  0
LINE
  5
335
330
1F
100
AcDbEntity
  8
3-4
  6
Continuous
 62
     7
370
     9
100
AcDbLine
 10
-219.673982199079
 20
-73.36586532539282
 30
0.0
 11
-212.2381457387752
 21
-74.3448117670434
 31
0.0
  0
LINE
  5
336
330
1F
100
AcDbEntity
  8
3-4
  6
Continuous
 62
     7
370
     9
100
AcDbLine
 10
-174.6738408859015
 20
-73.36586532539282
 30
0.0
 11
-182.1096773462046
 21
-72.38691888374258
 31
0.0
  0
LINE
  5
337
330
1F
100
AcDbEntity
  8
3-4
  6
Continuous
 62
     7
370
     9
100
AcDbLine
 10
-174.6738408859015
 20
-73.36586532539282
 30
0.0
 11
-182.1096773462046
 21
-74.3448117670434
 31
0.0
  0
LINE
  5
338
330
1F
100
AcDbEntity
  8
3-4
  6
Continuous
 62
     7
370
     9
100
AcDbLine
 10
-219.673982199079
 20
-74.26586532539302
 30
0.0
 11
-219.673982199079
 21
3.525910018252873
 31
0.0
  0
LINE
  5
339
330
1F
100
AcDbEntity
  8
3-4
  6
Continuous
 62
     7
370
     9
100
AcDbLine
 10
-174.6738408859015
 20
-74.26586532539302
 30
0.0
 11
-174.6738408859015
 21
3.525910018252873
 31
0.0
  0
TEXT
  5
33A
330
1F
100
AcDbEntity
  8
3-4
  6
Continuous
 62
     2
370
   211
100
AcDbText
 10
-210.2989115424899
 20
-68.67386532539282
 30
0.0
 40
9.144
  1
φ45
 41
1.09375
  7
ＭＳ ゴシック
100
AcDbText
  0
LINE
  5
33B
330
1F
100
AcDbEntity
  8
3-4
  6
Continuous
 62
     7
370
     9
100
AcDbLine
 10
-138.1740260717798
 20
-95.5736029223328
 30
0.0
 11
-145.609862532083
 21
-94.59465648068256
 31
0.0
  0
LINE
  5
33C
330
1F
100
AcDbEntity
  8
3-4
  6
Continuous
 62
     7
370
     9
100
AcDbLine
 10
-138.1740260717798
 20
-95.5736029223328
 30
0.0
 11
-145.609862532083
 21
-96.55254936398337
 31
0.0
  0
LINE
  5
33D
330
1F
100
AcDbEntity
  8
3-4
  6
Continuous
 62
     7
370
     9
100
AcDbLine
 10
-138.1740260717798
 20
-96.47360292233266
 30
0.0
 11
-138.1740260717798
 21
77.52580850901181
 31
0.0
  0
LINE
  5
33E
330
1F
100
AcDbEntity
  8
3-4
  6
Continuous
 62
     7
370
     9
100
AcDbLine
 10
-256.1739807078122
 20
-95.5736029223328
 30
0.0
 11
-248.7381442475081
 21
-94.59465648068256
 31
0.0
  0
LINE
  5
33F
330
1F
100
AcDbEntity
  8
3-4
  6
Continuous
 62
     7
370
     9
100
AcDbLine
 10
-256.1739807078122
 20
-95.5736029223328
 30
0.0
 11
-248.7381442475081
 21
-96.55254936398337
 31
0.0
  0
LINE
  5
340
330
1F
100
AcDbEntity
  8
3-4
  6
Continuous
 62
     7
370
     9
100
AcDbLine
 10
-256.1739807078122
 20
-96.47360292233266
 30
0.0
 11
-256.1739807078122
 21
77.52580850901181
 31
0.0
  0
LINE
  5
341
330
1F
100
AcDbEntity
  8
3-4
  6
Continuous
 62
     7
370
     9
100
AcDbLine
 10
-256.1739807078122
 20
-95.5736029223328
 30
0.0
 11
-138.1740260717798
 21
-95.5736029223328
 31
0.0
  0
TEXT
  5
342
330
1F
100
AcDbEntity
  8
3-4
  6
Continuous
 62
     2
370
   211
100
AcDbText
 10
-213.6740033897962
 20
-90.8816029223328
 30
0.0
 40
9.144
  1
φ118
 41
1.1
  7
ＭＳ ゴシック
100
AcDbText
  0
LINE
  5
343
330
1F
100
AcDbEntity
  8
寸法
  6
Continuous
 62
     7
370
     9
100
AcDbLine
 10
-288.673944180981
 20
-125.7029150198083
 30
0.0
 11
-105.673944180981
 21
-125.7029150198083
 31
0.0
  0
LINE
  5
344
330
1F
100
AcDbEntity
  8
寸法
  6
Continuous
 62
     7
370
     9
100
AcDbLine
 10
-288.673944180981
 20
-146.7029150198083
 30
0.0
 11
-105.673944180981
 21
-146.7029150198083
 31
0.0
  0
LINE
  5
345
330
1F
100
AcDbEntity
  8
寸法
  6
Continuous
 62
     7
370
     9
100
AcDbLine
 10
-288.673944180981
 20
-125.7029150198083
 30
0.0
 11
-288.673944180981
 21
-146.7029150198083
 31
0.0
  0
TEXT
  5
346
330
1F
100
AcDbEntity
  8
寸法
  6
Continuous
 62
     2
370
     9
100
AcDbText
 10
-284.173944180981
 20
-140.5109150198083
 30
0.0
 40
9.144
  1
型枠ばらし～たてとい工事前
 41
1.115384615384615
  7
ＭＳ ゴシック
100
AcDbText
  0
LINE
  5
347
330
1F
100
AcDbEntity
  8
寸法
  6
Continuous
 62
     7
370
     9
100
AcDbLine
 10
-105.673944180981
 20
-125.7029150198083
 30
0.0
 11
-105.673944180981
 21
-146.7029150198083
 31
0.0
  0
LINE
  5
348
330
1F
100
AcDbEntity
  8
寸法
  6
Continuous
 62
     7
370
     9
100
AcDbLine
 10
170.6793207314113
 20
239.9369374596037
 30
0.0
 11
208.095108976622
 21
197.5931609978041
 31
0.0
  0
LINE
  5
349
330
1F
100
AcDbEntity
  8
寸法
  6
Continuous
 62
     7
370
     9
100
AcDbLine
 10
208.095108976622
 20
197.5931609978041
 30
0.0
 11
202.4378417437732
 21
202.5171154508973
 31
0.0
  0
LINE
  5
34A
330
1F
100
AcDbEntity
  8
寸法
  6
Continuous
 62
     7
370
     9
100
AcDbLine
 10
208.095108976622
 20
197.5931609978041
 30
0.0
 11
203.9050216398724
 21
203.8135442746136
 31
0.0
  0
LINE
  5
34B
330
1F
100
AcDbEntity
  8
寸法
  6
Continuous
 62
     7
370
     9
100
AcDbLine
 10
206.4588967854222
 20
140.8250246696847
 30
0.0
 11
202.0197520112604
 21
134.7798618369702
 31
0.0
  0
LINE
  5
34C
330
1F
100
AcDbEntity
  8
寸法
  6
Continuous
 62
     7
370
     9
100
AcDbLine
 10
206.4588967854222
 20
140.8250246696847
 30
0.0
 11
200.6064089295708
 21
136.1347809769634
 31
0.0
  0
TEXT
  5
34D
330
1F
100
AcDbEntity
  8
寸法
  6
Continuous
 62
     7
370
     9
100
AcDbText
 10
332.4136731955637
 20
329.580126563743
 30
0.0
 40
6.858000000000001
  1
たてとい
 41
1.125
  7
ＭＳ ゴシック
100
AcDbText
  0
LINE
  5
34E
330
1F
100
AcDbEntity
  8
その他
  6
Continuous
 62
     7
370
     9
100
AcDbLine
 10
332.255208473473
 20
327.5987187113395
 30
0.0
 11
372.9136731955637
 21
327.5987187113395
 31
0.0
  0
LINE
  5
34F
330
1F
100
AcDbEntity
  8
寸法
  6
Continuous
 62
     7
370
     9
100
AcDbLine
 10
332.255208473473
 20
327.5987187113395
 30
0.0
 11
307.9588878599143
 21
303.3023980977809
 31
0.0
  0
LINE
  5
350
330
1F
100
AcDbEntity
  8
寸法
  6
Continuous
 62
     7
370
     9
100
AcDbLine
 10
307.9588878599143
 20
303.3023980977809
 30
0.0
 11
312.5245985774798
 21
309.2525481499652
 31
0.0
  0
LINE
  5
351
330
1F
100
AcDbEntity
  8
寸法
  6
Continuous
 62
     7
370
     9
100
AcDbLine
 10
307.9588878599143
 20
303.3023980977809
 30
0.0
 11
313.9090379120987
 21
307.8681088153463
 31
0.0
  0
LINE
  5
352
330
1F
100
AcDbEntity
  8
通り芯
  6
JWW_CENTER1
 62
     3
370
     9
100
AcDbLine
 10
-197.173944180981
 20
-25.79838120266718
 30
0.0
 11
-197.173944180981
 21
204.3397033544455
 31
0.0
  0
LINE
  5
353
330
1F
100
AcDbEntity
  8
3-5
  6
Continuous
 62
     7
370
     9
100
AcDbLine
 10
-118.0114657996423
 20
-29.11672758648389
 30
0.0
 11
-175.1897256879189
 21
36.64393023884939
 31
0.0
  0
LINE
  5
354
330
1F
100
AcDbEntity
  8
3-5
  6
Continuous
 62
     7
370
     9
100
AcDbLine
 10
-175.1897256879189
 20
36.64393023884939
 30
0.0
 11
-171.0490494557559
 21
30.39054712725259
 31
0.0
  0
LINE
  5
355
330
1F
100
AcDbEntity
  8
3-5
  6
Continuous
 62
     7
370
     9
100
AcDbLine
 10
-175.1897256879189
 20
36.64393023884939
 30
0.0
 11
-169.5716449313674
 21
31.6753118581655
 31
0.0
  0
LINE
  5
356
330
1F
100
AcDbEntity
  8
3-5
  6
Continuous
 62
     7
370
     9
100
AcDbLine
 10
-80.80094586070751
 20
-29.11672758648389
 30
0.0
 11
-118.0114657996423
 21
-29.11672758648389
 31
0.0
  0
LINE
  5
357
330
1F
100
AcDbEntity
  8
3-5
  6
Continuous
 62
     7
370
     9
100
AcDbLine
 10
-173.383564417411
 20
-8.698515831514168
 30
0.0
 11
-167.9748214065407
 21
-13.89423513131892
 31
0.0
  0
LINE
  5
358
330
1F
100
AcDbEntity
  8
3-5
  6
Continuous
 62
     7
370
     9
100
AcDbLine
 10
-119.4117266968199
 20
-76.15532459063088
 30
0.0
 11
-173.383564417411
 21
-8.698515831514168
 31
0.0
  0
LINE
  5
359
330
1F
100
AcDbEntity
  8
3-5
  6
Continuous
 62
     7
370
     9
100
AcDbLine
 10
-173.383564417411
 20
-8.698515831514168
 30
0.0
 11
-169.5038709632473
 21
-15.11708099062248
 31
0.0
  0
TEXT
  5
35A
330
1F
100
AcDbEntity
  8
3-5
  6
Continuous
 62
     7
370
     9
100
AcDbText
 10
-116.5977240464117
 20
-71.25738452385492
 30
0.0
 40
6.858000000000001
  1
仮設排水ホース
 41
1.142857142857143
  7
ＭＳ ゴシック
100
AcDbText
  0
LINE
  5
35B
330
1F
100
AcDbEntity
  8
3-5
  6
Continuous
 62
     7
370
     9
100
AcDbLine
 10
-41.78372139600422
 20
-76.15532459063088
 30
0.0
 11
-119.4117266968199
 21
-76.15532459063088
 31
0.0
  0
TEXT
  5
35C
330
1F
100
AcDbEntity
  8
3-5
  6
Continuous
 62
     7
370
     9
100
AcDbText
 10
-115.043795829685
 20
-25.85704562923627
 30
0.0
 40
6.858000000000001
  1
番線等
 41
1.111111111111111
  7
ＭＳ ゴシック
100
AcDbText
  0
TEXT
  5
35D
330
1F
100
AcDbEntity
  8
F-5ﾚｲﾔ
  6
Continuous
 62
     2
370
     9
100
AcDbText
 10
290.0336933651486
 20
-402.6514720941493
 30
0.0
 40
9.144
  1
１：３
 41
1.083333333333333
  7
ＭＳ ゴシック
100
AcDbText
  0
TEXT
  5
35E
330
1F
100
AcDbEntity
  8
F-5ﾚｲﾔ
  6
Continuous
 62
     7
370
     9
100
AcDbText
 10
-245.3507850420912
 20
-288.5759326115628
 30
0.0
 40
6.858000000000001
  1
廊下・踊場用
 41
1.138888888888889
  7
ＭＳ ゴシック
100
AcDbText
  0
LINE
  5
35F
330
1F
100
AcDbEntity
  8
F-5ﾚｲﾔ
  6
Continuous
 62
     7
370
     9
100
AcDbLine
 10
-250.6007850420912
 20
-232.8449326115629
 30
0.0
 11
-250.6007850420912
 21
-322.8449326115629
 31
0.0
  0
LINE
  5
360
330
1F
100
AcDbEntity
  8
F-5ﾚｲﾔ
  6
Continuous
 62
     7
370
     9
100
AcDbLine
 10
-118.6007850420912
 20
-247.8449326115629
 30
0.0
 11
-118.6007850420912
 21
-322.8449326115629
 31
0.0
  0
LINE
  5
361
330
1F
100
AcDbEntity
  8
F-5ﾚｲﾔ
  6
Continuous
 62
     7
370
     9
100
AcDbLine
 10
-58.60078504209123
 20
-247.8449326115629
 30
0.0
 11
-58.60078504209123
 21
-322.8449326115629
 31
0.0
  0
LINE
  5
362
330
1F
100
AcDbEntity
  8
F-5ﾚｲﾔ
  6
Continuous
 62
     7
370
     9
100
AcDbLine
 10
61.39921495790877
 20
-247.8449326115629
 30
0.0
 11
61.39921495790877
 21
-322.8449326115629
 31
0.0
  0
LINE
  5
363
330
1F
100
AcDbEntity
  8
F-5ﾚｲﾔ
  6
Continuous
 62
     7
370
     9
100
AcDbLine
 10
121.3992149579088
 20
-247.8449326115629
 30
0.0
 11
121.3992149579088
 21
-322.8449326115629
 31
0.0
  0
LINE
  5
364
330
1F
100
AcDbEntity
  8
F-5ﾚｲﾔ
  6
Continuous
 62
     7
370
     9
100
AcDbLine
 10
-178.6007850420912
 20
-232.8449326115629
 30
0.0
 11
-178.6007850420912
 21
-322.8449326115629
 31
0.0
  0
LINE
  5
365
330
1F
100
AcDbEntity
  8
F-5ﾚｲﾔ
  6
Continuous
 62
     7
370
     9
100
AcDbLine
 10
1.399214957908768
 20
-232.8449326115629
 30
0.0
 11
1.399214957908768
 21
-322.8449326115629
 31
0.0
  0
TEXT
  5
366
330
1F
100
AcDbEntity
  8
F-5ﾚｲﾔ
  6
Continuous
 62
     7
370
     9
100
AcDbText
 10
-245.3507850420912
 20
-273.5759326115628
 30
0.0
 40
6.858000000000001
  1
バルコニー
 41
1.133333333333333
  7
ＭＳ ゴシック
100
AcDbText
  0
TEXT
  5
367
330
1F
100
AcDbEntity
  8
F-5ﾚｲﾔ
  6
Continuous
 62
     7
370
     9
100
AcDbText
 10
-245.3507850420912
 20
-303.5759326115628
 30
0.0
 40
6.858000000000001
  1
バルコニー
 41
1.133333333333333
  7
ＭＳ ゴシック
100
AcDbText
  0
TEXT
  5
368
330
1F
100
AcDbEntity
  8
F-5ﾚｲﾔ
  6
Continuous
 62
     7
370
     9
100
AcDbText
 10
-245.3507850420912
 20
-318.5759326115628
 30
0.0
 40
6.858000000000001
  1
中継用
 41
1.111111111111111
  7
ＭＳ ゴシック
100
AcDbText
  0
TEXT
  5
369
330
1F
100
AcDbEntity
  8
F-5ﾚｲﾔ
  6
Continuous
 62
     7
370
     9
100
AcDbText
 10
-245.3507850420912
 20
-258.5759326115628
 30
0.0
 40
6.858000000000001
  1
屋上用
 41
1.111111111111111
  7
ＭＳ ゴシック
100
AcDbText
  0
TEXT
  5
36A
330
1F
100
AcDbEntity
  8
F-5ﾚｲﾔ
  6
Continuous
 62
     7
370
     9
100
AcDbText
 10
-171.1007850420912
 20
-244.1144326115629
 30
0.0
 40
8.001
  1
アスファルト防水･シート防水･屋根部塗膜防水用
 41
0.7142857142857143
  7
ＭＳ ゴシック
100
AcDbText
  0
LINE
  5
36B
330
1F
100
AcDbEntity
  8
F-5ﾚｲﾔ
  6
Continuous
 62
     7
370
     9
100
AcDbLine
 10
181.3992149579088
 20
-247.8449326115629
 30
0.0
 11
181.3992149579088
 21
-322.8449326115629
 31
0.0
  0
TEXT
  5
36C
330
1F
100
AcDbEntity
  8
F-5ﾚｲﾔ
  6
Continuous
 62
     7
370
     9
100
AcDbText
 10
125.5242149579088
 20
-318.5759326115628
 30
0.0
 40
6.858000000000001
  1
EMDW-1H･2H
 41
1.15
  7
ＭＳ ゴシック
100
AcDbText
  0
TEXT
  5
36D
330
1F
100
AcDbEntity
  8
F-5ﾚｲﾔ
  6
Continuous
 62
     7
370
     9
100
AcDbText
 10
-250.6007850420912
 20
-229.2618311831576
 30
0.0
 40
6.858000000000001
  1
設定機種
 41
1.125
  7
ＭＳ ゴシック
100
AcDbText
  0
TEXT
  5
36E
330
1F
100
AcDbEntity
  8
F-5ﾚｲﾔ
  6
Continuous
 62
     7
370
     9
100
AcDbText
 10
-51.85078504209123
 20
-258.5759326115628
 30
0.0
 40
6.858000000000001
  1
ESP-1H･2H
 41
1.148148148148148
  7
ＭＳ ゴシック
100
AcDbText
  0
TEXT
  5
36F
330
1F
100
AcDbEntity
  8
F-5ﾚｲﾔ
  6
Continuous
 62
     7
370
     9
100
AcDbText
 10
68.14921495790877
 20
-258.5759326115628
 30
0.0
 40
6.858000000000001
  1
EMP-1H･2H
 41
1.148148148148148
  7
ＭＳ ゴシック
100
AcDbText
  0
TEXT
  5
370
330
1F
100
AcDbEntity
  8
F-5ﾚｲﾔ
  6
Continuous
 62
     7
370
     9
100
AcDbText
 10
-51.85078504209123
 20
-273.5759326115628
 30
0.0
 40
6.858000000000001
  1
ESR-1H･2H
 41
1.148148148148148
  7
ＭＳ ゴシック
100
AcDbText
  0
TEXT
  5
371
330
1F
100
AcDbEntity
  8
F-5ﾚｲﾔ
  6
Continuous
 62
     7
370
     9
100
AcDbText
 10
-51.85078504209123
 20
-288.5759326115628
 30
0.0
 40
6.858000000000001
  1
ESF-1H･2H
 41
1.148148148148148
  7
ＭＳ ゴシック
100
AcDbText
  0
TEXT
  5
372
330
1F
100
AcDbEntity
  8
F-5ﾚｲﾔ
  6
Continuous
 62
     7
370
     9
100
AcDbText
 10
-51.85078504209123
 20
-318.5759326115628
 30
0.0
 40
6.858000000000001
  1
ESJ-1H･2H
 41
1.148148148148148
  7
ＭＳ ゴシック
100
AcDbText
  0
TEXT
  5
373
330
1F
100
AcDbEntity
  8
F-5ﾚｲﾔ
  6
Continuous
 62
     7
370
     9
100
AcDbText
 10
-51.85078504209123
 20
-303.5759326115628
 30
0.0
 40
6.858000000000001
  1
ESB-1H･2H
 41
1.148148148148148
  7
ＭＳ ゴシック
100
AcDbText
  0
TEXT
  5
374
330
1F
100
AcDbEntity
  8
F-5ﾚｲﾔ
  6
Continuous
 62
     7
370
     9
100
AcDbText
 10
8.149214957908768
 20
-273.5759326115628
 30
0.0
 40
6.858000000000001
  1
WMR-1H･2H
 41
1.148148148148148
  7
ＭＳ ゴシック
100
AcDbText
  0
TEXT
  5
375
330
1F
100
AcDbEntity
  8
F-5ﾚｲﾔ
  6
Continuous
 62
     7
370
     9
100
AcDbText
 10
8.149214957908768
 20
-303.5759326115628
 30
0.0
 40
6.858000000000001
  1
WMB-1H･2H
 41
1.148148148148148
  7
ＭＳ ゴシック
100
AcDbText
  0
TEXT
  5
376
330
1F
100
AcDbEntity
  8
F-5ﾚｲﾔ
  6
Continuous
 62
     7
370
     9
100
AcDbText
 10
8.149214957908768
 20
-318.5759326115628
 30
0.0
 40
6.858000000000001
  1
WMJ-1H･2H
 41
1.148148148148148
  7
ＭＳ ゴシック
100
AcDbText
  0
TEXT
  5
377
330
1F
100
AcDbEntity
  8
F-5ﾚｲﾔ
  6
Continuous
 62
     7
370
     9
100
AcDbText
 10
68.14921495790877
 20
-273.5759326115628
 30
0.0
 40
6.858000000000001
  1
EMR-1H･2H
 41
1.148148148148148
  7
ＭＳ ゴシック
100
AcDbText
  0
TEXT
  5
378
330
1F
100
AcDbEntity
  8
F-5ﾚｲﾔ
  6
Continuous
 62
     7
370
     9
100
AcDbText
 10
68.14921495790877
 20
-288.5759326115628
 30
0.0
 40
6.858000000000001
  1
EMF-1H･2H
 41
1.148148148148148
  7
ＭＳ ゴシック
100
AcDbText
  0
TEXT
  5
379
330
1F
100
AcDbEntity
  8
F-5ﾚｲﾔ
  6
Continuous
 62
     7
370
     9
100
AcDbText
 10
68.14921495790877
 20
-303.5759326115628
 30
0.0
 40
6.858000000000001
  1
EMB-1H･2H
 41
1.148148148148148
  7
ＭＳ ゴシック
100
AcDbText
  0
TEXT
  5
37A
330
1F
100
AcDbEntity
  8
F-5ﾚｲﾔ
  6
Continuous
 62
     7
370
     9
100
AcDbText
 10
68.14921495790877
 20
-318.5759326115628
 30
0.0
 40
6.858000000000001
  1
EMJ-1H･2H
 41
1.148148148148148
  7
ＭＳ ゴシック
100
AcDbText
  0
TEXT
  5
37B
330
1F
100
AcDbEntity
  8
F-5ﾚｲﾔ
  6
Continuous
 62
     7
370
     9
100
AcDbText
 10
128.1492149579088
 20
-273.5759326115628
 30
0.0
 40
6.858000000000001
  1
EMD-1H･2H
 41
1.148148148148148
  7
ＭＳ ゴシック
100
AcDbText
  0
TEXT
  5
37C
330
1F
100
AcDbEntity
  8
F-5ﾚｲﾔ
  6
Continuous
 62
     7
370
     9
100
AcDbText
 10
125.5242149579088
 20
-288.5759326115628
 30
0.0
 40
6.858000000000001
  1
EMDF-1H･2H
 41
1.15
  7
ＭＳ ゴシック
100
AcDbText
  0
LINE
  5
37D
330
1F
100
AcDbEntity
  8
F-5ﾚｲﾔ
  6
Continuous
 62
     7
370
     9
100
AcDbLine
 10
301.3992149579088
 20
-232.8449326115629
 30
0.0
 11
301.3992149579088
 21
-322.8449326115629
 31
0.0
  0
TEXT
  5
37E
330
1F
100
AcDbEntity
  8
F-5ﾚｲﾔ
  6
Continuous
 62
     7
370
     9
100
AcDbText
 10
248.1492149579088
 20
-273.5759326115628
 30
0.0
 40
6.858000000000001
  1
EMZ-1H･2H
 41
1.148148148148148
  7
ＭＳ ゴシック
100
AcDbText
  0
LINE
  5
37F
330
1F
100
AcDbEntity
  8
F-5ﾚｲﾔ
  6
Continuous
 62
     7
370
     9
100
AcDbLine
 10
-250.6007850420912
 20
-232.8449326115629
 30
0.0
 11
301.3992149579088
 21
-232.8449326115629
 31
0.0
  0
LINE
  5
380
330
1F
100
AcDbEntity
  8
F-5ﾚｲﾔ
  6
Continuous
 62
     7
370
     9
100
AcDbLine
 10
-250.6007850420912
 20
-322.8449326115629
 30
0.0
 11
301.3992149579088
 21
-322.8449326115629
 31
0.0
  0
LINE
  5
381
330
1F
100
AcDbEntity
  8
F-5ﾚｲﾔ
  6
Continuous
 62
     7
370
     9
100
AcDbLine
 10
-250.6007850420912
 20
-247.8449326115629
 30
0.0
 11
301.3992149579088
 21
-247.8449326115629
 31
0.0
  0
LINE
  5
382
330
1F
100
AcDbEntity
  8
F-5ﾚｲﾔ
  6
Continuous
 62
     7
370
     9
100
AcDbLine
 10
-250.6007850420912
 20
-262.8449326115629
 30
0.0
 11
301.3992149579088
 21
-262.8449326115629
 31
0.0
  0
LINE
  5
383
330
1F
100
AcDbEntity
  8
F-5ﾚｲﾔ
  6
Continuous
 62
     7
370
     9
100
AcDbLine
 10
-250.6007850420912
 20
-292.8449326115629
 30
0.0
 11
301.3992149579088
 21
-292.8449326115629
 31
0.0
  0
LINE
  5
384
330
1F
100
AcDbEntity
  8
F-5ﾚｲﾔ
  6
Continuous
 62
     7
370
     9
100
AcDbLine
 10
-178.6007850420912
 20
-277.8449326115629
 30
0.0
 11
301.3992149579088
 21
-277.8449326115629
 31
0.0
  0
LINE
  5
385
330
1F
100
AcDbEntity
  8
F-5ﾚｲﾔ
  6
Continuous
 62
     7
370
     9
100
AcDbLine
 10
-178.6007850420912
 20
-307.8449326115629
 30
0.0
 11
301.3992149579088
 21
-307.8449326115629
 31
0.0
  0
TEXT
  5
386
330
1F
100
AcDbEntity
  8
F-5ﾚｲﾔ
  6
Continuous
 62
     7
370
     9
100
AcDbText
 10
188.1492149579088
 20
-273.5759326115628
 30
0.0
 40
6.858000000000001
  1
EMA-1H･2H
 41
1.148148148148148
  7
ＭＳ ゴシック
100
AcDbText
  0
TEXT
  5
387
330
1F
100
AcDbEntity
  8
F-5ﾚｲﾔ
  6
Continuous
 62
     7
370
     9
100
AcDbText
 10
185.5242149579088
 20
-288.5759326115628
 30
0.0
 40
6.858000000000001
  1
EMAF-1H･2H
 41
1.149999999999999
  7
ＭＳ ゴシック
100
AcDbText
  0
TEXT
  5
388
330
1F
100
AcDbEntity
  8
F-5ﾚｲﾔ
  6
Continuous
 62
     7
370
     9
100
AcDbText
 10
185.5242149579088
 20
-303.5759326115628
 30
0.0
 40
6.858000000000001
  1
EMAB-1H･2H
 41
1.15
  7
ＭＳ ゴシック
100
AcDbText
  0
TEXT
  5
389
330
1F
100
AcDbEntity
  8
F-5ﾚｲﾔ
  6
Continuous
 62
     7
370
     9
100
AcDbText
 10
-114.4757850420912
 20
-318.5759326115628
 30
0.0
 40
6.858000000000001
  1
WSJ-1H・2H
 41
1.15
  7
ＭＳ ゴシック
100
AcDbText
  0
TEXT
  5
38A
330
1F
100
AcDbEntity
  8
F-5ﾚｲﾔ
  6
Continuous
 62
     7
370
     9
100
AcDbText
 10
-114.4757850420912
 20
-303.5759326115628
 30
0.0
 40
6.858000000000001
  1
WSB-1H・2H
 41
1.15
  7
ＭＳ ゴシック
100
AcDbText
  0
TEXT
  5
38B
330
1F
100
AcDbEntity
  8
F-5ﾚｲﾔ
  6
Continuous
 62
     7
370
     9
100
AcDbText
 10
-111.8507850420912
 20
-258.5759326115628
 30
0.0
 40
6.858000000000001
  1
WSP-1H･2H
 41
1.148148148148148
  7
ＭＳ ゴシック
100
AcDbText
  0
LINE
  5
38C
330
1F
100
AcDbEntity
  8
F-5ﾚｲﾔ
  6
Continuous
 62
     7
370
     9
100
AcDbLine
 10
241.3992149579088
 20
-247.8449326115629
 30
0.0
 11
241.3992149579088
 21
-322.8449326115629
 31
0.0
  0
TEXT
  5
38D
330
1F
100
AcDbEntity
  8
F-5ﾚｲﾔ
  6
Continuous
 62
     7
370
     9
100
AcDbText
 10
106.3992149579088
 20
-244.1144326115629
 30
0.0
 40
8.001
  1
塗膜防水・モルタル防水用
 41
0.7142857142857143
  7
ＭＳ ゴシック
100
AcDbText
  0
TEXT
  5
38E
330
1F
100
AcDbEntity
  8
F-5ﾚｲﾔ
  6
Continuous
 62
     7
370
     9
100
AcDbText
 10
-171.8507850420912
 20
-258.5759326115628
 30
0.0
 40
6.858000000000001
  1
WHP-1H･2H
 41
1.148148148148148
  7
ＭＳ ゴシック
100
AcDbText
  0
TEXT
  5
38F
330
1F
100
AcDbEntity
  8
F-5ﾚｲﾔ
  6
Continuous
 62
     7
370
     9
100
AcDbText
 10
-171.8507850420912
 20
-273.5759326115628
 30
0.0
 40
6.858000000000001
  1
WHR-1H･2H
 41
1.148148148148148
  7
ＭＳ ゴシック
100
AcDbText
  0
TEXT
  5
390
330
1F
100
AcDbEntity
  8
F-5ﾚｲﾔ
  6
Continuous
 62
     7
370
     9
100
AcDbText
 10
-171.8507850420912
 20
-303.5759326115628
 30
0.0
 40
6.858000000000001
  1
WHB-1H･2H
 41
1.148148148148148
  7
ＭＳ ゴシック
100
AcDbText
  0
LINE
  5
391
330
1F
100
AcDbEntity
  8
0-8
  6
Continuous
 62
     7
370
     9
100
AcDbLine
 10
-287.7911921271693
 20
183.5255802752324
 30
0.0
 11
-389.6739783217851
 21
183.5255802752324
 31
0.0
  0
LINE
  5
392
330
1F
100
AcDbEntity
  8
0-8
  6
Continuous
 62
     7
370
     9
100
AcDbLine
 10
-256.1738967255579
 20
83.52565986837524
 30
0.0
 11
-389.6739783217851
 21
83.52565986837524
 31
0.0
  0
TEXT
  5
393
330
1F
100
AcDbEntity
  8
3-5
  6
Continuous
 62
     7
370
     9
100
AcDbText
 10
-347.1150269958972
 20
-22.4384054764886
 30
0.0
 40
6.858000000000001
  1
ポリエチレン
 41
1.138888888888889
  7
ＭＳ ゴシック
100
AcDbText
  0
TEXT
  5
394
330
1F
100
AcDbEntity
  8
3-5
  6
Continuous
 62
     7
370
     9
100
AcDbText
 10
-347.1150269958972
 20
-5.984226382844232
 30
0.0
 40
6.858000000000001
  1
ホースくち
 41
1.133333333333333
  7
ＭＳ ゴシック
100
AcDbText
  0
LINE
  5
395
330
1F
100
AcDbEntity
  8
3-5
  6
Continuous
 62
     7
370
     9
100
AcDbLine
 10
-397.3354291183803
 20
41.52566413965796
 30
0.0
 11
-288.8434359818419
 21
41.52566413965796
 31
0.0
  0
TEXT
  5
396
330
1F
100
AcDbEntity
  8
3-5
  6
Continuous
 62
     7
370
     9
100
AcDbText
 10
-396.919070195651
 20
31.07067755368045
 30
0.0
 40
6.858000000000001
  1
ポリエチレン
 41
1.138888888888888
  7
ＭＳ ゴシック
100
AcDbText
  0
TEXT
  5
397
330
1F
100
AcDbEntity
  8
3-5
  6
Continuous
 62
     7
370
     9
100
AcDbText
 10
-396.919070195651
 20
46.42360420643391
 30
0.0
 40
6.858000000000001
  1
ジョイントスペーサー
 41
1.150000000000015
  7
ＭＳ ゴシック
100
AcDbText
  0
LINE
  5
398
330
1F
100
AcDbEntity
  8
3-5
  6
Continuous
 62
     7
370
     9
100
AcDbLine
 10
-288.8434359818419
 20
41.52566413965796
 30
0.0
 11
-257.8522445053046
 21
95.20399875361868
 31
0.0
  0
LINE
  5
399
330
1F
100
AcDbEntity
  8
3-5
  6
Continuous
 62
     7
370
     9
100
AcDbLine
 10
-257.8522445053047
 20
95.20399875361854
 30
0.0
 11
-262.4179544361947
 21
89.25384809779736
 31
0.0
  0
LINE
  5
39A
330
1F
100
AcDbEntity
  8
3-5
  6
Continuous
 62
     7
370
     9
100
AcDbLine
 10
-257.8522445053047
 20
95.20399875361854
 30
0.0
 11
-260.722369331941
 21
88.27490188032193
 31
0.0
  0
LINE
  5
39B
330
1F
100
AcDbEntity
  8
寸法
  6
Continuous
 62
     7
370
     9
100
AcDbLine
 10
-289.8878235822023
 20
103.571108100836
 30
0.0
 11
-254.1738874171076
 21
140.8250246696847
 31
0.0
  0
LINE
  5
39C
330
1F
100
AcDbEntity
  8
3-5
  6
Continuous
 62
     7
370
     9
100
AcDbLine
 10
-289.8878235822023
 20
103.571108100836
 30
0.0
 11
-394.2539496818691
 21
103.571108100836
 31
0.0
  0
TEXT
  5
39D
330
1F
100
AcDbEntity
  8
3-5
  6
Continuous
 62
     7
370
     9
100
AcDbText
 10
-393.3646344939814
 20
93.55321302549228
 30
0.0
 40
6.858000000000001
  1
硬質ポリ塩化ビニル管
 41
1.15
  7
ＭＳ ゴシック
100
AcDbText
  0
LINE
  5
39E
330
1F
100
AcDbEntity
  8
0-8
  6
Continuous
 62
     7
370
     9
100
AcDbLine
 10
-106.556839450276
 20
183.5255802752324
 30
0.0
 11
-4.674009133934419
 21
183.5255802752324
 31
0.0
  0
LINE
  5
39F
330
1F
100
AcDbEntity
  8
0-8
  6
Continuous
 62
     7
370
     9
100
AcDbLine
 10
-138.1739916364041
 20
83.52565986837524
 30
0.0
 11
-4.674009133934419
 21
83.52565986837524
 31
0.0
  0
LINE
  5
3A0
330
1F
100
AcDbEntity
  8
3-5
  6
Continuous
 62
     7
370
     9
100
AcDbLine
 10
-276.7196759121961
 20
183.5262483627534
 30
0.0
 11
-296.8303552093296
 21
218.4523397717004
 31
0.0
  0
LINE
  5
3A1
330
1F
100
AcDbEntity
  8
3-5
  6
Continuous
 62
     7
370
     9
100
AcDbLine
 10
-381.3395138947769
 20
218.4523397717004
 30
0.0
 11
-296.8303552093296
 21
218.4523397717004
 31
0.0
  0
TEXT
  5
3A2
330
1F
100
AcDbEntity
  8
3-5
  6
Continuous
 62
     7
370
     9
100
AcDbText
 10
-381.3395138947766
 20
221.5048736412635
 30
0.0
 40
6.858000000000001
  1
ルーフドレン本体
 41
1.145833333333333
  7
ＭＳ ゴシック
100
AcDbText
  0
LINE
  5
3A3
330
1F
100
AcDbEntity
  8
3-5
  6
Continuous
 62
     7
370
     9
100
AcDbLine
 10
64.51579621941026
 20
41.52566413965837
 30
0.0
 11
173.0077893559487
 21
41.52566413965837
 31
0.0
  0
TEXT
  5
3A4
330
1F
100
AcDbEntity
  8
3-5
  6
Continuous
 62
     7
370
     9
100
AcDbText
 10
64.51579621941026
 20
46.42360420643433
 30
0.0
 40
6.858000000000001
  1
ジョイントスペーサー
 41
1.15
  7
ＭＳ ゴシック
100
AcDbText
  0
LINE
  5
3A5
330
1F
100
AcDbEntity
  8
3-5
  6
Continuous
 62
     7
370
     9
100
AcDbLine
 10
173.0077893559487
 20
41.52566413965837
 30
0.0
 11
203.553009849472
 21
94.43155411648833
 31
0.0
  0
LINE
  5
3A6
330
1F
100
AcDbEntity
  8
3-5
  6
Continuous
 62
     7
370
     9
100
AcDbLine
 10
203.553009849472
 20
94.43155411648829
 30
0.0
 11
198.9872999185819
 21
88.48140346066711
 31
0.0
  0
LINE
  5
3A7
330
1F
100
AcDbEntity
  8
3-5
  6
Continuous
 62
     7
370
     9
100
AcDbLine
 10
203.553009849472
 20
94.43155411648829
 30
0.0
 11
200.6828850228356
 21
87.50245724319169
 31
0.0
  0
LINE
  5
3A8
330
1F
100
AcDbEntity
  8
0-8
  6
Continuous
 62
     7
370
     9
100
AcDbLine
 10
171.9589591756062
 20
183.5255802752324
 30
0.0
 11
70.95880588074468
 21
183.5255802752324
 31
0.0
  0
LINE
  5
3A9
330
1F
100
AcDbEntity
  8
0-8
  6
Continuous
 62
     7
370
     9
100
AcDbLine
 10
204.4588874769719
 20
83.52565986837524
 30
0.0
 11
70.95880588074468
 21
83.52565986837524
 31
0.0
  0
LINE
  5
3AA
330
1F
100
AcDbEntity
  8
寸法
  6
Continuous
 62
     7
370
     9
100
AcDbLine
 10
170.6798391741054
 20
103.5031786261013
 30
0.0
 11
206.4588967854222
 21
140.8250246696847
 31
0.0
  0
LINE
  5
3AB
330
1F
100
AcDbEntity
  8
3-5
  6
Continuous
 62
     7
370
     9
100
AcDbLine
 10
170.6798391741054
 20
103.5031786261013
 30
0.0
 11
66.3137130744386
 21
103.5031786261013
 31
0.0
  0
TEXT
  5
3AC
330
1F
100
AcDbEntity
  8
3-5
  6
Continuous
 62
     7
370
     9
100
AcDbText
 10
66.3137130744386
 20
107.1899131330695
 30
0.0
 40
6.858000000000001
  1
スペーサー
 41
1.133333333333333
  7
ＭＳ ゴシック
100
AcDbText
  0
TEXT
  5
3AD
330
1F
100
AcDbEntity
  8
3-5
  6
Continuous
 62
     7
370
     9
100
AcDbText
 10
66.3137130744386
 20
93.48528355075766
 30
0.0
 40
6.858000000000001
  1
硬質ポリ塩化ビニル管
 41
1.15
  7
ＭＳ ゴシック
100
AcDbText
  0
LINE
  5
3AE
330
1F
100
AcDbEntity
  8
3-5
  6
Continuous
 62
     7
370
     9
100
AcDbLine
 10
108.6723621878498
 20
239.9369374596037
 30
0.0
 11
170.6793207314113
 21
239.9369374596037
 31
0.0
  0
TEXT
  5
3AF
330
1F
100
AcDbEntity
  8
3-5
  6
Continuous
 62
     7
370
     9
100
AcDbText
 10
108.6723621878498
 20
242.9894713291667
 30
0.0
 40
6.858000000000001
  1
ルーフドレン
 41
1.138888888888889
  7
ＭＳ ゴシック
100
AcDbText
  0
LINE
  5
3B0
330
1F
100
AcDbEntity
  8
0-8
  6
Continuous
 62
     7
370
     9
100
AcDbLine
 10
354.9587208674913
 20
183.5255802752324
 30
0.0
 11
455.9587750685953
 21
183.5255802752324
 31
0.0
  0
LINE
  5
3B1
330
1F
100
AcDbEntity
  8
0-8
  6
Continuous
 62
     7
370
     9
100
AcDbLine
 10
322.4587925661256
 20
83.52565986837524
 30
0.0
 11
455.9587750685953
 21
83.52565986837524
 31
0.0
  0
LINE
  5
3B2
330
1F
100
AcDbEntity
  8
0-8
  6
Continuous
 62
     7
370
     9
100
AcDbLine
 10
201.4588239674174
 20
109.3271810709043
 30
0.0
 11
175.6573027648882
 21
83.52565986837524
 31
0.0
  0
LINE
  5
3B3
330
1F
100
AcDbEntity
  8
0-8
  6
Continuous
 62
     7
370
     9
100
AcDbLine
 10
201.4588239674174
 20
113.3271501409265
 30
0.0
 11
171.6573336948662
 21
83.52565986837524
 31
0.0
  0
LINE
  5
3B4
330
1F
100
AcDbEntity
  8
0-8
  6
Continuous
 62
     7
370
     9
100
AcDbLine
 10
206.4588967854223
 20
118.3272229589315
 30
0.0
 11
203.6573835363162
 21
115.5257097098253
 31
0.0
  0
LINE
  5
3B5
330
1F
100
AcDbEntity
  8
0-8
  6
Continuous
 62
     7
370
     9
100
AcDbLine
 10
206.4588967854223
 20
122.3272415758324
 30
0.0
 11
167.6573150779652
 21
83.52565986837524
 31
0.0
  0
LINE
  5
3B6
330
1F
100
AcDbEntity
  8
0-8
  6
Continuous
 62
     7
370
     9
100
AcDbLine
 10
371.6572541017231
 20
183.5255802752324
 30
0.0
 11
320.4589318983114
 21
132.3272580718206
 31
0.0
  0
LINE
  5
3B7
330
1F
100
AcDbEntity
  8
0-8
  6
Continuous
 62
     7
370
     9
100
AcDbLine
 10
367.6572354848222
 20
183.5255802752324
 30
0.0
 11
320.4589318983114
 21
136.3272766887216
 31
0.0
  0
LINE
  5
3B8
330
1F
100
AcDbEntity
  8
0-8
  6
Continuous
 62
     7
370
     9
100
AcDbLine
 10
375.6572231717456
 20
183.5255802752324
 30
0.0
 11
320.4589318983114
 21
128.3272890017984
 31
0.0
  0
LINE
  5
3B9
330
1F
100
AcDbEntity
  8
0-8
  6
Continuous
 62
     7
370
     9
100
AcDbLine
 10
455.9587750685953
 20
171.8271198590055
 30
0.0
 11
367.6573150779652
 21
83.52565986837524
 31
0.0
  0
LINE
  5
3BA
330
1F
100
AcDbEntity
  8
0-8
  6
Continuous
 62
     7
370
     9
100
AcDbLine
 10
455.9587750685953
 20
167.8271012421046
 30
0.0
 11
371.6573336948662
 21
83.52565986837524
 31
0.0
  0
LINE
  5
3BB
330
1F
100
AcDbEntity
  8
0-8
  6
Continuous
 62
     7
370
     9
100
AcDbLine
 10
167.6572354848222
 20
183.5255802752324
 30
0.0
 11
108.4473994791415
 21
124.3157442695517
 31
0.0
  0
LINE
  5
3BC
330
1F
100
AcDbEntity
  8
0-8
  6
Continuous
 62
     7
370
     9
100
AcDbLine
 10
171.6572541017231
 20
183.5255802752324
 30
0.0
 11
112.4474180960425
 21
124.3157442695517
 31
0.0
  0
LINE
  5
3BD
330
1F
100
AcDbEntity
  8
0-8
  6
Continuous
 62
     7
370
     9
100
AcDbLine
 10
171.4304621328745
 20
179.2988192363613
 30
0.0
 11
116.4473871660647
 21
124.3157442695517
 31
0.0
  0
LINE
  5
3BE
330
1F
100
AcDbEntity
  8
0-8
  6
Continuous
 62
     7
370
     9
100
AcDbLine
 10
455.9587750685953
 20
163.8271321720821
 30
0.0
 11
375.6573027648883
 21
83.52565986837524
 31
0.0
  0
LINE
  5
3BF
330
1F
100
AcDbEntity
  8
0-8
  6
Continuous
 62
     7
370
     9
100
AcDbLine
 10
-332.3427645151779
 20
183.5255802752324
 30
0.0
 11
-389.6739783217851
 21
126.1943664686252
 31
0.0
  0
LINE
  5
3C0
330
1F
100
AcDbEntity
  8
0-8
  6
Continuous
 62
     7
370
     9
100
AcDbLine
 10
-328.3427458982771
 20
183.5255802752324
 30
0.0
 11
-389.6739783217851
 21
122.1943478517242
 31
0.0
  0
LINE
  5
3C1
330
1F
100
AcDbEntity
  8
0-8
  6
Continuous
 62
     7
370
     9
100
AcDbLine
 10
-268.1738534825033
 20
147.694491307907
 30
0.0
 11
-296.3331475722171
 21
119.5351972181931
 31
0.0
  0
LINE
  5
3C2
330
1F
100
AcDbEntity
  8
0-8
  6
Continuous
 62
     7
370
     9
100
AcDbLine
 10
-268.1738534825033
 20
143.6944726910061
 30
0.0
 11
-292.3331289553162
 21
119.5351972181931
 31
0.0
  0
LINE
  5
3C3
330
1F
100
AcDbEntity
  8
0-8
  6
Continuous
 62
     7
370
     9
100
AcDbLine
 10
-258.3427368843977
 20
153.5255892891117
 30
0.0
 11
-262.1738255571518
 21
149.6945006163576
 31
0.0
  0
LINE
  5
3C4
330
1F
100
AcDbEntity
  8
0-8
  6
Continuous
 62
     7
370
     9
100
AcDbLine
 10
-254.1738874171074
 20
153.6944696863796
 30
0.0
 11
-262.1738255571518
 21
145.6945315463352
 31
0.0
  0
LINE
  5
3C5
330
1F
100
AcDbEntity
  8
0-8
  6
Continuous
 62
     7
370
     9
100
AcDbLine
 10
-268.1738534825033
 20
139.6945036209838
 30
0.0
 11
-272.3427029497932
 21
135.5256541536938
 31
0.0
  0
LINE
  5
3C6
330
1F
100
AcDbEntity
  8
0-8
  6
Continuous
 62
     7
370
     9
100
AcDbLine
 10
-276.1738411694264
 20
131.6945159340607
 30
0.0
 11
-288.333159885294
 21
119.5351972181931
 31
0.0
  0
LINE
  5
3C7
330
1F
100
AcDbEntity
  8
0-8
  6
Continuous
 62
     7
370
     9
100
AcDbLine
 10
-24.34277682825448
 20
183.5255802752324
 30
0.0
 11
-124.3426972351118
 21
83.52565986837524
 31
0.0
  0
LINE
  5
3C8
330
1F
100
AcDbEntity
  8
0-8
  6
Continuous
 62
     7
370
     9
100
AcDbLine
 10
-28.34274589827697
 20
183.5255802752324
 30
0.0
 11
-128.3426663051339
 21
83.52565986837524
 31
0.0
  0
LINE
  5
3C9
330
1F
100
AcDbEntity
  8
0-8
  6
Continuous
 62
     7
370
     9
100
AcDbLine
 10
-32.34276451517785
 20
183.5255802752324
 30
0.0
 11
-132.3426849220349
 21
83.52565986837524
 31
0.0
  0
LINE
  5
3CA
330
1F
100
AcDbEntity
  8
0-8
  6
Continuous
 62
     7
370
     9
100
AcDbLine
 10
-4.674009133934419
 20
103.1943479695526
 30
0.0
 11
-24.34269723511181
 21
83.52565986837524
 31
0.0
  0
LINE
  5
3CB
330
1F
100
AcDbEntity
  8
0-8
  6
Continuous
 62
     7
370
     9
100
AcDbLine
 10
-4.674009133934419
 20
111.1943356564758
 30
0.0
 11
-32.34268492203489
 21
83.52565986837524
 31
0.0
  0
LINE
  5
3CC
330
1F
100
AcDbEntity
  8
0-8
  6
Continuous
 62
     7
370
     9
100
AcDbLine
 10
-4.674009133934419
 20
107.1943170395747
 30
0.0
 11
-28.34266630513386
 21
83.52565986837524
 31
0.0
  0
LINE
  5
3CD
330
1F
100
AcDbEntity
  8
その他
  6
Continuous
 62
     7
370
     9
100
AcDbLine
 10
-54.98460785209247
 20
83.52565986837524
 30
0.0
 11
-54.98460785209247
 21
183.5255802752324
 31
0.0
  0
LINE
  5
3CE
330
1F
100
AcDbEntity
  8
その他
  6
Continuous
 62
     7
370
     9
100
AcDbLine
 10
-54.98460785209247
 20
83.52565986837524
 30
0.0
 11
-56.15934358207292
 21
92.44866362073952
 31
0.0
  0
LINE
  5
3CF
330
1F
100
AcDbEntity
  8
その他
  6
Continuous
 62
     7
370
     9
100
AcDbLine
 10
-54.98460785209247
 20
83.52565986837524
 30
0.0
 11
-53.80987212211201
 21
92.44866362073952
 31
0.0
  0
LINE
  5
3D0
330
1F
100
AcDbEntity
  8
その他
  6
Continuous
 62
     7
370
     9
100
AcDbLine
 10
-54.98460785209247
 20
183.5255802752324
 30
0.0
 11
-56.15934358207292
 21
174.6025765228682
 31
0.0
  0
LINE
  5
3D1
330
1F
100
AcDbEntity
  8
その他
  6
Continuous
 62
     7
370
     9
100
AcDbLine
 10
-54.98460785209247
 20
183.5255802752324
 30
0.0
 11
-53.80987212211201
 21
174.6025765228682
 31
0.0
  0
TEXT
  5
3D2
330
1F
100
AcDbEntity
  8
その他
  6
Continuous
 62
     2
370
   211
100
AcDbText
 10
-58.17660785209247
 20
127.5256200718038
 30
0.0
 40
9.144
  1
Ｃ
 50
90.0
  7
ＭＳ ゴシック
100
AcDbText
  0
LINE
  5
3D3
330
1F
100
AcDbEntity
  8
寸法
  6
Continuous
 62
     7
370
     9
100
AcDbLine
 10
212.4588400215486
 20
-125.7029150198083
 30
0.0
 11
212.4588400215486
 21
-146.7029150198083
 31
0.0
  0
TEXT
  5
3D4
330
1F
100
AcDbEntity
  8
寸法
  6
Continuous
 62
     2
370
     9
100
AcDbText
 10
216.9588400215486
 20
-140.5109150198083
 30
0.0
 40
9.144
  1
たてとい工事後
 41
1.107142857142857
  7
ＭＳ ゴシック
100
AcDbText
  0
LINE
  5
3D5
330
1F
100
AcDbEntity
  8
寸法
  6
Continuous
 62
     7
370
     9
100
AcDbLine
 10
212.4588400215486
 20
-146.7029150198083
 30
0.0
 11
314.4588400215487
 21
-146.7029150198083
 31
0.0
  0
LINE
  5
3D6
330
1F
100
AcDbEntity
  8
寸法
  6
Continuous
 62
     7
370
     9
100
AcDbLine
 10
212.4588400215486
 20
-125.7029150198083
 30
0.0
 11
314.4588400215487
 21
-125.7029150198083
 31
0.0
  0
LINE
  5
3D7
330
1F
100
AcDbEntity
  8
寸法
  6
Continuous
 62
     7
370
     9
100
AcDbLine
 10
314.4588400215487
 20
-125.7029150198083
 30
0.0
 11
314.4588400215487
 21
-146.7029150198083
 31
0.0
  0
TEXT
  5
3D8
330
1F
100
AcDbEntity
  8
3-5
  6
Continuous
 62
     2
370
     9
100
AcDbText
 10
172.7088400215486
 20
-163.9274823326525
 30
0.0
 40
9.144
  1
※たてとい工事の際はホースくちを
 41
0.9453125
  7
ＭＳ ゴシック
100
AcDbText
  0
TEXT
  5
3D9
330
1F
100
AcDbEntity
  8
3-5
  6
Continuous
 62
     2
370
     9
100
AcDbText
 10
172.708840021548
 20
-178.9138461279097
 30
0.0
 40
9.144
  1
　取り外して下さい。
 41
0.9425000000000182
  7
ＭＳ ゴシック
100
AcDbText
  0
TEXT
  5
3DA
330
1F
100
AcDbEntity
  8
F-5ﾚｲﾔ
  6
Continuous
 62
     2
370
     9
100
AcDbText
 10
-206.4001412262787
 20
-398.2079616777576
 30
0.0
 40
9.144
  1
仮設排水ホース対応型ルーフドレン　Ｈ－７５
 41
1.119047619047619
  7
ＭＳ ゴシック
100
AcDbText
  0
LINE
  5
3DB
330
1F
100
AcDbEntity
  8
寸法
  6
Continuous
 62
     7
370
     9
100
AcDbLine
 10
232.1980589978631
 20
274.0163839304556
 30
0.0
 11
249.7391020726461
 21
269.3162756041679
 31
0.0
  0
LINE
  5
3DC
330
1F
100
AcDbEntity
  8
寸法
  6
Continuous
 62
     7
370
     9
100
AcDbLine
 10
249.7391020726461
 20
269.3162756041679
 30
0.0
 11
281.4397476819332
 21
277.8104379947216
 31
0.0
  0
LINE
  5
3DD
330
1F
100
AcDbEntity
  8
寸法
  6
Continuous
 62
     7
370
     9
100
AcDbLine
 10
281.4397476819332
 20
277.8104379947216
 30
0.0
 11
293.3116546107586
 21
270.9561893335701
 31
0.0
  0
LINE
  5
3DE
330
1F
100
AcDbEntity
  8
寸法
  6
Continuous
 62
     7
370
     9
100
AcDbLine
 10
218.9588911885691
 20
270.4689596074952
 30
0.0
 11
232.1980589978631
 21
274.0163839304556
 31
0.0
  0
LINE
  5
3DF
330
1F
100
AcDbEntity
  8
寸法
  6
Continuous
 62
     7
370
     9
100
AcDbLine
 10
293.3116546107586
 20
270.9561893335701
 30
0.0
 11
307.9588878893715
 21
279.4127734098605
 31
0.0
  0
LINE
  5
3E0
330
1F
100
AcDbEntity
  8
通り芯
  6
Continuous
 62
     4
370
     9
100
AcDbLine
 10
224.4588598167344
 20
271.9426717598086
 30
0.0
 11
224.4588598167344
 21
203.8643850725486
 31
0.0
  0
LINE
  5
3E1
330
1F
100
AcDbEntity
  8
通り芯
  6
Continuous
 62
     4
370
     9
100
AcDbLine
 10
302.459018178221
 20
276.2374221516199
 30
0.0
 11
302.459018178221
 21
203.8643850725486
 31
0.0
  0
TEXT
  5
3E2
330
1F
100
AcDbEntity
  8
3-5
  6
Continuous
 62
     7
370
     9
100
AcDbText
 10
-116.5977240464117
 20
-87.71156361749928
 30
0.0
 40
6.858000000000001
  1
(別途)
 41
1.138888888888889
  7
ＭＳ ゴシック
100
AcDbText
  0
TEXT
  5
3E3
330
1F
100
AcDbEntity
  8
3-5
  6
Continuous
 62
     7
370
     9
100
AcDbText
 10
-115.043795829685
 20
-40.67296661335231
 30
0.0
 40
6.858000000000001
  1
(別途)
 41
1.138888888888889
  7
ＭＳ ゴシック
100
AcDbText
  0
TEXT
  5
3E4
330
1F
100
AcDbEntity
  8
3-5
  6
Continuous
 62
     7
370
     9
100
AcDbText
 10
-393.3646344939814
 20
107.2578426078041
 30
0.0
 40
6.858000000000001
  1
スペーサー
 41
1.133333333333333
  7
ＭＳ ゴシック
100
AcDbText
  0
TEXT
  5
3E5
330
1F
100
AcDbEntity
  8
F-5ﾚｲﾔ
  6
Continuous
 62
     7
370
     9
100
AcDbText
 10
242.8992149579088
 20
-288.5759326115628
 30
0.0
 40
6.858000000000001
  1
EMZ-1SH･2SH
 41
1.151515151515151
  7
ＭＳ ゴシック
100
AcDbText
  0
TEXT
  5
3E6
330
1F
100
AcDbEntity
  8
F-5ﾚｲﾔ
  6
Continuous
 62
     7
370
     9
100
AcDbText
 10
8.149214957908768
 20
-258.5759326115628
 30
0.0
 40
6.858000000000001
  1
WMP-1H･2H
 41
1.148148148148148
  7
ＭＳ ゴシック
100
AcDbText
  0
TEXT
  5
3E7
330
1F
100
AcDbEntity
  8
F-5ﾚｲﾔ
  6
Continuous
 62
     7
370
     9
100
AcDbText
 10
8.149214957908768
 20
-288.5759326115628
 30
0.0
 40
6.858000000000001
  1
WMF-1H･2H
 41
1.148148148148148
  7
ＭＳ ゴシック
100
AcDbText
  0
ARC
  5
3E8
330
1F
100
AcDbEntity
  8
通り芯
  6
Continuous
 62
     4
370
     9
100
AcDbCircle
 10
241.2087790158496
 20
-28.85926873934869
 30
0.0
 40
38.86146029910526
100
AcDbArc
 50
235.072021484375
 51
304.927978515625
  0
ARC
  5
3E9
330
1F
100
AcDbEntity
  8
通り芯
  6
Continuous
 62
     4
370
     9
100
AcDbCircle
 10
285.708802110233
 20
-92.58221119474352
 30
0.0
 40
38.86153143805426
100
AcDbArc
 50
55.07200622558593
 51
124.9279937744141
  0
ARC
  5
3EA
330
1F
100
AcDbEntity
  8
通り芯
  6
Continuous
 62
     4
370
     9
100
AcDbCircle
 10
285.708802110233
 20
-28.85921925138415
 30
0.0
 40
38.86153143805426
100
AcDbArc
 50
235.0720062255859
 51
304.9279937744141
  0
LINE
  5
3EB
330
1F
100
AcDbEntity
  8
通り芯
  6
Continuous
 62
     4
370
     9
100
AcDbLine
 10
307.9588878893715
 20
155.4101138137484
 30
0.0
 11
307.9588878893715
 21
-60.72075852503279
 31
0.0
  0
LINE
  5
3EC
330
1F
100
AcDbEntity
  8
通り芯
  6
Continuous
 62
     4
370
     9
100
AcDbLine
 10
218.9588911885691
 20
155.4101138137484
 30
0.0
 11
218.9588911885691
 21
-60.72070903706825
 31
0.0
  0
LINE
  5
3ED
330
1F
100
AcDbEntity
  8
通り芯
  6
JWW_CENTER1
 62
     3
370
     9
100
AcDbLine
 10
263.4588400215487
 20
-81.24131485073117
 30
0.0
 11
263.4588400215487
 21
353.1338326337383
 31
0.0
  0
TEXT
  5
3EE
330
1F
100
AcDbEntity
  8
寸法
  6
Continuous
 62
     7
370
     9
100
AcDbText
 10
332.4136731955637
 20
-17.81760378179763
 30
0.0
 40
6.858000000000001
  1
たてとい
 41
1.125
  7
ＭＳ ゴシック
100
AcDbText
  0
LINE
  5
3EF
330
1F
100
AcDbEntity
  8
その他
  6
Continuous
 62
     7
370
     9
100
AcDbLine
 10
332.255208473473
 20
-19.7990116342011
 30
0.0
 11
372.9136731955637
 21
-19.7990116342011
 31
0.0
  0
LINE
  5
3F0
330
1F
100
AcDbEntity
  8
寸法
  6
Continuous
 62
     7
370
     9
100
AcDbLine
 10
332.255208473473
 20
-19.7990116342011
 30
0.0
 11
307.9588878599143
 21
-44.09533224775979
 31
0.0
  0
LINE
  5
3F1
330
1F
100
AcDbEntity
  8
寸法
  6
Continuous
 62
     7
370
     9
100
AcDbLine
 10
307.9588878599143
 20
-44.09533224775979
 30
0.0
 11
312.5245985774798
 21
-38.14518219557548
 31
0.0
  0
LINE
  5
3F2
330
1F
100
AcDbEntity
  8
寸法
  6
Continuous
 62
     7
370
     9
100
AcDbLine
 10
307.9588878599143
 20
-44.09533224775979
 30
0.0
 11
313.9090379120987
 21
-39.52962153019437
 31
0.0
  0
LINE
  5
3F3
330
1F
100
AcDbEntity
  8
寸法
  6
Continuous
 62
     7
370
     9
100
AcDbLine
 10
232.1980589978631
 20
0.7344105947091437
 30
0.0
 11
249.7391020726461
 21
-3.9656977315785
 31
0.0
  0
LINE
  5
3F4
330
1F
100
AcDbEntity
  8
寸法
  6
Continuous
 62
     7
370
     9
100
AcDbLine
 10
249.7391020726461
 20
-3.9656977315785
 30
0.0
 11
281.4397476819332
 21
4.528464658975211
 31
0.0
  0
LINE
  5
3F5
330
1F
100
AcDbEntity
  8
寸法
  6
Continuous
 62
     7
370
     9
100
AcDbLine
 10
281.4397476819332
 20
4.528464658975211
 30
0.0
 11
293.3116546107586
 21
-2.325784002176322
 31
0.0
  0
LINE
  5
3F6
330
1F
100
AcDbEntity
  8
寸法
  6
Continuous
 62
     7
370
     9
100
AcDbLine
 10
218.9588911885691
 20
-2.813013728251278
 30
0.0
 11
232.1980589978631
 21
0.7344105947091437
 31
0.0
  0
LINE
  5
3F7
330
1F
100
AcDbEntity
  8
寸法
  6
Continuous
 62
     7
370
     9
100
AcDbLine
 10
293.3116546107586
 20
-2.325784002176322
 30
0.0
 11
307.9588878893715
 21
6.130800074114083
 31
0.0
  0
LINE
  5
3F8
330
1F
100
AcDbEntity
  8
通り芯
  6
Continuous
 62
     4
370
     9
100
AcDbLine
 10
224.4587856142448
 20
155.4101138137484
 30
0.0
 11
224.4587856142448
 21
-1.339321458435077
 31
0.0
  0
LINE
  5
3F9
330
1F
100
AcDbEntity
  8
通り芯
  6
Continuous
 62
     4
370
     9
100
AcDbLine
 10
302.4589439757314
 20
155.4101138137484
 30
0.0
 11
302.4589439757314
 21
2.955405975046038
 31
0.0
  0
LINE
  5
3FA
330
1F
100
AcDbEntity
  8
0-8
  6
Continuous
 62
     7
370
     9
100
AcDbLine
 10
-324.3427768282546
 20
183.5255802752324
 30
0.0
 11
-388.333159885294
 21
119.5351972181931
 31
0.0
  0
TEXT
  5
3FB
330
1F
100
AcDbEntity
  8
3-5
  6
Continuous
 62
     7
370
     9
100
AcDbText
 10
64.51579621941022
 20
31.07067755368087
 30
0.0
 40
6.858000000000001
  1
ポリエチレン
 41
1.138888888888889
  7
ＭＳ ゴシック
100
AcDbText
  0
ENDSEC
  0
SECTION
  2
OBJECTS
  0
DICTIONARY
  5
C
330
0
100
AcDbDictionary
281
     1
  3
ACAD_GROUP
350
D
  3
ACAD_LAYOUT
350
1A
  3
ACAD_MLEADERSTYLE
350
3FD
  3
ACAD_MLINESTYLE
350
17
  3
ACAD_PLOTSETTINGS
350
19
  3
ACAD_PLOTSTYLENAME
350
E
  3
ACAD_TABLESTYLE
350
3FC
  3
ACAD_VISUALSTYLE
350
2A
  0
DICTIONARY
  5
D
102
{ACAD_REACTORS
330
C
102
}
330
C
100
AcDbDictionary
281
     1
  0
DICTIONARY
  5
1A
102
{ACAD_REACTORS
330
C
102
}
330
C
100
AcDbDictionary
281
     1
  3
Layout1
350
1E
  3
Layout2
350
26
  3
Model
350
22
  0
DICTIONARY
  5
3FD
102
{ACAD_REACTORS
330
C
102
}
330
C
100
AcDbDictionary
281
     1
  0
DICTIONARY
  5
17
102
{ACAD_REACTORS
330
C
102
}
330
C
100
AcDbDictionary
281
     1
  3
Standard
350
18
  0
DICTIONARY
  5
19
102
{ACAD_REACTORS
330
C
102
}
330
C
100
AcDbDictionary
281
     1
  0
ACDBDICTIONARYWDFLT
  5
E
102
{ACAD_REACTORS
330
C
102
}
330
C
100
AcDbDictionary
281
     1
  3
Normal
350
F
100
AcDbDictionaryWithDefault
340
F
  0
DICTIONARY
  5
3FC
102
{ACAD_REACTORS
330
C
102
}
330
C
100
AcDbDictionary
281
     1
  0
DICTIONARY
  5
2A
102
{ACAD_REACTORS
330
C
102
}
330
C
100
AcDbDictionary
281
     1
  3
2dWireframe
350
2F
  3
3D Hidden
350
31
  3
3dWireframe
350
30
  3
Basic
350
32
  3
Brighten
350
36
  3
ColorChange
350
3A
  3
Conceptual
350
34
  3
Dim
350
35
  3
Facepattern
350
39
  3
Flat
350
2B
  3
FlatWithEdges
350
2C
  3
Gouraud
350
2D
  3
GouraudWithEdges
350
2E
  3
Linepattern
350
38
  3
Realistic
350
33
  3
Thicken
350
37
  0
LAYOUT
  5
1E
102
{ACAD_REACTORS
330
1A
102
}
330
1A
100
AcDbPlotSettings
  1

  2
none_device
  4

  6

 40
0.0
 41
0.0
 42
0.0
 43
0.0
 44
0.0
 45
0.0
 46
0.0
 47
0.0
 48
0.0
 49
0.0
140
0.0
141
0.0
142
1.0
143
1.0
 70
   688
 72
     0
 73
     0
 74
     5
  7

 75
    16
 76
     0
 77
     5
 78
   300
147
1.0
148
0.0
149
0.0
100
AcDbLayout
  1
Layout1
 70
     1
 71
     1
 10
0.0
 20
0.0
 11
420.0
 21
297.0
 12
0.0
 22
0.0
 32
0.0
 14
1.000000000000000E+20
 24
1.000000000000000E+20
 34
1.000000000000000E+20
 15
-1.000000000000000E+20
 25
-1.000000000000000E+20
 35
-1.000000000000000E+20
146
0.0
 13
0.0
 23
0.0
 33
0.0
 16
1.0
 26
0.0
 36
0.0
 17
0.0
 27
1.0
 37
0.0
 76
     0
330
1B
  0
LAYOUT
  5
26
102
{ACAD_REACTORS
330
1A
102
}
330
1A
100
AcDbPlotSettings
  1

  2
none_device
  4

  6

 40
0.0
 41
0.0
 42
0.0
 43
0.0
 44
0.0
 45
0.0
 46
0.0
 47
0.0
 48
0.0
 49
0.0
140
0.0
141
0.0
142
1.0
143
1.0
 70
   688
 72
     0
 73
     0
 74
     5
  7

 75
    16
 76
     0
 77
     5
 78
   300
147
1.0
148
0.0
149
0.0
100
AcDbLayout
  1
Layout2
 70
     1
 71
     2
 10
0.0
 20
0.0
 11
0.0
 21
0.0
 12
0.0
 22
0.0
 32
0.0
 14
0.0
 24
0.0
 34
0.0
 15
0.0
 25
0.0
 35
0.0
146
0.0
 13
0.0
 23
0.0
 33
0.0
 16
1.0
 26
0.0
 36
0.0
 17
0.0
 27
1.0
 37
0.0
 76
     0
330
23
  0
LAYOUT
  5
22
102
{ACAD_REACTORS
330
1A
102
}
330
1A
100
AcDbPlotSettings
  1

  2
none_device
  4

  6

 40
0.0
 41
0.0
 42
0.0
 43
0.0
 44
0.0
 45
0.0
 46
0.0
 47
0.0
 48
0.0
 49
0.0
140
0.0
141
0.0
142
1.0
143
1.0
 70
  1712
 72
     0
 73
     0
 74
     0
  7

 75
     0
 76
     0
 77
     5
 78
   300
147
1.0
148
0.0
149
0.0
100
AcDbLayout
  1
Model
 70
     1
 71
     0
 10
-630.0
 20
-445.5
 11
630.0
 21
445.5
 12
0.0
 22
0.0
 32
0.0
 14
-630.0
 24
-445.5
 34
0.0
 15
630.0
 25
445.5
 35
0.0
146
0.0
 13
0.0
 23
0.0
 33
0.0
 16
1.0
 26
0.0
 36
0.0
 17
0.0
 27
1.0
 37
0.0
 76
     0
330
1F
331
29
  0
MLINESTYLE
  5
18
102
{ACAD_REACTORS
330
17
102
}
330
17
100
AcDbMlineStyle
  2
Standard
 70
     0
  3

 62
   256
 51
90.0
 52
90.0
 71
     2
 49
0.5
 62
   256
  6
BYLAYER
 49
-0.5
 62
   256
  6
BYLAYER
  0
ACDBPLACEHOLDER
  5
F
102
{ACAD_REACTORS
330
E
102
}
330
E
  0
VISUALSTYLE
  5
2F
102
{ACAD_REACTORS
330
2A
102
}
330
2A
100
AcDbVisualStyle
  2
2dWireframe
 70
     4
 71
     0
 72
     2
 73
     0
 90
        0
 40
-0.6
 41
-30.0
 62
     5
 63
     7
421
 16777215
 74
     1
 91
        4
 64
     7
 65
   257
 75
     1
175
     1
 42
1.0
 92
        0
 66
   257
 43
1.0
 76
     1
 77
     6
 78
     2
 67
     7
 79
     5
170
     0
171
     0
290
     0
174
     0
 93
        1
 44
0.0
173
     0
291
     0
 45
0.0
1001
ACAD
1000
AcDbSavedByObjectVersion
1070
     0
  0
VISUALSTYLE
  5
31
102
{ACAD_REACTORS
330
2A
102
}
330
2A
100
AcDbVisualStyle
  2
3D Hidden
 70
     6
 71
     1
 72
     2
 73
     2
 90
        0
 40
-0.6
 41
-30.0
 62
     5
 63
     7
421
 16777215
 74
     2
 91
        2
 64
     7
 65
   257
 75
     2
175
     1
 42
40.0
 92
        0
 66
   257
 43
1.0
 76
     1
 77
     6
 78
     2
 67
     7
 79
     3
170
     0
171
     0
290
     0
174
     0
 93
        1
 44
0.0
173
     0
291
     0
 45
0.0
1001
ACAD
1000
AcDbSavedByObjectVersion
1070
     0
  0
VISUALSTYLE
  5
30
102
{ACAD_REACTORS
330
2A
102
}
330
2A
100
AcDbVisualStyle
  2
3dWireframe
 70
     5
 71
     0
 72
     2
 73
     0
 90
        0
 40
-0.6
 41
-30.0
 62
     5
 63
     7
421
 16777215
 74
     1
 91
        4
 64
     7
 65
   257
 75
     1
175
     1
 42
1.0
 92
        0
 66
   257
 43
1.0
 76
     1
 77
     6
 78
     2
 67
     7
 79
     5
170
     0
171
     0
290
     0
174
     0
 93
        1
 44
0.0
173
     0
291
     0
 45
0.0
1001
ACAD
1000
AcDbSavedByObjectVersion
1070
     0
  0
VISUALSTYLE
  5
32
102
{ACAD_REACTORS
330
2A
102
}
330
2A
100
AcDbVisualStyle
  2
Basic
 70
     7
 71
     1
 72
     0
 73
     1
 90
        0
 40
-0.6
 41
-30.0
 62
     5
 63
     7
421
 16777215
 74
     0
 91
        4
 64
     7
 65
   257
 75
     1
175
     1
 42
1.0
 92
        8
 66
     7
 43
1.0
 76
     1
 77
     6
 78
     2
 67
     7
 79
     5
170
     0
171
     0
290
     0
174
     0
 93
        1
 44
0.0
173
     0
291
     1
 45
0.0
1001
ACAD
1000
AcDbSavedByObjectVersion
1070
     0
  0
VISUALSTYLE
  5
36
102
{ACAD_REACTORS
330
2A
102
}
330
2A
100
AcDbVisualStyle
  2
Brighten
 70
    12
 71
     2
 72
     2
 73
     0
 90
        0
 40
-0.6
 41
-30.0
 62
     5
 63
     7
421
 16777215
 74
     1
 91
        4
 64
     7
 65
   257
 75
     1
175
     1
 42
1.0
 92
        8
 66
     7
 43
1.0
 76
     1
 77
     6
 78
     2
 67
     7
 79
     5
170
     0
171
     0
290
     0
174
     0
 93
        1
 44
50.0
173
     0
291
     1
 45
0.0
1001
ACAD
1000
AcDbSavedByObjectVersion
1070
     0
  0
VISUALSTYLE
  5
3A
102
{ACAD_REACTORS
330
2A
102
}
330
2A
100
AcDbVisualStyle
  2
ColorChange
 70
    16
 71
     2
 72
     2
 73
     3
 90
        0
 40
-0.6
 41
-30.0
 62
     5
 63
     8
421
  8421504
 74
     1
 91
        4
 64
     7
 65
   257
 75
     1
175
     1
 42
1.0
 92
        8
 66
     8
424
  8421504
 43
1.0
 76
     1
 77
     6
 78
     2
 67
     7
 79
     5
170
     0
171
     0
290
     0
174
     0
 93
        1
 44
0.0
173
     0
291
     1
 45
0.0
1001
ACAD
1000
AcDbSavedByObjectVersion
1070
     0
  0
VISUALSTYLE
  5
34
102
{ACAD_REACTORS
330
2A
102
}
330
2A
100
AcDbVisualStyle
  2
Conceptual
 70
     9
 71
     3
 72
     2
 73
     0
 90
        0
 40
-0.6
 41
-30.0
 62
     5
 63
     7
421
 16777215
 74
     2
 91
        2
 64
     7
 65
   257
 75
     1
175
     1
 42
40.0
 92
        8
 66
     7
 43
1.0
 76
     1
 77
     6
 78
     2
 67
     7
 79
     3
170
     0
171
     0
290
     0
174
     0
 93
        1
 44
0.0
173
     0
291
     0
 45
0.0
1001
ACAD
1000
AcDbSavedByObjectVersion
1070
     0
  0
VISUALSTYLE
  5
35
102
{ACAD_REACTORS
330
2A
102
}
330
2A
100
AcDbVisualStyle
  2
Dim
 70
    11
 71
     2
 72
     2
 73
     0
 90
        0
 40
-0.6
 41
-30.0
 62
     5
 63
     7
421
 16777215
 74
     1
 91
        4
 64
     7
 65
   257
 75
     1
175
     1
 42
1.0
 92
        8
 66
     7
 43
1.0
 76
     1
 77
     6
 78
     2
 67
     7
 79
     5
170
     0
171
     0
290
     0
174
     0
 93
        1
 44
-50.0
173
     0
291
     1
 45
0.0
1001
ACAD
1000
AcDbSavedByObjectVersion
1070
     0
  0
VISUALSTYLE
  5
39
102
{ACAD_REACTORS
330
2A
102
}
330
2A
100
AcDbVisualStyle
  2
Facepattern
 70
    15
 71
     2
 72
     2
 73
     0
 90
        0
 40
-0.6
 41
-30.0
 62
     5
 63
     7
421
 16777215
 74
     1
 91
        4
 64
     7
 65
   257
 75
     1
175
     1
 42
1.0
 92
        8
 66
     7
 43
1.0
 76
     1
 77
     6
 78
     2
 67
     7
 79
     5
170
     0
171
     0
290
     0
174
     0
 93
        1
 44
0.0
173
     0
291
     1
 45
0.0
1001
ACAD
1000
AcDbSavedByObjectVersion
1070
     0
  0
VISUALSTYLE
  5
2B
102
{ACAD_REACTORS
330
2A
102
}
330
2A
100
AcDbVisualStyle
  2
Flat
 70
     0
 71
     2
 72
     1
 73
     1
 90
        2
 40
-0.6
 41
30.0
 62
     5
 63
     7
421
 16777215
 74
     0
 91
        4
 64
     7
 65
   257
 75
     1
175
     1
 42
1.0
 92
        8
 66
     7
 43
1.0
 76
     1
 77
     6
 78
     2
 67
     7
 79
     5
170
     0
171
     0
290
     0
174
     0
 93
       13
 44
0.0
173
     0
291
     1
 45
0.0
1001
ACAD
1000
AcDbSavedByObjectVersion
1070
     0
  0
VISUALSTYLE
  5
2C
102
{ACAD_REACTORS
330
2A
102
}
330
2A
100
AcDbVisualStyle
  2
FlatWithEdges
 70
     1
 71
     2
 72
     1
 73
     1
 90
        2
 40
-0.6
 41
30.0
 62
     5
 63
     7
421
 16777215
 74
     1
 91
        4
 64
     7
 65
   257
 75
     1
175
     1
 42
1.0
 92
        0
 66
   257
 43
1.0
 76
     1
 77
     6
 78
     2
 67
     7
 79
     5
170
     0
171
     0
290
     0
174
     0
 93
       13
 44
0.0
173
     0
291
     1
 45
0.0
1001
ACAD
1000
AcDbSavedByObjectVersion
1070
     0
  0
VISUALSTYLE
  5
2D
102
{ACAD_REACTORS
330
2A
102
}
330
2A
100
AcDbVisualStyle
  2
Gouraud
 70
     2
 71
     2
 72
     2
 73
     1
 90
        2
 40
-0.6
 41
30.0
 62
     5
 63
     7
421
 16777215
 74
     0
 91
        4
 64
     7
 65
   257
 75
     1
175
     1
 42
1.0
 92
        0
 66
     7
 43
1.0
 76
     1
 77
     6
 78
     2
 67
     7
 79
     5
170
     0
171
     0
290
     0
174
     0
 93
       13
 44
0.0
173
     0
291
     1
 45
0.0
1001
ACAD
1000
AcDbSavedByObjectVersion
1070
     0
  0
VISUALSTYLE
  5
2E
102
{ACAD_REACTORS
330
2A
102
}
330
2A
100
AcDbVisualStyle
  2
GouraudWithEdges
 70
     3
 71
     2
 72
     2
 73
     1
 90
        2
 40
-0.6
 41
30.0
 62
     5
 63
     7
421
 16777215
 74
     1
 91
        4
 64
     7
 65
   257
 75
     1
175
     1
 42
1.0
 92
        0
 66
   257
 43
1.0
 76
     1
 77
     6
 78
     2
 67
     7
 79
     5
170
     0
171
     0
290
     0
174
     0
 93
       13
 44
0.0
173
     0
291
     1
 45
0.0
1001
ACAD
1000
AcDbSavedByObjectVersion
1070
     0
  0
VISUALSTYLE
  5
38
102
{ACAD_REACTORS
330
2A
102
}
330
2A
100
AcDbVisualStyle
  2
Linepattern
 70
    14
 71
     2
 72
     2
 73
     0
 90
        0
 40
-0.6
 41
-30.0
 62
     5
 63
     7
421
 16777215
 74
     1
 91
        4
 64
     7
 65
   257
 75
     7
175
     7
 42
1.0
 92
        8
 66
     7
 43
1.0
 76
     1
 77
     6
 78
     2
 67
     7
 79
     5
170
     0
171
     0
290
     0
174
     0
 93
        1
 44
0.0
173
     0
291
     1
 45
0.0
1001
ACAD
1000
AcDbSavedByObjectVersion
1070
     0
  0
VISUALSTYLE
  5
33
102
{ACAD_REACTORS
330
2A
102
}
330
2A
100
AcDbVisualStyle
  2
Realistic
 70
     8
 71
     2
 72
     2
 73
     0
 90
        0
 40
-0.6
 41
-30.0
 62
     5
 63
     7
421
 16777215
 74
     1
 91
        0
 64
     7
 65
   257
 75
     1
175
     1
 42
1.0
 92
        8
 66
     8
424
  7895160
 43
1.0
 76
     1
 77
     6
 78
     2
 67
     7
 79
     5
170
     0
171
     0
290
     0
174
     0
 93
       13
 44
0.0
173
     0
291
     0
 45
0.0
1001
ACAD
1000
AcDbSavedByObjectVersion
1070
     0
  0
VISUALSTYLE
  5
37
102
{ACAD_REACTORS
330
2A
102
}
330
2A
100
AcDbVisualStyle
  2
Thicken
 70
    13
 71
     2
 72
     2
 73
     0
 90
        0
 40
-0.6
 41
-30.0
 62
     5
 63
     7
421
 16777215
 74
     1
 91
        4
 64
     7
 65
   257
 75
     1
175
     1
 42
1.0
 92
       12
 66
     7
 43
1.0
 76
     1
 77
     6
 78
     2
 67
     7
 79
     5
170
     0
171
     0
290
     0
174
     0
 93
        1
 44
0.0
173
     0
291
     1
 45
0.0
1001
ACAD
1000
AcDbSavedByObjectVersion
1070
     0
  0
ENDSEC
  0
EOF
