  0
SECTION
  2
HEADER
  9
$ACADVER
  1
AC1018
  9
$ACADMAINTVER
 70
     0
  9
$DWGCODEPAGE
  3
ANSI_932
  9
$INSBASE
 10
0.0
 20
0.0
 30
0.0
  9
$EXTMIN
 10
-1682.0
 20
-1188.0
 30
0.0
  9
$EXTMAX
 10
1682.0
 20
1188.0
 30
0.0
  9
$LIMMIN
 10
-1682.0
 20
-1188.0
  9
$LIMMAX
 10
1682.0
 20
1188.0
  9
$ORTHOMODE
 70
     0
  9
$REGENMODE
 70
     1
  9
$FILLMODE
 70
     1
  9
$QTEXTMODE
 70
     0
  9
$MIRRTEXT
 70
     1
  9
$LTSCALE
 40
4.0
  9
$ATTMODE
 70
     1
  9
$TEXTSIZE
 40
2.5
  9
$TRACEWID
 40
1.0
  9
$TEXTSTYLE
  7
Standard
  9
$CLAYER
  8
0
  9
$CELTYPE
  6
ByLayer
  9
$CECOLOR
 62
   256
  9
$CELTSCALE
 40
1.0
  9
$DISPSILH
 70
     0
  9
$DIMSCALE
 40
1.0
  9
$DIMASZ
 40
2.5
  9
$DIMEXO
 40
0.625
  9
$DIMDLI
 40
3.75
  9
$DIMRND
 40
0.0
  9
$DIMDLE
 40
0.0
  9
$DIMEXE
 40
1.25
  9
$DIMTP
 40
0.0
  9
$DIMTM
 40
0.0
  9
$DIMTXT
 40
2.5
  9
$DIMCEN
 40
2.5
  9
$DIMTSZ
 40
0.0
  9
$DIMTOL
 70
     0
  9
$DIMLIM
 70
     0
  9
$DIMTIH
 70
     0
  9
$DIMTOH
 70
     0
  9
$DIMSE1
 70
     0
  9
$DIMSE2
 70
     0
  9
$DIMTAD
 70
     1
  9
$DIMZIN
 70
     8
  9
$DIMBLK
  1

  9
$DIMASO
 70
     1
  9
$DIMSHO
 70
     1
  9
$DIMPOST
  1

  9
$DIMAPOST
  1

  9
$DIMALT
 70
     0
  9
$DIMALTD
 70
     3
  9
$DIMALTF
 40
0.03937007874016
  9
$DIMLFAC
 40
1.0
  9
$DIMTOFL
 70
     1
  9
$DIMTVP
 40
0.0
  9
$DIMTIX
 70
     0
  9
$DIMSOXD
 70
     0
  9
$DIMSAH
 70
     0
  9
$DIMBLK1
  1

  9
$DIMBLK2
  1

  9
$DIMSTYLE
  2
ISO-25
  9
$DIMCLRD
 70
     0
  9
$DIMCLRE
 70
     0
  9
$DIMCLRT
 70
     0
  9
$DIMTFAC
 40
1.0
  9
$DIMGAP
 40
0.625
  9
$DIMJUST
 70
     0
  9
$DIMSD1
 70
     0
  9
$DIMSD2
 70
     0
  9
$DIMTOLJ
 70
     0
  9
$DIMTZIN
 70
     8
  9
$DIMALTZ
 70
     0
  9
$DIMALTTZ
 70
     0
  9
$DIMUPT
 70
     0
  9
$DIMDEC
 70
     2
  9
$DIMTDEC
 70
     2
  9
$DIMALTU
 70
     2
  9
$DIMALTTD
 70
     3
  9
$DIMTXSTY
  7
Standard
  9
$DIMAUNIT
 70
     0
  9
$DIMADEC
 70
     0
  9
$DIMALTRND
 40
0.0
  9
$DIMAZIN
 70
     0
  9
$DIMDSEP
 70
    44
  9
$DIMATFIT
 70
     3
  9
$DIMFRAC
 70
     0
  9
$DIMLDRBLK
  1

  9
$DIMLUNIT
 70
     2
  9
$DIMLWD
 70
    -2
  9
$DIMLWE
 70
    -2
  9
$DIMTMOVE
 70
     0
  9
$LUNITS
 70
     2
  9
$LUPREC
 70
     4
  9
$SKETCHINC
 40
1.0
  9
$FILLETRAD
 40
10.0
  9
$AUNITS
 70
     0
  9
$AUPREC
 70
     0
  9
$MENU
  1
.
  9
$ELEVATION
 40
0.0
  9
$PELEVATION
 40
0.0
  9
$THICKNESS
 40
0.0
  9
$LIMCHECK
 70
     0
  9
$CHAMFERA
 40
0.0
  9
$CHAMFERB
 40
0.0
  9
$CHAMFERC
 40
0.0
  9
$CHAMFERD
 40
0.0
  9
$SKPOLY
 70
     0
  9
$TDCREATE
 40
2459780.474592697
  9
$TDUCREATE
 40
2459780.099592697
  9
$TDUPDATE
 40
2459780.474592859
  9
$TDUUPDATE
 40
2459780.099592859
  9
$TDINDWG
 40
0.0000000116
  9
$TDUSRTIMER
 40
0.0000000116
  9
$USRTIMER
 70
     1
  9
$ANGBASE
 50
0.0
  9
$ANGDIR
 70
     0
  9
$PDMODE
 70
     0
  9
$PDSIZE
 40
0.0
  9
$PLINEWID
 40
0.0
  9
$SPLFRAME
 70
     0
  9
$SPLINETYPE
 70
     6
  9
$SPLINESEGS
 70
     8
  9
$HANDSEED
  5
3DA
  9
$SURFTAB1
 70
     6
  9
$SURFTAB2
 70
     6
  9
$SURFTYPE
 70
     6
  9
$SURFU
 70
     6
  9
$SURFV
 70
     6
  9
$UCSBASE
  2

  9
$UCSNAME
  2

  9
$UCSORG
 10
0.0
 20
0.0
 30
0.0
  9
$UCSXDIR
 10
1.0
 20
0.0
 30
0.0
  9
$UCSYDIR
 10
0.0
 20
1.0
 30
0.0
  9
$UCSORTHOREF
  2

  9
$UCSORTHOVIEW
 70
     0
  9
$UCSORGTOP
 10
0.0
 20
0.0
 30
0.0
  9
$UCSORGBOTTOM
 10
0.0
 20
0.0
 30
0.0
  9
$UCSORGLEFT
 10
0.0
 20
0.0
 30
0.0
  9
$UCSORGRIGHT
 10
0.0
 20
0.0
 30
0.0
  9
$UCSORGFRONT
 10
0.0
 20
0.0
 30
0.0
  9
$UCSORGBACK
 10
0.0
 20
0.0
 30
0.0
  9
$PUCSBASE
  2

  9
$PUCSNAME
  2

  9
$PUCSORG
 10
0.0
 20
0.0
 30
0.0
  9
$PUCSXDIR
 10
1.0
 20
0.0
 30
0.0
  9
$PUCSYDIR
 10
0.0
 20
1.0
 30
0.0
  9
$PUCSORTHOREF
  2

  9
$PUCSORTHOVIEW
 70
     0
  9
$PUCSORGTOP
 10
0.0
 20
0.0
 30
0.0
  9
$PUCSORGBOTTOM
 10
0.0
 20
0.0
 30
0.0
  9
$PUCSORGLEFT
 10
0.0
 20
0.0
 30
0.0
  9
$PUCSORGRIGHT
 10
0.0
 20
0.0
 30
0.0
  9
$PUCSORGFRONT
 10
0.0
 20
0.0
 30
0.0
  9
$PUCSORGBACK
 10
0.0
 20
0.0
 30
0.0
  9
$USERI1
 70
     0
  9
$USERI2
 70
     0
  9
$USERI3
 70
     0
  9
$USERI4
 70
     0
  9
$USERI5
 70
     0
  9
$USERR1
 40
0.0
  9
$USERR2
 40
0.0
  9
$USERR3
 40
0.0
  9
$USERR4
 40
0.0
  9
$USERR5
 40
0.0
  9
$WORLDVIEW
 70
     1
  9
$SHADEDGE
 70
     3
  9
$SHADEDIF
 70
    70
  9
$TILEMODE
 70
     1
  9
$MAXACTVP
 70
    64
  9
$PINSBASE
 10
0.0
 20
0.0
 30
0.0
  9
$PLIMCHECK
 70
     0
  9
$PEXTMIN
 10
1.000000000000000E+20
 20
1.000000000000000E+20
 30
1.000000000000000E+20
  9
$PEXTMAX
 10
-1.000000000000000E+20
 20
-1.000000000000000E+20
 30
-1.000000000000000E+20
  9
$PLIMMIN
 10
0.0
 20
0.0
  9
$PLIMMAX
 10
420.0
 20
297.0
  9
$UNITMODE
 70
     0
  9
$VISRETAIN
 70
     1
  9
$PLINEGEN
 70
     0
  9
$PSLTSCALE
 70
     1
  9
$TREEDEPTH
 70
  3020
  9
$CMLSTYLE
  2
Standard
  9
$CMLJUST
 70
     0
  9
$CMLSCALE
 40
20.0
  9
$PROXYGRAPHICS
 70
     1
  9
$MEASUREMENT
 70
     1
  9
$CELWEIGHT
370
    -1
  9
$ENDCAPS
280
     0
  9
$JOINSTYLE
280
     0
  9
$LWDISPLAY
290
     0
  9
$INSUNITS
 70
     4
  9
$HYPERLINKBASE
  1

  9
$STYLESHEET
  1

  9
$XEDIT
290
     1
  9
$CEPSNTYPE
380
     0
  9
$PSTYLEMODE
290
     1
  9
$FINGERPRINTGUID
  2
{83B0F11F-5724-445F-87B2-BF65E8D70C5C}
  9
$VERSIONGUID
  2
{FAEB1C32-E019-11D5-929B-00C0DF256EC4}
  9
$EXTNAMES
290
     1
  9
$PSVPSCALE
 40
0.0
  9
$OLESTARTUP
290
     0
  9
$SORTENTS
280
   127
  9
$INDEXCTL
280
     0
  9
$HIDETEXT
280
     1
  9
$XCLIPFRAME
290
     0
  9
$HALOGAP
280
     0
  9
$OBSCOLOR
 70
   257
  9
$OBSLTYPE
280
     0
  9
$INTERSECTIONDISPLAY
280
     0
  9
$INTERSECTIONCOLOR
 70
   257
  9
$DIMASSOC
280
     2
  9
$PROJECTNAME
  1

  0
ENDSEC
  0
SECTION
  2
CLASSES
  0
CLASS
  1
ACDBDICTIONARYWDFLT
  2
AcDbDictionaryWithDefault
  3
ObjectDBX Classes
 90
        0
 91
        4
280
     0
281
     0
  0
CLASS
  1
VISUALSTYLE
  2
AcDbVisualStyle
  3
ObjectDBX Classes
 90
     4095
 91
        4
280
     0
281
     0
  0
CLASS
  1
MATERIAL
  2
AcDbMaterial
  3
ObjectDBX Classes
 90
     1153
 91
        4
280
     0
281
     0
  0
CLASS
  1
SCALE
  2
AcDbScale
  3
ObjectDBX Classes
 90
     1153
 91
        4
280
     0
281
     0
  0
CLASS
  1
TABLESTYLE
  2
AcDbTableStyle
  3
ObjectDBX Classes
 90
     4095
 91
        4
280
     0
281
     0
  0
CLASS
  1
MLEADERSTYLE
  2
AcDbMLeaderStyle
  3
ACDB_MLEADERSTYLE_CLASS
 90
     4095
 91
        4
280
     0
281
     0
  0
CLASS
  1
SUN
  2
AcDbSun
  3
SCENEOE
 90
     1153
 91
        4
280
     0
281
     0
  0
CLASS
  1
DICTIONARYVAR
  2
AcDbDictionaryVar
  3
ObjectDBX Classes
 90
        0
 91
        4
280
     0
281
     0
  0
CLASS
  1
CELLSTYLEMAP
  2
AcDbCellStyleMap
  3
ObjectDBX Classes
 90
     1152
 91
        4
280
     0
281
     0
  0
ENDSEC
  0
SECTION
  2
TABLES
  0
TABLE
  2
VPORT
  5
8
102
{ACAD_XDICTIONARY
360
391
102
}
330
0
100
AcDbSymbolTable
 70
     1
  0
VPORT
  5
29
330
8
100
AcDbSymbolTableRecord
100
AcDbViewportTableRecord
  2
*Active
 70
     0
 10
0.0
 20
0.0
 11
1.0
 21
1.0
 12
0.0
 22
0.0
 13
0.0
 23
0.0
 14
10.0
 24
10.0
 15
10.0
 25
10.0
 16
0.0
 26
0.0
 36
1.0
 17
0.0
 27
0.0
 37
0.0
 40
2613.6
 41
1.415824915824916
 42
50.0
 43
0.0
 44
0.0
 50
0.0
 51
0.0
 71
     0
 72
 10000
 73
     1
 74
     3
 75
     0
 76
     0
 77
     0
 78
     0
281
     0
 65
     1
110
0.0
120
0.0
130
0.0
111
1.0
121
0.0
131
0.0
112
0.0
122
1.0
132
0.0
 79
     0
146
0.0
  0
ENDTAB
  0
TABLE
  2
LTYPE
  5
5
330
0
100
AcDbSymbolTable
 70
     5
  0
LTYPE
  5
14
330
5
100
AcDbSymbolTableRecord
100
AcDbLinetypeTableRecord
  2
ByBlock
 70
     0
  3

 72
    65
 73
     0
 40
0.0
  0
LTYPE
  5
15
330
5
100
AcDbSymbolTableRecord
100
AcDbLinetypeTableRecord
  2
ByLayer
 70
     0
  3

 72
    65
 73
     0
 40
0.0
  0
LTYPE
  5
16
330
5
100
AcDbSymbolTableRecord
100
AcDbLinetypeTableRecord
  2
Continuous
 70
     0
  3
Solid line
 72
    65
 73
     0
 40
0.0
  0
LTYPE
  5
6F
330
5
100
AcDbSymbolTableRecord
100
AcDbLinetypeTableRecord
  2
JWW_CENTER2
 70
     0
  3
-------------  --  -------------
 72
    65
 73
     4
 40
13.54666666666667
 49
11.00666666666667
 74
     0
 49
-0.8466666666666667
 74
     0
 49
0.8466666666666667
 74
     0
 49
-0.8466666666666667
 74
     0
  0
LTYPE
  5
70
330
5
100
AcDbSymbolTableRecord
100
AcDbLinetypeTableRecord
  2
JWW_DASHED1
 70
     0
  3
-  --  --  --  --  --  --  --  -
 72
    65
 73
     2
 40
1.693333333333333
 49
0.8466666666666667
 74
     0
 49
-0.8466666666666667
 74
     0
  0
LTYPE
  5
71
330
5
100
AcDbSymbolTableRecord
100
AcDbLinetypeTableRecord
  2
JWW_CENTER1
 70
     0
  3
-----  --  ----------  --  -----
 72
    65
 73
     4
 40
6.773333333333333
 49
4.233333333333333
 74
     0
 49
-0.8466666666666667
 74
     0
 49
0.8466666666666667
 74
     0
 49
-0.8466666666666667
 74
     0
  0
LTYPE
  5
72
330
5
100
AcDbSymbolTableRecord
100
AcDbLinetypeTableRecord
  2
JWW_DASHED3
 70
     0
  3
---  ------  ------  ------  ---
 72
    65
 73
     2
 40
3.386666666666667
 49
2.54
 74
     0
 49
-0.8466666666666667
 74
     0
  0
ENDTAB
  0
TABLE
  2
LAYER
  5
2
330
0
100
AcDbSymbolTable
 70
    16
  0
LAYER
  5
10
330
2
100
AcDbSymbolTableRecord
100
AcDbLayerTableRecord
  2
0
 70
     0
 62
     7
  6
Continuous
370
    -3
390
F
  0
LAYER
  5
73
330
2
100
AcDbSymbolTableRecord
100
AcDbLayerTableRecord
  2
4-0
 70
     0
 62
     7
  6
Continuous
370
    -3
390
F
  0
LAYER
  5
74
330
2
100
AcDbSymbolTableRecord
100
AcDbLayerTableRecord
  2
F-5ﾚｲﾔ
 70
     0
 62
     7
  6
Continuous
370
    -3
390
F
  0
LAYER
  5
75
330
2
100
AcDbSymbolTableRecord
100
AcDbLayerTableRecord
  2
F-Fﾚｲﾔ
 70
     0
 62
     7
  6
Continuous
370
    -3
390
F
  0
LAYER
  5
76
330
2
100
AcDbSymbolTableRecord
100
AcDbLayerTableRecord
  2
4-2
 70
     0
 62
     7
  6
Continuous
370
    -3
390
F
  0
LAYER
  5
77
330
2
100
AcDbSymbolTableRecord
100
AcDbLayerTableRecord
  2
4-4
 70
     0
 62
     7
  6
Continuous
370
    -3
390
F
  0
LAYER
  5
78
330
2
100
AcDbSymbolTableRecord
100
AcDbLayerTableRecord
  2
4-1
 70
     0
 62
     7
  6
Continuous
370
    -3
390
F
  0
LAYER
  5
79
330
2
100
AcDbSymbolTableRecord
100
AcDbLayerTableRecord
  2
4-9
 70
     0
 62
     7
  6
Continuous
370
    -3
390
F
  0
LAYER
  5
7A
330
2
100
AcDbSymbolTableRecord
100
AcDbLayerTableRecord
  2
4-5
 70
     0
 62
     7
  6
Continuous
370
    -3
390
F
  0
LAYER
  5
7B
330
2
100
AcDbSymbolTableRecord
100
AcDbLayerTableRecord
  2
4-A
 70
     0
 62
     7
  6
Continuous
370
    -3
390
F
  0
LAYER
  5
7C
330
2
100
AcDbSymbolTableRecord
100
AcDbLayerTableRecord
  2
D-A
 70
     0
 62
     7
  6
Continuous
370
    -3
390
F
  0
LAYER
  5
7D
330
2
100
AcDbSymbolTableRecord
100
AcDbLayerTableRecord
  2
D-4
 70
     0
 62
     7
  6
Continuous
370
    -3
390
F
  0
LAYER
  5
7E
330
2
100
AcDbSymbolTableRecord
100
AcDbLayerTableRecord
  2
D-5
 70
     0
 62
     7
  6
Continuous
370
    -3
390
F
  0
LAYER
  5
7F
330
2
100
AcDbSymbolTableRecord
100
AcDbLayerTableRecord
  2
D-9
 70
     0
 62
     7
  6
Continuous
370
    -3
390
F
  0
LAYER
  5
80
330
2
100
AcDbSymbolTableRecord
100
AcDbLayerTableRecord
  2
D-1
 70
     0
 62
     7
  6
Continuous
370
    -3
390
F
  0
LAYER
  5
81
330
2
100
AcDbSymbolTableRecord
100
AcDbLayerTableRecord
  2
D-2
 70
     0
 62
     7
  6
Continuous
370
    -3
390
F
  0
ENDTAB
  0
TABLE
  2
STYLE
  5
3
330
0
100
AcDbSymbolTable
 70
     2
  0
STYLE
  5
11
330
3
100
AcDbSymbolTableRecord
100
AcDbTextStyleTableRecord
  2
Standard
 70
     0
 40
0.0
 41
1.0
 50
0.0
 71
     0
 42
2.5
  3
txt
  4

  0
STYLE
  5
6E
330
3
100
AcDbSymbolTableRecord
100
AcDbTextStyleTableRecord
  2
ＭＳ ゴシック
 70
     0
 40
1.0
 41
1.0
 50
0.0
 71
     0
 42
2.5
  3

  4

1001
ACAD
1000
MS Gothic
1071
    32817
  0
ENDTAB
  0
TABLE
  2
VIEW
  5
6
330
0
100
AcDbSymbolTable
 70
     0
  0
ENDTAB
  0
TABLE
  2
UCS
  5
7
330
0
100
AcDbSymbolTable
 70
     0
  0
ENDTAB
  0
TABLE
  2
APPID
  5
9
330
0
100
AcDbSymbolTable
 70
     2
  0
APPID
  5
12
330
9
100
AcDbSymbolTableRecord
100
AcDbRegAppTableRecord
  2
ACAD
 70
     0
  0
APPID
  5
3D0
330
9
100
AcDbSymbolTableRecord
100
AcDbRegAppTableRecord
  2
ACAD_MLEADERVER
 70
     0
  0
ENDTAB
  0
TABLE
  2
DIMSTYLE
  5
A
330
0
100
AcDbSymbolTable
 70
     1
100
AcDbDimStyleTable
  0
DIMSTYLE
105
27
330
A
100
AcDbSymbolTableRecord
100
AcDbDimStyleTableRecord
  2
ISO-25
 70
     0
 41
2.5
 42
0.625
 43
3.75
 44
1.25
 73
     0
 74
     0
 77
     1
 78
     8
140
2.5
141
2.5
143
0.03937007874016
147
0.625
171
     3
172
     1
178
     0
271
     2
272
     2
274
     3
278
    44
283
     0
284
     8
340
11
  0
ENDTAB
  0
TABLE
  2
BLOCK_RECORD
  5
1
330
0
100
AcDbSymbolTable
 70
     1
  0
BLOCK_RECORD
  5
1F
330
1
100
AcDbSymbolTableRecord
100
AcDbBlockTableRecord
  2
*Model_Space
340
22
  0
BLOCK_RECORD
  5
1B
330
1
100
AcDbSymbolTableRecord
100
AcDbBlockTableRecord
  2
*Paper_Space
340
1E
  0
BLOCK_RECORD
  5
23
330
1
100
AcDbSymbolTableRecord
100
AcDbBlockTableRecord
  2
*Paper_Space0
340
26
  0
ENDTAB
  0
ENDSEC
  0
SECTION
  2
BLOCKS
  0
BLOCK
  5
20
330
1F
100
AcDbEntity
  8
0
100
AcDbBlockBegin
  2
*Model_Space
 70
     0
 10
0.0
 20
0.0
 30
0.0
  3
*Model_Space
  1

  0
ENDBLK
  5
21
330
1F
100
AcDbEntity
  8
0
100
AcDbBlockEnd
  0
BLOCK
  5
1C
330
1B
100
AcDbEntity
 67
     1
  8
0
100
AcDbBlockBegin
  2
*Paper_Space
 70
     0
 10
0.0
 20
0.0
 30
0.0
  3
*Paper_Space
  1

  0
ENDBLK
  5
1D
330
1B
100
AcDbEntity
 67
     1
  8
0
100
AcDbBlockEnd
  0
BLOCK
  5
24
330
23
100
AcDbEntity
  8
0
100
AcDbBlockBegin
  2
*Paper_Space0
 70
     0
 10
0.0
 20
0.0
 30
0.0
  3
*Paper_Space0
  1

  0
ENDBLK
  5
25
330
23
100
AcDbEntity
  8
0
100
AcDbBlockEnd
  0
ENDSEC
  0
SECTION
  2
ENTITIES
  0
SOLID
  5
82
330
1F
100
AcDbEntity
  8
4-0
  6
Continuous
 62
     4
370
     9
100
AcDbTrace
 10
-1289.779649065456
 20
223.0039304735847
 30
0.0
 11
-1309.779649065456
 21
223.0039304735847
 31
0.0
 12
-1289.779649065456
 22
221.0039304735847
 32
0.0
 13
-1309.779649065456
 23
221.0039304735847
 33
0.0
  0
SOLID
  5
83
330
1F
100
AcDbEntity
  8
4-0
  6
Continuous
 62
     4
370
     9
100
AcDbTrace
 10
217.9863255477585
 20
223.0039304735847
 30
0.0
 11
197.986325547759
 21
223.0039304735847
 31
0.0
 12
217.9863255477585
 22
221.0039304735847
 32
0.0
 13
197.986325547759
 23
221.0039304735847
 33
0.0
  0
SOLID
  5
84
330
1F
100
AcDbEntity
  8
4-0
  6
Continuous
 62
     4
370
     9
100
AcDbTrace
 10
-362.0887195666028
 20
-8.757394150054324
 30
0.0
 11
-362.0887195666028
 21
-28.75739415005387
 31
0.0
 12
-360.0887195666028
 22
-8.757394150054324
 32
0.0
 13
-360.0887195666028
 23
-28.75739415005387
 33
0.0
  0
SOLID
  5
85
330
1F
100
AcDbEntity
  8
4-0
  6
Continuous
 62
     4
370
     9
100
AcDbTrace
 10
-362.0887195666028
 20
472.7652550972236
 30
0.0
 11
-362.0887195666028
 21
452.7652550972241
 31
0.0
 12
-360.0887195666028
 22
472.7652550972236
 32
0.0
 13
-360.0887195666028
 23
452.7652550972241
 33
0.0
  0
TEXT
  5
86
330
1F
100
AcDbEntity
  8
F-5ﾚｲﾔ
  6
Continuous
 62
     2
370
     9
100
AcDbText
 10
490.1480658376729
 20
940.7874374533391
 30
0.0
 40
12.192
  1
スチール製 溶融亜鉛めっき
 41
1.115
  7
ＭＳ ゴシック
100
AcDbText
  0
LINE
  5
87
330
1F
100
AcDbEntity
  8
4-0
  6
JWW_CENTER2
 62
     7
370
     9
100
AcDbLine
 10
197.986325547759
 20
222.0039304735849
 30
0.0
 11
-1289.779649065456
 21
222.0039304735849
 31
0.0
  0
LINE
  5
88
330
1F
100
AcDbEntity
  8
F-Fﾚｲﾔ
  6
Continuous
 62
     7
370
     9
100
AcDbLine
 10
321.4186533508366
 20
1066.531437453339
 30
0.0
 11
949.6774430588097
 21
1066.531437453339
 31
0.0
  0
TEXT
  5
89
330
1F
100
AcDbEntity
  8
F-Fﾚｲﾔ
  6
Continuous
 62
     2
370
     9
100
AcDbText
 10
332.065543409298
 20
1044.787437453339
 30
0.0
 40
12.192
  1
名称
 41
1.0625
  7
ＭＳ ゴシック
100
AcDbText
  0
TEXT
  5
8A
330
1F
100
AcDbEntity
  8
F-5ﾚｲﾔ
  6
Continuous
 62
     2
370
     9
100
AcDbText
 10
991.2516982301509
 20
1044.787458911011
 30
0.0
 40
12.192
  1
強度性能
 41
1.09375
  7
ＭＳ ゴシック
100
AcDbText
  0
TEXT
  5
8B
330
1F
100
AcDbEntity
  8
F-5ﾚｲﾔ
  6
Continuous
 62
     2
370
     9
100
AcDbText
 10
991.2516982301509
 20
1008.787437453339
 30
0.0
 40
12.192
  1
強度
 41
1.0625
  7
ＭＳ ゴシック
100
AcDbText
  0
LINE
  5
8C
330
1F
100
AcDbEntity
  8
F-5ﾚｲﾔ
  6
Continuous
 62
     7
370
     9
100
AcDbLine
 10
980.6048081716904
 20
1066.531437453339
 30
0.0
 11
1549.291485053692
 21
1066.531437453339
 31
0.0
  0
LINE
  5
8D
330
1F
100
AcDbEntity
  8
F-5ﾚｲﾔ
  6
Continuous
 62
     7
370
     9
100
AcDbLine
 10
980.6048081716904
 20
1034.531437453339
 30
0.0
 11
1549.291485053692
 21
1034.531437453339
 31
0.0
  0
LINE
  5
8E
330
1F
100
AcDbEntity
  8
F-5ﾚｲﾔ
  6
Continuous
 62
     7
370
     9
100
AcDbLine
 10
980.6048081716904
 20
1030.531437453339
 30
0.0
 11
1549.291485053692
 21
1030.531437453339
 31
0.0
  0
LINE
  5
8F
330
1F
100
AcDbEntity
  8
F-Fﾚｲﾔ
  6
Continuous
 62
     7
370
     9
100
AcDbLine
 10
1229.983960934116
 20
-840.2493627503754
 30
0.0
 11
1229.983960934116
 21
-960.2493627503754
 31
0.0
  0
TEXT
  5
90
330
1F
100
AcDbEntity
  8
F-Fﾚｲﾔ
  6
Continuous
 62
     2
370
     9
100
AcDbText
 10
1243.175073972657
 20
-885.8115728899587
 30
0.0
 40
12.192
  1
なタイプの蓋を用意しております。
 41
1.1171875
  7
ＭＳ ゴシック
100
AcDbText
  0
TEXT
  5
91
330
1F
100
AcDbEntity
  8
F-Fﾚｲﾔ
  6
Continuous
 62
     2
370
     9
100
AcDbText
 10
1243.175073972657
 20
-906.4859795566255
 30
0.0
 40
12.192
  1
「把手穴付」とご指示ください。
 41
1.116666666666667
  7
ＭＳ ゴシック
100
AcDbText
  0
TEXT
  5
92
330
1F
100
AcDbEntity
  8
F-Fﾚｲﾔ
  6
Continuous
 62
     2
370
     9
100
AcDbText
 10
1243.175073972657
 20
-927.1603862232922
 30
0.0
 40
12.192
  1
把手穴付の蓋の設置は、5枚に1枚
 41
1.116666666666667
  7
ＭＳ ゴシック
100
AcDbText
  0
TEXT
  5
93
330
1F
100
AcDbEntity
  8
F-Fﾚｲﾔ
  6
Continuous
 62
     2
370
     9
100
AcDbText
 10
1243.175073972657
 20
-947.834792889959
 30
0.0
 40
12.192
  1
程度が目安です。
 41
1.109375
  7
ＭＳ ゴシック
100
AcDbText
  0
TEXT
  5
94
330
1F
100
AcDbEntity
  8
F-Fﾚｲﾔ
  6
Continuous
 62
     2
370
     9
100
AcDbText
 10
1243.175073972657
 20
-865.1371662232922
 30
0.0
 40
12.192
  1
専用ハンドルを用いる、開閉が容易
 41
1.1171875
  7
ＭＳ ゴシック
100
AcDbText
  0
LINE
  5
95
330
1F
100
AcDbEntity
  8
F-Fﾚｲﾔ
  6
Continuous
 62
     7
370
     9
100
AcDbLine
 10
1229.983960934116
 20
-840.2493627503754
 30
0.0
 11
1535.229304201811
 21
-840.2493627503754
 31
0.0
  0
LINE
  5
96
330
1F
100
AcDbEntity
  8
F-Fﾚｲﾔ
  6
Continuous
 62
     7
370
     9
100
AcDbLine
 10
1535.229304201811
 20
-840.2493627503754
 30
0.0
 11
1535.229304201811
 21
-960.2493627503754
 31
0.0
  0
LINE
  5
97
330
1F
100
AcDbEntity
  8
F-Fﾚｲﾔ
  6
Continuous
 62
     7
370
     9
100
AcDbLine
 10
1535.229304201811
 20
-960.2493627503754
 30
0.0
 11
1229.983960934116
 21
-960.2493627503754
 31
0.0
  0
TEXT
  5
98
330
1F
100
AcDbEntity
  8
F-5ﾚｲﾔ
  6
Continuous
 62
     2
370
     0
100
AcDbText
 10
275.4673822126795
 20
-1071.517109547733
 30
0.0
 40
12.192
  1
カラー舗装用みぞ蓋　タイル用（充填深さ２８ｍｍ）　側溝用
 41
1.120535714285714
  7
ＭＳ ゴシック
100
AcDbText
  0
LINE
  5
99
330
1F
100
AcDbEntity
  8
4-2
  6
Continuous
 62
     3
370
     9
100
AcDbLine
 10
-674.5135566237518
 20
213.6379417144628
 30
0.0
 11
-704.5135972745798
 21
213.6379417144628
 31
0.0
  0
LINE
  5
9A
330
1F
100
AcDbEntity
  8
4-2
  6
Continuous
 62
     3
370
     9
100
AcDbLine
 10
-674.5135566237518
 20
198.0494003633553
 30
0.0
 11
-704.5135972745798
 21
198.0494003633553
 31
0.0
  0
LINE
  5
9B
330
1F
100
AcDbEntity
  8
4-2
  6
Continuous
 62
     3
370
     9
100
AcDbLine
 10
-674.5135566237518
 20
197.5494003633532
 30
0.0
 11
-704.5135972745798
 21
197.5494003633532
 31
0.0
  0
LINE
  5
9C
330
1F
100
AcDbEntity
  8
4-2
  6
Continuous
 62
     3
370
     9
100
AcDbLine
 10
-674.5135566237518
 20
230.369992522031
 30
0.0
 11
-704.5135972745798
 21
230.369992522031
 31
0.0
  0
LINE
  5
9D
330
1F
100
AcDbEntity
  8
4-2
  6
Continuous
 62
     3
370
     9
100
AcDbLine
 10
-674.5135566237518
 20
246.4585338731406
 30
0.0
 11
-704.5135972745798
 21
246.4585338731406
 31
0.0
  0
LINE
  5
9E
330
1F
100
AcDbEntity
  8
4-2
  6
Continuous
 62
     3
370
     9
100
AcDbLine
 10
-674.5135566237518
 20
245.9585338731433
 30
0.0
 11
-704.5135972745798
 21
245.9585338731433
 31
0.0
  0
LINE
  5
9F
330
1F
100
AcDbEntity
  8
4-2
  6
Continuous
 62
     3
370
     9
100
AcDbLine
 10
-674.5135566237518
 20
246.4585338731406
 30
0.0
 11
-674.5135566237518
 21
197.5494003633532
 31
0.0
  0
LINE
  5
A0
330
1F
100
AcDbEntity
  8
4-2
  6
Continuous
 62
     3
370
     9
100
AcDbLine
 10
-704.5135972745798
 20
197.5494003633532
 30
0.0
 11
-704.5135972745798
 21
246.4585338731406
 31
0.0
  0
LINE
  5
A1
330
1F
100
AcDbEntity
  8
4-2
  6
Continuous
 62
     3
370
     9
100
AcDbLine
 10
-1027.51359727458
 20
213.6379417144628
 30
0.0
 11
-997.5135566237518
 21
213.6379417144628
 31
0.0
  0
LINE
  5
A2
330
1F
100
AcDbEntity
  8
4-2
  6
Continuous
 62
     3
370
     9
100
AcDbLine
 10
-1027.51359727458
 20
198.0494003633553
 30
0.0
 11
-997.5135566237518
 21
198.0494003633553
 31
0.0
  0
LINE
  5
A3
330
1F
100
AcDbEntity
  8
4-2
  6
Continuous
 62
     3
370
     9
100
AcDbLine
 10
-1027.51359727458
 20
197.5494003633532
 30
0.0
 11
-997.5135566237518
 21
197.5494003633532
 31
0.0
  0
LINE
  5
A4
330
1F
100
AcDbEntity
  8
4-2
  6
Continuous
 62
     3
370
     9
100
AcDbLine
 10
-1027.51359727458
 20
230.369992522031
 30
0.0
 11
-997.5135566237518
 21
230.369992522031
 31
0.0
  0
LINE
  5
A5
330
1F
100
AcDbEntity
  8
4-2
  6
Continuous
 62
     3
370
     9
100
AcDbLine
 10
-1027.51359727458
 20
246.4585338731406
 30
0.0
 11
-997.5135566237518
 21
246.4585338731406
 31
0.0
  0
LINE
  5
A6
330
1F
100
AcDbEntity
  8
4-2
  6
Continuous
 62
     3
370
     9
100
AcDbLine
 10
-1027.51359727458
 20
245.9585338731433
 30
0.0
 11
-997.5135566237518
 21
245.9585338731433
 31
0.0
  0
LINE
  5
A7
330
1F
100
AcDbEntity
  8
4-2
  6
Continuous
 62
     3
370
     9
100
AcDbLine
 10
-1027.51359727458
 20
246.4585338731406
 30
0.0
 11
-1027.51359727458
 21
197.5494003633532
 31
0.0
  0
LINE
  5
A8
330
1F
100
AcDbEntity
  8
4-2
  6
Continuous
 62
     3
370
     9
100
AcDbLine
 10
-997.5135566237518
 20
197.5494003633532
 30
0.0
 11
-997.5135566237518
 21
246.4585338731406
 31
0.0
  0
LINE
  5
A9
330
1F
100
AcDbEntity
  8
4-2
  6
Continuous
 62
     3
370
     9
100
AcDbLine
 10
-74.51365412682617
 20
213.6379417144628
 30
0.0
 11
-104.5136947776541
 21
213.6379417144628
 31
0.0
  0
LINE
  5
AA
330
1F
100
AcDbEntity
  8
4-2
  6
Continuous
 62
     3
370
     9
100
AcDbLine
 10
-74.51365412682617
 20
198.0494003633553
 30
0.0
 11
-104.5136947776541
 21
198.0494003633553
 31
0.0
  0
LINE
  5
AB
330
1F
100
AcDbEntity
  8
4-2
  6
Continuous
 62
     3
370
     9
100
AcDbLine
 10
-74.51365412682617
 20
197.5494003633532
 30
0.0
 11
-104.5136947776541
 21
197.5494003633532
 31
0.0
  0
LINE
  5
AC
330
1F
100
AcDbEntity
  8
4-2
  6
Continuous
 62
     3
370
     9
100
AcDbLine
 10
-74.51365412682617
 20
230.369992522031
 30
0.0
 11
-104.5136947776541
 21
230.369992522031
 31
0.0
  0
LINE
  5
AD
330
1F
100
AcDbEntity
  8
4-2
  6
Continuous
 62
     3
370
     9
100
AcDbLine
 10
-74.51365412682617
 20
246.4585338731406
 30
0.0
 11
-104.5136947776541
 21
246.4585338731406
 31
0.0
  0
LINE
  5
AE
330
1F
100
AcDbEntity
  8
4-2
  6
Continuous
 62
     3
370
     9
100
AcDbLine
 10
-74.51365412682617
 20
245.9585338731433
 30
0.0
 11
-104.5136947776541
 21
245.9585338731433
 31
0.0
  0
LINE
  5
AF
330
1F
100
AcDbEntity
  8
4-2
  6
Continuous
 62
     3
370
     9
100
AcDbLine
 10
-74.51365412682617
 20
246.4585338731406
 30
0.0
 11
-74.51365412682617
 21
197.5494003633532
 31
0.0
  0
LINE
  5
B0
330
1F
100
AcDbEntity
  8
4-2
  6
Continuous
 62
     3
370
     9
100
AcDbLine
 10
-104.5136947776541
 20
197.5494003633532
 30
0.0
 11
-104.5136947776541
 21
246.4585338731406
 31
0.0
  0
LINE
  5
B1
330
1F
100
AcDbEntity
  8
4-2
  6
Continuous
 62
     3
370
     9
100
AcDbLine
 10
-427.5136947776537
 20
213.6379417144628
 30
0.0
 11
-397.5136541268257
 21
213.6379417144628
 31
0.0
  0
LINE
  5
B2
330
1F
100
AcDbEntity
  8
4-2
  6
Continuous
 62
     3
370
     9
100
AcDbLine
 10
-427.5136947776537
 20
198.0494003633553
 30
0.0
 11
-397.5136541268257
 21
198.0494003633553
 31
0.0
  0
LINE
  5
B3
330
1F
100
AcDbEntity
  8
4-2
  6
Continuous
 62
     3
370
     9
100
AcDbLine
 10
-427.5136947776537
 20
197.5494003633532
 30
0.0
 11
-397.5136541268257
 21
197.5494003633532
 31
0.0
  0
LINE
  5
B4
330
1F
100
AcDbEntity
  8
4-2
  6
Continuous
 62
     3
370
     9
100
AcDbLine
 10
-427.5136947776537
 20
230.369992522031
 30
0.0
 11
-397.5136541268257
 21
230.369992522031
 31
0.0
  0
LINE
  5
B5
330
1F
100
AcDbEntity
  8
4-2
  6
Continuous
 62
     3
370
     9
100
AcDbLine
 10
-427.5136947776537
 20
246.4585338731406
 30
0.0
 11
-397.5136541268257
 21
246.4585338731406
 31
0.0
  0
LINE
  5
B6
330
1F
100
AcDbEntity
  8
4-2
  6
Continuous
 62
     3
370
     9
100
AcDbLine
 10
-427.5136947776537
 20
245.9585338731433
 30
0.0
 11
-397.5136541268257
 21
245.9585338731433
 31
0.0
  0
LINE
  5
B7
330
1F
100
AcDbEntity
  8
4-2
  6
Continuous
 62
     3
370
     9
100
AcDbLine
 10
-427.5136947776537
 20
246.4585338731406
 30
0.0
 11
-427.5136947776537
 21
197.5494003633532
 31
0.0
  0
LINE
  5
B8
330
1F
100
AcDbEntity
  8
4-2
  6
Continuous
 62
     3
370
     9
100
AcDbLine
 10
-397.5136541268257
 20
197.5494003633532
 30
0.0
 11
-397.5136541268257
 21
246.4585338731406
 31
0.0
  0
LINE
  5
B9
330
1F
100
AcDbEntity
  8
4-2
  6
Continuous
 62
     7
370
     9
100
AcDbLine
 10
-556.5136617856774
 20
-445.5120877461163
 30
0.0
 11
-556.5136617856774
 21
-483.5122873475746
 31
0.0
  0
LINE
  5
BA
330
1F
100
AcDbEntity
  8
4-2
  6
Continuous
 62
     7
370
     9
100
AcDbLine
 10
-1145.513492112656
 20
-445.5120877461163
 30
0.0
 11
-1145.513492112656
 21
-483.5122873475746
 31
0.0
  0
LINE
  5
BB
330
1F
100
AcDbEntity
  8
4-2
  6
Continuous
 62
     7
370
     9
100
AcDbLine
 10
-1150.013576949165
 20
-445.5120877461163
 30
0.0
 11
-1150.013576949165
 21
-486.7123028538033
 31
0.0
  0
LINE
  5
BC
330
1F
100
AcDbEntity
  8
4-2
  6
Continuous
 62
     7
370
     9
100
AcDbLine
 10
-1150.013576949165
 20
-483.5122873475746
 30
0.0
 11
-552.0135769491667
 21
-483.5122873475746
 31
0.0
  0
LINE
  5
BD
330
1F
100
AcDbEntity
  8
4-2
  6
Continuous
 62
     7
370
     9
100
AcDbLine
 10
-552.0135769491667
 20
-445.5120877461163
 30
0.0
 11
-552.0135769491667
 21
-486.7123028538033
 31
0.0
  0
LINE
  5
BE
330
1F
100
AcDbEntity
  8
4-2
  6
Continuous
 62
     7
370
     9
100
AcDbLine
 10
-1150.013576949165
 20
-486.7123028538033
 30
0.0
 11
-552.0135769491667
 21
-486.7123028538033
 31
0.0
  0
LINE
  5
BF
330
1F
100
AcDbEntity
  8
4-2
  6
Continuous
 62
     7
370
     9
100
AcDbLine
 10
-1150.013576949165
 20
-445.5120877461163
 30
0.0
 11
-552.0135769491667
 21
-445.5120877461163
 31
0.0
  0
LINE
  5
C0
330
1F
100
AcDbEntity
  8
4-2
  6
JWW_DASHED1
 62
     7
370
     9
100
AcDbLine
 10
-1125.013582280905
 20
-483.5122873475746
 30
0.0
 11
-1125.013582280905
 21
-486.7123028538033
 31
0.0
  0
LINE
  5
C1
330
1F
100
AcDbEntity
  8
4-2
  6
JWW_DASHED1
 62
     7
370
     9
100
AcDbLine
 10
-1115.013582280904
 20
-483.5122873475746
 30
0.0
 11
-1115.013582280904
 21
-486.7123028538033
 31
0.0
  0
LINE
  5
C2
330
1F
100
AcDbEntity
  8
4-2
  6
JWW_CENTER1
 62
     7
370
     9
100
AcDbLine
 10
-1120.013582280905
 20
-480.2358882824756
 30
0.0
 11
-1120.013582280905
 21
-489.9887019189023
 31
0.0
  0
LINE
  5
C3
330
1F
100
AcDbEntity
  8
4-2
  6
Continuous
 62
     7
370
     9
100
AcDbLine
 10
43.48624071124823
 20
-445.5120877461163
 30
0.0
 11
43.48624071124823
 21
-483.5122873475746
 31
0.0
  0
LINE
  5
C4
330
1F
100
AcDbEntity
  8
4-2
  6
Continuous
 62
     7
370
     9
100
AcDbLine
 10
-545.5135896157299
 20
-445.5120877461163
 30
0.0
 11
-545.5135896157299
 21
-483.5122873475746
 31
0.0
  0
LINE
  5
C5
330
1F
100
AcDbEntity
  8
4-2
  6
Continuous
 62
     7
370
     9
100
AcDbLine
 10
-550.0136744522388
 20
-445.5120877461163
 30
0.0
 11
-550.0136744522388
 21
-486.7123028538033
 31
0.0
  0
LINE
  5
C6
330
1F
100
AcDbEntity
  8
4-2
  6
Continuous
 62
     7
370
     9
100
AcDbLine
 10
-550.0136744522388
 20
-483.5122873475746
 30
0.0
 11
47.98632554775895
 21
-483.5122873475746
 31
0.0
  0
LINE
  5
C7
330
1F
100
AcDbEntity
  8
4-2
  6
Continuous
 62
     7
370
     9
100
AcDbLine
 10
47.98632554775895
 20
-445.5120877461163
 30
0.0
 11
47.98632554775895
 21
-486.7123028538033
 31
0.0
  0
LINE
  5
C8
330
1F
100
AcDbEntity
  8
4-2
  6
Continuous
 62
     7
370
     9
100
AcDbLine
 10
-550.0136744522388
 20
-486.7123028538033
 30
0.0
 11
47.98632554775895
 21
-486.7123028538033
 31
0.0
  0
LINE
  5
C9
330
1F
100
AcDbEntity
  8
4-2
  6
Continuous
 62
     7
370
     9
100
AcDbLine
 10
-550.0136744522388
 20
-445.5120877461163
 30
0.0
 11
47.98632554775895
 21
-445.5120877461163
 31
0.0
  0
LINE
  5
CA
330
1F
100
AcDbEntity
  8
4-2
  6
JWW_DASHED1
 62
     7
370
     9
100
AcDbLine
 10
-525.0136797839787
 20
-483.5122873475746
 30
0.0
 11
-525.0136797839787
 21
-486.7123028538033
 31
0.0
  0
LINE
  5
CB
330
1F
100
AcDbEntity
  8
4-2
  6
JWW_DASHED1
 62
     7
370
     9
100
AcDbLine
 10
-515.0136797839787
 20
-483.5122873475746
 30
0.0
 11
-515.0136797839787
 21
-486.7123028538033
 31
0.0
  0
LINE
  5
CC
330
1F
100
AcDbEntity
  8
4-2
  6
JWW_CENTER1
 62
     7
370
     9
100
AcDbLine
 10
-520.0136797839791
 20
-480.2358882824756
 30
0.0
 11
-520.0136797839791
 21
-489.9887019189023
 31
0.0
  0
LINE
  5
CD
330
1F
100
AcDbEntity
  8
4-4
  6
Continuous
 62
     7
370
     9
100
AcDbLine
 10
-1150.013576949165
 20
-345.5123973993815
 30
0.0
 11
-552.0135769491667
 21
-345.5123973993815
 31
0.0
  0
LWPOLYLINE
  5
CE
330
1F
100
AcDbEntity
  8
4-4
  6
Continuous
 62
     7
370
     9
100
AcDbPolyline
 90
        4
 70
     1
 43
0.8
 10
-1149.613576949165
 20
-345.5123973993815
 42
0.4142135623731
 10
-1150.013576949165
 20
-345.1123973993815
 42
0.4142135623731
 10
-1150.413576949165
 20
-345.5123973993815
 42
0.4142135623731
 10
-1150.013576949165
 20
-345.9123973993815
 42
0.4142135623731
  0
LWPOLYLINE
  5
CF
330
1F
100
AcDbEntity
  8
4-4
  6
Continuous
 62
     7
370
     9
100
AcDbPolyline
 90
        4
 70
     1
 43
0.8
 10
-551.6135769491667
 20
-345.5123973993815
 42
0.4142135623731
 10
-552.0135769491667
 20
-345.1123973993815
 42
0.4142135623731
 10
-552.4135769491667
 20
-345.5123973993815
 42
0.4142135623731
 10
-552.0135769491667
 20
-345.9123973993815
 42
0.4142135623731
  0
LINE
  5
D0
330
1F
100
AcDbEntity
  8
4-4
  6
Continuous
 62
     7
370
     9
100
AcDbLine
 10
-1150.013576949165
 20
-344.3123973993816
 30
0.0
 11
-1150.013576949165
 21
-437.5123973993815
 31
0.0
  0
LINE
  5
D1
330
1F
100
AcDbEntity
  8
4-4
  6
Continuous
 62
     7
370
     9
100
AcDbLine
 10
-552.0135769491667
 20
-344.3123973993816
 30
0.0
 11
-552.0135769491667
 21
-437.5120877461163
 31
0.0
  0
TEXT
  5
D2
330
1F
100
AcDbEntity
  8
4-4
  6
Continuous
 62
     2
370
   211
100
AcDbText
 10
-864.0135769491658
 20
-340.8563973993815
 30
0.0
 40
12.192
  1
598
 41
1.083333333333333
  7
ＭＳ ゴシック
100
AcDbText
  0
LINE
  5
D3
330
1F
100
AcDbEntity
  8
4-4
  6
Continuous
 62
     7
370
     9
100
AcDbLine
 10
-552.0135769491667
 20
-345.5123973993815
 30
0.0
 11
-550.0136744522388
 21
-345.5123973993815
 31
0.0
  0
LWPOLYLINE
  5
D4
330
1F
100
AcDbEntity
  8
4-4
  6
Continuous
 62
     7
370
     9
100
AcDbPolyline
 90
        4
 70
     1
 43
0.8
 10
-549.6136744522388
 20
-345.5123973993815
 42
0.4142135623731
 10
-550.0136744522388
 20
-345.1123973993815
 42
0.4142135623731
 10
-550.4136744522388
 20
-345.5123973993815
 42
0.4142135623731
 10
-550.0136744522388
 20
-345.9123973993815
 42
0.4142135623731
  0
LINE
  5
D5
330
1F
100
AcDbEntity
  8
4-4
  6
Continuous
 62
     7
370
     9
100
AcDbLine
 10
-550.0136744522388
 20
-344.3123973993816
 30
0.0
 11
-550.0136744522388
 21
-437.5120877461163
 31
0.0
  0
TEXT
  5
D6
330
1F
100
AcDbEntity
  8
4-4
  6
Continuous
 62
     2
370
   211
100
AcDbText
 10
-555.013625700703
 20
-340.8563973993815
 30
0.0
 40
12.192
  1
2
  7
ＭＳ ゴシック
100
AcDbText
  0
LINE
  5
D7
330
1F
100
AcDbEntity
  8
4-4
  6
Continuous
 62
     7
370
     9
100
AcDbLine
 10
-550.0136744522388
 20
-345.5123973993815
 30
0.0
 11
47.98632554775918
 21
-345.5123973993815
 31
0.0
  0
LWPOLYLINE
  5
D8
330
1F
100
AcDbEntity
  8
4-4
  6
Continuous
 62
     7
370
     9
100
AcDbPolyline
 90
        4
 70
     1
 43
0.8
 10
48.38632554775918
 20
-345.5123973993815
 42
0.4142135623731
 10
47.98632554775918
 20
-345.1123973993815
 42
0.4142135623731
 10
47.58632554775918
 20
-345.5123973993815
 42
0.4142135623731
 10
47.98632554775918
 20
-345.9123973993815
 42
0.4142135623731
  0
LINE
  5
D9
330
1F
100
AcDbEntity
  8
4-4
  6
Continuous
 62
     7
370
     9
100
AcDbLine
 10
47.98632554775918
 20
-344.3123973993816
 30
0.0
 11
47.98632554775918
 21
-437.5123973993815
 31
0.0
  0
TEXT
  5
DA
330
1F
100
AcDbEntity
  8
4-4
  6
Continuous
 62
     2
370
   211
100
AcDbText
 10
-264.0136744522399
 20
-340.8563973993815
 30
0.0
 40
12.192
  1
598
 41
1.083333333333333
  7
ＭＳ ゴシック
100
AcDbText
  0
LINE
  5
DB
330
1F
100
AcDbEntity
  8
4-4
  6
Continuous
 62
     7
370
     9
100
AcDbLine
 10
-1145.513492112656
 20
-395.5123973993815
 30
0.0
 11
-556.5136617856774
 21
-395.5123973993815
 31
0.0
  0
LWPOLYLINE
  5
DC
330
1F
100
AcDbEntity
  8
4-4
  6
Continuous
 62
     7
370
     9
100
AcDbPolyline
 90
        4
 70
     1
 43
0.8
 10
-1145.113492112655
 20
-395.5123973993815
 42
0.4142135623731
 10
-1145.513492112656
 20
-395.1123973993815
 42
0.4142135623731
 10
-1145.913492112656
 20
-395.5123973993815
 42
0.4142135623731
 10
-1145.513492112656
 20
-395.9123973993815
 42
0.4142135623731
  0
LWPOLYLINE
  5
DD
330
1F
100
AcDbEntity
  8
4-4
  6
Continuous
 62
     7
370
     9
100
AcDbPolyline
 90
        4
 70
     1
 43
0.8
 10
-556.1136617856774
 20
-395.5123973993815
 42
0.4142135623731
 10
-556.5136617856774
 20
-395.1123973993815
 42
0.4142135623731
 10
-556.9136617856774
 20
-395.5123973993815
 42
0.4142135623731
 10
-556.5136617856774
 20
-395.9123973993815
 42
0.4142135623731
  0
LINE
  5
DE
330
1F
100
AcDbEntity
  8
4-4
  6
Continuous
 62
     7
370
     9
100
AcDbLine
 10
-1145.513492112656
 20
-394.3123973993816
 30
0.0
 11
-1145.513492112656
 21
-437.5120877461163
 31
0.0
  0
LINE
  5
DF
330
1F
100
AcDbEntity
  8
4-4
  6
Continuous
 62
     7
370
     9
100
AcDbLine
 10
-556.5136617856774
 20
-394.3123973993816
 30
0.0
 11
-556.5136617856774
 21
-437.5123973993815
 31
0.0
  0
TEXT
  5
E0
330
1F
100
AcDbEntity
  8
4-4
  6
Continuous
 62
     2
370
   211
100
AcDbText
 10
-864.0135769491667
 20
-390.8563973993815
 30
0.0
 40
12.192
  1
589
 41
1.083333333333333
  7
ＭＳ ゴシック
100
AcDbText
  0
LWPOLYLINE
  5
E1
330
1F
100
AcDbEntity
  8
4-4
  6
Continuous
 62
     7
370
     9
100
AcDbPolyline
 90
        4
 70
     1
 43
0.8
 10
254.5173833058329
 20
-445.5123973993815
 42
0.4142135623731
 10
254.1173833058328
 20
-445.1123973993815
 42
0.4142135623731
 10
253.7173833058328
 20
-445.5123973993815
 42
0.4142135623731
 10
254.1173833058328
 20
-445.9123973993815
 42
0.4142135623731
  0
LINE
  5
E2
330
1F
100
AcDbEntity
  8
4-4
  6
Continuous
 62
     7
370
     9
100
AcDbLine
 10
255.3173833058327
 20
-445.5123973993815
 30
0.0
 11
155.986325547759
 21
-445.5123973993815
 31
0.0
  0
LWPOLYLINE
  5
E3
330
1F
100
AcDbEntity
  8
4-4
  6
Continuous
 62
     7
370
     9
100
AcDbPolyline
 90
        4
 70
     1
 43
0.8
 10
205.1479070344641
 20
-445.5123973993815
 42
0.4142135623731
 10
204.7479070344641
 20
-445.1123973993815
 42
0.4142135623731
 10
204.3479070344641
 20
-445.5123973993815
 42
0.4142135623731
 10
204.7479070344641
 20
-445.9123973993815
 42
0.4142135623731
  0
LINE
  5
E4
330
1F
100
AcDbEntity
  8
4-0
  6
JWW_CENTER2
 62
     7
370
     9
100
AcDbLine
 10
862.0352595498891
 20
-438.4327450069362
 30
0.0
 11
862.0352595498891
 21
-506.6524915701274
 31
0.0
  0
LINE
  5
E5
330
1F
100
AcDbEntity
  8
4-2
  6
Continuous
 62
     3
370
     9
100
AcDbLine
 10
869.5352028743853
 20
-482.5125970008379
 30
0.0
 11
885.1236601425078
 21
-473.5125970008396
 31
0.0
  0
LINE
  5
E6
330
1F
100
AcDbEntity
  8
4-2
  6
Continuous
 62
     3
370
     9
100
AcDbLine
 10
854.5352028743853
 20
-482.5125970008379
 30
0.0
 11
869.5352028743853
 21
-482.5125970008379
 31
0.0
  0
LINE
  5
E7
330
1F
100
AcDbEntity
  8
4-2
  6
Continuous
 62
     3
370
     9
100
AcDbLine
 10
854.5352028743853
 20
-482.5125970008379
 30
0.0
 11
838.9467456062673
 21
-473.5125970008396
 31
0.0
  0
LINE
  5
E8
330
1F
100
AcDbEntity
  8
4-2
  6
Continuous
 62
     3
370
     9
100
AcDbLine
 10
838.9467456062673
 20
-473.5125970008396
 30
0.0
 11
838.4467456062655
 21
-474.3786224046219
 31
0.0
  0
LINE
  5
E9
330
1F
100
AcDbEntity
  8
4-2
  6
Continuous
 62
     3
370
     9
100
AcDbLine
 10
885.1236601425078
 20
-473.5125970008396
 30
0.0
 11
885.6236601425051
 21
-474.3786224046219
 31
0.0
  0
LINE
  5
EA
330
1F
100
AcDbEntity
  8
4-2
  6
Continuous
 62
     3
370
     9
100
AcDbLine
 10
869.8031520668171
 20
-483.5125970008397
 30
0.0
 11
885.6236601425051
 21
-474.3786224046219
 31
0.0
  0
LINE
  5
EB
330
1F
100
AcDbEntity
  8
4-2
  6
Continuous
 62
     3
370
     9
100
AcDbLine
 10
854.2672536819553
 20
-483.5125970008397
 30
0.0
 11
869.8031520668171
 21
-483.5125970008397
 31
0.0
  0
LINE
  5
EC
330
1F
100
AcDbEntity
  8
4-2
  6
Continuous
 62
     3
370
     9
100
AcDbLine
 10
854.2672536819553
 20
-483.5125970008397
 30
0.0
 11
838.4467456062655
 21
-474.3786224046219
 31
0.0
  0
LINE
  5
ED
330
1F
100
AcDbEntity
  8
4-4
  6
Continuous
 62
     7
370
     9
100
AcDbLine
 10
924.6041639918678
 20
-445.5123973993815
 30
0.0
 11
924.6041639918678
 21
-473.5125970008396
 31
0.0
  0
LWPOLYLINE
  5
EE
330
1F
100
AcDbEntity
  8
4-4
  6
Continuous
 62
     7
370
     9
100
AcDbPolyline
 90
        4
 70
     1
 43
0.8
 10
925.0041639918678
 20
-445.5123973993815
 42
0.4142135623731
 10
924.6041639918678
 20
-445.1123973993815
 42
0.4142135623731
 10
924.2041639918679
 20
-445.5123973993815
 42
0.4142135623731
 10
924.6041639918678
 20
-445.9123973993815
 42
0.4142135623731
  0
LWPOLYLINE
  5
EF
330
1F
100
AcDbEntity
  8
4-4
  6
Continuous
 62
     7
370
     9
100
AcDbPolyline
 90
        4
 70
     1
 43
0.8
 10
925.0041639918678
 20
-473.5125970008396
 42
0.4142135623731
 10
924.6041639918678
 20
-473.1125970008396
 42
0.4142135623731
 10
924.2041639918679
 20
-473.5125970008396
 42
0.4142135623731
 10
924.6041639918678
 20
-473.9125970008396
 42
0.4142135623731
  0
LINE
  5
F0
330
1F
100
AcDbEntity
  8
4-4
  6
Continuous
 62
     7
370
     9
100
AcDbLine
 10
925.8041639918677
 20
-473.5125970008396
 30
0.0
 11
893.1236601425078
 21
-473.5125970008396
 31
0.0
  0
TEXT
  5
F1
330
1F
100
AcDbEntity
  8
4-4
  6
Continuous
 62
     2
370
   211
100
AcDbText
 10
919.9481639918678
 20
-468.0124972001106
 30
0.0
 40
12.192
  1
28
 50
90.0
 41
1.0625
  7
ＭＳ ゴシック
100
AcDbText
  0
LINE
  5
F2
330
1F
100
AcDbEntity
  8
F-Fﾚｲﾔ
  6
Continuous
 62
     7
370
     9
100
AcDbLine
 10
321.4186533508366
 20
998.5314374533391
 30
0.0
 11
949.6774430588097
 21
998.5314374533391
 31
0.0
  0
LINE
  5
F3
330
1F
100
AcDbEntity
  8
F-Fﾚｲﾔ
  6
Continuous
 62
     7
370
     9
100
AcDbLine
 10
321.4186533508366
 20
994.5314374533391
 30
0.0
 11
949.6774430588097
 21
994.5314374533391
 31
0.0
  0
LINE
  5
F4
330
1F
100
AcDbEntity
  8
F-Fﾚｲﾔ
  6
Continuous
 62
     7
370
     9
100
AcDbLine
 10
321.4186533508366
 20
962.5314374533391
 30
0.0
 11
949.6774430588097
 21
962.5314374533391
 31
0.0
  0
LINE
  5
F5
330
1F
100
AcDbEntity
  8
F-Fﾚｲﾔ
  6
Continuous
 62
     7
370
     9
100
AcDbLine
 10
321.4186533508366
 20
802.5314374533389
 30
0.0
 11
949.6774430588097
 21
802.5314374533389
 31
0.0
  0
LINE
  5
F6
330
1F
100
AcDbEntity
  8
F-Fﾚｲﾔ
  6
Continuous
 62
     7
370
     9
100
AcDbLine
 10
321.4186533508366
 20
738.5314374533389
 30
0.0
 11
949.6774430588097
 21
738.5314374533389
 31
0.0
  0
TEXT
  5
F7
330
1F
100
AcDbEntity
  8
F-Fﾚｲﾔ
  6
Continuous
 62
     2
370
     9
100
AcDbText
 10
332.065543409298
 20
940.7874374533391
 30
0.0
 40
12.192
  1
蓋
  7
ＭＳ ゴシック
100
AcDbText
  0
TEXT
  5
F8
330
1F
100
AcDbEntity
  8
F-Fﾚｲﾔ
  6
Continuous
 62
     2
370
     9
100
AcDbText
 10
332.065543409298
 20
780.7874374533388
 30
0.0
 40
12.192
  1
受枠
 41
1.0625
  7
ＭＳ ゴシック
100
AcDbText
  0
TEXT
  5
F9
330
1F
100
AcDbEntity
  8
F-Fﾚｲﾔ
  6
Continuous
 62
     2
370
     9
100
AcDbText
 10
332.065543409298
 20
716.7874374533388
 30
0.0
 40
12.192
  1
品番
 41
1.0625
  7
ＭＳ ゴシック
100
AcDbText
  0
TEXT
  5
FA
330
1F
100
AcDbEntity
  8
F-5ﾚｲﾔ
  6
Continuous
 62
     2
370
     9
100
AcDbText
 10
490.1480658376729
 20
876.7874374533391
 30
0.0
 40
12.192
  1
目地すきま 6mm
 41
1.116071428571429
  7
ＭＳ ゴシック
100
AcDbText
  0
TEXT
  5
FB
330
1F
100
AcDbEntity
  8
F-Fﾚｲﾔ
  6
Continuous
 62
     2
370
     9
100
AcDbText
 10
490.1480658376729
 20
716.7874374533388
 30
0.0
 40
12.192
  1
カネソウ　カラー舗装用みぞ蓋
 41
1.116071428571429
  7
ＭＳ ゴシック
100
AcDbText
  0
LINE
  5
FC
330
1F
100
AcDbEntity
  8
F-Fﾚｲﾔ
  6
Continuous
 62
     7
370
     9
100
AcDbLine
 10
473.6141050800632
 20
930.5314374533391
 30
0.0
 11
949.6774430588097
 21
930.5314374533391
 31
0.0
  0
LINE
  5
FD
330
1F
100
AcDbEntity
  8
F-Fﾚｲﾔ
  6
Continuous
 62
     7
370
     9
100
AcDbLine
 10
473.6141050800632
 20
898.5314374533391
 30
0.0
 11
949.6774430588097
 21
898.5314374533391
 31
0.0
  0
LINE
  5
FE
330
1F
100
AcDbEntity
  8
F-Fﾚｲﾔ
  6
Continuous
 62
     7
370
     9
100
AcDbLine
 10
473.6141050800632
 20
866.5314374533391
 30
0.0
 11
949.6774430588097
 21
866.5314374533391
 31
0.0
  0
LINE
  5
FF
330
1F
100
AcDbEntity
  8
F-Fﾚｲﾔ
  6
Continuous
 62
     7
370
     9
100
AcDbLine
 10
473.6141050800632
 20
834.5314374533389
 30
0.0
 11
949.6774430588097
 21
834.5314374533389
 31
0.0
  0
LINE
  5
100
330
1F
100
AcDbEntity
  8
F-Fﾚｲﾔ
  6
Continuous
 62
     7
370
     9
100
AcDbLine
 10
473.6141050800632
 20
770.5314374533389
 30
0.0
 11
949.6774430588097
 21
770.5314374533389
 31
0.0
  0
TEXT
  5
101
330
1F
100
AcDbEntity
  8
F-Fﾚｲﾔ
  6
Continuous
 62
     2
370
     9
100
AcDbText
 10
332.065543409298
 20
972.7874374533391
 30
0.0
 40
12.192
  1
みぞ幅
 41
1.083333333333333
  7
ＭＳ ゴシック
100
AcDbText
  0
LINE
  5
102
330
1F
100
AcDbEntity
  8
F-Fﾚｲﾔ
  6
Continuous
 62
     7
370
     9
100
AcDbLine
 10
949.6774430588097
 20
1066.531437453339
 30
0.0
 11
949.6774430588097
 21
642.5314374533389
 31
0.0
  0
LINE
  5
103
330
1F
100
AcDbEntity
  8
F-Fﾚｲﾔ
  6
Continuous
 62
     7
370
     9
100
AcDbLine
 10
321.4186533508366
 20
642.5314374533389
 30
0.0
 11
949.6774430588097
 21
642.5314374533389
 31
0.0
  0
LINE
  5
104
330
1F
100
AcDbEntity
  8
F-Fﾚｲﾔ
  6
Continuous
 62
     7
370
     9
100
AcDbLine
 10
321.4186533508366
 20
1066.531437453339
 30
0.0
 11
321.4186533508366
 21
642.5314374533389
 31
0.0
  0
LINE
  5
105
330
1F
100
AcDbEntity
  8
F-Fﾚｲﾔ
  6
Continuous
 62
     7
370
     9
100
AcDbLine
 10
473.6141050800632
 20
1066.531437453339
 30
0.0
 11
473.6141050800632
 21
642.5314374533389
 31
0.0
  0
TEXT
  5
106
330
1F
100
AcDbEntity
  8
F-5ﾚｲﾔ
  6
Continuous
 62
     2
370
     9
100
AcDbText
 10
490.1480658376731
 20
908.7874374533391
 30
0.0
 40
12.192
  1
充填深さ 28mm
 41
1.115384615384615
  7
ＭＳ ゴシック
100
AcDbText
  0
TEXT
  5
107
330
1F
100
AcDbEntity
  8
F-5ﾚｲﾔ
  6
Continuous
 62
     2
370
     9
100
AcDbText
 10
490.1480658376729
 20
1012.787437453339
 30
0.0
 40
12.192
  1
側溝用　スチール製蓋　シングルスリットタイプ
 41
1.119318181818182
  7
ＭＳ ゴシック
100
AcDbText
  0
TEXT
  5
108
330
1F
100
AcDbEntity
  8
F-5ﾚｲﾔ
  6
Continuous
 62
     2
370
     9
100
AcDbText
 10
490.1480658376729
 20
1044.787437453339
 30
0.0
 40
12.192
  1
タイル用（充填深さ２８ｍｍ）
 41
1.116071428571429
  7
ＭＳ ゴシック
100
AcDbText
  0
LINE
  5
109
330
1F
100
AcDbEntity
  8
4-2
  6
JWW_CENTER1
 62
     3
370
     9
100
AcDbLine
 10
-1152.013576949165
 20
-445.5123973993815
 30
0.0
 11
-1250.013576949165
 21
-445.5123973993815
 31
0.0
  0
LINE
  5
10A
330
1F
100
AcDbEntity
  8
4-2
  6
JWW_CENTER1
 62
     3
370
     9
100
AcDbLine
 10
49.98642305083513
 20
-445.5123973993816
 30
0.0
 11
147.9864230508351
 21
-445.5123973993816
 31
0.0
  0
LINE
  5
10B
330
1F
100
AcDbEntity
  8
4-4
  6
Continuous
 62
     7
370
     9
100
AcDbLine
 10
47.98632554775918
 20
-345.5123973993815
 30
0.0
 11
49.98642305083513
 21
-345.5123973993815
 31
0.0
  0
LWPOLYLINE
  5
10C
330
1F
100
AcDbEntity
  8
4-4
  6
Continuous
 62
     7
370
     9
100
AcDbPolyline
 90
        4
 70
     1
 43
0.8
 10
50.38642305083513
 20
-345.5123973993815
 42
0.4142135623731
 10
49.98642305083513
 20
-345.1123973993815
 42
0.4142135623731
 10
49.58642305083513
 20
-345.5123973993815
 42
0.4142135623731
 10
49.98642305083513
 20
-345.9123973993815
 42
0.4142135623731
  0
LINE
  5
10D
330
1F
100
AcDbEntity
  8
4-4
  6
Continuous
 62
     7
370
     9
100
AcDbLine
 10
49.98642305083513
 20
-344.3123973993816
 30
0.0
 11
49.98642305083513
 21
-437.5123973993815
 31
0.0
  0
TEXT
  5
10E
330
1F
100
AcDbEntity
  8
4-4
  6
Continuous
 62
     2
370
   211
100
AcDbText
 10
44.98637429929704
 20
-340.8563973993815
 30
0.0
 40
12.192
  1
2
  7
ＭＳ ゴシック
100
AcDbText
  0
LINE
  5
10F
330
1F
100
AcDbEntity
  8
4-4
  6
Continuous
 62
     7
370
     9
100
AcDbLine
 10
49.98642305083513
 20
-345.5123973993815
 30
0.0
 11
147.986325547759
 21
-345.5123973993815
 31
0.0
  0
LINE
  5
110
330
1F
100
AcDbEntity
  8
4-1
  6
Continuous
 62
     2
370
     9
100
AcDbLine
 10
-1250.013576949165
 20
-445.5123973993815
 30
0.0
 11
147.986325547759
 21
-445.5123973993815
 31
0.0
  0
LINE
  5
111
330
1F
100
AcDbEntity
  8
4-2
  6
Continuous
 62
     3
370
     9
100
AcDbLine
 10
-1027.513556623752
 20
-473.5122873475757
 30
0.0
 11
-997.5135566237518
 21
-473.5122873475757
 31
0.0
  0
LINE
  5
112
330
1F
100
AcDbEntity
  8
4-2
  6
Continuous
 62
     3
370
     9
100
AcDbLine
 10
-1027.513556623752
 20
-474.2054627920661
 30
0.0
 11
-997.5135566237518
 21
-474.2054627920652
 31
0.0
  0
LINE
  5
113
330
1F
100
AcDbEntity
  8
4-2
  6
Continuous
 62
     3
370
     9
100
AcDbLine
 10
-997.5135566237518
 20
-483.5122873475746
 30
0.0
 11
-997.5135566237518
 21
-473.5122873475757
 31
0.0
  0
LINE
  5
114
330
1F
100
AcDbEntity
  8
4-2
  6
Continuous
 62
     3
370
     9
100
AcDbLine
 10
-1027.513556623752
 20
-473.5122873475757
 30
0.0
 11
-1027.513556623752
 21
-483.5122873475746
 31
0.0
  0
LINE
  5
115
330
1F
100
AcDbEntity
  8
4-2
  6
Continuous
 62
     3
370
     9
100
AcDbLine
 10
-997.5135566237518
 20
-483.5122873475746
 30
0.0
 11
-1027.513556623752
 21
-483.5122873475746
 31
0.0
  0
LINE
  5
116
330
1F
100
AcDbEntity
  8
4-2
  6
JWW_DASHED1
 62
     3
370
     9
100
AcDbLine
 10
-997.51355662375
 20
-482.7122873475753
 30
0.0
 11
-1027.513556623753
 21
-482.7122873475753
 31
0.0
  0
LINE
  5
117
330
1F
100
AcDbEntity
  8
4-2
  6
Continuous
 62
     3
370
     9
100
AcDbLine
 10
-704.5135566237518
 20
-473.5122873475757
 30
0.0
 11
-674.5135566237518
 21
-473.5122873475757
 31
0.0
  0
LINE
  5
118
330
1F
100
AcDbEntity
  8
4-2
  6
Continuous
 62
     3
370
     9
100
AcDbLine
 10
-704.5135566237518
 20
-474.2054627920661
 30
0.0
 11
-674.5135566237518
 21
-474.2054627920652
 31
0.0
  0
LINE
  5
119
330
1F
100
AcDbEntity
  8
4-2
  6
Continuous
 62
     3
370
     9
100
AcDbLine
 10
-674.5135566237518
 20
-483.5122873475746
 30
0.0
 11
-674.5135566237518
 21
-473.5122873475757
 31
0.0
  0
LINE
  5
11A
330
1F
100
AcDbEntity
  8
4-2
  6
Continuous
 62
     3
370
     9
100
AcDbLine
 10
-704.5135566237518
 20
-473.5122873475757
 30
0.0
 11
-704.5135566237518
 21
-483.5122873475746
 31
0.0
  0
LINE
  5
11B
330
1F
100
AcDbEntity
  8
4-2
  6
Continuous
 62
     3
370
     9
100
AcDbLine
 10
-674.5135566237518
 20
-483.5122873475746
 30
0.0
 11
-704.5135566237518
 21
-483.5122873475746
 31
0.0
  0
LINE
  5
11C
330
1F
100
AcDbEntity
  8
4-2
  6
JWW_DASHED1
 62
     3
370
     9
100
AcDbLine
 10
-674.5135566237495
 20
-482.7122873475753
 30
0.0
 11
-704.5135566237532
 21
-482.7122873475753
 31
0.0
  0
LINE
  5
11D
330
1F
100
AcDbEntity
  8
4-2
  6
Continuous
 62
     3
370
     9
100
AcDbLine
 10
-427.5136541268257
 20
-473.5122873475757
 30
0.0
 11
-397.5136541268257
 21
-473.5122873475757
 31
0.0
  0
LINE
  5
11E
330
1F
100
AcDbEntity
  8
4-2
  6
Continuous
 62
     3
370
     9
100
AcDbLine
 10
-427.5136541268257
 20
-474.2054627920661
 30
0.0
 11
-397.5136541268257
 21
-474.2054627920652
 31
0.0
  0
LINE
  5
11F
330
1F
100
AcDbEntity
  8
4-2
  6
Continuous
 62
     3
370
     9
100
AcDbLine
 10
-397.5136541268257
 20
-483.5122873475746
 30
0.0
 11
-397.5136541268257
 21
-473.5122873475757
 31
0.0
  0
LINE
  5
120
330
1F
100
AcDbEntity
  8
4-2
  6
Continuous
 62
     3
370
     9
100
AcDbLine
 10
-427.5136541268257
 20
-473.5122873475757
 30
0.0
 11
-427.5136541268257
 21
-483.5122873475746
 31
0.0
  0
LINE
  5
121
330
1F
100
AcDbEntity
  8
4-2
  6
Continuous
 62
     3
370
     9
100
AcDbLine
 10
-397.5136541268257
 20
-483.5122873475746
 30
0.0
 11
-427.5136541268257
 21
-483.5122873475746
 31
0.0
  0
LINE
  5
122
330
1F
100
AcDbEntity
  8
4-2
  6
JWW_DASHED1
 62
     3
370
     9
100
AcDbLine
 10
-397.5136541268243
 20
-482.7122873475753
 30
0.0
 11
-427.5136541268275
 21
-482.7122873475753
 31
0.0
  0
LINE
  5
123
330
1F
100
AcDbEntity
  8
4-2
  6
Continuous
 62
     3
370
     9
100
AcDbLine
 10
-104.5136541268262
 20
-473.5122873475757
 30
0.0
 11
-74.51365412682617
 21
-473.5122873475757
 31
0.0
  0
LINE
  5
124
330
1F
100
AcDbEntity
  8
4-2
  6
Continuous
 62
     3
370
     9
100
AcDbLine
 10
-104.5136541268262
 20
-474.2054627920661
 30
0.0
 11
-74.51365412682617
 21
-474.2054627920652
 31
0.0
  0
LINE
  5
125
330
1F
100
AcDbEntity
  8
4-2
  6
Continuous
 62
     3
370
     9
100
AcDbLine
 10
-74.51365412682617
 20
-483.5122873475746
 30
0.0
 11
-74.51365412682617
 21
-473.5122873475757
 31
0.0
  0
LINE
  5
126
330
1F
100
AcDbEntity
  8
4-2
  6
Continuous
 62
     3
370
     9
100
AcDbLine
 10
-104.5136541268262
 20
-473.5122873475757
 30
0.0
 11
-104.5136541268262
 21
-483.5122873475746
 31
0.0
  0
LINE
  5
127
330
1F
100
AcDbEntity
  8
4-2
  6
Continuous
 62
     3
370
     9
100
AcDbLine
 10
-74.51365412682617
 20
-483.5122873475746
 30
0.0
 11
-104.5136541268262
 21
-483.5122873475746
 31
0.0
  0
LINE
  5
128
330
1F
100
AcDbEntity
  8
4-2
  6
JWW_DASHED1
 62
     3
370
     9
100
AcDbLine
 10
-74.5136541268239
 20
-482.7122873475753
 30
0.0
 11
-104.5136541268278
 21
-482.7122873475753
 31
0.0
  0
LINE
  5
129
330
1F
100
AcDbEntity
  8
4-0
  6
Continuous
 62
     4
370
     9
100
AcDbLine
 10
-1289.779649065456
 20
221.0039304735847
 30
0.0
 11
-1289.779649065456
 21
223.0039304735847
 31
0.0
  0
LINE
  5
12A
330
1F
100
AcDbEntity
  8
4-0
  6
Continuous
 62
     4
370
     9
100
AcDbLine
 10
-1309.779649065456
 20
221.0039304735847
 30
0.0
 11
-1289.779649065456
 21
221.0039304735847
 31
0.0
  0
LINE
  5
12B
330
1F
100
AcDbEntity
  8
4-0
  6
Continuous
 62
     4
370
     9
100
AcDbLine
 10
-1289.779649065456
 20
223.0039304735847
 30
0.0
 11
-1309.779649065456
 21
223.0039304735847
 31
0.0
  0
LINE
  5
12C
330
1F
100
AcDbEntity
  8
4-0
  6
Continuous
 62
     4
370
     9
100
AcDbLine
 10
-1309.779649065456
 20
223.0039304735847
 30
0.0
 11
-1309.779649065456
 21
221.0039304735847
 31
0.0
  0
TEXT
  5
12D
330
1F
100
AcDbEntity
  8
4-0
  6
Continuous
 62
     2
370
     9
100
AcDbText
 10
-1307.935430603804
 20
181.1603899043181
 30
0.0
 40
12.19199999999983
  1
Ａ
 41
1.000000000000014
  7
ＭＳ ゴシック
100
AcDbText
  0
LINE
  5
12E
330
1F
100
AcDbEntity
  8
4-0
  6
Continuous
 62
     4
370
     9
100
AcDbLine
 10
-1300.013576949165
 20
195.6286300213758
 30
0.0
 11
-1300.013576949165
 21
222.0039304735849
 31
0.0
  0
LINE
  5
12F
330
1F
100
AcDbEntity
  8
4-0
  6
Continuous
 62
     4
370
     9
100
AcDbLine
 10
-1300.013576949165
 20
222.0039304735849
 30
0.0
 11
-1298.708315026965
 21
212.0894818598467
 31
0.0
  0
LINE
  5
130
330
1F
100
AcDbEntity
  8
4-0
  6
Continuous
 62
     4
370
     9
100
AcDbLine
 10
-1300.013576949165
 20
222.0039304735849
 30
0.0
 11
-1301.318838871365
 21
212.0894818598467
 31
0.0
  0
LINE
  5
131
330
1F
100
AcDbEntity
  8
4-0
  6
Continuous
 62
     4
370
     9
100
AcDbLine
 10
217.9863255477585
 20
221.0039304735847
 30
0.0
 11
217.9863255477585
 21
223.0039304735847
 31
0.0
  0
LINE
  5
132
330
1F
100
AcDbEntity
  8
4-0
  6
Continuous
 62
     4
370
     9
100
AcDbLine
 10
197.986325547759
 20
221.0039304735847
 30
0.0
 11
217.9863255477585
 21
221.0039304735847
 31
0.0
  0
LINE
  5
133
330
1F
100
AcDbEntity
  8
4-0
  6
Continuous
 62
     4
370
     9
100
AcDbLine
 10
217.9863255477585
 20
223.0039304735847
 30
0.0
 11
197.986325547759
 21
223.0039304735847
 31
0.0
  0
LINE
  5
134
330
1F
100
AcDbEntity
  8
4-0
  6
Continuous
 62
     4
370
     9
100
AcDbLine
 10
197.986325547759
 20
223.0039304735847
 30
0.0
 11
197.986325547759
 21
221.0039304735847
 31
0.0
  0
TEXT
  5
135
330
1F
100
AcDbEntity
  8
4-0
  6
Continuous
 62
     2
370
     9
100
AcDbText
 10
199.8305440094111
 20
181.1603899043181
 30
0.0
 40
12.19199999999983
  1
Ａ
 41
1.000000000000014
  7
ＭＳ ゴシック
100
AcDbText
  0
LINE
  5
136
330
1F
100
AcDbEntity
  8
4-0
  6
Continuous
 62
     4
370
     9
100
AcDbLine
 10
207.75239766405
 20
195.6286300213758
 30
0.0
 11
207.75239766405
 21
222.0039304735849
 31
0.0
  0
LINE
  5
137
330
1F
100
AcDbEntity
  8
4-0
  6
Continuous
 62
     4
370
     9
100
AcDbLine
 10
207.75239766405
 20
222.0039304735849
 30
0.0
 11
209.0576595862506
 21
212.0894818598467
 31
0.0
  0
LINE
  5
138
330
1F
100
AcDbEntity
  8
4-0
  6
Continuous
 62
     4
370
     9
100
AcDbLine
 10
207.75239766405
 20
222.0039304735849
 30
0.0
 11
206.4471357418495
 21
212.0894818598467
 31
0.0
  0
LINE
  5
139
330
1F
100
AcDbEntity
  8
4-9
  6
Continuous
 62
    30
370
     5
100
AcDbLine
 10
-1150.013576949165
 20
-486.7123028538033
 30
0.0
 11
-552.0135769491667
 21
-486.7123028538033
 31
0.0
  0
LINE
  5
13A
330
1F
100
AcDbEntity
  8
4-9
  6
Continuous
 62
    30
370
     5
100
AcDbLine
 10
-550.0136744522388
 20
-486.7123028538033
 30
0.0
 11
47.98632554775895
 21
-486.7123028538033
 31
0.0
  0
LINE
  5
13B
330
1F
100
AcDbEntity
  8
4-5
  6
Continuous
 62
     7
370
     9
100
AcDbLine
 10
862.035372900895
 20
-483.5125970008397
 30
0.0
 11
858.2085385772441
 21
-492.7513923259526
 31
0.0
  0
LINE
  5
13C
330
1F
100
AcDbEntity
  8
4-5
  6
Continuous
 62
     7
370
     9
100
AcDbLine
 10
862.035372900895
 20
-483.5125970008397
 30
0.0
 11
855.9477586108076
 21
-491.446130403752
 31
0.0
  0
TEXT
  5
13D
330
1F
100
AcDbEntity
  8
F-Fﾚｲﾔ
  6
Continuous
 62
     2
370
     9
100
AcDbText
 10
490.1480658376729
 20
652.7874374533388
 30
0.0
 40
12.192
  1
受枠：L-46H
 41
1.113636363636364
  7
ＭＳ ゴシック
100
AcDbText
  0
TEXT
  5
13E
330
1F
100
AcDbEntity
  8
F-5ﾚｲﾔ
  6
Continuous
 62
     2
370
     9
100
AcDbText
 10
1149.334220658527
 20
1008.787437453339
 30
0.0
 40
12.192
  1
歩行用：5.0kN(等分布荷重)
 41
1.12
  7
ＭＳ ゴシック
100
AcDbText
  0
TEXT
  5
13F
330
1F
100
AcDbEntity
  8
F-5ﾚｲﾔ
  6
Continuous
 62
     2
370
     9
100
AcDbText
 10
1149.334220658527
 20
976.7874374533386
 30
0.0
 40
12.192
  1
　　　　道路橋示方書　歩道等の群集荷重
 41
1.118421052631579
  7
ＭＳ ゴシック
100
AcDbText
  0
LINE
  5
140
330
1F
100
AcDbEntity
  8
F-5ﾚｲﾔ
  6
Continuous
 62
     7
370
     9
100
AcDbLine
 10
980.6048081716904
 20
934.5314374533386
 30
0.0
 11
1549.291485053692
 21
934.5314374533386
 31
0.0
  0
LINE
  5
141
330
1F
100
AcDbEntity
  8
F-5ﾚｲﾔ
  6
Continuous
 62
     7
370
     9
100
AcDbLine
 10
980.6048081716904
 20
966.5314374533386
 30
0.0
 11
1549.291485053692
 21
966.5314374533386
 31
0.0
  0
LINE
  5
142
330
1F
100
AcDbEntity
  8
F-5ﾚｲﾔ
  6
Continuous
 62
     7
370
     9
100
AcDbLine
 10
980.6048081716904
 20
902.5314374533386
 30
0.0
 11
1549.291485053692
 21
902.5314374533386
 31
0.0
  0
TEXT
  5
143
330
1F
100
AcDbEntity
  8
F-5ﾚｲﾔ
  6
Continuous
 62
     2
370
     9
100
AcDbText
 10
991.2516982301509
 20
944.7874374533386
 30
0.0
 40
12.192
  1
主な使用場所
 41
1.104166666666667
  7
ＭＳ ゴシック
100
AcDbText
  0
TEXT
  5
144
330
1F
100
AcDbEntity
  8
F-5ﾚｲﾔ
  6
Continuous
 62
     2
370
     9
100
AcDbText
 10
1149.334220658527
 20
944.7874374533386
 30
0.0
 40
12.192
  1
歩道、建物内、犬走り
 41
1.1125
  7
ＭＳ ゴシック
100
AcDbText
  0
TEXT
  5
145
330
1F
100
AcDbEntity
  8
F-5ﾚｲﾔ
  6
Continuous
 62
     2
370
     9
100
AcDbText
 10
991.2516982301509
 20
912.7874374533386
 30
0.0
 40
12.192
  1
荷重
 41
1.0625
  7
ＭＳ ゴシック
100
AcDbText
  0
TEXT
  5
146
330
1F
100
AcDbEntity
  8
F-5ﾚｲﾔ
  6
Continuous
 62
     2
370
     9
100
AcDbText
 10
1149.334220658527
 20
912.7874374533386
 30
0.0
 40
12.192
  1
5.0kN/㎡
 41
1.09375
  7
ＭＳ ゴシック
100
AcDbText
  0
LINE
  5
147
330
1F
100
AcDbEntity
  8
F-5ﾚｲﾔ
  6
Continuous
 62
     7
370
     9
100
AcDbLine
 10
980.6048081716904
 20
1066.531437453339
 30
0.0
 11
980.6048081716904
 21
902.5314374533386
 31
0.0
  0
LINE
  5
148
330
1F
100
AcDbEntity
  8
F-5ﾚｲﾔ
  6
Continuous
 62
     7
370
     9
100
AcDbLine
 10
1549.291485053692
 20
1066.531437453339
 30
0.0
 11
1549.291485053692
 21
902.5314374533386
 31
0.0
  0
LINE
  5
149
330
1F
100
AcDbEntity
  8
F-5ﾚｲﾔ
  6
Continuous
 62
     7
370
     9
100
AcDbLine
 10
1132.800259900917
 20
1034.531437453339
 30
0.0
 11
1132.800259900917
 21
902.5314374533386
 31
0.0
  0
LWPOLYLINE
  5
14A
330
1F
100
AcDbEntity
  8
4-4
  6
Continuous
 62
     7
370
     9
100
AcDbPolyline
 90
        4
 70
     1
 43
0.8
 10
254.5173833058329
 20
-497.212661523719
 42
0.4142135623731
 10
254.1173833058328
 20
-496.812661523719
 42
0.4142135623731
 10
253.7173833058328
 20
-497.212661523719
 42
0.4142135623731
 10
254.1173833058328
 20
-497.612661523719
 42
0.4142135623731
  0
LINE
  5
14B
330
1F
100
AcDbEntity
  8
4-4
  6
Continuous
 62
     7
370
     9
100
AcDbLine
 10
255.3173833058327
 20
-497.212661523719
 30
0.0
 11
155.986325547759
 21
-497.212661523719
 31
0.0
  0
LWPOLYLINE
  5
14C
330
1F
100
AcDbEntity
  8
4-4
  6
Continuous
 62
     7
370
     9
100
AcDbPolyline
 90
        4
 70
     1
 43
0.8
 10
205.1479070344641
 20
-491.2126883886143
 42
0.4142135623731
 10
204.7479070344641
 20
-490.8126883886143
 42
0.4142135623731
 10
204.3479070344641
 20
-491.2126883886143
 42
0.4142135623731
 10
204.7479070344641
 20
-491.6126883886143
 42
0.4142135623731
  0
LINE
  5
14D
330
1F
100
AcDbEntity
  8
4-4
  6
Continuous
 62
     7
370
     9
100
AcDbLine
 10
205.9479070344642
 20
-491.2126883886143
 30
0.0
 11
155.986325547759
 21
-491.2126883886143
 31
0.0
  0
LINE
  5
14E
330
1F
100
AcDbEntity
  8
4-2
  6
JWW_CENTER1
 62
     3
370
     9
100
AcDbLine
 10
-1152.013576949165
 20
-445.5123973993816
 30
0.0
 11
-1152.013576949165
 21
-491.2126883886143
 31
0.0
  0
LINE
  5
14F
330
1F
100
AcDbEntity
  8
4-2
  6
JWW_CENTER1
 62
     3
370
     9
100
AcDbLine
 10
-1152.013576949165
 20
-491.2126883886143
 30
0.0
 11
-1250.013576949165
 21
-491.2126883886143
 31
0.0
  0
LINE
  5
150
330
1F
100
AcDbEntity
  8
4-2
  6
JWW_CENTER1
 62
     3
370
     9
100
AcDbLine
 10
49.98642305083513
 20
-445.5123973993816
 30
0.0
 11
49.98642305083513
 21
-491.2126883886143
 31
0.0
  0
LINE
  5
151
330
1F
100
AcDbEntity
  8
4-2
  6
JWW_CENTER1
 62
     3
370
     9
100
AcDbLine
 10
49.98642305083513
 20
-491.2126883886143
 30
0.0
 11
147.9864230508351
 21
-491.2126883886143
 31
0.0
  0
LINE
  5
152
330
1F
100
AcDbEntity
  8
4-1
  6
Continuous
 62
     2
370
     9
100
AcDbLine
 10
-1250.013576949165
 20
-497.212661523719
 30
0.0
 11
147.986325547759
 21
-497.212661523719
 31
0.0
  0
LINE
  5
153
330
1F
100
AcDbEntity
  8
4-1
  6
Continuous
 62
     2
370
     9
100
AcDbLine
 10
-1250.013576949165
 20
-491.2126883886143
 30
0.0
 11
147.986325547759
 21
-491.2126883886143
 31
0.0
  0
LINE
  5
154
330
1F
100
AcDbEntity
  8
4-1
  6
Continuous
 62
     2
370
     9
100
AcDbLine
 10
-1151.013576949165
 20
-445.5123973993815
 30
0.0
 11
-1151.013576949165
 21
-497.212661523719
 31
0.0
  0
LINE
  5
155
330
1F
100
AcDbEntity
  8
4-9
  6
Continuous
 62
    30
370
     5
100
AcDbLine
 10
-552.0135769491667
 20
-491.2126883886143
 30
0.0
 11
-1150.013576949165
 21
-491.2126883886143
 31
0.0
  0
LINE
  5
156
330
1F
100
AcDbEntity
  8
4-9
  6
Continuous
 62
    30
370
     5
100
AcDbLine
 10
-1150.013576949165
 20
-486.7123028538033
 30
0.0
 11
-1150.013576949165
 21
-491.2126883886143
 31
0.0
  0
LINE
  5
157
330
1F
100
AcDbEntity
  8
4-9
  6
Continuous
 62
    30
370
     5
100
AcDbLine
 10
-552.0135769491667
 20
-491.2126883886143
 30
0.0
 11
-552.0135769491667
 21
-486.7123028538033
 31
0.0
  0
LINE
  5
158
330
1F
100
AcDbEntity
  8
4-9
  6
Continuous
 62
    30
370
     5
100
AcDbLine
 10
-550.0136744522388
 20
-486.7123028538033
 30
0.0
 11
-550.0136744522388
 21
-491.2126883886143
 31
0.0
  0
LINE
  5
159
330
1F
100
AcDbEntity
  8
4-9
  6
Continuous
 62
    30
370
     5
100
AcDbLine
 10
47.98632554775895
 20
-491.2126883886143
 30
0.0
 11
47.98632554775895
 21
-486.7123028538033
 31
0.0
  0
LINE
  5
15A
330
1F
100
AcDbEntity
  8
4-A
  6
Continuous
 62
     4
370
     9
100
AcDbLine
 10
-874.5135788565135
 20
-510.2125699709846
 30
0.0
 11
-874.5135788565135
 21
-497.212661523719
 31
0.0
  0
LINE
  5
15B
330
1F
100
AcDbEntity
  8
4-A
  6
Continuous
 62
     4
370
     9
100
AcDbLine
 10
-888.513643706367
 20
-510.2125699709846
 30
0.0
 11
-874.5135788565135
 21
-510.2125699709846
 31
0.0
  0
LINE
  5
15C
330
1F
100
AcDbEntity
  8
4-A
  6
Continuous
 62
     4
370
     9
100
AcDbLine
 10
-888.513643706367
 20
-497.212661523719
 30
0.0
 11
-874.5135788565135
 21
-497.212661523719
 31
0.0
  0
LINE
  5
15D
330
1F
100
AcDbEntity
  8
4-A
  6
Continuous
 62
     4
370
     9
100
AcDbLine
 10
-894.513571227119
 20
-540.2126157473518
 30
0.0
 11
-894.513571227119
 21
-516.2126996706917
 31
0.0
  0
LINE
  5
15E
330
1F
100
AcDbEntity
  8
4-A
  6
Continuous
 62
     4
370
     9
100
AcDbLine
 10
-907.513679945991
 20
-540.2126157473518
 30
0.0
 11
-907.513679945991
 21
-516.2126996706917
 31
0.0
  0
LINE
  5
15F
330
1F
100
AcDbEntity
  8
4-A
  6
Continuous
 62
     4
370
     9
100
AcDbLine
 10
-907.513679945991
 20
-540.2126157473518
 30
0.0
 11
-894.513571227119
 21
-540.2126157473518
 31
0.0
  0
LINE
  5
160
330
1F
100
AcDbEntity
  8
4-A
  6
JWW_CENTER1
 62
     4
370
     9
100
AcDbLine
 10
-888.513643706367
 20
-503.7126157473518
 30
0.0
 11
-874.5135788565135
 21
-503.7126157473518
 31
0.0
  0
LINE
  5
161
330
1F
100
AcDbEntity
  8
4-A
  6
JWW_CENTER1
 62
     4
370
     9
100
AcDbLine
 10
-901.0135769491649
 20
-540.2126157473518
 30
0.0
 11
-901.0135769491649
 21
-516.2126996706917
 31
0.0
  0
ARC
  5
162
330
1F
100
AcDbEntity
  8
4-A
  6
Continuous
 62
     4
370
     9
100
AcDbCircle
 10
-888.513643706367
 20
-516.2126996706917
 30
0.0
 40
5.999999999999996
100
AcDbArc
 50
90.00000000000001
 51
180.0
  0
ARC
  5
163
330
1F
100
AcDbEntity
  8
4-A
  6
Continuous
 62
     4
370
     9
100
AcDbCircle
 10
-888.513643706367
 20
-516.2126996706917
 30
0.0
 40
19.0
100
AcDbArc
 50
90.00000000000001
 51
180.0
  0
ARC
  5
164
330
1F
100
AcDbEntity
  8
4-A
  6
JWW_CENTER1
 62
     4
370
     9
100
AcDbCircle
 10
-888.513643706367
 20
-516.2126996706917
 30
0.0
 40
12.49999999999999
100
AcDbArc
 50
90.00000000000001
 51
180.0
  0
LINE
  5
165
330
1F
100
AcDbEntity
  8
4-A
  6
Continuous
 62
     4
370
     9
100
AcDbLine
 10
-374.513461263683
 20
-510.2125699709846
 30
0.0
 11
-374.513461263683
 21
-497.212661523719
 31
0.0
  0
LINE
  5
166
330
1F
100
AcDbEntity
  8
4-A
  6
Continuous
 62
     4
370
     9
100
AcDbLine
 10
-388.5135261135365
 20
-510.2125699709846
 30
0.0
 11
-374.513461263683
 21
-510.2125699709846
 31
0.0
  0
LINE
  5
167
330
1F
100
AcDbEntity
  8
4-A
  6
Continuous
 62
     4
370
     9
100
AcDbLine
 10
-388.5135261135365
 20
-497.212661523719
 30
0.0
 11
-374.513461263683
 21
-497.212661523719
 31
0.0
  0
LINE
  5
168
330
1F
100
AcDbEntity
  8
4-A
  6
Continuous
 62
     4
370
     9
100
AcDbLine
 10
-394.5134536342885
 20
-540.2126157473518
 30
0.0
 11
-394.5134536342885
 21
-516.2126996706917
 31
0.0
  0
LINE
  5
169
330
1F
100
AcDbEntity
  8
4-A
  6
Continuous
 62
     4
370
     9
100
AcDbLine
 10
-407.5135623531605
 20
-540.2126157473518
 30
0.0
 11
-407.5135623531605
 21
-516.2126996706917
 31
0.0
  0
LINE
  5
16A
330
1F
100
AcDbEntity
  8
4-A
  6
Continuous
 62
     4
370
     9
100
AcDbLine
 10
-407.5135623531605
 20
-540.2126157473518
 30
0.0
 11
-394.5134536342885
 21
-540.2126157473518
 31
0.0
  0
LINE
  5
16B
330
1F
100
AcDbEntity
  8
4-A
  6
JWW_CENTER1
 62
     4
370
     9
100
AcDbLine
 10
-388.5135261135365
 20
-503.7126157473518
 30
0.0
 11
-374.513461263683
 21
-503.7126157473518
 31
0.0
  0
LINE
  5
16C
330
1F
100
AcDbEntity
  8
4-A
  6
JWW_CENTER1
 62
     4
370
     9
100
AcDbLine
 10
-401.0134593563344
 20
-540.2126157473518
 30
0.0
 11
-401.0134593563344
 21
-516.2126996706917
 31
0.0
  0
ARC
  5
16D
330
1F
100
AcDbEntity
  8
4-A
  6
Continuous
 62
     4
370
     9
100
AcDbCircle
 10
-388.5135261135365
 20
-516.2126996706917
 30
0.0
 40
5.999999999999996
100
AcDbArc
 50
90.00000000000001
 51
180.0
  0
ARC
  5
16E
330
1F
100
AcDbEntity
  8
4-A
  6
Continuous
 62
     4
370
     9
100
AcDbCircle
 10
-388.5135261135365
 20
-516.2126996706917
 30
0.0
 40
19.0
100
AcDbArc
 50
90.00000000000001
 51
180.0
  0
ARC
  5
16F
330
1F
100
AcDbEntity
  8
4-A
  6
JWW_CENTER1
 62
     4
370
     9
100
AcDbCircle
 10
-388.5135261135365
 20
-516.2126996706917
 30
0.0
 40
12.49999999999999
100
AcDbArc
 50
90.00000000000001
 51
180.0
  0
LINE
  5
170
330
1F
100
AcDbEntity
  8
4-A
  6
Continuous
 62
     4
370
     9
100
AcDbLine
 10
125.4864220861145
 20
-510.2125699709846
 30
0.0
 11
125.4864220861145
 21
-497.212661523719
 31
0.0
  0
LINE
  5
171
330
1F
100
AcDbEntity
  8
4-A
  6
Continuous
 62
     4
370
     9
100
AcDbLine
 10
111.486357236261
 20
-510.2125699709846
 30
0.0
 11
125.4864220861145
 21
-510.2125699709846
 31
0.0
  0
LINE
  5
172
330
1F
100
AcDbEntity
  8
4-A
  6
Continuous
 62
     4
370
     9
100
AcDbLine
 10
111.486357236261
 20
-497.212661523719
 30
0.0
 11
125.4864220861145
 21
-497.212661523719
 31
0.0
  0
LINE
  5
173
330
1F
100
AcDbEntity
  8
4-A
  6
Continuous
 62
     4
370
     9
100
AcDbLine
 10
105.4864297155091
 20
-540.2126157473518
 30
0.0
 11
105.4864297155091
 21
-516.2126996706917
 31
0.0
  0
LINE
  5
174
330
1F
100
AcDbEntity
  8
4-A
  6
Continuous
 62
     4
370
     9
100
AcDbLine
 10
92.486320996637
 20
-540.2126157473518
 30
0.0
 11
92.486320996637
 21
-516.2126996706917
 31
0.0
  0
LINE
  5
175
330
1F
100
AcDbEntity
  8
4-A
  6
Continuous
 62
     4
370
     9
100
AcDbLine
 10
92.486320996637
 20
-540.2126157473518
 30
0.0
 11
105.4864297155091
 21
-540.2126157473518
 31
0.0
  0
LINE
  5
176
330
1F
100
AcDbEntity
  8
4-A
  6
JWW_CENTER1
 62
     4
370
     9
100
AcDbLine
 10
111.486357236261
 20
-503.7126157473518
 30
0.0
 11
125.4864220861145
 21
-503.7126157473518
 31
0.0
  0
LINE
  5
177
330
1F
100
AcDbEntity
  8
4-A
  6
JWW_CENTER1
 62
     4
370
     9
100
AcDbLine
 10
98.98642399346318
 20
-540.2126157473518
 30
0.0
 11
98.98642399346318
 21
-516.2126996706917
 31
0.0
  0
ARC
  5
178
330
1F
100
AcDbEntity
  8
4-A
  6
Continuous
 62
     4
370
     9
100
AcDbCircle
 10
111.486357236261
 20
-516.2126996706917
 30
0.0
 40
5.999999999999996
100
AcDbArc
 50
90.00000000000001
 51
180.0
  0
ARC
  5
179
330
1F
100
AcDbEntity
  8
4-A
  6
Continuous
 62
     4
370
     9
100
AcDbCircle
 10
111.486357236261
 20
-516.2126996706917
 30
0.0
 40
19.0
100
AcDbArc
 50
90.00000000000001
 51
180.0
  0
ARC
  5
17A
330
1F
100
AcDbEntity
  8
4-A
  6
JWW_CENTER1
 62
     4
370
     9
100
AcDbCircle
 10
111.486357236261
 20
-516.2126996706917
 30
0.0
 40
12.49999999999999
100
AcDbArc
 50
90.00000000000001
 51
180.0
  0
TEXT
  5
17B
330
1F
100
AcDbEntity
  8
4-5
  6
Continuous
 62
     2
370
     9
100
AcDbText
 10
-633.6261860622858
 20
-604.3889030107842
 30
0.0
 40
12.192
  1
Ａ－Ａ断面図　Ｓ＝１：４
 41
1.114583333333333
  7
ＭＳ ゴシック
100
AcDbText
  0
LINE
  5
17C
330
1F
100
AcDbEntity
  8
4-5
  6
Continuous
 62
     7
370
     9
100
AcDbLine
 10
-640.8261860622856
 20
-584.6449030107842
 30
0.0
 11
-412.4261860622855
 21
-584.6449030107842
 31
0.0
  0
LINE
  5
17D
330
1F
100
AcDbEntity
  8
4-5
  6
Continuous
 62
     7
370
     9
100
AcDbLine
 10
-640.8261860622856
 20
-612.6449030107842
 30
0.0
 11
-412.4261860622855
 21
-612.6449030107842
 31
0.0
  0
LINE
  5
17E
330
1F
100
AcDbEntity
  8
4-5
  6
Continuous
 62
     7
370
     9
100
AcDbLine
 10
-640.8261860622856
 20
-584.6449030107842
 30
0.0
 11
-640.8261860622856
 21
-612.6449030107842
 31
0.0
  0
LINE
  5
17F
330
1F
100
AcDbEntity
  8
4-5
  6
Continuous
 62
     7
370
     9
100
AcDbLine
 10
-412.4261860622855
 20
-584.6449030107842
 30
0.0
 11
-412.4261860622855
 21
-612.6449030107842
 31
0.0
  0
LINE
  5
180
330
1F
100
AcDbEntity
  8
4-9
  6
Continuous
 62
    30
370
     5
100
AcDbLine
 10
47.98632554775895
 20
-491.2126883886143
 30
0.0
 11
-550.0136744522388
 21
-491.2126883886143
 31
0.0
  0
LINE
  5
181
330
1F
100
AcDbEntity
  8
4-9
  6
Continuous
 62
    30
370
     5
100
AcDbLine
 10
28.98610732939915
 20
-491.2126883886143
 30
0.0
 11
28.98610732939915
 21
-486.7123028538033
 31
0.0
  0
LINE
  5
182
330
1F
100
AcDbEntity
  8
4-9
  6
Continuous
 62
    30
370
     5
100
AcDbLine
 10
-144.7636358634105
 20
-486.7123028538033
 30
0.0
 11
-144.7636358634105
 21
-491.2126883886143
 31
0.0
  0
LINE
  5
183
330
1F
100
AcDbEntity
  8
4-9
  6
Continuous
 62
    30
370
     5
100
AcDbLine
 10
-163.7636358634105
 20
-486.7123028538033
 30
0.0
 11
-163.7636358634105
 21
-491.2126883886143
 31
0.0
  0
LINE
  5
184
330
1F
100
AcDbEntity
  8
4-9
  6
Continuous
 62
    30
370
     5
100
AcDbLine
 10
-531.013456233885
 20
-486.7123028538033
 30
0.0
 11
-531.013456233885
 21
-491.2126883886143
 31
0.0
  0
LINE
  5
185
330
1F
100
AcDbEntity
  8
4-9
  6
Continuous
 62
    30
370
     5
100
AcDbLine
 10
-357.2637130410754
 20
-486.7123028538033
 30
0.0
 11
-357.2637130410754
 21
-491.2126883886143
 31
0.0
  0
LINE
  5
186
330
1F
100
AcDbEntity
  8
4-9
  6
Continuous
 62
    30
370
     5
100
AcDbLine
 10
-338.2637130410754
 20
-486.7123028538033
 30
0.0
 11
-338.2637130410754
 21
-491.2126883886143
 31
0.0
  0
LINE
  5
187
330
1F
100
AcDbEntity
  8
4-9
  6
Continuous
 62
    30
370
     5
100
AcDbLine
 10
-571.0137951675265
 20
-491.2126883886143
 30
0.0
 11
-571.0137951675265
 21
-486.7123028538033
 31
0.0
  0
LINE
  5
188
330
1F
100
AcDbEntity
  8
4-9
  6
Continuous
 62
    30
370
     5
100
AcDbLine
 10
-744.7635383603362
 20
-486.7123028538033
 30
0.0
 11
-744.7635383603362
 21
-491.2126883886143
 31
0.0
  0
LINE
  5
189
330
1F
100
AcDbEntity
  8
4-9
  6
Continuous
 62
    30
370
     5
100
AcDbLine
 10
-763.7635383603362
 20
-486.7123028538033
 30
0.0
 11
-763.7635383603362
 21
-491.2126883886143
 31
0.0
  0
LINE
  5
18A
330
1F
100
AcDbEntity
  8
4-9
  6
Continuous
 62
    30
370
     5
100
AcDbLine
 10
-1131.013358730811
 20
-486.7123028538033
 30
0.0
 11
-1131.013358730811
 21
-491.2126883886143
 31
0.0
  0
LINE
  5
18B
330
1F
100
AcDbEntity
  8
4-9
  6
Continuous
 62
    30
370
     5
100
AcDbLine
 10
-957.2636155380011
 20
-486.7123028538033
 30
0.0
 11
-957.2636155380011
 21
-491.2126883886143
 31
0.0
  0
LINE
  5
18C
330
1F
100
AcDbEntity
  8
4-9
  6
Continuous
 62
    30
370
     5
100
AcDbLine
 10
-938.2636155380011
 20
-486.7123028538033
 30
0.0
 11
-938.2636155380011
 21
-491.2126883886143
 31
0.0
  0
LINE
  5
18D
330
1F
100
AcDbEntity
  8
4-4
  6
Continuous
 62
     7
370
     9
100
AcDbLine
 10
204.7479070344641
 20
-445.5123973993815
 30
0.0
 11
204.7479070344641
 21
-491.2126883886143
 31
0.0
  0
TEXT
  5
18E
330
1F
100
AcDbEntity
  8
4-4
  6
Continuous
 62
     2
370
   211
100
AcDbText
 10
200.0919070344642
 20
-485.8625428939979
 30
0.0
 40
12.192
  1
45.7
 50
90.0
 41
1.09375
  7
ＭＳ ゴシック
100
AcDbText
  0
LINE
  5
18F
330
1F
100
AcDbEntity
  8
4-4
  6
Continuous
 62
     7
370
     9
100
AcDbLine
 10
254.1173833058328
 20
-445.5123973993815
 30
0.0
 11
254.1173833058328
 21
-497.212661523719
 31
0.0
  0
TEXT
  5
190
330
1F
100
AcDbEntity
  8
4-4
  6
Continuous
 62
     2
370
   211
100
AcDbText
 10
249.4613833058328
 20
-488.8625294615503
 30
0.0
 40
12.192
  1
51.7
 50
90.0
 41
1.09375
  7
ＭＳ ゴシック
100
AcDbText
  0
LINE
  5
191
330
1F
100
AcDbEntity
  8
4-5
  6
Continuous
 62
     7
370
     9
100
AcDbLine
 10
790.1455170619607
 20
-608.0294798626758
 30
0.0
 11
862.035372900895
 21
-483.5125970008397
 31
0.0
  0
LINE
  5
192
330
1F
100
AcDbEntity
  8
4-5
  6
Continuous
 62
     7
370
     9
100
AcDbLine
 10
684.1455170619607
 20
-608.0294798626758
 30
0.0
 11
790.1455170619607
 21
-608.0294798626758
 31
0.0
  0
TEXT
  5
193
330
1F
100
AcDbEntity
  8
4-5
  6
Continuous
 62
     2
370
     9
100
AcDbText
 10
684.1455170619607
 20
-625.6076510054523
 30
0.0
 40
12.192
  1
ＳＵＳ４３０
 41
1.104166666666667
  7
ＭＳ ゴシック
100
AcDbText
  0
TEXT
  5
194
330
1F
100
AcDbEntity
  8
4-5
  6
Continuous
 62
     2
370
     9
100
AcDbText
 10
684.1455170619607
 20
-601.9393087198993
 30
0.0
 40
12.192
  1
モルタル止め
 41
1.104166666666667
  7
ＭＳ ゴシック
100
AcDbText
  0
LINE
  5
195
330
1F
100
AcDbEntity
  8
D-A
  6
Continuous
 62
     4
370
     9
100
AcDbLine
 10
857.5212554049319
 20
190.8761751430884
 30
0.0
 11
857.5212554049319
 21
117.8761751430879
 31
0.0
  0
LINE
  5
196
330
1F
100
AcDbEntity
  8
D-A
  6
Continuous
 62
     4
370
     9
100
AcDbLine
 10
857.5212554049319
 20
117.8761751430879
 30
0.0
 11
831.5212248873538
 21
117.8761751430879
 31
0.0
  0
LINE
  5
197
330
1F
100
AcDbEntity
  8
D-A
  6
Continuous
 62
     4
370
     9
100
AcDbLine
 10
831.5212248873538
 20
190.8761751430884
 30
0.0
 11
831.5212248873538
 21
117.8761751430879
 31
0.0
  0
CIRCLE
  5
198
330
1F
100
AcDbEntity
  8
D-A
  6
Continuous
 62
     4
370
     9
100
AcDbCircle
 10
844.521148593408
 20
190.8761751430884
 30
0.0
 40
12.99999809265137
  0
LINE
  5
199
330
1F
100
AcDbEntity
  8
D-A
  6
JWW_CENTER1
 62
     4
370
     9
100
AcDbLine
 10
844.521148593408
 20
117.8761751430879
 30
0.0
 11
844.521148593408
 21
209.217636324729
 31
0.0
  0
LINE
  5
19A
330
1F
100
AcDbEntity
  8
D-A
  6
JWW_CENTER1
 62
     4
370
     9
100
AcDbLine
 10
867.1747740816893
 20
190.8761751430884
 30
0.0
 11
821.2071532320799
 21
190.8761751430884
 31
0.0
  0
LWPOLYLINE
  5
19B
330
1F
100
AcDbEntity
  8
D-4
  6
Continuous
 62
     7
370
     9
100
AcDbPolyline
 90
        4
 70
     1
 43
0.8
 10
738.5737144388287
 20
203.8761196495529
 42
0.4142135623731
 10
738.1737144388287
 20
204.276119649553
 42
0.4142135623731
 10
737.7737144388287
 20
203.8761196495529
 42
0.4142135623731
 10
738.1737144388287
 20
203.4761196495529
 42
0.4142135623731
  0
LINE
  5
19C
330
1F
100
AcDbEntity
  8
D-4
  6
Continuous
 62
     7
370
     9
100
AcDbLine
 10
736.9737144388287
 20
203.8761196495529
 30
0.0
 11
788.5212235323258
 21
203.8761196495529
 31
0.0
  0
LINE
  5
19D
330
1F
100
AcDbEntity
  8
D-4
  6
Continuous
 62
     7
370
     9
100
AcDbLine
 10
738.1737144388287
 20
203.8761196495529
 30
0.0
 11
738.1737144388287
 21
117.8761751430879
 31
0.0
  0
LWPOLYLINE
  5
19E
330
1F
100
AcDbEntity
  8
D-4
  6
Continuous
 62
     7
370
     9
100
AcDbPolyline
 90
        4
 70
     1
 43
0.8
 10
738.5737144388287
 20
117.8761751430879
 42
0.4142135623731
 10
738.1737144388287
 20
118.2761751430879
 42
0.4142135623731
 10
737.7737144388287
 20
117.8761751430879
 42
0.4142135623731
 10
738.1737144388287
 20
117.4761751430879
 42
0.4142135623731
  0
LINE
  5
19F
330
1F
100
AcDbEntity
  8
D-4
  6
Continuous
 62
     7
370
     9
100
AcDbLine
 10
736.9737144388287
 20
117.8761751430879
 30
0.0
 11
823.5212248873538
 21
117.8761751430879
 31
0.0
  0
TEXT
  5
1A0
330
1F
100
AcDbEntity
  8
D-4
  6
Continuous
 62
     2
370
   211
100
AcDbText
 10
733.5177144388288
 20
152.3761473963204
 30
0.0
 40
12.192
  1
43
 50
90.0
 41
1.0625
  7
ＭＳ ゴシック
100
AcDbText
  0
LINE
  5
1A1
330
1F
100
AcDbEntity
  8
D-4
  6
Continuous
 62
     7
370
     9
100
AcDbLine
 10
784.5209973016308
 20
71.48325065556627
 30
0.0
 11
844.521148593408
 21
71.48325065556627
 31
0.0
  0
LWPOLYLINE
  5
1A2
330
1F
100
AcDbEntity
  8
D-4
  6
Continuous
 62
     7
370
     9
100
AcDbPolyline
 90
        4
 70
     1
 43
0.8
 10
784.9209973016308
 20
71.48325065556627
 42
0.4142135623731
 10
784.5209973016308
 20
71.88325065556627
 42
0.4142135623731
 10
784.1209973016308
 20
71.48325065556627
 42
0.4142135623731
 10
784.5209973016308
 20
71.08325065556626
 42
0.4142135623731
  0
LWPOLYLINE
  5
1A3
330
1F
100
AcDbEntity
  8
D-4
  6
Continuous
 62
     7
370
     9
100
AcDbPolyline
 90
        4
 70
     1
 43
0.8
 10
844.921148593408
 20
71.48325065556627
 42
0.4142135623731
 10
844.521148593408
 20
71.88325065556627
 42
0.4142135623731
 10
844.1211485934081
 20
71.48325065556627
 42
0.4142135623731
 10
844.521148593408
 20
71.08325065556626
 42
0.4142135623731
  0
LINE
  5
1A4
330
1F
100
AcDbEntity
  8
D-4
  6
Continuous
 62
     7
370
     9
100
AcDbLine
 10
784.5209973016308
 20
70.28325065556622
 30
0.0
 11
784.5209973016308
 21
207.8761195059496
 31
0.0
  0
LINE
  5
1A5
330
1F
100
AcDbEntity
  8
D-4
  6
Continuous
 62
     7
370
     9
100
AcDbLine
 10
844.521148593408
 20
70.28325065556622
 30
0.0
 11
844.521148593408
 21
109.8761751430879
 31
0.0
  0
TEXT
  5
1A6
330
1F
100
AcDbEntity
  8
D-4
  6
Continuous
 62
     2
370
   211
100
AcDbText
 10
806.0210729475194
 20
76.13925065556636
 30
0.0
 40
12.192
  1
30
 41
1.0625
  7
ＭＳ ゴシック
100
AcDbText
  0
TEXT
  5
1A7
330
1F
100
AcDbEntity
  8
D-5
  6
Continuous
 62
     2
370
     9
100
AcDbText
 10
749.295774197808
 20
7.586469107316034
 30
0.0
 40
12.192
  1
把手部断面詳細図　Ｓ＝１：２
 41
1.116071428571429
  7
ＭＳ ゴシック
100
AcDbText
  0
LINE
  5
1A8
330
1F
100
AcDbEntity
  8
D-5
  6
Continuous
 62
     7
370
     9
100
AcDbLine
 10
742.0957741978079
 20
27.33046910731603
 30
0.0
 11
1006.495774197808
 21
27.33046910731603
 31
0.0
  0
LINE
  5
1A9
330
1F
100
AcDbEntity
  8
D-5
  6
Continuous
 62
     7
370
     9
100
AcDbLine
 10
742.0957741978079
 20
-0.6695308926839658
 30
0.0
 11
1006.495774197808
 21
-0.6695308926839658
 31
0.0
  0
LINE
  5
1AA
330
1F
100
AcDbEntity
  8
D-5
  6
Continuous
 62
     7
370
     9
100
AcDbLine
 10
742.0957741978079
 20
27.33046910731603
 30
0.0
 11
742.0957741978079
 21
-0.6695308926839658
 31
0.0
  0
LINE
  5
1AB
330
1F
100
AcDbEntity
  8
D-5
  6
Continuous
 62
     7
370
     9
100
AcDbLine
 10
1006.495774197808
 20
27.33046910731603
 30
0.0
 11
1006.495774197808
 21
-0.6695308926839658
 31
0.0
  0
LINE
  5
1AC
330
1F
100
AcDbEntity
  8
D-9
  6
Continuous
 62
    30
370
     5
100
AcDbLine
 10
812.5212738450891
 20
215.8761195059496
 30
0.0
 11
1008.082442593133
 21
215.8761195059496
 31
0.0
  0
LINE
  5
1AD
330
1F
100
AcDbEntity
  8
D-1
  6
Continuous
 62
     2
370
     9
100
AcDbLine
 10
904.5212998851855
 20
203.8761732357398
 30
0.0
 11
904.5212998851855
 21
215.8761195059496
 31
0.0
  0
LINE
  5
1AE
330
1F
100
AcDbEntity
  8
D-1
  6
Continuous
 62
     2
370
     9
100
AcDbLine
 10
796.5212235323258
 20
203.8761732357398
 30
0.0
 11
904.5212998851855
 21
203.8761732357398
 31
0.0
  0
LINE
  5
1AF
330
1F
100
AcDbEntity
  8
D-1
  6
Continuous
 62
     2
370
     9
100
AcDbLine
 10
802.5213366476733
 20
215.8761195059496
 30
0.0
 11
904.5212998851855
 21
215.8761195059496
 31
0.0
  0
ARC
  5
1B0
330
1F
100
AcDbEntity
  8
D-1
  6
Continuous
 62
     2
370
     9
100
AcDbCircle
 10
796.5212235323258
 20
215.8761195059496
 30
0.0
 40
11.99999985639653
100
AcDbArc
 50
180.0
 51
270.0
  0
ARC
  5
1B1
330
1F
100
AcDbEntity
  8
D-1
  6
Continuous
 62
     2
370
     9
100
AcDbCircle
 10
802.5213366476733
 20
221.8762326212973
 30
0.0
 40
5.999999928198267
100
AcDbArc
 50
180.0
 51
270.0
  0
LINE
  5
1B2
330
1F
100
AcDbEntity
  8
D-4
  6
Continuous
 62
     7
370
     9
100
AcDbLine
 10
884.3994080236537
 20
231.2756829749687
 30
0.0
 11
884.3994080236537
 21
307.2760821778847
 31
0.0
  0
LWPOLYLINE
  5
1B3
330
1F
100
AcDbEntity
  8
D-4
  6
Continuous
 62
     7
370
     9
100
AcDbPolyline
 90
        4
 70
     1
 43
0.8
 10
884.7994080236537
 20
231.2756829749687
 42
0.4142135623731
 10
884.3994080236537
 20
231.6756829749687
 42
0.4142135623731
 10
883.9994080236537
 20
231.2756829749687
 42
0.4142135623731
 10
884.3994080236537
 20
230.8756829749687
 42
0.4142135623731
  0
LWPOLYLINE
  5
1B4
330
1F
100
AcDbEntity
  8
D-4
  6
Continuous
 62
     7
370
     9
100
AcDbPolyline
 90
        4
 70
     1
 43
0.8
 10
884.7994080236537
 20
307.2760821778847
 42
0.4142135623731
 10
884.3994080236537
 20
307.6760821778847
 42
0.4142135623731
 10
883.9994080236537
 20
307.2760821778847
 42
0.4142135623731
 10
884.3994080236537
 20
306.8760821778848
 42
0.4142135623731
  0
TEXT
  5
1B5
330
1F
100
AcDbEntity
  8
D-4
  6
Continuous
 62
     2
370
   211
100
AcDbText
 10
879.7434080236536
 20
260.7758825764267
 30
0.0
 40
12.192
  1
38
 50
90.0
 41
1.0625
  7
ＭＳ ゴシック
100
AcDbText
  0
LINE
  5
1B6
330
1F
100
AcDbEntity
  8
D-2
  6
Continuous
 62
     7
370
     9
100
AcDbLine
 10
803.5207968753757
 20
231.2763022814988
 30
0.0
 11
1008.082442593133
 21
231.2763022814988
 31
0.0
  0
LINE
  5
1B7
330
1F
100
AcDbEntity
  8
D-2
  6
Continuous
 62
     7
370
     9
100
AcDbLine
 10
803.5207968753757
 20
307.2767014844148
 30
0.0
 11
1008.082442593133
 21
307.2767014844148
 31
0.0
  0
LINE
  5
1B8
330
1F
100
AcDbEntity
  8
D-2
  6
JWW_CENTER1
 62
     3
370
     9
100
AcDbLine
 10
840.4965779368499
 20
287.2768843542271
 30
0.0
 11
800.593810004297
 21
287.2768843542271
 31
0.0
  0
LINE
  5
1B9
330
1F
100
AcDbEntity
  8
D-2
  6
Continuous
 62
     3
370
     9
100
AcDbLine
 10
803.5207968753757
 20
293.2769974695739
 30
0.0
 11
836.5208590888167
 21
293.2769974695739
 31
0.0
  0
LINE
  5
1BA
330
1F
100
AcDbEntity
  8
D-2
  6
Continuous
 62
     3
370
     9
100
AcDbLine
 10
803.5207968753757
 20
281.2773311598494
 30
0.0
 11
836.5208590888167
 21
281.2773311598494
 31
0.0
  0
LINE
  5
1BB
330
1F
100
AcDbEntity
  8
D-2
  6
Continuous
 62
     3
370
     9
100
AcDbLine
 10
812.5209665483969
 20
280.7767618126004
 30
0.0
 11
803.5207968753757
 21
280.7767618126004
 31
0.0
  0
LINE
  5
1BC
330
1F
100
AcDbEntity
  8
D-2
  6
Continuous
 62
     3
370
     9
100
AcDbLine
 10
836.5208590888167
 20
280.7767618126004
 30
0.0
 11
831.9208283591472
 21
280.7767618126004
 31
0.0
  0
LINE
  5
1BD
330
1F
100
AcDbEntity
  8
D-2
  6
Continuous
 62
     3
370
     9
100
AcDbLine
 10
812.5209665483969
 20
293.777006895853
 30
0.0
 11
803.5207968753757
 21
293.777006895853
 31
0.0
  0
LINE
  5
1BE
330
1F
100
AcDbEntity
  8
D-2
  6
Continuous
 62
     3
370
     9
100
AcDbLine
 10
836.5208590888167
 20
293.777006895853
 30
0.0
 11
831.9208283591472
 21
293.777006895853
 31
0.0
  0
LINE
  5
1BF
330
1F
100
AcDbEntity
  8
D-2
  6
Continuous
 62
     4
370
     9
100
AcDbLine
 10
831.9208283591472
 20
281.2773311598494
 30
0.0
 11
831.9208283591472
 21
231.2775083738934
 31
0.0
  0
LINE
  5
1C0
330
1F
100
AcDbEntity
  8
D-2
  6
Continuous
 62
     4
370
     9
100
AcDbLine
 10
836.5208590888167
 20
307.2767014844148
 30
0.0
 11
836.5208590888167
 21
231.2775083738934
 31
0.0
  0
LINE
  5
1C1
330
1F
100
AcDbEntity
  8
D-2
  6
Continuous
 62
     4
370
     9
100
AcDbLine
 10
831.9208283591472
 20
307.2767014844148
 30
0.0
 11
831.9208283591472
 21
293.2769974695739
 31
0.0
  0
LINE
  5
1C2
330
1F
100
AcDbEntity
  8
D-2
  6
Continuous
 62
     7
370
     9
100
AcDbLine
 10
812.5206781042589
 20
231.2763022814988
 30
0.0
 11
812.5206781042589
 21
281.2773311598494
 31
0.0
  0
LINE
  5
1C3
330
1F
100
AcDbEntity
  8
D-2
  6
Continuous
 62
     7
370
     9
100
AcDbLine
 10
812.5206781042589
 20
293.2769974695739
 30
0.0
 11
812.5206781042589
 21
307.2767014844148
 31
0.0
  0
LWPOLYLINE
  5
1C4
330
1F
100
AcDbEntity
  8
D-4
  6
Continuous
 62
     7
370
     9
100
AcDbPolyline
 90
        4
 70
     1
 43
0.8
 10
738.5737144388287
 20
307.2760821778847
 42
0.4142135623731
 10
738.1737144388287
 20
307.6760821778847
 42
0.4142135623731
 10
737.7737144388287
 20
307.2760821778847
 42
0.4142135623731
 10
738.1737144388287
 20
306.8760821778848
 42
0.4142135623731
  0
LINE
  5
1C5
330
1F
100
AcDbEntity
  8
D-4
  6
Continuous
 62
     7
370
     9
100
AcDbLine
 10
736.9737144388287
 20
307.2760821778847
 30
0.0
 11
776.5209973016308
 21
307.2760821778847
 31
0.0
  0
LINE
  5
1C6
330
1F
100
AcDbEntity
  8
D-4
  6
Continuous
 62
     7
370
     9
100
AcDbLine
 10
836.5208590888167
 20
366.4414831436161
 30
0.0
 11
812.5206781042589
 21
366.4414831436161
 31
0.0
  0
LWPOLYLINE
  5
1C7
330
1F
100
AcDbEntity
  8
D-4
  6
Continuous
 62
     7
370
     9
100
AcDbPolyline
 90
        4
 70
     1
 43
0.8
 10
836.9208590888167
 20
366.4414831436161
 42
0.4142135623731
 10
836.5208590888167
 20
366.8414831436161
 42
0.4142135623731
 10
836.1208590888167
 20
366.4414831436161
 42
0.4142135623731
 10
836.5208590888167
 20
366.0414831436161
 42
0.4142135623731
  0
LWPOLYLINE
  5
1C8
330
1F
100
AcDbEntity
  8
D-4
  6
Continuous
 62
     7
370
     9
100
AcDbPolyline
 90
        4
 70
     1
 43
0.8
 10
812.9206781042589
 20
366.4414831436161
 42
0.4142135623731
 10
812.5206781042589
 20
366.8414831436161
 42
0.4142135623731
 10
812.1206781042589
 20
366.4414831436161
 42
0.4142135623731
 10
812.5206781042589
 20
366.0414831436161
 42
0.4142135623731
  0
LINE
  5
1C9
330
1F
100
AcDbEntity
  8
D-4
  6
Continuous
 62
     7
370
     9
100
AcDbLine
 10
836.5208590888167
 20
367.6414831436159
 30
0.0
 11
836.5208590888167
 21
315.2767014844148
 31
0.0
  0
LINE
  5
1CA
330
1F
100
AcDbEntity
  8
D-4
  6
Continuous
 62
     7
370
     9
100
AcDbLine
 10
812.5206781042589
 20
367.6414831436159
 30
0.0
 11
812.5206781042589
 21
315.2767014844148
 31
0.0
  0
TEXT
  5
1CB
330
1F
100
AcDbEntity
  8
D-4
  6
Continuous
 62
     2
370
   211
100
AcDbText
 10
816.0207685965378
 20
371.0974831436159
 30
0.0
 40
12.192
  1
12
 41
1.0625
  7
ＭＳ ゴシック
100
AcDbText
  0
LINE
  5
1CC
330
1F
100
AcDbEntity
  8
D-4
  6
Continuous
 62
     7
370
     9
100
AcDbLine
 10
812.5206781042589
 20
366.4414831436161
 30
0.0
 11
803.5207968753757
 21
366.4414831436161
 31
0.0
  0
LWPOLYLINE
  5
1CD
330
1F
100
AcDbEntity
  8
D-4
  6
Continuous
 62
     7
370
     9
100
AcDbPolyline
 90
        4
 70
     1
 43
0.8
 10
803.9207968753757
 20
366.4414831436161
 42
0.4142135623731
 10
803.5207968753757
 20
366.8414831436161
 42
0.4142135623731
 10
803.1207968753757
 20
366.4414831436161
 42
0.4142135623731
 10
803.5207968753757
 20
366.0414831436161
 42
0.4142135623731
  0
LINE
  5
1CE
330
1F
100
AcDbEntity
  8
D-4
  6
Continuous
 62
     7
370
     9
100
AcDbLine
 10
803.5207968753757
 20
367.6414831436159
 30
0.0
 11
803.5207968753757
 21
315.2767014844148
 31
0.0
  0
LINE
  5
1CF
330
1F
100
AcDbEntity
  8
D-4
  6
Continuous
 62
     7
370
     9
100
AcDbLine
 10
803.5207968753757
 20
366.4414831436161
 30
0.0
 11
796.5212235323258
 21
366.4414831436161
 31
0.0
  0
LWPOLYLINE
  5
1D0
330
1F
100
AcDbEntity
  8
D-4
  6
Continuous
 62
     7
370
     9
100
AcDbPolyline
 90
        4
 70
     1
 43
0.8
 10
796.9212235323258
 20
366.4414831436161
 42
0.4142135623731
 10
796.5212235323258
 20
366.8414831436161
 42
0.4142135623731
 10
796.1212235323259
 20
366.4414831436161
 42
0.4142135623731
 10
796.5212235323258
 20
366.0414831436161
 42
0.4142135623731
  0
LINE
  5
1D1
330
1F
100
AcDbEntity
  8
D-4
  6
Continuous
 62
     7
370
     9
100
AcDbLine
 10
796.5212235323258
 20
367.6414831436159
 30
0.0
 11
796.5212235323258
 21
315.2760821778847
 31
0.0
  0
LINE
  5
1D2
330
1F
100
AcDbEntity
  8
D-4
  6
Continuous
 62
     7
370
     9
100
AcDbLine
 10
796.5212235323258
 20
366.4414831436161
 30
0.0
 11
784.5209973016308
 21
366.4414831436161
 31
0.0
  0
LWPOLYLINE
  5
1D3
330
1F
100
AcDbEntity
  8
D-4
  6
Continuous
 62
     7
370
     9
100
AcDbPolyline
 90
        4
 70
     1
 43
0.8
 10
784.9209973016308
 20
366.4414831436161
 42
0.4142135623731
 10
784.5209973016308
 20
366.8414831436161
 42
0.4142135623731
 10
784.1209973016308
 20
366.4414831436161
 42
0.4142135623731
 10
784.5209973016308
 20
366.0414831436161
 42
0.4142135623731
  0
LINE
  5
1D4
330
1F
100
AcDbEntity
  8
D-4
  6
Continuous
 62
     7
370
     9
100
AcDbLine
 10
784.5209973016308
 20
367.6414831436159
 30
0.0
 11
784.5209973016308
 21
315.2760821778847
 31
0.0
  0
TEXT
  5
1D5
330
1F
100
AcDbEntity
  8
D-4
  6
Continuous
 62
     2
370
   211
100
AcDbText
 10
786.5211104169783
 20
371.0974831436159
 30
0.0
 40
12.192
  1
6
  7
ＭＳ ゴシック
100
AcDbText
  0
LINE
  5
1D6
330
1F
100
AcDbEntity
  8
D-4
  6
Continuous
 62
     7
370
     9
100
AcDbLine
 10
808.0207374898173
 20
366.4414831436161
 30
0.0
 11
815.7435231403352
 21
395.2633115673129
 31
0.0
  0
TEXT
  5
1D7
330
1F
100
AcDbEntity
  8
D-4
  6
Continuous
 62
     2
370
   211
100
AcDbText
 10
815.7435231403354
 20
400.4627967842358
 30
0.0
 40
12.192
  1
4.5
 41
1.083333333333324
  7
ＭＳ ゴシック
100
AcDbText
  0
LINE
  5
1D8
330
1F
100
AcDbEntity
  8
D-4
  6
Continuous
 62
     7
370
     9
100
AcDbLine
 10
815.7435231403352
 20
395.2633115673129
 30
0.0
 11
841.7435231403351
 21
395.2633115673129
 31
0.0
  0
LINE
  5
1D9
330
1F
100
AcDbEntity
  8
D-4
  6
Continuous
 62
     7
370
     9
100
AcDbLine
 10
800.0210102038508
 20
366.4414831436161
 30
0.0
 11
792.2982245533328
 21
395.2633115673129
 31
0.0
  0
LINE
  5
1DA
330
1F
100
AcDbEntity
  8
D-4
  6
Continuous
 62
     7
370
     9
100
AcDbLine
 10
766.298224553333
 20
395.2633115673129
 30
0.0
 11
792.2982245533328
 21
395.2633115673129
 31
0.0
  0
TEXT
  5
1DB
330
1F
100
AcDbEntity
  8
D-4
  6
Continuous
 62
     2
370
   211
100
AcDbText
 10
766.298224553333
 20
400.4627967842358
 30
0.0
 40
12.192
  1
3.5
 41
1.083333333333333
  7
ＭＳ ゴシック
100
AcDbText
  0
LINE
  5
1DC
330
1F
100
AcDbEntity
  8
D-4
  6
Continuous
 62
     7
370
     9
100
AcDbLine
 10
836.5208590888167
 20
341.0597358427217
 30
0.0
 11
831.9208283591472
 21
341.0597358427217
 31
0.0
  0
LWPOLYLINE
  5
1DD
330
1F
100
AcDbEntity
  8
D-4
  6
Continuous
 62
     7
370
     9
100
AcDbPolyline
 90
        4
 70
     1
 43
0.8
 10
836.9208590888167
 20
341.0597358427217
 42
0.4142135623731
 10
836.5208590888167
 20
341.4597358427217
 42
0.4142135623731
 10
836.1208590888167
 20
341.0597358427217
 42
0.4142135623731
 10
836.5208590888167
 20
340.6597358427217
 42
0.4142135623731
  0
LWPOLYLINE
  5
1DE
330
1F
100
AcDbEntity
  8
D-4
  6
Continuous
 62
     7
370
     9
100
AcDbPolyline
 90
        4
 70
     1
 43
0.8
 10
832.3208283591472
 20
341.0597358427217
 42
0.4142135623731
 10
831.9208283591472
 20
341.4597358427217
 42
0.4142135623731
 10
831.5208283591472
 20
341.0597358427217
 42
0.4142135623731
 10
831.9208283591472
 20
340.6597358427217
 42
0.4142135623731
  0
LINE
  5
1DF
330
1F
100
AcDbEntity
  8
D-4
  6
Continuous
 62
     7
370
     9
100
AcDbLine
 10
831.9208283591472
 20
342.2597358427215
 30
0.0
 11
831.9208283591472
 21
315.2767014844148
 31
0.0
  0
TEXT
  5
1E0
330
1F
100
AcDbEntity
  8
D-4
  6
Continuous
 62
     2
370
   211
100
AcDbText
 10
840.0052274451755
 20
345.7157358427215
 30
0.0
 40
12.192
  1
2.3
 41
1.083333333333333
  7
ＭＳ ゴシック
100
AcDbText
  0
LINE
  5
1E1
330
1F
100
AcDbEntity
  8
D-4
  6
Continuous
 62
     7
370
     9
100
AcDbLine
 10
836.5208590888167
 20
341.0597358427217
 30
0.0
 11
866.0052274451755
 21
341.0597358427217
 31
0.0
  0
LINE
  5
1E2
330
1F
100
AcDbEntity
  8
D-1
  6
Continuous
 62
     2
370
     9
100
AcDbLine
 10
796.5212235323258
 20
307.2760821778847
 30
0.0
 11
784.5209973016308
 21
307.2760821778847
 31
0.0
  0
LINE
  5
1E3
330
1F
100
AcDbEntity
  8
D-2
  6
Continuous
 62
     7
370
     9
100
AcDbLine
 10
803.5207968753757
 20
307.2767014844148
 30
0.0
 11
803.5207968753757
 21
224.8762712690414
 31
0.0
  0
LINE
  5
1E4
330
1F
100
AcDbEntity
  8
D-9
  6
Continuous
 62
    30
370
     5
100
AcDbLine
 10
1008.082442593133
 20
224.8762712690414
 30
0.0
 11
812.5212738450891
 21
224.8762712690414
 31
0.0
  0
LINE
  5
1E5
330
1F
100
AcDbEntity
  8
D-2
  6
Continuous
 62
     7
370
     9
100
AcDbLine
 10
803.5207968753757
 20
224.8762712690414
 30
0.0
 11
1008.082442593133
 21
224.8762712690414
 31
0.0
  0
LINE
  5
1E6
330
1F
100
AcDbEntity
  8
D-1
  6
Continuous
 62
     2
370
     9
100
AcDbLine
 10
784.5209973016308
 20
215.8761195059496
 30
0.0
 11
784.5209973016308
 21
307.2760821778847
 31
0.0
  0
LINE
  5
1E7
330
1F
100
AcDbEntity
  8
D-1
  6
Continuous
 62
     2
370
     9
100
AcDbLine
 10
796.5212235323258
 20
221.8762326212973
 30
0.0
 11
796.5212235323258
 21
307.2760821778847
 31
0.0
  0
LINE
  5
1E8
330
1F
100
AcDbEntity
  8
D-9
  6
Continuous
 62
    30
370
     5
100
AcDbLine
 10
812.5212738450891
 20
215.8761195059496
 30
0.0
 11
812.5212738450891
 21
224.8762712690414
 31
0.0
  0
LINE
  5
1E9
330
1F
100
AcDbEntity
  8
D-4
  6
Continuous
 62
     7
370
     9
100
AcDbLine
 10
738.1737144388287
 20
307.2760821778847
 30
0.0
 11
738.1737144388287
 21
203.8761196495529
 31
0.0
  0
TEXT
  5
1EA
330
1F
100
AcDbEntity
  8
D-4
  6
Continuous
 62
     2
370
   211
100
AcDbText
 10
733.5177144388288
 20
238.0761009137188
 30
0.0
 40
12.192
  1
51.7
 50
90.0
 41
1.09375
  7
ＭＳ ゴシック
100
AcDbText
  0
LINE
  5
1EB
330
1F
100
AcDbEntity
  8
4-4
  6
Continuous
 62
     7
370
     9
100
AcDbLine
 10
798.904240900966
 20
-445.5123973993815
 30
0.0
 11
798.904240900966
 21
-483.5125970008397
 31
0.0
  0
LWPOLYLINE
  5
1EC
330
1F
100
AcDbEntity
  8
4-4
  6
Continuous
 62
     7
370
     9
100
AcDbPolyline
 90
        4
 70
     1
 43
0.8
 10
799.304240900966
 20
-445.5123973993815
 42
0.4142135623731
 10
798.904240900966
 20
-445.1123973993815
 42
0.4142135623731
 10
798.504240900966
 20
-445.5123973993815
 42
0.4142135623731
 10
798.904240900966
 20
-445.9123973993815
 42
0.4142135623731
  0
LWPOLYLINE
  5
1ED
330
1F
100
AcDbEntity
  8
4-4
  6
Continuous
 62
     7
370
     9
100
AcDbPolyline
 90
        4
 70
     1
 43
0.8
 10
799.304240900966
 20
-483.5125970008397
 42
0.4142135623731
 10
798.904240900966
 20
-483.1125970008397
 42
0.4142135623731
 10
798.504240900966
 20
-483.5125970008397
 42
0.4142135623731
 10
798.904240900966
 20
-483.9125970008397
 42
0.4142135623731
  0
TEXT
  5
1EE
330
1F
100
AcDbEntity
  8
4-4
  6
Continuous
 62
     2
370
   211
100
AcDbText
 10
794.2482409009659
 20
-473.0124972001106
 30
0.0
 40
12.192
  1
38
 50
90.0
 41
1.0625
  7
ＭＳ ゴシック
100
AcDbText
  0
LINE
  5
1EF
330
1F
100
AcDbEntity
  8
4-4
  6
Continuous
 62
     7
370
     9
100
AcDbLine
 10
798.904240900966
 20
-483.5125970008397
 30
0.0
 11
798.904240900966
 21
-486.7126125070685
 31
0.0
  0
LWPOLYLINE
  5
1F0
330
1F
100
AcDbEntity
  8
4-4
  6
Continuous
 62
     7
370
     9
100
AcDbPolyline
 90
        4
 70
     1
 43
0.8
 10
799.304240900966
 20
-486.7126125070685
 42
0.4142135623731
 10
798.904240900966
 20
-486.3126125070685
 42
0.4142135623731
 10
798.504240900966
 20
-486.7126125070685
 42
0.4142135623731
 10
798.904240900966
 20
-487.1126125070684
 42
0.4142135623731
  0
TEXT
  5
1F1
330
1F
100
AcDbEntity
  8
4-4
  6
Continuous
 62
     2
370
   211
100
AcDbText
 10
772.2839427118705
 20
-478.5842107300348
 30
0.0
 40
12.192
  1
3.2
 50
90.0
 41
1.083333333333333
  7
ＭＳ ゴシック
100
AcDbText
  0
LINE
  5
1F2
330
1F
100
AcDbEntity
  8
4-4
  6
Continuous
 62
     7
370
     9
100
AcDbLine
 10
774.5399427118705
 20
-452.5842107300348
 30
0.0
 11
774.5399427118705
 21
-478.5842107300348
 31
0.0
  0
LINE
  5
1F3
330
1F
100
AcDbEntity
  8
4-4
  6
Continuous
 62
     7
370
     9
100
AcDbLine
 10
774.5399427118705
 20
-478.5842107300348
 30
0.0
 11
798.904240900966
 21
-485.1126047539541
 31
0.0
  0
LWPOLYLINE
  5
1F4
330
1F
100
AcDbEntity
  8
4-4
  6
Continuous
 62
     7
370
     9
100
AcDbPolyline
 90
        4
 70
     1
 43
0.8
 10
799.304240900966
 20
-491.2126883886143
 42
0.4142135623731
 10
798.904240900966
 20
-490.8126883886143
 42
0.4142135623731
 10
798.504240900966
 20
-491.2126883886143
 42
0.4142135623731
 10
798.904240900966
 20
-491.6126883886143
 42
0.4142135623731
  0
LINE
  5
1F5
330
1F
100
AcDbEntity
  8
4-4
  6
Continuous
 62
     7
370
     9
100
AcDbLine
 10
798.904240900966
 20
-486.7126125070685
 30
0.0
 11
798.904240900966
 21
-491.2126883886143
 31
0.0
  0
TEXT
  5
1F6
330
1F
100
AcDbEntity
  8
4-4
  6
Continuous
 62
     2
370
   211
100
AcDbText
 10
794.2482409009659
 20
-519.5652046381058
 30
0.0
 40
12.192
  1
4.5
 50
90.0
 41
1.083333333333331
  7
ＭＳ ゴシック
100
AcDbText
  0
LINE
  5
1F7
330
1F
100
AcDbEntity
  8
4-4
  6
Continuous
 62
     7
370
     9
100
AcDbLine
 10
798.904240900966
 20
-491.2126883886143
 30
0.0
 11
798.904240900966
 21
-520.3740355175597
 31
0.0
  0
LINE
  5
1F8
330
1F
100
AcDbEntity
  8
4-5
  6
Continuous
 62
     7
370
     9
100
AcDbLine
 10
976.2351334144944
 20
-668.8983104723852
 30
0.0
 11
976.2351334144944
 21
-696.8983104723852
 31
0.0
  0
LINE
  5
1F9
330
1F
100
AcDbEntity
  8
4-5
  6
Continuous
 62
     7
370
     9
100
AcDbLine
 10
747.8351334144943
 20
-668.8983104723852
 30
0.0
 11
747.8351334144943
 21
-696.8983104723852
 31
0.0
  0
LINE
  5
1FA
330
1F
100
AcDbEntity
  8
4-5
  6
Continuous
 62
     7
370
     9
100
AcDbLine
 10
747.8351334144943
 20
-696.8983104723852
 30
0.0
 11
976.2351334144944
 21
-696.8983104723852
 31
0.0
  0
LINE
  5
1FB
330
1F
100
AcDbEntity
  8
4-5
  6
Continuous
 62
     7
370
     9
100
AcDbLine
 10
747.8351334144943
 20
-668.8983104723852
 30
0.0
 11
976.2351334144944
 21
-668.8983104723852
 31
0.0
  0
TEXT
  5
1FC
330
1F
100
AcDbEntity
  8
4-5
  6
Continuous
 62
     2
370
     9
100
AcDbText
 10
755.0351334144943
 20
-688.6423104723852
 30
0.0
 40
12.192
  1
Ｂ－Ｂ断面図　Ｓ＝１：４
 41
1.114583333333333
  7
ＭＳ ゴシック
100
AcDbText
  0
LINE
  5
1FD
330
1F
100
AcDbEntity
  8
4-1
  6
JWW_DASHED3
 62
     2
370
     9
100
AcDbLine
 10
47.98642305083536
 20
72.00390985359923
 30
0.0
 11
-1150.013576949165
 21
72.00390985359923
 31
0.0
  0
LINE
  5
1FE
330
1F
100
AcDbEntity
  8
4-2
  6
Continuous
 62
     7
370
     9
100
AcDbLine
 10
-552.0135769491667
 20
21.50375408434275
 30
0.0
 11
-1150.013576949165
 21
21.50375408434275
 31
0.0
  0
LINE
  5
1FF
330
1F
100
AcDbEntity
  8
4-2
  6
Continuous
 62
     7
370
     9
100
AcDbLine
 10
-552.0135769491667
 20
26.00375408434343
 30
0.0
 11
-1150.013576949165
 21
26.00375408434343
 31
0.0
  0
LINE
  5
200
330
1F
100
AcDbEntity
  8
4-2
  6
JWW_DASHED1
 62
     7
370
     9
100
AcDbLine
 10
-556.5136617856774
 20
36.0038026296827
 30
0.0
 11
-552.0135769491667
 21
40.50346752546238
 31
0.0
  0
LINE
  5
201
330
1F
100
AcDbEntity
  8
4-2
  6
JWW_DASHED1
 62
     7
370
     9
100
AcDbLine
 10
-566.5137103310135
 20
26.00375408434343
 30
0.0
 11
-571.0137951675242
 21
21.50366924783475
 31
0.0
  0
LINE
  5
202
330
1F
100
AcDbEntity
  8
4-2
  6
Continuous
 62
     7
370
     9
100
AcDbLine
 10
-566.5137103310135
 20
26.00375408434343
 30
0.0
 11
-556.5136617856774
 21
36.0038026296827
 31
0.0
  0
LINE
  5
203
330
1F
100
AcDbEntity
  8
4-2
  6
JWW_CENTER1
 62
     3
370
     9
100
AcDbLine
 10
-599.5137725444547
 20
40.10536371573858
 30
0.0
 11
-599.5137725444547
 21
19.49397290598336
 31
0.0
  0
LINE
  5
204
330
1F
100
AcDbEntity
  8
4-2
  6
Continuous
 62
     4
370
     9
100
AcDbLine
 10
-1087.813636146198
 20
35.03709907484176
 30
0.0
 11
-1087.813636146198
 21
26.00375408434343
 31
0.0
  0
LINE
  5
205
330
1F
100
AcDbEntity
  8
4-2
  6
Continuous
 62
     4
370
     9
100
AcDbLine
 10
-1088.480222061075
 20
35.70368498971879
 30
0.0
 11
-1145.513492112656
 21
35.70368498971879
 31
0.0
  0
LINE
  5
206
330
1F
100
AcDbEntity
  8
4-2
  6
Continuous
 62
     4
370
     9
100
AcDbLine
 10
-1085.513760761607
 20
36.47035677799749
 30
0.0
 11
-1085.513760761607
 21
26.00375408434343
 31
0.0
  0
LINE
  5
207
330
1F
100
AcDbEntity
  8
4-2
  6
Continuous
 62
     4
370
     9
100
AcDbLine
 10
-1087.046824377678
 20
38.00370035455376
 30
0.0
 11
-1145.513492112656
 21
38.00370035455376
 31
0.0
  0
ARC
  5
208
330
1F
100
AcDbEntity
  8
4-2
  6
Continuous
 62
     4
370
     9
100
AcDbCircle
 10
-1088.480222061075
 20
35.03709907484176
 30
0.0
 40
0.6666666359054536
100
AcDbArc
 50
0.0
 51
90.0
  0
ARC
  5
209
330
1F
100
AcDbEntity
  8
4-2
  6
Continuous
 62
     4
370
     9
100
AcDbCircle
 10
-1087.046824377678
 20
36.47035677799749
 30
0.0
 40
1.533333187397843
100
AcDbArc
 50
0.0
 51
90.0
  0
LINE
  5
20A
330
1F
100
AcDbEntity
  8
4-2
  6
Continuous
 62
     3
370
     9
100
AcDbLine
 10
-1099.513744736932
 20
35.70368498971879
 30
0.0
 11
-1099.513744736932
 21
26.00375408434343
 31
0.0
  0
LINE
  5
20B
330
1F
100
AcDbEntity
  8
4-2
  6
Continuous
 62
     3
370
     9
100
AcDbLine
 10
-1105.513577891795
 20
35.70368498971879
 30
0.0
 11
-1105.513577891795
 21
26.00375408434343
 31
0.0
  0
LINE
  5
20C
330
1F
100
AcDbEntity
  8
4-2
  6
Continuous
 62
     4
370
     9
100
AcDbLine
 10
-614.2136577323768
 20
35.03709907484176
 30
0.0
 11
-614.2136577323768
 21
26.00375408434343
 31
0.0
  0
LINE
  5
20D
330
1F
100
AcDbEntity
  8
4-2
  6
Continuous
 62
     4
370
     9
100
AcDbLine
 10
-613.5470718175002
 20
35.70368498971879
 30
0.0
 11
-556.513661785677
 21
35.70368498971879
 31
0.0
  0
LINE
  5
20E
330
1F
100
AcDbEntity
  8
4-2
  6
Continuous
 62
     4
370
     9
100
AcDbLine
 10
-616.513813077454
 20
36.47035677799749
 30
0.0
 11
-616.513813077454
 21
26.00375408434343
 31
0.0
  0
LINE
  5
20F
330
1F
100
AcDbEntity
  8
4-2
  6
Continuous
 62
     4
370
     9
100
AcDbLine
 10
-614.9803295206552
 20
38.00370035455376
 30
0.0
 11
-556.513661785677
 21
38.00370035455376
 31
0.0
  0
ARC
  5
210
330
1F
100
AcDbEntity
  8
4-2
  6
Continuous
 62
     4
370
     9
100
AcDbCircle
 10
-613.5470718175002
 20
35.03709907484176
 30
0.0
 40
0.6666666359054536
100
AcDbArc
 50
90.0
 51
180.0
  0
ARC
  5
211
330
1F
100
AcDbEntity
  8
4-2
  6
Continuous
 62
     4
370
     9
100
AcDbCircle
 10
-614.9803295206552
 20
36.47035677799749
 30
0.0
 40
1.533333187397843
100
AcDbArc
 50
90.0
 51
180.0
  0
LINE
  5
212
330
1F
100
AcDbEntity
  8
4-2
  6
Continuous
 62
     3
370
     9
100
AcDbLine
 10
-602.5135491416431
 20
35.70368498971879
 30
0.0
 11
-602.5135491416431
 21
26.00375408434343
 31
0.0
  0
LINE
  5
213
330
1F
100
AcDbEntity
  8
4-2
  6
Continuous
 62
     3
370
     9
100
AcDbLine
 10
-596.5137159867809
 20
35.70368498971879
 30
0.0
 11
-596.5137159867809
 21
26.00375408434343
 31
0.0
  0
LINE
  5
214
330
1F
100
AcDbEntity
  8
4-2
  6
JWW_CENTER1
 62
     3
370
     9
100
AcDbLine
 10
-1102.513521334121
 20
40.10536371573858
 30
0.0
 11
-1102.513521334121
 21
19.49397290598336
 31
0.0
  0
LINE
  5
215
330
1F
100
AcDbEntity
  8
4-2
  6
Continuous
 62
     7
370
     9
100
AcDbLine
 10
47.98632554775895
 20
21.50375408434275
 30
0.0
 11
-550.0136744522388
 21
21.50375408434275
 31
0.0
  0
LINE
  5
216
330
1F
100
AcDbEntity
  8
4-2
  6
Continuous
 62
     7
370
     9
100
AcDbLine
 10
47.98632554775895
 20
26.00375408434343
 30
0.0
 11
-550.0136744522388
 21
26.00375408434343
 31
0.0
  0
LINE
  5
217
330
1F
100
AcDbEntity
  8
4-2
  6
JWW_DASHED1
 62
     7
370
     9
100
AcDbLine
 10
43.48624071124823
 20
36.0038026296827
 30
0.0
 11
47.98632554775895
 21
40.50346752546238
 31
0.0
  0
LINE
  5
218
330
1F
100
AcDbEntity
  8
4-2
  6
JWW_DASHED1
 62
     7
370
     9
100
AcDbLine
 10
33.48619216591192
 20
26.00375408434343
 30
0.0
 11
28.98610732940097
 21
21.50366924783475
 31
0.0
  0
LINE
  5
219
330
1F
100
AcDbEntity
  8
4-2
  6
Continuous
 62
     7
370
     9
100
AcDbLine
 10
33.48619216591192
 20
26.00375408434343
 30
0.0
 11
43.48624071124823
 21
36.0038026296827
 31
0.0
  0
LINE
  5
21A
330
1F
100
AcDbEntity
  8
4-2
  6
JWW_CENTER1
 62
     3
370
     9
100
AcDbLine
 10
147.986325547759
 20
21.50375408434275
 30
0.0
 11
49.98642305083513
 21
21.50375408434275
 31
0.0
  0
LINE
  5
21B
330
1F
100
AcDbEntity
  8
4-1
  6
Continuous
 62
     2
370
     9
100
AcDbLine
 10
147.986325547759
 20
72.00390985359923
 30
0.0
 11
47.98642305083536
 21
72.00390985359923
 31
0.0
  0
LINE
  5
21C
330
1F
100
AcDbEntity
  8
4-2
  6
JWW_CENTER1
 62
     3
370
     9
100
AcDbLine
 10
-1250.013479446089
 20
21.50375408434275
 30
0.0
 11
-1152.013576949165
 21
21.50375408434275
 31
0.0
  0
LINE
  5
21D
330
1F
100
AcDbEntity
  8
4-1
  6
Continuous
 62
     2
370
     9
100
AcDbLine
 10
-1150.013576949165
 20
72.00390985359923
 30
0.0
 11
-1250.013576949165
 21
72.00390985359923
 31
0.0
  0
LINE
  5
21E
330
1F
100
AcDbEntity
  8
4-4
  6
Continuous
 62
     7
370
     9
100
AcDbLine
 10
-1043.986474681242
 20
26.00375408434343
 30
0.0
 11
-1043.986474681242
 21
38.00370035455376
 31
0.0
  0
LWPOLYLINE
  5
21F
330
1F
100
AcDbEntity
  8
4-4
  6
Continuous
 62
     7
370
     9
100
AcDbPolyline
 90
        4
 70
     1
 43
0.8
 10
-1043.586474681242
 20
26.00375408434343
 42
0.4142135623731
 10
-1043.986474681242
 20
26.40375408434343
 42
0.4142135623731
 10
-1044.386474681242
 20
26.00375408434343
 42
0.4142135623731
 10
-1043.986474681242
 20
25.60375408434343
 42
0.4142135623731
  0
LWPOLYLINE
  5
220
330
1F
100
AcDbEntity
  8
4-4
  6
Continuous
 62
     7
370
     9
100
AcDbPolyline
 90
        4
 70
     1
 43
0.8
 10
-1043.586474681242
 20
38.00370035455376
 42
0.4142135623731
 10
-1043.986474681242
 20
38.40370035455376
 42
0.4142135623731
 10
-1044.386474681242
 20
38.00370035455376
 42
0.4142135623731
 10
-1043.986474681242
 20
37.60370035455376
 42
0.4142135623731
  0
LINE
  5
221
330
1F
100
AcDbEntity
  8
4-4
  6
Continuous
 62
     7
370
     9
100
AcDbLine
 10
-1042.786474681242
 20
38.00370035455376
 30
0.0
 11
-1079.046824377678
 21
38.00370035455376
 31
0.0
  0
TEXT
  5
222
330
1F
100
AcDbEntity
  8
4-4
  6
Continuous
 62
     2
370
   211
100
AcDbText
 10
-1048.642474681242
 20
40.5642984035178
 30
0.0
 40
12.192
  1
12
 50
90.0
 41
1.0625
  7
ＭＳ ゴシック
100
AcDbText
  0
LINE
  5
223
330
1F
100
AcDbEntity
  8
4-4
  6
Continuous
 62
     7
370
     9
100
AcDbLine
 10
-1043.986474681242
 20
38.00370035455376
 30
0.0
 11
-1043.986474681242
 21
59.69033419498032
 31
0.0
  0
LINE
  5
224
330
1F
100
AcDbEntity
  8
4-4
  6
Continuous
 62
     7
370
     9
100
AcDbLine
 10
-1145.513492112656
 20
82.14776447404302
 30
0.0
 11
-1085.51349119028
 21
82.14776447404302
 31
0.0
  0
LWPOLYLINE
  5
225
330
1F
100
AcDbEntity
  8
4-4
  6
Continuous
 62
     7
370
     9
100
AcDbPolyline
 90
        4
 70
     1
 43
0.8
 10
-1145.113492112655
 20
82.14776447404302
 42
0.4142135623731
 10
-1145.513492112656
 20
82.54776447404302
 42
0.4142135623731
 10
-1145.913492112656
 20
82.14776447404302
 42
0.4142135623731
 10
-1145.513492112656
 20
81.74776447404301
 42
0.4142135623731
  0
LWPOLYLINE
  5
226
330
1F
100
AcDbEntity
  8
4-4
  6
Continuous
 62
     7
370
     9
100
AcDbPolyline
 90
        4
 70
     1
 43
0.8
 10
-1085.11349119028
 20
82.14776447404302
 42
0.4142135623731
 10
-1085.51349119028
 20
82.54776447404302
 42
0.4142135623731
 10
-1085.91349119028
 20
82.14776447404302
 42
0.4142135623731
 10
-1085.51349119028
 20
81.74776447404301
 42
0.4142135623731
  0
LINE
  5
227
330
1F
100
AcDbEntity
  8
4-4
  6
Continuous
 62
     7
370
     9
100
AcDbLine
 10
-1085.51349119028
 20
83.34776447404306
 30
0.0
 11
-1085.51349119028
 21
44.47035677799749
 31
0.0
  0
TEXT
  5
228
330
1F
100
AcDbEntity
  8
4-4
  6
Continuous
 62
     2
370
   211
100
AcDbText
 10
-1124.013491651468
 20
86.8037644740431
 30
0.0
 40
12.192
  1
60
 41
1.0625
  7
ＭＳ ゴシック
100
AcDbText
  0
TEXT
  5
229
330
1F
100
AcDbEntity
  8
4-5
  6
Continuous
 62
     2
370
     9
100
AcDbText
 10
-1083.700805256676
 20
-25.23247990680701
 30
0.0
 40
12.192
  1
把手穴
 41
1.083333333333333
  7
ＭＳ ゴシック
100
AcDbText
  0
LINE
  5
22A
330
1F
100
AcDbEntity
  8
4-5
  6
Continuous
 62
     7
370
     9
100
AcDbLine
 10
-1031.700805256676
 20
-31.08847990680715
 30
0.0
 11
-1083.700805256676
 21
-31.08847990680715
 31
0.0
  0
LINE
  5
22B
330
1F
100
AcDbEntity
  8
4-5
  6
Continuous
 62
     7
370
     9
100
AcDbLine
 10
-1083.700805256676
 20
-31.08847990680715
 30
0.0
 11
-1118.929780963813
 21
29.92989591656328
 31
0.0
  0
LWPOLYLINE
  5
22C
330
1F
100
AcDbEntity
  8
4-5
  6
Continuous
 62
     7
370
     9
100
AcDbPolyline
 90
        4
 70
     1
 43
0.8
 10
-1118.529780963813
 20
29.92989591656328
 42
0.4142135623731
 10
-1118.929780963813
 20
30.32989591656328
 42
0.4142135623731
 10
-1119.329780963813
 20
29.92989591656328
 42
0.4142135623731
 10
-1118.929780963813
 20
29.52989591656328
 42
0.4142135623731
  0
LINE
  5
22D
330
1F
100
AcDbEntity
  8
4-1
  6
Continuous
 62
     2
370
     9
100
AcDbLine
 10
147.986325547759
 20
12.00395934156381
 30
0.0
 11
-1250.013576949165
 21
12.00395934156381
 31
0.0
  0
LINE
  5
22E
330
1F
100
AcDbEntity
  8
4-1
  6
Continuous
 62
     2
370
     9
100
AcDbLine
 10
147.986325547759
 20
18.0038801608207
 30
0.0
 11
-1250.013576949165
 21
18.0038801608207
 31
0.0
  0
LINE
  5
22F
330
1F
100
AcDbEntity
  8
4-1
  6
Continuous
 62
     2
370
     9
100
AcDbLine
 10
-1151.013576949165
 20
12.00389748160842
 30
0.0
 11
-1151.013576949165
 21
72.00390985359923
 31
0.0
  0
LINE
  5
230
330
1F
100
AcDbEntity
  8
4-0
  6
Continuous
 62
     4
370
     9
100
AcDbLine
 10
-360.0887195666028
 20
-8.757394150054324
 30
0.0
 11
-362.0887195666028
 21
-8.757394150054324
 31
0.0
  0
LINE
  5
231
330
1F
100
AcDbEntity
  8
4-0
  6
Continuous
 62
     4
370
     9
100
AcDbLine
 10
-360.0887195666028
 20
-28.75739415005387
 30
0.0
 11
-360.0887195666028
 21
-8.757394150054324
 31
0.0
  0
LINE
  5
232
330
1F
100
AcDbEntity
  8
4-0
  6
Continuous
 62
     4
370
     9
100
AcDbLine
 10
-362.0887195666028
 20
-8.757394150054324
 30
0.0
 11
-362.0887195666028
 21
-28.75739415005387
 31
0.0
  0
LINE
  5
233
330
1F
100
AcDbEntity
  8
4-0
  6
Continuous
 62
     4
370
     9
100
AcDbLine
 10
-362.0887195666028
 20
-28.75739415005387
 30
0.0
 11
-360.0887195666028
 21
-28.75739415005387
 31
0.0
  0
LINE
  5
234
330
1F
100
AcDbEntity
  8
4-0
  6
Continuous
 62
     4
370
     9
100
AcDbLine
 10
-334.7134191143939
 20
-18.9913220337628
 30
0.0
 11
-361.088719566603
 21
-18.9913220337628
 31
0.0
  0
LINE
  5
235
330
1F
100
AcDbEntity
  8
4-0
  6
Continuous
 62
     4
370
     9
100
AcDbLine
 10
-361.088719566603
 20
-18.9913220337628
 30
0.0
 11
-351.1742709528648
 21
-17.68606011156226
 31
0.0
  0
LINE
  5
236
330
1F
100
AcDbEntity
  8
4-0
  6
Continuous
 62
     4
370
     9
100
AcDbLine
 10
-361.088719566603
 20
-18.9913220337628
 30
0.0
 11
-351.1742709528648
 21
-20.29658395596334
 31
0.0
  0
TEXT
  5
237
330
1F
100
AcDbEntity
  8
4-0
  6
Continuous
 62
     2
370
     9
100
AcDbText
 10
-331.0180709148128
 20
-24.32597124100301
 30
0.0
 40
12.19199999999983
  1
Ｂ
 41
1.000000000000014
  7
ＭＳ ゴシック
100
AcDbText
  0
LINE
  5
238
330
1F
100
AcDbEntity
  8
4-A
  6
JWW_DASHED1
 62
     4
370
     9
100
AcDbLine
 10
-927.513656601222
 20
48.50374677897321
 30
0.0
 11
-927.513656601222
 21
35.50378165620532
 31
0.0
  0
LINE
  5
239
330
1F
100
AcDbEntity
  8
4-A
  6
JWW_DASHED1
 62
     4
370
     9
100
AcDbLine
 10
-901.0135769491649
 20
35.50378165620532
 30
0.0
 11
-927.513656601222
 21
35.50378165620532
 31
0.0
  0
LINE
  5
23A
330
1F
100
AcDbEntity
  8
4-A
  6
JWW_DASHED1
 62
     4
370
     9
100
AcDbLine
 10
-901.0135769491649
 20
48.50374677897321
 30
0.0
 11
-927.513656601222
 21
48.50374677897321
 31
0.0
  0
LINE
  5
23B
330
1F
100
AcDbEntity
  8
4-A
  6
JWW_CENTER1
 62
     4
370
     9
100
AcDbLine
 10
-901.0135769491649
 20
50.93632343347372
 30
0.0
 11
-901.0135769491649
 21
33.45783043154324
 31
0.0
  0
LINE
  5
23C
330
1F
100
AcDbEntity
  8
4-A
  6
JWW_CENTER1
 62
     4
370
     9
100
AcDbLine
 10
-891.5520323967994
 20
42.00362423734691
 30
0.0
 11
-930.3420973815669
 21
42.00362423734691
 31
0.0
  0
ARC
  5
23D
330
1F
100
AcDbEntity
  8
4-A
  6
JWW_DASHED1
 62
     4
370
     9
100
AcDbCircle
 10
-901.0135769491649
 20
42.00362423734691
 30
0.0
 40
6.499982014586107
100
AcDbArc
 50
270.0
 51
90.0
  0
ARC
  5
23E
330
1F
100
AcDbEntity
  8
4-A
  6
JWW_DASHED1
 62
     4
370
     9
100
AcDbCircle
 10
-901.0135769491649
 20
42.00362423734691
 30
0.0
 40
6.499982014586107
100
AcDbArc
 50
90.0
 51
270.0
  0
LINE
  5
23F
330
1F
100
AcDbEntity
  8
4-A
  6
JWW_DASHED1
 62
     4
370
     9
100
AcDbLine
 10
72.48634434140604
 20
48.50374677897321
 30
0.0
 11
72.48634434140604
 21
35.50378165620532
 31
0.0
  0
LINE
  5
240
330
1F
100
AcDbEntity
  8
4-A
  6
JWW_DASHED1
 62
     4
370
     9
100
AcDbLine
 10
98.98642399346318
 20
35.50378165620532
 30
0.0
 11
72.48634434140604
 21
35.50378165620532
 31
0.0
  0
LINE
  5
241
330
1F
100
AcDbEntity
  8
4-A
  6
JWW_DASHED1
 62
     4
370
     9
100
AcDbLine
 10
98.98642399346318
 20
48.50374677897321
 30
0.0
 11
72.48634434140604
 21
48.50374677897321
 31
0.0
  0
LINE
  5
242
330
1F
100
AcDbEntity
  8
4-A
  6
JWW_CENTER1
 62
     4
370
     9
100
AcDbLine
 10
98.98642399346318
 20
50.93632343347372
 30
0.0
 11
98.98642399346318
 21
33.45783043154324
 31
0.0
  0
LINE
  5
243
330
1F
100
AcDbEntity
  8
4-A
  6
JWW_CENTER1
 62
     4
370
     9
100
AcDbLine
 10
108.4479685458284
 20
42.00362423734691
 30
0.0
 11
69.65790356106118
 21
42.00362423734691
 31
0.0
  0
ARC
  5
244
330
1F
100
AcDbEntity
  8
4-A
  6
JWW_DASHED1
 62
     4
370
     9
100
AcDbCircle
 10
98.98642399346318
 20
42.00362423734691
 30
0.0
 40
6.499982014586107
100
AcDbArc
 50
270.0
 51
90.0
  0
ARC
  5
245
330
1F
100
AcDbEntity
  8
4-A
  6
JWW_DASHED1
 62
     4
370
     9
100
AcDbCircle
 10
98.98642399346318
 20
42.00362423734691
 30
0.0
 40
6.499982014586107
100
AcDbArc
 50
90.0
 51
270.0
  0
LINE
  5
246
330
1F
100
AcDbEntity
  8
4-A
  6
JWW_DASHED1
 62
     4
370
     9
100
AcDbLine
 10
-427.5135390083915
 20
48.50405713920782
 30
0.0
 11
-427.5135390083915
 21
35.50409201643993
 31
0.0
  0
LINE
  5
247
330
1F
100
AcDbEntity
  8
4-A
  6
JWW_DASHED1
 62
     4
370
     9
100
AcDbLine
 10
-401.0134593563344
 20
35.50409201643993
 30
0.0
 11
-427.5135390083915
 21
35.50409201643993
 31
0.0
  0
LINE
  5
248
330
1F
100
AcDbEntity
  8
4-A
  6
JWW_DASHED1
 62
     4
370
     9
100
AcDbLine
 10
-401.0134593563344
 20
48.50405713920782
 30
0.0
 11
-427.5135390083915
 21
48.50405713920782
 31
0.0
  0
LINE
  5
249
330
1F
100
AcDbEntity
  8
4-A
  6
JWW_CENTER1
 62
     4
370
     9
100
AcDbLine
 10
-401.0134593563344
 20
50.93663379370832
 30
0.0
 11
-401.0134593563344
 21
33.45814079177785
 31
0.0
  0
LINE
  5
24A
330
1F
100
AcDbEntity
  8
4-A
  6
JWW_CENTER1
 62
     4
370
     9
100
AcDbLine
 10
-391.5519148039693
 20
42.00393459758152
 30
0.0
 11
-430.3419797887364
 21
42.00393459758152
 31
0.0
  0
ARC
  5
24B
330
1F
100
AcDbEntity
  8
4-A
  6
JWW_DASHED1
 62
     4
370
     9
100
AcDbCircle
 10
-401.0134593563344
 20
42.00393459758152
 30
0.0
 40
6.499982014586107
100
AcDbArc
 50
270.0
 51
90.0
  0
ARC
  5
24C
330
1F
100
AcDbEntity
  8
4-A
  6
JWW_DASHED1
 62
     4
370
     9
100
AcDbCircle
 10
-401.0134593563344
 20
42.00393459758152
 30
0.0
 40
6.499982014586107
100
AcDbArc
 50
90.0
 51
270.0
  0
TEXT
  5
24D
330
1F
100
AcDbEntity
  8
4-5
  6
Continuous
 62
     2
370
     9
100
AcDbText
 10
-631.013625700703
 20
-60.37656899899238
 30
0.0
 40
12.192
  1
平面図　Ｓ＝１：４
 41
1.111111111111111
  7
ＭＳ ゴシック
100
AcDbText
  0
LINE
  5
24E
330
1F
100
AcDbEntity
  8
4-5
  6
Continuous
 62
     7
370
     9
100
AcDbLine
 10
-638.2136257007032
 20
-40.63256899899238
 30
0.0
 11
-463.8136257007031
 21
-40.63256899899238
 31
0.0
  0
LINE
  5
24F
330
1F
100
AcDbEntity
  8
4-5
  6
Continuous
 62
     7
370
     9
100
AcDbLine
 10
-638.2136257007032
 20
-68.63256899899238
 30
0.0
 11
-463.8136257007031
 21
-68.63256899899238
 31
0.0
  0
LINE
  5
250
330
1F
100
AcDbEntity
  8
4-5
  6
Continuous
 62
     7
370
     9
100
AcDbLine
 10
-638.2136257007032
 20
-40.63256899899238
 30
0.0
 11
-638.2136257007032
 21
-68.63256899899238
 31
0.0
  0
LINE
  5
251
330
1F
100
AcDbEntity
  8
4-5
  6
Continuous
 62
     7
370
     9
100
AcDbLine
 10
-463.8136257007031
 20
-40.63256899899238
 30
0.0
 11
-463.8136257007031
 21
-68.63256899899238
 31
0.0
  0
LINE
  5
252
330
1F
100
AcDbEntity
  8
4-2
  6
Continuous
 62
     7
370
     9
100
AcDbLine
 10
-552.0135769491667
 20
422.5042649886639
 30
0.0
 11
-556.5136617856774
 21
422.5042649886639
 31
0.0
  0
LINE
  5
253
330
1F
100
AcDbEntity
  8
4-2
  6
Continuous
 62
     7
370
     9
100
AcDbLine
 10
-556.5136617856774
 20
422.5042649886639
 30
0.0
 11
-556.5136617856774
 21
420.0042649886639
 31
0.0
  0
LINE
  5
254
330
1F
100
AcDbEntity
  8
4-2
  6
Continuous
 62
     7
370
     9
100
AcDbLine
 10
-556.5136617856774
 20
415.5041801521504
 30
0.0
 11
-556.5136617856774
 21
409.5041457462353
 31
0.0
  0
LINE
  5
255
330
1F
100
AcDbEntity
  8
4-2
  6
Continuous
 62
     7
370
     9
100
AcDbLine
 10
-1150.013576949165
 20
422.5042649886639
 30
0.0
 11
-1145.513492112656
 21
422.5042649886639
 31
0.0
  0
LINE
  5
256
330
1F
100
AcDbEntity
  8
4-2
  6
Continuous
 62
     7
370
     9
100
AcDbLine
 10
-1145.513492112656
 20
422.5042649886639
 30
0.0
 11
-1145.513492112656
 21
420.0042649886639
 31
0.0
  0
LINE
  5
257
330
1F
100
AcDbEntity
  8
4-2
  6
Continuous
 62
     7
370
     9
100
AcDbLine
 10
-1145.513492112656
 20
415.5041801521504
 30
0.0
 11
-1145.513492112656
 21
409.5041457462353
 31
0.0
  0
LINE
  5
258
330
1F
100
AcDbEntity
  8
4-2
  6
Continuous
 62
     7
370
     9
100
AcDbLine
 10
-752.0134945870527
 20
420.0042649886639
 30
0.0
 11
-752.0134945870527
 21
422.5042649886639
 31
0.0
  0
LINE
  5
259
330
1F
100
AcDbEntity
  8
4-2
  6
Continuous
 62
     7
370
     9
100
AcDbLine
 10
-756.5135794235648
 20
420.0042649886639
 30
0.0
 11
-756.5135794235648
 21
422.5042649886639
 31
0.0
  0
LINE
  5
25A
330
1F
100
AcDbEntity
  8
4-2
  6
Continuous
 62
     7
370
     9
100
AcDbLine
 10
-756.5135794235634
 20
422.5042649886639
 30
0.0
 11
-752.0134945870527
 21
422.5042649886639
 31
0.0
  0
LINE
  5
25B
330
1F
100
AcDbEntity
  8
4-2
  6
Continuous
 62
     7
370
     9
100
AcDbLine
 10
-752.0134945870527
 20
409.5041457462353
 30
0.0
 11
-752.0134945870527
 21
415.5041801521504
 31
0.0
  0
LINE
  5
25C
330
1F
100
AcDbEntity
  8
4-2
  6
Continuous
 62
     7
370
     9
100
AcDbLine
 10
-756.5135794235648
 20
409.5041457462353
 30
0.0
 11
-756.5135794235648
 21
415.5041801521504
 31
0.0
  0
LINE
  5
25D
330
1F
100
AcDbEntity
  8
4-2
  6
Continuous
 62
     7
370
     9
100
AcDbLine
 10
-950.01365795625
 20
409.5041457462353
 30
0.0
 11
-950.01365795625
 21
415.5041801521504
 31
0.0
  0
LINE
  5
25E
330
1F
100
AcDbEntity
  8
4-2
  6
Continuous
 62
     7
370
     9
100
AcDbLine
 10
-945.5135731197406
 20
409.5041457462353
 30
0.0
 11
-945.5135731197406
 21
415.5041801521504
 31
0.0
  0
LINE
  5
25F
330
1F
100
AcDbEntity
  8
4-2
  6
Continuous
 62
     7
370
     9
100
AcDbLine
 10
-950.01365795625
 20
422.5042649886639
 30
0.0
 11
-945.5135731197406
 21
422.5042649886639
 31
0.0
  0
LINE
  5
260
330
1F
100
AcDbEntity
  8
4-2
  6
Continuous
 62
     7
370
     9
100
AcDbLine
 10
-950.01365795625
 20
420.0042649886639
 30
0.0
 11
-950.01365795625
 21
422.5042649886639
 31
0.0
  0
LINE
  5
261
330
1F
100
AcDbEntity
  8
4-2
  6
Continuous
 62
     7
370
     9
100
AcDbLine
 10
-945.5135731197406
 20
420.0042649886639
 30
0.0
 11
-945.5135731197406
 21
422.5042649886639
 31
0.0
  0
LINE
  5
262
330
1F
100
AcDbEntity
  8
4-2
  6
Continuous
 62
     7
370
     9
100
AcDbLine
 10
-552.0135769491667
 20
415.5041801521504
 30
0.0
 11
-1150.013576949165
 21
415.5041801521504
 31
0.0
  0
LINE
  5
263
330
1F
100
AcDbEntity
  8
4-2
  6
Continuous
 62
     7
370
     9
100
AcDbLine
 10
-552.0135769491667
 20
409.5041457462353
 30
0.0
 11
-1150.013576949165
 21
409.5041457462353
 31
0.0
  0
LINE
  5
264
330
1F
100
AcDbEntity
  8
4-2
  6
Continuous
 62
     2
370
     9
100
AcDbLine
 10
-552.0135769491667
 20
422.5042649886639
 30
0.0
 11
-1150.013576949165
 21
422.5042649886639
 31
0.0
  0
LINE
  5
265
330
1F
100
AcDbEntity
  8
4-2
  6
Continuous
 62
     7
370
     9
100
AcDbLine
 10
-552.0135769491667
 20
405.0040609097234
 30
0.0
 11
-1150.013576949165
 21
405.0040609097234
 31
0.0
  0
LINE
  5
266
330
1F
100
AcDbEntity
  8
4-2
  6
Continuous
 62
     7
370
     9
100
AcDbLine
 10
-552.0135769491667
 20
420.0042649886639
 30
0.0
 11
-1150.013576949165
 21
420.0042649886639
 31
0.0
  0
LINE
  5
267
330
1F
100
AcDbEntity
  8
4-2
  6
Continuous
 62
     7
370
     9
100
AcDbLine
 10
-1135.513443567317
 20
405.0040609097234
 30
0.0
 11
-1145.513492112656
 21
395.0040123643869
 31
0.0
  0
LINE
  5
268
330
1F
100
AcDbEntity
  8
4-2
  6
JWW_DASHED1
 62
     7
370
     9
100
AcDbLine
 10
-1135.513443567317
 20
405.0040609097234
 30
0.0
 11
-1131.013358730809
 21
409.5041457462353
 31
0.0
  0
LINE
  5
269
330
1F
100
AcDbEntity
  8
4-2
  6
JWW_DASHED1
 62
     7
370
     9
100
AcDbLine
 10
-1145.513492112656
 20
395.0040123643869
 30
0.0
 11
-1150.013576949165
 21
390.5043474686029
 31
0.0
  0
CIRCLE
  5
26A
330
1F
100
AcDbEntity
  8
4-2
  6
Continuous
 62
     7
370
     9
100
AcDbCircle
 10
-1120.013582280905
 20
389.5041434485786
 30
0.0
 40
5.0
  0
LINE
  5
26B
330
1F
100
AcDbEntity
  8
4-2
  6
JWW_CENTER2
 62
     7
370
     9
100
AcDbLine
 10
-1113.013582280905
 20
389.5041434485786
 30
0.0
 11
-1127.013582280904
 21
389.5041434485786
 31
0.0
  0
LINE
  5
26C
330
1F
100
AcDbEntity
  8
4-2
  6
JWW_CENTER2
 62
     7
370
     9
100
AcDbLine
 10
-1120.013582280905
 20
396.5041434485786
 30
0.0
 11
-1120.013582280905
 21
382.5041434485788
 31
0.0
  0
LINE
  5
26D
330
1F
100
AcDbEntity
  8
4-2
  6
Continuous
 62
     7
370
     9
100
AcDbLine
 10
47.98632554775895
 20
422.5042649886639
 30
0.0
 11
43.48624071124823
 21
422.5042649886639
 31
0.0
  0
LINE
  5
26E
330
1F
100
AcDbEntity
  8
4-2
  6
Continuous
 62
     7
370
     9
100
AcDbLine
 10
43.48624071124823
 20
422.5042649886639
 30
0.0
 11
43.48624071124823
 21
420.0042649886639
 31
0.0
  0
LINE
  5
26F
330
1F
100
AcDbEntity
  8
4-2
  6
Continuous
 62
     7
370
     9
100
AcDbLine
 10
43.48624071124823
 20
415.5041801521504
 30
0.0
 11
43.48624071124823
 21
409.5041457462353
 31
0.0
  0
LINE
  5
270
330
1F
100
AcDbEntity
  8
4-2
  6
Continuous
 62
     7
370
     9
100
AcDbLine
 10
-550.0136744522388
 20
422.5042649886639
 30
0.0
 11
-545.5135896157303
 21
422.5042649886639
 31
0.0
  0
LINE
  5
271
330
1F
100
AcDbEntity
  8
4-2
  6
Continuous
 62
     7
370
     9
100
AcDbLine
 10
-545.5135896157303
 20
422.5042649886639
 30
0.0
 11
-545.5135896157303
 21
420.0042649886639
 31
0.0
  0
LINE
  5
272
330
1F
100
AcDbEntity
  8
4-2
  6
Continuous
 62
     7
370
     9
100
AcDbLine
 10
-545.5135896157303
 20
415.5041801521504
 30
0.0
 11
-545.5135896157303
 21
409.5041457462353
 31
0.0
  0
LINE
  5
273
330
1F
100
AcDbEntity
  8
4-2
  6
Continuous
 62
     7
370
     9
100
AcDbLine
 10
-152.0135920901268
 20
420.0042649886639
 30
0.0
 11
-152.0135920901268
 21
422.5042649886639
 31
0.0
  0
LINE
  5
274
330
1F
100
AcDbEntity
  8
4-2
  6
Continuous
 62
     7
370
     9
100
AcDbLine
 10
-156.5136769266396
 20
420.0042649886639
 30
0.0
 11
-156.5136769266396
 21
422.5042649886639
 31
0.0
  0
LINE
  5
275
330
1F
100
AcDbEntity
  8
4-2
  6
Continuous
 62
     7
370
     9
100
AcDbLine
 10
-156.5136769266376
 20
422.5042649886639
 30
0.0
 11
-152.0135920901268
 21
422.5042649886639
 31
0.0
  0
LINE
  5
276
330
1F
100
AcDbEntity
  8
4-2
  6
Continuous
 62
     7
370
     9
100
AcDbLine
 10
-152.0135920901268
 20
409.5041457462353
 30
0.0
 11
-152.0135920901268
 21
415.5041801521504
 31
0.0
  0
LINE
  5
277
330
1F
100
AcDbEntity
  8
4-2
  6
Continuous
 62
     7
370
     9
100
AcDbLine
 10
-156.5136769266396
 20
409.5041457462353
 30
0.0
 11
-156.5136769266396
 21
415.5041801521504
 31
0.0
  0
LINE
  5
278
330
1F
100
AcDbEntity
  8
4-2
  6
Continuous
 62
     7
370
     9
100
AcDbLine
 10
-350.0137554593241
 20
409.5041457462353
 30
0.0
 11
-350.0137554593241
 21
415.5041801521504
 31
0.0
  0
LINE
  5
279
330
1F
100
AcDbEntity
  8
4-2
  6
Continuous
 62
     7
370
     9
100
AcDbLine
 10
-345.5136706228154
 20
409.5041457462353
 30
0.0
 11
-345.5136706228154
 21
415.5041801521504
 31
0.0
  0
LINE
  5
27A
330
1F
100
AcDbEntity
  8
4-2
  6
Continuous
 62
     7
370
     9
100
AcDbLine
 10
-350.0137554593241
 20
422.5042649886639
 30
0.0
 11
-345.5136706228154
 21
422.5042649886639
 31
0.0
  0
LINE
  5
27B
330
1F
100
AcDbEntity
  8
4-2
  6
Continuous
 62
     7
370
     9
100
AcDbLine
 10
-350.0137554593241
 20
420.0042649886639
 30
0.0
 11
-350.0137554593241
 21
422.5042649886639
 31
0.0
  0
LINE
  5
27C
330
1F
100
AcDbEntity
  8
4-2
  6
Continuous
 62
     7
370
     9
100
AcDbLine
 10
-345.5136706228154
 20
420.0042649886639
 30
0.0
 11
-345.5136706228154
 21
422.5042649886639
 31
0.0
  0
LINE
  5
27D
330
1F
100
AcDbEntity
  8
4-2
  6
Continuous
 62
     7
370
     9
100
AcDbLine
 10
47.98632554775895
 20
415.5041801521504
 30
0.0
 11
-550.0136744522388
 21
415.5041801521504
 31
0.0
  0
LINE
  5
27E
330
1F
100
AcDbEntity
  8
4-2
  6
Continuous
 62
     7
370
     9
100
AcDbLine
 10
47.98632554775895
 20
409.5041457462353
 30
0.0
 11
-550.0136744522388
 21
409.5041457462353
 31
0.0
  0
LINE
  5
27F
330
1F
100
AcDbEntity
  8
4-2
  6
Continuous
 62
     2
370
     9
100
AcDbLine
 10
47.98632554775895
 20
422.5042649886639
 30
0.0
 11
-550.0136744522388
 21
422.5042649886639
 31
0.0
  0
LINE
  5
280
330
1F
100
AcDbEntity
  8
4-2
  6
Continuous
 62
     7
370
     9
100
AcDbLine
 10
47.98632554775895
 20
405.0040609097234
 30
0.0
 11
-550.0136744522388
 21
405.0040609097234
 31
0.0
  0
LINE
  5
281
330
1F
100
AcDbEntity
  8
4-2
  6
Continuous
 62
     7
370
     9
100
AcDbLine
 10
47.98632554775895
 20
420.0042649886639
 30
0.0
 11
-550.0136744522388
 21
420.0042649886639
 31
0.0
  0
LINE
  5
282
330
1F
100
AcDbEntity
  8
4-2
  6
Continuous
 62
     7
370
     9
100
AcDbLine
 10
-535.513541070392
 20
405.0040609097234
 30
0.0
 11
-545.5135896157303
 21
395.0040123643869
 31
0.0
  0
LINE
  5
283
330
1F
100
AcDbEntity
  8
4-2
  6
JWW_DASHED1
 62
     7
370
     9
100
AcDbLine
 10
-535.513541070392
 20
405.0040609097234
 30
0.0
 11
-531.0134562338831
 21
409.5041457462353
 31
0.0
  0
LINE
  5
284
330
1F
100
AcDbEntity
  8
4-2
  6
JWW_DASHED1
 62
     7
370
     9
100
AcDbLine
 10
-545.5135896157303
 20
395.0040123643869
 30
0.0
 11
-550.0136744522388
 21
390.5043474686029
 31
0.0
  0
CIRCLE
  5
285
330
1F
100
AcDbEntity
  8
4-2
  6
Continuous
 62
     7
370
     9
100
AcDbCircle
 10
-520.0136797839791
 20
389.5041434485786
 30
0.0
 40
5.0
  0
LINE
  5
286
330
1F
100
AcDbEntity
  8
4-2
  6
JWW_CENTER2
 62
     7
370
     9
100
AcDbLine
 10
-513.0136797839787
 20
389.5041434485786
 30
0.0
 11
-527.0136797839791
 21
389.5041434485786
 31
0.0
  0
LINE
  5
287
330
1F
100
AcDbEntity
  8
4-2
  6
JWW_CENTER2
 62
     7
370
     9
100
AcDbLine
 10
-520.0136797839791
 20
396.5041434485786
 30
0.0
 11
-520.0136797839791
 21
382.5041434485788
 31
0.0
  0
LINE
  5
288
330
1F
100
AcDbEntity
  8
4-2
  6
JWW_CENTER1
 62
     3
370
     9
100
AcDbLine
 10
147.986325547759
 20
422.5042305827424
 30
0.0
 11
49.98642305083513
 21
422.5042305827424
 31
0.0
  0
LINE
  5
289
330
1F
100
AcDbEntity
  8
4-1
  6
Continuous
 62
     2
370
     9
100
AcDbLine
 10
147.986325547759
 20
372.0039510935708
 30
0.0
 11
47.98642305083536
 21
372.0039510935708
 31
0.0
  0
LINE
  5
28A
330
1F
100
AcDbEntity
  8
4-1
  6
JWW_DASHED3
 62
     2
370
     9
100
AcDbLine
 10
47.98642305083536
 20
372.0039510935708
 30
0.0
 11
-1150.013576949165
 21
372.0039510935708
 31
0.0
  0
LINE
  5
28B
330
1F
100
AcDbEntity
  8
4-2
  6
JWW_CENTER1
 62
     3
370
     9
100
AcDbLine
 10
-1250.013479446089
 20
422.5042305827424
 30
0.0
 11
-1152.013576949165
 21
422.5042305827424
 31
0.0
  0
LINE
  5
28C
330
1F
100
AcDbEntity
  8
4-1
  6
Continuous
 62
     2
370
     9
100
AcDbLine
 10
-1150.013576949165
 20
372.0039510935708
 30
0.0
 11
-1250.013576949165
 21
372.0039510935708
 31
0.0
  0
LWPOLYLINE
  5
28D
330
1F
100
AcDbEntity
  8
4-4
  6
Continuous
 62
     7
370
     9
100
AcDbPolyline
 90
        4
 70
     1
 43
0.8
 10
-1150.613576949165
 20
502.0039634655616
 42
0.4142135623731
 10
-1151.013576949165
 20
502.4039634655616
 42
0.4142135623731
 10
-1151.413576949165
 20
502.0039634655616
 42
0.4142135623731
 10
-1151.013576949165
 20
501.6039634655616
 42
0.4142135623731
  0
LINE
  5
28E
330
1F
100
AcDbEntity
  8
4-4
  6
Continuous
 62
     7
370
     9
100
AcDbLine
 10
-1151.013576949165
 20
552.0039634655616
 30
0.0
 11
147.986325547759
 21
552.0039634655616
 31
0.0
  0
LWPOLYLINE
  5
28F
330
1F
100
AcDbEntity
  8
4-4
  6
Continuous
 62
     7
370
     9
100
AcDbPolyline
 90
        4
 70
     1
 43
0.8
 10
-1150.613576949165
 20
552.0039634655616
 42
0.4142135623731
 10
-1151.013576949165
 20
552.4039634655616
 42
0.4142135623731
 10
-1151.413576949165
 20
552.0039634655616
 42
0.4142135623731
 10
-1151.013576949165
 20
551.6039634655616
 42
0.4142135623731
  0
LINE
  5
290
330
1F
100
AcDbEntity
  8
4-4
  6
Continuous
 62
     7
370
     9
100
AcDbLine
 10
-1151.013576949165
 20
553.2039634655616
 30
0.0
 11
-1151.013576949165
 21
440.0039634655616
 31
0.0
  0
TEXT
  5
291
330
1F
100
AcDbEntity
  8
4-4
  6
Continuous
 62
     2
370
   211
100
AcDbText
 10
112.986325547759
 20
556.6599634655614
 30
0.0
 40
12.192
  1
2000
 41
1.09375
  7
ＭＳ ゴシック
100
AcDbText
  0
LWPOLYLINE
  5
292
330
1F
100
AcDbEntity
  8
4-4
  6
Continuous
 62
     7
370
     9
100
AcDbPolyline
 90
        4
 70
     1
 43
0.8
 10
-900.6135769491649
 20
502.0039634655616
 42
0.4142135623731
 10
-901.0135769491649
 20
502.4039634655616
 42
0.4142135623731
 10
-901.4135769491648
 20
502.0039634655616
 42
0.4142135623731
 10
-901.0135769491649
 20
501.6039634655616
 42
0.4142135623731
  0
LINE
  5
293
330
1F
100
AcDbEntity
  8
4-4
  6
Continuous
 62
     7
370
     9
100
AcDbLine
 10
-901.0135769491649
 20
503.2039634655616
 30
0.0
 11
-901.0135769491649
 21
418.5500305156265
 31
0.0
  0
LINE
  5
294
330
1F
100
AcDbEntity
  8
4-4
  6
Continuous
 62
     7
370
     9
100
AcDbLine
 10
-901.0135769491649
 20
502.0039634655616
 30
0.0
 11
-401.0134593563344
 21
502.0039634655616
 31
0.0
  0
LWPOLYLINE
  5
295
330
1F
100
AcDbEntity
  8
4-4
  6
Continuous
 62
     7
370
     9
100
AcDbPolyline
 90
        4
 70
     1
 43
0.8
 10
-400.6134593563344
 20
502.0039634655616
 42
0.4142135623731
 10
-401.0134593563344
 20
502.4039634655616
 42
0.4142135623731
 10
-401.4134593563343
 20
502.0039634655616
 42
0.4142135623731
 10
-401.0134593563344
 20
501.6039634655616
 42
0.4142135623731
  0
LINE
  5
296
330
1F
100
AcDbEntity
  8
4-4
  6
Continuous
 62
     7
370
     9
100
AcDbLine
 10
-401.0134593563344
 20
503.2039634655616
 30
0.0
 11
-401.0134593563344
 21
418.5500305156265
 31
0.0
  0
TEXT
  5
297
330
1F
100
AcDbEntity
  8
4-4
  6
Continuous
 62
     2
370
   211
100
AcDbText
 10
-664.0135181527498
 20
506.6599634655614
 30
0.0
 40
12.192
  1
500
 41
1.083333333333333
  7
ＭＳ ゴシック
100
AcDbText
  0
LINE
  5
298
330
1F
100
AcDbEntity
  8
4-4
  6
Continuous
 62
     7
370
     9
100
AcDbLine
 10
-401.0134593563344
 20
502.0039634655616
 30
0.0
 11
98.98642399346318
 21
502.0039634655616
 31
0.0
  0
LWPOLYLINE
  5
299
330
1F
100
AcDbEntity
  8
4-4
  6
Continuous
 62
     7
370
     9
100
AcDbPolyline
 90
        4
 70
     1
 43
0.8
 10
99.38642399346318
 20
502.0039634655616
 42
0.4142135623731
 10
98.98642399346318
 20
502.4039634655616
 42
0.4142135623731
 10
98.58642399346317
 20
502.0039634655616
 42
0.4142135623731
 10
98.98642399346318
 20
501.6039634655616
 42
0.4142135623731
  0
LINE
  5
29A
330
1F
100
AcDbEntity
  8
4-4
  6
Continuous
 62
     7
370
     9
100
AcDbLine
 10
98.98642399346318
 20
503.2039634655616
 30
0.0
 11
98.98642399346318
 21
418.5500305156265
 31
0.0
  0
TEXT
  5
29B
330
1F
100
AcDbEntity
  8
4-4
  6
Continuous
 62
     2
370
   211
100
AcDbText
 10
-164.0135176814358
 20
506.6599634655614
 30
0.0
 40
12.192
  1
500
 41
1.083333333333333
  7
ＭＳ ゴシック
100
AcDbText
  0
LINE
  5
29C
330
1F
100
AcDbEntity
  8
4-4
  6
Continuous
 62
     7
370
     9
100
AcDbLine
 10
98.98642399346318
 20
502.0039634655616
 30
0.0
 11
147.986325547759
 21
502.0039634655616
 31
0.0
  0
LINE
  5
29D
330
1F
100
AcDbEntity
  8
4-4
  6
Continuous
 62
     7
370
     9
100
AcDbLine
 10
-1151.013576949165
 20
502.0039634655616
 30
0.0
 11
-901.0135769491649
 21
502.0039634655616
 31
0.0
  0
TEXT
  5
29E
330
1F
100
AcDbEntity
  8
4-4
  6
Continuous
 62
     2
370
   211
100
AcDbText
 10
-1039.013576949165
 20
506.6599634655614
 30
0.0
 40
12.192
  1
250
 41
1.083333333333333
  7
ＭＳ ゴシック
100
AcDbText
  0
TEXT
  5
29F
330
1F
100
AcDbEntity
  8
4-5
  6
Continuous
 62
     2
370
     9
100
AcDbText
 10
-1082.680228573545
 20
460.0234088866658
 30
0.0
 40
12.192
  1
φ10
 41
1.09375
  7
ＭＳ ゴシック
100
AcDbText
  0
LINE
  5
2A0
330
1F
100
AcDbEntity
  8
4-5
  6
Continuous
 62
     7
370
     9
100
AcDbLine
 10
-1082.680228573545
 20
454.1674088866657
 30
0.0
 11
-1047.680228573545
 21
454.1674088866657
 31
0.0
  0
LINE
  5
2A1
330
1F
100
AcDbEntity
  8
4-5
  6
Continuous
 62
     7
370
     9
100
AcDbLine
 10
-1082.680228573545
 20
454.1674088866657
 30
0.0
 11
-1117.513582280905
 21
393.8342704675008
 31
0.0
  0
LINE
  5
2A2
330
1F
100
AcDbEntity
  8
4-5
  6
Continuous
 62
     7
370
     9
100
AcDbLine
 10
-1117.513582280905
 20
393.8342704675008
 30
0.0
 11
-1113.686747957254
 21
403.0730657926138
 31
0.0
  0
LINE
  5
2A3
330
1F
100
AcDbEntity
  8
4-5
  6
Continuous
 62
     7
370
     9
100
AcDbLine
 10
-1117.513582280905
 20
393.8342704675008
 30
0.0
 11
-1111.425967990817
 21
401.7678038704132
 31
0.0
  0
LINE
  5
2A4
330
1F
100
AcDbEntity
  8
4-1
  6
Continuous
 62
     2
370
     9
100
AcDbLine
 10
147.986325547759
 20
426.0040426463052
 30
0.0
 11
-1250.013576949165
 21
426.0040426463052
 31
0.0
  0
LINE
  5
2A5
330
1F
100
AcDbEntity
  8
4-1
  6
Continuous
 62
     2
370
     9
100
AcDbLine
 10
147.986325547759
 20
432.0039634655616
 30
0.0
 11
-1250.013576949165
 21
432.0039634655616
 31
0.0
  0
LINE
  5
2A6
330
1F
100
AcDbEntity
  8
4-1
  6
Continuous
 62
     2
370
     9
100
AcDbLine
 10
-1151.013576949165
 20
372.0039510935708
 30
0.0
 11
-1151.013576949165
 21
432.0039634655616
 31
0.0
  0
LINE
  5
2A7
330
1F
100
AcDbEntity
  8
4-0
  6
Continuous
 62
     4
370
     9
100
AcDbLine
 10
-360.0887195666028
 20
472.7652550972236
 30
0.0
 11
-362.0887195666028
 21
472.7652550972236
 31
0.0
  0
LINE
  5
2A8
330
1F
100
AcDbEntity
  8
4-0
  6
Continuous
 62
     4
370
     9
100
AcDbLine
 10
-360.0887195666028
 20
452.7652550972241
 30
0.0
 11
-360.0887195666028
 21
472.7652550972236
 31
0.0
  0
LINE
  5
2A9
330
1F
100
AcDbEntity
  8
4-0
  6
Continuous
 62
     4
370
     9
100
AcDbLine
 10
-362.0887195666028
 20
472.7652550972236
 30
0.0
 11
-362.0887195666028
 21
452.7652550972241
 31
0.0
  0
LINE
  5
2AA
330
1F
100
AcDbEntity
  8
4-0
  6
Continuous
 62
     4
370
     9
100
AcDbLine
 10
-362.0887195666028
 20
452.7652550972241
 30
0.0
 11
-360.0887195666028
 21
452.7652550972241
 31
0.0
  0
LINE
  5
2AB
330
1F
100
AcDbEntity
  8
4-0
  6
Continuous
 62
     4
370
     9
100
AcDbLine
 10
-334.7134191143939
 20
462.5313272135152
 30
0.0
 11
-361.088719566603
 21
462.5313272135152
 31
0.0
  0
LINE
  5
2AC
330
1F
100
AcDbEntity
  8
4-0
  6
Continuous
 62
     4
370
     9
100
AcDbLine
 10
-361.088719566603
 20
462.5313272135152
 30
0.0
 11
-351.1742709528648
 21
463.8365891357157
 31
0.0
  0
LINE
  5
2AD
330
1F
100
AcDbEntity
  8
4-0
  6
Continuous
 62
     4
370
     9
100
AcDbLine
 10
-361.088719566603
 20
462.5313272135152
 30
0.0
 11
-351.1742709528648
 21
461.2260652913146
 31
0.0
  0
TEXT
  5
2AE
330
1F
100
AcDbEntity
  8
4-0
  6
Continuous
 62
     2
370
     9
100
AcDbText
 10
-331.0180709148128
 20
457.196678006275
 30
0.0
 40
12.19199999999983
  1
Ｂ
 41
1.000000000000014
  7
ＭＳ ゴシック
100
AcDbText
  0
LINE
  5
2AF
330
1F
100
AcDbEntity
  8
4-A
  6
JWW_DASHED1
 62
     4
370
     9
100
AcDbLine
 10
-874.5134972971073
 20
395.5041141681966
 30
0.0
 11
-874.5134972971073
 21
408.5040792909647
 31
0.0
  0
LINE
  5
2B0
330
1F
100
AcDbEntity
  8
4-A
  6
JWW_DASHED1
 62
     4
370
     9
100
AcDbLine
 10
-901.0135769491649
 20
408.5040792909647
 30
0.0
 11
-874.5134972971073
 21
408.5040792909647
 31
0.0
  0
LINE
  5
2B1
330
1F
100
AcDbEntity
  8
4-A
  6
JWW_DASHED1
 62
     4
370
     9
100
AcDbLine
 10
-901.0135769491649
 20
395.5041141681966
 30
0.0
 11
-874.5134972971073
 21
395.5041141681966
 31
0.0
  0
LINE
  5
2B2
330
1F
100
AcDbEntity
  8
4-A
  6
JWW_CENTER1
 62
     4
370
     9
100
AcDbLine
 10
-901.0135769491649
 20
393.0715375136963
 30
0.0
 11
-901.0135769491649
 21
410.5500305156265
 31
0.0
  0
LINE
  5
2B3
330
1F
100
AcDbEntity
  8
4-A
  6
JWW_CENTER1
 62
     4
370
     9
100
AcDbLine
 10
-910.4751215015299
 20
402.0042367098231
 30
0.0
 11
-871.6850565167624
 21
402.0042367098231
 31
0.0
  0
LINE
  5
2B4
330
1F
100
AcDbEntity
  8
4-A
  6
JWW_DASHED1
 62
     4
370
     9
100
AcDbLine
 10
-374.5133797042772
 20
395.5041141681966
 30
0.0
 11
-374.5133797042772
 21
408.5040792909647
 31
0.0
  0
LINE
  5
2B5
330
1F
100
AcDbEntity
  8
4-A
  6
JWW_DASHED1
 62
     4
370
     9
100
AcDbLine
 10
-401.0134593563344
 20
408.5040792909647
 30
0.0
 11
-374.5133797042772
 21
408.5040792909647
 31
0.0
  0
LINE
  5
2B6
330
1F
100
AcDbEntity
  8
4-A
  6
JWW_DASHED1
 62
     4
370
     9
100
AcDbLine
 10
-401.0134593563344
 20
395.5041141681966
 30
0.0
 11
-374.5133797042772
 21
395.5041141681966
 31
0.0
  0
LINE
  5
2B7
330
1F
100
AcDbEntity
  8
4-A
  6
JWW_CENTER1
 62
     4
370
     9
100
AcDbLine
 10
-401.0134593563344
 20
393.0715375136963
 30
0.0
 11
-401.0134593563344
 21
410.5500305156265
 31
0.0
  0
LINE
  5
2B8
330
1F
100
AcDbEntity
  8
4-A
  6
JWW_CENTER1
 62
     4
370
     9
100
AcDbLine
 10
-410.4750039086994
 20
402.0042367098231
 30
0.0
 11
-371.6849389239328
 21
402.0042367098231
 31
0.0
  0
ARC
  5
2B9
330
1F
100
AcDbEntity
  8
4-A
  6
JWW_DASHED1
 62
     4
370
     9
100
AcDbCircle
 10
-901.0135769491649
 20
402.0042367098231
 30
0.0
 40
6.499982014586107
100
AcDbArc
 50
90.0
 51
270.0
  0
ARC
  5
2BA
330
1F
100
AcDbEntity
  8
4-A
  6
JWW_DASHED1
 62
     4
370
     9
100
AcDbCircle
 10
-901.0135769491649
 20
402.0042367098231
 30
0.0
 40
6.499982014586107
100
AcDbArc
 50
270.0
 51
90.0
  0
ARC
  5
2BB
330
1F
100
AcDbEntity
  8
4-A
  6
JWW_DASHED1
 62
     4
370
     9
100
AcDbCircle
 10
-401.0134593563344
 20
402.0042367098231
 30
0.0
 40
6.499982014586107
100
AcDbArc
 50
90.0
 51
270.0
  0
ARC
  5
2BC
330
1F
100
AcDbEntity
  8
4-A
  6
JWW_DASHED1
 62
     4
370
     9
100
AcDbCircle
 10
-401.0134593563344
 20
402.0042367098231
 30
0.0
 40
6.499982014586107
100
AcDbArc
 50
270.0
 51
90.0
  0
LINE
  5
2BD
330
1F
100
AcDbEntity
  8
4-A
  6
JWW_DASHED1
 62
     4
370
     9
100
AcDbLine
 10
125.4865036455203
 20
395.5041141681966
 30
0.0
 11
125.4865036455203
 21
408.5040792909647
 31
0.0
  0
LINE
  5
2BE
330
1F
100
AcDbEntity
  8
4-A
  6
JWW_DASHED1
 62
     4
370
     9
100
AcDbLine
 10
98.98642399346318
 20
408.5040792909647
 30
0.0
 11
125.4865036455203
 21
408.5040792909647
 31
0.0
  0
LINE
  5
2BF
330
1F
100
AcDbEntity
  8
4-A
  6
JWW_DASHED1
 62
     4
370
     9
100
AcDbLine
 10
98.98642399346318
 20
395.5041141681966
 30
0.0
 11
125.4865036455203
 21
395.5041141681966
 31
0.0
  0
LINE
  5
2C0
330
1F
100
AcDbEntity
  8
4-A
  6
JWW_CENTER1
 62
     4
370
     9
100
AcDbLine
 10
98.98642399346318
 20
393.0715375136963
 30
0.0
 11
98.98642399346318
 21
410.5500305156265
 31
0.0
  0
LINE
  5
2C1
330
1F
100
AcDbEntity
  8
4-A
  6
JWW_CENTER1
 62
     4
370
     9
100
AcDbLine
 10
89.52487944109816
 20
402.0042367098231
 30
0.0
 11
128.3149444258652
 21
402.0042367098231
 31
0.0
  0
ARC
  5
2C2
330
1F
100
AcDbEntity
  8
4-A
  6
JWW_DASHED1
 62
     4
370
     9
100
AcDbCircle
 10
98.98642399346318
 20
402.0042367098231
 30
0.0
 40
6.499982014586107
100
AcDbArc
 50
90.0
 51
270.0
  0
ARC
  5
2C3
330
1F
100
AcDbEntity
  8
4-A
  6
JWW_DASHED1
 62
     4
370
     9
100
AcDbCircle
 10
98.98642399346318
 20
402.0042367098231
 30
0.0
 40
6.499982014586107
100
AcDbArc
 50
270.0
 51
90.0
  0
LINE
  5
2C4
330
1F
100
AcDbEntity
  8
4-9
  6
JWW_DASHED1
 62
    30
370
     5
100
AcDbLine
 10
-531.0136744522388
 20
418.004264988662
 30
0.0
 11
-550.0136744522388
 21
418.004264988662
 31
0.0
  0
LINE
  5
2C5
330
1F
100
AcDbEntity
  8
4-9
  6
JWW_DASHED1
 62
    30
370
     5
100
AcDbLine
 10
-531.0136744522388
 20
415.5041801521513
 30
0.0
 11
-531.0136744522388
 21
418.004264988662
 31
0.0
  0
LINE
  5
2C6
330
1F
100
AcDbEntity
  8
4-9
  6
Continuous
 62
    30
370
     5
100
AcDbLine
 10
-531.0136744522388
 20
415.5041801521513
 30
0.0
 11
-531.0136744522388
 21
409.504145746236
 31
0.0
  0
LINE
  5
2C7
330
1F
100
AcDbEntity
  8
4-9
  6
JWW_DASHED1
 62
    30
370
     5
100
AcDbLine
 10
-357.2637130410754
 20
418.004264988662
 30
0.0
 11
-338.2637130410754
 21
418.004264988662
 31
0.0
  0
LINE
  5
2C8
330
1F
100
AcDbEntity
  8
4-9
  6
JWW_DASHED1
 62
    30
370
     5
100
AcDbLine
 10
-357.2637130410754
 20
418.004264988662
 30
0.0
 11
-357.2637130410754
 21
415.5041801521504
 31
0.0
  0
LINE
  5
2C9
330
1F
100
AcDbEntity
  8
4-9
  6
JWW_DASHED1
 62
    30
370
     5
100
AcDbLine
 10
-338.2637130410754
 20
418.004264988662
 30
0.0
 11
-338.2637130410754
 21
415.5041801521504
 31
0.0
  0
LINE
  5
2CA
330
1F
100
AcDbEntity
  8
4-9
  6
Continuous
 62
    30
370
     5
100
AcDbLine
 10
-338.2637130410754
 20
415.5041801521504
 30
0.0
 11
-338.2637130410754
 21
409.5041457462353
 31
0.0
  0
LINE
  5
2CB
330
1F
100
AcDbEntity
  8
4-9
  6
Continuous
 62
    30
370
     5
100
AcDbLine
 10
-357.2637130410754
 20
415.5041801521504
 30
0.0
 11
-357.2637130410754
 21
409.5041457462353
 31
0.0
  0
LINE
  5
2CC
330
1F
100
AcDbEntity
  8
4-9
  6
JWW_DASHED1
 62
    30
370
     5
100
AcDbLine
 10
-163.7636358634105
 20
418.004264988662
 30
0.0
 11
-144.7636358634105
 21
418.004264988662
 31
0.0
  0
LINE
  5
2CD
330
1F
100
AcDbEntity
  8
4-9
  6
JWW_DASHED1
 62
    30
370
     5
100
AcDbLine
 10
-163.7636358634105
 20
418.004264988662
 30
0.0
 11
-163.7636358634105
 21
415.5041801521504
 31
0.0
  0
LINE
  5
2CE
330
1F
100
AcDbEntity
  8
4-9
  6
JWW_DASHED1
 62
    30
370
     5
100
AcDbLine
 10
-144.7636358634105
 20
418.004264988662
 30
0.0
 11
-144.7636358634105
 21
415.5041801521504
 31
0.0
  0
LINE
  5
2CF
330
1F
100
AcDbEntity
  8
4-9
  6
Continuous
 62
    30
370
     5
100
AcDbLine
 10
-144.7636358634105
 20
415.5041801521504
 30
0.0
 11
-144.7636358634105
 21
409.5041457462353
 31
0.0
  0
LINE
  5
2D0
330
1F
100
AcDbEntity
  8
4-9
  6
Continuous
 62
    30
370
     5
100
AcDbLine
 10
-163.7636358634105
 20
415.5041801521504
 30
0.0
 11
-163.7636358634105
 21
409.5041457462353
 31
0.0
  0
LINE
  5
2D1
330
1F
100
AcDbEntity
  8
4-9
  6
JWW_DASHED1
 62
    30
370
     5
100
AcDbLine
 10
28.98632554775281
 20
418.004264988662
 30
0.0
 11
47.98632554775281
 21
418.004264988662
 31
0.0
  0
LINE
  5
2D2
330
1F
100
AcDbEntity
  8
4-9
  6
JWW_DASHED1
 62
    30
370
     5
100
AcDbLine
 10
28.98632554775281
 20
415.5041801521513
 30
0.0
 11
28.98632554775281
 21
418.004264988662
 31
0.0
  0
LINE
  5
2D3
330
1F
100
AcDbEntity
  8
4-9
  6
Continuous
 62
    30
370
     5
100
AcDbLine
 10
28.98632554775281
 20
415.5041801521513
 30
0.0
 11
28.98632554775281
 21
409.504145746236
 31
0.0
  0
LINE
  5
2D4
330
1F
100
AcDbEntity
  8
4-9
  6
JWW_DASHED1
 62
    30
370
     5
100
AcDbLine
 10
-1131.013576949164
 20
418.004264988662
 30
0.0
 11
-1150.013576949164
 21
418.004264988662
 31
0.0
  0
LINE
  5
2D5
330
1F
100
AcDbEntity
  8
4-9
  6
JWW_DASHED1
 62
    30
370
     5
100
AcDbLine
 10
-1131.013576949164
 20
415.5041801521513
 30
0.0
 11
-1131.013576949164
 21
418.004264988662
 31
0.0
  0
LINE
  5
2D6
330
1F
100
AcDbEntity
  8
4-9
  6
Continuous
 62
    30
370
     5
100
AcDbLine
 10
-1131.013576949164
 20
415.5041801521513
 30
0.0
 11
-1131.013576949164
 21
409.504145746236
 31
0.0
  0
LINE
  5
2D7
330
1F
100
AcDbEntity
  8
4-9
  6
JWW_DASHED1
 62
    30
370
     5
100
AcDbLine
 10
-957.2636155380011
 20
418.004264988662
 30
0.0
 11
-938.2636155380011
 21
418.004264988662
 31
0.0
  0
LINE
  5
2D8
330
1F
100
AcDbEntity
  8
4-9
  6
JWW_DASHED1
 62
    30
370
     5
100
AcDbLine
 10
-957.2636155380011
 20
418.004264988662
 30
0.0
 11
-957.2636155380011
 21
415.5041801521504
 31
0.0
  0
LINE
  5
2D9
330
1F
100
AcDbEntity
  8
4-9
  6
JWW_DASHED1
 62
    30
370
     5
100
AcDbLine
 10
-938.2636155380011
 20
418.004264988662
 30
0.0
 11
-938.2636155380011
 21
415.5041801521504
 31
0.0
  0
LINE
  5
2DA
330
1F
100
AcDbEntity
  8
4-9
  6
Continuous
 62
    30
370
     5
100
AcDbLine
 10
-938.2636155380011
 20
415.5041801521504
 30
0.0
 11
-938.2636155380011
 21
409.5041457462353
 31
0.0
  0
LINE
  5
2DB
330
1F
100
AcDbEntity
  8
4-9
  6
Continuous
 62
    30
370
     5
100
AcDbLine
 10
-957.2636155380011
 20
415.5041801521504
 30
0.0
 11
-957.2636155380011
 21
409.5041457462353
 31
0.0
  0
LINE
  5
2DC
330
1F
100
AcDbEntity
  8
4-9
  6
JWW_DASHED1
 62
    30
370
     5
100
AcDbLine
 10
-763.7635383603362
 20
418.004264988662
 30
0.0
 11
-744.7635383603362
 21
418.004264988662
 31
0.0
  0
LINE
  5
2DD
330
1F
100
AcDbEntity
  8
4-9
  6
JWW_DASHED1
 62
    30
370
     5
100
AcDbLine
 10
-763.7635383603362
 20
418.004264988662
 30
0.0
 11
-763.7635383603362
 21
415.5041801521504
 31
0.0
  0
LINE
  5
2DE
330
1F
100
AcDbEntity
  8
4-9
  6
JWW_DASHED1
 62
    30
370
     5
100
AcDbLine
 10
-744.7635383603362
 20
418.004264988662
 30
0.0
 11
-744.7635383603362
 21
415.5041801521504
 31
0.0
  0
LINE
  5
2DF
330
1F
100
AcDbEntity
  8
4-9
  6
Continuous
 62
    30
370
     5
100
AcDbLine
 10
-744.7635383603362
 20
415.5041801521504
 30
0.0
 11
-744.7635383603362
 21
409.5041457462353
 31
0.0
  0
LINE
  5
2E0
330
1F
100
AcDbEntity
  8
4-9
  6
Continuous
 62
    30
370
     5
100
AcDbLine
 10
-763.7635383603362
 20
415.5041801521504
 30
0.0
 11
-763.7635383603362
 21
409.5041457462353
 31
0.0
  0
LINE
  5
2E1
330
1F
100
AcDbEntity
  8
4-9
  6
JWW_DASHED1
 62
    30
370
     5
100
AcDbLine
 10
-571.0135769491728
 20
418.004264988662
 30
0.0
 11
-552.0135769491728
 21
418.004264988662
 31
0.0
  0
LINE
  5
2E2
330
1F
100
AcDbEntity
  8
4-9
  6
JWW_DASHED1
 62
    30
370
     5
100
AcDbLine
 10
-571.0135769491728
 20
415.5041801521513
 30
0.0
 11
-571.0135769491728
 21
418.004264988662
 31
0.0
  0
LINE
  5
2E3
330
1F
100
AcDbEntity
  8
4-9
  6
Continuous
 62
    30
370
     5
100
AcDbLine
 10
-571.0135769491728
 20
415.5041801521513
 30
0.0
 11
-571.0135769491728
 21
409.504145746236
 31
0.0
  0
LINE
  5
2E4
330
1F
100
AcDbEntity
  8
4-2
  6
JWW_CENTER1
 62
     3
370
     9
100
AcDbLine
 10
49.98642305083513
 20
422.5042305827424
 30
0.0
 11
49.98642305083513
 21
21.50375408434275
 31
0.0
  0
LINE
  5
2E5
330
1F
100
AcDbEntity
  8
4-2
  6
Continuous
 62
     7
370
     9
100
AcDbLine
 10
-552.0135769491667
 20
21.50375408434275
 30
0.0
 11
-552.0135769491667
 21
422.5042649886639
 31
0.0
  0
LINE
  5
2E6
330
1F
100
AcDbEntity
  8
4-2
  6
Continuous
 62
     7
370
     9
100
AcDbLine
 10
-1150.013576949165
 20
422.5042649886639
 30
0.0
 11
-1150.013576949165
 21
21.50375408434275
 31
0.0
  0
LINE
  5
2E7
330
1F
100
AcDbEntity
  8
4-2
  6
Continuous
 62
     7
370
     9
100
AcDbLine
 10
-556.5136617856774
 20
26.00375408434343
 30
0.0
 11
-556.5136617856774
 21
405.0040609097234
 31
0.0
  0
LINE
  5
2E8
330
1F
100
AcDbEntity
  8
4-2
  6
Continuous
 62
     7
370
     9
100
AcDbLine
 10
-1145.513492112656
 20
405.0040609097234
 30
0.0
 11
-1145.513492112656
 21
26.00375408434343
 31
0.0
  0
LINE
  5
2E9
330
1F
100
AcDbEntity
  8
4-2
  6
Continuous
 62
     7
370
     9
100
AcDbLine
 10
47.98632554775895
 20
21.50375408434275
 30
0.0
 11
47.98632554775895
 21
422.5042649886639
 31
0.0
  0
LINE
  5
2EA
330
1F
100
AcDbEntity
  8
4-2
  6
Continuous
 62
     7
370
     9
100
AcDbLine
 10
-550.0136744522388
 20
422.5042649886639
 30
0.0
 11
-550.0136744522388
 21
21.50375408434275
 31
0.0
  0
LINE
  5
2EB
330
1F
100
AcDbEntity
  8
4-2
  6
Continuous
 62
     7
370
     9
100
AcDbLine
 10
43.48624071124823
 20
26.00375408434343
 30
0.0
 11
43.48624071124823
 21
405.0040609097234
 31
0.0
  0
LINE
  5
2EC
330
1F
100
AcDbEntity
  8
4-2
  6
Continuous
 62
     7
370
     9
100
AcDbLine
 10
-545.5135896157303
 20
405.0040609097234
 30
0.0
 11
-545.5135896157303
 21
26.00375408434343
 31
0.0
  0
LINE
  5
2ED
330
1F
100
AcDbEntity
  8
4-2
  6
JWW_CENTER1
 62
     3
370
     9
100
AcDbLine
 10
-1152.013576949165
 20
422.5042305827424
 30
0.0
 11
-1152.013576949165
 21
21.50375408434275
 31
0.0
  0
LINE
  5
2EE
330
1F
100
AcDbEntity
  8
4-0
  6
JWW_CENTER2
 62
     7
370
     9
100
AcDbLine
 10
-361.0887195666032
 20
452.7652550972243
 30
0.0
 11
-361.0887195666032
 21
-8.757394150054324
 31
0.0
  0
LINE
  5
2EF
330
1F
100
AcDbEntity
  8
4-9
  6
JWW_DASHED1
 62
    30
370
     5
100
AcDbLine
 10
-144.7636358634105
 20
409.5041457462353
 30
0.0
 11
-144.7636358634105
 21
26.00375408434343
 31
0.0
  0
LINE
  5
2F0
330
1F
100
AcDbEntity
  8
4-9
  6
JWW_DASHED1
 62
    30
370
     5
100
AcDbLine
 10
-163.7636358634105
 20
26.00375408434343
 30
0.0
 11
-163.7636358634105
 21
409.5041457462353
 31
0.0
  0
LINE
  5
2F1
330
1F
100
AcDbEntity
  8
4-9
  6
JWW_DASHED1
 62
    30
370
     5
100
AcDbLine
 10
-338.2637130410754
 20
409.5041457462353
 30
0.0
 11
-338.2637130410754
 21
26.00375408434343
 31
0.0
  0
LINE
  5
2F2
330
1F
100
AcDbEntity
  8
4-9
  6
JWW_DASHED1
 62
    30
370
     5
100
AcDbLine
 10
-357.2637130410754
 20
26.00375408434343
 30
0.0
 11
-357.2637130410754
 21
409.5041457462353
 31
0.0
  0
LINE
  5
2F3
330
1F
100
AcDbEntity
  8
4-9
  6
JWW_DASHED1
 62
    30
370
     5
100
AcDbLine
 10
-531.013456233885
 20
409.5041457462353
 30
0.0
 11
-531.013456233885
 21
26.00375408434343
 31
0.0
  0
LINE
  5
2F4
330
1F
100
AcDbEntity
  8
4-9
  6
JWW_DASHED1
 62
    30
370
     5
100
AcDbLine
 10
28.98610732939915
 20
409.5041457462353
 30
0.0
 11
28.98610732939915
 21
26.00375408434343
 31
0.0
  0
LINE
  5
2F5
330
1F
100
AcDbEntity
  8
4-9
  6
JWW_DASHED1
 62
    30
370
     5
100
AcDbLine
 10
-744.7635383603362
 20
409.5041457462353
 30
0.0
 11
-744.7635383603362
 21
26.00375408434343
 31
0.0
  0
LINE
  5
2F6
330
1F
100
AcDbEntity
  8
4-9
  6
JWW_DASHED1
 62
    30
370
     5
100
AcDbLine
 10
-763.7635383603362
 20
26.00375408434343
 30
0.0
 11
-763.7635383603362
 21
409.5041457462353
 31
0.0
  0
LINE
  5
2F7
330
1F
100
AcDbEntity
  8
4-9
  6
JWW_DASHED1
 62
    30
370
     5
100
AcDbLine
 10
-938.2636155380011
 20
409.5041457462353
 30
0.0
 11
-938.2636155380011
 21
26.00375408434343
 31
0.0
  0
LINE
  5
2F8
330
1F
100
AcDbEntity
  8
4-9
  6
JWW_DASHED1
 62
    30
370
     5
100
AcDbLine
 10
-957.2636155380011
 20
26.00375408434343
 30
0.0
 11
-957.2636155380011
 21
409.5041457462353
 31
0.0
  0
LINE
  5
2F9
330
1F
100
AcDbEntity
  8
4-9
  6
JWW_DASHED1
 62
    30
370
     5
100
AcDbLine
 10
-1131.013358730811
 20
409.5041457462353
 30
0.0
 11
-1131.013358730811
 21
26.00375408434343
 31
0.0
  0
LINE
  5
2FA
330
1F
100
AcDbEntity
  8
4-9
  6
JWW_DASHED1
 62
    30
370
     5
100
AcDbLine
 10
-571.0137951675265
 20
409.5041457462353
 30
0.0
 11
-571.0137951675265
 21
26.00375408434343
 31
0.0
  0
LINE
  5
2FB
330
1F
100
AcDbEntity
  8
4-2
  6
Continuous
 62
     7
370
     9
100
AcDbLine
 10
666.0348456184145
 20
-483.5125970008397
 30
0.0
 11
666.0348456184145
 21
-445.5123973993815
 31
0.0
  0
LINE
  5
2FC
330
1F
100
AcDbEntity
  8
4-2
  6
Continuous
 62
     7
370
     9
100
AcDbLine
 10
661.5349050039729
 20
-486.7126125070685
 30
0.0
 11
661.5349050039729
 21
-445.5123973993815
 31
0.0
  0
LWPOLYLINE
  5
2FD
330
1F
100
AcDbEntity
  8
4-4
  6
Continuous
 62
     7
370
     9
100
AcDbPolyline
 90
        4
 70
     1
 43
0.8
 10
652.4350052171004
 20
-331.4916215511619
 42
0.4142135623731
 10
652.0350052171004
 20
-331.0916215511619
 42
0.4142135623731
 10
651.6350052171005
 20
-331.4916215511619
 42
0.4142135623731
 10
652.0350052171004
 20
-331.8916215511618
 42
0.4142135623731
  0
LINE
  5
2FE
330
1F
100
AcDbEntity
  8
4-4
  6
Continuous
 62
     7
370
     9
100
AcDbLine
 10
652.0350052171004
 20
-330.2916215511619
 30
0.0
 11
652.0350052171004
 21
-437.5127070526466
 31
0.0
  0
LINE
  5
2FF
330
1F
100
AcDbEntity
  8
4-4
  6
Continuous
 62
     7
370
     9
100
AcDbLine
 10
652.0350052171004
 20
-358.3178767037084
 30
0.0
 11
658.0351183324481
 21
-358.3178767037084
 31
0.0
  0
LWPOLYLINE
  5
300
330
1F
100
AcDbEntity
  8
4-4
  6
Continuous
 62
     7
370
     9
100
AcDbPolyline
 90
        4
 70
     1
 43
0.8
 10
652.4350052171004
 20
-358.3178767037084
 42
0.4142135623731
 10
652.0350052171004
 20
-357.9178767037084
 42
0.4142135623731
 10
651.6350052171005
 20
-358.3178767037084
 42
0.4142135623731
 10
652.0350052171004
 20
-358.7178767037084
 42
0.4142135623731
  0
LWPOLYLINE
  5
301
330
1F
100
AcDbEntity
  8
4-4
  6
Continuous
 62
     7
370
     9
100
AcDbPolyline
 90
        4
 70
     1
 43
0.8
 10
658.435118332448
 20
-358.3178767037084
 42
0.4142135623731
 10
658.0351183324481
 20
-357.9178767037084
 42
0.4142135623731
 10
657.6351183324481
 20
-358.3178767037084
 42
0.4142135623731
 10
658.0351183324481
 20
-358.7178767037084
 42
0.4142135623731
  0
LINE
  5
302
330
1F
100
AcDbEntity
  8
4-4
  6
Continuous
 62
     7
370
     9
100
AcDbLine
 10
658.0351183324481
 20
-357.1178767037084
 30
0.0
 11
658.0351183324481
 21
-437.5127070526466
 31
0.0
  0
LINE
  5
303
330
1F
100
AcDbEntity
  8
4-4
  6
Continuous
 62
     7
370
     9
100
AcDbLine
 10
658.0351183324481
 20
-358.3178767037084
 30
0.0
 11
661.5349050039729
 21
-358.3178767037084
 31
0.0
  0
LWPOLYLINE
  5
304
330
1F
100
AcDbEntity
  8
4-4
  6
Continuous
 62
     7
370
     9
100
AcDbPolyline
 90
        4
 70
     1
 43
0.8
 10
661.9349050039729
 20
-358.3178767037084
 42
0.4142135623731
 10
661.5349050039729
 20
-357.9178767037084
 42
0.4142135623731
 10
661.1349050039729
 20
-358.3178767037084
 42
0.4142135623731
 10
661.5349050039729
 20
-358.7178767037084
 42
0.4142135623731
  0
LINE
  5
305
330
1F
100
AcDbEntity
  8
4-4
  6
Continuous
 62
     7
370
     9
100
AcDbLine
 10
661.5349050039729
 20
-357.1178767037084
 30
0.0
 11
661.5349050039729
 21
-437.5123973993815
 31
0.0
  0
LWPOLYLINE
  5
306
330
1F
100
AcDbEntity
  8
4-4
  6
Continuous
 62
     7
370
     9
100
AcDbPolyline
 90
        4
 70
     1
 43
0.8
 10
666.4348456184144
 20
-386.5316967779382
 42
0.4142135623731
 10
666.0348456184145
 20
-386.1316967779383
 42
0.4142135623731
 10
665.6348456184145
 20
-386.5316967779382
 42
0.4142135623731
 10
666.0348456184145
 20
-386.9316967779382
 42
0.4142135623731
  0
LINE
  5
307
330
1F
100
AcDbEntity
  8
4-4
  6
Continuous
 62
     7
370
     9
100
AcDbLine
 10
666.0348456184145
 20
-385.3316967779383
 30
0.0
 11
666.0348456184145
 21
-437.5123973993815
 31
0.0
  0
TEXT
  5
308
330
1F
100
AcDbEntity
  8
4-4
  6
Continuous
 62
     2
370
   211
100
AcDbText
 10
662.3220154048211
 20
-353.6618767037083
 30
0.0
 40
12.192
  1
3.5
 41
1.083333333333333
  7
ＭＳ ゴシック
100
AcDbText
  0
TEXT
  5
309
330
1F
100
AcDbEntity
  8
4-4
  6
Continuous
 62
     2
370
   211
100
AcDbText
 10
639.0699947804069
 20
-353.6618767037083
 30
0.0
 40
12.192
  1
6
  7
ＭＳ ゴシック
100
AcDbText
  0
LINE
  5
30A
330
1F
100
AcDbEntity
  8
4-4
  6
Continuous
 62
     7
370
     9
100
AcDbLine
 10
652.0350052171004
 20
-358.3178767037084
 30
0.0
 11
633.6047278580245
 21
-358.3178767037084
 31
0.0
  0
LINE
  5
30B
330
1F
100
AcDbEntity
  8
4-1
  6
Continuous
 62
     2
370
     9
100
AcDbLine
 10
658.0351183324481
 20
-445.5127070526466
 30
0.0
 11
652.0350052171004
 21
-445.5127070526466
 31
0.0
  0
ARC
  5
30C
330
1F
100
AcDbEntity
  8
4-A
  6
JWW_DASHED1
 62
     4
370
     9
100
AcDbCircle
 10
682.0350808629892
 20
-503.7126605700447
 30
0.0
 40
6.499999046325683
100
AcDbArc
 50
180.0
 51
0.0
  0
ARC
  5
30D
330
1F
100
AcDbEntity
  8
4-A
  6
Continuous
 62
     4
370
     9
100
AcDbCircle
 10
682.0350808629892
 20
-503.7126605700447
 30
0.0
 40
6.499999046325683
100
AcDbArc
 50
0.0
 51
180.0
  0
LINE
  5
30E
330
1F
100
AcDbEntity
  8
4-1
  6
Continuous
 62
     2
370
     9
100
AcDbLine
 10
658.0351183324481
 20
-488.2126318309403
 30
0.0
 11
658.0351183324481
 21
-445.5127070526466
 31
0.0
  0
LINE
  5
30F
330
1F
100
AcDbEntity
  8
4-1
  6
Continuous
 62
     2
370
     9
100
AcDbLine
 10
652.0350052171004
 20
-491.2126883886143
 30
0.0
 11
652.0350052171004
 21
-445.5127070526466
 31
0.0
  0
ARC
  5
310
330
1F
100
AcDbEntity
  8
4-1
  6
Continuous
 62
     2
370
     9
100
AcDbCircle
 10
661.0351748901219
 20
-488.2126318309403
 30
0.0
 40
2.999999964099133
100
AcDbArc
 50
180.0
 51
270.0
  0
ARC
  5
311
330
1F
100
AcDbEntity
  8
4-1
  6
Continuous
 62
     2
370
     9
100
AcDbCircle
 10
658.0351183324481
 20
-491.2126883886143
 30
0.0
 40
5.999999928198266
100
AcDbArc
 50
180.0
 51
270.0
  0
LINE
  5
312
330
1F
100
AcDbEntity
  8
4-1
  6
Continuous
 62
     2
370
     9
100
AcDbLine
 10
661.0351748901219
 20
-491.2126883886143
 30
0.0
 11
712.0351565088779
 21
-491.2126883886143
 31
0.0
  0
LINE
  5
313
330
1F
100
AcDbEntity
  8
4-1
  6
Continuous
 62
     2
370
     9
100
AcDbLine
 10
658.0351183324481
 20
-497.212661523719
 30
0.0
 11
712.0351565088779
 21
-497.212661523719
 31
0.0
  0
LINE
  5
314
330
1F
100
AcDbEntity
  8
4-1
  6
Continuous
 62
     2
370
     9
100
AcDbLine
 10
712.0351565088779
 20
-497.212661523719
 30
0.0
 11
712.0351565088779
 21
-491.2126883886143
 31
0.0
  0
LINE
  5
315
330
1F
100
AcDbEntity
  8
4-A
  6
JWW_CENTER1
 62
     4
370
     9
100
AcDbLine
 10
693.3618936071298
 20
-503.7126605700447
 30
0.0
 11
670.3780831823251
 21
-503.7126605700447
 31
0.0
  0
LINE
  5
316
330
1F
100
AcDbEntity
  8
4-A
  6
JWW_CENTER1
 62
     4
370
     9
100
AcDbLine
 10
682.0350808629892
 20
-540.2126605700448
 30
0.0
 11
682.0350808629892
 21
-494.5419299792244
 31
0.0
  0
LINE
  5
317
330
1F
100
AcDbEntity
  8
4-A
  6
Continuous
 62
     4
370
     9
100
AcDbLine
 10
675.535119009962
 20
-503.7126605700447
 30
0.0
 11
675.535119009962
 21
-540.2126605700448
 31
0.0
  0
LINE
  5
318
330
1F
100
AcDbEntity
  8
4-A
  6
Continuous
 62
     4
370
     9
100
AcDbLine
 10
688.5351342687511
 20
-540.2126605700448
 30
0.0
 11
675.535119009962
 21
-540.2126605700448
 31
0.0
  0
LINE
  5
319
330
1F
100
AcDbEntity
  8
4-A
  6
Continuous
 62
     4
370
     9
100
AcDbLine
 10
688.5351342687511
 20
-503.7126605700447
 30
0.0
 11
688.5351342687511
 21
-540.2126605700448
 31
0.0
  0
TEXT
  5
31A
330
1F
100
AcDbEntity
  8
4-4
  6
Continuous
 62
     2
370
   211
100
AcDbText
 10
673.5350808629892
 20
-567.6361063476082
 30
0.0
 40
12.192
  1
60
 41
1.0625
  7
ＭＳ ゴシック
100
AcDbText
  0
LINE
  5
31B
330
1F
100
AcDbEntity
  8
4-4
  6
Continuous
 62
     7
370
     9
100
AcDbLine
 10
712.0351565088779
 20
-573.4921063476082
 30
0.0
 11
712.0351565088779
 21
-505.212661523719
 31
0.0
  0
LINE
  5
31C
330
1F
100
AcDbEntity
  8
4-4
  6
Continuous
 62
     7
370
     9
100
AcDbLine
 10
652.0350052171004
 20
-573.4921063476082
 30
0.0
 11
652.0350052171004
 21
-499.2126883886143
 31
0.0
  0
LWPOLYLINE
  5
31D
330
1F
100
AcDbEntity
  8
4-4
  6
Continuous
 62
     7
370
     9
100
AcDbPolyline
 90
        4
 70
     1
 43
0.8
 10
712.4351565088779
 20
-572.2921063476082
 42
0.4142135623731
 10
712.0351565088779
 20
-571.8921063476082
 42
0.4142135623731
 10
711.6351565088779
 20
-572.2921063476082
 42
0.4142135623731
 10
712.0351565088779
 20
-572.6921063476082
 42
0.4142135623731
  0
LWPOLYLINE
  5
31E
330
1F
100
AcDbEntity
  8
4-4
  6
Continuous
 62
     7
370
     9
100
AcDbPolyline
 90
        4
 70
     1
 43
0.8
 10
652.4350052171004
 20
-572.2921063476082
 42
0.4142135623731
 10
652.0350052171004
 20
-571.8921063476082
 42
0.4142135623731
 10
651.6350052171005
 20
-572.2921063476082
 42
0.4142135623731
 10
652.0350052171004
 20
-572.6921063476082
 42
0.4142135623731
  0
LINE
  5
31F
330
1F
100
AcDbEntity
  8
4-4
  6
Continuous
 62
     7
370
     9
100
AcDbLine
 10
652.0350052171004
 20
-572.2921063476082
 30
0.0
 11
712.0351565088779
 21
-572.2921063476082
 31
0.0
  0
LINE
  5
320
330
1F
100
AcDbEntity
  8
4-9
  6
Continuous
 62
    30
370
     5
100
AcDbLine
 10
666.0351434888296
 20
-491.2126883886143
 30
0.0
 11
666.0351434888296
 21
-486.7126125070685
 31
0.0
  0
LINE
  5
321
330
1F
100
AcDbEntity
  8
4-2
  6
Continuous
 62
     7
370
     9
100
AcDbLine
 10
1060.035500744802
 20
-461.5124749305272
 30
0.0
 11
1055.53556013036
 21
-461.5124749305272
 31
0.0
  0
LINE
  5
322
330
1F
100
AcDbEntity
  8
4-2
  6
Continuous
 62
     7
370
     9
100
AcDbLine
 10
1060.035500744802
 20
-461.5124749305272
 30
0.0
 11
1060.035500744802
 21
-445.5123973993815
 31
0.0
  0
LINE
  5
323
330
1F
100
AcDbEntity
  8
4-2
  6
Continuous
 62
     7
370
     9
100
AcDbLine
 10
1055.53556013036
 20
-461.5124749305272
 30
0.0
 11
1055.53556013036
 21
-445.5123973993815
 31
0.0
  0
LINE
  5
324
330
1F
100
AcDbEntity
  8
4-2
  6
Continuous
 62
     7
370
     9
100
AcDbLine
 10
1060.035500744802
 20
-445.5123973993815
 30
0.0
 11
1055.53556013036
 21
-445.5123973993815
 31
0.0
  0
LINE
  5
325
330
1F
100
AcDbEntity
  8
4-2
  6
Continuous
 62
     7
370
     9
100
AcDbLine
 10
1062.535500744802
 20
-486.7115593014024
 30
0.0
 11
1056.535454084719
 21
-486.7115593014024
 31
0.0
  0
LINE
  5
326
330
1F
100
AcDbEntity
  8
4-2
  6
Continuous
 62
     7
370
     9
100
AcDbLine
 10
1062.535500744802
 20
-486.7126125070685
 30
0.0
 11
1062.535500744802
 21
-458.0124023481786
 31
0.0
  0
LINE
  5
327
330
1F
100
AcDbEntity
  8
4-2
  6
Continuous
 62
     7
370
     9
100
AcDbLine
 10
1062.535500744802
 20
-458.0124023481786
 30
0.0
 11
1060.035500744802
 21
-458.0124023481786
 31
0.0
  0
LINE
  5
328
330
1F
100
AcDbEntity
  8
4-2
  6
Continuous
 62
     7
370
     9
100
AcDbLine
 10
1055.53556013036
 20
-454.5124023481787
 30
0.0
 11
1049.535381502373
 21
-454.5124023481787
 31
0.0
  0
LINE
  5
329
330
1F
100
AcDbEntity
  8
4-2
  6
Continuous
 62
     7
370
     9
100
AcDbLine
 10
1056.535454084719
 20
-467.7125745662946
 30
0.0
 11
1049.535381502373
 21
-467.7125745662946
 31
0.0
  0
LINE
  5
32A
330
1F
100
AcDbEntity
  8
4-2
  6
Continuous
 62
     7
370
     9
100
AcDbLine
 10
1056.535454084719
 20
-486.7126125070685
 30
0.0
 11
1056.535454084719
 21
-467.7125745662946
 31
0.0
  0
LINE
  5
32B
330
1F
100
AcDbEntity
  8
4-2
  6
Continuous
 62
     7
370
     9
100
AcDbLine
 10
1045.035440887932
 20
-483.5125970008397
 30
0.0
 11
1045.035440887932
 21
-445.5123973993815
 31
0.0
  0
LINE
  5
32C
330
1F
100
AcDbEntity
  8
4-2
  6
Continuous
 62
     7
370
     9
100
AcDbLine
 10
1049.535381502373
 20
-486.7126125070685
 30
0.0
 11
1049.535381502373
 21
-445.5123973993815
 31
0.0
  0
LWPOLYLINE
  5
32D
330
1F
100
AcDbEntity
  8
4-4
  6
Continuous
 62
     7
370
     9
100
AcDbPolyline
 90
        4
 70
     1
 43
0.8
 10
1072.435261611888
 20
-331.4916215511619
 42
0.4142135623731
 10
1072.035261611888
 20
-331.0916215511619
 42
0.4142135623731
 10
1071.635261611888
 20
-331.4916215511619
 42
0.4142135623731
 10
1072.035261611888
 20
-331.8916215511618
 42
0.4142135623731
  0
LINE
  5
32E
330
1F
100
AcDbEntity
  8
4-4
  6
Continuous
 62
     7
370
     9
100
AcDbLine
 10
1072.035261611888
 20
-330.2916215511619
 30
0.0
 11
1072.035261611888
 21
-437.5127070526466
 31
0.0
  0
LWPOLYLINE
  5
32F
330
1F
100
AcDbEntity
  8
4-4
  6
Continuous
 62
     7
370
     9
100
AcDbPolyline
 90
        4
 70
     1
 43
0.8
 10
1062.935500744802
 20
-358.3178767037084
 42
0.4142135623731
 10
1062.535500744802
 20
-357.9178767037084
 42
0.4142135623731
 10
1062.135500744802
 20
-358.3178767037084
 42
0.4142135623731
 10
1062.535500744802
 20
-358.7178767037084
 42
0.4142135623731
  0
LINE
  5
330
330
1F
100
AcDbEntity
  8
4-4
  6
Continuous
 62
     7
370
     9
100
AcDbLine
 10
1062.535500744802
 20
-358.3178767037084
 30
0.0
 11
1066.03514849654
 21
-358.3178767037084
 31
0.0
  0
LWPOLYLINE
  5
331
330
1F
100
AcDbEntity
  8
4-4
  6
Continuous
 62
     7
370
     9
100
AcDbPolyline
 90
        4
 70
     1
 43
0.8
 10
1066.43514849654
 20
-358.3178767037084
 42
0.4142135623731
 10
1066.03514849654
 20
-357.9178767037084
 42
0.4142135623731
 10
1065.63514849654
 20
-358.3178767037084
 42
0.4142135623731
 10
1066.03514849654
 20
-358.7178767037084
 42
0.4142135623731
  0
LINE
  5
332
330
1F
100
AcDbEntity
  8
4-4
  6
Continuous
 62
     7
370
     9
100
AcDbLine
 10
1066.03514849654
 20
-358.3178767037084
 30
0.0
 11
1072.035261611888
 21
-358.3178767037084
 31
0.0
  0
LWPOLYLINE
  5
333
330
1F
100
AcDbEntity
  8
4-4
  6
Continuous
 62
     7
370
     9
100
AcDbPolyline
 90
        4
 70
     1
 43
0.8
 10
1072.435261611888
 20
-358.3178767037084
 42
0.4142135623731
 10
1072.035261611888
 20
-357.9178767037084
 42
0.4142135623731
 10
1071.635261611888
 20
-358.3178767037084
 42
0.4142135623731
 10
1072.035261611888
 20
-358.7178767037084
 42
0.4142135623731
  0
LWPOLYLINE
  5
334
330
1F
100
AcDbEntity
  8
4-4
  6
Continuous
 62
     7
370
     9
100
AcDbPolyline
 90
        4
 70
     1
 43
0.8
 10
1045.435440887932
 20
-386.5316967779382
 42
0.4142135623731
 10
1045.035440887932
 20
-386.1316967779383
 42
0.4142135623731
 10
1044.635440887932
 20
-386.5316967779382
 42
0.4142135623731
 10
1045.035440887932
 20
-386.9316967779382
 42
0.4142135623731
  0
LINE
  5
335
330
1F
100
AcDbEntity
  8
4-4
  6
Continuous
 62
     7
370
     9
100
AcDbLine
 10
1045.035440887932
 20
-385.3316967779383
 30
0.0
 11
1045.035440887932
 21
-437.5123973993815
 31
0.0
  0
LINE
  5
336
330
1F
100
AcDbEntity
  8
4-4
  6
Continuous
 62
     7
370
     9
100
AcDbLine
 10
1049.535381502373
 20
-414.7455168521681
 30
0.0
 11
1055.53556013036
 21
-414.7455168521681
 31
0.0
  0
LWPOLYLINE
  5
337
330
1F
100
AcDbEntity
  8
4-4
  6
Continuous
 62
     7
370
     9
100
AcDbPolyline
 90
        4
 70
     1
 43
0.8
 10
1049.935381502373
 20
-414.7455168521681
 42
0.4142135623731
 10
1049.535381502373
 20
-414.3455168521681
 42
0.4142135623731
 10
1049.135381502373
 20
-414.7455168521681
 42
0.4142135623731
 10
1049.535381502373
 20
-415.145516852168
 42
0.4142135623731
  0
LWPOLYLINE
  5
338
330
1F
100
AcDbEntity
  8
4-4
  6
Continuous
 62
     7
370
     9
100
AcDbPolyline
 90
        4
 70
     1
 43
0.8
 10
1055.93556013036
 20
-414.7455168521681
 42
0.4142135623731
 10
1055.53556013036
 20
-414.3455168521681
 42
0.4142135623731
 10
1055.13556013036
 20
-414.7455168521681
 42
0.4142135623731
 10
1055.53556013036
 20
-415.145516852168
 42
0.4142135623731
  0
LINE
  5
339
330
1F
100
AcDbEntity
  8
4-4
  6
Continuous
 62
     7
370
     9
100
AcDbLine
 10
1049.535381502373
 20
-413.5455168521681
 30
0.0
 11
1049.535381502373
 21
-437.5123973993815
 31
0.0
  0
LINE
  5
33A
330
1F
100
AcDbEntity
  8
4-4
  6
Continuous
 62
     7
370
     9
100
AcDbLine
 10
1055.53556013036
 20
-413.5455168521681
 30
0.0
 11
1055.53556013036
 21
-437.5123973993815
 31
0.0
  0
TEXT
  5
33B
330
1F
100
AcDbEntity
  8
4-4
  6
Continuous
 62
     2
370
   211
100
AcDbText
 10
1048.535470816367
 20
-410.0895168521682
 30
0.0
 40
12.192
  1
6
  7
ＭＳ ゴシック
100
AcDbText
  0
LWPOLYLINE
  5
33C
330
1F
100
AcDbEntity
  8
4-4
  6
Continuous
 62
     7
370
     9
100
AcDbPolyline
 90
        4
 70
     1
 43
0.8
 10
1060.435500744802
 20
-414.7455168521681
 42
0.4142135623731
 10
1060.035500744802
 20
-414.3455168521681
 42
0.4142135623731
 10
1059.635500744802
 20
-414.7455168521681
 42
0.4142135623731
 10
1060.035500744802
 20
-415.145516852168
 42
0.4142135623731
  0
LINE
  5
33D
330
1F
100
AcDbEntity
  8
4-4
  6
Continuous
 62
     7
370
     9
100
AcDbLine
 10
1060.035500744802
 20
-413.5455168521681
 30
0.0
 11
1060.035500744802
 21
-437.5123973993815
 31
0.0
  0
LINE
  5
33E
330
1F
100
AcDbEntity
  8
4-4
  6
Continuous
 62
     7
370
     9
100
AcDbLine
 10
1060.035500744802
 20
-414.7455168521681
 30
0.0
 11
1066.03514849654
 21
-414.7455168521681
 31
0.0
  0
LWPOLYLINE
  5
33F
330
1F
100
AcDbEntity
  8
4-4
  6
Continuous
 62
     7
370
     9
100
AcDbPolyline
 90
        4
 70
     1
 43
0.8
 10
1066.43514849654
 20
-414.7455168521681
 42
0.4142135623731
 10
1066.03514849654
 20
-414.3455168521681
 42
0.4142135623731
 10
1065.63514849654
 20
-414.7455168521681
 42
0.4142135623731
 10
1066.03514849654
 20
-415.145516852168
 42
0.4142135623731
  0
LINE
  5
340
330
1F
100
AcDbEntity
  8
4-4
  6
Continuous
 62
     7
370
     9
100
AcDbLine
 10
1066.03514849654
 20
-413.5455168521681
 30
0.0
 11
1066.03514849654
 21
-437.5127070526466
 31
0.0
  0
LINE
  5
341
330
1F
100
AcDbEntity
  8
4-4
  6
Continuous
 62
     7
370
     9
100
AcDbLine
 10
1062.535500744802
 20
-357.1178767037084
 30
0.0
 11
1062.535500744802
 21
-393.3709011446613
 31
0.0
  0
LINE
  5
342
330
1F
100
AcDbEntity
  8
4-4
  6
Continuous
 62
     7
370
     9
100
AcDbLine
 10
1066.03514849654
 20
-357.1178767037084
 30
0.0
 11
1066.03514849654
 21
-393.3709011446613
 31
0.0
  0
LINE
  5
343
330
1F
100
AcDbEntity
  8
4-4
  6
Continuous
 62
     7
370
     9
100
AcDbLine
 10
1055.53556013036
 20
-414.7455168521681
 30
0.0
 11
1060.035500744802
 21
-414.7455168521681
 31
0.0
  0
TEXT
  5
344
330
1F
100
AcDbEntity
  8
4-4
  6
Continuous
 62
     2
370
   211
100
AcDbText
 10
1064.549512327989
 20
-410.0895168521682
 30
0.0
 40
12.192
  1
6
  7
ＭＳ ゴシック
100
AcDbText
  0
TEXT
  5
345
330
1F
100
AcDbEntity
  8
4-4
  6
Continuous
 62
     2
370
   211
100
AcDbText
 10
1073.102447628195
 20
-381.9486928397998
 30
0.0
 40
12.192
  1
4.5
 41
1.083333333333333
  7
ＭＳ ゴシック
100
AcDbText
  0
LINE
  5
346
330
1F
100
AcDbEntity
  8
4-4
  6
Continuous
 62
     7
370
     9
100
AcDbLine
 10
1099.102447628195
 20
-384.2046928397998
 30
0.0
 11
1073.102447628195
 21
-384.2046928397998
 31
0.0
  0
LINE
  5
347
330
1F
100
AcDbEntity
  8
4-4
  6
Continuous
 62
     7
370
     9
100
AcDbLine
 10
1073.102447628195
 20
-384.2046928397998
 30
0.0
 11
1057.785530437581
 21
-414.7455168521683
 31
0.0
  0
TEXT
  5
348
330
1F
100
AcDbEntity
  8
4-4
  6
Continuous
 62
     2
370
   211
100
AcDbText
 10
1034.799608761004
 20
-353.6618767037083
 30
0.0
 40
12.192
  1
3.5
 41
1.083333333333333
  7
ＭＳ ゴシック
100
AcDbText
  0
TEXT
  5
349
330
1F
100
AcDbEntity
  8
4-4
  6
Continuous
 62
     2
370
   211
100
AcDbText
 10
1076.519049974178
 20
-353.6618767037083
 30
0.0
 40
12.192
  1
6
  7
ＭＳ ゴシック
100
AcDbText
  0
LINE
  5
34A
330
1F
100
AcDbEntity
  8
4-4
  6
Continuous
 62
     7
370
     9
100
AcDbLine
 10
1072.035261611888
 20
-358.3178767037084
 30
0.0
 11
1089.867461749371
 21
-358.3178767037084
 31
0.0
  0
LWPOLYLINE
  5
34B
330
1F
100
AcDbEntity
  8
4-4
  6
Continuous
 62
     7
370
     9
100
AcDbPolyline
 90
        4
 70
     1
 43
0.8
 10
1111.856051371583
 20
-445.5127070526466
 42
0.4142135623731
 10
1111.456051371583
 20
-445.1127070526467
 42
0.4142135623731
 10
1111.056051371583
 20
-445.5127070526466
 42
0.4142135623731
 10
1111.456051371583
 20
-445.9127070526466
 42
0.4142135623731
  0
LWPOLYLINE
  5
34C
330
1F
100
AcDbEntity
  8
4-4
  6
Continuous
 62
     7
370
     9
100
AcDbPolyline
 90
        4
 70
     1
 43
0.8
 10
1147.693568699485
 20
-445.5127070526466
 42
0.4142135623731
 10
1147.293568699485
 20
-445.1127070526467
 42
0.4142135623731
 10
1146.893568699485
 20
-445.5127070526466
 42
0.4142135623731
 10
1147.293568699485
 20
-445.9127070526466
 42
0.4142135623731
  0
LINE
  5
34D
330
1F
100
AcDbEntity
  8
4-4
  6
Continuous
 62
     7
370
     9
100
AcDbLine
 10
1148.493568699485
 20
-445.5127070526466
 30
0.0
 11
1080.035261611888
 21
-445.5127070526466
 31
0.0
  0
LINE
  5
34E
330
1F
100
AcDbEntity
  8
4-5
  6
Continuous
 62
     7
370
     9
100
AcDbLine
 10
1072.035261611888
 20
-445.5127070526466
 30
0.0
 11
1075.862095935539
 21
-436.2739117275337
 31
0.0
  0
LINE
  5
34F
330
1F
100
AcDbEntity
  8
4-5
  6
Continuous
 62
     7
370
     9
100
AcDbLine
 10
1072.035261611888
 20
-445.5127070526466
 30
0.0
 11
1078.122875901975
 21
-437.5791736497342
 31
0.0
  0
LINE
  5
350
330
1F
100
AcDbEntity
  8
4-5
  6
Continuous
 62
     7
370
     9
100
AcDbLine
 10
1120.875784584296
 20
-360.918439796201
 30
0.0
 11
1072.035261611888
 21
-445.5127070526466
 31
0.0
  0
TEXT
  5
351
330
1F
100
AcDbEntity
  8
4-5
  6
Continuous
 62
     2
370
     9
100
AcDbText
 10
1120.875784584296
 20
-378.4966109389777
 30
0.0
 40
12.192
  1
ＳＰＨＣ（樹脂系塗装）
 41
1.113636363636364
  7
ＭＳ ゴシック
100
AcDbText
  0
LINE
  5
352
330
1F
100
AcDbEntity
  8
4-1
  6
Continuous
 62
     2
370
     9
100
AcDbLine
 10
1066.03514849654
 20
-445.5127070526466
 30
0.0
 11
1072.035261611888
 21
-445.5127070526466
 31
0.0
  0
TEXT
  5
353
330
1F
100
AcDbEntity
  8
4-5
  6
Continuous
 62
     2
370
     9
100
AcDbText
 10
1120.875784584296
 20
-354.8282686534245
 30
0.0
 40
12.192
  1
受枠：Ｌ－４６Ｈ
 41
1.109375
  7
ＭＳ ゴシック
100
AcDbText
  0
LINE
  5
354
330
1F
100
AcDbEntity
  8
4-5
  6
Continuous
 62
     7
370
     9
100
AcDbLine
 10
1120.875784584296
 20
-360.918439796201
 30
0.0
 11
1316.875784584296
 21
-360.918439796201
 31
0.0
  0
LINE
  5
355
330
1F
100
AcDbEntity
  8
4-1
  6
Continuous
 62
     2
370
     9
100
AcDbLine
 10
1066.03514849654
 20
-488.2126318309403
 30
0.0
 11
1066.03514849654
 21
-445.5127070526466
 31
0.0
  0
ARC
  5
356
330
1F
100
AcDbEntity
  8
4-1
  6
Continuous
 62
     2
370
     9
100
AcDbCircle
 10
1063.035091938867
 20
-488.2126318309403
 30
0.0
 40
2.999999964099133
100
AcDbArc
 50
270.0
 51
0.0
  0
LINE
  5
357
330
1F
100
AcDbEntity
  8
4-1
  6
Continuous
 62
     2
370
     9
100
AcDbLine
 10
1063.035091938867
 20
-491.2126883886143
 30
0.0
 11
1012.035110320111
 21
-491.2126883886143
 31
0.0
  0
LINE
  5
358
330
1F
100
AcDbEntity
  8
4-1
  6
Continuous
 62
     2
370
     9
100
AcDbLine
 10
1066.03514849654
 20
-497.212661523719
 30
0.0
 11
1012.035110320111
 21
-497.212661523719
 31
0.0
  0
LINE
  5
359
330
1F
100
AcDbEntity
  8
4-1
  6
Continuous
 62
     2
370
     9
100
AcDbLine
 10
1012.035110320111
 20
-497.212661523719
 30
0.0
 11
1012.035110320111
 21
-491.2126883886143
 31
0.0
  0
ARC
  5
35A
330
1F
100
AcDbEntity
  8
4-1
  6
Continuous
 62
     2
370
     9
100
AcDbCircle
 10
1066.03514849654
 20
-491.2126883886143
 30
0.0
 40
5.999999928198266
100
AcDbArc
 50
270.0
 51
0.0
  0
LINE
  5
35B
330
1F
100
AcDbEntity
  8
4-1
  6
Continuous
 62
     2
370
     9
100
AcDbLine
 10
1072.035261611888
 20
-491.2126883886143
 30
0.0
 11
1072.035261611888
 21
-445.5127070526466
 31
0.0
  0
LINE
  5
35C
330
1F
100
AcDbEntity
  8
4-5
  6
Continuous
 62
     7
370
     9
100
AcDbLine
 10
1098.225886299221
 20
-608.0294798626758
 30
0.0
 11
1240.225886299221
 21
-608.0294798626758
 31
0.0
  0
TEXT
  5
35D
330
1F
100
AcDbEntity
  8
4-5
  6
Continuous
 62
     2
370
     9
100
AcDbText
 10
1098.225886299221
 20
-625.6076510054523
 30
0.0
 40
12.192
  1
ＳＳ４００
 41
1.1
  7
ＭＳ ゴシック
100
AcDbText
  0
TEXT
  5
35E
330
1F
100
AcDbEntity
  8
4-5
  6
Continuous
 62
     2
370
     9
100
AcDbText
 10
1098.225886299221
 20
-601.9393087198993
 30
0.0
 40
12.192
  1
アンカー：φ１３
 41
1.109375
  7
ＭＳ ゴシック
100
AcDbText
  0
LINE
  5
35F
330
1F
100
AcDbEntity
  8
4-5
  6
Continuous
 62
     7
370
     9
100
AcDbLine
 10
1098.225886299221
 20
-608.0294798626758
 30
0.0
 11
1048.535185012325
 21
-521.9626605700448
 31
0.0
  0
LINE
  5
360
330
1F
100
AcDbEntity
  8
4-5
  6
Continuous
 62
     7
370
     9
100
AcDbLine
 10
1048.535185012325
 20
-521.9626605700448
 30
0.0
 11
1054.622799302413
 21
-529.8961939729571
 31
0.0
  0
LINE
  5
361
330
1F
100
AcDbEntity
  8
4-5
  6
Continuous
 62
     7
370
     9
100
AcDbLine
 10
1048.535185012325
 20
-521.9626605700448
 30
0.0
 11
1052.362019335976
 21
-531.2014558951577
 31
0.0
  0
LINE
  5
362
330
1F
100
AcDbEntity
  8
4-A
  6
JWW_CENTER1
 62
     4
370
     9
100
AcDbLine
 10
1053.36199871014
 20
-503.7126605700447
 30
0.0
 11
1030.378188285335
 21
-503.7126605700447
 31
0.0
  0
LINE
  5
363
330
1F
100
AcDbEntity
  8
4-A
  6
JWW_CENTER1
 62
     4
370
     9
100
AcDbLine
 10
1042.035185966
 20
-540.2126605700448
 30
0.0
 11
1042.035185966
 21
-494.5419299792244
 31
0.0
  0
CIRCLE
  5
364
330
1F
100
AcDbEntity
  8
4-A
  6
Continuous
 62
     4
370
     9
100
AcDbCircle
 10
1042.035185966
 20
-503.7126605700447
 30
0.0
 40
6.499999046325683
  0
LINE
  5
365
330
1F
100
AcDbEntity
  8
4-A
  6
Continuous
 62
     4
370
     9
100
AcDbLine
 10
1035.535224112972
 20
-503.7126605700447
 30
0.0
 11
1035.535224112972
 21
-540.2126605700448
 31
0.0
  0
LINE
  5
366
330
1F
100
AcDbEntity
  8
4-A
  6
Continuous
 62
     4
370
     9
100
AcDbLine
 10
1048.535239371761
 20
-540.2126605700448
 30
0.0
 11
1035.535224112972
 21
-540.2126605700448
 31
0.0
  0
LINE
  5
367
330
1F
100
AcDbEntity
  8
4-A
  6
Continuous
 62
     4
370
     9
100
AcDbLine
 10
1048.535239371761
 20
-503.7126605700447
 30
0.0
 11
1048.535239371761
 21
-540.2126605700448
 31
0.0
  0
TEXT
  5
368
330
1F
100
AcDbEntity
  8
4-4
  6
Continuous
 62
     2
370
   211
100
AcDbText
 10
1033.535185966
 20
-567.6361063476082
 30
0.0
 40
12.192
  1
60
 41
1.0625
  7
ＭＳ ゴシック
100
AcDbText
  0
LINE
  5
369
330
1F
100
AcDbEntity
  8
4-4
  6
Continuous
 62
     7
370
     9
100
AcDbLine
 10
1072.035261611888
 20
-573.4921063476082
 30
0.0
 11
1072.035261611888
 21
-499.2126883886143
 31
0.0
  0
LWPOLYLINE
  5
36A
330
1F
100
AcDbEntity
  8
4-4
  6
Continuous
 62
     7
370
     9
100
AcDbPolyline
 90
        4
 70
     1
 43
0.8
 10
1072.435261611888
 20
-572.2921063476082
 42
0.4142135623731
 10
1072.035261611888
 20
-571.8921063476082
 42
0.4142135623731
 10
1071.635261611888
 20
-572.2921063476082
 42
0.4142135623731
 10
1072.035261611888
 20
-572.6921063476082
 42
0.4142135623731
  0
LINE
  5
36B
330
1F
100
AcDbEntity
  8
4-4
  6
Continuous
 62
     7
370
     9
100
AcDbLine
 10
1012.035110320111
 20
-572.2921063476082
 30
0.0
 11
1072.035261611888
 21
-572.2921063476082
 31
0.0
  0
LINE
  5
36C
330
1F
100
AcDbEntity
  8
4-4
  6
Continuous
 62
     7
370
     9
100
AcDbLine
 10
1012.035110320111
 20
-573.4921063476082
 30
0.0
 11
1012.035110320111
 21
-505.212661523719
 31
0.0
  0
LWPOLYLINE
  5
36D
330
1F
100
AcDbEntity
  8
4-4
  6
Continuous
 62
     7
370
     9
100
AcDbPolyline
 90
        4
 70
     1
 43
0.8
 10
1012.435110320111
 20
-572.2921063476082
 42
0.4142135623731
 10
1012.035110320111
 20
-571.8921063476082
 42
0.4142135623731
 10
1011.635110320111
 20
-572.2921063476082
 42
0.4142135623731
 10
1012.035110320111
 20
-572.6921063476082
 42
0.4142135623731
  0
LWPOLYLINE
  5
36E
330
1F
100
AcDbEntity
  8
4-4
  6
Continuous
 62
     7
370
     9
100
AcDbPolyline
 90
        4
 70
     1
 43
0.8
 10
1147.693568699485
 20
-497.212661523719
 42
0.4142135623731
 10
1147.293568699485
 20
-496.812661523719
 42
0.4142135623731
 10
1146.893568699485
 20
-497.212661523719
 42
0.4142135623731
 10
1147.293568699485
 20
-497.612661523719
 42
0.4142135623731
  0
LINE
  5
36F
330
1F
100
AcDbEntity
  8
4-4
  6
Continuous
 62
     7
370
     9
100
AcDbLine
 10
1148.493568699485
 20
-497.212661523719
 30
0.0
 11
1074.03514849654
 21
-497.212661523719
 31
0.0
  0
LINE
  5
370
330
1F
100
AcDbEntity
  8
4-4
  6
Continuous
 62
     7
370
     9
100
AcDbLine
 10
1112.656051371583
 20
-491.2126883886143
 30
0.0
 11
1080.035261611888
 21
-491.2126883886143
 31
0.0
  0
LWPOLYLINE
  5
371
330
1F
100
AcDbEntity
  8
4-4
  6
Continuous
 62
     7
370
     9
100
AcDbPolyline
 90
        4
 70
     1
 43
0.8
 10
1111.856051371583
 20
-491.2126883886143
 42
0.4142135623731
 10
1111.456051371583
 20
-490.8126883886143
 42
0.4142135623731
 10
1111.056051371583
 20
-491.2126883886143
 42
0.4142135623731
 10
1111.456051371583
 20
-491.6126883886143
 42
0.4142135623731
  0
LINE
  5
372
330
1F
100
AcDbEntity
  8
4-4
  6
Continuous
 62
     7
370
     9
100
AcDbLine
 10
1111.456051371583
 20
-445.5127070526466
 30
0.0
 11
1111.456051371583
 21
-491.2126883886143
 31
0.0
  0
TEXT
  5
373
330
1F
100
AcDbEntity
  8
4-4
  6
Continuous
 62
     2
370
   211
100
AcDbText
 10
1106.800051371583
 20
-485.8626977206305
 30
0.0
 40
12.192
  1
45.7
 50
90.0
 41
1.09375
  7
ＭＳ ゴシック
100
AcDbText
  0
LINE
  5
374
330
1F
100
AcDbEntity
  8
4-4
  6
Continuous
 62
     7
370
     9
100
AcDbLine
 10
1147.293568699485
 20
-445.5127070526466
 30
0.0
 11
1147.293568699485
 21
-497.212661523719
 31
0.0
  0
TEXT
  5
375
330
1F
100
AcDbEntity
  8
4-4
  6
Continuous
 62
     2
370
   211
100
AcDbText
 10
1142.637568699485
 20
-488.8626842881828
 30
0.0
 40
12.192
  1
51.7
 50
90.0
 41
1.09375
  7
ＭＳ ゴシック
100
AcDbText
  0
LINE
  5
376
330
1F
100
AcDbEntity
  8
4-9
  6
Continuous
 62
    30
370
     5
100
AcDbLine
 10
1058.035262259945
 20
-491.2126883886143
 30
0.0
 11
1058.035262259945
 21
-486.7126125070685
 31
0.0
  0
LINE
  5
377
330
1F
100
AcDbEntity
  8
4-5
  6
Continuous
 62
     7
370
     9
100
AcDbLine
 10
1043.599763475557
 20
-300.4947115995874
 30
0.0
 11
959.8742271182352
 21
-445.5115944614234
 31
0.0
  0
LINE
  5
378
330
1F
100
AcDbEntity
  8
4-5
  6
Continuous
 62
     7
370
     9
100
AcDbLine
 10
959.8742271182352
 20
-445.5115944614234
 30
0.0
 11
963.7010614418862
 21
-436.2727991363106
 31
0.0
  0
LINE
  5
379
330
1F
100
AcDbEntity
  8
4-5
  6
Continuous
 62
     7
370
     9
100
AcDbLine
 10
959.8742271182352
 20
-445.5115944614234
 30
0.0
 11
965.9618414083227
 21
-437.5780610585111
 31
0.0
  0
TEXT
  5
37A
330
1F
100
AcDbEntity
  8
4-5
  6
Continuous
 62
     2
370
     9
100
AcDbText
 10
1043.599763475557
 20
-318.072882742364
 30
0.0
 40
12.192
  1
ＳＳ４００（溶融亜鉛めっき）
 41
1.116071428571429
  7
ＭＳ ゴシック
100
AcDbText
  0
LINE
  5
37B
330
1F
100
AcDbEntity
  8
4-5
  6
Continuous
 62
     7
370
     9
100
AcDbLine
 10
1043.599763475557
 20
-300.4947115995874
 30
0.0
 11
1293.599763475557
 21
-300.4947115995874
 31
0.0
  0
LINE
  5
37C
330
1F
100
AcDbEntity
  8
4-2
  6
Continuous
 62
     7
370
     9
100
AcDbLine
 10
661.5349050039729
 20
-483.5125970008397
 30
0.0
 11
1049.535381502373
 21
-483.5125970008397
 31
0.0
  0
LINE
  5
37D
330
1F
100
AcDbEntity
  8
4-2
  6
Continuous
 62
     7
370
     9
100
AcDbLine
 10
661.5349050039729
 20
-445.5123973993815
 30
0.0
 11
1049.535381502373
 21
-445.5123973993815
 31
0.0
  0
LINE
  5
37E
330
1F
100
AcDbEntity
  8
4-9
  6
Continuous
 62
    30
370
     5
100
AcDbLine
 10
666.0351434888296
 20
-491.2126883886143
 30
0.0
 11
1058.035262259945
 21
-491.2126883886143
 31
0.0
  0
LINE
  5
37F
330
1F
100
AcDbEntity
  8
4-9
  6
Continuous
 62
    30
370
     5
100
AcDbLine
 10
1058.035262259945
 20
-486.7126125070685
 30
0.0
 11
666.0351434888296
 21
-486.7126125070685
 31
0.0
  0
LINE
  5
380
330
1F
100
AcDbEntity
  8
4-2
  6
Continuous
 62
     7
370
     9
100
AcDbLine
 10
661.5349050039729
 20
-486.7126125070685
 30
0.0
 11
1049.535381502373
 21
-486.7126125070685
 31
0.0
  0
LINE
  5
381
330
1F
100
AcDbEntity
  8
4-4
  6
Continuous
 62
     7
370
     9
100
AcDbLine
 10
652.0350052171004
 20
-331.4916215511619
 30
0.0
 11
1072.035261611888
 21
-331.4916215511619
 31
0.0
  0
TEXT
  5
382
330
1F
100
AcDbEntity
  8
4-4
  6
Continuous
 62
     2
370
   211
100
AcDbText
 10
849.0351334144942
 20
-326.835621551162
 30
0.0
 40
12.192
  1
420
 41
1.083333333333333
  7
ＭＳ ゴシック
100
AcDbText
  0
LINE
  5
383
330
1F
100
AcDbEntity
  8
4-4
  6
Continuous
 62
     7
370
     9
100
AcDbLine
 10
661.5349050039729
 20
-358.3178767037084
 30
0.0
 11
1062.535500744802
 21
-358.3178767037084
 31
0.0
  0
TEXT
  5
384
330
1F
100
AcDbEntity
  8
4-4
  6
Continuous
 62
     2
370
   211
100
AcDbText
 10
849.0352028743874
 20
-353.6618767037083
 30
0.0
 40
12.192
  1
401
 41
1.083333333333333
  7
ＭＳ ゴシック
100
AcDbText
  0
LINE
  5
385
330
1F
100
AcDbEntity
  8
4-4
  6
Continuous
 62
     7
370
     9
100
AcDbLine
 10
666.0348456184145
 20
-386.5316967779382
 30
0.0
 11
1045.035440887932
 21
-386.5316967779382
 31
0.0
  0
TEXT
  5
386
330
1F
100
AcDbEntity
  8
4-4
  6
Continuous
 62
     2
370
   211
100
AcDbText
 10
842.535143253173
 20
-381.8756967779383
 30
0.0
 40
12.192
  1
379
 41
1.083333333333333
  7
ＭＳ ゴシック
100
AcDbText
  0
LINE
  5
387
330
1F
100
AcDbEntity
  8
4-4
  6
Continuous
 62
     7
370
     9
100
AcDbLine
 10
712.0351565088779
 20
-572.2921063476082
 30
0.0
 11
1012.035110320111
 21
-572.2921063476082
 31
0.0
  0
TEXT
  5
388
330
1F
100
AcDbEntity
  8
4-4
  6
Continuous
 62
     2
370
   211
100
AcDbText
 10
849.0351334144943
 20
-567.6361063476082
 30
0.0
 40
12.192
  1
300
 41
1.083333333333333
  7
ＭＳ ゴシック
100
AcDbText
  0
TEXT
  5
389
330
1F
100
AcDbEntity
  8
4-5
  6
Continuous
 62
     2
370
     9
100
AcDbText
 10
1043.599763475557
 20
-294.4045404568108
 30
0.0
 40
12.192
  1
蓋：ＨＥＳＨＭ－Ｍ－４０６０
 41
1.116071428571429
  7
ＭＳ ゴシック
100
AcDbText
  0
TEXT
  5
38A
330
1F
100
AcDbEntity
  8
F-5ﾚｲﾔ
  6
Continuous
 62
     2
370
     9
100
AcDbText
 10
490.1480658376729
 20
972.7874374533391
 30
0.0
 40
12.192
  1
300mm
 41
1.1
  7
ＭＳ ゴシック
100
AcDbText
  0
TEXT
  5
38B
330
1F
100
AcDbEntity
  8
F-Fﾚｲﾔ
  6
Continuous
 62
     2
370
     9
100
AcDbText
 10
490.1480658376731
 20
844.7874374533388
 30
0.0
 40
12.192
  1
寸法 幅401×長さ598×高さ45.7
 41
1.120689655172414
  7
ＭＳ ゴシック
100
AcDbText
  0
TEXT
  5
38C
330
1F
100
AcDbEntity
  8
F-Fﾚｲﾔ
  6
Continuous
 62
     2
370
     9
100
AcDbText
 10
490.1480658376728
 20
812.7874374533388
 30
0.0
 40
12.192
  1
蓋質量　9.4kg
 41
1.115384615384616
  7
ＭＳ ゴシック
100
AcDbText
  0
TEXT
  5
38D
330
1F
100
AcDbEntity
  8
F-Fﾚｲﾔ
  6
Continuous
 62
     2
370
     9
100
AcDbText
 10
490.1480658376729
 20
748.7874374533388
 30
0.0
 40
12.192
  1
寸法 幅420×長さ2000×高さ51.7
 41
1.120833333333333
  7
ＭＳ ゴシック
100
AcDbText
  0
TEXT
  5
38E
330
1F
100
AcDbEntity
  8
F-Fﾚｲﾔ
  6
Continuous
 62
     2
370
     9
100
AcDbText
 10
490.1480658376731
 20
684.7874374533388
 30
0.0
 40
12.192
  1
蓋　：HESHM-M-4060
 41
1.118055555555556
  7
ＭＳ ゴシック
100
AcDbText
  0
TEXT
  5
38F
330
1F
100
AcDbEntity
  8
F-5ﾚｲﾔ
  6
Continuous
 62
     2
370
     0
100
AcDbText
 10
275.4673822126795
 20
-1090.025489238084
 30
0.0
 40
12.192
  1
スチール製蓋　シングルスリットタイプ　ＨＥＳＨＭ－Ｍ－４０６０＋Ｌ－４６Ｈ
 41
1.121621621621622
  7
ＭＳ ゴシック
100
AcDbText
  0
TEXT
  5
390
330
1F
100
AcDbEntity
  8
F-Fﾚｲﾔ
  6
Continuous
 62
     2
370
     9
100
AcDbText
 10
490.1480658376729
 20
780.7874374533388
 30
0.0
 40
12.192
  1
スチール製 樹脂系塗装
 41
1.113095238095238
  7
ＭＳ ゴシック
100
AcDbText
  0
ENDSEC
  0
SECTION
  2
OBJECTS
  0
DICTIONARY
  5
C
330
0
100
AcDbDictionary
281
     1
  3
ACAD_DETAILVIEWSTYLE
350
3D6
  3
ACAD_GROUP
350
D
  3
ACAD_LAYOUT
350
1A
  3
ACAD_MATERIAL
350
43
  3
ACAD_MLEADERSTYLE
350
6B
  3
ACAD_MLINESTYLE
350
17
  3
ACAD_PLOTSETTINGS
350
19
  3
ACAD_PLOTSTYLENAME
350
E
  3
ACAD_SCALELIST
350
47
  3
ACAD_SECTIONVIEWSTYLE
350
3D7
  3
ACAD_TABLESTYLE
350
69
  3
ACAD_VISUALSTYLE
350
2A
  3
ACDB_RECOMPOSE_DATA
350
3D3
  3
AcDbVariableDictionary
350
393
  0
DICTIONARY
  5
391
330
8
100
AcDbDictionary
280
     1
281
     1
  3
ACAD_XREC_ROUNDTRIP
360
392
  0
DICTIONARY
  5
3D6
102
{ACAD_REACTORS
330
C
102
}
330
C
100
AcDbDictionary
281
     1
  0
DICTIONARY
  5
D
102
{ACAD_REACTORS
330
C
102
}
330
C
100
AcDbDictionary
281
     1
  0
DICTIONARY
  5
1A
102
{ACAD_REACTORS
330
C
102
}
330
C
100
AcDbDictionary
281
     1
  3
Layout1
350
1E
  3
Layout2
350
26
  3
Model
350
22
  0
DICTIONARY
  5
43
102
{ACAD_REACTORS
330
C
102
}
330
C
100
AcDbDictionary
281
     1
  3
ByBlock
350
45
  3
ByLayer
350
44
  3
Global
350
46
  0
DICTIONARY
  5
6B
102
{ACAD_REACTORS
330
C
102
}
330
C
100
AcDbDictionary
281
     1
  3
Standard
350
6C
  0
DICTIONARY
  5
17
102
{ACAD_REACTORS
330
C
102
}
330
C
100
AcDbDictionary
281
     1
  3
Standard
350
18
  0
DICTIONARY
  5
19
102
{ACAD_REACTORS
330
C
102
}
330
C
100
AcDbDictionary
281
     1
  0
ACDBDICTIONARYWDFLT
  5
E
102
{ACAD_REACTORS
330
C
102
}
330
C
100
AcDbDictionary
281
     1
  3
Normal
350
F
100
AcDbDictionaryWithDefault
340
F
  0
DICTIONARY
  5
47
102
{ACAD_REACTORS
330
C
102
}
330
C
100
AcDbDictionary
281
     1
  3
A0
350
48
  3
A1
350
49
  3
A2
350
4A
  3
A3
350
4B
  3
A4
350
4C
  3
A5
350
4D
  3
A6
350
4E
  3
A7
350
4F
  3
A8
350
50
  3
A9
350
51
  3
B0
350
52
  3
B1
350
53
  3
B2
350
54
  3
B3
350
55
  3
B4
350
56
  3
B5
350
57
  3
B6
350
58
  3
B7
350
59
  3
B8
350
5A
  3
B9
350
5B
  3
C0
350
5C
  3
C1
350
5D
  3
C2
350
5E
  3
C3
350
5F
  3
C4
350
60
  3
C5
350
61
  3
C6
350
62
  3
C7
350
63
  3
C8
350
64
  3
C9
350
65
  3
D0
350
66
  3
D1
350
67
  3
D2
350
68
  0
DICTIONARY
  5
3D7
102
{ACAD_REACTORS
330
C
102
}
330
C
100
AcDbDictionary
281
     1
  0
DICTIONARY
  5
69
102
{ACAD_REACTORS
330
C
102
}
330
C
100
AcDbDictionary
281
     1
  3
Standard
350
6A
  0
DICTIONARY
  5
2A
102
{ACAD_REACTORS
330
C
102
}
330
C
100
AcDbDictionary
281
     1
  3
2dWireframe
350
2F
  3
Basic
350
32
  3
Brighten
350
36
  3
ColorChange
350
3A
  3
Conceptual
350
34
  3
Dim
350
35
  3
EdgeColorOff
350
3D
  3
Facepattern
350
39
  3
Flat
350
2B
  3
FlatWithEdges
350
2C
  3
Gouraud
350
2D
  3
GouraudWithEdges
350
2E
  3
Hidden
350
31
  3
JitterOff
350
3B
  3
Linepattern
350
38
  3
OverhangOff
350
3C
  3
Realistic
350
33
  3
Shaded
350
42
  3
Shaded with edges
350
41
  3
Shades of Gray
350
3E
  3
Sketchy
350
3F
  3
Thicken
350
37
  3
Wireframe
350
30
  3
X-Ray
350
40
  0
XRECORD
  5
3D3
102
{ACAD_REACTORS
330
C
102
}
330
C
100
AcDbXrecord
280
     1
 90
        1
330
6A
  0
DICTIONARY
  5
393
102
{ACAD_REACTORS
330
C
102
}
330
C
100
AcDbDictionary
281
     1
  3
CANNOSCALE
350
394
  3
CENTEREXE
350
3D8
  3
CENTERLTYPEFILE
350
3D9
  3
CMLEADERSTYLE
350
3D5
  3
CTABLESTYLE
350
3D4
  3
MSLTSCALE
350
395
  3
XCLIPFRAME
350
396
  0
XRECORD
  5
392
102
{ACAD_REACTORS
330
391
102
}
330
391
100
AcDbXrecord
280
     1
102
VTR_0.000_0.000_1.000_1.000_VISUALSTYLE
340
2F
102
VTR_0.000_0.000_1.000_1.000_GRIDDISPLAY
 70
     3
102
VTR_0.000_0.000_1.000_1.000_GRIDMAJOR
 70
     5
102
VTR_0.000_0.000_1.000_1.000_DEFAULTLIGHTING
280
     1
102
VTR_0.000_0.000_1.000_1.000_DEFAULTLIGHTINGTYPE
 70
     1
102
VTR_0.000_0.000_1.000_1.000_BRIGHTNESS
141
0.0
102
VTR_0.000_0.000_1.000_1.000_CONTRAST
142
0.0
  0
LAYOUT
  5
1E
102
{ACAD_REACTORS
330
1A
102
}
330
1A
100
AcDbPlotSettings
  1

  2
none_device
  4

  6

 40
0.0
 41
0.0
 42
0.0
 43
0.0
 44
0.0
 45
0.0
 46
0.0
 47
0.0
 48
0.0
 49
0.0
140
0.0
141
0.0
142
1.0
143
1.0
 70
   688
 72
     1
 73
     0
 74
     5
  7

 75
    16
 76
     0
 77
     5
 78
   300
147
1.0
148
0.0
149
0.0
100
AcDbLayout
  1
Layout1
 70
     1
 71
     1
 10
0.0
 20
0.0
 11
420.0
 21
297.0
 12
0.0
 22
0.0
 32
0.0
 14
1.000000000000000E+20
 24
1.000000000000000E+20
 34
1.000000000000000E+20
 15
-1.000000000000000E+20
 25
-1.000000000000000E+20
 35
-1.000000000000000E+20
146
0.0
 13
0.0
 23
0.0
 33
0.0
 16
1.0
 26
0.0
 36
0.0
 17
0.0
 27
1.0
 37
0.0
 76
     0
330
1B
  0
LAYOUT
  5
26
102
{ACAD_REACTORS
330
1A
102
}
330
1A
100
AcDbPlotSettings
  1

  2
none_device
  4

  6

 40
0.0
 41
0.0
 42
0.0
 43
0.0
 44
0.0
 45
0.0
 46
0.0
 47
0.0
 48
0.0
 49
0.0
140
0.0
141
0.0
142
1.0
143
1.0
 70
   688
 72
     1
 73
     0
 74
     5
  7

 75
    16
 76
     0
 77
     5
 78
   300
147
1.0
148
0.0
149
0.0
100
AcDbLayout
  1
Layout2
 70
     1
 71
     2
 10
0.0
 20
0.0
 11
0.0
 21
0.0
 12
0.0
 22
0.0
 32
0.0
 14
0.0
 24
0.0
 34
0.0
 15
0.0
 25
0.0
 35
0.0
146
0.0
 13
0.0
 23
0.0
 33
0.0
 16
1.0
 26
0.0
 36
0.0
 17
0.0
 27
1.0
 37
0.0
 76
     0
330
23
  0
LAYOUT
  5
22
102
{ACAD_REACTORS
330
1A
102
}
330
1A
100
AcDbPlotSettings
  1

  2
none_device
  4
Letter_(8.50_x_11.00_Inches)
  6

 40
6.35
 41
6.35
 42
6.35000508
 43
6.35000508
 44
215.9
 45
279.4
 46
0.0
 47
0.0
 48
0.0
 49
0.0
140
0.0
141
0.0
142
1.0
143
1.0
 70
  1712
 72
     1
 73
     0
 74
     0
  7

 75
     0
 76
     0
 77
     5
 78
   300
147
1.0
148
0.0
149
0.0
100
AcDbLayout
  1
Model
 70
     1
 71
     0
 10
-1682.0
 20
-1188.0
 11
1682.0
 21
1188.0
 12
0.0
 22
0.0
 32
0.0
 14
-1682.0
 24
-1188.0
 34
0.0
 15
1682.0
 25
1188.0
 35
0.0
146
0.0
 13
0.0
 23
0.0
 33
0.0
 16
1.0
 26
0.0
 36
0.0
 17
0.0
 27
1.0
 37
0.0
 76
     0
330
1F
331
29
  0
MATERIAL
  5
45
102
{ACAD_REACTORS
330
43
102
}
102
{ACAD_XDICTIONARY
360
3C9
102
}
330
43
100
AcDbMaterial
  1
ByBlock
  0
MATERIAL
  5
44
102
{ACAD_REACTORS
330
43
102
}
102
{ACAD_XDICTIONARY
360
3C7
102
}
330
43
100
AcDbMaterial
  1
ByLayer
  0
MATERIAL
  5
46
102
{ACAD_REACTORS
330
43
102
}
102
{ACAD_XDICTIONARY
360
3CB
102
}
330
43
100
AcDbMaterial
  1
Global
  0
MLEADERSTYLE
  5
6C
102
{ACAD_REACTORS
330
6B
102
}
102
{ACAD_XDICTIONARY
360
3D1
102
}
330
6B
100
AcDbMLeaderStyle
170
     2
171
     1
172
     0
 90
        2
 40
0.0
 41
0.0
173
     1
 91
-1056964608
340
14
 92
       -2
290
     1
 42
2.0
291
     1
 43
8.0
  3
Standard
341
0
 44
4.0
300

342
11
174
     1
178
     6
175
     1
176
     0
 93
-1056964608
 45
4.0
292
     0
297
     0
 46
4.0
343
0
 94
-1056964608
 47
1.0
 49
1.0
140
1.0
293
     1
141
0.0
294
     1
177
     0
142
1.0
295
     0
296
     0
143
3.75
1001
ACAD_MLEADERVER
1070
     2
  0
MLINESTYLE
  5
18
102
{ACAD_REACTORS
330
17
102
}
330
17
100
AcDbMlineStyle
  2
Standard
 70
     0
  3

 62
   256
 51
90.0
 52
90.0
 71
     2
 49
0.5
 62
   256
  6
BYLAYER
 49
-0.5
 62
   256
  6
BYLAYER
  0
ACDBPLACEHOLDER
  5
F
102
{ACAD_REACTORS
330
E
102
}
330
E
  0
SCALE
  5
48
102
{ACAD_REACTORS
330
47
102
}
330
47
100
AcDbScale
 70
     0
300
1:1
140
1.0
141
1.0
290
     1
  0
SCALE
  5
49
102
{ACAD_REACTORS
330
47
102
}
330
47
100
AcDbScale
 70
     0
300
1:2
140
1.0
141
2.0
290
     0
  0
SCALE
  5
4A
102
{ACAD_REACTORS
330
47
102
}
330
47
100
AcDbScale
 70
     0
300
1:4
140
1.0
141
4.0
290
     0
  0
SCALE
  5
4B
102
{ACAD_REACTORS
330
47
102
}
330
47
100
AcDbScale
 70
     0
300
1:5
140
1.0
141
5.0
290
     0
  0
SCALE
  5
4C
102
{ACAD_REACTORS
330
47
102
}
330
47
100
AcDbScale
 70
     0
300
1:8
140
1.0
141
8.0
290
     0
  0
SCALE
  5
4D
102
{ACAD_REACTORS
330
47
102
}
330
47
100
AcDbScale
 70
     0
300
1:10
140
1.0
141
10.0
290
     0
  0
SCALE
  5
4E
102
{ACAD_REACTORS
330
47
102
}
330
47
100
AcDbScale
 70
     0
300
1:16
140
1.0
141
16.0
290
     0
  0
SCALE
  5
4F
102
{ACAD_REACTORS
330
47
102
}
330
47
100
AcDbScale
 70
     0
300
1:20
140
1.0
141
20.0
290
     0
  0
SCALE
  5
50
102
{ACAD_REACTORS
330
47
102
}
330
47
100
AcDbScale
 70
     0
300
1:30
140
1.0
141
30.0
290
     0
  0
SCALE
  5
51
102
{ACAD_REACTORS
330
47
102
}
330
47
100
AcDbScale
 70
     0
300
1:40
140
1.0
141
40.0
290
     0
  0
SCALE
  5
52
102
{ACAD_REACTORS
330
47
102
}
330
47
100
AcDbScale
 70
     0
300
1:50
140
1.0
141
50.0
290
     0
  0
SCALE
  5
53
102
{ACAD_REACTORS
330
47
102
}
330
47
100
AcDbScale
 70
     0
300
1:100
140
1.0
141
100.0
290
     0
  0
SCALE
  5
54
102
{ACAD_REACTORS
330
47
102
}
330
47
100
AcDbScale
 70
     0
300
2:1
140
2.0
141
1.0
290
     0
  0
SCALE
  5
55
102
{ACAD_REACTORS
330
47
102
}
330
47
100
AcDbScale
 70
     0
300
4:1
140
4.0
141
1.0
290
     0
  0
SCALE
  5
56
102
{ACAD_REACTORS
330
47
102
}
330
47
100
AcDbScale
 70
     0
300
8:1
140
8.0
141
1.0
290
     0
  0
SCALE
  5
57
102
{ACAD_REACTORS
330
47
102
}
330
47
100
AcDbScale
 70
     0
300
10:1
140
10.0
141
1.0
290
     0
  0
SCALE
  5
58
102
{ACAD_REACTORS
330
47
102
}
330
47
100
AcDbScale
 70
     0
300
100:1
140
100.0
141
1.0
290
     0
  0
SCALE
  5
59
102
{ACAD_REACTORS
330
47
102
}
330
47
100
AcDbScale
 70
     0
300
1/128" = 1'-0"
140
0.0078125
141
12.0
290
     0
  0
SCALE
  5
5A
102
{ACAD_REACTORS
330
47
102
}
330
47
100
AcDbScale
 70
     0
300
1/64" = 1'-0"
140
0.015625
141
12.0
290
     0
  0
SCALE
  5
5B
102
{ACAD_REACTORS
330
47
102
}
330
47
100
AcDbScale
 70
     0
300
1/32" = 1'-0"
140
0.03125
141
12.0
290
     0
  0
SCALE
  5
5C
102
{ACAD_REACTORS
330
47
102
}
330
47
100
AcDbScale
 70
     0
300
1/16" = 1'-0"
140
0.0625
141
12.0
290
     0
  0
SCALE
  5
5D
102
{ACAD_REACTORS
330
47
102
}
330
47
100
AcDbScale
 70
     0
300
3/32" = 1'-0"
140
0.09375
141
12.0
290
     0
  0
SCALE
  5
5E
102
{ACAD_REACTORS
330
47
102
}
330
47
100
AcDbScale
 70
     0
300
1/8" = 1'-0"
140
0.125
141
12.0
290
     0
  0
SCALE
  5
5F
102
{ACAD_REACTORS
330
47
102
}
330
47
100
AcDbScale
 70
     0
300
3/16" = 1'-0"
140
0.1875
141
12.0
290
     0
  0
SCALE
  5
60
102
{ACAD_REACTORS
330
47
102
}
330
47
100
AcDbScale
 70
     0
300
1/4" = 1'-0"
140
0.25
141
12.0
290
     0
  0
SCALE
  5
61
102
{ACAD_REACTORS
330
47
102
}
330
47
100
AcDbScale
 70
     0
300
3/8" = 1'-0"
140
0.375
141
12.0
290
     0
  0
SCALE
  5
62
102
{ACAD_REACTORS
330
47
102
}
330
47
100
AcDbScale
 70
     0
300
1/2" = 1'-0"
140
0.5
141
12.0
290
     0
  0
SCALE
  5
63
102
{ACAD_REACTORS
330
47
102
}
330
47
100
AcDbScale
 70
     0
300
3/4" = 1'-0"
140
0.75
141
12.0
290
     0
  0
SCALE
  5
64
102
{ACAD_REACTORS
330
47
102
}
330
47
100
AcDbScale
 70
     0
300
1" = 1'-0"
140
1.0
141
12.0
290
     0
  0
SCALE
  5
65
102
{ACAD_REACTORS
330
47
102
}
330
47
100
AcDbScale
 70
     0
300
1-1/2" = 1'-0"
140
1.5
141
12.0
290
     0
  0
SCALE
  5
66
102
{ACAD_REACTORS
330
47
102
}
330
47
100
AcDbScale
 70
     0
300
3" = 1'-0"
140
3.0
141
12.0
290
     0
  0
SCALE
  5
67
102
{ACAD_REACTORS
330
47
102
}
330
47
100
AcDbScale
 70
     0
300
6" = 1'-0"
140
6.0
141
12.0
290
     0
  0
SCALE
  5
68
102
{ACAD_REACTORS
330
47
102
}
330
47
100
AcDbScale
 70
     0
300
1'-0" = 1'-0"
140
12.0
141
12.0
290
     0
  0
TABLESTYLE
  5
6A
102
{ACAD_REACTORS
330
69
102
}
102
{ACAD_XDICTIONARY
360
3CD
102
}
330
69
100
AcDbTableStyle
  3
Standard
 70
     0
 71
     0
 40
0.06
 41
0.06
280
     0
281
     0
  7
Standard
140
4.5
170
     2
 62
     0
 63
   257
283
     0
274
    -2
284
     1
 64
     0
275
    -2
285
     1
 65
     0
276
    -2
286
     1
 66
     0
277
    -2
287
     1
 67
     0
278
    -2
288
     1
 68
     0
279
    -2
289
     1
 69
     0
  7
Standard
140
6.0
170
     5
 62
     0
 63
   257
283
     0
274
    -2
284
     1
 64
     0
275
    -2
285
     1
 65
     0
276
    -2
286
     1
 66
     0
277
    -2
287
     1
 67
     0
278
    -2
288
     1
 68
     0
279
    -2
289
     1
 69
     0
  7
Standard
140
4.5
170
     5
 62
     0
 63
   257
283
     0
274
    -2
284
     1
 64
     0
275
    -2
285
     1
 65
     0
276
    -2
286
     1
 66
     0
277
    -2
287
     1
 67
     0
278
    -2
288
     1
 68
     0
279
    -2
289
     1
 69
     0
  0
VISUALSTYLE
  5
2F
102
{ACAD_REACTORS
330
2A
102
}
102
{ACAD_XDICTIONARY
360
39F
102
}
330
2A
100
AcDbVisualStyle
  2
2dWireframe
 70
     4
 71
     0
 72
     2
 73
     0
 90
        0
 40
0.6
 41
30.0
 62
     5
 63
     7
421
 16777215
 74
     1
 91
        4
 64
     7
 65
   257
 75
     1
175
     1
 42
1.0
 92
        0
 66
   257
 43
1.0
 76
     1
 77
     6
 78
     2
 67
     7
 79
     5
170
     0
171
     0
290
     0
174
     0
 93
        1
 44
0.0
173
     0
291
     0
 45
0.0
1001
ACAD
1000
AcDbSavedByObjectVersion
1070
     0
  0
VISUALSTYLE
  5
32
102
{ACAD_REACTORS
330
2A
102
}
102
{ACAD_XDICTIONARY
360
3A5
102
}
330
2A
100
AcDbVisualStyle
  2
Basic
 70
     7
 71
     1
 72
     0
 73
     1
 90
        0
 40
0.6
 41
30.0
 62
     5
 63
     7
421
 16777215
 74
     0
 91
        4
 64
     7
 65
   257
 75
     1
175
     1
 42
1.0
 92
        8
 66
     7
 43
1.0
 76
     1
 77
     6
 78
     2
 67
     7
 79
     5
170
     0
171
     0
290
     0
174
     0
 93
        1
 44
0.0
173
     0
291
     1
 45
0.0
1001
ACAD
1000
AcDbSavedByObjectVersion
1070
     0
  0
VISUALSTYLE
  5
36
102
{ACAD_REACTORS
330
2A
102
}
102
{ACAD_XDICTIONARY
360
3AD
102
}
330
2A
100
AcDbVisualStyle
  2
Brighten
 70
    12
 71
     2
 72
     2
 73
     0
 90
        0
 40
0.6
 41
30.0
 62
     5
 63
     7
421
 16777215
 74
     1
 91
        4
 64
     7
 65
   257
 75
     1
175
     1
 42
1.0
 92
        8
 66
     7
 43
1.0
 76
     1
 77
     6
 78
     2
 67
     7
 79
     5
170
     0
171
     0
290
     0
174
     0
 93
        1
 44
50.0
173
     0
291
     1
 45
0.0
1001
ACAD
1000
AcDbSavedByObjectVersion
1070
     0
  0
VISUALSTYLE
  5
3A
102
{ACAD_REACTORS
330
2A
102
}
102
{ACAD_XDICTIONARY
360
3B5
102
}
330
2A
100
AcDbVisualStyle
  2
ColorChange
 70
    16
 71
     2
 72
     2
 73
     3
 90
        0
 40
0.6
 41
30.0
 62
     5
 63
     8
421
  8421504
 74
     1
 91
        4
 64
     7
 65
   257
 75
     1
175
     1
 42
1.0
 92
        8
 66
     8
424
  8421504
 43
1.0
 76
     1
 77
     6
 78
     2
 67
     7
 79
     5
170
     0
171
     0
290
     0
174
     0
 93
        1
 44
0.0
173
     0
291
     1
 45
0.0
1001
ACAD
1000
AcDbSavedByObjectVersion
1070
     0
  0
VISUALSTYLE
  5
34
102
{ACAD_REACTORS
330
2A
102
}
102
{ACAD_XDICTIONARY
360
3A9
102
}
330
2A
100
AcDbVisualStyle
  2
Conceptual
 70
     9
 71
     3
 72
     2
 73
     0
 90
        0
 40
0.6
 41
30.0
 62
     5
 63
     7
421
 16777215
 74
     2
 91
        2
 64
     7
 65
   257
 75
     1
175
     1
 42
179.0
 92
        8
 66
     7
 43
1.0
 76
     1
 77
     6
 78
     2
 67
     7
 79
     3
170
     0
171
     0
290
     0
174
     0
 93
        1
 44
0.0
173
     0
291
     0
 45
0.0
1001
ACAD
1000
AcDbSavedByObjectVersion
1070
     0
  0
VISUALSTYLE
  5
35
102
{ACAD_REACTORS
330
2A
102
}
102
{ACAD_XDICTIONARY
360
3AB
102
}
330
2A
100
AcDbVisualStyle
  2
Dim
 70
    11
 71
     2
 72
     2
 73
     0
 90
        0
 40
0.6
 41
30.0
 62
     5
 63
     7
421
 16777215
 74
     1
 91
        4
 64
     7
 65
   257
 75
     1
175
     1
 42
1.0
 92
        8
 66
     7
 43
1.0
 76
     1
 77
     6
 78
     2
 67
     7
 79
     5
170
     0
171
     0
290
     0
174
     0
 93
        1
 44
-50.0
173
     0
291
     1
 45
0.0
1001
ACAD
1000
AcDbSavedByObjectVersion
1070
     0
  0
VISUALSTYLE
  5
3D
102
{ACAD_REACTORS
330
2A
102
}
102
{ACAD_XDICTIONARY
360
3BB
102
}
330
2A
100
AcDbVisualStyle
  2
EdgeColorOff
 70
    22
 71
     2
 72
     2
 73
     0
 90
        0
 40
0.6
 41
30.0
 62
     5
 63
     7
421
 16777215
 74
     1
 91
        4
 64
     7
 65
   257
 75
     1
175
     1
 42
1.0
 92
        8
 66
     7
 43
1.0
 76
     1
 77
     6
 78
     2
 67
     7
 79
     5
170
     0
171
     0
290
     0
174
     0
 93
        1
 44
0.0
173
     0
291
     1
 45
0.0
1001
ACAD
1000
AcDbSavedByObjectVersion
1070
     0
  0
VISUALSTYLE
  5
39
102
{ACAD_REACTORS
330
2A
102
}
102
{ACAD_XDICTIONARY
360
3B3
102
}
330
2A
100
AcDbVisualStyle
  2
Facepattern
 70
    15
 71
     2
 72
     2
 73
     0
 90
        0
 40
0.6
 41
30.0
 62
     5
 63
     7
421
 16777215
 74
     1
 91
        4
 64
     7
 65
   257
 75
     1
175
     1
 42
1.0
 92
        8
 66
     7
 43
1.0
 76
     1
 77
     6
 78
     2
 67
     7
 79
     5
170
     0
171
     0
290
     0
174
     0
 93
        1
 44
0.0
173
     0
291
     1
 45
0.0
1001
ACAD
1000
AcDbSavedByObjectVersion
1070
     0
  0
VISUALSTYLE
  5
2B
102
{ACAD_REACTORS
330
2A
102
}
102
{ACAD_XDICTIONARY
360
397
102
}
330
2A
100
AcDbVisualStyle
  2
Flat
 70
     0
 71
     2
 72
     1
 73
     1
 90
        2
 40
0.6
 41
30.0
 62
     5
 63
     7
421
 16777215
 74
     0
 91
        0
 64
     7
 65
   257
 75
     1
175
     1
 42
1.0
 92
        8
 66
     7
 43
1.0
 76
     1
 77
     6
 78
     2
 67
     7
 79
     5
170
     0
171
     0
290
     0
174
     0
 93
       13
 44
0.0
173
     0
291
     1
 45
0.0
1001
ACAD
1000
AcDbSavedByObjectVersion
1070
     0
  0
VISUALSTYLE
  5
2C
102
{ACAD_REACTORS
330
2A
102
}
102
{ACAD_XDICTIONARY
360
399
102
}
330
2A
100
AcDbVisualStyle
  2
FlatWithEdges
 70
     1
 71
     2
 72
     1
 73
     1
 90
        2
 40
0.6
 41
30.0
 62
     5
 63
     7
421
 16777215
 74
     1
 91
        0
 64
     7
 65
   257
 75
     1
175
     1
 42
1.0
 92
        0
 66
   257
 43
1.0
 76
     1
 77
     6
 78
     2
 67
     7
 79
     5
170
     0
171
     0
290
     0
174
     0
 93
       13
 44
0.0
173
     0
291
     1
 45
0.0
1001
ACAD
1000
AcDbSavedByObjectVersion
1070
     0
  0
VISUALSTYLE
  5
2D
102
{ACAD_REACTORS
330
2A
102
}
102
{ACAD_XDICTIONARY
360
39B
102
}
330
2A
100
AcDbVisualStyle
  2
Gouraud
 70
     2
 71
     2
 72
     2
 73
     1
 90
        2
 40
0.6
 41
30.0
 62
     5
 63
     7
421
 16777215
 74
     0
 91
        0
 64
     7
 65
   257
 75
     1
175
     1
 42
1.0
 92
        0
 66
     7
 43
1.0
 76
     1
 77
     6
 78
     2
 67
     7
 79
     5
170
     0
171
     0
290
     0
174
     0
 93
       13
 44
0.0
173
     0
291
     1
 45
0.0
1001
ACAD
1000
AcDbSavedByObjectVersion
1070
     0
  0
VISUALSTYLE
  5
2E
102
{ACAD_REACTORS
330
2A
102
}
102
{ACAD_XDICTIONARY
360
39D
102
}
330
2A
100
AcDbVisualStyle
  2
GouraudWithEdges
 70
     3
 71
     2
 72
     2
 73
     1
 90
        2
 40
0.6
 41
30.0
 62
     5
 63
     7
421
 16777215
 74
     1
 91
        0
 64
     7
 65
   257
 75
     1
175
     1
 42
1.0
 92
        0
 66
   257
 43
1.0
 76
     1
 77
     6
 78
     2
 67
     7
 79
     5
170
     0
171
     0
290
     0
174
     0
 93
       13
 44
0.0
173
     0
291
     1
 45
0.0
1001
ACAD
1000
AcDbSavedByObjectVersion
1070
     0
  0
VISUALSTYLE
  5
31
102
{ACAD_REACTORS
330
2A
102
}
102
{ACAD_XDICTIONARY
360
3A3
102
}
330
2A
100
AcDbVisualStyle
  2
Hidden
 70
     6
 71
     1
 72
     2
 73
     2
 90
        0
 40
0.6
 41
30.0
 62
     5
 63
     7
421
 16777215
 74
     2
 91
        2
 64
     7
 65
   257
 75
     2
175
     1
 42
40.0
 92
        0
 66
   257
 43
1.0
 76
     1
 77
     6
 78
     2
 67
     7
 79
     3
170
     0
171
     0
290
     0
174
     0
 93
        1
 44
0.0
173
     0
291
     0
 45
0.0
1001
ACAD
1000
AcDbSavedByObjectVersion
1070
     0
  0
VISUALSTYLE
  5
3B
102
{ACAD_REACTORS
330
2A
102
}
102
{ACAD_XDICTIONARY
360
3B7
102
}
330
2A
100
AcDbVisualStyle
  2
JitterOff
 70
    20
 71
     2
 72
     2
 73
     0
 90
        0
 40
0.6
 41
30.0
 62
     5
 63
     7
421
 16777215
 74
     1
 91
        4
 64
     7
 65
   257
 75
     1
175
     1
 42
1.0
 92
       10
 66
     7
 43
1.0
 76
     1
 77
     6
 78
     2
 67
     7
 79
     5
170
     0
171
     0
290
     0
174
     0
 93
        1
 44
0.0
173
     0
291
     1
 45
0.0
1001
ACAD
1000
AcDbSavedByObjectVersion
1070
     0
  0
VISUALSTYLE
  5
38
102
{ACAD_REACTORS
330
2A
102
}
102
{ACAD_XDICTIONARY
360
3B1
102
}
330
2A
100
AcDbVisualStyle
  2
Linepattern
 70
    14
 71
     2
 72
     2
 73
     0
 90
        0
 40
0.6
 41
30.0
 62
     5
 63
     7
421
 16777215
 74
     1
 91
        4
 64
     7
 65
   257
 75
     7
175
     7
 42
1.0
 92
        8
 66
     7
 43
1.0
 76
     1
 77
     6
 78
     2
 67
     7
 79
     5
170
     0
171
     0
290
     0
174
     0
 93
        1
 44
0.0
173
     0
291
     1
 45
0.0
1001
ACAD
1000
AcDbSavedByObjectVersion
1070
     0
  0
VISUALSTYLE
  5
3C
102
{ACAD_REACTORS
330
2A
102
}
102
{ACAD_XDICTIONARY
360
3B9
102
}
330
2A
100
AcDbVisualStyle
  2
OverhangOff
 70
    21
 71
     2
 72
     2
 73
     0
 90
        0
 40
0.6
 41
30.0
 62
     5
 63
     7
421
 16777215
 74
     1
 91
        4
 64
     7
 65
   257
 75
     1
175
     1
 42
1.0
 92
        9
 66
     7
 43
1.0
 76
     1
 77
     6
 78
     2
 67
     7
 79
     5
170
     0
171
     0
290
     0
174
     0
 93
        1
 44
0.0
173
     0
291
     1
 45
0.0
1001
ACAD
1000
AcDbSavedByObjectVersion
1070
     0
  0
VISUALSTYLE
  5
33
102
{ACAD_REACTORS
330
2A
102
}
102
{ACAD_XDICTIONARY
360
3A7
102
}
330
2A
100
AcDbVisualStyle
  2
Realistic
 70
     8
 71
     2
 72
     3
 73
     0
 90
        2
 40
0.6
 41
30.0
 62
     5
 63
     7
421
 16777215
 74
     0
 91
        0
 64
     7
 65
   257
 75
     1
175
     1
 42
1.0
 92
        8
 66
   257
 43
1.0
 76
     1
 77
     6
 78
     2
 67
     7
 79
     3
170
     0
171
     0
290
     0
174
     0
 93
       13
 44
0.0
173
     0
291
     0
 45
0.0
1001
ACAD
1000
AcDbSavedByObjectVersion
1070
     0
  0
VISUALSTYLE
  5
42
102
{ACAD_REACTORS
330
2A
102
}
102
{ACAD_XDICTIONARY
360
3C5
102
}
330
2A
100
AcDbVisualStyle
  2
Shaded
 70
    27
 71
     2
 72
     2
 73
     1
 90
        2
 40
0.6
 41
30.0
 62
     5
 63
     7
421
 16777215
 74
     0
 91
        4
 64
     7
 65
   257
 75
     1
175
     1
 42
1.0
 92
        8
 66
   257
 43
1.0
 76
     1
 77
     6
 78
     2
 67
     8
425
  7895160
 79
     3
170
     0
171
     0
290
     0
174
     0
 93
        5
 44
0.0
173
     0
291
     0
 45
0.0
1001
ACAD
1000
AcDbSavedByObjectVersion
1070
     0
  0
VISUALSTYLE
  5
41
102
{ACAD_REACTORS
330
2A
102
}
102
{ACAD_XDICTIONARY
360
3C3
102
}
330
2A
100
AcDbVisualStyle
  2
Shaded with edges
 70
    26
 71
     2
 72
     2
 73
     1
 90
        2
 40
0.6
 41
30.0
 62
     5
 63
     7
421
 16777215
 74
     1
 91
       10
 64
     7
 65
   257
 75
     2
175
     1
 42
1.0
 92
        8
 66
   257
 43
1.0
 76
     1
 77
     6
 78
     2
 67
     7
 79
     3
170
     0
171
     0
290
     0
174
     0
 93
        5
 44
0.0
173
     0
291
     0
 45
0.0
1001
ACAD
1000
AcDbSavedByObjectVersion
1070
     0
  0
VISUALSTYLE
  5
3E
102
{ACAD_REACTORS
330
2A
102
}
102
{ACAD_XDICTIONARY
360
3BD
102
}
330
2A
100
AcDbVisualStyle
  2
Shades of Gray
 70
    23
 71
     2
 72
     2
 73
     3
 90
        0
 40
0.6
 41
30.0
 62
     5
 63
     7
421
 16777215
 74
     2
 91
        2
 64
     7
 65
     7
 75
     1
175
     1
 42
40.0
 92
        8
 66
     7
 43
1.0
 76
     1
 77
     6
 78
     2
 67
     7
 79
     3
170
     0
171
     0
290
     0
174
     0
 93
        1
 44
0.0
173
     0
291
     0
 45
0.0
1001
ACAD
1000
AcDbSavedByObjectVersion
1070
     0
  0
VISUALSTYLE
  5
3F
102
{ACAD_REACTORS
330
2A
102
}
102
{ACAD_XDICTIONARY
360
3BF
102
}
330
2A
100
AcDbVisualStyle
  2
Sketchy
 70
    24
 71
     1
 72
     2
 73
     2
 90
        0
 40
0.6
 41
30.0
 62
     5
 63
     7
421
 16777215
 74
     2
 91
        2
 64
     7
 65
     7
 75
     1
175
     1
 42
40.0
 92
       11
 66
     7
 43
1.0
 76
     1
 77
     6
 78
     2
 67
     7
 79
     6
170
     0
171
     0
290
     0
174
     0
 93
        1
 44
0.0
173
     0
291
     0
 45
0.0
1001
ACAD
1000
AcDbSavedByObjectVersion
1070
     0
  0
VISUALSTYLE
  5
37
102
{ACAD_REACTORS
330
2A
102
}
102
{ACAD_XDICTIONARY
360
3AF
102
}
330
2A
100
AcDbVisualStyle
  2
Thicken
 70
    13
 71
     2
 72
     2
 73
     0
 90
        0
 40
0.6
 41
30.0
 62
     5
 63
     7
421
 16777215
 74
     1
 91
        4
 64
     7
 65
   257
 75
     1
175
     1
 42
1.0
 92
       12
 66
     7
 43
1.0
 76
     1
 77
     6
 78
     2
 67
     7
 79
     5
170
     0
171
     0
290
     0
174
     0
 93
        1
 44
0.0
173
     0
291
     1
 45
0.0
1001
ACAD
1000
AcDbSavedByObjectVersion
1070
     0
  0
VISUALSTYLE
  5
30
102
{ACAD_REACTORS
330
2A
102
}
102
{ACAD_XDICTIONARY
360
3A1
102
}
330
2A
100
AcDbVisualStyle
  2
Wireframe
 70
     5
 71
     0
 72
     2
 73
     0
 90
        0
 40
0.6
 41
30.0
 62
     5
 63
     7
421
 16777215
 74
     1
 91
        4
 64
     7
 65
   257
 75
     1
175
     1
 42
1.0
 92
        0
 66
   257
 43
1.0
 76
     1
 77
     6
 78
     2
 67
     7
 79
     3
170
     0
171
     0
290
     0
174
     0
 93
        1
 44
0.0
173
     0
291
     0
 45
0.0
1001
ACAD
1000
AcDbSavedByObjectVersion
1070
     0
  0
VISUALSTYLE
  5
40
102
{ACAD_REACTORS
330
2A
102
}
102
{ACAD_XDICTIONARY
360
3C1
102
}
330
2A
100
AcDbVisualStyle
  2
X-Ray
 70
    25
 71
     2
 72
     2
 73
     1
 90
        1
 40
0.5
 41
30.0
 62
     5
 63
     7
421
 16777215
 74
     1
 91
        0
 64
     7
 65
   257
 75
     1
175
     1
 42
1.0
 92
        8
 66
     7
 43
1.0
 76
     1
 77
     6
 78
     2
 67
     7
 79
     3
170
     0
171
     0
290
     0
174
     0
 93
       13
 44
0.0
173
     0
291
     0
 45
0.0
1001
ACAD
1000
AcDbSavedByObjectVersion
1070
     0
  0
DICTIONARYVAR
  5
394
102
{ACAD_REACTORS
330
393
102
}
330
393
100
DictionaryVariables
280
     0
  1
1:1
  0
DICTIONARYVAR
  5
3D8
102
{ACAD_REACTORS
330
393
102
}
330
393
100
DictionaryVariables
280
     0
  1
3.500000
  0
DICTIONARYVAR
  5
3D9
102
{ACAD_REACTORS
330
393
102
}
330
393
100
DictionaryVariables
280
     0
  1
acadiso.lin
  0
DICTIONARYVAR
  5
3D5
102
{ACAD_REACTORS
330
393
102
}
330
393
100
DictionaryVariables
280
     0
  1
Standard
  0
DICTIONARYVAR
  5
3D4
102
{ACAD_REACTORS
330
393
102
}
330
393
100
DictionaryVariables
280
     0
  1
Standard
  0
DICTIONARYVAR
  5
395
102
{ACAD_REACTORS
330
393
102
}
330
393
100
DictionaryVariables
280
     0
  1
1
  0
DICTIONARYVAR
  5
396
102
{ACAD_REACTORS
330
393
102
}
330
393
100
DictionaryVariables
280
     0
  1
2
  0
DICTIONARY
  5
3C9
330
45
100
AcDbDictionary
280
     1
281
     1
  3
ACAD_XREC_ROUNDTRIP
360
3CA
  0
DICTIONARY
  5
3C7
330
44
100
AcDbDictionary
280
     1
281
     1
  3
ACAD_XREC_ROUNDTRIP
360
3C8
  0
DICTIONARY
  5
3CB
330
46
100
AcDbDictionary
280
     1
281
     1
  3
ACAD_XREC_ROUNDTRIP
360
3CC
  0
DICTIONARY
  5
3D1
330
6C
100
AcDbDictionary
280
     1
281
     1
  3
ACAD_XREC_ROUNDTRIP
360
3D2
  0
DICTIONARY
  5
3CD
330
6A
100
AcDbDictionary
280
     1
281
     1
  3
ACAD_ROUNDTRIP_2008_TABLESTYLE_CELLSTYLEMAP
360
3CF
  3
ACAD_XREC_ROUNDTRIP
360
3CE
  0
DICTIONARY
  5
39F
330
2F
100
AcDbDictionary
280
     1
281
     1
  3
ACAD_XREC_ROUNDTRIP
360
3A0
  0
DICTIONARY
  5
3A5
330
32
100
AcDbDictionary
280
     1
281
     1
  3
ACAD_XREC_ROUNDTRIP
360
3A6
  0
DICTIONARY
  5
3AD
330
36
100
AcDbDictionary
280
     1
281
     1
  3
ACAD_XREC_ROUNDTRIP
360
3AE
  0
DICTIONARY
  5
3B5
330
3A
100
AcDbDictionary
280
     1
281
     1
  3
ACAD_XREC_ROUNDTRIP
360
3B6
  0
DICTIONARY
  5
3A9
330
34
100
AcDbDictionary
280
     1
281
     1
  3
ACAD_XREC_ROUNDTRIP
360
3AA
  0
DICTIONARY
  5
3AB
330
35
100
AcDbDictionary
280
     1
281
     1
  3
ACAD_XREC_ROUNDTRIP
360
3AC
  0
DICTIONARY
  5
3BB
330
3D
100
AcDbDictionary
280
     1
281
     1
  3
ACAD_XREC_ROUNDTRIP
360
3BC
  0
DICTIONARY
  5
3B3
330
39
100
AcDbDictionary
280
     1
281
     1
  3
ACAD_XREC_ROUNDTRIP
360
3B4
  0
DICTIONARY
  5
397
330
2B
100
AcDbDictionary
280
     1
281
     1
  3
ACAD_XREC_ROUNDTRIP
360
398
  0
DICTIONARY
  5
399
330
2C
100
AcDbDictionary
280
     1
281
     1
  3
ACAD_XREC_ROUNDTRIP
360
39A
  0
DICTIONARY
  5
39B
330
2D
100
AcDbDictionary
280
     1
281
     1
  3
ACAD_XREC_ROUNDTRIP
360
39C
  0
DICTIONARY
  5
39D
330
2E
100
AcDbDictionary
280
     1
281
     1
  3
ACAD_XREC_ROUNDTRIP
360
39E
  0
DICTIONARY
  5
3A3
330
31
100
AcDbDictionary
280
     1
281
     1
  3
ACAD_XREC_ROUNDTRIP
360
3A4
  0
DICTIONARY
  5
3B7
330
3B
100
AcDbDictionary
280
     1
281
     1
  3
ACAD_XREC_ROUNDTRIP
360
3B8
  0
DICTIONARY
  5
3B1
330
38
100
AcDbDictionary
280
     1
281
     1
  3
ACAD_XREC_ROUNDTRIP
360
3B2
  0
DICTIONARY
  5
3B9
330
3C
100
AcDbDictionary
280
     1
281
     1
  3
ACAD_XREC_ROUNDTRIP
360
3BA
  0
DICTIONARY
  5
3A7
330
33
100
AcDbDictionary
280
     1
281
     1
  3
ACAD_XREC_ROUNDTRIP
360
3A8
  0
DICTIONARY
  5
3C5
330
42
100
AcDbDictionary
280
     1
281
     1
  3
ACAD_XREC_ROUNDTRIP
360
3C6
  0
DICTIONARY
  5
3C3
330
41
100
AcDbDictionary
280
     1
281
     1
  3
ACAD_XREC_ROUNDTRIP
360
3C4
  0
DICTIONARY
  5
3BD
330
3E
100
AcDbDictionary
280
     1
281
     1
  3
ACAD_XREC_ROUNDTRIP
360
3BE
  0
DICTIONARY
  5
3BF
330
3F
100
AcDbDictionary
280
     1
281
     1
  3
ACAD_XREC_ROUNDTRIP
360
3C0
  0
DICTIONARY
  5
3AF
330
37
100
AcDbDictionary
280
     1
281
     1
  3
ACAD_XREC_ROUNDTRIP
360
3B0
  0
DICTIONARY
  5
3A1
330
30
100
AcDbDictionary
280
     1
281
     1
  3
ACAD_XREC_ROUNDTRIP
360
3A2
  0
DICTIONARY
  5
3C1
330
40
100
AcDbDictionary
280
     1
281
     1
  3
ACAD_XREC_ROUNDTRIP
360
3C2
  0
XRECORD
  5
3CA
102
{ACAD_REACTORS
330
3C9
102
}
330
3C9
100
AcDbXrecord
280
     1
102
MATERIAL
148
0.0
149
0.0
149
0.0
 93
        0
 94
      127
282
     0
 72
     1
 77
     1
171
     1
175
     1
179
     1
273
     0
  0
XRECORD
  5
3C8
102
{ACAD_REACTORS
330
3C7
102
}
330
3C7
100
AcDbXrecord
280
     1
102
MATERIAL
148
0.0
149
0.0
149
0.0
 93
        0
 94
      127
282
     0
 72
     1
 77
     1
171
     1
175
     1
179
     1
273
     0
  0
XRECORD
  5
3CC
102
{ACAD_REACTORS
330
3CB
102
}
330
3CB
100
AcDbXrecord
280
     1
102
MATERIAL
148
0.0
149
0.0
149
0.0
 93
        0
 94
      127
282
     0
 72
     1
 77
     1
171
     1
175
     1
179
     1
273
     0
  0
XRECORD
  5
3D2
102
{ACAD_REACTORS
330
3D1
102
}
330
3D1
100
AcDbXrecord
280
     1
102
ACAD_ROUNDTRIP_2010_MLEADER_STYLE
  0
CELLSTYLEMAP
  5
3CF
102
{ACAD_REACTORS
330
3CD
102
}
330
3CD
100
AcDbCellStyleMap
 90
        3
300
CELLSTYLE
  1
TABLEFORMAT_BEGIN
 90
        5
170
     1
 91
        0
 92
    32768
 62
   257
 93
        1
300
CONTENTFORMAT
  1
CONTENTFORMAT_BEGIN
 90
        0
 91
        0
 92
        4
 93
        0
300

 40
0.0
140
1.0
 94
        5
 62
     0
340
11
144
6.0
309
CONTENTFORMAT_END
171
     1
301
MARGIN
  1
CELLMARGIN_BEGIN
 40
1.5
 40
1.5
 40
1.5
 40
1.5
 40
1.5
 40
1.5
309
CELLMARGIN_END
 94
        6
 95
        1
302
GRIDFORMAT
  1
GRIDFORMAT_BEGIN
 90
        0
 91
        1
 62
     0
 92
       -2
340
14
 93
        0
 40
0.045
309
GRIDFORMAT_END
 95
        2
302
GRIDFORMAT
  1
GRIDFORMAT_BEGIN
 90
        0
 91
        1
 62
     0
 92
       -2
340
14
 93
        0
 40
0.045
309
GRIDFORMAT_END
 95
        4
302
GRIDFORMAT
  1
GRIDFORMAT_BEGIN
 90
        0
 91
        1
 62
     0
 92
       -2
340
14
 93
        0
 40
0.045
309
GRIDFORMAT_END
 95
        8
302
GRIDFORMAT
  1
GRIDFORMAT_BEGIN
 90
        0
 91
        1
 62
     0
 92
       -2
340
14
 93
        0
 40
0.045
309
GRIDFORMAT_END
 95
       16
302
GRIDFORMAT
  1
GRIDFORMAT_BEGIN
 90
        0
 91
        1
 62
     0
 92
       -2
340
14
 93
        0
 40
0.045
309
GRIDFORMAT_END
 95
       32
302
GRIDFORMAT
  1
GRIDFORMAT_BEGIN
 90
        0
 91
        1
 62
     0
 92
       -2
340
14
 93
        0
 40
0.045
309
GRIDFORMAT_END
309
TABLEFORMAT_END
  1
CELLSTYLE_BEGIN
 90
        1
 91
        1
300
_TITLE
309
CELLSTYLE_END
300
CELLSTYLE
  1
TABLEFORMAT_BEGIN
 90
        5
170
     1
 91
        0
 92
        0
 62
   257
 93
        1
300
CONTENTFORMAT
  1
CONTENTFORMAT_BEGIN
 90
        0
 91
        0
 92
        4
 93
        0
300

 40
0.0
140
1.0
 94
        5
 62
     0
340
11
144
4.5
309
CONTENTFORMAT_END
171
     1
301
MARGIN
  1
CELLMARGIN_BEGIN
 40
1.5
 40
1.5
 40
1.5
 40
1.5
 40
1.5
 40
1.5
309
CELLMARGIN_END
 94
        6
 95
        1
302
GRIDFORMAT
  1
GRIDFORMAT_BEGIN
 90
        0
 91
        1
 62
     0
 92
       -2
340
14
 93
        0
 40
0.045
309
GRIDFORMAT_END
 95
        2
302
GRIDFORMAT
  1
GRIDFORMAT_BEGIN
 90
        0
 91
        1
 62
     0
 92
       -2
340
14
 93
        0
 40
0.045
309
GRIDFORMAT_END
 95
        4
302
GRIDFORMAT
  1
GRIDFORMAT_BEGIN
 90
        0
 91
        1
 62
     0
 92
       -2
340
14
 93
        0
 40
0.045
309
GRIDFORMAT_END
 95
        8
302
GRIDFORMAT
  1
GRIDFORMAT_BEGIN
 90
        0
 91
        1
 62
     0
 92
       -2
340
14
 93
        0
 40
0.045
309
GRIDFORMAT_END
 95
       16
302
GRIDFORMAT
  1
GRIDFORMAT_BEGIN
 90
        0
 91
        1
 62
     0
 92
       -2
340
14
 93
        0
 40
0.045
309
GRIDFORMAT_END
 95
       32
302
GRIDFORMAT
  1
GRIDFORMAT_BEGIN
 90
        0
 91
        1
 62
     0
 92
       -2
340
14
 93
        0
 40
0.045
309
GRIDFORMAT_END
309
TABLEFORMAT_END
  1
CELLSTYLE_BEGIN
 90
        2
 91
        1
300
_HEADER
309
CELLSTYLE_END
300
CELLSTYLE
  1
TABLEFORMAT_BEGIN
 90
        5
170
     1
 91
        0
 92
        0
 62
   257
 93
        1
300
CONTENTFORMAT
  1
CONTENTFORMAT_BEGIN
 90
        0
 91
        0
 92
        4
 93
        0
300

 40
0.0
140
1.0
 94
        2
 62
     0
340
11
144
4.5
309
CONTENTFORMAT_END
171
     1
301
MARGIN
  1
CELLMARGIN_BEGIN
 40
1.5
 40
1.5
 40
1.5
 40
1.5
 40
1.5
 40
1.5
309
CELLMARGIN_END
 94
        6
 95
        1
302
GRIDFORMAT
  1
GRIDFORMAT_BEGIN
 90
        0
 91
        1
 62
     0
 92
       -2
340
14
 93
        0
 40
0.045
309
GRIDFORMAT_END
 95
        2
302
GRIDFORMAT
  1
GRIDFORMAT_BEGIN
 90
        0
 91
        1
 62
     0
 92
       -2
340
14
 93
        0
 40
0.045
309
GRIDFORMAT_END
 95
        4
302
GRIDFORMAT
  1
GRIDFORMAT_BEGIN
 90
        0
 91
        1
 62
     0
 92
       -2
340
14
 93
        0
 40
0.045
309
GRIDFORMAT_END
 95
        8
302
GRIDFORMAT
  1
GRIDFORMAT_BEGIN
 90
        0
 91
        1
 62
     0
 92
       -2
340
14
 93
        0
 40
0.045
309
GRIDFORMAT_END
 95
       16
302
GRIDFORMAT
  1
GRIDFORMAT_BEGIN
 90
        0
 91
        1
 62
     0
 92
       -2
340
14
 93
        0
 40
0.045
309
GRIDFORMAT_END
 95
       32
302
GRIDFORMAT
  1
GRIDFORMAT_BEGIN
 90
        0
 91
        1
 62
     0
 92
       -2
340
14
 93
        0
 40
0.045
309
GRIDFORMAT_END
309
TABLEFORMAT_END
  1
CELLSTYLE_BEGIN
 90
        3
 91
        2
300
_DATA
309
CELLSTYLE_END
  0
XRECORD
  5
3CE
102
{ACAD_REACTORS
330
3CD
102
}
330
3CD
100
AcDbXrecord
280
     1
102
ACAD_ROUNDTRIP_PRE2007_TABLESTYLE
 90
        4
 91
        0
  1

 92
        4
 93
        0
  2

 94
        4
 95
        0
  3

  0
XRECORD
  5
3A0
102
{ACAD_REACTORS
330
39F
102
}
330
39F
100
AcDbXrecord
280
     1
102
RTVSPropertyOp0
 70
     1
102
RTVSPropertyOp1
 70
     1
102
RTVSPropertyOp2
 70
     1
102
RTVSPropertyOp3
 70
     1
102
RTVSPropertyOp4
 70
     1
102
RTVSPropertyOp5
 70
     1
102
RTVSPropertyOp6
 70
     1
102
RTVSPropertyOp7
 70
     1
102
RTVSPropertyOp8
 70
     1
102
RTVSPropertyOp9
 70
     1
102
RTVSPropertyOp10
 70
     1
102
RTVSPropertyOp11
 70
     1
102
RTVSPropertyOp12
 70
     1
102
RTVSPropertyOp13
 70
     1
102
RTVSPropertyOp14
 70
     1
102
RTVSPropertyOp15
 70
     1
102
RTVSPropertyOp16
 70
     1
102
RTVSPropertyOp17
 70
     1
102
RTVSPropertyOp18
 70
     1
102
RTVSPropertyOp19
 70
     1
102
RTVSPropertyOp20
 70
     1
102
RTVSPropertyOp21
 70
     1
102
RTVSPropertyOp22
 70
     1
102
RTVSPropertyOp23
 70
     1
102
RTVSPropertyOp24
 70
     1
102
RTVSPropertyOp25
 70
     1
102
RTVSPropertyOp26
 70
     1
102
RTVSPropertyOp27
 70
     1
102
RTVSPropertyOp28
 70
     1
102
RTVSPropertyOp29
 70
     1
102
RTVSPropertyOp30
 70
     1
102
RTVSPropertyOp31
 70
     1
102
RTVSPropertyOp32
 70
     1
102
RTVSPropertyOp33
 70
     1
102
RTVSPropertyOp34
 70
     1
102
RTVSPropertyOp35
 70
     1
102
RTVSPropertyOp36
 70
     1
102
RTVSPropertyOp37
 70
     1
102
RTVSPropertyOp38
 70
     1
102
RTVSPropertyOp39
 70
     1
102
RTVSPropertyOp40
 70
     1
102
RTVSPropertyOp41
 70
     1
102
RTVSPropertyOp42
 70
     1
102
RTVSPropertyOp43
 70
     1
102
RTVSPropertyOp44
 70
     1
102
RTVSPropertyOp45
 70
     1
102
RTVSPropertyOp46
 70
     1
102
RTVSPropertyOp47
 70
     1
102
RTVSPropertyOp48
 70
     1
102
RTVSPropertyOp49
 70
     1
102
RTVSPropertyOp50
 70
     1
102
RTVSPropertyOp51
 70
     0
102
RTVSPropertyOp52
 70
     0
102
RTVSPropertyOp53
 70
     1
102
RTVSPropertyOp54
 70
     1
102
RTVSPropertyOp55
 70
     1
102
RTVSPropertyOp56
 70
     1
102
RTVSPropertyOp57
 70
     1
102
RTVSPost2010Prop28
280
     1
102
RTVSPost2010PropOp28
 70
     1
102
RTVSPost2010Prop29
280
     1
102
RTVSPost2010PropOp29
 70
     1
102
RTVSPost2010Prop30
280
     0
102
RTVSPost2010PropOp30
 70
     1
102
RTVSPost2010Prop31
280
     0
102
RTVSPost2010PropOp31
 70
     1
102
RTVSPost2010Prop32
280
     0
102
RTVSPost2010PropOp32
 70
     1
102
RTVSPost2010Prop33
280
     0
102
RTVSPost2010PropOp33
 70
     1
102
RTVSPost2010Prop34
280
     0
102
RTVSPost2010PropOp34
 70
     1
102
RTVSPost2010Prop35
280
     0
102
RTVSPost2010PropOp35
 70
     1
102
RTVSPost2010Prop36
280
     0
102
RTVSPost2010PropOp36
 70
     1
102
RTVSPost2010Prop37
 90
       50
102
RTVSPost2010PropOp37
 70
     1
102
RTVSPost2010Prop38
140
0.0
102
RTVSPost2010PropOp38
 70
     1
102
RTVSPost2010Prop39
140
1.0
102
RTVSPost2010PropOp39
 70
     1
102
RTVSPost2010Prop40
 90
        0
102
RTVSPost2010PropOp40
 70
     1
102
RTVSPost2010Prop41ColorIndex
 90
       18
102
RTVSPost2010Prop41ColorRGB
 90
        0
102
RTVSPost2010PropOp41
 70
     1
102
RTVSPost2010Prop42
 90
       50
102
RTVSPost2010PropOp42
 70
     1
102
RTVSPost2010Prop43
 90
        3
102
RTVSPost2010PropOp43
 70
     1
102
RTVSPost2010Prop44ColorIndex
 90
        5
102
RTVSPost2010Prop44ColorRGB
 90
      255
102
RTVSPost2010PropOp44
 70
     1
102
RTVSPost2010Prop45
280
     0
102
RTVSPost2010PropOp45
 70
     1
102
RTVSPost2010Prop46
 90
       50
102
RTVSPost2010PropOp46
 70
     1
102
RTVSPost2010Prop47
 90
       50
102
RTVSPost2010PropOp47
 70
     1
102
RTVSPost2010Prop48
 90
       50
102
RTVSPost2010PropOp48
 70
     1
102
RTVSPost2010Prop49
280
     0
102
RTVSPost2010PropOp49
 70
     1
102
RTVSPost2010Prop50
 90
       50
102
RTVSPost2010PropOp50
 70
     1
102
RTVSPost2010Prop51ColorIndex
 90
      256
102
RTVSPost2010Prop51ColorRGB
 90
-16777216
102
RTVSPost2010PropOp51
 70
     0
102
RTVSPost2010Prop52
140
1.0
102
RTVSPost2010PropOp52
 70
     0
102
RTVSPost2010Prop53
 90
        2
102
RTVSPost2010PropOp53
 70
     1
102
RTVSPost2010Prop54
  1
strokes_ogs.tif
102
RTVSPost2010PropOp54
 70
     1
102
RTVSPost2010Prop55
280
     0
102
RTVSPost2010PropOp55
 70
     1
102
RTVSPost2010Prop56
140
1.0
102
RTVSPost2010PropOp56
 70
     1
102
RTVSPost2010Prop57
140
1.0
102
RTVSPost2010PropOp57
 70
     1
  0
XRECORD
  5
3A6
102
{ACAD_REACTORS
330
3A5
102
}
330
3A5
100
AcDbXrecord
280
     1
102
RTVSPropertyOp0
 70
     1
102
RTVSPropertyOp1
 70
     1
102
RTVSPropertyOp2
 70
     1
102
RTVSPropertyOp3
 70
     1
102
RTVSPropertyOp4
 70
     1
102
RTVSPropertyOp5
 70
     1
102
RTVSPropertyOp6
 70
     1
102
RTVSPropertyOp7
 70
     1
102
RTVSPropertyOp8
 70
     1
102
RTVSPropertyOp9
 70
     1
102
RTVSPropertyOp10
 70
     1
102
RTVSPropertyOp11
 70
     1
102
RTVSPropertyOp12
 70
     1
102
RTVSPropertyOp13
 70
     1
102
RTVSPropertyOp14
 70
     1
102
RTVSPropertyOp15
 70
     1
102
RTVSPropertyOp16
 70
     1
102
RTVSPropertyOp17
 70
     1
102
RTVSPropertyOp18
 70
     1
102
RTVSPropertyOp19
 70
     1
102
RTVSPropertyOp20
 70
     1
102
RTVSPropertyOp21
 70
     1
102
RTVSPropertyOp22
 70
     1
102
RTVSPropertyOp23
 70
     1
102
RTVSPropertyOp24
 70
     1
102
RTVSPropertyOp25
 70
     1
102
RTVSPropertyOp26
 70
     1
102
RTVSPropertyOp27
 70
     1
102
RTVSPropertyOp28
 70
     1
102
RTVSPropertyOp29
 70
     1
102
RTVSPropertyOp30
 70
     1
102
RTVSPropertyOp31
 70
     1
102
RTVSPropertyOp32
 70
     1
102
RTVSPropertyOp33
 70
     1
102
RTVSPropertyOp34
 70
     1
102
RTVSPropertyOp35
 70
     1
102
RTVSPropertyOp36
 70
     1
102
RTVSPropertyOp37
 70
     1
102
RTVSPropertyOp38
 70
     1
102
RTVSPropertyOp39
 70
     1
102
RTVSPropertyOp40
 70
     1
102
RTVSPropertyOp41
 70
     1
102
RTVSPropertyOp42
 70
     1
102
RTVSPropertyOp43
 70
     1
102
RTVSPropertyOp44
 70
     1
102
RTVSPropertyOp45
 70
     1
102
RTVSPropertyOp46
 70
     1
102
RTVSPropertyOp47
 70
     1
102
RTVSPropertyOp48
 70
     1
102
RTVSPropertyOp49
 70
     1
102
RTVSPropertyOp50
 70
     1
102
RTVSPropertyOp51
 70
     0
102
RTVSPropertyOp52
 70
     0
102
RTVSPropertyOp53
 70
     1
102
RTVSPropertyOp54
 70
     1
102
RTVSPropertyOp55
 70
     1
102
RTVSPropertyOp56
 70
     1
102
RTVSPropertyOp57
 70
     1
102
RTVSPost2010Prop28
280
     0
102
RTVSPost2010PropOp28
 70
     1
102
RTVSPost2010Prop29
280
     1
102
RTVSPost2010PropOp29
 70
     1
102
RTVSPost2010Prop30
280
     1
102
RTVSPost2010PropOp30
 70
     1
102
RTVSPost2010Prop31
280
     0
102
RTVSPost2010PropOp31
 70
     1
102
RTVSPost2010Prop32
280
     0
102
RTVSPost2010PropOp32
 70
     1
102
RTVSPost2010Prop33
280
     0
102
RTVSPost2010PropOp33
 70
     1
102
RTVSPost2010Prop34
280
     0
102
RTVSPost2010PropOp34
 70
     1
102
RTVSPost2010Prop35
280
     0
102
RTVSPost2010PropOp35
 70
     1
102
RTVSPost2010Prop36
280
     0
102
RTVSPost2010PropOp36
 70
     1
102
RTVSPost2010Prop37
 90
       50
102
RTVSPost2010PropOp37
 70
     1
102
RTVSPost2010Prop38
140
0.0
102
RTVSPost2010PropOp38
 70
     1
102
RTVSPost2010Prop39
140
1.0
102
RTVSPost2010PropOp39
 70
     1
102
RTVSPost2010Prop40
 90
        0
102
RTVSPost2010PropOp40
 70
     1
102
RTVSPost2010Prop41ColorIndex
 90
       18
102
RTVSPost2010Prop41ColorRGB
 90
        0
102
RTVSPost2010PropOp41
 70
     1
102
RTVSPost2010Prop42
 90
       50
102
RTVSPost2010PropOp42
 70
     1
102
RTVSPost2010Prop43
 90
        3
102
RTVSPost2010PropOp43
 70
     1
102
RTVSPost2010Prop44ColorIndex
 90
        5
102
RTVSPost2010Prop44ColorRGB
 90
      255
102
RTVSPost2010PropOp44
 70
     1
102
RTVSPost2010Prop45
280
     0
102
RTVSPost2010PropOp45
 70
     1
102
RTVSPost2010Prop46
 90
       50
102
RTVSPost2010PropOp46
 70
     1
102
RTVSPost2010Prop47
 90
       50
102
RTVSPost2010PropOp47
 70
     1
102
RTVSPost2010Prop48
 90
       50
102
RTVSPost2010PropOp48
 70
     1
102
RTVSPost2010Prop49
280
     0
102
RTVSPost2010PropOp49
 70
     1
102
RTVSPost2010Prop50
 90
       50
102
RTVSPost2010PropOp50
 70
     1
102
RTVSPost2010Prop51ColorIndex
 90
      256
102
RTVSPost2010Prop51ColorRGB
 90
-16777216
102
RTVSPost2010PropOp51
 70
     0
102
RTVSPost2010Prop52
140
1.0
102
RTVSPost2010PropOp52
 70
     0
102
RTVSPost2010Prop53
 90
        2
102
RTVSPost2010PropOp53
 70
     1
102
RTVSPost2010Prop54
  1
strokes_ogs.tif
102
RTVSPost2010PropOp54
 70
     1
102
RTVSPost2010Prop55
280
     0
102
RTVSPost2010PropOp55
 70
     1
102
RTVSPost2010Prop56
140
1.0
102
RTVSPost2010PropOp56
 70
     1
102
RTVSPost2010Prop57
140
1.0
102
RTVSPost2010PropOp57
 70
     1
  0
XRECORD
  5
3AE
102
{ACAD_REACTORS
330
3AD
102
}
330
3AD
100
AcDbXrecord
280
     1
102
RTVSPropertyOp0
 70
     1
102
RTVSPropertyOp1
 70
     1
102
RTVSPropertyOp2
 70
     1
102
RTVSPropertyOp3
 70
     1
102
RTVSPropertyOp4
 70
     1
102
RTVSPropertyOp5
 70
     1
102
RTVSPropertyOp6
 70
     1
102
RTVSPropertyOp7
 70
     1
102
RTVSPropertyOp8
 70
     1
102
RTVSPropertyOp9
 70
     1
102
RTVSPropertyOp10
 70
     1
102
RTVSPropertyOp11
 70
     1
102
RTVSPropertyOp12
 70
     1
102
RTVSPropertyOp13
 70
     1
102
RTVSPropertyOp14
 70
     1
102
RTVSPropertyOp15
 70
     1
102
RTVSPropertyOp16
 70
     1
102
RTVSPropertyOp17
 70
     1
102
RTVSPropertyOp18
 70
     1
102
RTVSPropertyOp19
 70
     1
102
RTVSPropertyOp20
 70
     1
102
RTVSPropertyOp21
 70
     1
102
RTVSPropertyOp22
 70
     1
102
RTVSPropertyOp23
 70
     1
102
RTVSPropertyOp24
 70
     1
102
RTVSPropertyOp25
 70
     1
102
RTVSPropertyOp26
 70
     1
102
RTVSPropertyOp27
 70
     1
102
RTVSPropertyOp28
 70
     1
102
RTVSPropertyOp29
 70
     1
102
RTVSPropertyOp30
 70
     1
102
RTVSPropertyOp31
 70
     1
102
RTVSPropertyOp32
 70
     1
102
RTVSPropertyOp33
 70
     1
102
RTVSPropertyOp34
 70
     1
102
RTVSPropertyOp35
 70
     1
102
RTVSPropertyOp36
 70
     1
102
RTVSPropertyOp37
 70
     1
102
RTVSPropertyOp38
 70
     1
102
RTVSPropertyOp39
 70
     1
102
RTVSPropertyOp40
 70
     1
102
RTVSPropertyOp41
 70
     1
102
RTVSPropertyOp42
 70
     1
102
RTVSPropertyOp43
 70
     1
102
RTVSPropertyOp44
 70
     1
102
RTVSPropertyOp45
 70
     1
102
RTVSPropertyOp46
 70
     1
102
RTVSPropertyOp47
 70
     1
102
RTVSPropertyOp48
 70
     1
102
RTVSPropertyOp49
 70
     1
102
RTVSPropertyOp50
 70
     1
102
RTVSPropertyOp51
 70
     0
102
RTVSPropertyOp52
 70
     0
102
RTVSPropertyOp53
 70
     1
102
RTVSPropertyOp54
 70
     1
102
RTVSPropertyOp55
 70
     1
102
RTVSPropertyOp56
 70
     1
102
RTVSPropertyOp57
 70
     1
102
RTVSPost2010Prop28
280
     0
102
RTVSPost2010PropOp28
 70
     1
102
RTVSPost2010Prop29
280
     1
102
RTVSPost2010PropOp29
 70
     1
102
RTVSPost2010Prop30
280
     1
102
RTVSPost2010PropOp30
 70
     1
102
RTVSPost2010Prop31
280
     0
102
RTVSPost2010PropOp31
 70
     1
102
RTVSPost2010Prop32
280
     0
102
RTVSPost2010PropOp32
 70
     1
102
RTVSPost2010Prop33
280
     0
102
RTVSPost2010PropOp33
 70
     1
102
RTVSPost2010Prop34
280
     0
102
RTVSPost2010PropOp34
 70
     1
102
RTVSPost2010Prop35
280
     0
102
RTVSPost2010PropOp35
 70
     1
102
RTVSPost2010Prop36
280
     0
102
RTVSPost2010PropOp36
 70
     1
102
RTVSPost2010Prop37
 90
       50
102
RTVSPost2010PropOp37
 70
     1
102
RTVSPost2010Prop38
140
0.0
102
RTVSPost2010PropOp38
 70
     1
102
RTVSPost2010Prop39
140
1.0
102
RTVSPost2010PropOp39
 70
     1
102
RTVSPost2010Prop40
 90
        0
102
RTVSPost2010PropOp40
 70
     1
102
RTVSPost2010Prop41ColorIndex
 90
       18
102
RTVSPost2010Prop41ColorRGB
 90
        0
102
RTVSPost2010PropOp41
 70
     1
102
RTVSPost2010Prop42
 90
       50
102
RTVSPost2010PropOp42
 70
     1
102
RTVSPost2010Prop43
 90
        3
102
RTVSPost2010PropOp43
 70
     1
102
RTVSPost2010Prop44ColorIndex
 90
        5
102
RTVSPost2010Prop44ColorRGB
 90
      255
102
RTVSPost2010PropOp44
 70
     1
102
RTVSPost2010Prop45
280
     0
102
RTVSPost2010PropOp45
 70
     1
102
RTVSPost2010Prop46
 90
       50
102
RTVSPost2010PropOp46
 70
     1
102
RTVSPost2010Prop47
 90
       50
102
RTVSPost2010PropOp47
 70
     1
102
RTVSPost2010Prop48
 90
       50
102
RTVSPost2010PropOp48
 70
     1
102
RTVSPost2010Prop49
280
     0
102
RTVSPost2010PropOp49
 70
     1
102
RTVSPost2010Prop50
 90
       50
102
RTVSPost2010PropOp50
 70
     1
102
RTVSPost2010Prop51ColorIndex
 90
      256
102
RTVSPost2010Prop51ColorRGB
 90
-16777216
102
RTVSPost2010PropOp51
 70
     0
102
RTVSPost2010Prop52
140
1.0
102
RTVSPost2010PropOp52
 70
     0
102
RTVSPost2010Prop53
 90
        2
102
RTVSPost2010PropOp53
 70
     1
102
RTVSPost2010Prop54
  1
strokes_ogs.tif
102
RTVSPost2010PropOp54
 70
     1
102
RTVSPost2010Prop55
280
     0
102
RTVSPost2010PropOp55
 70
     1
102
RTVSPost2010Prop56
140
1.0
102
RTVSPost2010PropOp56
 70
     1
102
RTVSPost2010Prop57
140
1.0
102
RTVSPost2010PropOp57
 70
     1
  0
XRECORD
  5
3B6
102
{ACAD_REACTORS
330
3B5
102
}
330
3B5
100
AcDbXrecord
280
     1
102
RTVSPropertyOp0
 70
     1
102
RTVSPropertyOp1
 70
     1
102
RTVSPropertyOp2
 70
     1
102
RTVSPropertyOp3
 70
     1
102
RTVSPropertyOp4
 70
     1
102
RTVSPropertyOp5
 70
     1
102
RTVSPropertyOp6
 70
     1
102
RTVSPropertyOp7
 70
     1
102
RTVSPropertyOp8
 70
     1
102
RTVSPropertyOp9
 70
     1
102
RTVSPropertyOp10
 70
     1
102
RTVSPropertyOp11
 70
     1
102
RTVSPropertyOp12
 70
     1
102
RTVSPropertyOp13
 70
     1
102
RTVSPropertyOp14
 70
     1
102
RTVSPropertyOp15
 70
     1
102
RTVSPropertyOp16
 70
     1
102
RTVSPropertyOp17
 70
     1
102
RTVSPropertyOp18
 70
     1
102
RTVSPropertyOp19
 70
     1
102
RTVSPropertyOp20
 70
     1
102
RTVSPropertyOp21
 70
     1
102
RTVSPropertyOp22
 70
     1
102
RTVSPropertyOp23
 70
     1
102
RTVSPropertyOp24
 70
     1
102
RTVSPropertyOp25
 70
     1
102
RTVSPropertyOp26
 70
     1
102
RTVSPropertyOp27
 70
     1
102
RTVSPropertyOp28
 70
     1
102
RTVSPropertyOp29
 70
     1
102
RTVSPropertyOp30
 70
     1
102
RTVSPropertyOp31
 70
     1
102
RTVSPropertyOp32
 70
     1
102
RTVSPropertyOp33
 70
     1
102
RTVSPropertyOp34
 70
     1
102
RTVSPropertyOp35
 70
     1
102
RTVSPropertyOp36
 70
     1
102
RTVSPropertyOp37
 70
     1
102
RTVSPropertyOp38
 70
     1
102
RTVSPropertyOp39
 70
     1
102
RTVSPropertyOp40
 70
     1
102
RTVSPropertyOp41
 70
     1
102
RTVSPropertyOp42
 70
     1
102
RTVSPropertyOp43
 70
     1
102
RTVSPropertyOp44
 70
     1
102
RTVSPropertyOp45
 70
     1
102
RTVSPropertyOp46
 70
     1
102
RTVSPropertyOp47
 70
     1
102
RTVSPropertyOp48
 70
     1
102
RTVSPropertyOp49
 70
     1
102
RTVSPropertyOp50
 70
     1
102
RTVSPropertyOp51
 70
     0
102
RTVSPropertyOp52
 70
     0
102
RTVSPropertyOp53
 70
     1
102
RTVSPropertyOp54
 70
     1
102
RTVSPropertyOp55
 70
     1
102
RTVSPropertyOp56
 70
     1
102
RTVSPropertyOp57
 70
     1
102
RTVSPost2010Prop28
280
     0
102
RTVSPost2010PropOp28
 70
     1
102
RTVSPost2010Prop29
280
     1
102
RTVSPost2010PropOp29
 70
     1
102
RTVSPost2010Prop30
280
     1
102
RTVSPost2010PropOp30
 70
     1
102
RTVSPost2010Prop31
280
     0
102
RTVSPost2010PropOp31
 70
     1
102
RTVSPost2010Prop32
280
     0
102
RTVSPost2010PropOp32
 70
     1
102
RTVSPost2010Prop33
280
     0
102
RTVSPost2010PropOp33
 70
     1
102
RTVSPost2010Prop34
280
     0
102
RTVSPost2010PropOp34
 70
     1
102
RTVSPost2010Prop35
280
     0
102
RTVSPost2010PropOp35
 70
     1
102
RTVSPost2010Prop36
280
     0
102
RTVSPost2010PropOp36
 70
     1
102
RTVSPost2010Prop37
 90
       50
102
RTVSPost2010PropOp37
 70
     1
102
RTVSPost2010Prop38
140
0.0
102
RTVSPost2010PropOp38
 70
     1
102
RTVSPost2010Prop39
140
1.0
102
RTVSPost2010PropOp39
 70
     1
102
RTVSPost2010Prop40
 90
        0
102
RTVSPost2010PropOp40
 70
     1
102
RTVSPost2010Prop41ColorIndex
 90
       18
102
RTVSPost2010Prop41ColorRGB
 90
        0
102
RTVSPost2010PropOp41
 70
     1
102
RTVSPost2010Prop42
 90
       50
102
RTVSPost2010PropOp42
 70
     1
102
RTVSPost2010Prop43
 90
        3
102
RTVSPost2010PropOp43
 70
     1
102
RTVSPost2010Prop44ColorIndex
 90
        5
102
RTVSPost2010Prop44ColorRGB
 90
      255
102
RTVSPost2010PropOp44
 70
     1
102
RTVSPost2010Prop45
280
     0
102
RTVSPost2010PropOp45
 70
     1
102
RTVSPost2010Prop46
 90
       50
102
RTVSPost2010PropOp46
 70
     1
102
RTVSPost2010Prop47
 90
       50
102
RTVSPost2010PropOp47
 70
     1
102
RTVSPost2010Prop48
 90
       50
102
RTVSPost2010PropOp48
 70
     1
102
RTVSPost2010Prop49
280
     0
102
RTVSPost2010PropOp49
 70
     1
102
RTVSPost2010Prop50
 90
       50
102
RTVSPost2010PropOp50
 70
     1
102
RTVSPost2010Prop51ColorIndex
 90
      256
102
RTVSPost2010Prop51ColorRGB
 90
-16777216
102
RTVSPost2010PropOp51
 70
     0
102
RTVSPost2010Prop52
140
1.0
102
RTVSPost2010PropOp52
 70
     0
102
RTVSPost2010Prop53
 90
        2
102
RTVSPost2010PropOp53
 70
     1
102
RTVSPost2010Prop54
  1
strokes_ogs.tif
102
RTVSPost2010PropOp54
 70
     1
102
RTVSPost2010Prop55
280
     0
102
RTVSPost2010PropOp55
 70
     1
102
RTVSPost2010Prop56
140
1.0
102
RTVSPost2010PropOp56
 70
     1
102
RTVSPost2010Prop57
140
1.0
102
RTVSPost2010PropOp57
 70
     1
  0
XRECORD
  5
3AA
102
{ACAD_REACTORS
330
3A9
102
}
330
3A9
100
AcDbXrecord
280
     1
102
RTVSPropertyOp0
 70
     1
102
RTVSPropertyOp1
 70
     1
102
RTVSPropertyOp2
 70
     1
102
RTVSPropertyOp3
 70
     1
102
RTVSPropertyOp4
 70
     1
102
RTVSPropertyOp5
 70
     1
102
RTVSPropertyOp6
 70
     1
102
RTVSPropertyOp7
 70
     1
102
RTVSPropertyOp8
 70
     1
102
RTVSPropertyOp9
 70
     1
102
RTVSPropertyOp10
 70
     1
102
RTVSPropertyOp11
 70
     1
102
RTVSPropertyOp12
 70
     1
102
RTVSPropertyOp13
 70
     1
102
RTVSPropertyOp14
 70
     1
102
RTVSPropertyOp15
 70
     1
102
RTVSPropertyOp16
 70
     1
102
RTVSPropertyOp17
 70
     1
102
RTVSPropertyOp18
 70
     1
102
RTVSPropertyOp19
 70
     1
102
RTVSPropertyOp20
 70
     1
102
RTVSPropertyOp21
 70
     1
102
RTVSPropertyOp22
 70
     1
102
RTVSPropertyOp23
 70
     1
102
RTVSPropertyOp24
 70
     1
102
RTVSPropertyOp25
 70
     1
102
RTVSPropertyOp26
 70
     1
102
RTVSPropertyOp27
 70
     1
102
RTVSPropertyOp28
 70
     1
102
RTVSPropertyOp29
 70
     1
102
RTVSPropertyOp30
 70
     1
102
RTVSPropertyOp31
 70
     1
102
RTVSPropertyOp32
 70
     1
102
RTVSPropertyOp33
 70
     1
102
RTVSPropertyOp34
 70
     1
102
RTVSPropertyOp35
 70
     1
102
RTVSPropertyOp36
 70
     1
102
RTVSPropertyOp37
 70
     1
102
RTVSPropertyOp38
 70
     1
102
RTVSPropertyOp39
 70
     1
102
RTVSPropertyOp40
 70
     1
102
RTVSPropertyOp41
 70
     1
102
RTVSPropertyOp42
 70
     1
102
RTVSPropertyOp43
 70
     1
102
RTVSPropertyOp44
 70
     1
102
RTVSPropertyOp45
 70
     1
102
RTVSPropertyOp46
 70
     1
102
RTVSPropertyOp47
 70
     1
102
RTVSPropertyOp48
 70
     1
102
RTVSPropertyOp49
 70
     1
102
RTVSPropertyOp50
 70
     1
102
RTVSPropertyOp51
 70
     0
102
RTVSPropertyOp52
 70
     0
102
RTVSPropertyOp53
 70
     1
102
RTVSPropertyOp54
 70
     1
102
RTVSPropertyOp55
 70
     1
102
RTVSPropertyOp56
 70
     1
102
RTVSPropertyOp57
 70
     1
102
RTVSPost2010Prop28
280
     0
102
RTVSPost2010PropOp28
 70
     1
102
RTVSPost2010Prop29
280
     1
102
RTVSPost2010PropOp29
 70
     1
102
RTVSPost2010Prop30
280
     1
102
RTVSPost2010PropOp30
 70
     1
102
RTVSPost2010Prop31
280
     0
102
RTVSPost2010PropOp31
 70
     1
102
RTVSPost2010Prop32
280
     0
102
RTVSPost2010PropOp32
 70
     1
102
RTVSPost2010Prop33
280
     0
102
RTVSPost2010PropOp33
 70
     1
102
RTVSPost2010Prop34
280
     0
102
RTVSPost2010PropOp34
 70
     1
102
RTVSPost2010Prop35
280
     0
102
RTVSPost2010PropOp35
 70
     1
102
RTVSPost2010Prop36
280
     0
102
RTVSPost2010PropOp36
 70
     1
102
RTVSPost2010Prop37
 90
       50
102
RTVSPost2010PropOp37
 70
     1
102
RTVSPost2010Prop38
140
0.0
102
RTVSPost2010PropOp38
 70
     1
102
RTVSPost2010Prop39
140
1.0
102
RTVSPost2010PropOp39
 70
     1
102
RTVSPost2010Prop40
 90
        0
102
RTVSPost2010PropOp40
 70
     1
102
RTVSPost2010Prop41ColorIndex
 90
       18
102
RTVSPost2010Prop41ColorRGB
 90
        0
102
RTVSPost2010PropOp41
 70
     1
102
RTVSPost2010Prop42
 90
       50
102
RTVSPost2010PropOp42
 70
     1
102
RTVSPost2010Prop43
 90
        3
102
RTVSPost2010PropOp43
 70
     1
102
RTVSPost2010Prop44ColorIndex
 90
        5
102
RTVSPost2010Prop44ColorRGB
 90
      255
102
RTVSPost2010PropOp44
 70
     1
102
RTVSPost2010Prop45
280
     0
102
RTVSPost2010PropOp45
 70
     1
102
RTVSPost2010Prop46
 90
       50
102
RTVSPost2010PropOp46
 70
     1
102
RTVSPost2010Prop47
 90
       50
102
RTVSPost2010PropOp47
 70
     1
102
RTVSPost2010Prop48
 90
       50
102
RTVSPost2010PropOp48
 70
     1
102
RTVSPost2010Prop49
280
     0
102
RTVSPost2010PropOp49
 70
     1
102
RTVSPost2010Prop50
 90
       50
102
RTVSPost2010PropOp50
 70
     1
102
RTVSPost2010Prop51ColorIndex
 90
      256
102
RTVSPost2010Prop51ColorRGB
 90
-16777216
102
RTVSPost2010PropOp51
 70
     0
102
RTVSPost2010Prop52
140
1.0
102
RTVSPost2010PropOp52
 70
     0
102
RTVSPost2010Prop53
 90
        2
102
RTVSPost2010PropOp53
 70
     1
102
RTVSPost2010Prop54
  1
strokes_ogs.tif
102
RTVSPost2010PropOp54
 70
     1
102
RTVSPost2010Prop55
280
     0
102
RTVSPost2010PropOp55
 70
     1
102
RTVSPost2010Prop56
140
1.0
102
RTVSPost2010PropOp56
 70
     1
102
RTVSPost2010Prop57
140
1.0
102
RTVSPost2010PropOp57
 70
     1
  0
XRECORD
  5
3AC
102
{ACAD_REACTORS
330
3AB
102
}
330
3AB
100
AcDbXrecord
280
     1
102
RTVSPropertyOp0
 70
     1
102
RTVSPropertyOp1
 70
     1
102
RTVSPropertyOp2
 70
     1
102
RTVSPropertyOp3
 70
     1
102
RTVSPropertyOp4
 70
     1
102
RTVSPropertyOp5
 70
     1
102
RTVSPropertyOp6
 70
     1
102
RTVSPropertyOp7
 70
     1
102
RTVSPropertyOp8
 70
     1
102
RTVSPropertyOp9
 70
     1
102
RTVSPropertyOp10
 70
     1
102
RTVSPropertyOp11
 70
     1
102
RTVSPropertyOp12
 70
     1
102
RTVSPropertyOp13
 70
     1
102
RTVSPropertyOp14
 70
     1
102
RTVSPropertyOp15
 70
     1
102
RTVSPropertyOp16
 70
     1
102
RTVSPropertyOp17
 70
     1
102
RTVSPropertyOp18
 70
     1
102
RTVSPropertyOp19
 70
     1
102
RTVSPropertyOp20
 70
     1
102
RTVSPropertyOp21
 70
     1
102
RTVSPropertyOp22
 70
     1
102
RTVSPropertyOp23
 70
     1
102
RTVSPropertyOp24
 70
     1
102
RTVSPropertyOp25
 70
     1
102
RTVSPropertyOp26
 70
     1
102
RTVSPropertyOp27
 70
     1
102
RTVSPropertyOp28
 70
     1
102
RTVSPropertyOp29
 70
     1
102
RTVSPropertyOp30
 70
     1
102
RTVSPropertyOp31
 70
     1
102
RTVSPropertyOp32
 70
     1
102
RTVSPropertyOp33
 70
     1
102
RTVSPropertyOp34
 70
     1
102
RTVSPropertyOp35
 70
     1
102
RTVSPropertyOp36
 70
     1
102
RTVSPropertyOp37
 70
     1
102
RTVSPropertyOp38
 70
     1
102
RTVSPropertyOp39
 70
     1
102
RTVSPropertyOp40
 70
     1
102
RTVSPropertyOp41
 70
     1
102
RTVSPropertyOp42
 70
     1
102
RTVSPropertyOp43
 70
     1
102
RTVSPropertyOp44
 70
     1
102
RTVSPropertyOp45
 70
     1
102
RTVSPropertyOp46
 70
     1
102
RTVSPropertyOp47
 70
     1
102
RTVSPropertyOp48
 70
     1
102
RTVSPropertyOp49
 70
     1
102
RTVSPropertyOp50
 70
     1
102
RTVSPropertyOp51
 70
     0
102
RTVSPropertyOp52
 70
     0
102
RTVSPropertyOp53
 70
     1
102
RTVSPropertyOp54
 70
     1
102
RTVSPropertyOp55
 70
     1
102
RTVSPropertyOp56
 70
     1
102
RTVSPropertyOp57
 70
     1
102
RTVSPost2010Prop28
280
     0
102
RTVSPost2010PropOp28
 70
     1
102
RTVSPost2010Prop29
280
     1
102
RTVSPost2010PropOp29
 70
     1
102
RTVSPost2010Prop30
280
     1
102
RTVSPost2010PropOp30
 70
     1
102
RTVSPost2010Prop31
280
     0
102
RTVSPost2010PropOp31
 70
     1
102
RTVSPost2010Prop32
280
     0
102
RTVSPost2010PropOp32
 70
     1
102
RTVSPost2010Prop33
280
     0
102
RTVSPost2010PropOp33
 70
     1
102
RTVSPost2010Prop34
280
     0
102
RTVSPost2010PropOp34
 70
     1
102
RTVSPost2010Prop35
280
     0
102
RTVSPost2010PropOp35
 70
     1
102
RTVSPost2010Prop36
280
     0
102
RTVSPost2010PropOp36
 70
     1
102
RTVSPost2010Prop37
 90
       50
102
RTVSPost2010PropOp37
 70
     1
102
RTVSPost2010Prop38
140
0.0
102
RTVSPost2010PropOp38
 70
     1
102
RTVSPost2010Prop39
140
1.0
102
RTVSPost2010PropOp39
 70
     1
102
RTVSPost2010Prop40
 90
        0
102
RTVSPost2010PropOp40
 70
     1
102
RTVSPost2010Prop41ColorIndex
 90
       18
102
RTVSPost2010Prop41ColorRGB
 90
        0
102
RTVSPost2010PropOp41
 70
     1
102
RTVSPost2010Prop42
 90
       50
102
RTVSPost2010PropOp42
 70
     1
102
RTVSPost2010Prop43
 90
        3
102
RTVSPost2010PropOp43
 70
     1
102
RTVSPost2010Prop44ColorIndex
 90
        5
102
RTVSPost2010Prop44ColorRGB
 90
      255
102
RTVSPost2010PropOp44
 70
     1
102
RTVSPost2010Prop45
280
     0
102
RTVSPost2010PropOp45
 70
     1
102
RTVSPost2010Prop46
 90
       50
102
RTVSPost2010PropOp46
 70
     1
102
RTVSPost2010Prop47
 90
       50
102
RTVSPost2010PropOp47
 70
     1
102
RTVSPost2010Prop48
 90
       50
102
RTVSPost2010PropOp48
 70
     1
102
RTVSPost2010Prop49
280
     0
102
RTVSPost2010PropOp49
 70
     1
102
RTVSPost2010Prop50
 90
       50
102
RTVSPost2010PropOp50
 70
     1
102
RTVSPost2010Prop51ColorIndex
 90
      256
102
RTVSPost2010Prop51ColorRGB
 90
-16777216
102
RTVSPost2010PropOp51
 70
     0
102
RTVSPost2010Prop52
140
1.0
102
RTVSPost2010PropOp52
 70
     0
102
RTVSPost2010Prop53
 90
        2
102
RTVSPost2010PropOp53
 70
     1
102
RTVSPost2010Prop54
  1
strokes_ogs.tif
102
RTVSPost2010PropOp54
 70
     1
102
RTVSPost2010Prop55
280
     0
102
RTVSPost2010PropOp55
 70
     1
102
RTVSPost2010Prop56
140
1.0
102
RTVSPost2010PropOp56
 70
     1
102
RTVSPost2010Prop57
140
1.0
102
RTVSPost2010PropOp57
 70
     1
  0
XRECORD
  5
3BC
102
{ACAD_REACTORS
330
3BB
102
}
330
3BB
100
AcDbXrecord
280
     1
102
RTVSPropertyOp0
 70
     0
102
RTVSPropertyOp1
 70
     0
102
RTVSPropertyOp2
 70
     0
102
RTVSPropertyOp3
 70
     0
102
RTVSPropertyOp4
 70
     0
102
RTVSPropertyOp5
 70
     0
102
RTVSPropertyOp6
 70
     0
102
RTVSPropertyOp7
 70
     0
102
RTVSPropertyOp8
 70
     0
102
RTVSPropertyOp9
 70
     0
102
RTVSPropertyOp10
 70
     0
102
RTVSPropertyOp11
 70
     0
102
RTVSPropertyOp12
 70
     0
102
RTVSPropertyOp13
 70
     0
102
RTVSPropertyOp14
 70
     2
102
RTVSPropertyOp15
 70
     0
102
RTVSPropertyOp16
 70
     0
102
RTVSPropertyOp17
 70
     0
102
RTVSPropertyOp18
 70
     0
102
RTVSPropertyOp19
 70
     0
102
RTVSPropertyOp20
 70
     0
102
RTVSPropertyOp21
 70
     0
102
RTVSPropertyOp22
 70
     0
102
RTVSPropertyOp23
 70
     0
102
RTVSPropertyOp24
 70
     0
102
RTVSPropertyOp25
 70
     0
102
RTVSPropertyOp26
 70
     0
102
RTVSPropertyOp27
 70
     0
102
RTVSPropertyOp28
 70
     0
102
RTVSPropertyOp29
 70
     0
102
RTVSPropertyOp30
 70
     0
102
RTVSPropertyOp31
 70
     0
102
RTVSPropertyOp32
 70
     0
102
RTVSPropertyOp33
 70
     0
102
RTVSPropertyOp34
 70
     0
102
RTVSPropertyOp35
 70
     0
102
RTVSPropertyOp36
 70
     0
102
RTVSPropertyOp37
 70
     0
102
RTVSPropertyOp38
 70
     0
102
RTVSPropertyOp39
 70
     0
102
RTVSPropertyOp40
 70
     0
102
RTVSPropertyOp41
 70
     0
102
RTVSPropertyOp42
 70
     0
102
RTVSPropertyOp43
 70
     0
102
RTVSPropertyOp44
 70
     0
102
RTVSPropertyOp45
 70
     0
102
RTVSPropertyOp46
 70
     0
102
RTVSPropertyOp47
 70
     0
102
RTVSPropertyOp48
 70
     0
102
RTVSPropertyOp49
 70
     0
102
RTVSPropertyOp50
 70
     0
102
RTVSPropertyOp51
 70
     0
102
RTVSPropertyOp52
 70
     0
102
RTVSPropertyOp53
 70
     0
102
RTVSPropertyOp54
 70
     0
102
RTVSPropertyOp55
 70
     0
102
RTVSPropertyOp56
 70
     0
102
RTVSPropertyOp57
 70
     0
102
RTVSPost2010Prop28
280
     0
102
RTVSPost2010PropOp28
 70
     0
102
RTVSPost2010Prop29
280
     1
102
RTVSPost2010PropOp29
 70
     0
102
RTVSPost2010Prop30
280
     1
102
RTVSPost2010PropOp30
 70
     0
102
RTVSPost2010Prop31
280
     0
102
RTVSPost2010PropOp31
 70
     0
102
RTVSPost2010Prop32
280
     0
102
RTVSPost2010PropOp32
 70
     0
102
RTVSPost2010Prop33
280
     0
102
RTVSPost2010PropOp33
 70
     0
102
RTVSPost2010Prop34
280
     0
102
RTVSPost2010PropOp34
 70
     0
102
RTVSPost2010Prop35
280
     0
102
RTVSPost2010PropOp35
 70
     0
102
RTVSPost2010Prop36
280
     0
102
RTVSPost2010PropOp36
 70
     0
102
RTVSPost2010Prop37
 90
       50
102
RTVSPost2010PropOp37
 70
     0
102
RTVSPost2010Prop38
140
0.0
102
RTVSPost2010PropOp38
 70
     0
102
RTVSPost2010Prop39
140
1.0
102
RTVSPost2010PropOp39
 70
     0
102
RTVSPost2010Prop40
 90
        0
102
RTVSPost2010PropOp40
 70
     0
102
RTVSPost2010Prop41ColorIndex
 90
       18
102
RTVSPost2010Prop41ColorRGB
 90
        0
102
RTVSPost2010PropOp41
 70
     0
102
RTVSPost2010Prop42
 90
       50
102
RTVSPost2010PropOp42
 70
     0
102
RTVSPost2010Prop43
 90
        3
102
RTVSPost2010PropOp43
 70
     0
102
RTVSPost2010Prop44ColorIndex
 90
        5
102
RTVSPost2010Prop44ColorRGB
 90
      255
102
RTVSPost2010PropOp44
 70
     0
102
RTVSPost2010Prop45
280
     0
102
RTVSPost2010PropOp45
 70
     0
102
RTVSPost2010Prop46
 90
       50
102
RTVSPost2010PropOp46
 70
     0
102
RTVSPost2010Prop47
 90
       50
102
RTVSPost2010PropOp47
 70
     0
102
RTVSPost2010Prop48
 90
       50
102
RTVSPost2010PropOp48
 70
     0
102
RTVSPost2010Prop49
280
     0
102
RTVSPost2010PropOp49
 70
     0
102
RTVSPost2010Prop50
 90
       50
102
RTVSPost2010PropOp50
 70
     0
102
RTVSPost2010Prop51ColorIndex
 90
      256
102
RTVSPost2010Prop51ColorRGB
 90
-16777216
102
RTVSPost2010PropOp51
 70
     0
102
RTVSPost2010Prop52
140
1.0
102
RTVSPost2010PropOp52
 70
     0
102
RTVSPost2010Prop53
 90
        2
102
RTVSPost2010PropOp53
 70
     0
102
RTVSPost2010Prop54
  1
strokes_ogs.tif
102
RTVSPost2010PropOp54
 70
     0
102
RTVSPost2010Prop55
280
     0
102
RTVSPost2010PropOp55
 70
     0
102
RTVSPost2010Prop56
140
1.0
102
RTVSPost2010PropOp56
 70
     0
102
RTVSPost2010Prop57
140
1.0
102
RTVSPost2010PropOp57
 70
     0
  0
XRECORD
  5
3B4
102
{ACAD_REACTORS
330
3B3
102
}
330
3B3
100
AcDbXrecord
280
     1
102
RTVSPropertyOp0
 70
     1
102
RTVSPropertyOp1
 70
     1
102
RTVSPropertyOp2
 70
     1
102
RTVSPropertyOp3
 70
     1
102
RTVSPropertyOp4
 70
     1
102
RTVSPropertyOp5
 70
     1
102
RTVSPropertyOp6
 70
     1
102
RTVSPropertyOp7
 70
     1
102
RTVSPropertyOp8
 70
     1
102
RTVSPropertyOp9
 70
     1
102
RTVSPropertyOp10
 70
     1
102
RTVSPropertyOp11
 70
     1
102
RTVSPropertyOp12
 70
     1
102
RTVSPropertyOp13
 70
     1
102
RTVSPropertyOp14
 70
     1
102
RTVSPropertyOp15
 70
     1
102
RTVSPropertyOp16
 70
     1
102
RTVSPropertyOp17
 70
     1
102
RTVSPropertyOp18
 70
     1
102
RTVSPropertyOp19
 70
     1
102
RTVSPropertyOp20
 70
     1
102
RTVSPropertyOp21
 70
     1
102
RTVSPropertyOp22
 70
     1
102
RTVSPropertyOp23
 70
     1
102
RTVSPropertyOp24
 70
     1
102
RTVSPropertyOp25
 70
     1
102
RTVSPropertyOp26
 70
     1
102
RTVSPropertyOp27
 70
     1
102
RTVSPropertyOp28
 70
     1
102
RTVSPropertyOp29
 70
     1
102
RTVSPropertyOp30
 70
     1
102
RTVSPropertyOp31
 70
     1
102
RTVSPropertyOp32
 70
     1
102
RTVSPropertyOp33
 70
     1
102
RTVSPropertyOp34
 70
     1
102
RTVSPropertyOp35
 70
     1
102
RTVSPropertyOp36
 70
     1
102
RTVSPropertyOp37
 70
     1
102
RTVSPropertyOp38
 70
     1
102
RTVSPropertyOp39
 70
     1
102
RTVSPropertyOp40
 70
     1
102
RTVSPropertyOp41
 70
     1
102
RTVSPropertyOp42
 70
     1
102
RTVSPropertyOp43
 70
     1
102
RTVSPropertyOp44
 70
     1
102
RTVSPropertyOp45
 70
     1
102
RTVSPropertyOp46
 70
     1
102
RTVSPropertyOp47
 70
     1
102
RTVSPropertyOp48
 70
     1
102
RTVSPropertyOp49
 70
     1
102
RTVSPropertyOp50
 70
     1
102
RTVSPropertyOp51
 70
     0
102
RTVSPropertyOp52
 70
     0
102
RTVSPropertyOp53
 70
     1
102
RTVSPropertyOp54
 70
     1
102
RTVSPropertyOp55
 70
     1
102
RTVSPropertyOp56
 70
     1
102
RTVSPropertyOp57
 70
     1
102
RTVSPost2010Prop28
280
     0
102
RTVSPost2010PropOp28
 70
     1
102
RTVSPost2010Prop29
280
     1
102
RTVSPost2010PropOp29
 70
     1
102
RTVSPost2010Prop30
280
     1
102
RTVSPost2010PropOp30
 70
     1
102
RTVSPost2010Prop31
280
     0
102
RTVSPost2010PropOp31
 70
     1
102
RTVSPost2010Prop32
280
     0
102
RTVSPost2010PropOp32
 70
     1
102
RTVSPost2010Prop33
280
     0
102
RTVSPost2010PropOp33
 70
     1
102
RTVSPost2010Prop34
280
     0
102
RTVSPost2010PropOp34
 70
     1
102
RTVSPost2010Prop35
280
     0
102
RTVSPost2010PropOp35
 70
     1
102
RTVSPost2010Prop36
280
     0
102
RTVSPost2010PropOp36
 70
     1
102
RTVSPost2010Prop37
 90
       50
102
RTVSPost2010PropOp37
 70
     1
102
RTVSPost2010Prop38
140
0.0
102
RTVSPost2010PropOp38
 70
     1
102
RTVSPost2010Prop39
140
1.0
102
RTVSPost2010PropOp39
 70
     1
102
RTVSPost2010Prop40
 90
        0
102
RTVSPost2010PropOp40
 70
     1
102
RTVSPost2010Prop41ColorIndex
 90
       18
102
RTVSPost2010Prop41ColorRGB
 90
        0
102
RTVSPost2010PropOp41
 70
     1
102
RTVSPost2010Prop42
 90
       50
102
RTVSPost2010PropOp42
 70
     1
102
RTVSPost2010Prop43
 90
        3
102
RTVSPost2010PropOp43
 70
     1
102
RTVSPost2010Prop44ColorIndex
 90
        5
102
RTVSPost2010Prop44ColorRGB
 90
      255
102
RTVSPost2010PropOp44
 70
     1
102
RTVSPost2010Prop45
280
     0
102
RTVSPost2010PropOp45
 70
     1
102
RTVSPost2010Prop46
 90
       50
102
RTVSPost2010PropOp46
 70
     1
102
RTVSPost2010Prop47
 90
       50
102
RTVSPost2010PropOp47
 70
     1
102
RTVSPost2010Prop48
 90
       50
102
RTVSPost2010PropOp48
 70
     1
102
RTVSPost2010Prop49
280
     0
102
RTVSPost2010PropOp49
 70
     1
102
RTVSPost2010Prop50
 90
       50
102
RTVSPost2010PropOp50
 70
     1
102
RTVSPost2010Prop51ColorIndex
 90
      256
102
RTVSPost2010Prop51ColorRGB
 90
-16777216
102
RTVSPost2010PropOp51
 70
     0
102
RTVSPost2010Prop52
140
1.0
102
RTVSPost2010PropOp52
 70
     0
102
RTVSPost2010Prop53
 90
        2
102
RTVSPost2010PropOp53
 70
     1
102
RTVSPost2010Prop54
  1
strokes_ogs.tif
102
RTVSPost2010PropOp54
 70
     1
102
RTVSPost2010Prop55
280
     0
102
RTVSPost2010PropOp55
 70
     1
102
RTVSPost2010Prop56
140
1.0
102
RTVSPost2010PropOp56
 70
     1
102
RTVSPost2010Prop57
140
1.0
102
RTVSPost2010PropOp57
 70
     1
  0
XRECORD
  5
398
102
{ACAD_REACTORS
330
397
102
}
330
397
100
AcDbXrecord
280
     1
102
RTVSPropertyOp0
 70
     1
102
RTVSPropertyOp1
 70
     1
102
RTVSPropertyOp2
 70
     1
102
RTVSPropertyOp3
 70
     1
102
RTVSPropertyOp4
 70
     1
102
RTVSPropertyOp5
 70
     1
102
RTVSPropertyOp6
 70
     1
102
RTVSPropertyOp7
 70
     1
102
RTVSPropertyOp8
 70
     1
102
RTVSPropertyOp9
 70
     1
102
RTVSPropertyOp10
 70
     1
102
RTVSPropertyOp11
 70
     1
102
RTVSPropertyOp12
 70
     1
102
RTVSPropertyOp13
 70
     1
102
RTVSPropertyOp14
 70
     1
102
RTVSPropertyOp15
 70
     1
102
RTVSPropertyOp16
 70
     1
102
RTVSPropertyOp17
 70
     1
102
RTVSPropertyOp18
 70
     1
102
RTVSPropertyOp19
 70
     1
102
RTVSPropertyOp20
 70
     1
102
RTVSPropertyOp21
 70
     1
102
RTVSPropertyOp22
 70
     1
102
RTVSPropertyOp23
 70
     1
102
RTVSPropertyOp24
 70
     1
102
RTVSPropertyOp25
 70
     1
102
RTVSPropertyOp26
 70
     1
102
RTVSPropertyOp27
 70
     1
102
RTVSPropertyOp28
 70
     1
102
RTVSPropertyOp29
 70
     1
102
RTVSPropertyOp30
 70
     1
102
RTVSPropertyOp31
 70
     1
102
RTVSPropertyOp32
 70
     1
102
RTVSPropertyOp33
 70
     1
102
RTVSPropertyOp34
 70
     1
102
RTVSPropertyOp35
 70
     1
102
RTVSPropertyOp36
 70
     1
102
RTVSPropertyOp37
 70
     1
102
RTVSPropertyOp38
 70
     1
102
RTVSPropertyOp39
 70
     1
102
RTVSPropertyOp40
 70
     1
102
RTVSPropertyOp41
 70
     1
102
RTVSPropertyOp42
 70
     1
102
RTVSPropertyOp43
 70
     1
102
RTVSPropertyOp44
 70
     1
102
RTVSPropertyOp45
 70
     1
102
RTVSPropertyOp46
 70
     1
102
RTVSPropertyOp47
 70
     1
102
RTVSPropertyOp48
 70
     1
102
RTVSPropertyOp49
 70
     1
102
RTVSPropertyOp50
 70
     1
102
RTVSPropertyOp51
 70
     0
102
RTVSPropertyOp52
 70
     0
102
RTVSPropertyOp53
 70
     1
102
RTVSPropertyOp54
 70
     1
102
RTVSPropertyOp55
 70
     1
102
RTVSPropertyOp56
 70
     1
102
RTVSPropertyOp57
 70
     1
102
RTVSPost2010Prop28
280
     0
102
RTVSPost2010PropOp28
 70
     1
102
RTVSPost2010Prop29
280
     1
102
RTVSPost2010PropOp29
 70
     1
102
RTVSPost2010Prop30
280
     1
102
RTVSPost2010PropOp30
 70
     1
102
RTVSPost2010Prop31
280
     0
102
RTVSPost2010PropOp31
 70
     1
102
RTVSPost2010Prop32
280
     0
102
RTVSPost2010PropOp32
 70
     1
102
RTVSPost2010Prop33
280
     0
102
RTVSPost2010PropOp33
 70
     1
102
RTVSPost2010Prop34
280
     0
102
RTVSPost2010PropOp34
 70
     1
102
RTVSPost2010Prop35
280
     0
102
RTVSPost2010PropOp35
 70
     1
102
RTVSPost2010Prop36
280
     0
102
RTVSPost2010PropOp36
 70
     1
102
RTVSPost2010Prop37
 90
       50
102
RTVSPost2010PropOp37
 70
     1
102
RTVSPost2010Prop38
140
0.0
102
RTVSPost2010PropOp38
 70
     1
102
RTVSPost2010Prop39
140
1.0
102
RTVSPost2010PropOp39
 70
     1
102
RTVSPost2010Prop40
 90
        0
102
RTVSPost2010PropOp40
 70
     1
102
RTVSPost2010Prop41ColorIndex
 90
       18
102
RTVSPost2010Prop41ColorRGB
 90
        0
102
RTVSPost2010PropOp41
 70
     1
102
RTVSPost2010Prop42
 90
       50
102
RTVSPost2010PropOp42
 70
     1
102
RTVSPost2010Prop43
 90
        3
102
RTVSPost2010PropOp43
 70
     1
102
RTVSPost2010Prop44ColorIndex
 90
        5
102
RTVSPost2010Prop44ColorRGB
 90
      255
102
RTVSPost2010PropOp44
 70
     1
102
RTVSPost2010Prop45
280
     0
102
RTVSPost2010PropOp45
 70
     1
102
RTVSPost2010Prop46
 90
       50
102
RTVSPost2010PropOp46
 70
     1
102
RTVSPost2010Prop47
 90
       50
102
RTVSPost2010PropOp47
 70
     1
102
RTVSPost2010Prop48
 90
       50
102
RTVSPost2010PropOp48
 70
     1
102
RTVSPost2010Prop49
280
     0
102
RTVSPost2010PropOp49
 70
     1
102
RTVSPost2010Prop50
 90
       50
102
RTVSPost2010PropOp50
 70
     1
102
RTVSPost2010Prop51ColorIndex
 90
      256
102
RTVSPost2010Prop51ColorRGB
 90
-16777216
102
RTVSPost2010PropOp51
 70
     0
102
RTVSPost2010Prop52
140
1.0
102
RTVSPost2010PropOp52
 70
     0
102
RTVSPost2010Prop53
 90
        2
102
RTVSPost2010PropOp53
 70
     1
102
RTVSPost2010Prop54
  1
strokes_ogs.tif
102
RTVSPost2010PropOp54
 70
     1
102
RTVSPost2010Prop55
280
     0
102
RTVSPost2010PropOp55
 70
     1
102
RTVSPost2010Prop56
140
1.0
102
RTVSPost2010PropOp56
 70
     1
102
RTVSPost2010Prop57
140
1.0
102
RTVSPost2010PropOp57
 70
     1
  0
XRECORD
  5
39A
102
{ACAD_REACTORS
330
399
102
}
330
399
100
AcDbXrecord
280
     1
102
RTVSPropertyOp0
 70
     1
102
RTVSPropertyOp1
 70
     1
102
RTVSPropertyOp2
 70
     1
102
RTVSPropertyOp3
 70
     1
102
RTVSPropertyOp4
 70
     1
102
RTVSPropertyOp5
 70
     1
102
RTVSPropertyOp6
 70
     1
102
RTVSPropertyOp7
 70
     1
102
RTVSPropertyOp8
 70
     1
102
RTVSPropertyOp9
 70
     1
102
RTVSPropertyOp10
 70
     1
102
RTVSPropertyOp11
 70
     1
102
RTVSPropertyOp12
 70
     1
102
RTVSPropertyOp13
 70
     1
102
RTVSPropertyOp14
 70
     1
102
RTVSPropertyOp15
 70
     1
102
RTVSPropertyOp16
 70
     1
102
RTVSPropertyOp17
 70
     1
102
RTVSPropertyOp18
 70
     1
102
RTVSPropertyOp19
 70
     1
102
RTVSPropertyOp20
 70
     1
102
RTVSPropertyOp21
 70
     1
102
RTVSPropertyOp22
 70
     1
102
RTVSPropertyOp23
 70
     1
102
RTVSPropertyOp24
 70
     1
102
RTVSPropertyOp25
 70
     1
102
RTVSPropertyOp26
 70
     1
102
RTVSPropertyOp27
 70
     1
102
RTVSPropertyOp28
 70
     1
102
RTVSPropertyOp29
 70
     1
102
RTVSPropertyOp30
 70
     1
102
RTVSPropertyOp31
 70
     1
102
RTVSPropertyOp32
 70
     1
102
RTVSPropertyOp33
 70
     1
102
RTVSPropertyOp34
 70
     1
102
RTVSPropertyOp35
 70
     1
102
RTVSPropertyOp36
 70
     1
102
RTVSPropertyOp37
 70
     1
102
RTVSPropertyOp38
 70
     1
102
RTVSPropertyOp39
 70
     1
102
RTVSPropertyOp40
 70
     1
102
RTVSPropertyOp41
 70
     1
102
RTVSPropertyOp42
 70
     1
102
RTVSPropertyOp43
 70
     1
102
RTVSPropertyOp44
 70
     1
102
RTVSPropertyOp45
 70
     1
102
RTVSPropertyOp46
 70
     1
102
RTVSPropertyOp47
 70
     1
102
RTVSPropertyOp48
 70
     1
102
RTVSPropertyOp49
 70
     1
102
RTVSPropertyOp50
 70
     1
102
RTVSPropertyOp51
 70
     0
102
RTVSPropertyOp52
 70
     0
102
RTVSPropertyOp53
 70
     1
102
RTVSPropertyOp54
 70
     1
102
RTVSPropertyOp55
 70
     1
102
RTVSPropertyOp56
 70
     1
102
RTVSPropertyOp57
 70
     1
102
RTVSPost2010Prop28
280
     0
102
RTVSPost2010PropOp28
 70
     1
102
RTVSPost2010Prop29
280
     1
102
RTVSPost2010PropOp29
 70
     1
102
RTVSPost2010Prop30
280
     1
102
RTVSPost2010PropOp30
 70
     1
102
RTVSPost2010Prop31
280
     0
102
RTVSPost2010PropOp31
 70
     1
102
RTVSPost2010Prop32
280
     0
102
RTVSPost2010PropOp32
 70
     1
102
RTVSPost2010Prop33
280
     0
102
RTVSPost2010PropOp33
 70
     1
102
RTVSPost2010Prop34
280
     0
102
RTVSPost2010PropOp34
 70
     1
102
RTVSPost2010Prop35
280
     0
102
RTVSPost2010PropOp35
 70
     1
102
RTVSPost2010Prop36
280
     0
102
RTVSPost2010PropOp36
 70
     1
102
RTVSPost2010Prop37
 90
       50
102
RTVSPost2010PropOp37
 70
     1
102
RTVSPost2010Prop38
140
0.0
102
RTVSPost2010PropOp38
 70
     1
102
RTVSPost2010Prop39
140
1.0
102
RTVSPost2010PropOp39
 70
     1
102
RTVSPost2010Prop40
 90
        0
102
RTVSPost2010PropOp40
 70
     1
102
RTVSPost2010Prop41ColorIndex
 90
       18
102
RTVSPost2010Prop41ColorRGB
 90
        0
102
RTVSPost2010PropOp41
 70
     1
102
RTVSPost2010Prop42
 90
       50
102
RTVSPost2010PropOp42
 70
     1
102
RTVSPost2010Prop43
 90
        3
102
RTVSPost2010PropOp43
 70
     1
102
RTVSPost2010Prop44ColorIndex
 90
        5
102
RTVSPost2010Prop44ColorRGB
 90
      255
102
RTVSPost2010PropOp44
 70
     1
102
RTVSPost2010Prop45
280
     0
102
RTVSPost2010PropOp45
 70
     1
102
RTVSPost2010Prop46
 90
       50
102
RTVSPost2010PropOp46
 70
     1
102
RTVSPost2010Prop47
 90
       50
102
RTVSPost2010PropOp47
 70
     1
102
RTVSPost2010Prop48
 90
       50
102
RTVSPost2010PropOp48
 70
     1
102
RTVSPost2010Prop49
280
     0
102
RTVSPost2010PropOp49
 70
     1
102
RTVSPost2010Prop50
 90
       50
102
RTVSPost2010PropOp50
 70
     1
102
RTVSPost2010Prop51ColorIndex
 90
      256
102
RTVSPost2010Prop51ColorRGB
 90
-16777216
102
RTVSPost2010PropOp51
 70
     0
102
RTVSPost2010Prop52
140
1.0
102
RTVSPost2010PropOp52
 70
     0
102
RTVSPost2010Prop53
 90
        2
102
RTVSPost2010PropOp53
 70
     1
102
RTVSPost2010Prop54
  1
strokes_ogs.tif
102
RTVSPost2010PropOp54
 70
     1
102
RTVSPost2010Prop55
280
     0
102
RTVSPost2010PropOp55
 70
     1
102
RTVSPost2010Prop56
140
1.0
102
RTVSPost2010PropOp56
 70
     1
102
RTVSPost2010Prop57
140
1.0
102
RTVSPost2010PropOp57
 70
     1
  0
XRECORD
  5
39C
102
{ACAD_REACTORS
330
39B
102
}
330
39B
100
AcDbXrecord
280
     1
102
RTVSPropertyOp0
 70
     1
102
RTVSPropertyOp1
 70
     1
102
RTVSPropertyOp2
 70
     1
102
RTVSPropertyOp3
 70
     1
102
RTVSPropertyOp4
 70
     1
102
RTVSPropertyOp5
 70
     1
102
RTVSPropertyOp6
 70
     1
102
RTVSPropertyOp7
 70
     1
102
RTVSPropertyOp8
 70
     1
102
RTVSPropertyOp9
 70
     1
102
RTVSPropertyOp10
 70
     1
102
RTVSPropertyOp11
 70
     1
102
RTVSPropertyOp12
 70
     1
102
RTVSPropertyOp13
 70
     1
102
RTVSPropertyOp14
 70
     1
102
RTVSPropertyOp15
 70
     1
102
RTVSPropertyOp16
 70
     1
102
RTVSPropertyOp17
 70
     1
102
RTVSPropertyOp18
 70
     1
102
RTVSPropertyOp19
 70
     1
102
RTVSPropertyOp20
 70
     1
102
RTVSPropertyOp21
 70
     1
102
RTVSPropertyOp22
 70
     1
102
RTVSPropertyOp23
 70
     1
102
RTVSPropertyOp24
 70
     1
102
RTVSPropertyOp25
 70
     1
102
RTVSPropertyOp26
 70
     1
102
RTVSPropertyOp27
 70
     1
102
RTVSPropertyOp28
 70
     1
102
RTVSPropertyOp29
 70
     1
102
RTVSPropertyOp30
 70
     1
102
RTVSPropertyOp31
 70
     1
102
RTVSPropertyOp32
 70
     1
102
RTVSPropertyOp33
 70
     1
102
RTVSPropertyOp34
 70
     1
102
RTVSPropertyOp35
 70
     1
102
RTVSPropertyOp36
 70
     1
102
RTVSPropertyOp37
 70
     1
102
RTVSPropertyOp38
 70
     1
102
RTVSPropertyOp39
 70
     1
102
RTVSPropertyOp40
 70
     1
102
RTVSPropertyOp41
 70
     1
102
RTVSPropertyOp42
 70
     1
102
RTVSPropertyOp43
 70
     1
102
RTVSPropertyOp44
 70
     1
102
RTVSPropertyOp45
 70
     1
102
RTVSPropertyOp46
 70
     1
102
RTVSPropertyOp47
 70
     1
102
RTVSPropertyOp48
 70
     1
102
RTVSPropertyOp49
 70
     1
102
RTVSPropertyOp50
 70
     1
102
RTVSPropertyOp51
 70
     0
102
RTVSPropertyOp52
 70
     0
102
RTVSPropertyOp53
 70
     1
102
RTVSPropertyOp54
 70
     1
102
RTVSPropertyOp55
 70
     1
102
RTVSPropertyOp56
 70
     1
102
RTVSPropertyOp57
 70
     1
102
RTVSPost2010Prop28
280
     0
102
RTVSPost2010PropOp28
 70
     1
102
RTVSPost2010Prop29
280
     1
102
RTVSPost2010PropOp29
 70
     1
102
RTVSPost2010Prop30
280
     1
102
RTVSPost2010PropOp30
 70
     1
102
RTVSPost2010Prop31
280
     0
102
RTVSPost2010PropOp31
 70
     1
102
RTVSPost2010Prop32
280
     0
102
RTVSPost2010PropOp32
 70
     1
102
RTVSPost2010Prop33
280
     0
102
RTVSPost2010PropOp33
 70
     1
102
RTVSPost2010Prop34
280
     0
102
RTVSPost2010PropOp34
 70
     1
102
RTVSPost2010Prop35
280
     0
102
RTVSPost2010PropOp35
 70
     1
102
RTVSPost2010Prop36
280
     0
102
RTVSPost2010PropOp36
 70
     1
102
RTVSPost2010Prop37
 90
       50
102
RTVSPost2010PropOp37
 70
     1
102
RTVSPost2010Prop38
140
0.0
102
RTVSPost2010PropOp38
 70
     1
102
RTVSPost2010Prop39
140
1.0
102
RTVSPost2010PropOp39
 70
     1
102
RTVSPost2010Prop40
 90
        0
102
RTVSPost2010PropOp40
 70
     1
102
RTVSPost2010Prop41ColorIndex
 90
       18
102
RTVSPost2010Prop41ColorRGB
 90
        0
102
RTVSPost2010PropOp41
 70
     1
102
RTVSPost2010Prop42
 90
       50
102
RTVSPost2010PropOp42
 70
     1
102
RTVSPost2010Prop43
 90
        3
102
RTVSPost2010PropOp43
 70
     1
102
RTVSPost2010Prop44ColorIndex
 90
        5
102
RTVSPost2010Prop44ColorRGB
 90
      255
102
RTVSPost2010PropOp44
 70
     1
102
RTVSPost2010Prop45
280
     0
102
RTVSPost2010PropOp45
 70
     1
102
RTVSPost2010Prop46
 90
       50
102
RTVSPost2010PropOp46
 70
     1
102
RTVSPost2010Prop47
 90
       50
102
RTVSPost2010PropOp47
 70
     1
102
RTVSPost2010Prop48
 90
       50
102
RTVSPost2010PropOp48
 70
     1
102
RTVSPost2010Prop49
280
     0
102
RTVSPost2010PropOp49
 70
     1
102
RTVSPost2010Prop50
 90
       50
102
RTVSPost2010PropOp50
 70
     1
102
RTVSPost2010Prop51ColorIndex
 90
      256
102
RTVSPost2010Prop51ColorRGB
 90
-16777216
102
RTVSPost2010PropOp51
 70
     0
102
RTVSPost2010Prop52
140
1.0
102
RTVSPost2010PropOp52
 70
     0
102
RTVSPost2010Prop53
 90
        2
102
RTVSPost2010PropOp53
 70
     1
102
RTVSPost2010Prop54
  1
strokes_ogs.tif
102
RTVSPost2010PropOp54
 70
     1
102
RTVSPost2010Prop55
280
     0
102
RTVSPost2010PropOp55
 70
     1
102
RTVSPost2010Prop56
140
1.0
102
RTVSPost2010PropOp56
 70
     1
102
RTVSPost2010Prop57
140
1.0
102
RTVSPost2010PropOp57
 70
     1
  0
XRECORD
  5
39E
102
{ACAD_REACTORS
330
39D
102
}
330
39D
100
AcDbXrecord
280
     1
102
RTVSPropertyOp0
 70
     1
102
RTVSPropertyOp1
 70
     1
102
RTVSPropertyOp2
 70
     1
102
RTVSPropertyOp3
 70
     1
102
RTVSPropertyOp4
 70
     1
102
RTVSPropertyOp5
 70
     1
102
RTVSPropertyOp6
 70
     1
102
RTVSPropertyOp7
 70
     1
102
RTVSPropertyOp8
 70
     1
102
RTVSPropertyOp9
 70
     1
102
RTVSPropertyOp10
 70
     1
102
RTVSPropertyOp11
 70
     1
102
RTVSPropertyOp12
 70
     1
102
RTVSPropertyOp13
 70
     1
102
RTVSPropertyOp14
 70
     1
102
RTVSPropertyOp15
 70
     1
102
RTVSPropertyOp16
 70
     1
102
RTVSPropertyOp17
 70
     1
102
RTVSPropertyOp18
 70
     1
102
RTVSPropertyOp19
 70
     1
102
RTVSPropertyOp20
 70
     1
102
RTVSPropertyOp21
 70
     1
102
RTVSPropertyOp22
 70
     1
102
RTVSPropertyOp23
 70
     1
102
RTVSPropertyOp24
 70
     1
102
RTVSPropertyOp25
 70
     1
102
RTVSPropertyOp26
 70
     1
102
RTVSPropertyOp27
 70
     1
102
RTVSPropertyOp28
 70
     1
102
RTVSPropertyOp29
 70
     1
102
RTVSPropertyOp30
 70
     1
102
RTVSPropertyOp31
 70
     1
102
RTVSPropertyOp32
 70
     1
102
RTVSPropertyOp33
 70
     1
102
RTVSPropertyOp34
 70
     1
102
RTVSPropertyOp35
 70
     1
102
RTVSPropertyOp36
 70
     1
102
RTVSPropertyOp37
 70
     1
102
RTVSPropertyOp38
 70
     1
102
RTVSPropertyOp39
 70
     1
102
RTVSPropertyOp40
 70
     1
102
RTVSPropertyOp41
 70
     1
102
RTVSPropertyOp42
 70
     1
102
RTVSPropertyOp43
 70
     1
102
RTVSPropertyOp44
 70
     1
102
RTVSPropertyOp45
 70
     1
102
RTVSPropertyOp46
 70
     1
102
RTVSPropertyOp47
 70
     1
102
RTVSPropertyOp48
 70
     1
102
RTVSPropertyOp49
 70
     1
102
RTVSPropertyOp50
 70
     1
102
RTVSPropertyOp51
 70
     0
102
RTVSPropertyOp52
 70
     0
102
RTVSPropertyOp53
 70
     1
102
RTVSPropertyOp54
 70
     1
102
RTVSPropertyOp55
 70
     1
102
RTVSPropertyOp56
 70
     1
102
RTVSPropertyOp57
 70
     1
102
RTVSPost2010Prop28
280
     0
102
RTVSPost2010PropOp28
 70
     1
102
RTVSPost2010Prop29
280
     1
102
RTVSPost2010PropOp29
 70
     1
102
RTVSPost2010Prop30
280
     1
102
RTVSPost2010PropOp30
 70
     1
102
RTVSPost2010Prop31
280
     0
102
RTVSPost2010PropOp31
 70
     1
102
RTVSPost2010Prop32
280
     0
102
RTVSPost2010PropOp32
 70
     1
102
RTVSPost2010Prop33
280
     0
102
RTVSPost2010PropOp33
 70
     1
102
RTVSPost2010Prop34
280
     0
102
RTVSPost2010PropOp34
 70
     1
102
RTVSPost2010Prop35
280
     0
102
RTVSPost2010PropOp35
 70
     1
102
RTVSPost2010Prop36
280
     0
102
RTVSPost2010PropOp36
 70
     1
102
RTVSPost2010Prop37
 90
       50
102
RTVSPost2010PropOp37
 70
     1
102
RTVSPost2010Prop38
140
0.0
102
RTVSPost2010PropOp38
 70
     1
102
RTVSPost2010Prop39
140
1.0
102
RTVSPost2010PropOp39
 70
     1
102
RTVSPost2010Prop40
 90
        0
102
RTVSPost2010PropOp40
 70
     1
102
RTVSPost2010Prop41ColorIndex
 90
       18
102
RTVSPost2010Prop41ColorRGB
 90
        0
102
RTVSPost2010PropOp41
 70
     1
102
RTVSPost2010Prop42
 90
       50
102
RTVSPost2010PropOp42
 70
     1
102
RTVSPost2010Prop43
 90
        3
102
RTVSPost2010PropOp43
 70
     1
102
RTVSPost2010Prop44ColorIndex
 90
        5
102
RTVSPost2010Prop44ColorRGB
 90
      255
102
RTVSPost2010PropOp44
 70
     1
102
RTVSPost2010Prop45
280
     0
102
RTVSPost2010PropOp45
 70
     1
102
RTVSPost2010Prop46
 90
       50
102
RTVSPost2010PropOp46
 70
     1
102
RTVSPost2010Prop47
 90
       50
102
RTVSPost2010PropOp47
 70
     1
102
RTVSPost2010Prop48
 90
       50
102
RTVSPost2010PropOp48
 70
     1
102
RTVSPost2010Prop49
280
     0
102
RTVSPost2010PropOp49
 70
     1
102
RTVSPost2010Prop50
 90
       50
102
RTVSPost2010PropOp50
 70
     1
102
RTVSPost2010Prop51ColorIndex
 90
      256
102
RTVSPost2010Prop51ColorRGB
 90
-16777216
102
RTVSPost2010PropOp51
 70
     0
102
RTVSPost2010Prop52
140
1.0
102
RTVSPost2010PropOp52
 70
     0
102
RTVSPost2010Prop53
 90
        2
102
RTVSPost2010PropOp53
 70
     1
102
RTVSPost2010Prop54
  1
strokes_ogs.tif
102
RTVSPost2010PropOp54
 70
     1
102
RTVSPost2010Prop55
280
     0
102
RTVSPost2010PropOp55
 70
     1
102
RTVSPost2010Prop56
140
1.0
102
RTVSPost2010PropOp56
 70
     1
102
RTVSPost2010Prop57
140
1.0
102
RTVSPost2010PropOp57
 70
     1
  0
XRECORD
  5
3A4
102
{ACAD_REACTORS
330
3A3
102
}
330
3A3
100
AcDbXrecord
280
     1
102
RTVSPropertyOp0
 70
     1
102
RTVSPropertyOp1
 70
     1
102
RTVSPropertyOp2
 70
     1
102
RTVSPropertyOp3
 70
     1
102
RTVSPropertyOp4
 70
     1
102
RTVSPropertyOp5
 70
     1
102
RTVSPropertyOp6
 70
     1
102
RTVSPropertyOp7
 70
     1
102
RTVSPropertyOp8
 70
     1
102
RTVSPropertyOp9
 70
     1
102
RTVSPropertyOp10
 70
     1
102
RTVSPropertyOp11
 70
     1
102
RTVSPropertyOp12
 70
     1
102
RTVSPropertyOp13
 70
     1
102
RTVSPropertyOp14
 70
     1
102
RTVSPropertyOp15
 70
     1
102
RTVSPropertyOp16
 70
     1
102
RTVSPropertyOp17
 70
     1
102
RTVSPropertyOp18
 70
     1
102
RTVSPropertyOp19
 70
     1
102
RTVSPropertyOp20
 70
     1
102
RTVSPropertyOp21
 70
     1
102
RTVSPropertyOp22
 70
     1
102
RTVSPropertyOp23
 70
     1
102
RTVSPropertyOp24
 70
     1
102
RTVSPropertyOp25
 70
     1
102
RTVSPropertyOp26
 70
     1
102
RTVSPropertyOp27
 70
     1
102
RTVSPropertyOp28
 70
     1
102
RTVSPropertyOp29
 70
     1
102
RTVSPropertyOp30
 70
     1
102
RTVSPropertyOp31
 70
     1
102
RTVSPropertyOp32
 70
     1
102
RTVSPropertyOp33
 70
     1
102
RTVSPropertyOp34
 70
     1
102
RTVSPropertyOp35
 70
     1
102
RTVSPropertyOp36
 70
     1
102
RTVSPropertyOp37
 70
     1
102
RTVSPropertyOp38
 70
     1
102
RTVSPropertyOp39
 70
     1
102
RTVSPropertyOp40
 70
     1
102
RTVSPropertyOp41
 70
     1
102
RTVSPropertyOp42
 70
     1
102
RTVSPropertyOp43
 70
     1
102
RTVSPropertyOp44
 70
     1
102
RTVSPropertyOp45
 70
     1
102
RTVSPropertyOp46
 70
     1
102
RTVSPropertyOp47
 70
     1
102
RTVSPropertyOp48
 70
     1
102
RTVSPropertyOp49
 70
     1
102
RTVSPropertyOp50
 70
     1
102
RTVSPropertyOp51
 70
     0
102
RTVSPropertyOp52
 70
     0
102
RTVSPropertyOp53
 70
     1
102
RTVSPropertyOp54
 70
     1
102
RTVSPropertyOp55
 70
     1
102
RTVSPropertyOp56
 70
     1
102
RTVSPropertyOp57
 70
     1
102
RTVSPost2010Prop28
280
     0
102
RTVSPost2010PropOp28
 70
     1
102
RTVSPost2010Prop29
280
     1
102
RTVSPost2010PropOp29
 70
     1
102
RTVSPost2010Prop30
280
     1
102
RTVSPost2010PropOp30
 70
     1
102
RTVSPost2010Prop31
280
     0
102
RTVSPost2010PropOp31
 70
     1
102
RTVSPost2010Prop32
280
     0
102
RTVSPost2010PropOp32
 70
     1
102
RTVSPost2010Prop33
280
     0
102
RTVSPost2010PropOp33
 70
     1
102
RTVSPost2010Prop34
280
     0
102
RTVSPost2010PropOp34
 70
     1
102
RTVSPost2010Prop35
280
     0
102
RTVSPost2010PropOp35
 70
     1
102
RTVSPost2010Prop36
280
     0
102
RTVSPost2010PropOp36
 70
     1
102
RTVSPost2010Prop37
 90
       50
102
RTVSPost2010PropOp37
 70
     1
102
RTVSPost2010Prop38
140
0.0
102
RTVSPost2010PropOp38
 70
     1
102
RTVSPost2010Prop39
140
1.0
102
RTVSPost2010PropOp39
 70
     1
102
RTVSPost2010Prop40
 90
        0
102
RTVSPost2010PropOp40
 70
     1
102
RTVSPost2010Prop41ColorIndex
 90
       18
102
RTVSPost2010Prop41ColorRGB
 90
        0
102
RTVSPost2010PropOp41
 70
     1
102
RTVSPost2010Prop42
 90
       50
102
RTVSPost2010PropOp42
 70
     1
102
RTVSPost2010Prop43
 90
        3
102
RTVSPost2010PropOp43
 70
     1
102
RTVSPost2010Prop44ColorIndex
 90
        5
102
RTVSPost2010Prop44ColorRGB
 90
      255
102
RTVSPost2010PropOp44
 70
     1
102
RTVSPost2010Prop45
280
     0
102
RTVSPost2010PropOp45
 70
     1
102
RTVSPost2010Prop46
 90
       50
102
RTVSPost2010PropOp46
 70
     1
102
RTVSPost2010Prop47
 90
       50
102
RTVSPost2010PropOp47
 70
     1
102
RTVSPost2010Prop48
 90
       50
102
RTVSPost2010PropOp48
 70
     1
102
RTVSPost2010Prop49
280
     0
102
RTVSPost2010PropOp49
 70
     1
102
RTVSPost2010Prop50
 90
       50
102
RTVSPost2010PropOp50
 70
     1
102
RTVSPost2010Prop51ColorIndex
 90
      256
102
RTVSPost2010Prop51ColorRGB
 90
-16777216
102
RTVSPost2010PropOp51
 70
     0
102
RTVSPost2010Prop52
140
1.0
102
RTVSPost2010PropOp52
 70
     0
102
RTVSPost2010Prop53
 90
        2
102
RTVSPost2010PropOp53
 70
     1
102
RTVSPost2010Prop54
  1
strokes_ogs.tif
102
RTVSPost2010PropOp54
 70
     1
102
RTVSPost2010Prop55
280
     0
102
RTVSPost2010PropOp55
 70
     1
102
RTVSPost2010Prop56
140
1.0
102
RTVSPost2010PropOp56
 70
     1
102
RTVSPost2010Prop57
140
1.0
102
RTVSPost2010PropOp57
 70
     1
  0
XRECORD
  5
3B8
102
{ACAD_REACTORS
330
3B7
102
}
330
3B7
100
AcDbXrecord
280
     1
102
RTVSPropertyOp0
 70
     0
102
RTVSPropertyOp1
 70
     0
102
RTVSPropertyOp2
 70
     0
102
RTVSPropertyOp3
 70
     0
102
RTVSPropertyOp4
 70
     0
102
RTVSPropertyOp5
 70
     0
102
RTVSPropertyOp6
 70
     0
102
RTVSPropertyOp7
 70
     0
102
RTVSPropertyOp8
 70
     0
102
RTVSPropertyOp9
 70
     0
102
RTVSPropertyOp10
 70
     0
102
RTVSPropertyOp11
 70
     0
102
RTVSPropertyOp12
 70
     0
102
RTVSPropertyOp13
 70
     0
102
RTVSPropertyOp14
 70
     2
102
RTVSPropertyOp15
 70
     0
102
RTVSPropertyOp16
 70
     0
102
RTVSPropertyOp17
 70
     0
102
RTVSPropertyOp18
 70
     0
102
RTVSPropertyOp19
 70
     0
102
RTVSPropertyOp20
 70
     0
102
RTVSPropertyOp21
 70
     0
102
RTVSPropertyOp22
 70
     0
102
RTVSPropertyOp23
 70
     0
102
RTVSPropertyOp24
 70
     0
102
RTVSPropertyOp25
 70
     0
102
RTVSPropertyOp26
 70
     0
102
RTVSPropertyOp27
 70
     0
102
RTVSPropertyOp28
 70
     0
102
RTVSPropertyOp29
 70
     0
102
RTVSPropertyOp30
 70
     0
102
RTVSPropertyOp31
 70
     0
102
RTVSPropertyOp32
 70
     0
102
RTVSPropertyOp33
 70
     0
102
RTVSPropertyOp34
 70
     0
102
RTVSPropertyOp35
 70
     0
102
RTVSPropertyOp36
 70
     0
102
RTVSPropertyOp37
 70
     0
102
RTVSPropertyOp38
 70
     0
102
RTVSPropertyOp39
 70
     0
102
RTVSPropertyOp40
 70
     0
102
RTVSPropertyOp41
 70
     0
102
RTVSPropertyOp42
 70
     0
102
RTVSPropertyOp43
 70
     0
102
RTVSPropertyOp44
 70
     0
102
RTVSPropertyOp45
 70
     0
102
RTVSPropertyOp46
 70
     0
102
RTVSPropertyOp47
 70
     0
102
RTVSPropertyOp48
 70
     0
102
RTVSPropertyOp49
 70
     0
102
RTVSPropertyOp50
 70
     0
102
RTVSPropertyOp51
 70
     0
102
RTVSPropertyOp52
 70
     0
102
RTVSPropertyOp53
 70
     0
102
RTVSPropertyOp54
 70
     0
102
RTVSPropertyOp55
 70
     0
102
RTVSPropertyOp56
 70
     0
102
RTVSPropertyOp57
 70
     0
102
RTVSPost2010Prop28
280
     0
102
RTVSPost2010PropOp28
 70
     0
102
RTVSPost2010Prop29
280
     1
102
RTVSPost2010PropOp29
 70
     0
102
RTVSPost2010Prop30
280
     1
102
RTVSPost2010PropOp30
 70
     0
102
RTVSPost2010Prop31
280
     0
102
RTVSPost2010PropOp31
 70
     0
102
RTVSPost2010Prop32
280
     0
102
RTVSPost2010PropOp32
 70
     0
102
RTVSPost2010Prop33
280
     0
102
RTVSPost2010PropOp33
 70
     0
102
RTVSPost2010Prop34
280
     0
102
RTVSPost2010PropOp34
 70
     0
102
RTVSPost2010Prop35
280
     0
102
RTVSPost2010PropOp35
 70
     0
102
RTVSPost2010Prop36
280
     0
102
RTVSPost2010PropOp36
 70
     0
102
RTVSPost2010Prop37
 90
       50
102
RTVSPost2010PropOp37
 70
     0
102
RTVSPost2010Prop38
140
0.0
102
RTVSPost2010PropOp38
 70
     0
102
RTVSPost2010Prop39
140
1.0
102
RTVSPost2010PropOp39
 70
     0
102
RTVSPost2010Prop40
 90
        0
102
RTVSPost2010PropOp40
 70
     0
102
RTVSPost2010Prop41ColorIndex
 90
       18
102
RTVSPost2010Prop41ColorRGB
 90
        0
102
RTVSPost2010PropOp41
 70
     0
102
RTVSPost2010Prop42
 90
       50
102
RTVSPost2010PropOp42
 70
     0
102
RTVSPost2010Prop43
 90
        3
102
RTVSPost2010PropOp43
 70
     0
102
RTVSPost2010Prop44ColorIndex
 90
        5
102
RTVSPost2010Prop44ColorRGB
 90
      255
102
RTVSPost2010PropOp44
 70
     0
102
RTVSPost2010Prop45
280
     0
102
RTVSPost2010PropOp45
 70
     0
102
RTVSPost2010Prop46
 90
       50
102
RTVSPost2010PropOp46
 70
     0
102
RTVSPost2010Prop47
 90
       50
102
RTVSPost2010PropOp47
 70
     0
102
RTVSPost2010Prop48
 90
       50
102
RTVSPost2010PropOp48
 70
     0
102
RTVSPost2010Prop49
280
     0
102
RTVSPost2010PropOp49
 70
     0
102
RTVSPost2010Prop50
 90
       50
102
RTVSPost2010PropOp50
 70
     0
102
RTVSPost2010Prop51ColorIndex
 90
      256
102
RTVSPost2010Prop51ColorRGB
 90
-16777216
102
RTVSPost2010PropOp51
 70
     0
102
RTVSPost2010Prop52
140
1.0
102
RTVSPost2010PropOp52
 70
     0
102
RTVSPost2010Prop53
 90
        2
102
RTVSPost2010PropOp53
 70
     0
102
RTVSPost2010Prop54
  1
strokes_ogs.tif
102
RTVSPost2010PropOp54
 70
     0
102
RTVSPost2010Prop55
280
     0
102
RTVSPost2010PropOp55
 70
     0
102
RTVSPost2010Prop56
140
1.0
102
RTVSPost2010PropOp56
 70
     0
102
RTVSPost2010Prop57
140
1.0
102
RTVSPost2010PropOp57
 70
     0
  0
XRECORD
  5
3B2
102
{ACAD_REACTORS
330
3B1
102
}
330
3B1
100
AcDbXrecord
280
     1
102
RTVSPropertyOp0
 70
     1
102
RTVSPropertyOp1
 70
     1
102
RTVSPropertyOp2
 70
     1
102
RTVSPropertyOp3
 70
     1
102
RTVSPropertyOp4
 70
     1
102
RTVSPropertyOp5
 70
     1
102
RTVSPropertyOp6
 70
     1
102
RTVSPropertyOp7
 70
     1
102
RTVSPropertyOp8
 70
     1
102
RTVSPropertyOp9
 70
     1
102
RTVSPropertyOp10
 70
     1
102
RTVSPropertyOp11
 70
     1
102
RTVSPropertyOp12
 70
     1
102
RTVSPropertyOp13
 70
     1
102
RTVSPropertyOp14
 70
     1
102
RTVSPropertyOp15
 70
     1
102
RTVSPropertyOp16
 70
     1
102
RTVSPropertyOp17
 70
     1
102
RTVSPropertyOp18
 70
     1
102
RTVSPropertyOp19
 70
     1
102
RTVSPropertyOp20
 70
     1
102
RTVSPropertyOp21
 70
     1
102
RTVSPropertyOp22
 70
     1
102
RTVSPropertyOp23
 70
     1
102
RTVSPropertyOp24
 70
     1
102
RTVSPropertyOp25
 70
     1
102
RTVSPropertyOp26
 70
     1
102
RTVSPropertyOp27
 70
     1
102
RTVSPropertyOp28
 70
     1
102
RTVSPropertyOp29
 70
     1
102
RTVSPropertyOp30
 70
     1
102
RTVSPropertyOp31
 70
     1
102
RTVSPropertyOp32
 70
     1
102
RTVSPropertyOp33
 70
     1
102
RTVSPropertyOp34
 70
     1
102
RTVSPropertyOp35
 70
     1
102
RTVSPropertyOp36
 70
     1
102
RTVSPropertyOp37
 70
     1
102
RTVSPropertyOp38
 70
     1
102
RTVSPropertyOp39
 70
     1
102
RTVSPropertyOp40
 70
     1
102
RTVSPropertyOp41
 70
     1
102
RTVSPropertyOp42
 70
     1
102
RTVSPropertyOp43
 70
     1
102
RTVSPropertyOp44
 70
     1
102
RTVSPropertyOp45
 70
     1
102
RTVSPropertyOp46
 70
     1
102
RTVSPropertyOp47
 70
     1
102
RTVSPropertyOp48
 70
     1
102
RTVSPropertyOp49
 70
     1
102
RTVSPropertyOp50
 70
     1
102
RTVSPropertyOp51
 70
     0
102
RTVSPropertyOp52
 70
     0
102
RTVSPropertyOp53
 70
     1
102
RTVSPropertyOp54
 70
     1
102
RTVSPropertyOp55
 70
     1
102
RTVSPropertyOp56
 70
     1
102
RTVSPropertyOp57
 70
     1
102
RTVSPost2010Prop28
280
     0
102
RTVSPost2010PropOp28
 70
     1
102
RTVSPost2010Prop29
280
     1
102
RTVSPost2010PropOp29
 70
     1
102
RTVSPost2010Prop30
280
     1
102
RTVSPost2010PropOp30
 70
     1
102
RTVSPost2010Prop31
280
     0
102
RTVSPost2010PropOp31
 70
     1
102
RTVSPost2010Prop32
280
     0
102
RTVSPost2010PropOp32
 70
     1
102
RTVSPost2010Prop33
280
     0
102
RTVSPost2010PropOp33
 70
     1
102
RTVSPost2010Prop34
280
     0
102
RTVSPost2010PropOp34
 70
     1
102
RTVSPost2010Prop35
280
     0
102
RTVSPost2010PropOp35
 70
     1
102
RTVSPost2010Prop36
280
     0
102
RTVSPost2010PropOp36
 70
     1
102
RTVSPost2010Prop37
 90
       50
102
RTVSPost2010PropOp37
 70
     1
102
RTVSPost2010Prop38
140
0.0
102
RTVSPost2010PropOp38
 70
     1
102
RTVSPost2010Prop39
140
1.0
102
RTVSPost2010PropOp39
 70
     1
102
RTVSPost2010Prop40
 90
        0
102
RTVSPost2010PropOp40
 70
     1
102
RTVSPost2010Prop41ColorIndex
 90
       18
102
RTVSPost2010Prop41ColorRGB
 90
        0
102
RTVSPost2010PropOp41
 70
     1
102
RTVSPost2010Prop42
 90
       50
102
RTVSPost2010PropOp42
 70
     1
102
RTVSPost2010Prop43
 90
        3
102
RTVSPost2010PropOp43
 70
     1
102
RTVSPost2010Prop44ColorIndex
 90
        5
102
RTVSPost2010Prop44ColorRGB
 90
      255
102
RTVSPost2010PropOp44
 70
     1
102
RTVSPost2010Prop45
280
     0
102
RTVSPost2010PropOp45
 70
     1
102
RTVSPost2010Prop46
 90
       50
102
RTVSPost2010PropOp46
 70
     1
102
RTVSPost2010Prop47
 90
       50
102
RTVSPost2010PropOp47
 70
     1
102
RTVSPost2010Prop48
 90
       50
102
RTVSPost2010PropOp48
 70
     1
102
RTVSPost2010Prop49
280
     0
102
RTVSPost2010PropOp49
 70
     1
102
RTVSPost2010Prop50
 90
       50
102
RTVSPost2010PropOp50
 70
     1
102
RTVSPost2010Prop51ColorIndex
 90
      256
102
RTVSPost2010Prop51ColorRGB
 90
-16777216
102
RTVSPost2010PropOp51
 70
     0
102
RTVSPost2010Prop52
140
1.0
102
RTVSPost2010PropOp52
 70
     0
102
RTVSPost2010Prop53
 90
        2
102
RTVSPost2010PropOp53
 70
     1
102
RTVSPost2010Prop54
  1
strokes_ogs.tif
102
RTVSPost2010PropOp54
 70
     1
102
RTVSPost2010Prop55
280
     0
102
RTVSPost2010PropOp55
 70
     1
102
RTVSPost2010Prop56
140
1.0
102
RTVSPost2010PropOp56
 70
     1
102
RTVSPost2010Prop57
140
1.0
102
RTVSPost2010PropOp57
 70
     1
  0
XRECORD
  5
3BA
102
{ACAD_REACTORS
330
3B9
102
}
330
3B9
100
AcDbXrecord
280
     1
102
RTVSPropertyOp0
 70
     0
102
RTVSPropertyOp1
 70
     0
102
RTVSPropertyOp2
 70
     0
102
RTVSPropertyOp3
 70
     0
102
RTVSPropertyOp4
 70
     0
102
RTVSPropertyOp5
 70
     0
102
RTVSPropertyOp6
 70
     0
102
RTVSPropertyOp7
 70
     0
102
RTVSPropertyOp8
 70
     0
102
RTVSPropertyOp9
 70
     0
102
RTVSPropertyOp10
 70
     0
102
RTVSPropertyOp11
 70
     0
102
RTVSPropertyOp12
 70
     0
102
RTVSPropertyOp13
 70
     0
102
RTVSPropertyOp14
 70
     2
102
RTVSPropertyOp15
 70
     0
102
RTVSPropertyOp16
 70
     0
102
RTVSPropertyOp17
 70
     0
102
RTVSPropertyOp18
 70
     0
102
RTVSPropertyOp19
 70
     0
102
RTVSPropertyOp20
 70
     0
102
RTVSPropertyOp21
 70
     0
102
RTVSPropertyOp22
 70
     0
102
RTVSPropertyOp23
 70
     0
102
RTVSPropertyOp24
 70
     0
102
RTVSPropertyOp25
 70
     0
102
RTVSPropertyOp26
 70
     0
102
RTVSPropertyOp27
 70
     0
102
RTVSPropertyOp28
 70
     0
102
RTVSPropertyOp29
 70
     0
102
RTVSPropertyOp30
 70
     0
102
RTVSPropertyOp31
 70
     0
102
RTVSPropertyOp32
 70
     0
102
RTVSPropertyOp33
 70
     0
102
RTVSPropertyOp34
 70
     0
102
RTVSPropertyOp35
 70
     0
102
RTVSPropertyOp36
 70
     0
102
RTVSPropertyOp37
 70
     0
102
RTVSPropertyOp38
 70
     0
102
RTVSPropertyOp39
 70
     0
102
RTVSPropertyOp40
 70
     0
102
RTVSPropertyOp41
 70
     0
102
RTVSPropertyOp42
 70
     0
102
RTVSPropertyOp43
 70
     0
102
RTVSPropertyOp44
 70
     0
102
RTVSPropertyOp45
 70
     0
102
RTVSPropertyOp46
 70
     0
102
RTVSPropertyOp47
 70
     0
102
RTVSPropertyOp48
 70
     0
102
RTVSPropertyOp49
 70
     0
102
RTVSPropertyOp50
 70
     0
102
RTVSPropertyOp51
 70
     0
102
RTVSPropertyOp52
 70
     0
102
RTVSPropertyOp53
 70
     0
102
RTVSPropertyOp54
 70
     0
102
RTVSPropertyOp55
 70
     0
102
RTVSPropertyOp56
 70
     0
102
RTVSPropertyOp57
 70
     0
102
RTVSPost2010Prop28
280
     0
102
RTVSPost2010PropOp28
 70
     0
102
RTVSPost2010Prop29
280
     1
102
RTVSPost2010PropOp29
 70
     0
102
RTVSPost2010Prop30
280
     1
102
RTVSPost2010PropOp30
 70
     0
102
RTVSPost2010Prop31
280
     0
102
RTVSPost2010PropOp31
 70
     0
102
RTVSPost2010Prop32
280
     0
102
RTVSPost2010PropOp32
 70
     0
102
RTVSPost2010Prop33
280
     0
102
RTVSPost2010PropOp33
 70
     0
102
RTVSPost2010Prop34
280
     0
102
RTVSPost2010PropOp34
 70
     0
102
RTVSPost2010Prop35
280
     0
102
RTVSPost2010PropOp35
 70
     0
102
RTVSPost2010Prop36
280
     0
102
RTVSPost2010PropOp36
 70
     0
102
RTVSPost2010Prop37
 90
       50
102
RTVSPost2010PropOp37
 70
     0
102
RTVSPost2010Prop38
140
0.0
102
RTVSPost2010PropOp38
 70
     0
102
RTVSPost2010Prop39
140
1.0
102
RTVSPost2010PropOp39
 70
     0
102
RTVSPost2010Prop40
 90
        0
102
RTVSPost2010PropOp40
 70
     0
102
RTVSPost2010Prop41ColorIndex
 90
       18
102
RTVSPost2010Prop41ColorRGB
 90
        0
102
RTVSPost2010PropOp41
 70
     0
102
RTVSPost2010Prop42
 90
       50
102
RTVSPost2010PropOp42
 70
     0
102
RTVSPost2010Prop43
 90
        3
102
RTVSPost2010PropOp43
 70
     0
102
RTVSPost2010Prop44ColorIndex
 90
        5
102
RTVSPost2010Prop44ColorRGB
 90
      255
102
RTVSPost2010PropOp44
 70
     0
102
RTVSPost2010Prop45
280
     0
102
RTVSPost2010PropOp45
 70
     0
102
RTVSPost2010Prop46
 90
       50
102
RTVSPost2010PropOp46
 70
     0
102
RTVSPost2010Prop47
 90
       50
102
RTVSPost2010PropOp47
 70
     0
102
RTVSPost2010Prop48
 90
       50
102
RTVSPost2010PropOp48
 70
     0
102
RTVSPost2010Prop49
280
     0
102
RTVSPost2010PropOp49
 70
     0
102
RTVSPost2010Prop50
 90
       50
102
RTVSPost2010PropOp50
 70
     0
102
RTVSPost2010Prop51ColorIndex
 90
      256
102
RTVSPost2010Prop51ColorRGB
 90
-16777216
102
RTVSPost2010PropOp51
 70
     0
102
RTVSPost2010Prop52
140
1.0
102
RTVSPost2010PropOp52
 70
     0
102
RTVSPost2010Prop53
 90
        2
102
RTVSPost2010PropOp53
 70
     0
102
RTVSPost2010Prop54
  1
strokes_ogs.tif
102
RTVSPost2010PropOp54
 70
     0
102
RTVSPost2010Prop55
280
     0
102
RTVSPost2010PropOp55
 70
     0
102
RTVSPost2010Prop56
140
1.0
102
RTVSPost2010PropOp56
 70
     0
102
RTVSPost2010Prop57
140
1.0
102
RTVSPost2010PropOp57
 70
     0
  0
XRECORD
  5
3A8
102
{ACAD_REACTORS
330
3A7
102
}
330
3A7
100
AcDbXrecord
280
     1
102
RTVSPropertyOp0
 70
     1
102
RTVSPropertyOp1
 70
     1
102
RTVSPropertyOp2
 70
     1
102
RTVSPropertyOp3
 70
     1
102
RTVSPropertyOp4
 70
     1
102
RTVSPropertyOp5
 70
     1
102
RTVSPropertyOp6
 70
     1
102
RTVSPropertyOp7
 70
     1
102
RTVSPropertyOp8
 70
     1
102
RTVSPropertyOp9
 70
     1
102
RTVSPropertyOp10
 70
     1
102
RTVSPropertyOp11
 70
     1
102
RTVSPropertyOp12
 70
     1
102
RTVSPropertyOp13
 70
     1
102
RTVSPropertyOp14
 70
     1
102
RTVSPropertyOp15
 70
     1
102
RTVSPropertyOp16
 70
     1
102
RTVSPropertyOp17
 70
     1
102
RTVSPropertyOp18
 70
     1
102
RTVSPropertyOp19
 70
     1
102
RTVSPropertyOp20
 70
     1
102
RTVSPropertyOp21
 70
     1
102
RTVSPropertyOp22
 70
     1
102
RTVSPropertyOp23
 70
     1
102
RTVSPropertyOp24
 70
     1
102
RTVSPropertyOp25
 70
     1
102
RTVSPropertyOp26
 70
     1
102
RTVSPropertyOp27
 70
     1
102
RTVSPropertyOp28
 70
     1
102
RTVSPropertyOp29
 70
     1
102
RTVSPropertyOp30
 70
     1
102
RTVSPropertyOp31
 70
     1
102
RTVSPropertyOp32
 70
     1
102
RTVSPropertyOp33
 70
     1
102
RTVSPropertyOp34
 70
     1
102
RTVSPropertyOp35
 70
     1
102
RTVSPropertyOp36
 70
     1
102
RTVSPropertyOp37
 70
     1
102
RTVSPropertyOp38
 70
     1
102
RTVSPropertyOp39
 70
     1
102
RTVSPropertyOp40
 70
     1
102
RTVSPropertyOp41
 70
     1
102
RTVSPropertyOp42
 70
     1
102
RTVSPropertyOp43
 70
     1
102
RTVSPropertyOp44
 70
     1
102
RTVSPropertyOp45
 70
     1
102
RTVSPropertyOp46
 70
     1
102
RTVSPropertyOp47
 70
     1
102
RTVSPropertyOp48
 70
     1
102
RTVSPropertyOp49
 70
     1
102
RTVSPropertyOp50
 70
     1
102
RTVSPropertyOp51
 70
     0
102
RTVSPropertyOp52
 70
     0
102
RTVSPropertyOp53
 70
     1
102
RTVSPropertyOp54
 70
     1
102
RTVSPropertyOp55
 70
     1
102
RTVSPropertyOp56
 70
     1
102
RTVSPropertyOp57
 70
     1
102
RTVSPost2010Prop28
280
     0
102
RTVSPost2010PropOp28
 70
     1
102
RTVSPost2010Prop29
280
     1
102
RTVSPost2010PropOp29
 70
     1
102
RTVSPost2010Prop30
280
     1
102
RTVSPost2010PropOp30
 70
     1
102
RTVSPost2010Prop31
280
     0
102
RTVSPost2010PropOp31
 70
     1
102
RTVSPost2010Prop32
280
     0
102
RTVSPost2010PropOp32
 70
     1
102
RTVSPost2010Prop33
280
     0
102
RTVSPost2010PropOp33
 70
     1
102
RTVSPost2010Prop34
280
     0
102
RTVSPost2010PropOp34
 70
     1
102
RTVSPost2010Prop35
280
     0
102
RTVSPost2010PropOp35
 70
     1
102
RTVSPost2010Prop36
280
     0
102
RTVSPost2010PropOp36
 70
     1
102
RTVSPost2010Prop37
 90
       50
102
RTVSPost2010PropOp37
 70
     1
102
RTVSPost2010Prop38
140
0.0
102
RTVSPost2010PropOp38
 70
     1
102
RTVSPost2010Prop39
140
1.0
102
RTVSPost2010PropOp39
 70
     1
102
RTVSPost2010Prop40
 90
        0
102
RTVSPost2010PropOp40
 70
     1
102
RTVSPost2010Prop41ColorIndex
 90
       18
102
RTVSPost2010Prop41ColorRGB
 90
        0
102
RTVSPost2010PropOp41
 70
     1
102
RTVSPost2010Prop42
 90
       50
102
RTVSPost2010PropOp42
 70
     1
102
RTVSPost2010Prop43
 90
        3
102
RTVSPost2010PropOp43
 70
     1
102
RTVSPost2010Prop44ColorIndex
 90
        5
102
RTVSPost2010Prop44ColorRGB
 90
      255
102
RTVSPost2010PropOp44
 70
     1
102
RTVSPost2010Prop45
280
     0
102
RTVSPost2010PropOp45
 70
     1
102
RTVSPost2010Prop46
 90
       50
102
RTVSPost2010PropOp46
 70
     1
102
RTVSPost2010Prop47
 90
       50
102
RTVSPost2010PropOp47
 70
     1
102
RTVSPost2010Prop48
 90
       50
102
RTVSPost2010PropOp48
 70
     1
102
RTVSPost2010Prop49
280
     0
102
RTVSPost2010PropOp49
 70
     1
102
RTVSPost2010Prop50
 90
       50
102
RTVSPost2010PropOp50
 70
     1
102
RTVSPost2010Prop51ColorIndex
 90
      256
102
RTVSPost2010Prop51ColorRGB
 90
-16777216
102
RTVSPost2010PropOp51
 70
     0
102
RTVSPost2010Prop52
140
1.0
102
RTVSPost2010PropOp52
 70
     0
102
RTVSPost2010Prop53
 90
        2
102
RTVSPost2010PropOp53
 70
     1
102
RTVSPost2010Prop54
  1
strokes_ogs.tif
102
RTVSPost2010PropOp54
 70
     1
102
RTVSPost2010Prop55
280
     0
102
RTVSPost2010PropOp55
 70
     1
102
RTVSPost2010Prop56
140
1.0
102
RTVSPost2010PropOp56
 70
     1
102
RTVSPost2010Prop57
140
1.0
102
RTVSPost2010PropOp57
 70
     1
  0
XRECORD
  5
3C6
102
{ACAD_REACTORS
330
3C5
102
}
330
3C5
100
AcDbXrecord
280
     1
102
RTVSPropertyOp0
 70
     1
102
RTVSPropertyOp1
 70
     1
102
RTVSPropertyOp2
 70
     1
102
RTVSPropertyOp3
 70
     1
102
RTVSPropertyOp4
 70
     1
102
RTVSPropertyOp5
 70
     1
102
RTVSPropertyOp6
 70
     1
102
RTVSPropertyOp7
 70
     1
102
RTVSPropertyOp8
 70
     1
102
RTVSPropertyOp9
 70
     1
102
RTVSPropertyOp10
 70
     1
102
RTVSPropertyOp11
 70
     1
102
RTVSPropertyOp12
 70
     1
102
RTVSPropertyOp13
 70
     1
102
RTVSPropertyOp14
 70
     1
102
RTVSPropertyOp15
 70
     1
102
RTVSPropertyOp16
 70
     1
102
RTVSPropertyOp17
 70
     1
102
RTVSPropertyOp18
 70
     1
102
RTVSPropertyOp19
 70
     1
102
RTVSPropertyOp20
 70
     1
102
RTVSPropertyOp21
 70
     1
102
RTVSPropertyOp22
 70
     1
102
RTVSPropertyOp23
 70
     1
102
RTVSPropertyOp24
 70
     1
102
RTVSPropertyOp25
 70
     1
102
RTVSPropertyOp26
 70
     1
102
RTVSPropertyOp27
 70
     1
102
RTVSPropertyOp28
 70
     1
102
RTVSPropertyOp29
 70
     1
102
RTVSPropertyOp30
 70
     1
102
RTVSPropertyOp31
 70
     1
102
RTVSPropertyOp32
 70
     1
102
RTVSPropertyOp33
 70
     1
102
RTVSPropertyOp34
 70
     1
102
RTVSPropertyOp35
 70
     1
102
RTVSPropertyOp36
 70
     1
102
RTVSPropertyOp37
 70
     1
102
RTVSPropertyOp38
 70
     1
102
RTVSPropertyOp39
 70
     1
102
RTVSPropertyOp40
 70
     1
102
RTVSPropertyOp41
 70
     1
102
RTVSPropertyOp42
 70
     1
102
RTVSPropertyOp43
 70
     1
102
RTVSPropertyOp44
 70
     1
102
RTVSPropertyOp45
 70
     1
102
RTVSPropertyOp46
 70
     1
102
RTVSPropertyOp47
 70
     1
102
RTVSPropertyOp48
 70
     1
102
RTVSPropertyOp49
 70
     1
102
RTVSPropertyOp50
 70
     1
102
RTVSPropertyOp51
 70
     0
102
RTVSPropertyOp52
 70
     0
102
RTVSPropertyOp53
 70
     1
102
RTVSPropertyOp54
 70
     1
102
RTVSPropertyOp55
 70
     1
102
RTVSPropertyOp56
 70
     1
102
RTVSPropertyOp57
 70
     1
102
RTVSPost2010Prop28
280
     0
102
RTVSPost2010PropOp28
 70
     1
102
RTVSPost2010Prop29
280
     1
102
RTVSPost2010PropOp29
 70
     1
102
RTVSPost2010Prop30
280
     1
102
RTVSPost2010PropOp30
 70
     1
102
RTVSPost2010Prop31
280
     0
102
RTVSPost2010PropOp31
 70
     1
102
RTVSPost2010Prop32
280
     0
102
RTVSPost2010PropOp32
 70
     1
102
RTVSPost2010Prop33
280
     0
102
RTVSPost2010PropOp33
 70
     1
102
RTVSPost2010Prop34
280
     0
102
RTVSPost2010PropOp34
 70
     1
102
RTVSPost2010Prop35
280
     0
102
RTVSPost2010PropOp35
 70
     1
102
RTVSPost2010Prop36
280
     0
102
RTVSPost2010PropOp36
 70
     1
102
RTVSPost2010Prop37
 90
       50
102
RTVSPost2010PropOp37
 70
     1
102
RTVSPost2010Prop38
140
0.0
102
RTVSPost2010PropOp38
 70
     1
102
RTVSPost2010Prop39
140
1.0
102
RTVSPost2010PropOp39
 70
     1
102
RTVSPost2010Prop40
 90
        0
102
RTVSPost2010PropOp40
 70
     1
102
RTVSPost2010Prop41ColorIndex
 90
       18
102
RTVSPost2010Prop41ColorRGB
 90
        0
102
RTVSPost2010PropOp41
 70
     1
102
RTVSPost2010Prop42
 90
       50
102
RTVSPost2010PropOp42
 70
     1
102
RTVSPost2010Prop43
 90
        3
102
RTVSPost2010PropOp43
 70
     1
102
RTVSPost2010Prop44ColorIndex
 90
        5
102
RTVSPost2010Prop44ColorRGB
 90
      255
102
RTVSPost2010PropOp44
 70
     1
102
RTVSPost2010Prop45
280
     0
102
RTVSPost2010PropOp45
 70
     1
102
RTVSPost2010Prop46
 90
       50
102
RTVSPost2010PropOp46
 70
     1
102
RTVSPost2010Prop47
 90
       50
102
RTVSPost2010PropOp47
 70
     1
102
RTVSPost2010Prop48
 90
       50
102
RTVSPost2010PropOp48
 70
     1
102
RTVSPost2010Prop49
280
     0
102
RTVSPost2010PropOp49
 70
     1
102
RTVSPost2010Prop50
 90
       50
102
RTVSPost2010PropOp50
 70
     1
102
RTVSPost2010Prop51ColorIndex
 90
      256
102
RTVSPost2010Prop51ColorRGB
 90
-16777216
102
RTVSPost2010PropOp51
 70
     0
102
RTVSPost2010Prop52
140
1.0
102
RTVSPost2010PropOp52
 70
     0
102
RTVSPost2010Prop53
 90
        2
102
RTVSPost2010PropOp53
 70
     1
102
RTVSPost2010Prop54
  1
strokes_ogs.tif
102
RTVSPost2010PropOp54
 70
     1
102
RTVSPost2010Prop55
280
     0
102
RTVSPost2010PropOp55
 70
     1
102
RTVSPost2010Prop56
140
1.0
102
RTVSPost2010PropOp56
 70
     1
102
RTVSPost2010Prop57
140
1.0
102
RTVSPost2010PropOp57
 70
     1
  0
XRECORD
  5
3C4
102
{ACAD_REACTORS
330
3C3
102
}
330
3C3
100
AcDbXrecord
280
     1
102
RTVSPropertyOp0
 70
     1
102
RTVSPropertyOp1
 70
     1
102
RTVSPropertyOp2
 70
     1
102
RTVSPropertyOp3
 70
     1
102
RTVSPropertyOp4
 70
     1
102
RTVSPropertyOp5
 70
     1
102
RTVSPropertyOp6
 70
     1
102
RTVSPropertyOp7
 70
     1
102
RTVSPropertyOp8
 70
     1
102
RTVSPropertyOp9
 70
     1
102
RTVSPropertyOp10
 70
     1
102
RTVSPropertyOp11
 70
     1
102
RTVSPropertyOp12
 70
     1
102
RTVSPropertyOp13
 70
     1
102
RTVSPropertyOp14
 70
     1
102
RTVSPropertyOp15
 70
     1
102
RTVSPropertyOp16
 70
     1
102
RTVSPropertyOp17
 70
     1
102
RTVSPropertyOp18
 70
     1
102
RTVSPropertyOp19
 70
     1
102
RTVSPropertyOp20
 70
     1
102
RTVSPropertyOp21
 70
     1
102
RTVSPropertyOp22
 70
     1
102
RTVSPropertyOp23
 70
     1
102
RTVSPropertyOp24
 70
     1
102
RTVSPropertyOp25
 70
     1
102
RTVSPropertyOp26
 70
     1
102
RTVSPropertyOp27
 70
     1
102
RTVSPropertyOp28
 70
     1
102
RTVSPropertyOp29
 70
     1
102
RTVSPropertyOp30
 70
     1
102
RTVSPropertyOp31
 70
     1
102
RTVSPropertyOp32
 70
     1
102
RTVSPropertyOp33
 70
     1
102
RTVSPropertyOp34
 70
     1
102
RTVSPropertyOp35
 70
     1
102
RTVSPropertyOp36
 70
     1
102
RTVSPropertyOp37
 70
     1
102
RTVSPropertyOp38
 70
     1
102
RTVSPropertyOp39
 70
     1
102
RTVSPropertyOp40
 70
     1
102
RTVSPropertyOp41
 70
     1
102
RTVSPropertyOp42
 70
     1
102
RTVSPropertyOp43
 70
     1
102
RTVSPropertyOp44
 70
     1
102
RTVSPropertyOp45
 70
     1
102
RTVSPropertyOp46
 70
     1
102
RTVSPropertyOp47
 70
     1
102
RTVSPropertyOp48
 70
     1
102
RTVSPropertyOp49
 70
     1
102
RTVSPropertyOp50
 70
     1
102
RTVSPropertyOp51
 70
     0
102
RTVSPropertyOp52
 70
     0
102
RTVSPropertyOp53
 70
     1
102
RTVSPropertyOp54
 70
     1
102
RTVSPropertyOp55
 70
     1
102
RTVSPropertyOp56
 70
     1
102
RTVSPropertyOp57
 70
     1
102
RTVSPost2010Prop28
280
     0
102
RTVSPost2010PropOp28
 70
     1
102
RTVSPost2010Prop29
280
     1
102
RTVSPost2010PropOp29
 70
     1
102
RTVSPost2010Prop30
280
     1
102
RTVSPost2010PropOp30
 70
     1
102
RTVSPost2010Prop31
280
     0
102
RTVSPost2010PropOp31
 70
     1
102
RTVSPost2010Prop32
280
     0
102
RTVSPost2010PropOp32
 70
     1
102
RTVSPost2010Prop33
280
     0
102
RTVSPost2010PropOp33
 70
     1
102
RTVSPost2010Prop34
280
     0
102
RTVSPost2010PropOp34
 70
     1
102
RTVSPost2010Prop35
280
     0
102
RTVSPost2010PropOp35
 70
     1
102
RTVSPost2010Prop36
280
     0
102
RTVSPost2010PropOp36
 70
     1
102
RTVSPost2010Prop37
 90
       50
102
RTVSPost2010PropOp37
 70
     1
102
RTVSPost2010Prop38
140
0.0
102
RTVSPost2010PropOp38
 70
     1
102
RTVSPost2010Prop39
140
1.0
102
RTVSPost2010PropOp39
 70
     1
102
RTVSPost2010Prop40
 90
        0
102
RTVSPost2010PropOp40
 70
     1
102
RTVSPost2010Prop41ColorIndex
 90
       18
102
RTVSPost2010Prop41ColorRGB
 90
        0
102
RTVSPost2010PropOp41
 70
     1
102
RTVSPost2010Prop42
 90
       50
102
RTVSPost2010PropOp42
 70
     1
102
RTVSPost2010Prop43
 90
        3
102
RTVSPost2010PropOp43
 70
     1
102
RTVSPost2010Prop44ColorIndex
 90
        5
102
RTVSPost2010Prop44ColorRGB
 90
      255
102
RTVSPost2010PropOp44
 70
     1
102
RTVSPost2010Prop45
280
     0
102
RTVSPost2010PropOp45
 70
     1
102
RTVSPost2010Prop46
 90
       50
102
RTVSPost2010PropOp46
 70
     1
102
RTVSPost2010Prop47
 90
       50
102
RTVSPost2010PropOp47
 70
     1
102
RTVSPost2010Prop48
 90
       50
102
RTVSPost2010PropOp48
 70
     1
102
RTVSPost2010Prop49
280
     0
102
RTVSPost2010PropOp49
 70
     1
102
RTVSPost2010Prop50
 90
       50
102
RTVSPost2010PropOp50
 70
     1
102
RTVSPost2010Prop51ColorIndex
 90
      256
102
RTVSPost2010Prop51ColorRGB
 90
-16777216
102
RTVSPost2010PropOp51
 70
     0
102
RTVSPost2010Prop52
140
1.0
102
RTVSPost2010PropOp52
 70
     0
102
RTVSPost2010Prop53
 90
        2
102
RTVSPost2010PropOp53
 70
     1
102
RTVSPost2010Prop54
  1
strokes_ogs.tif
102
RTVSPost2010PropOp54
 70
     1
102
RTVSPost2010Prop55
280
     0
102
RTVSPost2010PropOp55
 70
     1
102
RTVSPost2010Prop56
140
1.0
102
RTVSPost2010PropOp56
 70
     1
102
RTVSPost2010Prop57
140
1.0
102
RTVSPost2010PropOp57
 70
     1
  0
XRECORD
  5
3BE
102
{ACAD_REACTORS
330
3BD
102
}
330
3BD
100
AcDbXrecord
280
     1
102
RTVSPropertyOp0
 70
     1
102
RTVSPropertyOp1
 70
     1
102
RTVSPropertyOp2
 70
     1
102
RTVSPropertyOp3
 70
     1
102
RTVSPropertyOp4
 70
     1
102
RTVSPropertyOp5
 70
     1
102
RTVSPropertyOp6
 70
     1
102
RTVSPropertyOp7
 70
     1
102
RTVSPropertyOp8
 70
     1
102
RTVSPropertyOp9
 70
     1
102
RTVSPropertyOp10
 70
     1
102
RTVSPropertyOp11
 70
     1
102
RTVSPropertyOp12
 70
     1
102
RTVSPropertyOp13
 70
     1
102
RTVSPropertyOp14
 70
     1
102
RTVSPropertyOp15
 70
     1
102
RTVSPropertyOp16
 70
     1
102
RTVSPropertyOp17
 70
     1
102
RTVSPropertyOp18
 70
     1
102
RTVSPropertyOp19
 70
     1
102
RTVSPropertyOp20
 70
     1
102
RTVSPropertyOp21
 70
     1
102
RTVSPropertyOp22
 70
     1
102
RTVSPropertyOp23
 70
     1
102
RTVSPropertyOp24
 70
     1
102
RTVSPropertyOp25
 70
     1
102
RTVSPropertyOp26
 70
     1
102
RTVSPropertyOp27
 70
     1
102
RTVSPropertyOp28
 70
     1
102
RTVSPropertyOp29
 70
     1
102
RTVSPropertyOp30
 70
     1
102
RTVSPropertyOp31
 70
     1
102
RTVSPropertyOp32
 70
     1
102
RTVSPropertyOp33
 70
     1
102
RTVSPropertyOp34
 70
     1
102
RTVSPropertyOp35
 70
     1
102
RTVSPropertyOp36
 70
     1
102
RTVSPropertyOp37
 70
     1
102
RTVSPropertyOp38
 70
     1
102
RTVSPropertyOp39
 70
     1
102
RTVSPropertyOp40
 70
     1
102
RTVSPropertyOp41
 70
     1
102
RTVSPropertyOp42
 70
     1
102
RTVSPropertyOp43
 70
     1
102
RTVSPropertyOp44
 70
     1
102
RTVSPropertyOp45
 70
     1
102
RTVSPropertyOp46
 70
     1
102
RTVSPropertyOp47
 70
     1
102
RTVSPropertyOp48
 70
     1
102
RTVSPropertyOp49
 70
     1
102
RTVSPropertyOp50
 70
     1
102
RTVSPropertyOp51
 70
     0
102
RTVSPropertyOp52
 70
     0
102
RTVSPropertyOp53
 70
     1
102
RTVSPropertyOp54
 70
     1
102
RTVSPropertyOp55
 70
     1
102
RTVSPropertyOp56
 70
     1
102
RTVSPropertyOp57
 70
     1
102
RTVSPost2010Prop28
280
     0
102
RTVSPost2010PropOp28
 70
     1
102
RTVSPost2010Prop29
280
     1
102
RTVSPost2010PropOp29
 70
     1
102
RTVSPost2010Prop30
280
     1
102
RTVSPost2010PropOp30
 70
     1
102
RTVSPost2010Prop31
280
     0
102
RTVSPost2010PropOp31
 70
     1
102
RTVSPost2010Prop32
280
     0
102
RTVSPost2010PropOp32
 70
     1
102
RTVSPost2010Prop33
280
     0
102
RTVSPost2010PropOp33
 70
     1
102
RTVSPost2010Prop34
280
     0
102
RTVSPost2010PropOp34
 70
     1
102
RTVSPost2010Prop35
280
     0
102
RTVSPost2010PropOp35
 70
     1
102
RTVSPost2010Prop36
280
     0
102
RTVSPost2010PropOp36
 70
     1
102
RTVSPost2010Prop37
 90
       50
102
RTVSPost2010PropOp37
 70
     1
102
RTVSPost2010Prop38
140
0.0
102
RTVSPost2010PropOp38
 70
     1
102
RTVSPost2010Prop39
140
1.0
102
RTVSPost2010PropOp39
 70
     1
102
RTVSPost2010Prop40
 90
        0
102
RTVSPost2010PropOp40
 70
     1
102
RTVSPost2010Prop41ColorIndex
 90
       18
102
RTVSPost2010Prop41ColorRGB
 90
        0
102
RTVSPost2010PropOp41
 70
     1
102
RTVSPost2010Prop42
 90
       50
102
RTVSPost2010PropOp42
 70
     1
102
RTVSPost2010Prop43
 90
        3
102
RTVSPost2010PropOp43
 70
     1
102
RTVSPost2010Prop44ColorIndex
 90
        5
102
RTVSPost2010Prop44ColorRGB
 90
      255
102
RTVSPost2010PropOp44
 70
     1
102
RTVSPost2010Prop45
280
     0
102
RTVSPost2010PropOp45
 70
     1
102
RTVSPost2010Prop46
 90
       50
102
RTVSPost2010PropOp46
 70
     1
102
RTVSPost2010Prop47
 90
       50
102
RTVSPost2010PropOp47
 70
     1
102
RTVSPost2010Prop48
 90
       50
102
RTVSPost2010PropOp48
 70
     1
102
RTVSPost2010Prop49
280
     0
102
RTVSPost2010PropOp49
 70
     1
102
RTVSPost2010Prop50
 90
       50
102
RTVSPost2010PropOp50
 70
     1
102
RTVSPost2010Prop51ColorIndex
 90
      256
102
RTVSPost2010Prop51ColorRGB
 90
-16777216
102
RTVSPost2010PropOp51
 70
     0
102
RTVSPost2010Prop52
140
1.0
102
RTVSPost2010PropOp52
 70
     0
102
RTVSPost2010Prop53
 90
        2
102
RTVSPost2010PropOp53
 70
     1
102
RTVSPost2010Prop54
  1
strokes_ogs.tif
102
RTVSPost2010PropOp54
 70
     1
102
RTVSPost2010Prop55
280
     0
102
RTVSPost2010PropOp55
 70
     1
102
RTVSPost2010Prop56
140
1.0
102
RTVSPost2010PropOp56
 70
     1
102
RTVSPost2010Prop57
140
1.0
102
RTVSPost2010PropOp57
 70
     1
  0
XRECORD
  5
3C0
102
{ACAD_REACTORS
330
3BF
102
}
330
3BF
100
AcDbXrecord
280
     1
102
RTVSPropertyOp0
 70
     1
102
RTVSPropertyOp1
 70
     1
102
RTVSPropertyOp2
 70
     1
102
RTVSPropertyOp3
 70
     1
102
RTVSPropertyOp4
 70
     1
102
RTVSPropertyOp5
 70
     1
102
RTVSPropertyOp6
 70
     1
102
RTVSPropertyOp7
 70
     1
102
RTVSPropertyOp8
 70
     1
102
RTVSPropertyOp9
 70
     1
102
RTVSPropertyOp10
 70
     1
102
RTVSPropertyOp11
 70
     1
102
RTVSPropertyOp12
 70
     1
102
RTVSPropertyOp13
 70
     1
102
RTVSPropertyOp14
 70
     1
102
RTVSPropertyOp15
 70
     1
102
RTVSPropertyOp16
 70
     1
102
RTVSPropertyOp17
 70
     1
102
RTVSPropertyOp18
 70
     1
102
RTVSPropertyOp19
 70
     1
102
RTVSPropertyOp20
 70
     1
102
RTVSPropertyOp21
 70
     1
102
RTVSPropertyOp22
 70
     1
102
RTVSPropertyOp23
 70
     1
102
RTVSPropertyOp24
 70
     1
102
RTVSPropertyOp25
 70
     1
102
RTVSPropertyOp26
 70
     1
102
RTVSPropertyOp27
 70
     1
102
RTVSPropertyOp28
 70
     1
102
RTVSPropertyOp29
 70
     1
102
RTVSPropertyOp30
 70
     1
102
RTVSPropertyOp31
 70
     1
102
RTVSPropertyOp32
 70
     1
102
RTVSPropertyOp33
 70
     1
102
RTVSPropertyOp34
 70
     1
102
RTVSPropertyOp35
 70
     1
102
RTVSPropertyOp36
 70
     1
102
RTVSPropertyOp37
 70
     1
102
RTVSPropertyOp38
 70
     1
102
RTVSPropertyOp39
 70
     1
102
RTVSPropertyOp40
 70
     1
102
RTVSPropertyOp41
 70
     1
102
RTVSPropertyOp42
 70
     1
102
RTVSPropertyOp43
 70
     1
102
RTVSPropertyOp44
 70
     1
102
RTVSPropertyOp45
 70
     1
102
RTVSPropertyOp46
 70
     1
102
RTVSPropertyOp47
 70
     1
102
RTVSPropertyOp48
 70
     1
102
RTVSPropertyOp49
 70
     1
102
RTVSPropertyOp50
 70
     1
102
RTVSPropertyOp51
 70
     0
102
RTVSPropertyOp52
 70
     0
102
RTVSPropertyOp53
 70
     1
102
RTVSPropertyOp54
 70
     1
102
RTVSPropertyOp55
 70
     1
102
RTVSPropertyOp56
 70
     1
102
RTVSPropertyOp57
 70
     1
102
RTVSPost2010Prop28
280
     0
102
RTVSPost2010PropOp28
 70
     1
102
RTVSPost2010Prop29
280
     1
102
RTVSPost2010PropOp29
 70
     1
102
RTVSPost2010Prop30
280
     1
102
RTVSPost2010PropOp30
 70
     1
102
RTVSPost2010Prop31
280
     0
102
RTVSPost2010PropOp31
 70
     1
102
RTVSPost2010Prop32
280
     0
102
RTVSPost2010PropOp32
 70
     1
102
RTVSPost2010Prop33
280
     0
102
RTVSPost2010PropOp33
 70
     1
102
RTVSPost2010Prop34
280
     0
102
RTVSPost2010PropOp34
 70
     1
102
RTVSPost2010Prop35
280
     0
102
RTVSPost2010PropOp35
 70
     1
102
RTVSPost2010Prop36
280
     0
102
RTVSPost2010PropOp36
 70
     1
102
RTVSPost2010Prop37
 90
       50
102
RTVSPost2010PropOp37
 70
     1
102
RTVSPost2010Prop38
140
0.0
102
RTVSPost2010PropOp38
 70
     1
102
RTVSPost2010Prop39
140
1.0
102
RTVSPost2010PropOp39
 70
     1
102
RTVSPost2010Prop40
 90
        0
102
RTVSPost2010PropOp40
 70
     1
102
RTVSPost2010Prop41ColorIndex
 90
       18
102
RTVSPost2010Prop41ColorRGB
 90
        0
102
RTVSPost2010PropOp41
 70
     1
102
RTVSPost2010Prop42
 90
       50
102
RTVSPost2010PropOp42
 70
     1
102
RTVSPost2010Prop43
 90
        3
102
RTVSPost2010PropOp43
 70
     1
102
RTVSPost2010Prop44ColorIndex
 90
        5
102
RTVSPost2010Prop44ColorRGB
 90
      255
102
RTVSPost2010PropOp44
 70
     1
102
RTVSPost2010Prop45
280
     0
102
RTVSPost2010PropOp45
 70
     1
102
RTVSPost2010Prop46
 90
       50
102
RTVSPost2010PropOp46
 70
     1
102
RTVSPost2010Prop47
 90
       50
102
RTVSPost2010PropOp47
 70
     1
102
RTVSPost2010Prop48
 90
       50
102
RTVSPost2010PropOp48
 70
     1
102
RTVSPost2010Prop49
280
     0
102
RTVSPost2010PropOp49
 70
     1
102
RTVSPost2010Prop50
 90
       50
102
RTVSPost2010PropOp50
 70
     1
102
RTVSPost2010Prop51ColorIndex
 90
      256
102
RTVSPost2010Prop51ColorRGB
 90
-16777216
102
RTVSPost2010PropOp51
 70
     0
102
RTVSPost2010Prop52
140
1.0
102
RTVSPost2010PropOp52
 70
     0
102
RTVSPost2010Prop53
 90
        2
102
RTVSPost2010PropOp53
 70
     1
102
RTVSPost2010Prop54
  1
strokes_ogs.tif
102
RTVSPost2010PropOp54
 70
     1
102
RTVSPost2010Prop55
280
     0
102
RTVSPost2010PropOp55
 70
     1
102
RTVSPost2010Prop56
140
1.0
102
RTVSPost2010PropOp56
 70
     1
102
RTVSPost2010Prop57
140
1.0
102
RTVSPost2010PropOp57
 70
     1
  0
XRECORD
  5
3B0
102
{ACAD_REACTORS
330
3AF
102
}
330
3AF
100
AcDbXrecord
280
     1
102
RTVSPropertyOp0
 70
     1
102
RTVSPropertyOp1
 70
     1
102
RTVSPropertyOp2
 70
     1
102
RTVSPropertyOp3
 70
     1
102
RTVSPropertyOp4
 70
     1
102
RTVSPropertyOp5
 70
     1
102
RTVSPropertyOp6
 70
     1
102
RTVSPropertyOp7
 70
     1
102
RTVSPropertyOp8
 70
     1
102
RTVSPropertyOp9
 70
     1
102
RTVSPropertyOp10
 70
     1
102
RTVSPropertyOp11
 70
     1
102
RTVSPropertyOp12
 70
     1
102
RTVSPropertyOp13
 70
     1
102
RTVSPropertyOp14
 70
     1
102
RTVSPropertyOp15
 70
     1
102
RTVSPropertyOp16
 70
     1
102
RTVSPropertyOp17
 70
     1
102
RTVSPropertyOp18
 70
     1
102
RTVSPropertyOp19
 70
     1
102
RTVSPropertyOp20
 70
     1
102
RTVSPropertyOp21
 70
     1
102
RTVSPropertyOp22
 70
     1
102
RTVSPropertyOp23
 70
     1
102
RTVSPropertyOp24
 70
     1
102
RTVSPropertyOp25
 70
     1
102
RTVSPropertyOp26
 70
     1
102
RTVSPropertyOp27
 70
     1
102
RTVSPropertyOp28
 70
     1
102
RTVSPropertyOp29
 70
     1
102
RTVSPropertyOp30
 70
     1
102
RTVSPropertyOp31
 70
     1
102
RTVSPropertyOp32
 70
     1
102
RTVSPropertyOp33
 70
     1
102
RTVSPropertyOp34
 70
     1
102
RTVSPropertyOp35
 70
     1
102
RTVSPropertyOp36
 70
     1
102
RTVSPropertyOp37
 70
     1
102
RTVSPropertyOp38
 70
     1
102
RTVSPropertyOp39
 70
     1
102
RTVSPropertyOp40
 70
     1
102
RTVSPropertyOp41
 70
     1
102
RTVSPropertyOp42
 70
     1
102
RTVSPropertyOp43
 70
     1
102
RTVSPropertyOp44
 70
     1
102
RTVSPropertyOp45
 70
     1
102
RTVSPropertyOp46
 70
     1
102
RTVSPropertyOp47
 70
     1
102
RTVSPropertyOp48
 70
     1
102
RTVSPropertyOp49
 70
     1
102
RTVSPropertyOp50
 70
     1
102
RTVSPropertyOp51
 70
     0
102
RTVSPropertyOp52
 70
     0
102
RTVSPropertyOp53
 70
     1
102
RTVSPropertyOp54
 70
     1
102
RTVSPropertyOp55
 70
     1
102
RTVSPropertyOp56
 70
     1
102
RTVSPropertyOp57
 70
     1
102
RTVSPost2010Prop28
280
     0
102
RTVSPost2010PropOp28
 70
     1
102
RTVSPost2010Prop29
280
     1
102
RTVSPost2010PropOp29
 70
     1
102
RTVSPost2010Prop30
280
     1
102
RTVSPost2010PropOp30
 70
     1
102
RTVSPost2010Prop31
280
     0
102
RTVSPost2010PropOp31
 70
     1
102
RTVSPost2010Prop32
280
     0
102
RTVSPost2010PropOp32
 70
     1
102
RTVSPost2010Prop33
280
     0
102
RTVSPost2010PropOp33
 70
     1
102
RTVSPost2010Prop34
280
     0
102
RTVSPost2010PropOp34
 70
     1
102
RTVSPost2010Prop35
280
     0
102
RTVSPost2010PropOp35
 70
     1
102
RTVSPost2010Prop36
280
     0
102
RTVSPost2010PropOp36
 70
     1
102
RTVSPost2010Prop37
 90
       50
102
RTVSPost2010PropOp37
 70
     1
102
RTVSPost2010Prop38
140
0.0
102
RTVSPost2010PropOp38
 70
     1
102
RTVSPost2010Prop39
140
1.0
102
RTVSPost2010PropOp39
 70
     1
102
RTVSPost2010Prop40
 90
        0
102
RTVSPost2010PropOp40
 70
     1
102
RTVSPost2010Prop41ColorIndex
 90
       18
102
RTVSPost2010Prop41ColorRGB
 90
        0
102
RTVSPost2010PropOp41
 70
     1
102
RTVSPost2010Prop42
 90
       50
102
RTVSPost2010PropOp42
 70
     1
102
RTVSPost2010Prop43
 90
        3
102
RTVSPost2010PropOp43
 70
     1
102
RTVSPost2010Prop44ColorIndex
 90
        5
102
RTVSPost2010Prop44ColorRGB
 90
      255
102
RTVSPost2010PropOp44
 70
     1
102
RTVSPost2010Prop45
280
     0
102
RTVSPost2010PropOp45
 70
     1
102
RTVSPost2010Prop46
 90
       50
102
RTVSPost2010PropOp46
 70
     1
102
RTVSPost2010Prop47
 90
       50
102
RTVSPost2010PropOp47
 70
     1
102
RTVSPost2010Prop48
 90
       50
102
RTVSPost2010PropOp48
 70
     1
102
RTVSPost2010Prop49
280
     0
102
RTVSPost2010PropOp49
 70
     1
102
RTVSPost2010Prop50
 90
       50
102
RTVSPost2010PropOp50
 70
     1
102
RTVSPost2010Prop51ColorIndex
 90
      256
102
RTVSPost2010Prop51ColorRGB
 90
-16777216
102
RTVSPost2010PropOp51
 70
     0
102
RTVSPost2010Prop52
140
1.0
102
RTVSPost2010PropOp52
 70
     0
102
RTVSPost2010Prop53
 90
        2
102
RTVSPost2010PropOp53
 70
     1
102
RTVSPost2010Prop54
  1
strokes_ogs.tif
102
RTVSPost2010PropOp54
 70
     1
102
RTVSPost2010Prop55
280
     0
102
RTVSPost2010PropOp55
 70
     1
102
RTVSPost2010Prop56
140
1.0
102
RTVSPost2010PropOp56
 70
     1
102
RTVSPost2010Prop57
140
1.0
102
RTVSPost2010PropOp57
 70
     1
  0
XRECORD
  5
3A2
102
{ACAD_REACTORS
330
3A1
102
}
330
3A1
100
AcDbXrecord
280
     1
102
RTVSPropertyOp0
 70
     1
102
RTVSPropertyOp1
 70
     1
102
RTVSPropertyOp2
 70
     1
102
RTVSPropertyOp3
 70
     1
102
RTVSPropertyOp4
 70
     1
102
RTVSPropertyOp5
 70
     1
102
RTVSPropertyOp6
 70
     1
102
RTVSPropertyOp7
 70
     1
102
RTVSPropertyOp8
 70
     1
102
RTVSPropertyOp9
 70
     1
102
RTVSPropertyOp10
 70
     1
102
RTVSPropertyOp11
 70
     1
102
RTVSPropertyOp12
 70
     1
102
RTVSPropertyOp13
 70
     1
102
RTVSPropertyOp14
 70
     1
102
RTVSPropertyOp15
 70
     1
102
RTVSPropertyOp16
 70
     1
102
RTVSPropertyOp17
 70
     1
102
RTVSPropertyOp18
 70
     1
102
RTVSPropertyOp19
 70
     1
102
RTVSPropertyOp20
 70
     1
102
RTVSPropertyOp21
 70
     1
102
RTVSPropertyOp22
 70
     1
102
RTVSPropertyOp23
 70
     1
102
RTVSPropertyOp24
 70
     1
102
RTVSPropertyOp25
 70
     1
102
RTVSPropertyOp26
 70
     1
102
RTVSPropertyOp27
 70
     1
102
RTVSPropertyOp28
 70
     1
102
RTVSPropertyOp29
 70
     1
102
RTVSPropertyOp30
 70
     1
102
RTVSPropertyOp31
 70
     1
102
RTVSPropertyOp32
 70
     1
102
RTVSPropertyOp33
 70
     1
102
RTVSPropertyOp34
 70
     1
102
RTVSPropertyOp35
 70
     1
102
RTVSPropertyOp36
 70
     1
102
RTVSPropertyOp37
 70
     1
102
RTVSPropertyOp38
 70
     1
102
RTVSPropertyOp39
 70
     1
102
RTVSPropertyOp40
 70
     1
102
RTVSPropertyOp41
 70
     1
102
RTVSPropertyOp42
 70
     1
102
RTVSPropertyOp43
 70
     1
102
RTVSPropertyOp44
 70
     1
102
RTVSPropertyOp45
 70
     1
102
RTVSPropertyOp46
 70
     1
102
RTVSPropertyOp47
 70
     1
102
RTVSPropertyOp48
 70
     1
102
RTVSPropertyOp49
 70
     1
102
RTVSPropertyOp50
 70
     1
102
RTVSPropertyOp51
 70
     0
102
RTVSPropertyOp52
 70
     0
102
RTVSPropertyOp53
 70
     1
102
RTVSPropertyOp54
 70
     1
102
RTVSPropertyOp55
 70
     1
102
RTVSPropertyOp56
 70
     1
102
RTVSPropertyOp57
 70
     1
102
RTVSPost2010Prop28
280
     0
102
RTVSPost2010PropOp28
 70
     1
102
RTVSPost2010Prop29
280
     1
102
RTVSPost2010PropOp29
 70
     1
102
RTVSPost2010Prop30
280
     1
102
RTVSPost2010PropOp30
 70
     1
102
RTVSPost2010Prop31
280
     0
102
RTVSPost2010PropOp31
 70
     1
102
RTVSPost2010Prop32
280
     0
102
RTVSPost2010PropOp32
 70
     1
102
RTVSPost2010Prop33
280
     0
102
RTVSPost2010PropOp33
 70
     1
102
RTVSPost2010Prop34
280
     0
102
RTVSPost2010PropOp34
 70
     1
102
RTVSPost2010Prop35
280
     0
102
RTVSPost2010PropOp35
 70
     1
102
RTVSPost2010Prop36
280
     0
102
RTVSPost2010PropOp36
 70
     1
102
RTVSPost2010Prop37
 90
       50
102
RTVSPost2010PropOp37
 70
     1
102
RTVSPost2010Prop38
140
0.0
102
RTVSPost2010PropOp38
 70
     1
102
RTVSPost2010Prop39
140
1.0
102
RTVSPost2010PropOp39
 70
     1
102
RTVSPost2010Prop40
 90
        0
102
RTVSPost2010PropOp40
 70
     1
102
RTVSPost2010Prop41ColorIndex
 90
       18
102
RTVSPost2010Prop41ColorRGB
 90
        0
102
RTVSPost2010PropOp41
 70
     1
102
RTVSPost2010Prop42
 90
       50
102
RTVSPost2010PropOp42
 70
     1
102
RTVSPost2010Prop43
 90
        3
102
RTVSPost2010PropOp43
 70
     1
102
RTVSPost2010Prop44ColorIndex
 90
        5
102
RTVSPost2010Prop44ColorRGB
 90
      255
102
RTVSPost2010PropOp44
 70
     1
102
RTVSPost2010Prop45
280
     0
102
RTVSPost2010PropOp45
 70
     1
102
RTVSPost2010Prop46
 90
       50
102
RTVSPost2010PropOp46
 70
     1
102
RTVSPost2010Prop47
 90
       50
102
RTVSPost2010PropOp47
 70
     1
102
RTVSPost2010Prop48
 90
       50
102
RTVSPost2010PropOp48
 70
     1
102
RTVSPost2010Prop49
280
     0
102
RTVSPost2010PropOp49
 70
     1
102
RTVSPost2010Prop50
 90
       50
102
RTVSPost2010PropOp50
 70
     1
102
RTVSPost2010Prop51ColorIndex
 90
      256
102
RTVSPost2010Prop51ColorRGB
 90
-16777216
102
RTVSPost2010PropOp51
 70
     0
102
RTVSPost2010Prop52
140
1.0
102
RTVSPost2010PropOp52
 70
     0
102
RTVSPost2010Prop53
 90
        2
102
RTVSPost2010PropOp53
 70
     1
102
RTVSPost2010Prop54
  1
strokes_ogs.tif
102
RTVSPost2010PropOp54
 70
     1
102
RTVSPost2010Prop55
280
     0
102
RTVSPost2010PropOp55
 70
     1
102
RTVSPost2010Prop56
140
1.0
102
RTVSPost2010PropOp56
 70
     1
102
RTVSPost2010Prop57
140
1.0
102
RTVSPost2010PropOp57
 70
     1
  0
XRECORD
  5
3C2
102
{ACAD_REACTORS
330
3C1
102
}
330
3C1
100
AcDbXrecord
280
     1
102
RTVSPropertyOp0
 70
     1
102
RTVSPropertyOp1
 70
     1
102
RTVSPropertyOp2
 70
     1
102
RTVSPropertyOp3
 70
     1
102
RTVSPropertyOp4
 70
     1
102
RTVSPropertyOp5
 70
     1
102
RTVSPropertyOp6
 70
     1
102
RTVSPropertyOp7
 70
     1
102
RTVSPropertyOp8
 70
     1
102
RTVSPropertyOp9
 70
     1
102
RTVSPropertyOp10
 70
     1
102
RTVSPropertyOp11
 70
     1
102
RTVSPropertyOp12
 70
     1
102
RTVSPropertyOp13
 70
     1
102
RTVSPropertyOp14
 70
     1
102
RTVSPropertyOp15
 70
     1
102
RTVSPropertyOp16
 70
     1
102
RTVSPropertyOp17
 70
     1
102
RTVSPropertyOp18
 70
     1
102
RTVSPropertyOp19
 70
     1
102
RTVSPropertyOp20
 70
     1
102
RTVSPropertyOp21
 70
     1
102
RTVSPropertyOp22
 70
     1
102
RTVSPropertyOp23
 70
     1
102
RTVSPropertyOp24
 70
     1
102
RTVSPropertyOp25
 70
     1
102
RTVSPropertyOp26
 70
     1
102
RTVSPropertyOp27
 70
     1
102
RTVSPropertyOp28
 70
     1
102
RTVSPropertyOp29
 70
     1
102
RTVSPropertyOp30
 70
     1
102
RTVSPropertyOp31
 70
     1
102
RTVSPropertyOp32
 70
     1
102
RTVSPropertyOp33
 70
     1
102
RTVSPropertyOp34
 70
     1
102
RTVSPropertyOp35
 70
     1
102
RTVSPropertyOp36
 70
     1
102
RTVSPropertyOp37
 70
     1
102
RTVSPropertyOp38
 70
     1
102
RTVSPropertyOp39
 70
     1
102
RTVSPropertyOp40
 70
     1
102
RTVSPropertyOp41
 70
     1
102
RTVSPropertyOp42
 70
     1
102
RTVSPropertyOp43
 70
     1
102
RTVSPropertyOp44
 70
     1
102
RTVSPropertyOp45
 70
     1
102
RTVSPropertyOp46
 70
     1
102
RTVSPropertyOp47
 70
     1
102
RTVSPropertyOp48
 70
     1
102
RTVSPropertyOp49
 70
     1
102
RTVSPropertyOp50
 70
     1
102
RTVSPropertyOp51
 70
     0
102
RTVSPropertyOp52
 70
     0
102
RTVSPropertyOp53
 70
     1
102
RTVSPropertyOp54
 70
     1
102
RTVSPropertyOp55
 70
     1
102
RTVSPropertyOp56
 70
     1
102
RTVSPropertyOp57
 70
     1
102
RTVSPost2010Prop28
280
     0
102
RTVSPost2010PropOp28
 70
     1
102
RTVSPost2010Prop29
280
     1
102
RTVSPost2010PropOp29
 70
     1
102
RTVSPost2010Prop30
280
     1
102
RTVSPost2010PropOp30
 70
     1
102
RTVSPost2010Prop31
280
     0
102
RTVSPost2010PropOp31
 70
     1
102
RTVSPost2010Prop32
280
     0
102
RTVSPost2010PropOp32
 70
     1
102
RTVSPost2010Prop33
280
     0
102
RTVSPost2010PropOp33
 70
     1
102
RTVSPost2010Prop34
280
     0
102
RTVSPost2010PropOp34
 70
     1
102
RTVSPost2010Prop35
280
     0
102
RTVSPost2010PropOp35
 70
     1
102
RTVSPost2010Prop36
280
     0
102
RTVSPost2010PropOp36
 70
     1
102
RTVSPost2010Prop37
 90
       50
102
RTVSPost2010PropOp37
 70
     1
102
RTVSPost2010Prop38
140
0.0
102
RTVSPost2010PropOp38
 70
     1
102
RTVSPost2010Prop39
140
1.0
102
RTVSPost2010PropOp39
 70
     1
102
RTVSPost2010Prop40
 90
        0
102
RTVSPost2010PropOp40
 70
     1
102
RTVSPost2010Prop41ColorIndex
 90
       18
102
RTVSPost2010Prop41ColorRGB
 90
        0
102
RTVSPost2010PropOp41
 70
     1
102
RTVSPost2010Prop42
 90
       50
102
RTVSPost2010PropOp42
 70
     1
102
RTVSPost2010Prop43
 90
        3
102
RTVSPost2010PropOp43
 70
     1
102
RTVSPost2010Prop44ColorIndex
 90
        5
102
RTVSPost2010Prop44ColorRGB
 90
      255
102
RTVSPost2010PropOp44
 70
     1
102
RTVSPost2010Prop45
280
     0
102
RTVSPost2010PropOp45
 70
     1
102
RTVSPost2010Prop46
 90
       50
102
RTVSPost2010PropOp46
 70
     1
102
RTVSPost2010Prop47
 90
       50
102
RTVSPost2010PropOp47
 70
     1
102
RTVSPost2010Prop48
 90
       50
102
RTVSPost2010PropOp48
 70
     1
102
RTVSPost2010Prop49
280
     0
102
RTVSPost2010PropOp49
 70
     1
102
RTVSPost2010Prop50
 90
       50
102
RTVSPost2010PropOp50
 70
     1
102
RTVSPost2010Prop51ColorIndex
 90
      256
102
RTVSPost2010Prop51ColorRGB
 90
-16777216
102
RTVSPost2010PropOp51
 70
     0
102
RTVSPost2010Prop52
140
1.0
102
RTVSPost2010PropOp52
 70
     0
102
RTVSPost2010Prop53
 90
        2
102
RTVSPost2010PropOp53
 70
     1
102
RTVSPost2010Prop54
  1
strokes_ogs.tif
102
RTVSPost2010PropOp54
 70
     1
102
RTVSPost2010Prop55
280
     0
102
RTVSPost2010PropOp55
 70
     1
102
RTVSPost2010Prop56
140
1.0
102
RTVSPost2010PropOp56
 70
     1
102
RTVSPost2010Prop57
140
1.0
102
RTVSPost2010PropOp57
 70
     1
  0
ENDSEC
  0
EOF
