  0
SECTION
  2
HEADER
  9
$ACADVER
  1
AC1021
  9
$ACADMAINTVER
 70
    25
  9
$DWGCODEPAGE
  3
ANSI_932
  9
$INSBASE
 10
0.0
 20
0.0
 30
0.0
  9
$EXTMIN
 10
-1188.0
 20
-840.0
 30
0.0
  9
$EXTMAX
 10
1188.0
 20
840.0
 30
0.0
  9
$LIMMIN
 10
-1188.0
 20
-840.0
  9
$LIMMAX
 10
1188.0
 20
840.0
  9
$ORTHOMODE
 70
     0
  9
$REGENMODE
 70
     1
  9
$FILLMODE
 70
     1
  9
$QTEXTMODE
 70
     0
  9
$MIRRTEXT
 70
     1
  9
$LTSCALE
 40
4.0
  9
$ATTMODE
 70
     1
  9
$TEXTSIZE
 40
2.5
  9
$TRACEWID
 40
1.0
  9
$TEXTSTYLE
  7
Standard
  9
$CLAYER
  8
0
  9
$CELTYPE
  6
ByLayer
  9
$CECOLOR
 62
   256
  9
$CELTSCALE
 40
1.0
  9
$DISPSILH
 70
     0
  9
$DIMSCALE
 40
1.0
  9
$DIMASZ
 40
2.5
  9
$DIMEXO
 40
0.625
  9
$DIMDLI
 40
3.75
  9
$DIMRND
 40
0.0
  9
$DIMDLE
 40
0.0
  9
$DIMEXE
 40
1.25
  9
$DIMTP
 40
0.0
  9
$DIMTM
 40
0.0
  9
$DIMTXT
 40
2.5
  9
$DIMCEN
 40
2.5
  9
$DIMTSZ
 40
0.0
  9
$DIMTOL
 70
     0
  9
$DIMLIM
 70
     0
  9
$DIMTIH
 70
     0
  9
$DIMTOH
 70
     0
  9
$DIMSE1
 70
     0
  9
$DIMSE2
 70
     0
  9
$DIMTAD
 70
     1
  9
$DIMZIN
 70
     8
  9
$DIMBLK
  1

  9
$DIMASO
 70
     1
  9
$DIMSHO
 70
     1
  9
$DIMPOST
  1

  9
$DIMAPOST
  1

  9
$DIMALT
 70
     0
  9
$DIMALTD
 70
     3
  9
$DIMALTF
 40
0.03937007874016
  9
$DIMLFAC
 40
1.0
  9
$DIMTOFL
 70
     1
  9
$DIMTVP
 40
0.0
  9
$DIMTIX
 70
     0
  9
$DIMSOXD
 70
     0
  9
$DIMSAH
 70
     0
  9
$DIMBLK1
  1

  9
$DIMBLK2
  1

  9
$DIMSTYLE
  2
ISO-25
  9
$DIMCLRD
 70
     0
  9
$DIMCLRE
 70
     0
  9
$DIMCLRT
 70
     0
  9
$DIMTFAC
 40
1.0
  9
$DIMGAP
 40
0.625
  9
$DIMJUST
 70
     0
  9
$DIMSD1
 70
     0
  9
$DIMSD2
 70
     0
  9
$DIMTOLJ
 70
     0
  9
$DIMTZIN
 70
     8
  9
$DIMALTZ
 70
     0
  9
$DIMALTTZ
 70
     0
  9
$DIMUPT
 70
     0
  9
$DIMDEC
 70
     2
  9
$DIMTDEC
 70
     2
  9
$DIMALTU
 70
     2
  9
$DIMALTTD
 70
     3
  9
$DIMTXSTY
  7
Standard
  9
$DIMAUNIT
 70
     0
  9
$DIMADEC
 70
     0
  9
$DIMALTRND
 40
0.0
  9
$DIMAZIN
 70
     0
  9
$DIMDSEP
 70
    44
  9
$DIMATFIT
 70
     3
  9
$DIMFRAC
 70
     0
  9
$DIMLDRBLK
  1

  9
$DIMLUNIT
 70
     2
  9
$DIMLWD
 70
    -2
  9
$DIMLWE
 70
    -2
  9
$DIMTMOVE
 70
     0
  9
$DIMFXL
 40
1.0
  9
$DIMFXLON
 70
     0
  9
$DIMJOGANG
 40
0.7853981633974483
  9
$DIMTFILL
 70
     0
  9
$DIMTFILLCLR
 70
     0
  9
$DIMARCSYM
 70
     0
  9
$DIMLTYPE
  6

  9
$DIMLTEX1
  6

  9
$DIMLTEX2
  6

  9
$LUNITS
 70
     2
  9
$LUPREC
 70
     4
  9
$SKETCHINC
 40
1.0
  9
$FILLETRAD
 40
10.0
  9
$AUNITS
 70
     0
  9
$AUPREC
 70
     0
  9
$MENU
  1
.
  9
$ELEVATION
 40
0.0
  9
$PELEVATION
 40
0.0
  9
$THICKNESS
 40
0.0
  9
$LIMCHECK
 70
     0
  9
$CHAMFERA
 40
10.0
  9
$CHAMFERB
 40
10.0
  9
$CHAMFERC
 40
20.0
  9
$CHAMFERD
 40
0.0
  9
$SKPOLY
 70
     0
  9
$TDCREATE
 40
2457731.372538195
  9
$TDUCREATE
 40
2457730.997538195
  9
$TDUPDATE
 40
2457731.372538206
  9
$TDUUPDATE
 40
2457730.997538206
  9
$TDINDWG
 40
0.0000000116
  9
$TDUSRTIMER
 40
0.0000000116
  9
$USRTIMER
 70
     1
  9
$ANGBASE
 50
0.0
  9
$ANGDIR
 70
     0
  9
$PDMODE
 70
     0
  9
$PDSIZE
 40
0.0
  9
$PLINEWID
 40
0.0
  9
$SPLFRAME
 70
     0
  9
$SPLINETYPE
 70
     6
  9
$SPLINESEGS
 70
     8
  9
$HANDSEED
  5
22B
  9
$SURFTAB1
 70
     6
  9
$SURFTAB2
 70
     6
  9
$SURFTYPE
 70
     6
  9
$SURFU
 70
     6
  9
$SURFV
 70
     6
  9
$UCSBASE
  2

  9
$UCSNAME
  2

  9
$UCSORG
 10
0.0
 20
0.0
 30
0.0
  9
$UCSXDIR
 10
1.0
 20
0.0
 30
0.0
  9
$UCSYDIR
 10
0.0
 20
1.0
 30
0.0
  9
$UCSORTHOREF
  2

  9
$UCSORTHOVIEW
 70
     0
  9
$UCSORGTOP
 10
0.0
 20
0.0
 30
0.0
  9
$UCSORGBOTTOM
 10
0.0
 20
0.0
 30
0.0
  9
$UCSORGLEFT
 10
0.0
 20
0.0
 30
0.0
  9
$UCSORGRIGHT
 10
0.0
 20
0.0
 30
0.0
  9
$UCSORGFRONT
 10
0.0
 20
0.0
 30
0.0
  9
$UCSORGBACK
 10
0.0
 20
0.0
 30
0.0
  9
$PUCSBASE
  2

  9
$PUCSNAME
  2

  9
$PUCSORG
 10
0.0
 20
0.0
 30
0.0
  9
$PUCSXDIR
 10
1.0
 20
0.0
 30
0.0
  9
$PUCSYDIR
 10
0.0
 20
1.0
 30
0.0
  9
$PUCSORTHOREF
  2

  9
$PUCSORTHOVIEW
 70
     0
  9
$PUCSORGTOP
 10
0.0
 20
0.0
 30
0.0
  9
$PUCSORGBOTTOM
 10
0.0
 20
0.0
 30
0.0
  9
$PUCSORGLEFT
 10
0.0
 20
0.0
 30
0.0
  9
$PUCSORGRIGHT
 10
0.0
 20
0.0
 30
0.0
  9
$PUCSORGFRONT
 10
0.0
 20
0.0
 30
0.0
  9
$PUCSORGBACK
 10
0.0
 20
0.0
 30
0.0
  9
$USERI1
 70
     0
  9
$USERI2
 70
     0
  9
$USERI3
 70
     0
  9
$USERI4
 70
     0
  9
$USERI5
 70
     0
  9
$USERR1
 40
0.0
  9
$USERR2
 40
0.0
  9
$USERR3
 40
0.0
  9
$USERR4
 40
0.0
  9
$USERR5
 40
0.0
  9
$WORLDVIEW
 70
     1
  9
$SHADEDGE
 70
     3
  9
$SHADEDIF
 70
    70
  9
$TILEMODE
 70
     1
  9
$MAXACTVP
 70
    64
  9
$PINSBASE
 10
0.0
 20
0.0
 30
0.0
  9
$PLIMCHECK
 70
     0
  9
$PEXTMIN
 10
1.000000000000000E+20
 20
1.000000000000000E+20
 30
1.000000000000000E+20
  9
$PEXTMAX
 10
-1.000000000000000E+20
 20
-1.000000000000000E+20
 30
-1.000000000000000E+20
  9
$PLIMMIN
 10
0.0
 20
0.0
  9
$PLIMMAX
 10
420.0
 20
297.0
  9
$UNITMODE
 70
     0
  9
$VISRETAIN
 70
     1
  9
$PLINEGEN
 70
     0
  9
$PSLTSCALE
 70
     1
  9
$TREEDEPTH
 70
  3020
  9
$CMLSTYLE
  2
Standard
  9
$CMLJUST
 70
     0
  9
$CMLSCALE
 40
20.0
  9
$PROXYGRAPHICS
 70
     1
  9
$MEASUREMENT
 70
     1
  9
$CELWEIGHT
370
    -1
  9
$ENDCAPS
280
     0
  9
$JOINSTYLE
280
     0
  9
$LWDISPLAY
290
     0
  9
$INSUNITS
 70
     4
  9
$HYPERLINKBASE
  1

  9
$STYLESHEET
  1

  9
$XEDIT
290
     1
  9
$CEPSNTYPE
380
     0
  9
$PSTYLEMODE
290
     1
  9
$FINGERPRINTGUID
  2
{BBB155DF-9D5C-4A20-881E-C987F74B82DB}
  9
$VERSIONGUID
  2
{FAEB1C32-E019-11D5-929B-00C0DF256EC4}
  9
$EXTNAMES
290
     1
  9
$PSVPSCALE
 40
0.0
  9
$OLESTARTUP
290
     0
  9
$SORTENTS
280
   127
  9
$INDEXCTL
280
     0
  9
$HIDETEXT
280
     1
  9
$XCLIPFRAME
290
     0
  9
$HALOGAP
280
     0
  9
$OBSCOLOR
 70
   257
  9
$OBSLTYPE
280
     0
  9
$INTERSECTIONDISPLAY
280
     0
  9
$INTERSECTIONCOLOR
 70
   257
  9
$DIMASSOC
280
     2
  9
$PROJECTNAME
  1

  9
$CAMERADISPLAY
290
     0
  9
$LENSLENGTH
 40
50.0
  9
$CAMERAHEIGHT
 40
0.0
  9
$STEPSPERSEC
 40
2.0
  9
$STEPSIZE
 40
6.0
  9
$3DDWFPREC
 40
2.0
  9
$PSOLWIDTH
 40
5.0
  9
$PSOLHEIGHT
 40
80.0
  9
$LOFTANG1
 40
1.570796326794897
  9
$LOFTANG2
 40
1.570796326794897
  9
$LOFTMAG1
 40
0.0
  9
$LOFTMAG2
 40
0.0
  9
$LOFTPARAM
 70
     7
  9
$LOFTNORMALS
280
     1
  9
$LATITUDE
 40
37.795
  9
$LONGITUDE
 40
-122.394
  9
$NORTHDIRECTION
 40
0.0
  9
$TIMEZONE
 70
 -8000
  9
$LIGHTGLYPHDISPLAY
280
     1
  9
$TILEMODELIGHTSYNCH
280
     1
  9
$SOLIDHIST
280
     1
  9
$SHOWHIST
280
     1
  9
$DWFFRAME
280
     2
  9
$DGNFRAME
280
     2
  9
$REALWORLDSCALE
290
     1
  9
$INTERFERECOLOR
 62
   256
  9
$CSHADOW
280
     0
  9
$SHADOWPLANELOCATION
 40
0.0
  0
ENDSEC
  0
SECTION
  2
CLASSES
  0
CLASS
  1
ACDBDICTIONARYWDFLT
  2
AcDbDictionaryWithDefault
  3
ObjectDBX Classes
 90
        0
 91
        4
280
     0
281
     0
  0
CLASS
  1
VISUALSTYLE
  2
AcDbVisualStyle
  3
ObjectDBX Classes
 90
     4095
 91
        4
280
     0
281
     0
  0
ENDSEC
  0
SECTION
  2
TABLES
  0
TABLE
  2
VPORT
  5
8
330
0
100
AcDbSymbolTable
 70
     1
  0
VPORT
  5
29
330
8
100
AcDbSymbolTableRecord
100
AcDbViewportTableRecord
  2
*Active
 70
     0
 10
0.0
 20
0.0
 11
1.0
 21
1.0
 12
0.0
 22
0.0
 13
0.0
 23
0.0
 14
10.0
 24
10.0
 15
10.0
 25
10.0
 16
0.0
 26
0.0
 36
1.0
 17
0.0
 27
0.0
 37
0.0
 40
1848.0
 41
1.414285714285714
 42
50.0
 43
0.0
 44
0.0
 50
0.0
 51
0.0
 71
     0
 72
 10000
 73
     1
 74
     3
 75
     0
 76
     0
 77
     0
 78
     0
281
     0
 65
     1
110
0.0
120
0.0
130
0.0
111
1.0
121
0.0
131
0.0
112
0.0
122
1.0
132
0.0
 79
     0
146
0.0
 60
     3
 61
     5
292
     1
282
     1
141
0.0
142
0.0
 63
   256
  0
ENDTAB
  0
TABLE
  2
LTYPE
  5
5
330
0
100
AcDbSymbolTable
 70
     5
  0
LTYPE
  5
14
330
5
100
AcDbSymbolTableRecord
100
AcDbLinetypeTableRecord
  2
ByBlock
 70
     0
  3

 72
    65
 73
     0
 40
0.0
  0
LTYPE
  5
15
330
5
100
AcDbSymbolTableRecord
100
AcDbLinetypeTableRecord
  2
ByLayer
 70
     0
  3

 72
    65
 73
     0
 40
0.0
  0
LTYPE
  5
16
330
5
100
AcDbSymbolTableRecord
100
AcDbLinetypeTableRecord
  2
Continuous
 70
     0
  3
Solid line
 72
    65
 73
     0
 40
0.0
  0
LTYPE
  5
3C
330
5
100
AcDbSymbolTableRecord
100
AcDbLinetypeTableRecord
  2
JWW_CENTER1
 70
     0
  3
-----  --  ----------  --  -----
 72
    65
 73
     4
 40
6.773333333333333
 49
4.233333333333333
 74
     0
 49
-0.8466666666666667
 74
     0
 49
0.8466666666666667
 74
     0
 49
-0.8466666666666667
 74
     0
  0
LTYPE
  5
3D
330
5
100
AcDbSymbolTableRecord
100
AcDbLinetypeTableRecord
  2
JWW_DASHED3
 70
     0
  3
---  ------  ------  ------  ---
 72
    65
 73
     2
 40
3.386666666666667
 49
2.54
 74
     0
 49
-0.8466666666666667
 74
     0
  0
LTYPE
  5
3E
330
5
100
AcDbSymbolTableRecord
100
AcDbLinetypeTableRecord
  2
JWW_DASHED1
 70
     0
  3
-  --  --  --  --  --  --  --  -
 72
    65
 73
     2
 40
1.693333333333333
 49
0.8466666666666667
 74
     0
 49
-0.8466666666666667
 74
     0
  0
LTYPE
  5
3F
330
5
100
AcDbSymbolTableRecord
100
AcDbLinetypeTableRecord
  2
JWW_CENTER2
 70
     0
  3
-------------  --  -------------
 72
    65
 73
     4
 40
13.54666666666667
 49
11.00666666666667
 74
     0
 49
-0.8466666666666667
 74
     0
 49
0.8466666666666667
 74
     0
 49
-0.8466666666666667
 74
     0
  0
ENDTAB
  0
TABLE
  2
LAYER
  5
2
330
0
100
AcDbSymbolTable
 70
     9
  0
LAYER
  5
10
330
2
100
AcDbSymbolTableRecord
100
AcDbLayerTableRecord
  2
0
 70
     0
 62
     7
  6
Continuous
370
    -3
390
F
347
0
  0
LAYER
  5
40
330
2
100
AcDbSymbolTableRecord
100
AcDbLayerTableRecord
  2
F-Fﾚｲﾔ
 70
     0
 62
     7
  6
Continuous
370
    -3
390
F
347
0
  0
LAYER
  5
41
330
2
100
AcDbSymbolTableRecord
100
AcDbLayerTableRecord
  2
F-5ﾚｲﾔ
 70
     0
 62
     7
  6
Continuous
370
    -3
390
F
347
0
  0
LAYER
  5
42
330
2
100
AcDbSymbolTableRecord
100
AcDbLayerTableRecord
  2
F-4ﾚｲﾔ
 70
     0
 62
     7
  6
Continuous
370
    -3
390
F
347
0
  0
LAYER
  5
43
330
2
100
AcDbSymbolTableRecord
100
AcDbLayerTableRecord
  2
躯体
 70
     0
 62
     7
  6
Continuous
370
    -3
390
F
347
0
  0
LAYER
  5
44
330
2
100
AcDbSymbolTableRecord
100
AcDbLayerTableRecord
  2
建具
 70
     0
 62
     7
  6
Continuous
370
    -3
390
F
347
0
  0
LAYER
  5
45
330
2
100
AcDbSymbolTableRecord
100
AcDbLayerTableRecord
  2
仕上
 70
     0
 62
     7
  6
Continuous
370
    -3
390
F
347
0
  0
LAYER
  5
46
330
2
100
AcDbSymbolTableRecord
100
AcDbLayerTableRecord
  2
その他
 70
     0
 62
     7
  6
Continuous
370
    -3
390
F
347
0
  0
LAYER
  5
47
330
2
100
AcDbSymbolTableRecord
100
AcDbLayerTableRecord
  2
寸法
 70
     0
 62
     7
  6
Continuous
370
    -3
390
F
347
0
  0
ENDTAB
  0
TABLE
  2
STYLE
  5
3
330
0
100
AcDbSymbolTable
 70
     2
  0
STYLE
  5
11
330
3
100
AcDbSymbolTableRecord
100
AcDbTextStyleTableRecord
  2
Standard
 70
     0
 40
0.0
 41
1.0
 50
0.0
 71
     0
 42
2.5
  3
txt
  4

1001
ACAD
1000

1071
        0
  0
STYLE
  5
3B
330
3
100
AcDbSymbolTableRecord
100
AcDbTextStyleTableRecord
  2
ＭＳ ゴシック
 70
     0
 40
1.0
 41
1.0
 50
0.0
 71
     0
 42
10.0
  3

  4

1001
ACAD
1000
MS Gothic
1071
    32817
  0
ENDTAB
  0
TABLE
  2
VIEW
  5
6
330
0
100
AcDbSymbolTable
 70
     0
  0
ENDTAB
  0
TABLE
  2
UCS
  5
7
330
0
100
AcDbSymbolTable
 70
     0
  0
ENDTAB
  0
TABLE
  2
APPID
  5
9
330
0
100
AcDbSymbolTable
 70
     1
  0
APPID
  5
12
330
9
100
AcDbSymbolTableRecord
100
AcDbRegAppTableRecord
  2
ACAD
 70
     0
  0
ENDTAB
  0
TABLE
  2
DIMSTYLE
  5
A
330
0
100
AcDbSymbolTable
 70
     1
100
AcDbDimStyleTable
  0
DIMSTYLE
105
27
330
A
100
AcDbSymbolTableRecord
100
AcDbDimStyleTableRecord
  2
ISO-25
 70
     0
 41
2.5
 42
0.625
 43
3.75
 44
1.25
 73
     0
 74
     0
 77
     1
 78
     8
140
2.5
141
2.5
143
0.03937007874016
147
0.625
171
     3
172
     1
271
     2
272
     2
274
     3
278
    44
283
     0
284
     8
340
11
  0
ENDTAB
  0
TABLE
  2
BLOCK_RECORD
  5
1
330
0
100
AcDbSymbolTable
 70
     1
  0
BLOCK_RECORD
  5
1F
330
1
100
AcDbSymbolTableRecord
100
AcDbBlockTableRecord
  2
*Model_Space
340
22
 70
     0
280
     1
281
     0
  0
BLOCK_RECORD
  5
1B
330
1
100
AcDbSymbolTableRecord
100
AcDbBlockTableRecord
  2
*Paper_Space
340
1E
 70
     0
280
     1
281
     0
  0
BLOCK_RECORD
  5
23
330
1
100
AcDbSymbolTableRecord
100
AcDbBlockTableRecord
  2
*Paper_Space0
340
26
 70
     0
280
     1
281
     0
  0
ENDTAB
  0
ENDSEC
  0
SECTION
  2
BLOCKS
  0
BLOCK
  5
20
330
1F
100
AcDbEntity
  8
0
100
AcDbBlockBegin
  2
*Model_Space
 70
     0
 10
0.0
 20
0.0
 30
0.0
  3
*Model_Space
  1

  0
ENDBLK
  5
21
330
1F
100
AcDbEntity
  8
0
100
AcDbBlockEnd
  0
BLOCK
  5
1C
330
1B
100
AcDbEntity
 67
     1
  8
0
100
AcDbBlockBegin
  2
*Paper_Space
 70
     0
 10
0.0
 20
0.0
 30
0.0
  3
*Paper_Space
  1

  0
ENDBLK
  5
1D
330
1B
100
AcDbEntity
 67
     1
  8
0
100
AcDbBlockEnd
  0
BLOCK
  5
24
330
23
100
AcDbEntity
  8
0
100
AcDbBlockBegin
  2
*Paper_Space0
 70
     0
 10
0.0
 20
0.0
 30
0.0
  3
*Paper_Space0
  1

  0
ENDBLK
  5
25
330
23
100
AcDbEntity
  8
0
100
AcDbBlockEnd
  0
ENDSEC
  0
SECTION
  2
ENTITIES
  0
LINE
  5
48
330
1F
100
AcDbEntity
  8
F-Fﾚｲﾔ
  6
Continuous
 62
     7
370
     9
100
AcDbLine
 10
550.3305680302257
 20
596.915871598609
 30
0.0
 11
1119.017244912227
 21
596.915871598609
 31
0.0
  0
TEXT
  5
49
330
1F
100
AcDbEntity
  8
F-Fﾚｲﾔ
  6
Continuous
 62
     2
370
     9
100
AcDbText
 10
560.9774580886861
 20
739.1718930562811
 30
0.0
 40
12.192
  1
強度性能
 41
1.09375
  7
ＭＳ ゴシック
100
AcDbText
  0
TEXT
  5
4A
330
1F
100
AcDbEntity
  8
F-Fﾚｲﾔ
  6
Continuous
 62
     2
370
     9
100
AcDbText
 10
560.9774580886861
 20
703.171871598609
 30
0.0
 40
12.192
  1
強度
 41
1.0625
  7
ＭＳ ゴシック
100
AcDbText
  0
TEXT
  5
4B
330
1F
100
AcDbEntity
  8
F-Fﾚｲﾔ
  6
Continuous
 62
     2
370
     9
100
AcDbText
 10
560.9774580886861
 20
639.171871598609
 30
0.0
 40
12.192
  1
主な使用場所
 41
1.104166666666667
  7
ＭＳ ゴシック
100
AcDbText
  0
LINE
  5
4C
330
1F
100
AcDbEntity
  8
F-Fﾚｲﾔ
  6
Continuous
 62
     7
370
     9
100
AcDbLine
 10
550.3305680302257
 20
760.915871598609
 30
0.0
 11
1119.017244912227
 21
760.915871598609
 31
0.0
  0
LINE
  5
4D
330
1F
100
AcDbEntity
  8
F-Fﾚｲﾔ
  6
Continuous
 62
     7
370
     9
100
AcDbLine
 10
550.3305680302257
 20
728.915871598609
 30
0.0
 11
1119.017244912227
 21
728.915871598609
 31
0.0
  0
LINE
  5
4E
330
1F
100
AcDbEntity
  8
F-Fﾚｲﾔ
  6
Continuous
 62
     7
370
     9
100
AcDbLine
 10
550.3305680302257
 20
724.915871598609
 30
0.0
 11
1119.017244912227
 21
724.915871598609
 31
0.0
  0
LINE
  5
4F
330
1F
100
AcDbEntity
  8
F-5ﾚｲﾔ
  6
Continuous
 62
     7
370
     9
100
AcDbLine
 10
550.3305680302257
 20
660.915871598609
 30
0.0
 11
1119.017244912227
 21
660.915871598609
 31
0.0
  0
LINE
  5
50
330
1F
100
AcDbEntity
  8
F-Fﾚｲﾔ
  6
Continuous
 62
     7
370
     9
100
AcDbLine
 10
550.3305680302257
 20
660.915871598609
 30
0.0
 11
1119.017244912227
 21
660.915871598609
 31
0.0
  0
TEXT
  5
51
330
1F
100
AcDbEntity
  8
F-Fﾚｲﾔ
  6
Continuous
 62
     2
370
     9
100
AcDbText
 10
719.059980517062
 20
703.171871598609
 30
0.0
 40
12.192
  1
T-14：後輪1輪荷重54.9kN(5,600kgf)
 41
1.121212121212121
  7
ＭＳ ゴシック
100
AcDbText
  0
TEXT
  5
52
330
1F
100
AcDbEntity
  8
F-Fﾚｲﾔ
  6
Continuous
 62
     2
370
     9
100
AcDbText
 10
719.059980517062
 20
671.1718715986088
 30
0.0
 40
12.192
  1
  　　総重量14トンまでの車両が通行可能
 41
1.118421052631579
  7
ＭＳ ゴシック
100
AcDbText
  0
TEXT
  5
53
330
1F
100
AcDbEntity
  8
F-Fﾚｲﾔ
  6
Continuous
 62
     2
370
     9
100
AcDbText
 10
719.059980517062
 20
639.171871598609
 30
0.0
 40
12.192
  1
建物内、建物敷地内、公園敷地内、
 41
1.1171875
  7
ＭＳ ゴシック
100
AcDbText
  0
TEXT
  5
54
330
1F
100
AcDbEntity
  8
F-Fﾚｲﾔ
  6
Continuous
 62
     2
370
     9
100
AcDbText
 10
719.059980517062
 20
607.171871598609
 30
0.0
 40
12.192
  1
車道以外で車両の乗り入れる可能性のある場所
 41
1.119047619047619
  7
ＭＳ ゴシック
100
AcDbText
  0
LINE
  5
55
330
1F
100
AcDbEntity
  8
F-Fﾚｲﾔ
  6
Continuous
 62
     7
370
     9
100
AcDbLine
 10
550.3305680302257
 20
760.915871598609
 30
0.0
 11
550.3305680302257
 21
436.9158715986089
 31
0.0
  0
LINE
  5
56
330
1F
100
AcDbEntity
  8
F-Fﾚｲﾔ
  6
Continuous
 62
     7
370
     9
100
AcDbLine
 10
702.5260197594522
 20
728.915871598609
 30
0.0
 11
702.5260197594522
 21
436.9158715986089
 31
0.0
  0
LINE
  5
57
330
1F
100
AcDbEntity
  8
F-Fﾚｲﾔ
  6
Continuous
 62
     7
370
     9
100
AcDbLine
 10
550.3305680302257
 20
436.9158715986089
 30
0.0
 11
1119.017244912227
 21
436.9158715986089
 31
0.0
  0
LINE
  5
58
330
1F
100
AcDbEntity
  8
F-Fﾚｲﾔ
  6
Continuous
 62
     7
370
     9
100
AcDbLine
 10
1119.017244912227
 20
760.915871598609
 30
0.0
 11
1119.017244912227
 21
436.9158715986089
 31
0.0
  0
LINE
  5
59
330
1F
100
AcDbEntity
  8
F-Fﾚｲﾔ
  6
Continuous
 62
     7
370
     9
100
AcDbLine
 10
550.3305680302257
 20
564.915871598609
 30
0.0
 11
1119.017244912227
 21
564.915871598609
 31
0.0
  0
LINE
  5
5A
330
1F
100
AcDbEntity
  8
F-Fﾚｲﾔ
  6
Continuous
 62
     7
370
     9
100
AcDbLine
 10
550.3305680302257
 20
532.915871598609
 30
0.0
 11
1119.017244912227
 21
532.915871598609
 31
0.0
  0
LINE
  5
5B
330
1F
100
AcDbEntity
  8
F-Fﾚｲﾔ
  6
Continuous
 62
     7
370
     9
100
AcDbLine
 10
550.3305680302257
 20
468.915871598609
 30
0.0
 11
1119.017244912227
 21
468.915871598609
 31
0.0
  0
TEXT
  5
5C
330
1F
100
AcDbEntity
  8
F-Fﾚｲﾔ
  6
Continuous
 62
     2
370
     9
100
AcDbText
 10
560.9774580886861
 20
575.1718715986088
 30
0.0
 40
12.192
  1
車両進行方向
 41
1.104166666666667
  7
ＭＳ ゴシック
100
AcDbText
  0
TEXT
  5
5D
330
1F
100
AcDbEntity
  8
F-Fﾚｲﾔ
  6
Continuous
 62
     2
370
     9
100
AcDbText
 10
560.9774580886861
 20
543.1718715986088
 30
0.0
 40
12.192
  1
衝撃係数
 41
1.09375
  7
ＭＳ ゴシック
100
AcDbText
  0
TEXT
  5
5E
330
1F
100
AcDbEntity
  8
F-Fﾚｲﾔ
  6
Continuous
 62
     2
370
     9
100
AcDbText
 10
560.9774580886861
 20
511.1718715986088
 30
0.0
 40
12.192
  1
衝撃を考慮した
 41
1.107142857142857
  7
ＭＳ ゴシック
100
AcDbText
  0
TEXT
  5
5F
330
1F
100
AcDbEntity
  8
F-Fﾚｲﾔ
  6
Continuous
 62
     2
370
     9
100
AcDbText
 10
560.9774580886861
 20
479.1718715986088
 30
0.0
 40
12.192
  1
後輪1輪荷重
 41
1.102272727272727
  7
ＭＳ ゴシック
100
AcDbText
  0
TEXT
  5
60
330
1F
100
AcDbEntity
  8
F-Fﾚｲﾔ
  6
Continuous
 62
     2
370
     9
100
AcDbText
 10
560.9774580886861
 20
447.1718715986088
 30
0.0
 40
12.192
  1
後輪接地面積
 41
1.104166666666667
  7
ＭＳ ゴシック
100
AcDbText
  0
TEXT
  5
61
330
1F
100
AcDbEntity
  8
F-Fﾚｲﾔ
  6
Continuous
 62
     2
370
     9
100
AcDbText
 10
719.059980517062
 20
447.1718715986088
 30
0.0
 40
12.192
  1
200×500 mm
 41
1.113636363636364
  7
ＭＳ ゴシック
100
AcDbText
  0
TEXT
  5
62
330
1F
100
AcDbEntity
  8
F-Fﾚｲﾔ
  6
Continuous
 62
     2
370
     9
100
AcDbText
 10
719.059980517062
 20
543.171871598609
 30
0.0
 40
12.192
  1
0.1
 41
1.083333333333333
  7
ＭＳ ゴシック
100
AcDbText
  0
TEXT
  5
63
330
1F
100
AcDbEntity
  8
F-Fﾚｲﾔ
  6
Continuous
 62
     2
370
     9
100
AcDbText
 10
719.059980517062
 20
575.171871598609
 30
0.0
 40
12.192
  1
横断方向、縦断方向
 41
1.111111111111111
  7
ＭＳ ゴシック
100
AcDbText
  0
TEXT
  5
64
330
1F
100
AcDbEntity
  8
F-Fﾚｲﾔ
  6
Continuous
 62
     2
370
     9
100
AcDbText
 10
719.059980517062
 20
495.171871598609
 30
0.0
 40
12.192
  1
60.4kN
 41
1.104166666666667
  7
ＭＳ ゴシック
100
AcDbText
  0
LINE
  5
65
330
1F
100
AcDbEntity
  8
F-Fﾚｲﾔ
  6
Continuous
 62
     7
370
     9
100
AcDbLine
 10
-105.3797467629805
 20
760.915871598609
 30
0.0
 11
522.8790429449925
 21
760.915871598609
 31
0.0
  0
TEXT
  5
66
330
1F
100
AcDbEntity
  8
F-Fﾚｲﾔ
  6
Continuous
 62
     2
370
     9
100
AcDbText
 10
-94.73285670451907
 20
739.171871598609
 30
0.0
 40
12.192
  1
名称
 41
1.0625
  7
ＭＳ ゴシック
100
AcDbText
  0
TEXT
  5
67
330
1F
100
AcDbEntity
  8
F-4ﾚｲﾔ
  6
Continuous
 62
     2
370
     9
100
AcDbText
 10
-149.204441572291
 20
-759.0108394076666
 30
0.0
 40
12.192
  1
カラー舗装用みぞ蓋　タイル用　充填深さ２８ｍｍ　スチール製
 41
1.120689655172414
  7
ＭＳ ゴシック
100
AcDbText
  0
TEXT
  5
68
330
1F
100
AcDbEntity
  8
F-5ﾚｲﾔ
  6
Continuous
 62
     2
370
     9
100
AcDbText
 10
63.34966572385582
 20
739.171871598609
 30
0.0
 40
12.192
  1
化粧用スリットみぞ蓋　タイル用　側溝用
 41
1.118421052631579
  7
ＭＳ ゴシック
100
AcDbText
  0
LINE
  5
69
330
1F
100
AcDbEntity
  8
F-Fﾚｲﾔ
  6
Continuous
 62
     7
370
     9
100
AcDbLine
 10
-105.3797467629805
 20
728.915871598609
 30
0.0
 11
522.8790429449925
 21
728.915871598609
 31
0.0
  0
LINE
  5
6A
330
1F
100
AcDbEntity
  8
F-Fﾚｲﾔ
  6
Continuous
 62
     7
370
     9
100
AcDbLine
 10
-105.3797467629805
 20
724.915871598609
 30
0.0
 11
522.8790429449925
 21
724.915871598609
 31
0.0
  0
LINE
  5
6B
330
1F
100
AcDbEntity
  8
F-Fﾚｲﾔ
  6
Continuous
 62
     7
370
     9
100
AcDbLine
 10
-105.3797467629805
 20
692.915871598609
 30
0.0
 11
522.8790429449925
 21
692.915871598609
 31
0.0
  0
LINE
  5
6C
330
1F
100
AcDbEntity
  8
F-Fﾚｲﾔ
  6
Continuous
 62
     7
370
     9
100
AcDbLine
 10
-105.3797467629805
 20
532.915871598609
 30
0.0
 11
522.8790429449925
 21
532.915871598609
 31
0.0
  0
LINE
  5
6D
330
1F
100
AcDbEntity
  8
F-Fﾚｲﾔ
  6
Continuous
 62
     7
370
     9
100
AcDbLine
 10
-105.3797467629805
 20
468.915871598609
 30
0.0
 11
522.8790429449925
 21
468.915871598609
 31
0.0
  0
TEXT
  5
6E
330
1F
100
AcDbEntity
  8
F-Fﾚｲﾔ
  6
Continuous
 62
     2
370
     9
100
AcDbText
 10
-94.73285670451907
 20
671.171871598609
 30
0.0
 40
12.192
  1
蓋
  7
ＭＳ ゴシック
100
AcDbText
  0
TEXT
  5
6F
330
1F
100
AcDbEntity
  8
F-Fﾚｲﾔ
  6
Continuous
 62
     2
370
     9
100
AcDbText
 10
-94.73285670451907
 20
511.171871598609
 30
0.0
 40
12.192
  1
受枠
 41
1.0625
  7
ＭＳ ゴシック
100
AcDbText
  0
TEXT
  5
70
330
1F
100
AcDbEntity
  8
F-Fﾚｲﾔ
  6
Continuous
 62
     2
370
     9
100
AcDbText
 10
-94.73285670451907
 20
447.1718715986091
 30
0.0
 40
12.192
  1
品番
 41
1.0625
  7
ＭＳ ゴシック
100
AcDbText
  0
TEXT
  5
71
330
1F
100
AcDbEntity
  8
F-5ﾚｲﾔ
  6
Continuous
 62
     2
370
     9
100
AcDbText
 10
63.34966572385582
 20
671.171871598609
 30
0.0
 40
12.192
  1
スチール製 溶融亜鉛めっき
 41
1.115
  7
ＭＳ ゴシック
100
AcDbText
  0
TEXT
  5
72
330
1F
100
AcDbEntity
  8
F-5ﾚｲﾔ
  6
Continuous
 62
     2
370
     9
100
AcDbText
 10
63.34966572385582
 20
607.171871598609
 30
0.0
 40
12.192
  1
目地すきま 6mm
 41
1.116071428571429
  7
ＭＳ ゴシック
100
AcDbText
  0
TEXT
  5
73
330
1F
100
AcDbEntity
  8
F-Fﾚｲﾔ
  6
Continuous
 62
     2
370
     9
100
AcDbText
 10
63.34966572385582
 20
511.171871598609
 30
0.0
 40
12.192
  1
スチール製 溶融亜鉛めっき
 41
1.115
  7
ＭＳ ゴシック
100
AcDbText
  0
TEXT
  5
74
330
1F
100
AcDbEntity
  8
F-Fﾚｲﾔ
  6
Continuous
 62
     2
370
     9
100
AcDbText
 10
63.34966572385582
 20
447.1718715986091
 30
0.0
 40
12.192
  1
カネソウ　カラー舗装用みぞ蓋
 41
1.116071428571429
  7
ＭＳ ゴシック
100
AcDbText
  0
LINE
  5
75
330
1F
100
AcDbEntity
  8
F-Fﾚｲﾔ
  6
Continuous
 62
     7
370
     9
100
AcDbLine
 10
46.81570496624607
 20
660.915871598609
 30
0.0
 11
522.8790429449925
 21
660.915871598609
 31
0.0
  0
LINE
  5
76
330
1F
100
AcDbEntity
  8
F-Fﾚｲﾔ
  6
Continuous
 62
     7
370
     9
100
AcDbLine
 10
46.81570496624607
 20
628.915871598609
 30
0.0
 11
522.8790429449925
 21
628.915871598609
 31
0.0
  0
LINE
  5
77
330
1F
100
AcDbEntity
  8
F-Fﾚｲﾔ
  6
Continuous
 62
     7
370
     9
100
AcDbLine
 10
46.81570496624607
 20
596.915871598609
 30
0.0
 11
522.8790429449925
 21
596.915871598609
 31
0.0
  0
LINE
  5
78
330
1F
100
AcDbEntity
  8
F-Fﾚｲﾔ
  6
Continuous
 62
     7
370
     9
100
AcDbLine
 10
46.81570496624607
 20
564.915871598609
 30
0.0
 11
522.8790429449925
 21
564.915871598609
 31
0.0
  0
LINE
  5
79
330
1F
100
AcDbEntity
  8
F-Fﾚｲﾔ
  6
Continuous
 62
     7
370
     9
100
AcDbLine
 10
46.81570496624607
 20
500.915871598609
 30
0.0
 11
522.8790429449925
 21
500.915871598609
 31
0.0
  0
TEXT
  5
7A
330
1F
100
AcDbEntity
  8
F-Fﾚｲﾔ
  6
Continuous
 62
     2
370
     9
100
AcDbText
 10
-94.73285670451907
 20
703.171871598609
 30
0.0
 40
12.192
  1
みぞ幅
 41
1.083333333333333
  7
ＭＳ ゴシック
100
AcDbText
  0
LINE
  5
7B
330
1F
100
AcDbEntity
  8
F-Fﾚｲﾔ
  6
Continuous
 62
     7
370
     9
100
AcDbLine
 10
522.8790429449925
 20
760.915871598609
 30
0.0
 11
522.8790429449925
 21
372.915871598609
 31
0.0
  0
LINE
  5
7C
330
1F
100
AcDbEntity
  8
F-Fﾚｲﾔ
  6
Continuous
 62
     7
370
     9
100
AcDbLine
 10
-105.3797467629805
 20
372.915871598609
 30
0.0
 11
522.8790429449925
 21
372.915871598609
 31
0.0
  0
LINE
  5
7D
330
1F
100
AcDbEntity
  8
F-Fﾚｲﾔ
  6
Continuous
 62
     7
370
     9
100
AcDbLine
 10
-105.3797467629805
 20
760.915871598609
 30
0.0
 11
-105.3797467629805
 21
372.915871598609
 31
0.0
  0
LINE
  5
7E
330
1F
100
AcDbEntity
  8
F-Fﾚｲﾔ
  6
Continuous
 62
     7
370
     9
100
AcDbLine
 10
46.81570496624607
 20
760.915871598609
 30
0.0
 11
46.81570496624607
 21
372.915871598609
 31
0.0
  0
TEXT
  5
7F
330
1F
100
AcDbEntity
  8
F-5ﾚｲﾔ
  6
Continuous
 62
     2
370
     9
100
AcDbText
 10
63.34966572385588
 20
639.171871598609
 30
0.0
 40
12.192
  1
充填深さ 28mm
 41
1.115384615384615
  7
ＭＳ ゴシック
100
AcDbText
  0
LINE
  5
80
330
1F
100
AcDbEntity
  8
躯体
  6
Continuous
 62
     2
370
     9
100
AcDbLine
 10
-157.6925662529375
 20
28.88850084843534
 30
0.0
 11
170.6207315048355
 21
28.88850084843534
 31
0.0
  0
LINE
  5
81
330
1F
100
AcDbEntity
  8
建具
  6
Continuous
 62
     4
370
     9
100
AcDbLine
 10
-563.1925285478201
 20
99.48846406238158
 30
0.0
 11
-563.1925285478201
 21
93.38845383486887
 31
0.0
  0
LINE
  5
82
330
1F
100
AcDbEntity
  8
建具
  6
Continuous
 62
     4
370
     9
100
AcDbLine
 10
-463.1925697877905
 20
109.4882496145353
 30
0.0
 11
-553.1924955558438
 21
109.4882496145353
 31
0.0
  0
LINE
  5
83
330
1F
100
AcDbEntity
  8
建具
  6
Continuous
 62
     4
370
     9
100
AcDbLine
 10
-453.1926605157255
 20
99.48846406238158
 30
0.0
 11
-453.1926605157255
 21
93.38845383486887
 31
0.0
  0
LINE
  5
84
330
1F
100
AcDbEntity
  8
建具
  6
Continuous
 62
     4
370
     9
100
AcDbLine
 10
-462.1925417446109
 20
99.48846406238158
 30
0.0
 11
-462.1925417446109
 21
93.38845383486887
 31
0.0
  0
LINE
  5
85
330
1F
100
AcDbEntity
  8
建具
  6
Continuous
 62
     4
370
     9
100
AcDbLine
 10
-553.1924955558438
 20
100.4883683856501
 30
0.0
 11
-463.1924460678792
 21
100.4883683856501
 31
0.0
  0
LINE
  5
86
330
1F
100
AcDbEntity
  8
建具
  6
Continuous
 62
     4
370
     9
100
AcDbLine
 10
-554.1925235990238
 20
99.48846406238158
 30
0.0
 11
-554.1925235990238
 21
93.38845383486887
 31
0.0
  0
LINE
  5
87
330
1F
100
AcDbEntity
  8
建具
  6
JWW_CENTER1
 62
     4
370
     9
100
AcDbLine
 10
-558.6925879333776
 20
85.28096432631742
 30
0.0
 11
-558.6925879333776
 21
100.8785809859457
 31
0.0
  0
LINE
  5
88
330
1F
100
AcDbEntity
  8
建具
  6
JWW_CENTER1
 62
     4
370
     9
100
AcDbLine
 10
-550.5295481846445
 20
93.38845383486887
 30
0.0
 11
-566.9365405041124
 21
93.38845383486887
 31
0.0
  0
LINE
  5
89
330
1F
100
AcDbEntity
  8
建具
  6
JWW_CENTER1
 62
     4
370
     9
100
AcDbLine
 10
-457.6924155503011
 20
85.28096432631742
 30
0.0
 11
-457.6924155503011
 21
100.8785809859457
 31
0.0
  0
LINE
  5
8A
330
1F
100
AcDbEntity
  8
建具
  6
JWW_CENTER1
 62
     4
370
     9
100
AcDbLine
 10
-449.5294376615238
 20
93.38845383486887
 30
0.0
 11
-465.9366155608586
 21
93.38845383486887
 31
0.0
  0
LINE
  5
8B
330
1F
100
AcDbEntity
  8
建具
  6
Continuous
 62
     4
370
     9
100
AcDbLine
 10
-63.19248730784966
 20
99.48846406238158
 30
0.0
 11
-63.19248730784966
 21
93.38845383486887
 31
0.0
  0
LINE
  5
8C
330
1F
100
AcDbEntity
  8
建具
  6
Continuous
 62
     4
370
     9
100
AcDbLine
 10
36.80747145217993
 20
109.4882496145353
 30
0.0
 11
-53.19245431587342
 21
109.4882496145353
 31
0.0
  0
LINE
  5
8D
330
1F
100
AcDbEntity
  8
建具
  6
Continuous
 62
     4
370
     9
100
AcDbLine
 10
46.80750444415617
 20
99.48846406238158
 30
0.0
 11
46.80750444415617
 21
93.38845383486887
 31
0.0
  0
LINE
  5
8E
330
1F
100
AcDbEntity
  8
建具
  6
Continuous
 62
     4
370
     9
100
AcDbLine
 10
37.80749949535993
 20
99.48846406238158
 30
0.0
 11
37.80749949535993
 21
93.38845383486887
 31
0.0
  0
LINE
  5
8F
330
1F
100
AcDbEntity
  8
建具
  6
Continuous
 62
     4
370
     9
100
AcDbLine
 10
-53.19245431587342
 20
100.4883683856501
 30
0.0
 11
36.80759517209117
 21
100.4883683856501
 31
0.0
  0
LINE
  5
90
330
1F
100
AcDbEntity
  8
建具
  6
Continuous
 62
     4
370
     9
100
AcDbLine
 10
-54.19260607896467
 20
99.48846406238158
 30
0.0
 11
-54.19260607896467
 21
93.38845383486887
 31
0.0
  0
LINE
  5
91
330
1F
100
AcDbEntity
  8
建具
  6
JWW_CENTER1
 62
     4
370
     9
100
AcDbLine
 10
-58.69254669340717
 20
85.28096432631742
 30
0.0
 11
-58.69254669340717
 21
100.8785809859457
 31
0.0
  0
LINE
  5
92
330
1F
100
AcDbEntity
  8
建具
  6
JWW_CENTER1
 62
     4
370
     9
100
AcDbLine
 10
-50.52950694467381
 20
93.38845383486887
 30
0.0
 11
-66.93662298405343
 21
93.38845383486887
 31
0.0
  0
LINE
  5
93
330
1F
100
AcDbEntity
  8
建具
  6
JWW_CENTER1
 62
     4
370
     9
100
AcDbLine
 10
42.30768754962492
 20
85.28096432631742
 30
0.0
 11
42.30768754962492
 21
100.8785809859457
 31
0.0
  0
LINE
  5
94
330
1F
100
AcDbEntity
  8
建具
  6
JWW_CENTER1
 62
     4
370
     9
100
AcDbLine
 10
50.47035613862408
 20
93.38845383486887
 30
0.0
 11
34.06348753906741
 21
93.38845383486887
 31
0.0
  0
LINE
  5
95
330
1F
100
AcDbEntity
  8
建具
  6
Continuous
 62
     4
370
     9
100
AcDbLine
 10
-758.1924295718909
 20
88.8883895005149
 30
0.0
 11
-758.1924295718909
 21
28.88850084843534
 31
0.0
  0
CIRCLE
  5
96
330
1F
100
AcDbEntity
  8
建具
  6
Continuous
 62
     4
370
     9
100
AcDbCircle
 10
-558.6925879333776
 20
93.38845383486887
 30
0.0
 40
4.500000057993709
  0
CIRCLE
  5
97
330
1F
100
AcDbEntity
  8
建具
  6
Continuous
 62
     4
370
     9
100
AcDbCircle
 10
-457.692601130168
 20
93.38845383486887
 30
0.0
 40
4.500000057993709
  0
ARC
  5
98
330
1F
100
AcDbEntity
  8
建具
  6
Continuous
 62
     4
370
     9
100
AcDbCircle
 10
-553.1924955558438
 20
99.48846406238158
 30
0.0
 40
9.9999991623131
100
AcDbArc
 50
90.0
 51
180.0
  0
ARC
  5
99
330
1F
100
AcDbEntity
  8
建具
  6
Continuous
 62
     4
370
     9
100
AcDbCircle
 10
-463.1925697877905
 20
99.48846406238158
 30
0.0
 40
9.9999991623131
100
AcDbArc
 50
0.0
 51
90.0
  0
ARC
  5
9A
330
1F
100
AcDbEntity
  8
建具
  6
Continuous
 62
     4
370
     9
100
AcDbCircle
 10
-463.1924460678792
 20
99.48846406238158
 30
0.0
 40
0.9999999524773778
100
AcDbArc
 50
0.0
 51
90.0
  0
ARC
  5
9B
330
1F
100
AcDbEntity
  8
建具
  6
Continuous
 62
     4
370
     9
100
AcDbCircle
 10
-553.1924955558438
 20
99.48846406238158
 30
0.0
 40
0.9999999524773778
100
AcDbArc
 50
90.0
 51
180.0
  0
CIRCLE
  5
9C
330
1F
100
AcDbEntity
  8
建具
  6
Continuous
 62
     4
370
     9
100
AcDbCircle
 10
-58.69254669340717
 20
93.38845383486887
 30
0.0
 40
4.500000057993709
  0
CIRCLE
  5
9D
330
1F
100
AcDbEntity
  8
建具
  6
Continuous
 62
     4
370
     9
100
AcDbCircle
 10
42.30744010980243
 20
93.38845383486887
 30
0.0
 40
4.500000057993709
  0
ARC
  5
9E
330
1F
100
AcDbEntity
  8
建具
  6
Continuous
 62
     4
370
     9
100
AcDbCircle
 10
-53.19245431587342
 20
99.48846406238158
 30
0.0
 40
9.9999991623131
100
AcDbArc
 50
90.0
 51
180.0
  0
ARC
  5
9F
330
1F
100
AcDbEntity
  8
建具
  6
Continuous
 62
     4
370
     9
100
AcDbCircle
 10
36.80747145217993
 20
99.48846406238158
 30
0.0
 40
9.9999991623131
100
AcDbArc
 50
0.0
 51
90.0
  0
ARC
  5
A0
330
1F
100
AcDbEntity
  8
建具
  6
Continuous
 62
     4
370
     9
100
AcDbCircle
 10
36.80759517209117
 20
99.48846406238158
 30
0.0
 40
0.9999999524773778
100
AcDbArc
 50
0.0
 51
90.0
  0
ARC
  5
A1
330
1F
100
AcDbEntity
  8
建具
  6
Continuous
 62
     4
370
     9
100
AcDbCircle
 10
-53.19245431587342
 20
99.48846406238158
 30
0.0
 40
0.9999999524773778
100
AcDbArc
 50
90.0
 51
180.0
  0
LINE
  5
A2
330
1F
100
AcDbEntity
  8
躯体
  6
JWW_DASHED3
 62
     2
370
     9
100
AcDbLine
 10
-157.6925662529375
 20
28.88850084843534
 30
0.0
 11
-758.1924295718909
 21
28.88850084843534
 31
0.0
  0
LINE
  5
A3
330
1F
100
AcDbEntity
  8
建具
  6
Continuous
 62
     4
370
     9
100
AcDbLine
 10
170.6207315048355
 20
88.8883895005149
 30
0.0
 11
-758.1924295718909
 21
88.8883895005149
 31
0.0
  0
LINE
  5
A4
330
1F
100
AcDbEntity
  8
建具
  6
Continuous
 62
     4
370
     9
100
AcDbLine
 10
170.6207315048355
 20
82.88846868125825
 30
0.0
 11
-758.1924295718909
 21
82.88846868125825
 31
0.0
  0
LINE
  5
A5
330
1F
100
AcDbEntity
  8
建具
  6
Continuous
 62
     4
370
     9
100
AcDbLine
 10
-563.1925285478201
 20
-291.7116067054077
 30
0.0
 11
-563.1925285478201
 21
-285.6114727579835
 31
0.0
  0
LINE
  5
A6
330
1F
100
AcDbEntity
  8
建具
  6
Continuous
 62
     4
370
     9
100
AcDbLine
 10
-463.1925697877905
 20
-301.7113922575614
 30
0.0
 11
-553.1924955558438
 21
-301.7113922575614
 31
0.0
  0
LINE
  5
A7
330
1F
100
AcDbEntity
  8
建具
  6
Continuous
 62
     4
370
     9
100
AcDbLine
 10
-453.1926605157255
 20
-291.7116067054077
 30
0.0
 11
-453.1926605157255
 21
-285.6114727579835
 31
0.0
  0
LINE
  5
A8
330
1F
100
AcDbEntity
  8
建具
  6
Continuous
 62
     4
370
     9
100
AcDbLine
 10
-462.1925417446109
 20
-291.7116067054077
 30
0.0
 11
-462.1925417446109
 21
-285.6114727579835
 31
0.0
  0
LINE
  5
A9
330
1F
100
AcDbEntity
  8
建具
  6
Continuous
 62
     4
370
     9
100
AcDbLine
 10
-553.1924955558438
 20
-292.7115110286762
 30
0.0
 11
-463.1924460678792
 21
-292.7115110286762
 31
0.0
  0
LINE
  5
AA
330
1F
100
AcDbEntity
  8
建具
  6
Continuous
 62
     4
370
     9
100
AcDbLine
 10
-554.1925235990238
 20
-291.7116067054077
 30
0.0
 11
-554.1925235990238
 21
-285.6114727579835
 31
0.0
  0
LINE
  5
AB
330
1F
100
AcDbEntity
  8
建具
  6
JWW_CENTER1
 62
     4
370
     9
100
AcDbLine
 10
-558.6925879333776
 20
-277.5041069693435
 30
0.0
 11
-558.6925879333776
 21
-293.1017236289719
 31
0.0
  0
LINE
  5
AC
330
1F
100
AcDbEntity
  8
建具
  6
JWW_CENTER1
 62
     4
370
     9
100
AcDbLine
 10
-550.5295481846445
 20
-285.6114727579835
 30
0.0
 11
-566.9365405041124
 21
-285.6114727579835
 31
0.0
  0
LINE
  5
AD
330
1F
100
AcDbEntity
  8
建具
  6
JWW_CENTER1
 62
     4
370
     9
100
AcDbLine
 10
-457.6924155503011
 20
-277.5041069693435
 30
0.0
 11
-457.6924155503011
 21
-293.1017236289719
 31
0.0
  0
LINE
  5
AE
330
1F
100
AcDbEntity
  8
建具
  6
JWW_CENTER1
 62
     4
370
     9
100
AcDbLine
 10
-449.5294376615238
 20
-285.6114727579835
 30
0.0
 11
-465.9366155608586
 21
-285.6114727579835
 31
0.0
  0
LINE
  5
AF
330
1F
100
AcDbEntity
  8
建具
  6
Continuous
 62
     4
370
     9
100
AcDbLine
 10
-63.19248730784966
 20
-291.7116067054077
 30
0.0
 11
-63.19248730784966
 21
-285.6114727579835
 31
0.0
  0
LINE
  5
B0
330
1F
100
AcDbEntity
  8
建具
  6
Continuous
 62
     4
370
     9
100
AcDbLine
 10
36.80747145217993
 20
-301.7113922575614
 30
0.0
 11
-53.19245431587342
 21
-301.7113922575614
 31
0.0
  0
LINE
  5
B1
330
1F
100
AcDbEntity
  8
建具
  6
Continuous
 62
     4
370
     9
100
AcDbLine
 10
46.80750444415617
 20
-291.7116067054077
 30
0.0
 11
46.80750444415617
 21
-285.6114727579835
 31
0.0
  0
LINE
  5
B2
330
1F
100
AcDbEntity
  8
建具
  6
Continuous
 62
     4
370
     9
100
AcDbLine
 10
37.80749949535993
 20
-291.7116067054077
 30
0.0
 11
37.80749949535993
 21
-285.6114727579835
 31
0.0
  0
LINE
  5
B3
330
1F
100
AcDbEntity
  8
建具
  6
Continuous
 62
     4
370
     9
100
AcDbLine
 10
-53.19245431587342
 20
-292.7115110286762
 30
0.0
 11
36.80759517209117
 21
-292.7115110286762
 31
0.0
  0
LINE
  5
B4
330
1F
100
AcDbEntity
  8
建具
  6
Continuous
 62
     4
370
     9
100
AcDbLine
 10
-54.19260607896467
 20
-291.7116067054077
 30
0.0
 11
-54.19260607896467
 21
-285.6114727579835
 31
0.0
  0
LINE
  5
B5
330
1F
100
AcDbEntity
  8
建具
  6
JWW_CENTER1
 62
     4
370
     9
100
AcDbLine
 10
-58.69254669340717
 20
-277.5041069693435
 30
0.0
 11
-58.69254669340717
 21
-293.1017236289719
 31
0.0
  0
LINE
  5
B6
330
1F
100
AcDbEntity
  8
建具
  6
JWW_CENTER1
 62
     4
370
     9
100
AcDbLine
 10
-50.52950694467381
 20
-285.6114727579835
 30
0.0
 11
-66.93662298405343
 21
-285.6114727579835
 31
0.0
  0
LINE
  5
B7
330
1F
100
AcDbEntity
  8
建具
  6
JWW_CENTER1
 62
     4
370
     9
100
AcDbLine
 10
42.30768754962492
 20
-277.5041069693435
 30
0.0
 11
42.30768754962492
 21
-293.1017236289719
 31
0.0
  0
LINE
  5
B8
330
1F
100
AcDbEntity
  8
建具
  6
JWW_CENTER1
 62
     4
370
     9
100
AcDbLine
 10
50.47035613862408
 20
-285.6114727579835
 30
0.0
 11
34.06348753906741
 21
-285.6114727579835
 31
0.0
  0
LINE
  5
B9
330
1F
100
AcDbEntity
  8
建具
  6
Continuous
 62
     4
370
     9
100
AcDbLine
 10
-758.1924295718909
 20
-281.111532143541
 30
0.0
 11
-758.1924295718909
 21
-221.1115816315056
 31
0.0
  0
CIRCLE
  5
BA
330
1F
100
AcDbEntity
  8
建具
  6
Continuous
 62
     4
370
     9
100
AcDbCircle
 10
-558.6925879333776
 20
-285.6114727579835
 30
0.0
 40
4.500000057993709
  0
CIRCLE
  5
BB
330
1F
100
AcDbEntity
  8
建具
  6
Continuous
 62
     4
370
     9
100
AcDbCircle
 10
-457.692601130168
 20
-285.6114727579835
 30
0.0
 40
4.500000057993709
  0
ARC
  5
BC
330
1F
100
AcDbEntity
  8
建具
  6
Continuous
 62
     4
370
     9
100
AcDbCircle
 10
-553.1924955558438
 20
-291.7116067054077
 30
0.0
 40
9.9999991623131
100
AcDbArc
 50
180.0
 51
270.0
  0
ARC
  5
BD
330
1F
100
AcDbEntity
  8
建具
  6
Continuous
 62
     4
370
     9
100
AcDbCircle
 10
-463.1925697877905
 20
-291.7116067054077
 30
0.0
 40
9.9999991623131
100
AcDbArc
 50
270.0
 51
0.0
  0
ARC
  5
BE
330
1F
100
AcDbEntity
  8
建具
  6
Continuous
 62
     4
370
     9
100
AcDbCircle
 10
-463.1924460678792
 20
-291.7116067054077
 30
0.0
 40
0.9999999524773778
100
AcDbArc
 50
270.0
 51
0.0
  0
ARC
  5
BF
330
1F
100
AcDbEntity
  8
建具
  6
Continuous
 62
     4
370
     9
100
AcDbCircle
 10
-553.1924955558438
 20
-291.7116067054077
 30
0.0
 40
0.9999999524773778
100
AcDbArc
 50
180.0
 51
270.0
  0
CIRCLE
  5
C0
330
1F
100
AcDbEntity
  8
建具
  6
Continuous
 62
     4
370
     9
100
AcDbCircle
 10
-58.69254669340717
 20
-285.6114727579835
 30
0.0
 40
4.500000057993709
  0
CIRCLE
  5
C1
330
1F
100
AcDbEntity
  8
建具
  6
Continuous
 62
     4
370
     9
100
AcDbCircle
 10
42.30744010980243
 20
-285.6114727579835
 30
0.0
 40
4.500000057993709
  0
ARC
  5
C2
330
1F
100
AcDbEntity
  8
建具
  6
Continuous
 62
     4
370
     9
100
AcDbCircle
 10
-53.19245431587342
 20
-291.7116067054077
 30
0.0
 40
9.9999991623131
100
AcDbArc
 50
180.0
 51
270.0
  0
ARC
  5
C3
330
1F
100
AcDbEntity
  8
建具
  6
Continuous
 62
     4
370
     9
100
AcDbCircle
 10
36.80747145217993
 20
-291.7116067054077
 30
0.0
 40
9.9999991623131
100
AcDbArc
 50
270.0
 51
0.0
  0
ARC
  5
C4
330
1F
100
AcDbEntity
  8
建具
  6
Continuous
 62
     4
370
     9
100
AcDbCircle
 10
36.80759517209117
 20
-291.7116067054077
 30
0.0
 40
0.9999999524773778
100
AcDbArc
 50
270.0
 51
0.0
  0
ARC
  5
C5
330
1F
100
AcDbEntity
  8
建具
  6
Continuous
 62
     4
370
     9
100
AcDbCircle
 10
-53.19245431587342
 20
-291.7116067054077
 30
0.0
 40
0.9999999524773778
100
AcDbArc
 50
180.0
 51
270.0
  0
LINE
  5
C6
330
1F
100
AcDbEntity
  8
躯体
  6
Continuous
 62
     2
370
     9
100
AcDbLine
 10
-157.6925662529375
 20
-221.1115816315056
 30
0.0
 11
170.6207315048355
 21
-221.1115816315056
 31
0.0
  0
LINE
  5
C7
330
1F
100
AcDbEntity
  8
躯体
  6
JWW_DASHED3
 62
     2
370
     9
100
AcDbLine
 10
-157.6925662529375
 20
-221.1115816315056
 30
0.0
 11
-758.1924295718909
 21
-221.1115816315056
 31
0.0
  0
LINE
  5
C8
330
1F
100
AcDbEntity
  8
建具
  6
Continuous
 62
     4
370
     9
100
AcDbLine
 10
170.6207315048355
 20
-281.111532143541
 30
0.0
 11
-758.1924295718909
 21
-281.111532143541
 31
0.0
  0
LINE
  5
C9
330
1F
100
AcDbEntity
  8
建具
  6
Continuous
 62
     4
370
     9
100
AcDbLine
 10
170.6207315048355
 20
-275.1116113242844
 30
0.0
 11
-758.1924295718909
 21
-275.1116113242844
 31
0.0
  0
LINE
  5
CA
330
1F
100
AcDbEntity
  8
仕上
  6
Continuous
 62
     7
370
     9
100
AcDbLine
 10
-157.6924295718918
 20
66.38863823645121
 30
0.0
 11
-755.6924295718909
 21
66.38863823645121
 31
0.0
  0
LINE
  5
CB
330
1F
100
AcDbEntity
  8
仕上
  6
Continuous
 62
     7
370
     9
100
AcDbLine
 10
-751.1923447353811
 20
61.88855339994049
 30
0.0
 11
-751.1923447353811
 21
-254.1116341830088
 31
0.0
  0
LINE
  5
CC
330
1F
100
AcDbEntity
  8
仕上
  6
JWW_DASHED1
 62
     7
370
     9
100
AcDbLine
 10
-751.1923447353811
 20
51.88850485460395
 30
0.0
 11
-755.6924295718909
 21
47.38883995882176
 31
0.0
  0
LINE
  5
CD
330
1F
100
AcDbEntity
  8
仕上
  6
JWW_DASHED1
 62
     7
370
     9
100
AcDbLine
 10
-741.1922961900436
 20
61.88855339994049
 30
0.0
 11
-736.6922113535338
 21
66.38863823645121
 31
0.0
  0
LINE
  5
CE
330
1F
100
AcDbEntity
  8
仕上
  6
Continuous
 62
     7
370
     9
100
AcDbLine
 10
-741.1922961900436
 20
61.88855339994049
 30
0.0
 11
-751.1923447353811
 21
51.88850485460395
 31
0.0
  0
LINE
  5
CF
330
1F
100
AcDbEntity
  8
仕上
  6
Continuous
 62
     7
370
     9
100
AcDbLine
 10
-755.6924295718909
 20
79.38875747887911
 30
0.0
 11
-755.6924295718909
 21
-271.6118382619493
 31
0.0
  0
LINE
  5
D0
330
1F
100
AcDbEntity
  8
仕上
  6
Continuous
 62
     7
370
     9
100
AcDbLine
 10
-162.1925144084025
 20
61.88855339994049
 30
0.0
 11
-162.1925144084025
 21
-254.1116341830088
 31
0.0
  0
LINE
  5
D1
330
1F
100
AcDbEntity
  8
仕上
  6
Continuous
 62
     7
370
     9
100
AcDbLine
 10
-157.6924295718918
 20
79.38875747887911
 30
0.0
 11
-157.6924295718918
 21
-271.6118382619493
 31
0.0
  0
LINE
  5
D2
330
1F
100
AcDbEntity
  8
仕上
  6
Continuous
 62
     7
370
     9
100
AcDbLine
 10
-157.6924295718918
 20
72.38867264236839
 30
0.0
 11
-755.6924295718909
 21
72.38867264236839
 31
0.0
  0
LINE
  5
D3
330
1F
100
AcDbEntity
  8
仕上
  6
Continuous
 62
     7
370
     9
100
AcDbLine
 10
-157.6924295718918
 20
76.88875747887911
 30
0.0
 11
-755.6924295718909
 21
76.88875747887911
 31
0.0
  0
LINE
  5
D4
330
1F
100
AcDbEntity
  8
仕上
  6
Continuous
 62
     7
370
     9
100
AcDbLine
 10
-157.6924295718918
 20
61.88855339994049
 30
0.0
 11
-755.6924295718909
 21
61.88855339994049
 31
0.0
  0
LINE
  5
D5
330
1F
100
AcDbEntity
  8
仕上
  6
Continuous
 62
     2
370
     9
100
AcDbLine
 10
-163.6924759374015
 20
72.38867264236839
 30
0.0
 11
-163.6924759374015
 21
66.38863823645121
 31
0.0
  0
LINE
  5
D6
330
1F
100
AcDbEntity
  8
仕上
  6
Continuous
 62
     2
370
     9
100
AcDbLine
 10
-157.6924295718918
 20
79.38875747887911
 30
0.0
 11
-755.6924295718909
 21
79.38875747887911
 31
0.0
  0
LINE
  5
D7
330
1F
100
AcDbEntity
  8
仕上
  6
Continuous
 62
     7
370
     9
100
AcDbLine
 10
-172.1925629537391
 20
-254.1116341830088
 30
0.0
 11
-162.1925144084025
 21
-244.1115856376723
 31
0.0
  0
LINE
  5
D8
330
1F
100
AcDbEntity
  8
仕上
  6
JWW_DASHED1
 62
     7
370
     9
100
AcDbLine
 10
-172.1925629537391
 20
-254.1116341830088
 30
0.0
 11
-176.6926477902498
 21
-258.6117190195214
 31
0.0
  0
LINE
  5
D9
330
1F
100
AcDbEntity
  8
仕上
  6
JWW_DASHED1
 62
     7
370
     9
100
AcDbLine
 10
-162.1925144084025
 20
-244.1115856376723
 30
0.0
 11
-157.6924295718918
 21
-239.6119207418919
 31
0.0
  0
LINE
  5
DA
330
1F
100
AcDbEntity
  8
仕上
  6
Continuous
 62
     7
370
     9
100
AcDbLine
 10
-157.6924295718918
 20
-269.1118382619493
 30
0.0
 11
-755.6924295718909
 21
-269.1118382619493
 31
0.0
  0
LINE
  5
DB
330
1F
100
AcDbEntity
  8
仕上
  6
Continuous
 62
     7
370
     9
100
AcDbLine
 10
-157.6924295718918
 20
-264.6117534254386
 30
0.0
 11
-755.6924295718909
 21
-264.6117534254386
 31
0.0
  0
LINE
  5
DC
330
1F
100
AcDbEntity
  8
仕上
  6
Continuous
 62
     7
370
     9
100
AcDbLine
 10
-157.6924295718918
 20
-258.6117190195214
 30
0.0
 11
-755.6924295718909
 21
-258.6117190195214
 31
0.0
  0
LINE
  5
DD
330
1F
100
AcDbEntity
  8
仕上
  6
Continuous
 62
     7
370
     9
100
AcDbLine
 10
-157.6924295718918
 20
-254.1116341830088
 30
0.0
 11
-755.6924295718909
 21
-254.1116341830088
 31
0.0
  0
LINE
  5
DE
330
1F
100
AcDbEntity
  8
仕上
  6
Continuous
 62
     2
370
     9
100
AcDbLine
 10
-163.6924759374015
 20
-264.6117534254386
 30
0.0
 11
-163.6924759374015
 21
-258.6117190195214
 31
0.0
  0
LINE
  5
DF
330
1F
100
AcDbEntity
  8
仕上
  6
JWW_DASHED1
 62
     2
370
     9
100
AcDbLine
 10
-163.6924759374015
 20
-254.1116341830088
 30
0.0
 11
-163.6924759374015
 21
-258.6117190195214
 31
0.0
  0
LINE
  5
E0
330
1F
100
AcDbEntity
  8
仕上
  6
Continuous
 62
     2
370
     9
100
AcDbLine
 10
-163.6924759374015
 20
-245.6115471666722
 30
0.0
 11
-163.6924759374015
 21
-254.1116341830088
 31
0.0
  0
LINE
  5
E1
330
1F
100
AcDbEntity
  8
仕上
  6
Continuous
 62
     2
370
     9
100
AcDbLine
 10
-157.6924295718918
 20
-271.6118382619511
 30
0.0
 11
-755.6924295718909
 21
-271.6118382619511
 31
0.0
  0
LINE
  5
E2
330
1F
100
AcDbEntity
  8
仕上
  6
Continuous
 62
     2
370
     9
100
AcDbLine
 10
-356.9423652669948
 20
-258.6117190195214
 30
0.0
 11
-356.9423652669948
 21
-264.6117534254386
 31
0.0
  0
LINE
  5
E3
330
1F
100
AcDbEntity
  8
仕上
  6
Continuous
 62
     2
370
     9
100
AcDbLine
 10
-362.9425533212598
 20
-258.6117190195214
 30
0.0
 11
-362.9425533212598
 21
-264.6117534254386
 31
0.0
  0
LINE
  5
E4
330
1F
100
AcDbEntity
  8
仕上
  6
JWW_DASHED1
 62
     2
370
     9
100
AcDbLine
 10
-356.9423652669948
 20
66.38863823645121
 30
0.0
 11
-356.9423652669948
 21
-258.6117190195214
 31
0.0
  0
LINE
  5
E5
330
1F
100
AcDbEntity
  8
仕上
  6
JWW_DASHED1
 62
     2
370
     9
100
AcDbLine
 10
-362.9425533212598
 20
-258.6117190195214
 30
0.0
 11
-362.9425533212598
 21
66.38863823645121
 31
0.0
  0
LINE
  5
E6
330
1F
100
AcDbEntity
  8
仕上
  6
Continuous
 62
     2
370
     9
100
AcDbLine
 10
-356.9423652669948
 20
66.38863823645121
 30
0.0
 11
-356.9423652669948
 21
72.38867264236839
 31
0.0
  0
LINE
  5
E7
330
1F
100
AcDbEntity
  8
仕上
  6
Continuous
 62
     2
370
     9
100
AcDbLine
 10
-362.9425533212598
 20
66.38863823645121
 30
0.0
 11
-362.9425533212598
 21
72.38867264236839
 31
0.0
  0
LINE
  5
E8
330
1F
100
AcDbEntity
  8
仕上
  6
Continuous
 62
     2
370
     9
100
AcDbLine
 10
-550.4424084805923
 20
66.38863823645121
 30
0.0
 11
-550.4424084805923
 21
72.38867264236839
 31
0.0
  0
LINE
  5
E9
330
1F
100
AcDbEntity
  8
仕上
  6
Continuous
 62
     2
370
     9
100
AcDbLine
 10
-556.4425965348573
 20
66.38863823645121
 30
0.0
 11
-556.4425965348573
 21
72.38867264236839
 31
0.0
  0
LINE
  5
EA
330
1F
100
AcDbEntity
  8
仕上
  6
JWW_DASHED1
 62
     2
370
     9
100
AcDbLine
 10
-550.4424084805923
 20
66.38863823645121
 30
0.0
 11
-550.4424084805923
 21
-258.6117190195214
 31
0.0
  0
LINE
  5
EB
330
1F
100
AcDbEntity
  8
仕上
  6
JWW_DASHED1
 62
     2
370
     9
100
AcDbLine
 10
-556.4425965348573
 20
-258.6117190195214
 30
0.0
 11
-556.4425965348573
 21
66.38863823645121
 31
0.0
  0
LINE
  5
EC
330
1F
100
AcDbEntity
  8
仕上
  6
Continuous
 62
     2
370
     9
100
AcDbLine
 10
-550.4424084805923
 20
-258.6117190195214
 30
0.0
 11
-550.4424084805923
 21
-264.6117534254386
 31
0.0
  0
LINE
  5
ED
330
1F
100
AcDbEntity
  8
仕上
  6
Continuous
 62
     2
370
     9
100
AcDbLine
 10
-556.4425965348573
 20
-258.6117190195214
 30
0.0
 11
-556.4425965348573
 21
-264.6117534254386
 31
0.0
  0
LINE
  5
EE
330
1F
100
AcDbEntity
  8
仕上
  6
Continuous
 62
     3
370
     9
100
AcDbLine
 10
-603.1924092464778
 20
-120.5661071464287
 30
0.0
 11
-603.1924092464778
 21
-71.65697363664142
 31
0.0
  0
LINE
  5
EF
330
1F
100
AcDbEntity
  8
仕上
  6
Continuous
 62
     3
370
     9
100
AcDbLine
 10
-633.1924498973049
 20
-71.65697363664142
 30
0.0
 11
-633.1924498973049
 21
-120.5661071464287
 31
0.0
  0
LINE
  5
F0
330
1F
100
AcDbEntity
  8
仕上
  6
Continuous
 62
     3
370
     9
100
AcDbLine
 10
-633.1924498973049
 20
-72.15697363664142
 30
0.0
 11
-603.1924092464778
 21
-72.15697363664142
 31
0.0
  0
LINE
  5
F1
330
1F
100
AcDbEntity
  8
仕上
  6
Continuous
 62
     3
370
     9
100
AcDbLine
 10
-633.1924498973049
 20
-71.65697363664142
 30
0.0
 11
-603.1924092464778
 21
-71.65697363664142
 31
0.0
  0
LINE
  5
F2
330
1F
100
AcDbEntity
  8
仕上
  6
Continuous
 62
     3
370
     9
100
AcDbLine
 10
-633.1924498973049
 20
-87.74551498775102
 30
0.0
 11
-603.1924092464778
 21
-87.74551498775102
 31
0.0
  0
LINE
  5
F3
330
1F
100
AcDbEntity
  8
仕上
  6
Continuous
 62
     3
370
     9
100
AcDbLine
 10
-633.1924498973049
 20
-120.5661071464287
 30
0.0
 11
-603.1924092464778
 21
-120.5661071464287
 31
0.0
  0
LINE
  5
F4
330
1F
100
AcDbEntity
  8
仕上
  6
Continuous
 62
     3
370
     9
100
AcDbLine
 10
-633.1924498973049
 20
-120.0661071464287
 30
0.0
 11
-603.1924092464778
 21
-120.0661071464287
 31
0.0
  0
LINE
  5
F5
330
1F
100
AcDbEntity
  8
仕上
  6
Continuous
 62
     3
370
     9
100
AcDbLine
 10
-633.1924498973049
 20
-104.4775657953192
 30
0.0
 11
-603.1924092464778
 21
-104.4775657953192
 31
0.0
  0
LINE
  5
F6
330
1F
100
AcDbEntity
  8
仕上
  6
JWW_CENTER2
 62
     7
370
     9
100
AcDbLine
 10
-618.1924295718909
 20
-64.58975738500479
 30
0.0
 11
-618.1924295718909
 21
-125.6185650603707
 31
0.0
  0
LINE
  5
F7
330
1F
100
AcDbEntity
  8
仕上
  6
Continuous
 62
     3
370
     9
100
AcDbLine
 10
-310.1924498973058
 20
-120.5661071464287
 30
0.0
 11
-310.1924498973058
 21
-71.65697363664142
 31
0.0
  0
LINE
  5
F8
330
1F
100
AcDbEntity
  8
仕上
  6
Continuous
 62
     3
370
     9
100
AcDbLine
 10
-280.1924092464778
 20
-71.65697363664142
 30
0.0
 11
-280.1924092464778
 21
-120.5661071464287
 31
0.0
  0
LINE
  5
F9
330
1F
100
AcDbEntity
  8
仕上
  6
Continuous
 62
     3
370
     9
100
AcDbLine
 10
-280.1924092464778
 20
-72.15697363664142
 30
0.0
 11
-310.1924498973058
 21
-72.15697363664142
 31
0.0
  0
LINE
  5
FA
330
1F
100
AcDbEntity
  8
仕上
  6
Continuous
 62
     3
370
     9
100
AcDbLine
 10
-280.1924092464778
 20
-71.65697363664142
 30
0.0
 11
-310.1924498973058
 21
-71.65697363664142
 31
0.0
  0
LINE
  5
FB
330
1F
100
AcDbEntity
  8
仕上
  6
Continuous
 62
     3
370
     9
100
AcDbLine
 10
-280.1924092464778
 20
-87.74551498775102
 30
0.0
 11
-310.1924498973058
 21
-87.74551498775102
 31
0.0
  0
LINE
  5
FC
330
1F
100
AcDbEntity
  8
仕上
  6
Continuous
 62
     3
370
     9
100
AcDbLine
 10
-280.1924092464778
 20
-120.5661071464287
 30
0.0
 11
-310.1924498973058
 21
-120.5661071464287
 31
0.0
  0
LINE
  5
FD
330
1F
100
AcDbEntity
  8
仕上
  6
Continuous
 62
     3
370
     9
100
AcDbLine
 10
-280.1924092464778
 20
-120.0661071464287
 30
0.0
 11
-310.1924498973058
 21
-120.0661071464287
 31
0.0
  0
LINE
  5
FE
330
1F
100
AcDbEntity
  8
仕上
  6
Continuous
 62
     3
370
     9
100
AcDbLine
 10
-280.1924092464778
 20
-104.4775657953192
 30
0.0
 11
-310.1924498973058
 21
-104.4775657953192
 31
0.0
  0
LINE
  5
FF
330
1F
100
AcDbEntity
  8
仕上
  6
JWW_CENTER2
 62
     7
370
     9
100
AcDbLine
 10
-295.1924295718918
 20
-64.58975738500479
 30
0.0
 11
-295.1924295718918
 21
-125.6185650603707
 31
0.0
  0
LINE
  5
100
330
1F
100
AcDbEntity
  8
仕上
  6
Continuous
 62
     7
370
     9
100
AcDbLine
 10
-551.1924257424653
 20
76.88875747887911
 30
0.0
 11
-551.1924257424653
 21
79.38875747887911
 31
0.0
  0
LINE
  5
101
330
1F
100
AcDbEntity
  8
仕上
  6
Continuous
 62
     7
370
     9
100
AcDbLine
 10
-555.692510578976
 20
76.88875747887911
 30
0.0
 11
-555.692510578976
 21
79.38875747887911
 31
0.0
  0
LINE
  5
102
330
1F
100
AcDbEntity
  8
仕上
  6
Continuous
 62
     7
370
     9
100
AcDbLine
 10
-555.692510578976
 20
79.38875747887911
 30
0.0
 11
-551.1924257424653
 21
79.38875747887911
 31
0.0
  0
LINE
  5
103
330
1F
100
AcDbEntity
  8
仕上
  6
Continuous
 62
     7
370
     9
100
AcDbLine
 10
-551.1924257424653
 20
66.38863823645121
 30
0.0
 11
-551.1924257424653
 21
72.38867264236839
 31
0.0
  0
LINE
  5
104
330
1F
100
AcDbEntity
  8
仕上
  6
Continuous
 62
     7
370
     9
100
AcDbLine
 10
-555.692510578976
 20
66.38863823645121
 30
0.0
 11
-555.692510578976
 21
72.38867264236839
 31
0.0
  0
LINE
  5
105
330
1F
100
AcDbEntity
  8
仕上
  6
Continuous
 62
     7
370
     9
100
AcDbLine
 10
-362.1924320462895
 20
66.38863823645121
 30
0.0
 11
-362.1924320462895
 21
72.38867264236839
 31
0.0
  0
LINE
  5
106
330
1F
100
AcDbEntity
  8
仕上
  6
Continuous
 62
     7
370
     9
100
AcDbLine
 10
-357.6923472097787
 20
66.38863823645121
 30
0.0
 11
-357.6923472097787
 21
72.38867264236839
 31
0.0
  0
LINE
  5
107
330
1F
100
AcDbEntity
  8
仕上
  6
Continuous
 62
     7
370
     9
100
AcDbLine
 10
-362.1924320462886
 20
79.38875747887911
 30
0.0
 11
-357.6923472097787
 21
79.38875747887911
 31
0.0
  0
LINE
  5
108
330
1F
100
AcDbEntity
  8
仕上
  6
Continuous
 62
     7
370
     9
100
AcDbLine
 10
-362.1924320462895
 20
76.88875747887911
 30
0.0
 11
-362.1924320462895
 21
79.38875747887911
 31
0.0
  0
LINE
  5
109
330
1F
100
AcDbEntity
  8
仕上
  6
Continuous
 62
     7
370
     9
100
AcDbLine
 10
-357.6923472097787
 20
76.88875747887911
 30
0.0
 11
-357.6923472097787
 21
79.38875747887911
 31
0.0
  0
LINE
  5
10A
330
1F
100
AcDbEntity
  8
仕上
  6
Continuous
 62
     7
370
     9
100
AcDbLine
 10
-751.1923447353811
 20
72.38867264236839
 30
0.0
 11
-751.1923447353811
 21
66.38863823645121
 31
0.0
  0
LINE
  5
10B
330
1F
100
AcDbEntity
  8
仕上
  6
Continuous
 62
     7
370
     9
100
AcDbLine
 10
-751.1923447353811
 20
79.38875747887911
 30
0.0
 11
-751.1923447353811
 21
76.88875747887911
 31
0.0
  0
LINE
  5
10C
330
1F
100
AcDbEntity
  8
仕上
  6
Continuous
 62
     7
370
     9
100
AcDbLine
 10
-755.6924295718909
 20
79.38875747887911
 30
0.0
 11
-751.1923447353811
 21
79.38875747887911
 31
0.0
  0
LINE
  5
10D
330
1F
100
AcDbEntity
  8
仕上
  6
Continuous
 62
     7
370
     9
100
AcDbLine
 10
-162.1925144084025
 20
72.38867264236839
 30
0.0
 11
-162.1925144084025
 21
66.38863823645121
 31
0.0
  0
LINE
  5
10E
330
1F
100
AcDbEntity
  8
仕上
  6
Continuous
 62
     7
370
     9
100
AcDbLine
 10
-162.1925144084025
 20
79.38875747887911
 30
0.0
 11
-162.1925144084025
 21
76.88875747887911
 31
0.0
  0
LINE
  5
10F
330
1F
100
AcDbEntity
  8
仕上
  6
Continuous
 62
     7
370
     9
100
AcDbLine
 10
-157.6924295718918
 20
79.38875747887911
 30
0.0
 11
-162.1925144084025
 21
79.38875747887911
 31
0.0
  0
LINE
  5
110
330
1F
100
AcDbEntity
  8
仕上
  6
Continuous
 62
     7
370
     9
100
AcDbLine
 10
-551.1924257424653
 20
-269.1118382619493
 30
0.0
 11
-551.1924257424653
 21
-271.6118382619493
 31
0.0
  0
LINE
  5
111
330
1F
100
AcDbEntity
  8
仕上
  6
Continuous
 62
     7
370
     9
100
AcDbLine
 10
-555.692510578976
 20
-269.1118382619493
 30
0.0
 11
-555.692510578976
 21
-271.6118382619493
 31
0.0
  0
LINE
  5
112
330
1F
100
AcDbEntity
  8
仕上
  6
Continuous
 62
     7
370
     9
100
AcDbLine
 10
-555.692510578976
 20
-271.6118382619493
 30
0.0
 11
-551.1924257424653
 21
-271.6118382619493
 31
0.0
  0
LINE
  5
113
330
1F
100
AcDbEntity
  8
仕上
  6
Continuous
 62
     7
370
     9
100
AcDbLine
 10
-551.1924257424653
 20
-258.6117190195214
 30
0.0
 11
-551.1924257424653
 21
-264.6117534254386
 31
0.0
  0
LINE
  5
114
330
1F
100
AcDbEntity
  8
仕上
  6
Continuous
 62
     7
370
     9
100
AcDbLine
 10
-555.692510578976
 20
-258.6117190195214
 30
0.0
 11
-555.692510578976
 21
-264.6117534254386
 31
0.0
  0
LINE
  5
115
330
1F
100
AcDbEntity
  8
仕上
  6
Continuous
 62
     7
370
     9
100
AcDbLine
 10
-362.1924320462895
 20
-258.6117190195214
 30
0.0
 11
-362.1924320462895
 21
-264.6117534254386
 31
0.0
  0
LINE
  5
116
330
1F
100
AcDbEntity
  8
仕上
  6
Continuous
 62
     7
370
     9
100
AcDbLine
 10
-357.6923472097787
 20
-258.6117190195214
 30
0.0
 11
-357.6923472097787
 21
-264.6117534254386
 31
0.0
  0
LINE
  5
117
330
1F
100
AcDbEntity
  8
仕上
  6
Continuous
 62
     7
370
     9
100
AcDbLine
 10
-362.1924320462886
 20
-271.6118382619493
 30
0.0
 11
-357.6923472097787
 21
-271.6118382619493
 31
0.0
  0
LINE
  5
118
330
1F
100
AcDbEntity
  8
仕上
  6
Continuous
 62
     7
370
     9
100
AcDbLine
 10
-362.1924320462895
 20
-269.1118382619493
 30
0.0
 11
-362.1924320462895
 21
-271.6118382619493
 31
0.0
  0
LINE
  5
119
330
1F
100
AcDbEntity
  8
仕上
  6
Continuous
 62
     7
370
     9
100
AcDbLine
 10
-357.6923472097787
 20
-269.1118382619493
 30
0.0
 11
-357.6923472097787
 21
-271.6118382619493
 31
0.0
  0
LINE
  5
11A
330
1F
100
AcDbEntity
  8
仕上
  6
Continuous
 62
     7
370
     9
100
AcDbLine
 10
-751.1923447353811
 20
-264.6117534254386
 30
0.0
 11
-751.1923447353811
 21
-258.6117190195214
 31
0.0
  0
LINE
  5
11B
330
1F
100
AcDbEntity
  8
仕上
  6
Continuous
 62
     7
370
     9
100
AcDbLine
 10
-751.1923447353811
 20
-271.6118382619493
 30
0.0
 11
-751.1923447353811
 21
-269.1118382619493
 31
0.0
  0
LINE
  5
11C
330
1F
100
AcDbEntity
  8
仕上
  6
Continuous
 62
     7
370
     9
100
AcDbLine
 10
-755.6924295718909
 20
-271.6118382619493
 30
0.0
 11
-751.1923447353811
 21
-271.6118382619493
 31
0.0
  0
LINE
  5
11D
330
1F
100
AcDbEntity
  8
仕上
  6
Continuous
 62
     7
370
     9
100
AcDbLine
 10
-162.1925144084025
 20
-264.6117534254386
 30
0.0
 11
-162.1925144084025
 21
-258.6117190195214
 31
0.0
  0
LINE
  5
11E
330
1F
100
AcDbEntity
  8
仕上
  6
Continuous
 62
     7
370
     9
100
AcDbLine
 10
-162.1925144084025
 20
-271.6118382619493
 30
0.0
 11
-162.1925144084025
 21
-269.1118382619493
 31
0.0
  0
LINE
  5
11F
330
1F
100
AcDbEntity
  8
仕上
  6
Continuous
 62
     7
370
     9
100
AcDbLine
 10
-157.6924295718918
 20
-271.6118382619493
 30
0.0
 11
-162.1925144084025
 21
-271.6118382619493
 31
0.0
  0
LINE
  5
120
330
1F
100
AcDbEntity
  8
仕上
  6
JWW_CENTER2
 62
     7
370
     9
100
AcDbLine
 10
-725.6924349036303
 20
53.38863593879566
 30
0.0
 11
-725.6924349036303
 21
39.38863593879566
 31
0.0
  0
LINE
  5
121
330
1F
100
AcDbEntity
  8
仕上
  6
JWW_CENTER2
 62
     7
370
     9
100
AcDbLine
 10
-718.6924349036303
 20
46.38863593879566
 30
0.0
 11
-732.6924349036303
 21
46.38863593879566
 31
0.0
  0
CIRCLE
  5
122
330
1F
100
AcDbEntity
  8
仕上
  6
Continuous
 62
     7
370
     9
100
AcDbCircle
 10
-725.6924349036303
 20
46.38863593879566
 30
0.0
 40
5.0
  0
LINE
  5
123
330
1F
100
AcDbEntity
  8
仕上
  6
JWW_DASHED1
 62
     2
370
     9
100
AcDbLine
 10
-163.6924759374015
 20
66.38863823645121
 30
0.0
 11
-163.6924759374015
 21
-245.6115471666722
 31
0.0
  0
LINE
  5
124
330
1F
100
AcDbEntity
  8
仕上
  6
JWW_DASHED1
 62
     2
370
     9
100
AcDbLine
 10
-749.6922931265035
 20
72.38867264236839
 30
0.0
 11
-749.6922931265035
 21
76.88875747887911
 31
0.0
  0
LINE
  5
125
330
1F
100
AcDbEntity
  8
仕上
  6
Continuous
 62
     2
370
     9
100
AcDbLine
 10
-749.6922931265035
 20
66.38863823645121
 30
0.0
 11
-749.6922931265035
 21
72.38867264236839
 31
0.0
  0
LINE
  5
126
330
1F
100
AcDbEntity
  8
仕上
  6
Continuous
 62
     2
370
     9
100
AcDbLine
 10
-749.6922931265035
 20
61.88855339994049
 30
0.0
 11
-749.6922931265035
 21
52.63855646348063
 31
0.0
  0
LINE
  5
127
330
1F
100
AcDbEntity
  8
仕上
  6
JWW_DASHED1
 62
     2
370
     9
100
AcDbLine
 10
-749.6922931265035
 20
66.38863823645121
 30
0.0
 11
-749.6922931265035
 21
61.88855339994049
 31
0.0
  0
LINE
  5
128
330
1F
100
AcDbEntity
  8
仕上
  6
JWW_DASHED1
 62
     2
370
     9
100
AcDbLine
 10
-749.6922931265035
 20
52.63855646348063
 30
0.0
 11
-749.6922931265035
 21
-258.6117190195214
 31
0.0
  0
LINE
  5
129
330
1F
100
AcDbEntity
  8
仕上
  6
Continuous
 62
     2
370
     9
100
AcDbLine
 10
-749.6922931265035
 20
-258.6117190195214
 30
0.0
 11
-749.6922931265035
 21
-264.6117534254386
 31
0.0
  0
LINE
  5
12A
330
1F
100
AcDbEntity
  8
建具
  6
Continuous
 62
     4
370
     9
100
AcDbLine
 10
186.3893339756014
 20
-79.66557630153511
 30
0.0
 11
169.266127089516
 21
-96.78884504757593
 31
0.0
  0
LINE
  5
12B
330
1F
100
AcDbEntity
  8
建具
  6
Continuous
 62
     4
370
     9
100
AcDbLine
 10
153.4974057925351
 20
-112.5575044846009
 30
0.0
 11
169.266127089516
 21
-96.78884504757593
 31
0.0
  0
LINE
  5
12C
330
1F
100
AcDbEntity
  8
建具
  6
Continuous
 62
     4
370
     9
100
AcDbLine
 10
153.4974057925351
 20
-112.557504481535
 30
0.0
 11
170.6207315048355
 21
-112.557504481535
 31
0.0
  0
LINE
  5
12D
330
1F
100
AcDbEntity
  8
建具
  6
Continuous
 62
     4
370
     9
100
AcDbLine
 10
186.3893339756014
 20
-79.66557630153511
 30
0.0
 11
170.6207315048355
 21
-79.66557630153511
 31
0.0
  0
LINE
  5
12E
330
1F
100
AcDbEntity
  8
建具
  6
Continuous
 62
     4
370
     9
100
AcDbLine
 10
170.6207315048355
 20
123.8003189742309
 30
0.0
 11
170.6207315048355
 21
-79.66557630153511
 31
0.0
  0
LINE
  5
12F
330
1F
100
AcDbEntity
  8
建具
  6
Continuous
 62
     4
370
     9
100
AcDbLine
 10
170.6207315048355
 20
-315.6845133834061
 30
0.0
 11
170.6207315048355
 21
-112.557504481535
 31
0.0
  0
LINE
  5
130
330
1F
100
AcDbEntity
  8
仕上
  6
JWW_CENTER1
 62
     3
370
     9
100
AcDbLine
 10
-155.6924295718918
 20
79.38875747887911
 30
0.0
 11
170.6206923268624
 21
79.38875747887911
 31
0.0
  0
LINE
  5
131
330
1F
100
AcDbEntity
  8
仕上
  6
JWW_CENTER1
 62
     3
370
     9
100
AcDbLine
 10
-155.6924295718918
 20
-271.6118382619511
 30
0.0
 11
170.6206923268624
 21
-271.6118382619511
 31
0.0
  0
LINE
  5
132
330
1F
100
AcDbEntity
  8
仕上
  6
JWW_CENTER1
 62
     3
370
     9
100
AcDbLine
 10
-155.6924295718918
 20
79.38875747887911
 30
0.0
 11
-155.6924295718918
 21
-271.6118382619511
 31
0.0
  0
LINE
  5
133
330
1F
100
AcDbEntity
  8
その他
  6
Continuous
 62
     7
370
     9
100
AcDbLine
 10
-728.1924349036303
 20
42.05850891987347
 30
0.0
 11
-734.2800491937173
 21
34.12497551696106
 31
0.0
  0
LINE
  5
134
330
1F
100
AcDbEntity
  8
その他
  6
Continuous
 62
     7
370
     9
100
AcDbLine
 10
-728.1924349036303
 20
42.05850891987347
 30
0.0
 11
-732.0192692272813
 21
32.81971359476051
 31
0.0
  0
LINE
  5
135
330
1F
100
AcDbEntity
  8
その他
  6
Continuous
 62
     7
370
     9
100
AcDbLine
 10
-776.9712925008312
 20
-42.42895077364483
 30
0.0
 11
-728.1924349036303
 21
42.05850891987347
 31
0.0
  0
TEXT
  5
136
330
1F
100
AcDbEntity
  8
その他
  6
Continuous
 62
     2
370
     9
100
AcDbText
 10
-816.3407660190537
 20
-37.16501802313891
 30
0.0
 40
12.192
  1
φ10
 41
1.09375
  7
ＭＳ ゴシック
100
AcDbText
  0
LINE
  5
137
330
1F
100
AcDbEntity
  8
その他
  6
Continuous
 62
     7
370
     9
100
AcDbLine
 10
-817.7878806757667
 20
-42.42895077364483
 30
0.0
 11
-776.9712925008312
 21
-42.42895077364483
 31
0.0
  0
LINE
  5
138
330
1F
100
AcDbEntity
  8
その他
  6
Continuous
 62
     7
370
     9
100
AcDbLine
 10
-758.1924295718909
 20
180.9070860676509
 30
0.0
 11
-508.1925326718172
 21
180.9070860676509
 31
0.0
  0
LWPOLYLINE
  5
139
330
1F
100
AcDbEntity
  8
その他
  6
Continuous
 62
     7
370
     9
100
AcDbPolyline
 90
        4
 70
     1
 43
0.4
 10
-757.9924295718909
 20
180.9070860676509
 42
0.4142135623731
 10
-758.1924295718909
 20
181.1070860676509
 42
0.4142135623731
 10
-758.392429571891
 20
180.9070860676509
 42
0.4142135623731
 10
-758.1924295718909
 20
180.7070860676509
 42
0.4142135623731
  0
LWPOLYLINE
  5
13A
330
1F
100
AcDbEntity
  8
その他
  6
Continuous
 62
     7
370
     9
100
AcDbPolyline
 90
        4
 70
     1
 43
0.4
 10
-507.9925326718172
 20
180.9070860676509
 42
0.4142135623731
 10
-508.1925326718172
 20
181.1070860676509
 42
0.4142135623731
 10
-508.3925326718172
 20
180.9070860676509
 42
0.4142135623731
 10
-508.1925326718172
 20
180.7070860676509
 42
0.4142135623731
  0
LINE
  5
13B
330
1F
100
AcDbEntity
  8
その他
  6
Continuous
 62
     7
370
     9
100
AcDbLine
 10
-508.1925326718172
 20
182.1070860676509
 30
0.0
 11
-508.1925326718172
 21
117.4882496145353
 31
0.0
  0
TEXT
  5
13C
330
1F
100
AcDbEntity
  8
その他
  6
Continuous
 62
     2
370
   211
100
AcDbText
 10
-646.1924811218541
 20
185.5630860676507
 30
0.0
 40
12.192
  1
250
 41
1.083333333333333
  7
ＭＳ ゴシック
100
AcDbText
  0
LINE
  5
13D
330
1F
100
AcDbEntity
  8
その他
  6
Continuous
 62
     7
370
     9
100
AcDbLine
 10
-508.1925326718172
 20
180.9070860676509
 30
0.0
 11
-8.19249143184652
 21
180.9070860676509
 31
0.0
  0
LWPOLYLINE
  5
13E
330
1F
100
AcDbEntity
  8
その他
  6
Continuous
 62
     7
370
     9
100
AcDbPolyline
 90
        4
 70
     1
 43
0.4
 10
-7.99249143184652
 20
180.9070860676509
 42
0.4142135623731
 10
-8.19249143184652
 20
181.1070860676509
 42
0.4142135623731
 10
-8.39249143184652
 20
180.9070860676509
 42
0.4142135623731
 10
-8.19249143184652
 20
180.7070860676509
 42
0.4142135623731
  0
LINE
  5
13F
330
1F
100
AcDbEntity
  8
その他
  6
Continuous
 62
     7
370
     9
100
AcDbLine
 10
-8.19249143184652
 20
182.1070860676509
 30
0.0
 11
-8.19249143184652
 21
117.4882496145353
 31
0.0
  0
TEXT
  5
140
330
1F
100
AcDbEntity
  8
その他
  6
Continuous
 62
     2
370
   211
100
AcDbText
 10
-271.1925120518317
 20
185.5630860676507
 30
0.0
 40
12.192
  1
500
 41
1.083333333333333
  7
ＭＳ ゴシック
100
AcDbText
  0
LINE
  5
141
330
1F
100
AcDbEntity
  8
その他
  6
Continuous
 62
     7
370
     9
100
AcDbLine
 10
-8.19249143184652
 20
180.9070860676509
 30
0.0
 11
170.6207315048355
 21
180.9070860676509
 31
0.0
  0
TEXT
  5
142
330
1F
100
AcDbEntity
  8
その他
  6
Continuous
 62
     2
370
   211
100
AcDbText
 10
142.7752567966495
 20
185.5630860676507
 30
0.0
 40
12.192
  1
500
 41
1.083333333333333
  7
ＭＳ ゴシック
100
AcDbText
  0
LINE
  5
143
330
1F
100
AcDbEntity
  8
その他
  6
Continuous
 62
     7
370
     9
100
AcDbLine
 10
-758.1924295718909
 20
213.8259500668769
 30
0.0
 11
170.6207315048355
 21
213.8259500668769
 31
0.0
  0
LWPOLYLINE
  5
144
330
1F
100
AcDbEntity
  8
その他
  6
Continuous
 62
     7
370
     9
100
AcDbPolyline
 90
        4
 70
     1
 43
0.4
 10
-757.9924295718909
 20
213.8259500668769
 42
0.4142135623731
 10
-758.1924295718909
 20
214.0259500668769
 42
0.4142135623731
 10
-758.392429571891
 20
213.8259500668769
 42
0.4142135623731
 10
-758.1924295718909
 20
213.6259500668769
 42
0.4142135623731
  0
LINE
  5
145
330
1F
100
AcDbEntity
  8
その他
  6
Continuous
 62
     7
370
     9
100
AcDbLine
 10
-758.1924295718909
 20
215.0259500668767
 30
0.0
 11
-758.1924295718909
 21
96.8883895005149
 31
0.0
  0
TEXT
  5
146
330
1F
100
AcDbEntity
  8
その他
  6
Continuous
 62
     2
370
   211
100
AcDbText
 10
-315.7858490335279
 20
218.4819500668767
 30
0.0
 40
12.192
  1
2000
 41
1.09375
  7
ＭＳ ゴシック
100
AcDbText
  0
LINE
  5
147
330
1F
100
AcDbEntity
  8
その他
  6
Continuous
 62
     7
370
     9
100
AcDbLine
 10
-755.6925662529375
 20
-397.1010832868865
 30
0.0
 11
-157.6925662529375
 21
-397.1010832868865
 31
0.0
  0
LWPOLYLINE
  5
148
330
1F
100
AcDbEntity
  8
その他
  6
Continuous
 62
     7
370
     9
100
AcDbPolyline
 90
        4
 70
     1
 43
0.4
 10
-755.4925662529374
 20
-397.1010832868865
 42
0.4142135623731
 10
-755.6925662529375
 20
-396.9010832868865
 42
0.4142135623731
 10
-755.8925662529375
 20
-397.1010832868865
 42
0.4142135623731
 10
-755.6925662529375
 20
-397.3010832868865
 42
0.4142135623731
  0
LWPOLYLINE
  5
149
330
1F
100
AcDbEntity
  8
その他
  6
Continuous
 62
     7
370
     9
100
AcDbPolyline
 90
        4
 70
     1
 43
0.4
 10
-157.4925662529375
 20
-397.1010832868865
 42
0.4142135623731
 10
-157.6925662529375
 20
-396.9010832868865
 42
0.4142135623731
 10
-157.8925662529375
 20
-397.1010832868865
 42
0.4142135623731
 10
-157.6925662529375
 20
-397.3010832868865
 42
0.4142135623731
  0
TEXT
  5
14A
330
1F
100
AcDbEntity
  8
その他
  6
Continuous
 62
     2
370
   211
100
AcDbText
 10
-469.6925662529375
 20
-392.4450832868864
 30
0.0
 40
12.192
  1
598
 41
1.083333333333333
  7
ＭＳ ゴシック
100
AcDbText
  0
LINE
  5
14B
330
1F
100
AcDbEntity
  8
その他
  6
Continuous
 62
     7
370
     9
100
AcDbLine
 10
-157.6925662529375
 20
-397.1010832868865
 30
0.0
 11
-155.6925270749653
 21
-397.1010832868865
 31
0.0
  0
LWPOLYLINE
  5
14C
330
1F
100
AcDbEntity
  8
その他
  6
Continuous
 62
     7
370
     9
100
AcDbPolyline
 90
        4
 70
     1
 43
0.4
 10
-157.4925662529375
 20
-397.1010832868865
 42
0.4142135623731
 10
-157.6925662529375
 20
-396.9010832868865
 42
0.4142135623731
 10
-157.8925662529375
 20
-397.1010832868865
 42
0.4142135623731
 10
-157.6925662529375
 20
-397.3010832868865
 42
0.4142135623731
  0
LWPOLYLINE
  5
14D
330
1F
100
AcDbEntity
  8
その他
  6
Continuous
 62
     7
370
     9
100
AcDbPolyline
 90
        4
 70
     1
 43
0.4
 10
-155.4925270749653
 20
-397.1010832868865
 42
0.4142135623731
 10
-155.6925270749653
 20
-396.9010832868865
 42
0.4142135623731
 10
-155.8925270749652
 20
-397.1010832868865
 42
0.4142135623731
 10
-155.6925270749653
 20
-397.3010832868865
 42
0.4142135623731
  0
LINE
  5
14E
330
1F
100
AcDbEntity
  8
その他
  6
Continuous
 62
     7
370
     9
100
AcDbLine
 10
-155.6925270749653
 20
-397.1010832868865
 30
0.0
 11
170.6205948237889
 21
-397.1010832868865
 31
0.0
  0
TEXT
  5
14F
330
1F
100
AcDbEntity
  8
その他
  6
Continuous
 62
     2
370
   211
100
AcDbText
 10
144.5832963907474
 20
-392.4450832868864
 30
0.0
 40
12.192
  1
598
 41
1.083333333333333
  7
ＭＳ ゴシック
100
AcDbText
  0
TEXT
  5
150
330
1F
100
AcDbEntity
  8
その他
  6
Continuous
 62
     2
370
   211
100
AcDbText
 10
-149.711492907235
 20
-392.4450832868864
 30
0.0
 40
12.192
  1
2
  7
ＭＳ ゴシック
100
AcDbText
  0
LINE
  5
151
330
1F
100
AcDbEntity
  8
その他
  6
Continuous
 62
     7
370
     9
100
AcDbLine
 10
-751.1924814164267
 20
-360.6283194591458
 30
0.0
 11
-162.1926510894482
 21
-360.6283194591458
 31
0.0
  0
LWPOLYLINE
  5
152
330
1F
100
AcDbEntity
  8
その他
  6
Continuous
 62
     7
370
     9
100
AcDbPolyline
 90
        4
 70
     1
 43
0.4
 10
-750.9924814164267
 20
-360.6283194591458
 42
0.4142135623731
 10
-751.1924814164267
 20
-360.4283194591458
 42
0.4142135623731
 10
-751.3924814164268
 20
-360.6283194591458
 42
0.4142135623731
 10
-751.1924814164267
 20
-360.8283194591458
 42
0.4142135623731
  0
LWPOLYLINE
  5
153
330
1F
100
AcDbEntity
  8
その他
  6
Continuous
 62
     7
370
     9
100
AcDbPolyline
 90
        4
 70
     1
 43
0.4
 10
-161.9926510894482
 20
-360.6283194591458
 42
0.4142135623731
 10
-162.1926510894482
 20
-360.4283194591458
 42
0.4142135623731
 10
-162.3926510894482
 20
-360.6283194591458
 42
0.4142135623731
 10
-162.1926510894482
 20
-360.8283194591458
 42
0.4142135623731
  0
TEXT
  5
154
330
1F
100
AcDbEntity
  8
その他
  6
Continuous
 62
     2
370
   211
100
AcDbText
 10
-469.6925662529375
 20
-355.9723194591458
 30
0.0
 40
12.192
  1
589
 41
1.083333333333333
  7
ＭＳ ゴシック
100
AcDbText
  0
LINE
  5
155
330
1F
100
AcDbEntity
  8
その他
  6
Continuous
 62
     7
370
     9
100
AcDbLine
 10
-751.1924814164267
 20
-361.8283194591459
 30
0.0
 11
-751.1924814164267
 21
-286.9574608622562
 31
0.0
  0
LINE
  5
156
330
1F
100
AcDbEntity
  8
その他
  6
Continuous
 62
     7
370
     9
100
AcDbLine
 10
-755.6925662529375
 20
-398.3010832868865
 30
0.0
 11
-755.6925662529375
 21
-286.9574608622562
 31
0.0
  0
LINE
  5
157
330
1F
100
AcDbEntity
  8
その他
  6
Continuous
 62
     7
370
     9
100
AcDbLine
 10
-162.1926510894482
 20
-361.8283194591459
 30
0.0
 11
-162.1926510894482
 21
-286.9574608622562
 31
0.0
  0
LINE
  5
158
330
1F
100
AcDbEntity
  8
その他
  6
Continuous
 62
     7
370
     9
100
AcDbLine
 10
-155.6925270749653
 20
-398.3010832868865
 30
0.0
 11
-155.6925270749653
 21
-286.9574608622562
 31
0.0
  0
LINE
  5
159
330
1F
100
AcDbEntity
  8
その他
  6
Continuous
 62
     7
370
     9
100
AcDbLine
 10
-157.6925662529375
 20
-398.3010832868865
 30
0.0
 11
-157.6925662529375
 21
-286.9574608622562
 31
0.0
  0
LINE
  5
15A
330
1F
100
AcDbEntity
  8
仕上
  6
JWW_CENTER1
 62
     7
370
     9
100
AcDbLine
 10
212.8450663118348
 20
-96.1115403915351
 30
0.0
 11
-792.0128368281332
 21
-96.1115403915351
 31
0.0
  0
LINE
  5
15B
330
1F
100
AcDbEntity
  8
建具
  6
Continuous
 62
     4
370
     9
100
AcDbLine
 10
696.2020307631774
 20
82.88853054121407
 30
0.0
 11
615.0020548473199
 21
82.88853054121407
 31
0.0
  0
LINE
  5
15C
330
1F
100
AcDbEntity
  8
建具
  6
Continuous
 62
     4
370
     9
100
AcDbLine
 10
700.2022666558082
 20
78.88841836849454
 30
0.0
 11
700.2022666558082
 21
28.88850084843531
 31
0.0
  0
LINE
  5
15D
330
1F
100
AcDbEntity
  8
建具
  6
Continuous
 62
     4
370
     9
100
AcDbLine
 10
700.2022666558082
 20
28.88850084843531
 30
0.0
 11
706.2020637551536
 21
28.88850084843531
 31
0.0
  0
LINE
  5
15E
330
1F
100
AcDbEntity
  8
建具
  6
Continuous
 62
     4
370
     9
100
AcDbLine
 10
706.2020637551536
 20
28.88850084843531
 30
0.0
 11
706.2020637551536
 21
78.88841836849454
 31
0.0
  0
LINE
  5
15F
330
1F
100
AcDbEntity
  8
建具
  6
Continuous
 62
     4
370
     9
100
AcDbLine
 10
676.2019647792249
 20
88.88845136047084
 30
0.0
 11
676.2019647792249
 21
97.888332589356
 31
0.0
  0
LINE
  5
160
330
1F
100
AcDbEntity
  8
建具
  6
Continuous
 62
     4
370
     9
100
AcDbLine
 10
690.0170249565895
 20
88.88845136047084
 30
0.0
 11
676.2019647792249
 21
88.88845136047084
 31
0.0
  0
LINE
  5
161
330
1F
100
AcDbEntity
  8
建具
  6
Continuous
 62
     4
370
     9
100
AcDbLine
 10
690.0175198362344
 20
97.888332589356
 30
0.0
 11
676.2019647792249
 21
97.888332589356
 31
0.0
  0
LINE
  5
162
330
1F
100
AcDbEntity
  8
建具
  6
Continuous
 62
     4
370
     9
100
AcDbLine
 10
694.6758219371636
 20
89.50160724096068
 30
0.0
 11
752.8667399059136
 21
100.7950081858509
 31
0.0
  0
LINE
  5
163
330
1F
100
AcDbEntity
  8
建具
  6
Continuous
 62
     4
370
     9
100
AcDbLine
 10
692.3470420464332
 20
98.1951579694236
 30
0.0
 11
750.5373414156265
 21
109.4885589143137
 31
0.0
  0
LINE
  5
164
330
1F
100
AcDbEntity
  8
建具
  6
JWW_CENTER2
 62
     4
370
     9
100
AcDbLine
 10
690.0170249565895
 20
93.38839197491345
 30
0.0
 11
672.3973300663865
 21
93.38839197491345
 31
0.0
  0
LINE
  5
165
330
1F
100
AcDbEntity
  8
建具
  6
JWW_CENTER2
 62
     4
370
     9
100
AcDbLine
 10
693.5113701318428
 20
93.84838260519209
 30
0.0
 11
758.6781115803228
 21
107.0109439702681
 31
0.0
  0
LINE
  5
166
330
1F
100
AcDbEntity
  8
建具
  6
Continuous
 62
     4
370
     9
100
AcDbLine
 10
696.2020307631774
 20
-275.1116113242842
 30
0.0
 11
615.0020548473199
 21
-275.1116113242842
 31
0.0
  0
LINE
  5
167
330
1F
100
AcDbEntity
  8
建具
  6
Continuous
 62
     4
370
     9
100
AcDbLine
 10
615.0020548473199
 20
-275.1116113242842
 30
0.0
 11
615.0020548473199
 21
-281.111532143541
 31
0.0
  0
LINE
  5
168
330
1F
100
AcDbEntity
  8
建具
  6
Continuous
 62
     4
370
     9
100
AcDbLine
 10
615.0020548473199
 20
-281.111532143541
 30
0.0
 11
696.2020307631774
 21
-281.111532143541
 31
0.0
  0
LINE
  5
169
330
1F
100
AcDbEntity
  8
建具
  6
Continuous
 62
     4
370
     9
100
AcDbLine
 10
700.2022666558082
 20
-271.1114991515647
 30
0.0
 11
700.2022666558082
 21
-221.1115816315056
 31
0.0
  0
LINE
  5
16A
330
1F
100
AcDbEntity
  8
建具
  6
Continuous
 62
     4
370
     9
100
AcDbLine
 10
700.2022666558082
 20
-221.1115816315056
 30
0.0
 11
706.2020637551536
 21
-221.1115816315056
 31
0.0
  0
LINE
  5
16B
330
1F
100
AcDbEntity
  8
建具
  6
Continuous
 62
     4
370
     9
100
AcDbLine
 10
706.2020637551536
 20
-221.1115816315056
 30
0.0
 11
706.2020637551536
 21
-271.1114991515647
 31
0.0
  0
LINE
  5
16C
330
1F
100
AcDbEntity
  8
建具
  6
Continuous
 62
     4
370
     9
100
AcDbLine
 10
676.2019647792249
 20
-281.111532143541
 30
0.0
 11
676.2019647792249
 21
-290.1114133724261
 31
0.0
  0
LINE
  5
16D
330
1F
100
AcDbEntity
  8
建具
  6
Continuous
 62
     4
370
     9
100
AcDbLine
 10
690.0170249565895
 20
-281.111532143541
 30
0.0
 11
676.2019647792249
 21
-281.111532143541
 31
0.0
  0
LINE
  5
16E
330
1F
100
AcDbEntity
  8
建具
  6
Continuous
 62
     4
370
     9
100
AcDbLine
 10
690.0175198362344
 20
-290.1114133724261
 30
0.0
 11
676.2019647792249
 21
-290.1114133724261
 31
0.0
  0
LINE
  5
16F
330
1F
100
AcDbEntity
  8
建具
  6
Continuous
 62
     4
370
     9
100
AcDbLine
 10
694.6758219371636
 20
-281.7246880240308
 30
0.0
 11
752.8667399059136
 21
-293.0181508288766
 31
0.0
  0
LINE
  5
170
330
1F
100
AcDbEntity
  8
建具
  6
Continuous
 62
     4
370
     9
100
AcDbLine
 10
692.3470420464332
 20
-290.4182387524937
 30
0.0
 11
750.5373414156265
 21
-301.7115778374282
 31
0.0
  0
LINE
  5
171
330
1F
100
AcDbEntity
  8
建具
  6
JWW_CENTER2
 62
     4
370
     9
100
AcDbLine
 10
690.0170249565895
 20
-285.6114727579836
 30
0.0
 11
672.3973300663865
 21
-285.6114727579836
 31
0.0
  0
LINE
  5
172
330
1F
100
AcDbEntity
  8
建具
  6
JWW_CENTER2
 62
     4
370
     9
100
AcDbLine
 10
693.5113701318428
 20
-286.0714633882623
 30
0.0
 11
758.6781115803228
 21
-299.2341484732495
 31
0.0
  0
LINE
  5
173
330
1F
100
AcDbEntity
  8
建具
  6
Continuous
 62
     4
370
     9
100
AcDbLine
 10
615.0020548473199
 20
82.88853054121407
 30
0.0
 11
615.0020548473199
 21
88.88845136047084
 31
0.0
  0
LINE
  5
174
330
1F
100
AcDbEntity
  8
建具
  6
Continuous
 62
     4
370
     9
100
AcDbLine
 10
615.0020548473199
 20
88.88845136047084
 30
0.0
 11
696.2020307631774
 21
88.88845136047084
 31
0.0
  0
ARC
  5
175
330
1F
100
AcDbEntity
  8
建具
  6
Continuous
 62
     4
370
     9
100
AcDbCircle
 10
696.2020307631774
 20
78.88841836849454
 30
0.0
 40
3.999999809909511
100
AcDbArc
 50
0.0
 51
90.0
  0
ARC
  5
176
330
1F
100
AcDbEntity
  8
建具
  6
Continuous
 62
     4
370
     9
100
AcDbCircle
 10
696.2020307631774
 20
78.88841836849454
 30
0.0
 40
9.9999991623131
100
AcDbArc
 50
0.0
 51
90.0
  0
ARC
  5
177
330
1F
100
AcDbEntity
  8
建具
  6
Continuous
 62
     4
370
     9
100
AcDbCircle
 10
690.0170249565895
 20
106.8884612580637
 30
0.0
 40
17.99999829885122
100
AcDbArc
 50
270.0
 51
285.0
  0
ARC
  5
178
330
1F
100
AcDbEntity
  8
建具
  6
Continuous
 62
     4
370
     9
100
AcDbCircle
 10
751.7022881005928
 20
105.1417835500823
 30
0.0
 40
4.499999574712805
100
AcDbArc
 50
285.0001373291016
 51
104.9999084472657
  0
ARC
  5
179
330
1F
100
AcDbEntity
  8
建具
  6
JWW_CENTER2
 62
     4
370
     9
100
AcDbCircle
 10
690.0170249565895
 20
106.8884612580637
 30
0.0
 40
13.50000065726203
100
AcDbArc
 50
270.0
 51
284.9999542236328
  0
ARC
  5
17A
330
1F
100
AcDbEntity
  8
建具
  6
Continuous
 62
     4
370
     9
100
AcDbCircle
 10
690.0175198362344
 20
106.8884612580637
 30
0.0
 40
8.99999914942561
100
AcDbArc
 50
270.0
 51
285.0000152587891
  0
ARC
  5
17B
330
1F
100
AcDbEntity
  8
建具
  6
Continuous
 62
     4
370
     9
100
AcDbCircle
 10
696.2020307631774
 20
-271.1114991515647
 30
0.0
 40
3.999999809909511
100
AcDbArc
 50
270.0
 51
0.0
  0
ARC
  5
17C
330
1F
100
AcDbEntity
  8
建具
  6
Continuous
 62
     4
370
     9
100
AcDbCircle
 10
696.2020307631774
 20
-271.1114991515647
 30
0.0
 40
9.9999991623131
100
AcDbArc
 50
270.0
 51
0.0
  0
ARC
  5
17D
330
1F
100
AcDbEntity
  8
建具
  6
Continuous
 62
     4
370
     9
100
AcDbCircle
 10
690.0170249565895
 20
-299.1115420411339
 30
0.0
 40
17.99999829885122
100
AcDbArc
 50
74.99999999999999
 51
89.99999999999999
  0
ARC
  5
17E
330
1F
100
AcDbEntity
  8
建具
  6
Continuous
 62
     4
370
     9
100
AcDbCircle
 10
751.7022881005928
 20
-297.3649261931082
 30
0.0
 40
4.499999574712805
100
AcDbArc
 50
255.0000915527343
 51
74.99986267089842
  0
ARC
  5
17F
330
1F
100
AcDbEntity
  8
建具
  6
JWW_CENTER2
 62
     4
370
     9
100
AcDbCircle
 10
690.0170249565895
 20
-299.1115420411339
 30
0.0
 40
13.50000065726203
100
AcDbArc
 50
75.00004577636717
 51
90.0
  0
ARC
  5
180
330
1F
100
AcDbEntity
  8
建具
  6
Continuous
 62
     4
370
     9
100
AcDbCircle
 10
690.0175198362344
 20
-299.1115420411339
 30
0.0
 40
8.99999914942561
100
AcDbArc
 50
74.99998474121095
 51
90.00000000000001
  0
LINE
  5
181
330
1F
100
AcDbEntity
  8
仕上
  6
Continuous
 62
     7
370
     9
100
AcDbLine
 10
615.0019756665765
 20
76.88875747887911
 30
0.0
 11
615.0019756665765
 21
72.38881686443753
 31
0.0
  0
LINE
  5
182
330
1F
100
AcDbEntity
  8
仕上
  6
Continuous
 62
     7
370
     9
100
AcDbLine
 10
631.0020531977211
 20
72.38881686443753
 30
0.0
 11
615.0019756665765
 21
72.38881686443753
 31
0.0
  0
LINE
  5
183
330
1F
100
AcDbEntity
  8
仕上
  6
Continuous
 62
     7
370
     9
100
AcDbLine
 10
631.0020531977211
 20
76.88875747887911
 30
0.0
 11
615.0019756665765
 21
76.88875747887911
 31
0.0
  0
LINE
  5
184
330
1F
100
AcDbEntity
  8
仕上
  6
Continuous
 62
     7
370
     9
100
AcDbLine
 10
656.2021907742624
 20
66.38863823645121
 30
0.0
 11
615.0019756665765
 21
66.38863823645121
 31
0.0
  0
LINE
  5
185
330
1F
100
AcDbEntity
  8
仕上
  6
Continuous
 62
     7
370
     9
100
AcDbLine
 10
653.0021752680336
 20
61.88869762200963
 30
0.0
 11
615.0019756665765
 21
61.88869762200963
 31
0.0
  0
LINE
  5
186
330
1F
100
AcDbEntity
  8
仕上
  6
Continuous
 62
     7
370
     9
100
AcDbLine
 10
615.0019756665765
 20
-258.6117190195214
 30
0.0
 11
615.0019756665765
 21
66.38863823645121
 31
0.0
  0
LINE
  5
187
330
1F
100
AcDbEntity
  8
仕上
  6
Continuous
 62
     2
370
     9
100
AcDbLine
 10
656.2021907742624
 20
79.38875747887911
 30
0.0
 11
656.2021907742624
 21
-271.6118382619493
 31
0.0
  0
LINE
  5
188
330
1F
100
AcDbEntity
  8
仕上
  6
Continuous
 62
     7
370
     9
100
AcDbLine
 10
653.0021752680336
 20
-258.6117190195214
 30
0.0
 11
653.0021752680336
 21
66.38863823645121
 31
0.0
  0
LINE
  5
189
330
1F
100
AcDbEntity
  8
仕上
  6
Continuous
 62
     7
370
     9
100
AcDbLine
 10
615.0019756665765
 20
-269.1118382619493
 30
0.0
 11
615.0019756665765
 21
-264.6118976475059
 31
0.0
  0
LINE
  5
18A
330
1F
100
AcDbEntity
  8
仕上
  6
Continuous
 62
     7
370
     9
100
AcDbLine
 10
631.0020531977211
 20
-264.6118976475059
 30
0.0
 11
615.0019756665765
 21
-264.6118976475059
 31
0.0
  0
LINE
  5
18B
330
1F
100
AcDbEntity
  8
仕上
  6
Continuous
 62
     7
370
     9
100
AcDbLine
 10
631.0020531977211
 20
-269.1118382619493
 30
0.0
 11
615.0019756665765
 21
-269.1118382619493
 31
0.0
  0
LINE
  5
18C
330
1F
100
AcDbEntity
  8
仕上
  6
Continuous
 62
     7
370
     9
100
AcDbLine
 10
656.2021907742624
 20
-258.6117190195214
 30
0.0
 11
615.0019756665765
 21
-258.6117190195214
 31
0.0
  0
LINE
  5
18D
330
1F
100
AcDbEntity
  8
仕上
  6
Continuous
 62
     7
370
     9
100
AcDbLine
 10
653.0021752680336
 20
-254.1117784050762
 30
0.0
 11
615.0019756665765
 21
-254.1117784050762
 31
0.0
  0
LINE
  5
18E
330
1F
100
AcDbEntity
  8
仕上
  6
Continuous
 62
     3
370
     9
100
AcDbLine
 10
653.0021752680336
 20
-103.8794895839669
 30
0.0
 11
643.8682006718177
 21
-119.6999976596558
 31
0.0
  0
LINE
  5
18F
330
1F
100
AcDbEntity
  8
仕上
  6
Continuous
 62
     3
370
     9
100
AcDbLine
 10
653.0021752680336
 20
-103.8794895839669
 30
0.0
 11
653.0021752680336
 21
-88.34359119910326
 31
0.0
  0
LINE
  5
190
330
1F
100
AcDbEntity
  8
仕上
  6
Continuous
 62
     3
370
     9
100
AcDbLine
 10
653.0021752680336
 20
-88.34359119910326
 30
0.0
 11
643.8682006718177
 21
-72.52308312341441
 31
0.0
  0
LINE
  5
191
330
1F
100
AcDbEntity
  8
仕上
  6
Continuous
 62
     3
370
     9
100
AcDbLine
 10
643.0021752680336
 20
-73.02308312341441
 30
0.0
 11
643.8682006718177
 21
-72.52308312341441
 31
0.0
  0
LINE
  5
192
330
1F
100
AcDbEntity
  8
仕上
  6
Continuous
 62
     3
370
     9
100
AcDbLine
 10
643.0021752680336
 20
-119.1999976596558
 30
0.0
 11
643.8682006718177
 21
-119.6999976596558
 31
0.0
  0
LINE
  5
193
330
1F
100
AcDbEntity
  8
仕上
  6
Continuous
 62
     3
370
     9
100
AcDbLine
 10
652.0021752680327
 20
-103.6115403915351
 30
0.0
 11
643.0021752680336
 21
-119.1999976596558
 31
0.0
  0
LINE
  5
194
330
1F
100
AcDbEntity
  8
仕上
  6
Continuous
 62
     3
370
     9
100
AcDbLine
 10
652.0021752680327
 20
-103.6115403915351
 30
0.0
 11
652.0021752680327
 21
-88.6115403915351
 31
0.0
  0
LINE
  5
195
330
1F
100
AcDbEntity
  8
仕上
  6
Continuous
 62
     3
370
     9
100
AcDbLine
 10
652.0021752680327
 20
-88.6115403915351
 30
0.0
 11
643.0021752680336
 21
-73.02308312341441
 31
0.0
  0
LINE
  5
196
330
1F
100
AcDbEntity
  8
仕上
  6
Continuous
 62
     2
370
     9
100
AcDbLine
 10
656.2021907742624
 20
79.38875747887911
 30
0.0
 11
694.2022221166394
 21
79.38875747887911
 31
0.0
  0
LINE
  5
197
330
1F
100
AcDbEntity
  8
仕上
  6
Continuous
 62
     2
370
     9
100
AcDbLine
 10
694.2022221166394
 20
79.38875747887911
 30
0.0
 11
694.2022221166394
 21
74.88851899402331
 31
0.0
  0
LINE
  5
198
330
1F
100
AcDbEntity
  8
仕上
  6
Continuous
 62
     2
370
     9
100
AcDbLine
 10
700.2022666558082
 20
74.88851899402331
 30
0.0
 11
656.2021907742624
 21
74.88851899402331
 31
0.0
  0
LINE
  5
199
330
1F
100
AcDbEntity
  8
仕上
  6
Continuous
 62
     2
370
     9
100
AcDbLine
 10
700.2022666558082
 20
-267.1115997770899
 30
0.0
 11
700.2022666558082
 21
74.88851899402331
 31
0.0
  0
LINE
  5
19A
330
1F
100
AcDbEntity
  8
仕上
  6
JWW_CENTER1
 62
     7
370
     9
100
AcDbLine
 10
607.9231262120888
 20
-96.1115403915351
 30
0.0
 11
706.3091821885059
 21
-96.1115403915351
 31
0.0
  0
LINE
  5
19B
330
1F
100
AcDbEntity
  8
仕上
  6
Continuous
 62
     2
370
     9
100
AcDbLine
 10
656.2021907742624
 20
-271.6118382619493
 30
0.0
 11
694.2022221166394
 21
-271.6118382619493
 31
0.0
  0
LINE
  5
19C
330
1F
100
AcDbEntity
  8
仕上
  6
Continuous
 62
     2
370
     9
100
AcDbLine
 10
694.2022221166394
 20
-271.6118382619493
 30
0.0
 11
694.2022221166394
 21
-267.1115997770899
 31
0.0
  0
LINE
  5
19D
330
1F
100
AcDbEntity
  8
仕上
  6
Continuous
 62
     2
370
     9
100
AcDbLine
 10
700.2022666558082
 20
-267.1115997770899
 30
0.0
 11
656.2021907742624
 21
-267.1115997770899
 31
0.0
  0
LINE
  5
19E
330
1F
100
AcDbEntity
  8
仕上
  6
Continuous
 62
     7
370
     9
100
AcDbLine
 10
656.2021907742624
 20
73.38871081879958
 30
0.0
 11
637.2021528334894
 21
73.38871081879958
 31
0.0
  0
LINE
  5
19F
330
1F
100
AcDbEntity
  8
仕上
  6
Continuous
 62
     7
370
     9
100
AcDbLine
 10
637.2021528334894
 20
73.38871081879958
 30
0.0
 11
637.2021528334894
 21
66.38863823645121
 31
0.0
  0
LINE
  5
1A0
330
1F
100
AcDbEntity
  8
仕上
  6
Continuous
 62
     7
370
     9
100
AcDbLine
 10
624.0019806153728
 20
72.38881686443753
 30
0.0
 11
624.0019806153728
 21
66.38863823645121
 31
0.0
  0
LINE
  5
1A1
330
1F
100
AcDbEntity
  8
仕上
  6
Continuous
 62
     7
370
     9
100
AcDbLine
 10
627.5019806153728
 20
79.38875747887911
 30
0.0
 11
627.5019806153728
 21
76.88875747887911
 31
0.0
  0
LINE
  5
1A2
330
1F
100
AcDbEntity
  8
仕上
  6
Continuous
 62
     7
370
     9
100
AcDbLine
 10
656.2021907742624
 20
79.38875747887911
 30
0.0
 11
627.5019806153728
 21
79.38875747887911
 31
0.0
  0
LINE
  5
1A3
330
1F
100
AcDbEntity
  8
仕上
  6
Continuous
 62
     7
370
     9
100
AcDbLine
 10
656.2011375685975
 20
79.38875747887911
 30
0.0
 11
656.2011375685975
 21
73.38871081879958
 31
0.0
  0
LINE
  5
1A4
330
1F
100
AcDbEntity
  8
仕上
  6
Continuous
 62
     7
370
     9
100
AcDbLine
 10
631.0020531977211
 20
76.88875747887911
 30
0.0
 11
631.0020531977211
 21
72.38881686443753
 31
0.0
  0
LINE
  5
1A5
330
1F
100
AcDbEntity
  8
仕上
  6
Continuous
 62
     7
370
     9
100
AcDbLine
 10
631.0020531977211
 20
-269.1118382619493
 30
0.0
 11
631.0020531977211
 21
-264.6118976475059
 31
0.0
  0
LINE
  5
1A6
330
1F
100
AcDbEntity
  8
仕上
  6
Continuous
 62
     7
370
     9
100
AcDbLine
 10
656.2021907742624
 20
-265.6117916018698
 30
0.0
 11
637.2021528334894
 21
-265.6117916018698
 31
0.0
  0
LINE
  5
1A7
330
1F
100
AcDbEntity
  8
仕上
  6
Continuous
 62
     7
370
     9
100
AcDbLine
 10
637.2021528334894
 20
-265.6117916018698
 30
0.0
 11
637.2021528334894
 21
-258.6117190195214
 31
0.0
  0
LINE
  5
1A8
330
1F
100
AcDbEntity
  8
仕上
  6
Continuous
 62
     7
370
     9
100
AcDbLine
 10
624.0019806153728
 20
-264.6118976475077
 30
0.0
 11
624.0019806153728
 21
-258.6117190195214
 31
0.0
  0
LINE
  5
1A9
330
1F
100
AcDbEntity
  8
仕上
  6
Continuous
 62
     7
370
     9
100
AcDbLine
 10
627.5019806153728
 20
-271.6118382619493
 30
0.0
 11
627.5019806153728
 21
-269.1118382619493
 31
0.0
  0
LINE
  5
1AA
330
1F
100
AcDbEntity
  8
仕上
  6
Continuous
 62
     7
370
     9
100
AcDbLine
 10
656.2021907742624
 20
-271.6118382619493
 30
0.0
 11
627.5019806153728
 21
-271.6118382619493
 31
0.0
  0
LINE
  5
1AB
330
1F
100
AcDbEntity
  8
仕上
  6
Continuous
 62
     7
370
     9
100
AcDbLine
 10
656.2011375685975
 20
-271.6118382619493
 30
0.0
 11
656.2011375685975
 21
-265.6117916018698
 31
0.0
  0
LINE
  5
1AC
330
1F
100
AcDbEntity
  8
寸法
  6
Continuous
 62
     7
370
     9
100
AcDbLine
 10
615.0018074074965
 20
-64.76305418218931
 30
0.0
 11
608.914193117409
 21
-56.82952077927689
 31
0.0
  0
LINE
  5
1AD
330
1F
100
AcDbEntity
  8
寸法
  6
Continuous
 62
     7
370
     9
100
AcDbLine
 10
615.0018074074965
 20
-64.76305418218931
 30
0.0
 11
611.1749730838455
 21
-55.52425885707635
 31
0.0
  0
LINE
  5
1AE
330
1F
100
AcDbEntity
  8
寸法
  6
Continuous
 62
     7
370
     9
100
AcDbLine
 10
630.4531822668873
 20
88.88845136047075
 30
0.0
 11
624.3655679767999
 21
96.82198476338317
 31
0.0
  0
LINE
  5
1AF
330
1F
100
AcDbEntity
  8
寸法
  6
Continuous
 62
     7
370
     9
100
AcDbLine
 10
630.4531822668873
 20
88.88845136047075
 30
0.0
 11
626.6263479432364
 21
98.12724668558371
 31
0.0
  0
LINE
  5
1B0
330
1F
100
AcDbEntity
  8
寸法
  6
Continuous
 62
     7
370
     9
100
AcDbLine
 10
527.2596506641344
 20
267.6248911089026
 30
0.0
 11
630.4531822668873
 21
88.88845136047075
 31
0.0
  0
TEXT
  5
1B1
330
1F
100
AcDbEntity
  8
寸法
  6
Continuous
 62
     7
370
     0
100
AcDbText
 10
350.6203827988011
 20
253.7938582789567
 30
0.0
 40
9.144
  1
ＳＰＨＣ（溶融亜鉛めっき）
 50
0.0000630100334301
 41
1.153846153846152
  7
ＭＳ ゴシック
100
AcDbText
  0
LINE
  5
1B2
330
1F
100
AcDbEntity
  8
寸法
  6
Continuous
 62
     7
370
     9
100
AcDbLine
 10
338.9294179867861
 20
267.6248911089026
 30
0.0
 11
527.2596506641344
 21
267.6248911089026
 31
0.0
  0
LINE
  5
1B3
330
1F
100
AcDbEntity
  8
寸法
  6
Continuous
 62
     7
370
     9
100
AcDbLine
 10
643.0021752680336
 20
-73.02308312341441
 30
0.0
 11
636.9145609779462
 21
-65.08954972050199
 31
0.0
  0
LINE
  5
1B4
330
1F
100
AcDbEntity
  8
寸法
  6
Continuous
 62
     7
370
     9
100
AcDbLine
 10
643.0021752680336
 20
-73.02308312341441
 30
0.0
 11
639.1753409443827
 21
-63.78428779830145
 31
0.0
  0
LINE
  5
1B5
330
1F
100
AcDbEntity
  8
寸法
  6
Continuous
 62
     7
370
     9
100
AcDbLine
 10
824.9884610455211
 20
225.9589380993066
 30
0.0
 11
756.0016947241312
 21
106.4703537807768
 31
0.0
  0
LINE
  5
1B6
330
1F
100
AcDbEntity
  8
寸法
  6
Continuous
 62
     7
370
     9
100
AcDbLine
 10
756.0016947241312
 20
106.4703537807768
 30
0.0
 11
759.8285290477821
 21
115.70914910589
 31
0.0
  0
LINE
  5
1B7
330
1F
100
AcDbEntity
  8
寸法
  6
Continuous
 62
     7
370
     9
100
AcDbLine
 10
756.0016947241312
 20
106.4703537807768
 30
0.0
 11
762.0893090142187
 21
114.4038871836892
 31
0.0
  0
TEXT
  5
1B8
330
1F
100
AcDbEntity
  8
寸法
  6
Continuous
 62
     7
370
     0
100
AcDbText
 10
827.2313651981386
 20
231.1105812122869
 30
0.0
 40
9.144
  1
アンカー：φ９
 50
359.9999409281058
 41
1.142857142857144
  7
ＭＳ ゴシック
100
AcDbText
  0
TEXT
  5
1B9
330
1F
100
AcDbEntity
  8
寸法
  6
Continuous
 62
     7
370
     0
100
AcDbText
 10
826.3088110937084
 20
213.1444412122155
 30
0.0
 40
9.144
  1
ＳＳ４００（溶融亜鉛めっき）
 41
1.154761904761905
  7
ＭＳ ゴシック
100
AcDbText
  0
LINE
  5
1BA
330
1F
100
AcDbEntity
  8
寸法
  6
Continuous
 62
     7
370
     9
100
AcDbLine
 10
824.9884610455211
 20
225.9589380993066
 30
0.0
 11
1012.423363934755
 21
225.9589380993066
 31
0.0
  0
LWPOLYLINE
  5
1BB
330
1F
100
AcDbEntity
  8
その他
  6
Continuous
 62
     7
370
     9
100
AcDbPolyline
 90
        4
 70
     1
 43
0.4
 10
434.0041149159362
 20
-281.1115321435411
 42
0.4142135623731
 10
433.8041149159362
 20
-280.9115321435411
 42
0.4142135623731
 10
433.6041149159362
 20
-281.1115321435411
 42
0.4142135623731
 10
433.8041149159362
 20
-281.3115321435411
 42
0.4142135623731
  0
LWPOLYLINE
  5
1BC
330
1F
100
AcDbEntity
  8
その他
  6
Continuous
 62
     7
370
     9
100
AcDbPolyline
 90
        4
 70
     1
 43
0.4
 10
470.2322827034438
 20
-271.6118588819365
 42
0.4142135623731
 10
470.0322827034438
 20
-271.4118588819366
 42
0.4142135623731
 10
469.8322827034438
 20
-271.6118588819365
 42
0.4142135623731
 10
470.0322827034438
 20
-271.8118588819365
 42
0.4142135623731
  0
LINE
  5
1BD
330
1F
100
AcDbEntity
  8
その他
  6
Continuous
 62
     7
370
     9
100
AcDbLine
 10
470.0322827034438
 20
-271.6118588819365
 30
0.0
 11
470.0322827034438
 21
-275.1116113242845
 31
0.0
  0
LWPOLYLINE
  5
1BE
330
1F
100
AcDbEntity
  8
その他
  6
Continuous
 62
     7
370
     9
100
AcDbPolyline
 90
        4
 70
     1
 43
0.4
 10
470.2322827034438
 20
-275.1116113242845
 42
0.4142135623731
 10
470.0322827034438
 20
-274.9116113242845
 42
0.4142135623731
 10
469.8322827034438
 20
-275.1116113242845
 42
0.4142135623731
 10
470.0322827034438
 20
-275.3116113242845
 42
0.4142135623731
  0
LINE
  5
1BF
330
1F
100
AcDbEntity
  8
その他
  6
Continuous
 62
     7
370
     9
100
AcDbLine
 10
470.0322827034438
 20
-275.1116113242845
 30
0.0
 11
470.0322827034438
 21
-281.1115321435411
 31
0.0
  0
LWPOLYLINE
  5
1C0
330
1F
100
AcDbEntity
  8
その他
  6
Continuous
 62
     7
370
     9
100
AcDbPolyline
 90
        4
 70
     1
 43
0.4
 10
470.2322827034438
 20
-281.1115321435411
 42
0.4142135623731
 10
470.0322827034438
 20
-280.9115321435411
 42
0.4142135623731
 10
469.8322827034438
 20
-281.1115321435411
 42
0.4142135623731
 10
470.0322827034438
 20
-281.3115321435411
 42
0.4142135623731
  0
LWPOLYLINE
  5
1C1
330
1F
100
AcDbEntity
  8
その他
  6
Continuous
 62
     7
370
     9
100
AcDbPolyline
 90
        4
 70
     1
 43
0.4
 10
520.7814142531067
 20
-254.1117990250634
 42
0.4142135623731
 10
520.5814142531067
 20
-253.9117990250634
 42
0.4142135623731
 10
520.3814142531066
 20
-254.1117990250634
 42
0.4142135623731
 10
520.5814142531067
 20
-254.3117990250634
 42
0.4142135623731
  0
LINE
  5
1C2
330
1F
100
AcDbEntity
  8
その他
  6
Continuous
 62
     7
370
     9
100
AcDbLine
 10
589.5155668487819
 20
-275.1116113242845
 30
0.0
 11
589.5155668487819
 21
-269.1118588819365
 31
0.0
  0
LWPOLYLINE
  5
1C3
330
1F
100
AcDbEntity
  8
その他
  6
Continuous
 62
     7
370
     9
100
AcDbPolyline
 90
        4
 70
     1
 43
0.4
 10
589.7155668487819
 20
-275.1116113242845
 42
0.4142135623731
 10
589.5155668487819
 20
-274.9116113242845
 42
0.4142135623731
 10
589.3155668487818
 20
-275.1116113242845
 42
0.4142135623731
 10
589.5155668487819
 20
-275.3116113242845
 42
0.4142135623731
  0
LWPOLYLINE
  5
1C4
330
1F
100
AcDbEntity
  8
その他
  6
Continuous
 62
     7
370
     9
100
AcDbPolyline
 90
        4
 70
     1
 43
0.4
 10
589.7155668487819
 20
-269.1118588819365
 42
0.4142135623731
 10
589.5155668487819
 20
-268.9118588819366
 42
0.4142135623731
 10
589.3155668487818
 20
-269.1118588819365
 42
0.4142135623731
 10
589.5155668487819
 20
-269.3118588819365
 42
0.4142135623731
  0
LINE
  5
1C5
330
1F
100
AcDbEntity
  8
その他
  6
Continuous
 62
     7
370
     9
100
AcDbLine
 10
588.315566848782
 20
-275.1116113242845
 30
0.0
 11
607.0020548473199
 21
-275.1116113242845
 31
0.0
  0
LINE
  5
1C6
330
1F
100
AcDbEntity
  8
その他
  6
Continuous
 62
     7
370
     9
100
AcDbLine
 10
588.315566848782
 20
-269.1118588819365
 30
0.0
 11
607.0018074074965
 21
-269.1118588819365
 31
0.0
  0
LINE
  5
1C7
330
1F
100
AcDbEntity
  8
その他
  6
Continuous
 62
     7
370
     9
100
AcDbLine
 10
589.5155668487819
 20
-269.1118588819365
 30
0.0
 11
589.5155668487819
 21
-264.6119182674913
 31
0.0
  0
LWPOLYLINE
  5
1C8
330
1F
100
AcDbEntity
  8
その他
  6
Continuous
 62
     7
370
     9
100
AcDbPolyline
 90
        4
 70
     1
 43
0.4
 10
589.7155668487819
 20
-264.6119182674913
 42
0.4142135623731
 10
589.5155668487819
 20
-264.4119182674913
 42
0.4142135623731
 10
589.3155668487818
 20
-264.6119182674913
 42
0.4142135623731
 10
589.5155668487819
 20
-264.8119182674913
 42
0.4142135623731
  0
LINE
  5
1C9
330
1F
100
AcDbEntity
  8
その他
  6
Continuous
 62
     7
370
     9
100
AcDbLine
 10
588.315566848782
 20
-264.6119182674913
 30
0.0
 11
607.0018074074965
 21
-264.6119182674913
 31
0.0
  0
LINE
  5
1CA
330
1F
100
AcDbEntity
  8
その他
  6
Continuous
 62
     7
370
     9
100
AcDbLine
 10
589.5155668487819
 20
-264.6119182674913
 30
0.0
 11
589.5155668487819
 21
-258.6117396395086
 31
0.0
  0
LWPOLYLINE
  5
1CB
330
1F
100
AcDbEntity
  8
その他
  6
Continuous
 62
     7
370
     9
100
AcDbPolyline
 90
        4
 70
     1
 43
0.4
 10
589.7155668487819
 20
-258.6117396395086
 42
0.4142135623731
 10
589.5155668487819
 20
-258.4117396395087
 42
0.4142135623731
 10
589.3155668487818
 20
-258.6117396395086
 42
0.4142135623731
 10
589.5155668487819
 20
-258.8117396395086
 42
0.4142135623731
  0
LINE
  5
1CC
330
1F
100
AcDbEntity
  8
その他
  6
Continuous
 62
     7
370
     9
100
AcDbLine
 10
588.315566848782
 20
-258.6117396395086
 30
0.0
 11
607.0018074074965
 21
-258.6117396395086
 31
0.0
  0
LINE
  5
1CD
330
1F
100
AcDbEntity
  8
その他
  6
Continuous
 62
     7
370
     9
100
AcDbLine
 10
589.5155668487819
 20
-266.8618885747139
 30
0.0
 11
565.5469468184274
 21
-275.0421938783422
 31
0.0
  0
LINE
  5
1CE
330
1F
100
AcDbEntity
  8
その他
  6
Continuous
 62
     7
370
     9
100
AcDbLine
 10
565.5469468184274
 20
-275.0421938783422
 30
0.0
 11
565.5469468184274
 21
-308.7702855095738
 31
0.0
  0
TEXT
  5
1CF
330
1F
100
AcDbEntity
  8
その他
  6
Continuous
 62
     2
370
   211
100
AcDbText
 10
562.7519395737253
 20
-304.1206653054032
 30
0.0
 40
12.192
  1
4.5
 50
90.0
 41
1.083333333333333
  7
ＭＳ ゴシック
100
AcDbText
  0
TEXT
  5
1D0
330
1F
100
AcDbEntity
  8
その他
  6
Continuous
 62
     2
370
   211
100
AcDbText
 10
584.8595668487818
 20
-286.3130575621915
 30
0.0
 40
12.192
  1
6
 50
90.0
  7
ＭＳ ゴシック
100
AcDbText
  0
TEXT
  5
1D1
330
1F
100
AcDbEntity
  8
その他
  6
Continuous
 62
     2
370
   211
100
AcDbText
 10
584.8595668487818
 20
-255.6240493319378
 30
0.0
 40
12.192
  1
6
 50
90.0
  7
ＭＳ ゴシック
100
AcDbText
  0
LINE
  5
1D2
330
1F
100
AcDbEntity
  8
その他
  6
Continuous
 62
     7
370
     9
100
AcDbLine
 10
589.5155668487819
 20
-258.6117396395086
 30
0.0
 11
589.5155668487819
 21
-246.2569133634181
 31
0.0
  0
LINE
  5
1D3
330
1F
100
AcDbEntity
  8
その他
  6
Continuous
 62
     7
370
     9
100
AcDbLine
 10
589.5155668487819
 20
-275.1116113242845
 30
0.0
 11
589.5155668487819
 21
-290.7078086924403
 31
0.0
  0
LINE
  5
1D4
330
1F
100
AcDbEntity
  8
その他
  6
Continuous
 62
     7
370
     9
100
AcDbLine
 10
468.832282703444
 20
-271.6118588819365
 30
0.0
 11
546.3261778371475
 21
-271.6118588819365
 31
0.0
  0
LINE
  5
1D5
330
1F
100
AcDbEntity
  8
その他
  6
Continuous
 62
     7
370
     9
100
AcDbLine
 10
519.3814142531069
 20
-254.1117990250634
 30
0.0
 11
546.3261778371475
 21
-254.1117990250634
 31
0.0
  0
LINE
  5
1D6
330
1F
100
AcDbEntity
  8
その他
  6
Continuous
 62
     7
370
     9
100
AcDbLine
 10
468.832282703444
 20
-275.1116113242845
 30
0.0
 11
546.3261778371475
 21
-275.1116113242845
 31
0.0
  0
LINE
  5
1D7
330
1F
100
AcDbEntity
  8
その他
  6
Continuous
 62
     7
370
     9
100
AcDbLine
 10
432.6041149159364
 20
-281.1115321435411
 30
0.0
 11
546.3261778371475
 21
-281.1115321435411
 31
0.0
  0
TEXT
  5
1D8
330
1F
100
AcDbEntity
  8
その他
  6
Continuous
 62
     2
370
   211
100
AcDbText
 10
465.3762827034437
 20
-294.6519010261015
 30
0.0
 40
12.192
  1
6
 50
90.0
  7
ＭＳ ゴシック
100
AcDbText
  0
LINE
  5
1D9
330
1F
100
AcDbEntity
  8
その他
  6
Continuous
 62
     7
370
     9
100
AcDbLine
 10
470.0322827034438
 20
-281.1115321435411
 30
0.0
 11
470.0322827034438
 21
-297.6704634464734
 31
0.0
  0
TEXT
  5
1DA
330
1F
100
AcDbEntity
  8
その他
  6
Continuous
 62
     2
370
   211
100
AcDbText
 10
465.3762827034437
 20
-275.9905079575769
 30
0.0
 40
12.192
  1
3.5
 50
90.0
 41
1.083333333333333
  7
ＭＳ ゴシック
100
AcDbText
  0
LWPOLYLINE
  5
1DB
330
1F
100
AcDbEntity
  8
その他
  6
Continuous
 62
     7
370
     9
100
AcDbPolyline
 90
        4
 70
     1
 43
0.4
 10
434.0041149159362
 20
88.88836888053171
 42
0.4142135623731
 10
433.8041149159362
 20
89.08836888053172
 42
0.4142135623731
 10
433.6041149159362
 20
88.88836888053171
 42
0.4142135623731
 10
433.8041149159362
 20
88.68836888053171
 42
0.4142135623731
  0
LINE
  5
1DC
330
1F
100
AcDbEntity
  8
その他
  6
Continuous
 62
     7
370
     9
100
AcDbLine
 10
432.6041149159364
 20
88.88836888053171
 30
0.0
 11
607.0020548473199
 21
88.88836888053171
 31
0.0
  0
LINE
  5
1DD
330
1F
100
AcDbEntity
  8
その他
  6
Continuous
 62
     7
370
     9
100
AcDbLine
 10
470.0322827034438
 20
88.88836888053171
 30
0.0
 11
470.0322827034438
 21
82.88844806127506
 31
0.0
  0
LWPOLYLINE
  5
1DE
330
1F
100
AcDbEntity
  8
その他
  6
Continuous
 62
     7
370
     9
100
AcDbPolyline
 90
        4
 70
     1
 43
0.4
 10
470.2322827034438
 20
88.88836888053171
 42
0.4142135623731
 10
470.0322827034438
 20
89.08836888053172
 42
0.4142135623731
 10
469.8322827034438
 20
88.88836888053171
 42
0.4142135623731
 10
470.0322827034438
 20
88.68836888053171
 42
0.4142135623731
  0
LWPOLYLINE
  5
1DF
330
1F
100
AcDbEntity
  8
その他
  6
Continuous
 62
     7
370
     9
100
AcDbPolyline
 90
        4
 70
     1
 43
0.4
 10
470.2322827034438
 20
82.88844806127506
 42
0.4142135623731
 10
470.0322827034438
 20
83.08844806127506
 42
0.4142135623731
 10
469.8322827034438
 20
82.88844806127506
 42
0.4142135623731
 10
470.0322827034438
 20
82.68844806127505
 42
0.4142135623731
  0
LINE
  5
1E0
330
1F
100
AcDbEntity
  8
その他
  6
Continuous
 62
     7
370
     9
100
AcDbLine
 10
468.832282703444
 20
82.88844806127506
 30
0.0
 11
607.0020548473199
 21
82.88844806127506
 31
0.0
  0
LINE
  5
1E1
330
1F
100
AcDbEntity
  8
その他
  6
Continuous
 62
     7
370
     9
100
AcDbLine
 10
470.0322827034438
 20
82.88844806127506
 30
0.0
 11
470.0322827034438
 21
79.38875747887911
 31
0.0
  0
LWPOLYLINE
  5
1E2
330
1F
100
AcDbEntity
  8
その他
  6
Continuous
 62
     7
370
     9
100
AcDbPolyline
 90
        4
 70
     1
 43
0.4
 10
470.2322827034438
 20
79.38875747887911
 42
0.4142135623731
 10
470.0322827034438
 20
79.58875747887912
 42
0.4142135623731
 10
469.8322827034438
 20
79.38875747887911
 42
0.4142135623731
 10
470.0322827034438
 20
79.18875747887911
 42
0.4142135623731
  0
LWPOLYLINE
  5
1E3
330
1F
100
AcDbEntity
  8
その他
  6
Continuous
 62
     7
370
     9
100
AcDbPolyline
 90
        4
 70
     1
 43
0.4
 10
520.7814142531067
 20
61.88869762200963
 42
0.4142135623731
 10
520.5814142531067
 20
62.08869762200963
 42
0.4142135623731
 10
520.3814142531066
 20
61.88869762200963
 42
0.4142135623731
 10
520.5814142531067
 20
61.68869762200963
 42
0.4142135623731
  0
LINE
  5
1E4
330
1F
100
AcDbEntity
  8
その他
  6
Continuous
 62
     7
370
     9
100
AcDbLine
 10
519.3814142531069
 20
61.88869762200963
 30
0.0
 11
607.0018074074965
 21
61.88869762200963
 31
0.0
  0
LINE
  5
1E5
330
1F
100
AcDbEntity
  8
その他
  6
Continuous
 62
     7
370
     9
100
AcDbLine
 10
468.832282703444
 20
79.38875747887911
 30
0.0
 11
607.0020548473199
 21
79.38875747887911
 31
0.0
  0
TEXT
  5
1E6
330
1F
100
AcDbEntity
  8
その他
  6
Continuous
 62
     2
370
   211
100
AcDbText
 10
465.3762827034437
 20
95.10330852416766
 30
0.0
 40
12.192
  1
6
 50
90.0
  7
ＭＳ ゴシック
100
AcDbText
  0
TEXT
  5
1E7
330
1F
100
AcDbEntity
  8
その他
  6
Continuous
 62
     2
370
   211
100
AcDbText
 10
465.3762827034437
 20
60.50619852045858
 30
0.0
 40
12.192
  1
3.5
 50
90.0
 41
1.083333333333333
  7
ＭＳ ゴシック
100
AcDbText
  0
LINE
  5
1E8
330
1F
100
AcDbEntity
  8
その他
  6
Continuous
 62
     7
370
     9
100
AcDbLine
 10
470.0322827034438
 20
88.88836888053171
 30
0.0
 11
470.0322827034438
 21
105.2961577186136
 31
0.0
  0
TEXT
  5
1E9
330
1F
100
AcDbEntity
  8
寸法
  6
Continuous
 62
     7
370
     0
100
AcDbText
 10
319.2658247639058
 20
215.7149804410613
 30
0.0
 40
9.144
  1
モルタル止め：ｔ＝１.０
 41
1.152173913043478
  7
ＭＳ ゴシック
100
AcDbText
  0
TEXT
  5
1EA
330
1F
100
AcDbEntity
  8
寸法
  6
Continuous
 62
     7
370
     0
100
AcDbText
 10
352.1763208123787
 20
197.3938285999423
 30
0.0
 40
9.144
  1
ＳＵＳ４３０
 41
1.138888888888864
  7
ＭＳ ゴシック
100
AcDbText
  0
LINE
  5
1EB
330
1F
100
AcDbEntity
  8
寸法
  6
Continuous
 62
     7
370
     9
100
AcDbLine
 10
479.3487497440231
 20
210.4329647168611
 30
0.0
 11
643.0021752680336
 21
-73.02308312341441
 31
0.0
  0
LINE
  5
1EC
330
1F
100
AcDbEntity
  8
寸法
  6
Continuous
 62
     7
370
     9
100
AcDbLine
 10
317.8702722406299
 20
210.4329647168611
 30
0.0
 11
479.3487497440231
 21
210.4329647168611
 31
0.0
  0
LINE
  5
1ED
330
1F
100
AcDbEntity
  8
寸法
  6
Continuous
 62
     7
370
     9
100
AcDbLine
 10
486.2529618481963
 20
158.2364877423581
 30
0.0
 11
615.0018074074965
 21
-64.76305418218931
 31
0.0
  0
LINE
  5
1EE
330
1F
100
AcDbEntity
  8
寸法
  6
Continuous
 62
     7
370
     9
100
AcDbLine
 10
372.909325798963
 20
158.2364877423581
 30
0.0
 11
486.2529618481963
 21
158.2364877423581
 31
0.0
  0
TEXT
  5
1EF
330
1F
100
AcDbEntity
  8
寸法
  6
Continuous
 62
     7
370
     0
100
AcDbText
 10
382.0666585303875
 20
163.8560480544588
 30
0.0
 40
9.144
  1
蓋：ＳＳ４００
 41
1.142857142857143
  7
ＭＳ ゴシック
100
AcDbText
  0
TEXT
  5
1F0
330
1F
100
AcDbEntity
  8
寸法
  6
Continuous
 62
     7
370
     0
100
AcDbText
 10
367.3653415643572
 20
145.2711484546705
 30
0.0
 40
9.144
  1
（溶融亜鉛めっき）
 41
1.148148148148148
  7
ＭＳ ゴシック
100
AcDbText
  0
LINE
  5
1F1
330
1F
100
AcDbEntity
  8
その他
  6
Continuous
 62
     7
370
     9
100
AcDbLine
 10
615.0019756665765
 20
-186.8847878018739
 30
0.0
 11
653.0021752680341
 21
-186.8847878018739
 31
0.0
  0
LWPOLYLINE
  5
1F2
330
1F
100
AcDbEntity
  8
その他
  6
Continuous
 62
     7
370
     9
100
AcDbPolyline
 90
        4
 70
     1
 43
0.4
 10
615.2019756665766
 20
-186.8847878018739
 42
0.4142135623731
 10
615.0019756665765
 20
-186.6847878018739
 42
0.4142135623731
 10
614.8019756665765
 20
-186.8847878018739
 42
0.4142135623731
 10
615.0019756665765
 20
-187.0847878018739
 42
0.4142135623731
  0
LWPOLYLINE
  5
1F3
330
1F
100
AcDbEntity
  8
その他
  6
Continuous
 62
     7
370
     9
100
AcDbPolyline
 90
        4
 70
     1
 43
0.4
 10
653.2021752680341
 20
-186.8847878018739
 42
0.4142135623731
 10
653.0021752680341
 20
-186.6847878018739
 42
0.4142135623731
 10
652.802175268034
 20
-186.8847878018739
 42
0.4142135623731
 10
653.0021752680341
 20
-187.0847878018739
 42
0.4142135623731
  0
TEXT
  5
1F4
330
1F
100
AcDbEntity
  8
その他
  6
Continuous
 62
     2
370
   211
100
AcDbText
 10
625.5020754673055
 20
-182.2287878018738
 30
0.0
 40
12.192
  1
38
 41
1.0625
  7
ＭＳ ゴシック
100
AcDbText
  0
LINE
  5
1F5
330
1F
100
AcDbEntity
  8
その他
  6
Continuous
 62
     7
370
     9
100
AcDbLine
 10
653.0021752680341
 20
-186.8847878018739
 30
0.0
 11
656.2021907742633
 21
-186.8847878018739
 31
0.0
  0
LWPOLYLINE
  5
1F6
330
1F
100
AcDbEntity
  8
その他
  6
Continuous
 62
     7
370
     9
100
AcDbPolyline
 90
        4
 70
     1
 43
0.4
 10
656.4021907742633
 20
-186.8847878018739
 42
0.4142135623731
 10
656.2021907742633
 20
-186.6847878018739
 42
0.4142135623731
 10
656.0021907742632
 20
-186.8847878018739
 42
0.4142135623731
 10
656.2021907742633
 20
-187.0847878018739
 42
0.4142135623731
  0
LINE
  5
1F7
330
1F
100
AcDbEntity
  8
その他
  6
Continuous
 62
     7
370
     9
100
AcDbLine
 10
615.0019756665765
 20
-160.8748211852017
 30
0.0
 11
643.0021752680341
 21
-160.8748211852017
 31
0.0
  0
LWPOLYLINE
  5
1F8
330
1F
100
AcDbEntity
  8
その他
  6
Continuous
 62
     7
370
     9
100
AcDbPolyline
 90
        4
 70
     1
 43
0.4
 10
615.2019756665766
 20
-160.8748211852017
 42
0.4142135623731
 10
615.0019756665765
 20
-160.6748211852017
 42
0.4142135623731
 10
614.8019756665765
 20
-160.8748211852017
 42
0.4142135623731
 10
615.0019756665765
 20
-161.0748211852016
 42
0.4142135623731
  0
LWPOLYLINE
  5
1F9
330
1F
100
AcDbEntity
  8
その他
  6
Continuous
 62
     7
370
     9
100
AcDbPolyline
 90
        4
 70
     1
 43
0.4
 10
643.2021752680341
 20
-160.8748211852017
 42
0.4142135623731
 10
643.0021752680341
 20
-160.6748211852017
 42
0.4142135623731
 10
642.802175268034
 20
-160.8748211852017
 42
0.4142135623731
 10
643.0021752680341
 20
-161.0748211852016
 42
0.4142135623731
  0
TEXT
  5
1FA
330
1F
100
AcDbEntity
  8
その他
  6
Continuous
 62
     2
370
   211
100
AcDbText
 10
620.5020754673055
 20
-156.2188211852016
 30
0.0
 40
12.192
  1
28
 41
1.0625
  7
ＭＳ ゴシック
100
AcDbText
  0
LINE
  5
1FB
330
1F
100
AcDbEntity
  8
その他
  6
Continuous
 62
     7
370
     9
100
AcDbLine
 10
643.0021752680341
 20
-162.0748211852017
 30
0.0
 11
643.0021752680341
 21
-127.1999976596558
 31
0.0
  0
LWPOLYLINE
  5
1FC
330
1F
100
AcDbEntity
  8
その他
  6
Continuous
 62
     7
370
     9
100
AcDbPolyline
 90
        4
 70
     1
 43
0.4
 10
783.6716146411766
 20
-221.1115816315056
 42
0.4142135623731
 10
783.4716146411765
 20
-220.9115816315056
 42
0.4142135623731
 10
783.2716146411765
 20
-221.1115816315056
 42
0.4142135623731
 10
783.4716146411765
 20
-221.3115816315056
 42
0.4142135623731
  0
LINE
  5
1FD
330
1F
100
AcDbEntity
  8
その他
  6
Continuous
 62
     7
370
     9
100
AcDbLine
 10
783.4716146411765
 20
-221.1115816315056
 30
0.0
 11
783.4716146411765
 21
-281.111532143541
 31
0.0
  0
LWPOLYLINE
  5
1FE
330
1F
100
AcDbEntity
  8
その他
  6
Continuous
 62
     7
370
     9
100
AcDbPolyline
 90
        4
 70
     1
 43
0.4
 10
783.6716146411766
 20
-281.111532143541
 42
0.4142135623731
 10
783.4716146411765
 20
-280.911532143541
 42
0.4142135623731
 10
783.2716146411765
 20
-281.111532143541
 42
0.4142135623731
 10
783.4716146411765
 20
-281.311532143541
 42
0.4142135623731
  0
TEXT
  5
1FF
330
1F
100
AcDbEntity
  8
その他
  6
Continuous
 62
     2
370
   211
100
AcDbText
 10
778.8156146411765
 20
-259.6115568875233
 30
0.0
 40
12.192
  1
60
 50
90.0
 41
1.0625
  7
ＭＳ ゴシック
100
AcDbText
  0
LINE
  5
200
330
1F
100
AcDbEntity
  8
その他
  6
Continuous
 62
     7
370
     9
100
AcDbLine
 10
784.6716146411763
 20
-281.111532143541
 30
0.0
 11
716.2985535351727
 21
-281.111532143541
 31
0.0
  0
LINE
  5
201
330
1F
100
AcDbEntity
  8
その他
  6
Continuous
 62
     7
370
     9
100
AcDbLine
 10
784.6716146411763
 20
-221.1115816315056
 30
0.0
 11
716.2985535351727
 21
-221.1115816315056
 31
0.0
  0
LINE
  5
202
330
1F
100
AcDbEntity
  8
その他
  6
Continuous
 62
     7
370
     9
100
AcDbLine
 10
783.4716146411765
 20
88.88838950051488
 30
0.0
 11
783.4716146411765
 21
28.88850084843531
 31
0.0
  0
LWPOLYLINE
  5
203
330
1F
100
AcDbEntity
  8
その他
  6
Continuous
 62
     7
370
     9
100
AcDbPolyline
 90
        4
 70
     1
 43
0.4
 10
783.6716146411766
 20
88.88838950051488
 42
0.4142135623731
 10
783.4716146411765
 20
89.08838950051488
 42
0.4142135623731
 10
783.2716146411765
 20
88.88838950051488
 42
0.4142135623731
 10
783.4716146411765
 20
88.68838950051487
 42
0.4142135623731
  0
LWPOLYLINE
  5
204
330
1F
100
AcDbEntity
  8
その他
  6
Continuous
 62
     7
370
     9
100
AcDbPolyline
 90
        4
 70
     1
 43
0.4
 10
783.6716146411766
 20
28.88850084843531
 42
0.4142135623731
 10
783.4716146411765
 20
29.08850084843531
 42
0.4142135623731
 10
783.2716146411765
 20
28.88850084843531
 42
0.4142135623731
 10
783.4716146411765
 20
28.68850084843531
 42
0.4142135623731
  0
TEXT
  5
205
330
1F
100
AcDbEntity
  8
その他
  6
Continuous
 62
     2
370
   211
100
AcDbText
 10
778.8156146411765
 20
50.38844517447521
 30
0.0
 40
12.192
  1
60
 50
90.0
 41
1.0625
  7
ＭＳ ゴシック
100
AcDbText
  0
LINE
  5
206
330
1F
100
AcDbEntity
  8
その他
  6
Continuous
 62
     7
370
     9
100
AcDbLine
 10
784.6716146411763
 20
28.88850084843531
 30
0.0
 11
716.2985535351727
 21
28.88850084843531
 31
0.0
  0
LINE
  5
207
330
1F
100
AcDbEntity
  8
その他
  6
Continuous
 62
     7
370
     9
100
AcDbLine
 10
784.6716146411763
 20
88.88838950051488
 30
0.0
 11
716.2985535351727
 21
88.88838950051488
 31
0.0
  0
LWPOLYLINE
  5
208
330
1F
100
AcDbEntity
  8
その他
  6
Continuous
 62
     7
370
     9
100
AcDbPolyline
 90
        4
 70
     1
 43
0.4
 10
615.2020548473199
 20
191.3596416424755
 42
0.4142135623731
 10
615.0020548473199
 20
191.5596416424755
 42
0.4142135623731
 10
614.8020548473198
 20
191.3596416424755
 42
0.4142135623731
 10
615.0020548473199
 20
191.1596416424755
 42
0.4142135623731
  0
LINE
  5
209
330
1F
100
AcDbEntity
  8
その他
  6
Continuous
 62
     7
370
     9
100
AcDbLine
 10
615.0020548473199
 20
192.5596416424758
 30
0.0
 11
615.0020548473199
 21
96.88845136047075
 31
0.0
  0
LWPOLYLINE
  5
20A
330
1F
100
AcDbEntity
  8
その他
  6
Continuous
 62
     7
370
     9
100
AcDbPolyline
 90
        4
 70
     1
 43
0.4
 10
615.2020548473199
 20
151.6479961830921
 42
0.4142135623731
 10
615.0020548473199
 20
151.8479961830921
 42
0.4142135623731
 10
614.8020548473198
 20
151.6479961830921
 42
0.4142135623731
 10
615.0020548473199
 20
151.4479961830921
 42
0.4142135623731
  0
LWPOLYLINE
  5
20B
330
1F
100
AcDbEntity
  8
その他
  6
Continuous
 62
     7
370
     9
100
AcDbPolyline
 90
        4
 70
     1
 43
0.4
 10
706.4021874750649
 20
191.3596416424755
 42
0.4142135623731
 10
706.2021874750649
 20
191.5596416424755
 42
0.4142135623731
 10
706.0021874750648
 20
191.3596416424755
 42
0.4142135623731
 10
706.2021874750649
 20
191.1596416424755
 42
0.4142135623731
  0
LWPOLYLINE
  5
20C
330
1F
100
AcDbEntity
  8
その他
  6
Continuous
 62
     7
370
     9
100
AcDbPolyline
 90
        4
 70
     1
 43
0.4
 10
700.4022666558083
 20
151.6479961830921
 42
0.4142135623731
 10
700.2022666558082
 20
151.8479961830921
 42
0.4142135623731
 10
700.0022666558082
 20
151.6479961830921
 42
0.4142135623731
 10
700.2022666558082
 20
151.4479961830921
 42
0.4142135623731
  0
LINE
  5
20D
330
1F
100
AcDbEntity
  8
その他
  6
Continuous
 62
     7
370
     9
100
AcDbLine
 10
700.2022666558082
 20
152.8479961830919
 30
0.0
 11
700.2022666558082
 21
106.0144386815196
 31
0.0
  0
LINE
  5
20E
330
1F
100
AcDbEntity
  8
その他
  6
Continuous
 62
     7
370
     9
100
AcDbLine
 10
706.2021874750649
 20
192.5596416424758
 30
0.0
 11
706.2021874750649
 21
106.0144386815196
 31
0.0
  0
LINE
  5
20F
330
1F
100
AcDbEntity
  8
その他
  6
Continuous
 62
     7
370
     9
100
AcDbLine
 10
433.8041149159362
 20
88.88836888053171
 30
0.0
 11
433.8041149159362
 21
-281.1115321435411
 31
0.0
  0
TEXT
  5
210
330
1F
100
AcDbEntity
  8
その他
  6
Continuous
 62
     2
370
   211
100
AcDbText
 10
429.1481149159362
 20
-109.1115816315047
 30
0.0
 40
12.192
  1
370
 50
90.0
 41
1.083333333333333
  7
ＭＳ ゴシック
100
AcDbText
  0
LINE
  5
211
330
1F
100
AcDbEntity
  8
その他
  6
Continuous
 62
     7
370
     9
100
AcDbLine
 10
470.0322827034438
 20
79.38875747887911
 30
0.0
 11
470.0322827034438
 21
-271.6118588819365
 31
0.0
  0
TEXT
  5
212
330
1F
100
AcDbEntity
  8
その他
  6
Continuous
 62
     2
370
   211
100
AcDbText
 10
465.3762827034437
 20
-109.1115507015287
 30
0.0
 40
12.192
  1
351
 50
90.0
 41
1.083333333333333
  7
ＭＳ ゴシック
100
AcDbText
  0
LINE
  5
213
330
1F
100
AcDbEntity
  8
その他
  6
Continuous
 62
     7
370
     9
100
AcDbLine
 10
520.5814142531067
 20
61.88869762200963
 30
0.0
 11
520.5814142531067
 21
-254.1117990250634
 31
0.0
  0
TEXT
  5
214
330
1F
100
AcDbEntity
  8
その他
  6
Continuous
 62
     2
370
   211
100
AcDbText
 10
515.9254142531066
 20
-109.1115507015269
 30
0.0
 40
12.192
  1
316
 50
90.0
 41
1.083333333333333
  7
ＭＳ ゴシック
100
AcDbText
  0
LINE
  5
215
330
1F
100
AcDbEntity
  8
その他
  6
Continuous
 62
     7
370
     9
100
AcDbLine
 10
783.4716146411765
 20
28.88850084843531
 30
0.0
 11
783.4716146411765
 21
-221.1115816315056
 31
0.0
  0
TEXT
  5
216
330
1F
100
AcDbEntity
  8
その他
  6
Continuous
 62
     2
370
   211
100
AcDbText
 10
778.8156146411765
 20
-109.1115403915352
 30
0.0
 40
12.192
  1
250
 50
90.0
 41
1.083333333333333
  7
ＭＳ ゴシック
100
AcDbText
  0
LINE
  5
217
330
1F
100
AcDbEntity
  8
その他
  6
Continuous
 62
     7
370
     9
100
AcDbLine
 10
615.0020548473199
 20
151.6479961830921
 30
0.0
 11
700.2022666558082
 21
151.6479961830921
 31
0.0
  0
TEXT
  5
218
330
1F
100
AcDbEntity
  8
その他
  6
Continuous
 62
     2
370
   211
100
AcDbText
 10
640.102160751564
 20
156.303996183092
 30
0.0
 40
12.192
  1
85.2
 41
1.09375
  7
ＭＳ ゴシック
100
AcDbText
  0
LINE
  5
219
330
1F
100
AcDbEntity
  8
その他
  6
Continuous
 62
     7
370
     9
100
AcDbLine
 10
615.0020548473199
 20
191.3596416424755
 30
0.0
 11
706.2021874750649
 21
191.3596416424755
 31
0.0
  0
TEXT
  5
21A
330
1F
100
AcDbEntity
  8
その他
  6
Continuous
 62
     2
370
   211
100
AcDbText
 10
643.1021211611924
 20
196.0156416424756
 30
0.0
 40
12.192
  1
91.2
 41
1.09375
  7
ＭＳ ゴシック
100
AcDbText
  0
TEXT
  5
21B
330
1F
100
AcDbEntity
  8
寸法
  6
Continuous
 62
     7
370
     0
100
AcDbText
 10
339.405891434772
 20
272.0281983716566
 30
0.0
 40
9.144
  1
受枠：Ｌ－８６Ｚ　ｔ＝６．０
 41
1.154761904761905
  7
ＭＳ ゴシック
100
AcDbText
  0
TEXT
  5
21C
330
1F
100
AcDbEntity
  8
F-4ﾚｲﾔ
  6
Continuous
 62
     2
370
     9
100
AcDbText
 10
121.5518978630822
 20
-777.8398842462342
 30
0.0
 40
12.192
  1
側溝用　ＨＥＳＭ－１４－３５６０＋Ｌ－８６Ｚ
 41
1.119318181818182
  7
ＭＳ ゴシック
100
AcDbText
  0
TEXT
  5
21D
330
1F
100
AcDbEntity
  8
F-5ﾚｲﾔ
  6
Continuous
 62
     2
370
     9
100
AcDbText
 10
63.34966572385588
 20
703.171871598609
 30
0.0
 40
12.192
  1
250mm
 41
1.1
  7
ＭＳ ゴシック
100
AcDbText
  0
TEXT
  5
21E
330
1F
100
AcDbEntity
  8
F-Fﾚｲﾔ
  6
Continuous
 62
     2
370
     9
100
AcDbText
 10
63.34966572385588
 20
575.171871598609
 30
0.0
 40
12.192
  1
寸法 幅351×長さ598×高さ85.2
 41
1.120689655172414
  7
ＭＳ ゴシック
100
AcDbText
  0
TEXT
  5
21F
330
1F
100
AcDbEntity
  8
F-Fﾚｲﾔ
  6
Continuous
 62
     2
370
     9
100
AcDbText
 10
63.34966572385588
 20
543.171871598609
 30
0.0
 40
12.192
  1
蓋質量　11.8kg
 41
1.116071428571429
  7
ＭＳ ゴシック
100
AcDbText
  0
TEXT
  5
220
330
1F
100
AcDbEntity
  8
F-Fﾚｲﾔ
  6
Continuous
 62
     2
370
     9
100
AcDbText
 10
63.34966572385588
 20
479.1718715986091
 30
0.0
 40
12.192
  1
寸法 幅370×長さ2000×高さ91.2
 41
1.120833333333333
  7
ＭＳ ゴシック
100
AcDbText
  0
TEXT
  5
221
330
1F
100
AcDbEntity
  8
F-Fﾚｲﾔ
  6
Continuous
 62
     2
370
     9
100
AcDbText
 10
63.34966572385588
 20
415.1718715986091
 30
0.0
 40
12.192
  1
蓋　：HESM-14-3560
 41
1.118055555555556
  7
ＭＳ ゴシック
100
AcDbText
  0
TEXT
  5
222
330
1F
100
AcDbEntity
  8
F-Fﾚｲﾔ
  6
Continuous
 62
     2
370
     9
100
AcDbText
 10
63.34966572385582
 20
383.1718715986091
 30
0.0
 40
12.192
  1
受枠：L-86Z
 41
1.113636363636364
  7
ＭＳ ゴシック
100
AcDbText
  0
LWPOLYLINE
  5
223
330
1F
100
AcDbEntity
  8
その他
  6
Continuous
 62
     7
370
     9
100
AcDbPolyline
 90
        4
 70
     1
 43
0.4
 10
700.4022666558083
 20
-186.8847878018739
 42
0.4142135623731
 10
700.2022666558082
 20
-186.6847878018739
 42
0.4142135623731
 10
700.0022666558082
 20
-186.8847878018739
 42
0.4142135623731
 10
700.2022666558082
 20
-187.0847878018739
 42
0.4142135623731
  0
LINE
  5
224
330
1F
100
AcDbEntity
  8
その他
  6
Continuous
 62
     7
370
     9
100
AcDbLine
 10
656.2021907742633
 20
-186.8847878018739
 30
0.0
 11
700.2022666558082
 21
-186.8847878018739
 31
0.0
  0
TEXT
  5
225
330
1F
100
AcDbEntity
  8
その他
  6
Continuous
 62
     2
370
   211
100
AcDbText
 10
669.7022287150357
 20
-182.2287878018738
 30
0.0
 40
12.192
  1
44
 41
1.0625
  7
ＭＳ ゴシック
100
AcDbText
  0
TEXT
  5
226
330
1F
100
AcDbEntity
  8
その他
  6
Continuous
 62
     2
370
   211
100
AcDbText
 10
660.9209394325818
 20
-159.2626101635152
 30
0.0
 40
12.192
  1
3.2
 41
1.083333333333333
  7
ＭＳ ゴシック
100
AcDbText
  0
LINE
  5
227
330
1F
100
AcDbEntity
  8
その他
  6
Continuous
 62
     7
370
     9
100
AcDbLine
 10
654.6021830211489
 20
-186.8847878018739
 30
0.0
 11
660.8471466887519
 21
-162.4131328249352
 31
0.0
  0
LINE
  5
228
330
1F
100
AcDbEntity
  8
その他
  6
Continuous
 62
     7
370
     9
100
AcDbLine
 10
660.8471466887519
 20
-162.4131328249352
 30
0.0
 11
686.031400079498
 21
-162.4131328249352
 31
0.0
  0
ENDSEC
  0
SECTION
  2
OBJECTS
  0
DICTIONARY
  5
C
330
0
100
AcDbDictionary
281
     1
  3
ACAD_GROUP
350
D
  3
ACAD_LAYOUT
350
1A
  3
ACAD_MLEADERSTYLE
350
22A
  3
ACAD_MLINESTYLE
350
17
  3
ACAD_PLOTSETTINGS
350
19
  3
ACAD_PLOTSTYLENAME
350
E
  3
ACAD_TABLESTYLE
350
229
  3
ACAD_VISUALSTYLE
350
2A
  0
DICTIONARY
  5
D
102
{ACAD_REACTORS
330
C
102
}
330
C
100
AcDbDictionary
281
     1
  0
DICTIONARY
  5
1A
102
{ACAD_REACTORS
330
C
102
}
330
C
100
AcDbDictionary
281
     1
  3
Layout1
350
1E
  3
Layout2
350
26
  3
Model
350
22
  0
DICTIONARY
  5
22A
102
{ACAD_REACTORS
330
C
102
}
330
C
100
AcDbDictionary
281
     1
  0
DICTIONARY
  5
17
102
{ACAD_REACTORS
330
C
102
}
330
C
100
AcDbDictionary
281
     1
  3
Standard
350
18
  0
DICTIONARY
  5
19
102
{ACAD_REACTORS
330
C
102
}
330
C
100
AcDbDictionary
281
     1
  0
ACDBDICTIONARYWDFLT
  5
E
102
{ACAD_REACTORS
330
C
102
}
330
C
100
AcDbDictionary
281
     1
  3
Normal
350
F
100
AcDbDictionaryWithDefault
340
F
  0
DICTIONARY
  5
229
102
{ACAD_REACTORS
330
C
102
}
330
C
100
AcDbDictionary
281
     1
  0
DICTIONARY
  5
2A
102
{ACAD_REACTORS
330
C
102
}
330
C
100
AcDbDictionary
281
     1
  3
2dWireframe
350
2F
  3
3D Hidden
350
31
  3
3dWireframe
350
30
  3
Basic
350
32
  3
Brighten
350
36
  3
ColorChange
350
3A
  3
Conceptual
350
34
  3
Dim
350
35
  3
Facepattern
350
39
  3
Flat
350
2B
  3
FlatWithEdges
350
2C
  3
Gouraud
350
2D
  3
GouraudWithEdges
350
2E
  3
Linepattern
350
38
  3
Realistic
350
33
  3
Thicken
350
37
  0
LAYOUT
  5
1E
102
{ACAD_REACTORS
330
1A
102
}
330
1A
100
AcDbPlotSettings
  1

  2
none_device
  4

  6

 40
0.0
 41
0.0
 42
0.0
 43
0.0
 44
0.0
 45
0.0
 46
0.0
 47
0.0
 48
0.0
 49
0.0
140
0.0
141
0.0
142
1.0
143
1.0
 70
   688
 72
     0
 73
     0
 74
     5
  7

 75
    16
 76
     0
 77
     5
 78
   300
147
1.0
148
0.0
149
0.0
100
AcDbLayout
  1
Layout1
 70
     1
 71
     1
 10
0.0
 20
0.0
 11
420.0
 21
297.0
 12
0.0
 22
0.0
 32
0.0
 14
1.000000000000000E+20
 24
1.000000000000000E+20
 34
1.000000000000000E+20
 15
-1.000000000000000E+20
 25
-1.000000000000000E+20
 35
-1.000000000000000E+20
146
0.0
 13
0.0
 23
0.0
 33
0.0
 16
1.0
 26
0.0
 36
0.0
 17
0.0
 27
1.0
 37
0.0
 76
     0
330
1B
  0
LAYOUT
  5
26
102
{ACAD_REACTORS
330
1A
102
}
330
1A
100
AcDbPlotSettings
  1

  2
none_device
  4

  6

 40
0.0
 41
0.0
 42
0.0
 43
0.0
 44
0.0
 45
0.0
 46
0.0
 47
0.0
 48
0.0
 49
0.0
140
0.0
141
0.0
142
1.0
143
1.0
 70
   688
 72
     0
 73
     0
 74
     5
  7

 75
    16
 76
     0
 77
     5
 78
   300
147
1.0
148
0.0
149
0.0
100
AcDbLayout
  1
Layout2
 70
     1
 71
     2
 10
0.0
 20
0.0
 11
0.0
 21
0.0
 12
0.0
 22
0.0
 32
0.0
 14
0.0
 24
0.0
 34
0.0
 15
0.0
 25
0.0
 35
0.0
146
0.0
 13
0.0
 23
0.0
 33
0.0
 16
1.0
 26
0.0
 36
0.0
 17
0.0
 27
1.0
 37
0.0
 76
     0
330
23
  0
LAYOUT
  5
22
102
{ACAD_REACTORS
330
1A
102
}
330
1A
100
AcDbPlotSettings
  1

  2
none_device
  4

  6

 40
0.0
 41
0.0
 42
0.0
 43
0.0
 44
0.0
 45
0.0
 46
0.0
 47
0.0
 48
0.0
 49
0.0
140
0.0
141
0.0
142
1.0
143
1.0
 70
  1712
 72
     0
 73
     0
 74
     0
  7

 75
     0
 76
     0
 77
     5
 78
   300
147
1.0
148
0.0
149
0.0
100
AcDbLayout
  1
Model
 70
     1
 71
     0
 10
-1188.0
 20
-840.0
 11
1188.0
 21
840.0
 12
0.0
 22
0.0
 32
0.0
 14
-1188.0
 24
-840.0
 34
0.0
 15
1188.0
 25
840.0
 35
0.0
146
0.0
 13
0.0
 23
0.0
 33
0.0
 16
1.0
 26
0.0
 36
0.0
 17
0.0
 27
1.0
 37
0.0
 76
     0
330
1F
331
29
  0
MLINESTYLE
  5
18
102
{ACAD_REACTORS
330
17
102
}
330
17
100
AcDbMlineStyle
  2
Standard
 70
     0
  3

 62
   256
 51
90.0
 52
90.0
 71
     2
 49
0.5
 62
   256
  6
BYLAYER
 49
-0.5
 62
   256
  6
BYLAYER
  0
ACDBPLACEHOLDER
  5
F
102
{ACAD_REACTORS
330
E
102
}
330
E
  0
VISUALSTYLE
  5
2F
102
{ACAD_REACTORS
330
2A
102
}
330
2A
100
AcDbVisualStyle
  2
2dWireframe
 70
     4
 71
     0
 72
     2
 73
     0
 90
        0
 40
-0.6
 41
-30.0
 62
     5
 63
     7
421
 16777215
 74
     1
 91
        4
 64
     7
 65
   257
 75
     1
175
     1
 42
1.0
 92
        0
 66
   257
 43
1.0
 76
     1
 77
     6
 78
     2
 67
     7
 79
     5
170
     0
171
     0
290
     0
174
     0
 93
        1
 44
0.0
173
     0
291
     0
 45
0.0
  0
VISUALSTYLE
  5
31
102
{ACAD_REACTORS
330
2A
102
}
330
2A
100
AcDbVisualStyle
  2
3D Hidden
 70
     6
 71
     1
 72
     2
 73
     2
 90
        0
 40
-0.6
 41
-30.0
 62
     5
 63
     7
421
 16777215
 74
     2
 91
        2
 64
     7
 65
   257
 75
     2
175
     1
 42
40.0
 92
        0
 66
   257
 43
1.0
 76
     1
 77
     6
 78
     2
 67
     7
 79
     3
170
     0
171
     0
290
     0
174
     0
 93
        1
 44
0.0
173
     0
291
     0
 45
0.0
  0
VISUALSTYLE
  5
30
102
{ACAD_REACTORS
330
2A
102
}
330
2A
100
AcDbVisualStyle
  2
3dWireframe
 70
     5
 71
     0
 72
     2
 73
     0
 90
        0
 40
-0.6
 41
-30.0
 62
     5
 63
     7
421
 16777215
 74
     1
 91
        4
 64
     7
 65
   257
 75
     1
175
     1
 42
1.0
 92
        0
 66
   257
 43
1.0
 76
     1
 77
     6
 78
     2
 67
     7
 79
     5
170
     0
171
     0
290
     0
174
     0
 93
        1
 44
0.0
173
     0
291
     0
 45
0.0
  0
VISUALSTYLE
  5
32
102
{ACAD_REACTORS
330
2A
102
}
330
2A
100
AcDbVisualStyle
  2
Basic
 70
     7
 71
     1
 72
     0
 73
     1
 90
        0
 40
-0.6
 41
-30.0
 62
     5
 63
     7
421
 16777215
 74
     0
 91
        4
 64
     7
 65
   257
 75
     1
175
     1
 42
1.0
 92
        8
 66
     7
 43
1.0
 76
     1
 77
     6
 78
     2
 67
     7
 79
     5
170
     0
171
     0
290
     0
174
     0
 93
        1
 44
0.0
173
     0
291
     1
 45
0.0
  0
VISUALSTYLE
  5
36
102
{ACAD_REACTORS
330
2A
102
}
330
2A
100
AcDbVisualStyle
  2
Brighten
 70
    12
 71
     2
 72
     2
 73
     0
 90
        0
 40
-0.6
 41
-30.0
 62
     5
 63
     7
421
 16777215
 74
     1
 91
        4
 64
     7
 65
   257
 75
     1
175
     1
 42
1.0
 92
        8
 66
     7
 43
1.0
 76
     1
 77
     6
 78
     2
 67
     7
 79
     5
170
     0
171
     0
290
     0
174
     0
 93
        1
 44
50.0
173
     0
291
     1
 45
0.0
  0
VISUALSTYLE
  5
3A
102
{ACAD_REACTORS
330
2A
102
}
330
2A
100
AcDbVisualStyle
  2
ColorChange
 70
    16
 71
     2
 72
     2
 73
     3
 90
        0
 40
-0.6
 41
-30.0
 62
     5
 63
     8
421
  8421504
 74
     1
 91
        4
 64
     7
 65
   257
 75
     1
175
     1
 42
1.0
 92
        8
 66
     8
424
  8421504
 43
1.0
 76
     1
 77
     6
 78
     2
 67
     7
 79
     5
170
     0
171
     0
290
     0
174
     0
 93
        1
 44
0.0
173
     0
291
     1
 45
0.0
  0
VISUALSTYLE
  5
34
102
{ACAD_REACTORS
330
2A
102
}
330
2A
100
AcDbVisualStyle
  2
Conceptual
 70
     9
 71
     3
 72
     2
 73
     0
 90
        0
 40
-0.6
 41
-30.0
 62
     5
 63
     7
421
 16777215
 74
     2
 91
        2
 64
     7
 65
   257
 75
     1
175
     1
 42
40.0
 92
        8
 66
     7
 43
1.0
 76
     1
 77
     6
 78
     2
 67
     7
 79
     3
170
     0
171
     0
290
     0
174
     0
 93
        1
 44
0.0
173
     0
291
     0
 45
0.0
  0
VISUALSTYLE
  5
35
102
{ACAD_REACTORS
330
2A
102
}
330
2A
100
AcDbVisualStyle
  2
Dim
 70
    11
 71
     2
 72
     2
 73
     0
 90
        0
 40
-0.6
 41
-30.0
 62
     5
 63
     7
421
 16777215
 74
     1
 91
        4
 64
     7
 65
   257
 75
     1
175
     1
 42
1.0
 92
        8
 66
     7
 43
1.0
 76
     1
 77
     6
 78
     2
 67
     7
 79
     5
170
     0
171
     0
290
     0
174
     0
 93
        1
 44
-50.0
173
     0
291
     1
 45
0.0
  0
VISUALSTYLE
  5
39
102
{ACAD_REACTORS
330
2A
102
}
330
2A
100
AcDbVisualStyle
  2
Facepattern
 70
    15
 71
     2
 72
     2
 73
     0
 90
        0
 40
-0.6
 41
-30.0
 62
     5
 63
     7
421
 16777215
 74
     1
 91
        4
 64
     7
 65
   257
 75
     1
175
     1
 42
1.0
 92
        8
 66
     7
 43
1.0
 76
     1
 77
     6
 78
     2
 67
     7
 79
     5
170
     0
171
     0
290
     0
174
     0
 93
        1
 44
0.0
173
     0
291
     1
 45
0.0
  0
VISUALSTYLE
  5
2B
102
{ACAD_REACTORS
330
2A
102
}
330
2A
100
AcDbVisualStyle
  2
Flat
 70
     0
 71
     2
 72
     1
 73
     1
 90
        2
 40
-0.6
 41
30.0
 62
     5
 63
     7
421
 16777215
 74
     0
 91
        4
 64
     7
 65
   257
 75
     1
175
     1
 42
1.0
 92
        8
 66
     7
 43
1.0
 76
     1
 77
     6
 78
     2
 67
     7
 79
     5
170
     0
171
     0
290
     0
174
     0
 93
       13
 44
0.0
173
     0
291
     1
 45
0.0
  0
VISUALSTYLE
  5
2C
102
{ACAD_REACTORS
330
2A
102
}
330
2A
100
AcDbVisualStyle
  2
FlatWithEdges
 70
     1
 71
     2
 72
     1
 73
     1
 90
        2
 40
-0.6
 41
30.0
 62
     5
 63
     7
421
 16777215
 74
     1
 91
        4
 64
     7
 65
   257
 75
     1
175
     1
 42
1.0
 92
        0
 66
   257
 43
1.0
 76
     1
 77
     6
 78
     2
 67
     7
 79
     5
170
     0
171
     0
290
     0
174
     0
 93
       13
 44
0.0
173
     0
291
     1
 45
0.0
  0
VISUALSTYLE
  5
2D
102
{ACAD_REACTORS
330
2A
102
}
330
2A
100
AcDbVisualStyle
  2
Gouraud
 70
     2
 71
     2
 72
     2
 73
     1
 90
        2
 40
-0.6
 41
30.0
 62
     5
 63
     7
421
 16777215
 74
     0
 91
        4
 64
     7
 65
   257
 75
     1
175
     1
 42
1.0
 92
        0
 66
     7
 43
1.0
 76
     1
 77
     6
 78
     2
 67
     7
 79
     5
170
     0
171
     0
290
     0
174
     0
 93
       13
 44
0.0
173
     0
291
     1
 45
0.0
  0
VISUALSTYLE
  5
2E
102
{ACAD_REACTORS
330
2A
102
}
330
2A
100
AcDbVisualStyle
  2
GouraudWithEdges
 70
     3
 71
     2
 72
     2
 73
     1
 90
        2
 40
-0.6
 41
30.0
 62
     5
 63
     7
421
 16777215
 74
     1
 91
        4
 64
     7
 65
   257
 75
     1
175
     1
 42
1.0
 92
        0
 66
   257
 43
1.0
 76
     1
 77
     6
 78
     2
 67
     7
 79
     5
170
     0
171
     0
290
     0
174
     0
 93
       13
 44
0.0
173
     0
291
     1
 45
0.0
  0
VISUALSTYLE
  5
38
102
{ACAD_REACTORS
330
2A
102
}
330
2A
100
AcDbVisualStyle
  2
Linepattern
 70
    14
 71
     2
 72
     2
 73
     0
 90
        0
 40
-0.6
 41
-30.0
 62
     5
 63
     7
421
 16777215
 74
     1
 91
        4
 64
     7
 65
   257
 75
     7
175
     7
 42
1.0
 92
        8
 66
     7
 43
1.0
 76
     1
 77
     6
 78
     2
 67
     7
 79
     5
170
     0
171
     0
290
     0
174
     0
 93
        1
 44
0.0
173
     0
291
     1
 45
0.0
  0
VISUALSTYLE
  5
33
102
{ACAD_REACTORS
330
2A
102
}
330
2A
100
AcDbVisualStyle
  2
Realistic
 70
     8
 71
     2
 72
     2
 73
     0
 90
        0
 40
-0.6
 41
-30.0
 62
     5
 63
     7
421
 16777215
 74
     1
 91
        0
 64
     7
 65
   257
 75
     1
175
     1
 42
1.0
 92
        8
 66
     8
424
  7895160
 43
1.0
 76
     1
 77
     6
 78
     2
 67
     7
 79
     5
170
     0
171
     0
290
     0
174
     0
 93
       13
 44
0.0
173
     0
291
     0
 45
0.0
  0
VISUALSTYLE
  5
37
102
{ACAD_REACTORS
330
2A
102
}
330
2A
100
AcDbVisualStyle
  2
Thicken
 70
    13
 71
     2
 72
     2
 73
     0
 90
        0
 40
-0.6
 41
-30.0
 62
     5
 63
     7
421
 16777215
 74
     1
 91
        4
 64
     7
 65
   257
 75
     1
175
     1
 42
1.0
 92
       12
 66
     7
 43
1.0
 76
     1
 77
     6
 78
     2
 67
     7
 79
     5
170
     0
171
     0
290
     0
174
     0
 93
        1
 44
0.0
173
     0
291
     1
 45
0.0
  0
ENDSEC
  0
EOF
