  0
SECTION
  2
HEADER
  9
$ACADVER
  1
AC1021
  9
$ACADMAINTVER
 70
    25
  9
$DWGCODEPAGE
  3
ANSI_932
  9
$INSBASE
 10
0.0
 20
0.0
 30
0.0
  9
$EXTMIN
 10
-1188.0
 20
-840.0
 30
0.0
  9
$EXTMAX
 10
1188.0
 20
840.0
 30
0.0
  9
$LIMMIN
 10
-1188.0
 20
-840.0
  9
$LIMMAX
 10
1188.0
 20
840.0
  9
$ORTHOMODE
 70
     0
  9
$REGENMODE
 70
     1
  9
$FILLMODE
 70
     1
  9
$QTEXTMODE
 70
     0
  9
$MIRRTEXT
 70
     1
  9
$LTSCALE
 40
4.0
  9
$ATTMODE
 70
     1
  9
$TEXTSIZE
 40
2.5
  9
$TRACEWID
 40
1.0
  9
$TEXTSTYLE
  7
Standard
  9
$CLAYER
  8
0
  9
$CELTYPE
  6
ByLayer
  9
$CECOLOR
 62
   256
  9
$CELTSCALE
 40
1.0
  9
$DISPSILH
 70
     0
  9
$DIMSCALE
 40
1.0
  9
$DIMASZ
 40
2.5
  9
$DIMEXO
 40
0.625
  9
$DIMDLI
 40
3.75
  9
$DIMRND
 40
0.0
  9
$DIMDLE
 40
0.0
  9
$DIMEXE
 40
1.25
  9
$DIMTP
 40
0.0
  9
$DIMTM
 40
0.0
  9
$DIMTXT
 40
2.5
  9
$DIMCEN
 40
2.5
  9
$DIMTSZ
 40
0.0
  9
$DIMTOL
 70
     0
  9
$DIMLIM
 70
     0
  9
$DIMTIH
 70
     0
  9
$DIMTOH
 70
     0
  9
$DIMSE1
 70
     0
  9
$DIMSE2
 70
     0
  9
$DIMTAD
 70
     1
  9
$DIMZIN
 70
     8
  9
$DIMBLK
  1

  9
$DIMASO
 70
     1
  9
$DIMSHO
 70
     1
  9
$DIMPOST
  1

  9
$DIMAPOST
  1

  9
$DIMALT
 70
     0
  9
$DIMALTD
 70
     3
  9
$DIMALTF
 40
0.03937007874016
  9
$DIMLFAC
 40
1.0
  9
$DIMTOFL
 70
     1
  9
$DIMTVP
 40
0.0
  9
$DIMTIX
 70
     0
  9
$DIMSOXD
 70
     0
  9
$DIMSAH
 70
     0
  9
$DIMBLK1
  1

  9
$DIMBLK2
  1

  9
$DIMSTYLE
  2
ISO-25
  9
$DIMCLRD
 70
     0
  9
$DIMCLRE
 70
     0
  9
$DIMCLRT
 70
     0
  9
$DIMTFAC
 40
1.0
  9
$DIMGAP
 40
0.625
  9
$DIMJUST
 70
     0
  9
$DIMSD1
 70
     0
  9
$DIMSD2
 70
     0
  9
$DIMTOLJ
 70
     0
  9
$DIMTZIN
 70
     8
  9
$DIMALTZ
 70
     0
  9
$DIMALTTZ
 70
     0
  9
$DIMUPT
 70
     0
  9
$DIMDEC
 70
     2
  9
$DIMTDEC
 70
     2
  9
$DIMALTU
 70
     2
  9
$DIMALTTD
 70
     3
  9
$DIMTXSTY
  7
Standard
  9
$DIMAUNIT
 70
     0
  9
$DIMADEC
 70
     0
  9
$DIMALTRND
 40
0.0
  9
$DIMAZIN
 70
     0
  9
$DIMDSEP
 70
    44
  9
$DIMATFIT
 70
     3
  9
$DIMFRAC
 70
     0
  9
$DIMLDRBLK
  1

  9
$DIMLUNIT
 70
     2
  9
$DIMLWD
 70
    -2
  9
$DIMLWE
 70
    -2
  9
$DIMTMOVE
 70
     0
  9
$DIMFXL
 40
1.0
  9
$DIMFXLON
 70
     0
  9
$DIMJOGANG
 40
0.7853981633974483
  9
$DIMTFILL
 70
     0
  9
$DIMTFILLCLR
 70
     0
  9
$DIMARCSYM
 70
     0
  9
$DIMLTYPE
  6

  9
$DIMLTEX1
  6

  9
$DIMLTEX2
  6

  9
$LUNITS
 70
     2
  9
$LUPREC
 70
     4
  9
$SKETCHINC
 40
1.0
  9
$FILLETRAD
 40
10.0
  9
$AUNITS
 70
     0
  9
$AUPREC
 70
     0
  9
$MENU
  1
.
  9
$ELEVATION
 40
0.0
  9
$PELEVATION
 40
0.0
  9
$THICKNESS
 40
0.0
  9
$LIMCHECK
 70
     0
  9
$CHAMFERA
 40
10.0
  9
$CHAMFERB
 40
10.0
  9
$CHAMFERC
 40
20.0
  9
$CHAMFERD
 40
0.0
  9
$SKPOLY
 70
     0
  9
$TDCREATE
 40
2457722.424284595
  9
$TDUCREATE
 40
2457722.049284595
  9
$TDUPDATE
 40
2457722.424284607
  9
$TDUUPDATE
 40
2457722.049284607
  9
$TDINDWG
 40
0.0000000116
  9
$TDUSRTIMER
 40
0.0000000116
  9
$USRTIMER
 70
     1
  9
$ANGBASE
 50
0.0
  9
$ANGDIR
 70
     0
  9
$PDMODE
 70
     0
  9
$PDSIZE
 40
0.0
  9
$PLINEWID
 40
0.0
  9
$SPLFRAME
 70
     0
  9
$SPLINETYPE
 70
     6
  9
$SPLINESEGS
 70
     8
  9
$HANDSEED
  5
218
  9
$SURFTAB1
 70
     6
  9
$SURFTAB2
 70
     6
  9
$SURFTYPE
 70
     6
  9
$SURFU
 70
     6
  9
$SURFV
 70
     6
  9
$UCSBASE
  2

  9
$UCSNAME
  2

  9
$UCSORG
 10
0.0
 20
0.0
 30
0.0
  9
$UCSXDIR
 10
1.0
 20
0.0
 30
0.0
  9
$UCSYDIR
 10
0.0
 20
1.0
 30
0.0
  9
$UCSORTHOREF
  2

  9
$UCSORTHOVIEW
 70
     0
  9
$UCSORGTOP
 10
0.0
 20
0.0
 30
0.0
  9
$UCSORGBOTTOM
 10
0.0
 20
0.0
 30
0.0
  9
$UCSORGLEFT
 10
0.0
 20
0.0
 30
0.0
  9
$UCSORGRIGHT
 10
0.0
 20
0.0
 30
0.0
  9
$UCSORGFRONT
 10
0.0
 20
0.0
 30
0.0
  9
$UCSORGBACK
 10
0.0
 20
0.0
 30
0.0
  9
$PUCSBASE
  2

  9
$PUCSNAME
  2

  9
$PUCSORG
 10
0.0
 20
0.0
 30
0.0
  9
$PUCSXDIR
 10
1.0
 20
0.0
 30
0.0
  9
$PUCSYDIR
 10
0.0
 20
1.0
 30
0.0
  9
$PUCSORTHOREF
  2

  9
$PUCSORTHOVIEW
 70
     0
  9
$PUCSORGTOP
 10
0.0
 20
0.0
 30
0.0
  9
$PUCSORGBOTTOM
 10
0.0
 20
0.0
 30
0.0
  9
$PUCSORGLEFT
 10
0.0
 20
0.0
 30
0.0
  9
$PUCSORGRIGHT
 10
0.0
 20
0.0
 30
0.0
  9
$PUCSORGFRONT
 10
0.0
 20
0.0
 30
0.0
  9
$PUCSORGBACK
 10
0.0
 20
0.0
 30
0.0
  9
$USERI1
 70
     0
  9
$USERI2
 70
     0
  9
$USERI3
 70
     0
  9
$USERI4
 70
     0
  9
$USERI5
 70
     0
  9
$USERR1
 40
0.0
  9
$USERR2
 40
0.0
  9
$USERR3
 40
0.0
  9
$USERR4
 40
0.0
  9
$USERR5
 40
0.0
  9
$WORLDVIEW
 70
     1
  9
$SHADEDGE
 70
     3
  9
$SHADEDIF
 70
    70
  9
$TILEMODE
 70
     1
  9
$MAXACTVP
 70
    64
  9
$PINSBASE
 10
0.0
 20
0.0
 30
0.0
  9
$PLIMCHECK
 70
     0
  9
$PEXTMIN
 10
1.000000000000000E+20
 20
1.000000000000000E+20
 30
1.000000000000000E+20
  9
$PEXTMAX
 10
-1.000000000000000E+20
 20
-1.000000000000000E+20
 30
-1.000000000000000E+20
  9
$PLIMMIN
 10
0.0
 20
0.0
  9
$PLIMMAX
 10
420.0
 20
297.0
  9
$UNITMODE
 70
     0
  9
$VISRETAIN
 70
     1
  9
$PLINEGEN
 70
     0
  9
$PSLTSCALE
 70
     1
  9
$TREEDEPTH
 70
  3020
  9
$CMLSTYLE
  2
Standard
  9
$CMLJUST
 70
     0
  9
$CMLSCALE
 40
20.0
  9
$PROXYGRAPHICS
 70
     1
  9
$MEASUREMENT
 70
     1
  9
$CELWEIGHT
370
    -1
  9
$ENDCAPS
280
     0
  9
$JOINSTYLE
280
     0
  9
$LWDISPLAY
290
     0
  9
$INSUNITS
 70
     4
  9
$HYPERLINKBASE
  1

  9
$STYLESHEET
  1

  9
$XEDIT
290
     1
  9
$CEPSNTYPE
380
     0
  9
$PSTYLEMODE
290
     1
  9
$FINGERPRINTGUID
  2
{56EFB192-8107-4B10-9EF6-9030152001A6}
  9
$VERSIONGUID
  2
{FAEB1C32-E019-11D5-929B-00C0DF256EC4}
  9
$EXTNAMES
290
     1
  9
$PSVPSCALE
 40
0.0
  9
$OLESTARTUP
290
     0
  9
$SORTENTS
280
   127
  9
$INDEXCTL
280
     0
  9
$HIDETEXT
280
     1
  9
$XCLIPFRAME
290
     0
  9
$HALOGAP
280
     0
  9
$OBSCOLOR
 70
   257
  9
$OBSLTYPE
280
     0
  9
$INTERSECTIONDISPLAY
280
     0
  9
$INTERSECTIONCOLOR
 70
   257
  9
$DIMASSOC
280
     2
  9
$PROJECTNAME
  1

  9
$CAMERADISPLAY
290
     0
  9
$LENSLENGTH
 40
50.0
  9
$CAMERAHEIGHT
 40
0.0
  9
$STEPSPERSEC
 40
2.0
  9
$STEPSIZE
 40
6.0
  9
$3DDWFPREC
 40
2.0
  9
$PSOLWIDTH
 40
5.0
  9
$PSOLHEIGHT
 40
80.0
  9
$LOFTANG1
 40
1.570796326794897
  9
$LOFTANG2
 40
1.570796326794897
  9
$LOFTMAG1
 40
0.0
  9
$LOFTMAG2
 40
0.0
  9
$LOFTPARAM
 70
     7
  9
$LOFTNORMALS
280
     1
  9
$LATITUDE
 40
37.795
  9
$LONGITUDE
 40
-122.394
  9
$NORTHDIRECTION
 40
0.0
  9
$TIMEZONE
 70
 -8000
  9
$LIGHTGLYPHDISPLAY
280
     1
  9
$TILEMODELIGHTSYNCH
280
     1
  9
$SOLIDHIST
280
     1
  9
$SHOWHIST
280
     1
  9
$DWFFRAME
280
     2
  9
$DGNFRAME
280
     2
  9
$REALWORLDSCALE
290
     1
  9
$INTERFERECOLOR
 62
   256
  9
$CSHADOW
280
     0
  9
$SHADOWPLANELOCATION
 40
0.0
  0
ENDSEC
  0
SECTION
  2
CLASSES
  0
CLASS
  1
ACDBDICTIONARYWDFLT
  2
AcDbDictionaryWithDefault
  3
ObjectDBX Classes
 90
        0
 91
        4
280
     0
281
     0
  0
CLASS
  1
VISUALSTYLE
  2
AcDbVisualStyle
  3
ObjectDBX Classes
 90
     4095
 91
        4
280
     0
281
     0
  0
ENDSEC
  0
SECTION
  2
TABLES
  0
TABLE
  2
VPORT
  5
8
330
0
100
AcDbSymbolTable
 70
     1
  0
VPORT
  5
29
330
8
100
AcDbSymbolTableRecord
100
AcDbViewportTableRecord
  2
*Active
 70
     0
 10
0.0
 20
0.0
 11
1.0
 21
1.0
 12
0.0
 22
0.0
 13
0.0
 23
0.0
 14
10.0
 24
10.0
 15
10.0
 25
10.0
 16
0.0
 26
0.0
 36
1.0
 17
0.0
 27
0.0
 37
0.0
 40
1848.0
 41
1.414285714285714
 42
50.0
 43
0.0
 44
0.0
 50
0.0
 51
0.0
 71
     0
 72
 10000
 73
     1
 74
     3
 75
     0
 76
     0
 77
     0
 78
     0
281
     0
 65
     1
110
0.0
120
0.0
130
0.0
111
1.0
121
0.0
131
0.0
112
0.0
122
1.0
132
0.0
 79
     0
146
0.0
 60
     3
 61
     5
292
     1
282
     1
141
0.0
142
0.0
 63
   256
  0
ENDTAB
  0
TABLE
  2
LTYPE
  5
5
330
0
100
AcDbSymbolTable
 70
     5
  0
LTYPE
  5
14
330
5
100
AcDbSymbolTableRecord
100
AcDbLinetypeTableRecord
  2
ByBlock
 70
     0
  3

 72
    65
 73
     0
 40
0.0
  0
LTYPE
  5
15
330
5
100
AcDbSymbolTableRecord
100
AcDbLinetypeTableRecord
  2
ByLayer
 70
     0
  3

 72
    65
 73
     0
 40
0.0
  0
LTYPE
  5
16
330
5
100
AcDbSymbolTableRecord
100
AcDbLinetypeTableRecord
  2
Continuous
 70
     0
  3
Solid line
 72
    65
 73
     0
 40
0.0
  0
LTYPE
  5
3C
330
5
100
AcDbSymbolTableRecord
100
AcDbLinetypeTableRecord
  2
JWW_CENTER1
 70
     0
  3
-----  --  ----------  --  -----
 72
    65
 73
     4
 40
6.773333333333333
 49
4.233333333333333
 74
     0
 49
-0.8466666666666667
 74
     0
 49
0.8466666666666667
 74
     0
 49
-0.8466666666666667
 74
     0
  0
LTYPE
  5
3D
330
5
100
AcDbSymbolTableRecord
100
AcDbLinetypeTableRecord
  2
JWW_DASHED3
 70
     0
  3
---  ------  ------  ------  ---
 72
    65
 73
     2
 40
3.386666666666667
 49
2.54
 74
     0
 49
-0.8466666666666667
 74
     0
  0
LTYPE
  5
3E
330
5
100
AcDbSymbolTableRecord
100
AcDbLinetypeTableRecord
  2
JWW_CENTER2
 70
     0
  3
-------------  --  -------------
 72
    65
 73
     4
 40
13.54666666666667
 49
11.00666666666667
 74
     0
 49
-0.8466666666666667
 74
     0
 49
0.8466666666666667
 74
     0
 49
-0.8466666666666667
 74
     0
  0
LTYPE
  5
3F
330
5
100
AcDbSymbolTableRecord
100
AcDbLinetypeTableRecord
  2
JWW_DASHED1
 70
     0
  3
-  --  --  --  --  --  --  --  -
 72
    65
 73
     2
 40
1.693333333333333
 49
0.8466666666666667
 74
     0
 49
-0.8466666666666667
 74
     0
  0
ENDTAB
  0
TABLE
  2
LAYER
  5
2
330
0
100
AcDbSymbolTable
 70
    10
  0
LAYER
  5
10
330
2
100
AcDbSymbolTableRecord
100
AcDbLayerTableRecord
  2
0
 70
     0
 62
     7
  6
Continuous
370
    -3
390
F
347
0
  0
LAYER
  5
40
330
2
100
AcDbSymbolTableRecord
100
AcDbLayerTableRecord
  2
F-Fﾚｲﾔ
 70
     0
 62
     7
  6
Continuous
370
    -3
390
F
347
0
  0
LAYER
  5
41
330
2
100
AcDbSymbolTableRecord
100
AcDbLayerTableRecord
  2
F-4ﾚｲﾔ
 70
     0
 62
     7
  6
Continuous
370
    -3
390
F
347
0
  0
LAYER
  5
42
330
2
100
AcDbSymbolTableRecord
100
AcDbLayerTableRecord
  2
F-5ﾚｲﾔ
 70
     0
 62
     7
  6
Continuous
370
    -3
390
F
347
0
  0
LAYER
  5
43
330
2
100
AcDbSymbolTableRecord
100
AcDbLayerTableRecord
  2
建具
 70
     0
 62
     7
  6
Continuous
370
    -3
390
F
347
0
  0
LAYER
  5
44
330
2
100
AcDbSymbolTableRecord
100
AcDbLayerTableRecord
  2
躯体
 70
     0
 62
     7
  6
Continuous
370
    -3
390
F
347
0
  0
LAYER
  5
45
330
2
100
AcDbSymbolTableRecord
100
AcDbLayerTableRecord
  2
その他
 70
     0
 62
     7
  6
Continuous
370
    -3
390
F
347
0
  0
LAYER
  5
46
330
2
100
AcDbSymbolTableRecord
100
AcDbLayerTableRecord
  2
寸法
 70
     0
 62
     7
  6
Continuous
370
    -3
390
F
347
0
  0
LAYER
  5
47
330
2
100
AcDbSymbolTableRecord
100
AcDbLayerTableRecord
  2
仕上
 70
     0
 62
     7
  6
Continuous
370
    -3
390
F
347
0
  0
LAYER
  5
48
330
2
100
AcDbSymbolTableRecord
100
AcDbLayerTableRecord
  2
通り芯
 70
     0
 62
     7
  6
Continuous
370
    -3
390
F
347
0
  0
ENDTAB
  0
TABLE
  2
STYLE
  5
3
330
0
100
AcDbSymbolTable
 70
     2
  0
STYLE
  5
11
330
3
100
AcDbSymbolTableRecord
100
AcDbTextStyleTableRecord
  2
Standard
 70
     0
 40
0.0
 41
1.0
 50
0.0
 71
     0
 42
2.5
  3
txt
  4

1001
ACAD
1000

1071
        0
  0
STYLE
  5
3B
330
3
100
AcDbSymbolTableRecord
100
AcDbTextStyleTableRecord
  2
ＭＳ ゴシック
 70
     0
 40
1.0
 41
1.0
 50
0.0
 71
     0
 42
10.0
  3

  4

1001
ACAD
1000
MS Gothic
1071
    32817
  0
ENDTAB
  0
TABLE
  2
VIEW
  5
6
330
0
100
AcDbSymbolTable
 70
     0
  0
ENDTAB
  0
TABLE
  2
UCS
  5
7
330
0
100
AcDbSymbolTable
 70
     0
  0
ENDTAB
  0
TABLE
  2
APPID
  5
9
330
0
100
AcDbSymbolTable
 70
     1
  0
APPID
  5
12
330
9
100
AcDbSymbolTableRecord
100
AcDbRegAppTableRecord
  2
ACAD
 70
     0
  0
ENDTAB
  0
TABLE
  2
DIMSTYLE
  5
A
330
0
100
AcDbSymbolTable
 70
     1
100
AcDbDimStyleTable
  0
DIMSTYLE
105
27
330
A
100
AcDbSymbolTableRecord
100
AcDbDimStyleTableRecord
  2
ISO-25
 70
     0
 41
2.5
 42
0.625
 43
3.75
 44
1.25
 73
     0
 74
     0
 77
     1
 78
     8
140
2.5
141
2.5
143
0.03937007874016
147
0.625
171
     3
172
     1
271
     2
272
     2
274
     3
278
    44
283
     0
284
     8
340
11
  0
ENDTAB
  0
TABLE
  2
BLOCK_RECORD
  5
1
330
0
100
AcDbSymbolTable
 70
     1
  0
BLOCK_RECORD
  5
1F
330
1
100
AcDbSymbolTableRecord
100
AcDbBlockTableRecord
  2
*Model_Space
340
22
 70
     0
280
     1
281
     0
  0
BLOCK_RECORD
  5
1B
330
1
100
AcDbSymbolTableRecord
100
AcDbBlockTableRecord
  2
*Paper_Space
340
1E
 70
     0
280
     1
281
     0
  0
BLOCK_RECORD
  5
23
330
1
100
AcDbSymbolTableRecord
100
AcDbBlockTableRecord
  2
*Paper_Space0
340
26
 70
     0
280
     1
281
     0
  0
ENDTAB
  0
ENDSEC
  0
SECTION
  2
BLOCKS
  0
BLOCK
  5
20
330
1F
100
AcDbEntity
  8
0
100
AcDbBlockBegin
  2
*Model_Space
 70
     0
 10
0.0
 20
0.0
 30
0.0
  3
*Model_Space
  1

  0
ENDBLK
  5
21
330
1F
100
AcDbEntity
  8
0
100
AcDbBlockEnd
  0
BLOCK
  5
1C
330
1B
100
AcDbEntity
 67
     1
  8
0
100
AcDbBlockBegin
  2
*Paper_Space
 70
     0
 10
0.0
 20
0.0
 30
0.0
  3
*Paper_Space
  1

  0
ENDBLK
  5
1D
330
1B
100
AcDbEntity
 67
     1
  8
0
100
AcDbBlockEnd
  0
BLOCK
  5
24
330
23
100
AcDbEntity
  8
0
100
AcDbBlockBegin
  2
*Paper_Space0
 70
     0
 10
0.0
 20
0.0
 30
0.0
  3
*Paper_Space0
  1

  0
ENDBLK
  5
25
330
23
100
AcDbEntity
  8
0
100
AcDbBlockEnd
  0
ENDSEC
  0
SECTION
  2
ENTITIES
  0
LINE
  5
49
330
1F
100
AcDbEntity
  8
F-Fﾚｲﾔ
  6
Continuous
 62
     7
370
     9
100
AcDbLine
 10
-105.3797467629805
 20
760.915871598609
 30
0.0
 11
522.8790429449925
 21
760.915871598609
 31
0.0
  0
TEXT
  5
4A
330
1F
100
AcDbEntity
  8
F-Fﾚｲﾔ
  6
Continuous
 62
     2
370
     9
100
AcDbText
 10
-94.73285670451907
 20
739.171871598609
 30
0.0
 40
12.192
  1
名称
 41
1.0625
  7
ＭＳ ゴシック
100
AcDbText
  0
TEXT
  5
4B
330
1F
100
AcDbEntity
  8
F-4ﾚｲﾔ
  6
Continuous
 62
     2
370
     9
100
AcDbText
 10
-149.204441572291
 20
-759.0108394076666
 30
0.0
 40
12.192
  1
カラー舗装用みぞ蓋　タイル用　充填深さ２８ｍｍ　スチール製
 41
1.120689655172414
  7
ＭＳ ゴシック
100
AcDbText
  0
TEXT
  5
4C
330
1F
100
AcDbEntity
  8
F-5ﾚｲﾔ
  6
Continuous
 62
     2
370
     9
100
AcDbText
 10
63.34966572385582
 20
739.171871598609
 30
0.0
 40
12.192
  1
化粧用スリットみぞ蓋　タイル用　側溝用
 41
1.118421052631579
  7
ＭＳ ゴシック
100
AcDbText
  0
LINE
  5
4D
330
1F
100
AcDbEntity
  8
F-Fﾚｲﾔ
  6
Continuous
 62
     7
370
     9
100
AcDbLine
 10
-105.3797467629805
 20
728.915871598609
 30
0.0
 11
522.8790429449925
 21
728.915871598609
 31
0.0
  0
LINE
  5
4E
330
1F
100
AcDbEntity
  8
F-Fﾚｲﾔ
  6
Continuous
 62
     7
370
     9
100
AcDbLine
 10
-105.3797467629805
 20
724.915871598609
 30
0.0
 11
522.8790429449925
 21
724.915871598609
 31
0.0
  0
LINE
  5
4F
330
1F
100
AcDbEntity
  8
F-Fﾚｲﾔ
  6
Continuous
 62
     7
370
     9
100
AcDbLine
 10
-105.3797467629805
 20
692.915871598609
 30
0.0
 11
522.8790429449925
 21
692.915871598609
 31
0.0
  0
LINE
  5
50
330
1F
100
AcDbEntity
  8
F-Fﾚｲﾔ
  6
Continuous
 62
     7
370
     9
100
AcDbLine
 10
-105.3797467629805
 20
532.915871598609
 30
0.0
 11
522.8790429449925
 21
532.915871598609
 31
0.0
  0
LINE
  5
51
330
1F
100
AcDbEntity
  8
F-Fﾚｲﾔ
  6
Continuous
 62
     7
370
     9
100
AcDbLine
 10
-105.3797467629805
 20
468.9158715986091
 30
0.0
 11
522.8790429449925
 21
468.9158715986091
 31
0.0
  0
TEXT
  5
52
330
1F
100
AcDbEntity
  8
F-Fﾚｲﾔ
  6
Continuous
 62
     2
370
     9
100
AcDbText
 10
-94.73285670451907
 20
671.171871598609
 30
0.0
 40
12.192
  1
蓋
  7
ＭＳ ゴシック
100
AcDbText
  0
TEXT
  5
53
330
1F
100
AcDbEntity
  8
F-Fﾚｲﾔ
  6
Continuous
 62
     2
370
     9
100
AcDbText
 10
-94.73285670451907
 20
511.171871598609
 30
0.0
 40
12.192
  1
受枠
 41
1.0625
  7
ＭＳ ゴシック
100
AcDbText
  0
TEXT
  5
54
330
1F
100
AcDbEntity
  8
F-Fﾚｲﾔ
  6
Continuous
 62
     2
370
     9
100
AcDbText
 10
-94.73285670451907
 20
447.1718715986091
 30
0.0
 40
12.192
  1
品番
 41
1.0625
  7
ＭＳ ゴシック
100
AcDbText
  0
TEXT
  5
55
330
1F
100
AcDbEntity
  8
F-5ﾚｲﾔ
  6
Continuous
 62
     2
370
     9
100
AcDbText
 10
63.34966572385582
 20
671.171871598609
 30
0.0
 40
12.192
  1
スチール製 溶融亜鉛めっき
 41
1.115
  7
ＭＳ ゴシック
100
AcDbText
  0
TEXT
  5
56
330
1F
100
AcDbEntity
  8
F-5ﾚｲﾔ
  6
Continuous
 62
     2
370
     9
100
AcDbText
 10
63.34966572385582
 20
607.171871598609
 30
0.0
 40
12.192
  1
目地すきま 6mm
 41
1.116071428571429
  7
ＭＳ ゴシック
100
AcDbText
  0
TEXT
  5
57
330
1F
100
AcDbEntity
  8
F-Fﾚｲﾔ
  6
Continuous
 62
     2
370
     9
100
AcDbText
 10
63.34966572385582
 20
447.1718715986091
 30
0.0
 40
12.192
  1
カネソウ　カラー舗装用みぞ蓋
 41
1.116071428571429
  7
ＭＳ ゴシック
100
AcDbText
  0
LINE
  5
58
330
1F
100
AcDbEntity
  8
F-Fﾚｲﾔ
  6
Continuous
 62
     7
370
     9
100
AcDbLine
 10
46.81570496624607
 20
660.915871598609
 30
0.0
 11
522.8790429449925
 21
660.915871598609
 31
0.0
  0
LINE
  5
59
330
1F
100
AcDbEntity
  8
F-Fﾚｲﾔ
  6
Continuous
 62
     7
370
     9
100
AcDbLine
 10
46.81570496624607
 20
628.915871598609
 30
0.0
 11
522.8790429449925
 21
628.915871598609
 31
0.0
  0
LINE
  5
5A
330
1F
100
AcDbEntity
  8
F-Fﾚｲﾔ
  6
Continuous
 62
     7
370
     9
100
AcDbLine
 10
46.81570496624607
 20
596.915871598609
 30
0.0
 11
522.8790429449925
 21
596.915871598609
 31
0.0
  0
LINE
  5
5B
330
1F
100
AcDbEntity
  8
F-Fﾚｲﾔ
  6
Continuous
 62
     7
370
     9
100
AcDbLine
 10
46.81570496624607
 20
564.915871598609
 30
0.0
 11
522.8790429449925
 21
564.915871598609
 31
0.0
  0
LINE
  5
5C
330
1F
100
AcDbEntity
  8
F-Fﾚｲﾔ
  6
Continuous
 62
     7
370
     9
100
AcDbLine
 10
46.81570496624607
 20
500.915871598609
 30
0.0
 11
522.8790429449925
 21
500.915871598609
 31
0.0
  0
TEXT
  5
5D
330
1F
100
AcDbEntity
  8
F-Fﾚｲﾔ
  6
Continuous
 62
     2
370
     9
100
AcDbText
 10
-94.73285670451907
 20
703.171871598609
 30
0.0
 40
12.192
  1
みぞ幅
 41
1.083333333333333
  7
ＭＳ ゴシック
100
AcDbText
  0
LINE
  5
5E
330
1F
100
AcDbEntity
  8
F-Fﾚｲﾔ
  6
Continuous
 62
     7
370
     9
100
AcDbLine
 10
522.8790429449925
 20
760.915871598609
 30
0.0
 11
522.8790429449925
 21
372.9158715986091
 31
0.0
  0
LINE
  5
5F
330
1F
100
AcDbEntity
  8
F-Fﾚｲﾔ
  6
Continuous
 62
     7
370
     9
100
AcDbLine
 10
-105.3797467629805
 20
372.9158715986091
 30
0.0
 11
522.8790429449925
 21
372.9158715986091
 31
0.0
  0
LINE
  5
60
330
1F
100
AcDbEntity
  8
F-Fﾚｲﾔ
  6
Continuous
 62
     7
370
     9
100
AcDbLine
 10
-105.3797467629805
 20
760.915871598609
 30
0.0
 11
-105.3797467629805
 21
372.9158715986091
 31
0.0
  0
LINE
  5
61
330
1F
100
AcDbEntity
  8
F-Fﾚｲﾔ
  6
Continuous
 62
     7
370
     9
100
AcDbLine
 10
46.81570496624607
 20
760.915871598609
 30
0.0
 11
46.81570496624607
 21
372.9158715986091
 31
0.0
  0
TEXT
  5
62
330
1F
100
AcDbEntity
  8
F-5ﾚｲﾔ
  6
Continuous
 62
     2
370
     9
100
AcDbText
 10
63.34966572385588
 20
639.171871598609
 30
0.0
 40
12.192
  1
充填深さ 28mm
 41
1.115384615384615
  7
ＭＳ ゴシック
100
AcDbText
  0
TEXT
  5
63
330
1F
100
AcDbEntity
  8
F-5ﾚｲﾔ
  6
Continuous
 62
     2
370
     9
100
AcDbText
 10
566.1653883124754
 20
739.1718930562811
 30
0.0
 40
12.192
  1
強度性能
 41
1.09375
  7
ＭＳ ゴシック
100
AcDbText
  0
TEXT
  5
64
330
1F
100
AcDbEntity
  8
F-5ﾚｲﾔ
  6
Continuous
 62
     2
370
     9
100
AcDbText
 10
566.1653883124754
 20
703.171871598609
 30
0.0
 40
12.192
  1
強度
 41
1.0625
  7
ＭＳ ゴシック
100
AcDbText
  0
TEXT
  5
65
330
1F
100
AcDbEntity
  8
F-5ﾚｲﾔ
  6
Continuous
 62
     2
370
     9
100
AcDbText
 10
566.1653883124754
 20
639.1718715986088
 30
0.0
 40
12.192
  1
主な使用場所
 41
1.104166666666667
  7
ＭＳ ゴシック
100
AcDbText
  0
LINE
  5
66
330
1F
100
AcDbEntity
  8
F-5ﾚｲﾔ
  6
Continuous
 62
     7
370
     9
100
AcDbLine
 10
555.518498254015
 20
760.915871598609
 30
0.0
 11
1124.205175136017
 21
760.915871598609
 31
0.0
  0
LINE
  5
67
330
1F
100
AcDbEntity
  8
F-5ﾚｲﾔ
  6
Continuous
 62
     7
370
     9
100
AcDbLine
 10
555.518498254015
 20
728.915871598609
 30
0.0
 11
1124.205175136017
 21
728.915871598609
 31
0.0
  0
LINE
  5
68
330
1F
100
AcDbEntity
  8
F-5ﾚｲﾔ
  6
Continuous
 62
     7
370
     9
100
AcDbLine
 10
555.518498254015
 20
724.915871598609
 30
0.0
 11
1124.205175136017
 21
724.915871598609
 31
0.0
  0
LINE
  5
69
330
1F
100
AcDbEntity
  8
F-5ﾚｲﾔ
  6
Continuous
 62
     7
370
     9
100
AcDbLine
 10
555.518498254015
 20
660.9158715986089
 30
0.0
 11
1124.205175136017
 21
660.9158715986089
 31
0.0
  0
LINE
  5
6A
330
1F
100
AcDbEntity
  8
F-5ﾚｲﾔ
  6
Continuous
 62
     7
370
     9
100
AcDbLine
 10
555.518498254015
 20
660.9158715986089
 30
0.0
 11
1124.205175136017
 21
660.9158715986089
 31
0.0
  0
TEXT
  5
6B
330
1F
100
AcDbEntity
  8
F-5ﾚｲﾔ
  6
Continuous
 62
     2
370
     9
100
AcDbText
 10
724.2479107408512
 20
703.171871598609
 30
0.0
 40
12.192
  1
T-2：後輪1輪荷重7.8kN(800kgf)
 41
1.120689655172414
  7
ＭＳ ゴシック
100
AcDbText
  0
TEXT
  5
6C
330
1F
100
AcDbEntity
  8
F-5ﾚｲﾔ
  6
Continuous
 62
     2
370
     9
100
AcDbText
 10
724.2479107408512
 20
671.1718715986088
 30
0.0
 40
12.192
  1
 　　総重量2トンまでの車両が通行可能
 41
1.118055555555556
  7
ＭＳ ゴシック
100
AcDbText
  0
TEXT
  5
6D
330
1F
100
AcDbEntity
  8
F-5ﾚｲﾔ
  6
Continuous
 62
     2
370
     9
100
AcDbText
 10
724.2479107408512
 20
639.1718715986088
 30
0.0
 40
12.192
  1
建物内、建物敷地内、公園敷地内、
 41
1.1171875
  7
ＭＳ ゴシック
100
AcDbText
  0
LINE
  5
6E
330
1F
100
AcDbEntity
  8
F-5ﾚｲﾔ
  6
Continuous
 62
     7
370
     9
100
AcDbLine
 10
555.518498254015
 20
564.9158715986089
 30
0.0
 11
1124.205175136017
 21
564.9158715986089
 31
0.0
  0
LINE
  5
6F
330
1F
100
AcDbEntity
  8
F-5ﾚｲﾔ
  6
Continuous
 62
     7
370
     9
100
AcDbLine
 10
555.518498254015
 20
596.9158715986089
 30
0.0
 11
1124.205175136017
 21
596.9158715986089
 31
0.0
  0
TEXT
  5
70
330
1F
100
AcDbEntity
  8
F-5ﾚｲﾔ
  6
Continuous
 62
     2
370
     9
100
AcDbText
 10
724.2479107408512
 20
607.1718715986088
 30
0.0
 40
12.192
  1
車道以外で車両の乗り入れる可能性のある場所
 41
1.11904761904762
  7
ＭＳ ゴシック
100
AcDbText
  0
LINE
  5
71
330
1F
100
AcDbEntity
  8
F-5ﾚｲﾔ
  6
Continuous
 62
     7
370
     9
100
AcDbLine
 10
555.518498254015
 20
532.9158715986089
 30
0.0
 11
1124.205175136017
 21
532.9158715986089
 31
0.0
  0
LINE
  5
72
330
1F
100
AcDbEntity
  8
F-5ﾚｲﾔ
  6
Continuous
 62
     7
370
     9
100
AcDbLine
 10
555.518498254015
 20
468.9158715986089
 30
0.0
 11
1124.205175136017
 21
468.9158715986089
 31
0.0
  0
TEXT
  5
73
330
1F
100
AcDbEntity
  8
F-5ﾚｲﾔ
  6
Continuous
 62
     2
370
     9
100
AcDbText
 10
566.1653883124754
 20
543.1718715986088
 30
0.0
 40
12.192
  1
衝撃係数
 41
1.09375
  7
ＭＳ ゴシック
100
AcDbText
  0
TEXT
  5
74
330
1F
100
AcDbEntity
  8
F-5ﾚｲﾔ
  6
Continuous
 62
     2
370
     9
100
AcDbText
 10
566.1653883124754
 20
575.1718715986088
 30
0.0
 40
12.192
  1
車両進行方向
 41
1.104166666666667
  7
ＭＳ ゴシック
100
AcDbText
  0
TEXT
  5
75
330
1F
100
AcDbEntity
  8
F-5ﾚｲﾔ
  6
Continuous
 62
     2
370
     9
100
AcDbText
 10
566.1653883124754
 20
511.1718715986088
 30
0.0
 40
12.192
  1
衝撃を考慮した
 41
1.107142857142857
  7
ＭＳ ゴシック
100
AcDbText
  0
TEXT
  5
76
330
1F
100
AcDbEntity
  8
F-5ﾚｲﾔ
  6
Continuous
 62
     2
370
     9
100
AcDbText
 10
566.1653883124754
 20
479.1718715986088
 30
0.0
 40
12.192
  1
後輪1輪荷重
 41
1.102272727272727
  7
ＭＳ ゴシック
100
AcDbText
  0
LINE
  5
77
330
1F
100
AcDbEntity
  8
F-5ﾚｲﾔ
  6
Continuous
 62
     7
370
     9
100
AcDbLine
 10
555.518498254015
 20
436.9158715986089
 30
0.0
 11
1124.205175136017
 21
436.9158715986089
 31
0.0
  0
TEXT
  5
78
330
1F
100
AcDbEntity
  8
F-5ﾚｲﾔ
  6
Continuous
 62
     2
370
     9
100
AcDbText
 10
566.1653883124754
 20
447.1718715986088
 30
0.0
 40
12.192
  1
後輪接地面積
 41
1.104166666666667
  7
ＭＳ ゴシック
100
AcDbText
  0
LINE
  5
79
330
1F
100
AcDbEntity
  8
F-5ﾚｲﾔ
  6
Continuous
 62
     7
370
     9
100
AcDbLine
 10
707.7139499832415
 20
728.915871598609
 30
0.0
 11
707.7139499832415
 21
436.9158715986089
 31
0.0
  0
LINE
  5
7A
330
1F
100
AcDbEntity
  8
F-5ﾚｲﾔ
  6
Continuous
 62
     7
370
     9
100
AcDbLine
 10
555.518498254015
 20
760.915871598609
 30
0.0
 11
555.518498254015
 21
436.9158715986089
 31
0.0
  0
LINE
  5
7B
330
1F
100
AcDbEntity
  8
F-5ﾚｲﾔ
  6
Continuous
 62
     7
370
     9
100
AcDbLine
 10
1124.205175136017
 20
760.915871598609
 30
0.0
 11
1124.205175136017
 21
436.9158715986089
 31
0.0
  0
TEXT
  5
7C
330
1F
100
AcDbEntity
  8
F-5ﾚｲﾔ
  6
Continuous
 62
     2
370
     9
100
AcDbText
 10
724.2479107408512
 20
575.1718715986088
 30
0.0
 40
12.192
  1
横断方向、縦断方向
 41
1.111111111111111
  7
ＭＳ ゴシック
100
AcDbText
  0
TEXT
  5
7D
330
1F
100
AcDbEntity
  8
F-5ﾚｲﾔ
  6
Continuous
 62
     2
370
     9
100
AcDbText
 10
724.2479107408512
 20
543.1718715986088
 30
0.0
 40
12.192
  1
0.1
 41
1.083333333333333
  7
ＭＳ ゴシック
100
AcDbText
  0
TEXT
  5
7E
330
1F
100
AcDbEntity
  8
F-5ﾚｲﾔ
  6
Continuous
 62
     2
370
     9
100
AcDbText
 10
724.2479107408512
 20
447.1718715986088
 30
0.0
 40
12.192
  1
200×160 mm
 41
1.113636363636364
  7
ＭＳ ゴシック
100
AcDbText
  0
TEXT
  5
7F
330
1F
100
AcDbEntity
  8
F-5ﾚｲﾔ
  6
Continuous
 62
     2
370
     9
100
AcDbText
 10
724.2479107408512
 20
495.1718715986088
 30
0.0
 40
12.192
  1
8.6kN
 41
1.1
  7
ＭＳ ゴシック
100
AcDbText
  0
LINE
  5
80
330
1F
100
AcDbEntity
  8
建具
  6
Continuous
 62
     4
370
     9
100
AcDbLine
 10
-555.3211251478838
 20
70.6575674391645
 30
0.0
 11
-555.3211251478838
 21
64.55743349174077
 31
0.0
  0
LINE
  5
81
330
1F
100
AcDbEntity
  8
建具
  6
Continuous
 62
     4
370
     9
100
AcDbLine
 10
-455.3211663878539
 20
80.65735299131825
 30
0.0
 11
-545.3210921559073
 21
80.65735299131825
 31
0.0
  0
LINE
  5
82
330
1F
100
AcDbEntity
  8
建具
  6
Continuous
 62
     4
370
     9
100
AcDbLine
 10
-445.3212571157889
 20
70.6575674391645
 30
0.0
 11
-445.3212571157889
 21
64.55743349174077
 31
0.0
  0
LINE
  5
83
330
1F
100
AcDbEntity
  8
建具
  6
Continuous
 62
     4
370
     9
100
AcDbLine
 10
-454.3211383446741
 20
70.6575674391645
 30
0.0
 11
-454.3211383446741
 21
64.55743349174077
 31
0.0
  0
LINE
  5
84
330
1F
100
AcDbEntity
  8
建具
  6
Continuous
 62
     4
370
     9
100
AcDbLine
 10
-545.3210921559073
 20
71.65747176243326
 30
0.0
 11
-455.3210426679427
 21
71.65747176243326
 31
0.0
  0
LINE
  5
85
330
1F
100
AcDbEntity
  8
建具
  6
Continuous
 62
     4
370
     9
100
AcDbLine
 10
-546.3211201990873
 20
70.6575674391645
 30
0.0
 11
-546.3211201990873
 21
64.55743349174077
 31
0.0
  0
LINE
  5
86
330
1F
100
AcDbEntity
  8
建具
  6
JWW_CENTER1
 62
     4
370
     9
100
AcDbLine
 10
-550.821184533441
 20
56.45006770310033
 30
0.0
 11
-550.821184533441
 21
72.04768436272911
 31
0.0
  0
LINE
  5
87
330
1F
100
AcDbEntity
  8
建具
  6
JWW_CENTER1
 62
     4
370
     9
100
AcDbLine
 10
-542.6581447847079
 20
64.55743349174077
 30
0.0
 11
-559.0651371041758
 21
64.55743349174077
 31
0.0
  0
LINE
  5
88
330
1F
100
AcDbEntity
  8
建具
  6
JWW_CENTER1
 62
     4
370
     9
100
AcDbLine
 10
-449.8210121503645
 20
56.45006770310033
 30
0.0
 11
-449.8210121503645
 21
72.04768436272911
 31
0.0
  0
LINE
  5
89
330
1F
100
AcDbEntity
  8
建具
  6
JWW_CENTER1
 62
     4
370
     9
100
AcDbLine
 10
-441.658034261587
 20
64.55743349174077
 30
0.0
 11
-458.0652121609218
 21
64.55743349174077
 31
0.0
  0
LINE
  5
8A
330
1F
100
AcDbEntity
  8
建具
  6
Continuous
 62
     4
370
     9
100
AcDbLine
 10
-55.32105297793535
 20
70.6575674391645
 30
0.0
 11
-55.32105297793535
 21
64.55743349174077
 31
0.0
  0
LINE
  5
8B
330
1F
100
AcDbEntity
  8
建具
  6
Continuous
 62
     4
370
     9
100
AcDbLine
 10
44.67890578209418
 20
80.65735299131825
 30
0.0
 11
-45.32101998595893
 21
80.65735299131825
 31
0.0
  0
LINE
  5
8C
330
1F
100
AcDbEntity
  8
建具
  6
Continuous
 62
     4
370
     9
100
AcDbLine
 10
54.67893877407062
 20
70.6575674391645
 30
0.0
 11
54.67893877407062
 21
64.55743349174077
 31
0.0
  0
LINE
  5
8D
330
1F
100
AcDbEntity
  8
建具
  6
Continuous
 62
     4
370
     9
100
AcDbLine
 10
45.67893382527414
 20
70.6575674391645
 30
0.0
 11
45.67893382527414
 21
64.55743349174077
 31
0.0
  0
LINE
  5
8E
330
1F
100
AcDbEntity
  8
建具
  6
Continuous
 62
     4
370
     9
100
AcDbLine
 10
-45.32101998595893
 20
71.65747176243326
 30
0.0
 11
44.67902950200551
 21
71.65747176243326
 31
0.0
  0
LINE
  5
8F
330
1F
100
AcDbEntity
  8
建具
  6
Continuous
 62
     4
370
     9
100
AcDbLine
 10
-46.32117174905024
 20
70.6575674391645
 30
0.0
 11
-46.32117174905024
 21
64.55743349174077
 31
0.0
  0
LINE
  5
90
330
1F
100
AcDbEntity
  8
建具
  6
JWW_CENTER1
 62
     4
370
     9
100
AcDbLine
 10
-50.82111236349279
 20
56.45006770310033
 30
0.0
 11
-50.82111236349279
 21
72.04768436272911
 31
0.0
  0
LINE
  5
91
330
1F
100
AcDbEntity
  8
建具
  6
JWW_CENTER1
 62
     4
370
     9
100
AcDbLine
 10
-42.65807261475961
 20
64.55743349174077
 30
0.0
 11
-59.06518865413889
 21
64.55743349174077
 31
0.0
  0
LINE
  5
92
330
1F
100
AcDbEntity
  8
建具
  6
JWW_CENTER1
 62
     4
370
     9
100
AcDbLine
 10
50.17912187953937
 20
56.45006770310033
 30
0.0
 11
50.17912187953937
 21
72.04768436272911
 31
0.0
  0
LINE
  5
93
330
1F
100
AcDbEntity
  8
建具
  6
JWW_CENTER1
 62
     4
370
     9
100
AcDbLine
 10
58.34179046853846
 20
64.55743349174077
 30
0.0
 11
41.93492186898195
 21
64.55743349174077
 31
0.0
  0
LINE
  5
94
330
1F
100
AcDbEntity
  8
建具
  6
Continuous
 62
     4
370
     9
100
AcDbLine
 10
-750.3210261719546
 20
60.05749287729827
 30
0.0
 11
-750.3210261719546
 21
0.0575423652628615
 31
0.0
  0
CIRCLE
  5
95
330
1F
100
AcDbEntity
  8
建具
  6
Continuous
 62
     4
370
     9
100
AcDbCircle
 10
-550.821184533441
 20
64.55743349174077
 30
0.0
 40
4.500000057993709
  0
CIRCLE
  5
96
330
1F
100
AcDbEntity
  8
建具
  6
Continuous
 62
     4
370
     9
100
AcDbCircle
 10
-449.8211977302316
 20
64.55743349174077
 30
0.0
 40
4.500000057993709
  0
ARC
  5
97
330
1F
100
AcDbEntity
  8
建具
  6
Continuous
 62
     4
370
     9
100
AcDbCircle
 10
-545.3210921559073
 20
70.6575674391645
 30
0.0
 40
9.9999991623131
100
AcDbArc
 50
90.0
 51
180.0
  0
ARC
  5
98
330
1F
100
AcDbEntity
  8
建具
  6
Continuous
 62
     4
370
     9
100
AcDbCircle
 10
-455.3211663878539
 20
70.6575674391645
 30
0.0
 40
9.9999991623131
100
AcDbArc
 50
0.0
 51
90.0
  0
ARC
  5
99
330
1F
100
AcDbEntity
  8
建具
  6
Continuous
 62
     4
370
     9
100
AcDbCircle
 10
-455.3210426679427
 20
70.6575674391645
 30
0.0
 40
0.9999999524773778
100
AcDbArc
 50
0.0
 51
90.0
  0
ARC
  5
9A
330
1F
100
AcDbEntity
  8
建具
  6
Continuous
 62
     4
370
     9
100
AcDbCircle
 10
-545.3210921559073
 20
70.6575674391645
 30
0.0
 40
0.9999999524773778
100
AcDbArc
 50
90.0
 51
180.0
  0
CIRCLE
  5
9B
330
1F
100
AcDbEntity
  8
建具
  6
Continuous
 62
     4
370
     9
100
AcDbCircle
 10
-50.82111236349279
 20
64.55743349174077
 30
0.0
 40
4.500000057993709
  0
CIRCLE
  5
9C
330
1F
100
AcDbEntity
  8
建具
  6
Continuous
 62
     4
370
     9
100
AcDbCircle
 10
50.17887443971672
 20
64.55743349174077
 30
0.0
 40
4.500000057993709
  0
ARC
  5
9D
330
1F
100
AcDbEntity
  8
建具
  6
Continuous
 62
     4
370
     9
100
AcDbCircle
 10
-45.32101998595893
 20
70.6575674391645
 30
0.0
 40
9.9999991623131
100
AcDbArc
 50
90.0
 51
180.0
  0
ARC
  5
9E
330
1F
100
AcDbEntity
  8
建具
  6
Continuous
 62
     4
370
     9
100
AcDbCircle
 10
44.67890578209418
 20
70.6575674391645
 30
0.0
 40
9.9999991623131
100
AcDbArc
 50
0.0
 51
90.0
  0
ARC
  5
9F
330
1F
100
AcDbEntity
  8
建具
  6
Continuous
 62
     4
370
     9
100
AcDbCircle
 10
44.67902950200551
 20
70.6575674391645
 30
0.0
 40
0.9999999524773778
100
AcDbArc
 50
0.0
 51
90.0
  0
ARC
  5
A0
330
1F
100
AcDbEntity
  8
建具
  6
Continuous
 62
     4
370
     9
100
AcDbCircle
 10
-45.32101998595893
 20
70.6575674391645
 30
0.0
 40
0.9999999524773778
100
AcDbArc
 50
90.0
 51
180.0
  0
LINE
  5
A1
330
1F
100
AcDbEntity
  8
建具
  6
Continuous
 62
     4
370
     9
100
AcDbLine
 10
178.4919982237252
 20
60.05749287729827
 30
0.0
 11
-750.3210261719546
 21
60.05749287729827
 31
0.0
  0
LINE
  5
A2
330
1F
100
AcDbEntity
  8
建具
  6
Continuous
 62
     4
370
     9
100
AcDbLine
 10
178.4919982237252
 20
54.05757205804161
 30
0.0
 11
-750.3210261719546
 21
54.05757205804161
 31
0.0
  0
LINE
  5
A3
330
1F
100
AcDbEntity
  8
躯体
  6
JWW_DASHED3
 62
     2
370
     9
100
AcDbLine
 10
-149.8210261719555
 20
0.0575423652628615
 30
0.0
 11
-750.3210261719546
 21
0.0575423652628615
 31
0.0
  0
LINE
  5
A4
330
1F
100
AcDbEntity
  8
躯体
  6
Continuous
 62
     2
370
     9
100
AcDbLine
 10
178.4919982237252
 20
0.0575423652628615
 30
0.0
 11
-149.8210261719555
 21
0.0575423652628615
 31
0.0
  0
LINE
  5
A5
330
1F
100
AcDbEntity
  8
その他
  6
Continuous
 62
     7
370
     9
100
AcDbLine
 10
-750.3210261719546
 20
175.5008139124243
 30
0.0
 11
178.4919982237252
 21
175.5008139124243
 31
0.0
  0
LWPOLYLINE
  5
A6
330
1F
100
AcDbEntity
  8
その他
  6
Continuous
 62
     7
370
     9
100
AcDbPolyline
 90
        4
 70
     1
 43
0.4
 10
-750.1210261719546
 20
175.5008139124243
 42
0.4142135623731
 10
-750.3210261719546
 20
175.7008139124243
 42
0.4142135623731
 10
-750.5210261719546
 20
175.5008139124243
 42
0.4142135623731
 10
-750.3210261719546
 20
175.3008139124243
 42
0.4142135623731
  0
LINE
  5
A7
330
1F
100
AcDbEntity
  8
その他
  6
Continuous
 62
     7
370
     9
100
AcDbLine
 10
-750.3210261719546
 20
176.7008139124241
 30
0.0
 11
-750.3210261719546
 21
68.05749287729827
 31
0.0
  0
LINE
  5
A8
330
1F
100
AcDbEntity
  8
その他
  6
Continuous
 62
     7
370
     9
100
AcDbLine
 10
-750.3210261719546
 20
132.6801646308913
 30
0.0
 11
-500.3211292718806
 21
132.6801646308913
 31
0.0
  0
LWPOLYLINE
  5
A9
330
1F
100
AcDbEntity
  8
その他
  6
Continuous
 62
     7
370
     9
100
AcDbPolyline
 90
        4
 70
     1
 43
0.4
 10
-750.1210261719546
 20
132.6801646308913
 42
0.4142135623731
 10
-750.3210261719546
 20
132.8801646308913
 42
0.4142135623731
 10
-750.5210261719546
 20
132.6801646308913
 42
0.4142135623731
 10
-750.3210261719546
 20
132.4801646308914
 42
0.4142135623731
  0
LWPOLYLINE
  5
AA
330
1F
100
AcDbEntity
  8
その他
  6
Continuous
 62
     7
370
     9
100
AcDbPolyline
 90
        4
 70
     1
 43
0.4
 10
-500.1211292718806
 20
132.6801646308913
 42
0.4142135623731
 10
-500.3211292718806
 20
132.8801646308913
 42
0.4142135623731
 10
-500.5211292718806
 20
132.6801646308913
 42
0.4142135623731
 10
-500.3211292718806
 20
132.4801646308914
 42
0.4142135623731
  0
LINE
  5
AB
330
1F
100
AcDbEntity
  8
その他
  6
Continuous
 62
     7
370
     9
100
AcDbLine
 10
-500.3211292718806
 20
133.8801646308914
 30
0.0
 11
-500.3211292718806
 21
88.65735299131825
 31
0.0
  0
TEXT
  5
AC
330
1F
100
AcDbEntity
  8
その他
  6
Continuous
 62
     2
370
   211
100
AcDbText
 10
-638.3210777219176
 20
137.3361646308914
 30
0.0
 40
12.192
  1
250
 41
1.083333333333333
  7
ＭＳ ゴシック
100
AcDbText
  0
LINE
  5
AD
330
1F
100
AcDbEntity
  8
その他
  6
Continuous
 62
     7
370
     9
100
AcDbLine
 10
-500.3211292718806
 20
132.6801646308913
 30
0.0
 11
-0.3210571019323751
 21
132.6801646308913
 31
0.0
  0
LWPOLYLINE
  5
AE
330
1F
100
AcDbEntity
  8
その他
  6
Continuous
 62
     7
370
     9
100
AcDbPolyline
 90
        4
 70
     1
 43
0.4
 10
-0.1210571019323751
 20
132.6801646308913
 42
0.4142135623731
 10
-0.3210571019323751
 20
132.8801646308913
 42
0.4142135623731
 10
-0.5210571019323751
 20
132.6801646308913
 42
0.4142135623731
 10
-0.3210571019323751
 20
132.4801646308914
 42
0.4142135623731
  0
LINE
  5
AF
330
1F
100
AcDbEntity
  8
その他
  6
Continuous
 62
     7
370
     9
100
AcDbLine
 10
-0.3210571019323751
 20
133.8801646308914
 30
0.0
 11
-0.3210571019323751
 21
88.65735299131825
 31
0.0
  0
TEXT
  5
B0
330
1F
100
AcDbEntity
  8
その他
  6
Continuous
 62
     2
370
   211
100
AcDbText
 10
-263.3210931869065
 20
137.3361646308914
 30
0.0
 40
12.192
  1
500
 41
1.083333333333332
  7
ＭＳ ゴシック
100
AcDbText
  0
LINE
  5
B1
330
1F
100
AcDbEntity
  8
その他
  6
Continuous
 62
     7
370
     9
100
AcDbLine
 10
-0.3210571019323751
 20
132.6801646308913
 30
0.0
 11
178.4919982237252
 21
132.6801646308913
 31
0.0
  0
TEXT
  5
B2
330
1F
100
AcDbEntity
  8
その他
  6
Continuous
 62
     2
370
   211
100
AcDbText
 10
-307.9145139741146
 20
180.1568139124242
 30
0.0
 40
12.192
  1
2000
 41
1.09375
  7
ＭＳ ゴシック
100
AcDbText
  0
TEXT
  5
B3
330
1F
100
AcDbEntity
  8
その他
  6
Continuous
 62
     2
370
   211
100
AcDbText
 10
149.5615525057596
 20
137.3361646308914
 30
0.0
 40
12.192
  1
500
 41
1.083333333333333
  7
ＭＳ ゴシック
100
AcDbText
  0
LWPOLYLINE
  5
B4
330
1F
100
AcDbEntity
  8
その他
  6
Continuous
 62
     7
370
     9
100
AcDbPolyline
 90
        4
 70
     1
 43
0.4
 10
376.5547025267495
 20
60.05749287729827
 42
0.4142135623731
 10
376.3547025267495
 20
60.25749287729828
 42
0.4142135623731
 10
376.1547025267495
 20
60.05749287729827
 42
0.4142135623731
 10
376.3547025267495
 20
59.85749287729827
 42
0.4142135623731
  0
LWPOLYLINE
  5
B5
330
1F
100
AcDbEntity
  8
その他
  6
Continuous
 62
     7
370
     9
100
AcDbPolyline
 90
        4
 70
     1
 43
0.4
 10
409.8915838466004
 20
50.55784023568071
 42
0.4142135623731
 10
409.6915838466004
 20
50.75784023568072
 42
0.4142135623731
 10
409.4915838466004
 20
50.55784023568071
 42
0.4142135623731
 10
409.6915838466004
 20
50.35784023568071
 42
0.4142135623731
  0
LINE
  5
B6
330
1F
100
AcDbEntity
  8
その他
  6
Continuous
 62
     7
370
     9
100
AcDbLine
 10
409.6915838466004
 20
50.55784023568071
 30
0.0
 11
409.6915838466004
 21
54.05757205804161
 31
0.0
  0
LWPOLYLINE
  5
B7
330
1F
100
AcDbEntity
  8
その他
  6
Continuous
 62
     7
370
     9
100
AcDbPolyline
 90
        4
 70
     1
 43
0.4
 10
409.8915838466004
 20
54.05757205804161
 42
0.4142135623731
 10
409.6915838466004
 20
54.25757205804162
 42
0.4142135623731
 10
409.4915838466004
 20
54.05757205804161
 42
0.4142135623731
 10
409.6915838466004
 20
53.85757205804161
 42
0.4142135623731
  0
LINE
  5
B8
330
1F
100
AcDbEntity
  8
その他
  6
Continuous
 62
     7
370
     9
100
AcDbLine
 10
409.6915838466004
 20
54.05757205804161
 30
0.0
 11
409.6915838466004
 21
60.05749695614327
 31
0.0
  0
LWPOLYLINE
  5
B9
330
1F
100
AcDbEntity
  8
その他
  6
Continuous
 62
     7
370
     9
100
AcDbPolyline
 90
        4
 70
     1
 43
0.4
 10
409.8915838466004
 20
60.05749695614327
 42
0.4142135623731
 10
409.6915838466004
 20
60.25749695614327
 42
0.4142135623731
 10
409.4915838466004
 20
60.05749695614327
 42
0.4142135623731
 10
409.6915838466004
 20
59.85749695614327
 42
0.4142135623731
  0
LINE
  5
BA
330
1F
100
AcDbEntity
  8
その他
  6
Continuous
 62
     7
370
     9
100
AcDbLine
 10
375.1547025267495
 20
60.05749287729827
 30
0.0
 11
520.9687737872124
 21
60.05749287729827
 31
0.0
  0
LINE
  5
BB
330
1F
100
AcDbEntity
  8
その他
  6
Continuous
 62
     7
370
     9
100
AcDbLine
 10
408.4915838466004
 20
50.55784023568071
 30
0.0
 11
520.9687737872124
 21
50.55784023568071
 31
0.0
  0
LINE
  5
BC
330
1F
100
AcDbEntity
  8
その他
  6
Continuous
 62
     7
370
     9
100
AcDbLine
 10
408.4915838466004
 20
54.05757205804161
 30
0.0
 11
520.9687737872124
 21
54.05757205804161
 31
0.0
  0
TEXT
  5
BD
330
1F
100
AcDbEntity
  8
その他
  6
Continuous
 62
     2
370
   211
100
AcDbText
 10
405.0355838466004
 20
64.89948933079154
 30
0.0
 40
12.192
  1
6
 50
90.0
  7
ＭＳ ゴシック
100
AcDbText
  0
TEXT
  5
BE
330
1F
100
AcDbEntity
  8
その他
  6
Continuous
 62
     2
370
   211
100
AcDbText
 10
405.0355838466004
 20
29.33216628661921
 30
0.0
 40
12.192
  1
3.5
 50
90.0
 41
1.083333333333333
  7
ＭＳ ゴシック
100
AcDbText
  0
LINE
  5
BF
330
1F
100
AcDbEntity
  8
その他
  6
Continuous
 62
     7
370
     9
100
AcDbLine
 10
409.6915838466004
 20
60.05749695614327
 30
0.0
 11
409.6915838466004
 21
77.7552636788489
 31
0.0
  0
LWPOLYLINE
  5
C0
330
1F
100
AcDbEntity
  8
その他
  6
Continuous
 62
     7
370
     9
100
AcDbPolyline
 90
        4
 70
     1
 43
0.4
 10
442.071821561697
 20
33.05778037881123
 42
0.4142135623731
 10
441.871821561697
 20
33.25778037881123
 42
0.4142135623731
 10
441.671821561697
 20
33.05778037881123
 42
0.4142135623731
 10
441.871821561697
 20
32.85778037881123
 42
0.4142135623731
  0
LINE
  5
C1
330
1F
100
AcDbEntity
  8
その他
  6
Continuous
 62
     7
370
     9
100
AcDbLine
 10
440.671821561697
 20
33.05778037881123
 30
0.0
 11
520.9687737872124
 21
33.05778037881123
 31
0.0
  0
LWPOLYLINE
  5
C2
330
1F
100
AcDbEntity
  8
その他
  6
Continuous
 62
     7
370
     9
100
AcDbPolyline
 90
        4
 70
     1
 43
0.4
 10
531.8416775261086
 20
114.7962429231277
 42
0.4142135623731
 10
531.6416775261085
 20
114.9962429231277
 42
0.4142135623731
 10
531.4416775261085
 20
114.7962429231277
 42
0.4142135623731
 10
531.6416775261085
 20
114.5962429231277
 42
0.4142135623731
  0
LINE
  5
C3
330
1F
100
AcDbEntity
  8
その他
  6
Continuous
 62
     7
370
     9
100
AcDbLine
 10
531.6416775261085
 20
145.8844813478217
 30
0.0
 11
531.6416775261085
 21
68.05749287729827
 31
0.0
  0
LWPOLYLINE
  5
C4
330
1F
100
AcDbEntity
  8
その他
  6
Continuous
 62
     7
370
     9
100
AcDbPolyline
 90
        4
 70
     1
 43
0.4
 10
531.8416775261086
 20
144.6844813478217
 42
0.4142135623731
 10
531.6416775261085
 20
144.8844813478217
 42
0.4142135623731
 10
531.4416775261085
 20
144.6844813478217
 42
0.4142135623731
 10
531.6416775261085
 20
144.4844813478217
 42
0.4142135623731
  0
LINE
  5
C5
330
1F
100
AcDbEntity
  8
寸法
  6
Continuous
 62
     7
370
     9
100
AcDbLine
 10
554.0930078463297
 20
60.05736915738839
 30
0.0
 11
548.0053935562422
 21
67.99090256030081
 31
0.0
  0
LINE
  5
C6
330
1F
100
AcDbEntity
  8
寸法
  6
Continuous
 62
     7
370
     9
100
AcDbLine
 10
554.0930078463297
 20
60.05736915738839
 30
0.0
 11
550.2661735226787
 21
69.29616448250135
 31
0.0
  0
LINE
  5
C7
330
1F
100
AcDbEntity
  8
寸法
  6
Continuous
 62
     7
370
     9
100
AcDbLine
 10
450.8995952931161
 20
238.7938089058202
 30
0.0
 11
554.0931268958691
 21
60.05736915738839
 31
0.0
  0
LINE
  5
C8
330
1F
100
AcDbEntity
  8
建具
  6
Continuous
 62
     4
370
     9
100
AcDbLine
 10
-555.3211251478838
 20
-320.5424827086392
 30
0.0
 11
-555.3211251478838
 21
-314.4423487612155
 31
0.0
  0
LINE
  5
C9
330
1F
100
AcDbEntity
  8
建具
  6
Continuous
 62
     4
370
     9
100
AcDbLine
 10
-455.3211663878539
 20
-330.542268260793
 30
0.0
 11
-545.3210921559073
 21
-330.542268260793
 31
0.0
  0
LINE
  5
CA
330
1F
100
AcDbEntity
  8
建具
  6
Continuous
 62
     4
370
     9
100
AcDbLine
 10
-445.3212571157889
 20
-320.5424827086392
 30
0.0
 11
-445.3212571157889
 21
-314.4423487612155
 31
0.0
  0
LINE
  5
CB
330
1F
100
AcDbEntity
  8
建具
  6
Continuous
 62
     4
370
     9
100
AcDbLine
 10
-454.3211383446741
 20
-320.5424827086392
 30
0.0
 11
-454.3211383446741
 21
-314.4423487612155
 31
0.0
  0
LINE
  5
CC
330
1F
100
AcDbEntity
  8
建具
  6
Continuous
 62
     4
370
     9
100
AcDbLine
 10
-545.3210921559073
 20
-321.542387031908
 30
0.0
 11
-455.3210426679427
 21
-321.542387031908
 31
0.0
  0
LINE
  5
CD
330
1F
100
AcDbEntity
  8
建具
  6
Continuous
 62
     4
370
     9
100
AcDbLine
 10
-546.3211201990873
 20
-320.5424827086392
 30
0.0
 11
-546.3211201990873
 21
-314.4423487612155
 31
0.0
  0
LINE
  5
CE
330
1F
100
AcDbEntity
  8
建具
  6
JWW_CENTER1
 62
     4
370
     9
100
AcDbLine
 10
-550.821184533441
 20
-306.3349829725751
 30
0.0
 11
-550.821184533441
 21
-321.9325996322034
 31
0.0
  0
LINE
  5
CF
330
1F
100
AcDbEntity
  8
建具
  6
JWW_CENTER1
 62
     4
370
     9
100
AcDbLine
 10
-542.6581447847079
 20
-314.4423487612155
 30
0.0
 11
-559.0651371041758
 21
-314.4423487612155
 31
0.0
  0
LINE
  5
D0
330
1F
100
AcDbEntity
  8
建具
  6
JWW_CENTER1
 62
     4
370
     9
100
AcDbLine
 10
-449.8210121503645
 20
-306.3349829725751
 30
0.0
 11
-449.8210121503645
 21
-321.9325996322034
 31
0.0
  0
LINE
  5
D1
330
1F
100
AcDbEntity
  8
建具
  6
JWW_CENTER1
 62
     4
370
     9
100
AcDbLine
 10
-441.658034261587
 20
-314.4423487612155
 30
0.0
 11
-458.0652121609218
 21
-314.4423487612155
 31
0.0
  0
LINE
  5
D2
330
1F
100
AcDbEntity
  8
建具
  6
Continuous
 62
     4
370
     9
100
AcDbLine
 10
-55.32105297793535
 20
-320.5424827086392
 30
0.0
 11
-55.32105297793535
 21
-314.4423487612155
 31
0.0
  0
LINE
  5
D3
330
1F
100
AcDbEntity
  8
建具
  6
Continuous
 62
     4
370
     9
100
AcDbLine
 10
44.67890578209418
 20
-330.542268260793
 30
0.0
 11
-45.32101998595893
 21
-330.542268260793
 31
0.0
  0
LINE
  5
D4
330
1F
100
AcDbEntity
  8
建具
  6
Continuous
 62
     4
370
     9
100
AcDbLine
 10
54.67893877407062
 20
-320.5424827086392
 30
0.0
 11
54.67893877407062
 21
-314.4423487612155
 31
0.0
  0
LINE
  5
D5
330
1F
100
AcDbEntity
  8
建具
  6
Continuous
 62
     4
370
     9
100
AcDbLine
 10
45.67893382527414
 20
-320.5424827086392
 30
0.0
 11
45.67893382527414
 21
-314.4423487612155
 31
0.0
  0
LINE
  5
D6
330
1F
100
AcDbEntity
  8
建具
  6
Continuous
 62
     4
370
     9
100
AcDbLine
 10
-45.32101998595893
 20
-321.542387031908
 30
0.0
 11
44.67902950200551
 21
-321.542387031908
 31
0.0
  0
LINE
  5
D7
330
1F
100
AcDbEntity
  8
建具
  6
Continuous
 62
     4
370
     9
100
AcDbLine
 10
-46.32117174905024
 20
-320.5424827086392
 30
0.0
 11
-46.32117174905024
 21
-314.4423487612155
 31
0.0
  0
LINE
  5
D8
330
1F
100
AcDbEntity
  8
建具
  6
JWW_CENTER1
 62
     4
370
     9
100
AcDbLine
 10
-50.82111236349279
 20
-306.3349829725751
 30
0.0
 11
-50.82111236349279
 21
-321.9325996322034
 31
0.0
  0
LINE
  5
D9
330
1F
100
AcDbEntity
  8
建具
  6
JWW_CENTER1
 62
     4
370
     9
100
AcDbLine
 10
-42.65807261475961
 20
-314.4423487612155
 30
0.0
 11
-59.06518865413889
 21
-314.4423487612155
 31
0.0
  0
LINE
  5
DA
330
1F
100
AcDbEntity
  8
建具
  6
JWW_CENTER1
 62
     4
370
     9
100
AcDbLine
 10
50.17912187953937
 20
-306.3349829725751
 30
0.0
 11
50.17912187953937
 21
-321.9325996322034
 31
0.0
  0
LINE
  5
DB
330
1F
100
AcDbEntity
  8
建具
  6
JWW_CENTER1
 62
     4
370
     9
100
AcDbLine
 10
58.34179046853846
 20
-314.4423487612155
 30
0.0
 11
41.93492186898195
 21
-314.4423487612155
 31
0.0
  0
LINE
  5
DC
330
1F
100
AcDbEntity
  8
建具
  6
Continuous
 62
     4
370
     9
100
AcDbLine
 10
-750.3210261719546
 20
-309.9424081467726
 30
0.0
 11
-750.3210261719546
 21
-249.9424576347371
 31
0.0
  0
CIRCLE
  5
DD
330
1F
100
AcDbEntity
  8
建具
  6
Continuous
 62
     4
370
     9
100
AcDbCircle
 10
-550.821184533441
 20
-314.4423487612155
 30
0.0
 40
4.500000057993709
  0
CIRCLE
  5
DE
330
1F
100
AcDbEntity
  8
建具
  6
Continuous
 62
     4
370
     9
100
AcDbCircle
 10
-449.8211977302316
 20
-314.4423487612155
 30
0.0
 40
4.500000057993709
  0
ARC
  5
DF
330
1F
100
AcDbEntity
  8
建具
  6
Continuous
 62
     4
370
     9
100
AcDbCircle
 10
-545.3210921559073
 20
-320.5424827086392
 30
0.0
 40
9.9999991623131
100
AcDbArc
 50
180.0
 51
270.0
  0
ARC
  5
E0
330
1F
100
AcDbEntity
  8
建具
  6
Continuous
 62
     4
370
     9
100
AcDbCircle
 10
-455.3211663878539
 20
-320.5424827086392
 30
0.0
 40
9.9999991623131
100
AcDbArc
 50
270.0
 51
0.0
  0
ARC
  5
E1
330
1F
100
AcDbEntity
  8
建具
  6
Continuous
 62
     4
370
     9
100
AcDbCircle
 10
-455.3210426679427
 20
-320.5424827086392
 30
0.0
 40
0.9999999524773778
100
AcDbArc
 50
270.0
 51
0.0
  0
ARC
  5
E2
330
1F
100
AcDbEntity
  8
建具
  6
Continuous
 62
     4
370
     9
100
AcDbCircle
 10
-545.3210921559073
 20
-320.5424827086392
 30
0.0
 40
0.9999999524773778
100
AcDbArc
 50
180.0
 51
270.0
  0
CIRCLE
  5
E3
330
1F
100
AcDbEntity
  8
建具
  6
Continuous
 62
     4
370
     9
100
AcDbCircle
 10
-50.82111236349279
 20
-314.4423487612155
 30
0.0
 40
4.500000057993709
  0
CIRCLE
  5
E4
330
1F
100
AcDbEntity
  8
建具
  6
Continuous
 62
     4
370
     9
100
AcDbCircle
 10
50.17887443971672
 20
-314.4423487612155
 30
0.0
 40
4.500000057993709
  0
ARC
  5
E5
330
1F
100
AcDbEntity
  8
建具
  6
Continuous
 62
     4
370
     9
100
AcDbCircle
 10
-45.32101998595893
 20
-320.5424827086392
 30
0.0
 40
9.9999991623131
100
AcDbArc
 50
180.0
 51
270.0
  0
ARC
  5
E6
330
1F
100
AcDbEntity
  8
建具
  6
Continuous
 62
     4
370
     9
100
AcDbCircle
 10
44.67890578209418
 20
-320.5424827086392
 30
0.0
 40
9.9999991623131
100
AcDbArc
 50
270.0
 51
0.0
  0
ARC
  5
E7
330
1F
100
AcDbEntity
  8
建具
  6
Continuous
 62
     4
370
     9
100
AcDbCircle
 10
44.67902950200551
 20
-320.5424827086392
 30
0.0
 40
0.9999999524773778
100
AcDbArc
 50
270.0
 51
0.0
  0
ARC
  5
E8
330
1F
100
AcDbEntity
  8
建具
  6
Continuous
 62
     4
370
     9
100
AcDbCircle
 10
-45.32101998595893
 20
-320.5424827086392
 30
0.0
 40
0.9999999524773778
100
AcDbArc
 50
180.0
 51
270.0
  0
LINE
  5
E9
330
1F
100
AcDbEntity
  8
建具
  6
Continuous
 62
     4
370
     9
100
AcDbLine
 10
178.4919982237252
 20
-309.9424081467726
 30
0.0
 11
-750.3210261719546
 21
-309.9424081467726
 31
0.0
  0
LINE
  5
EA
330
1F
100
AcDbEntity
  8
建具
  6
Continuous
 62
     4
370
     9
100
AcDbLine
 10
178.4919982237252
 20
-303.9424873275159
 30
0.0
 11
-750.3210261719546
 21
-303.9424873275159
 31
0.0
  0
LINE
  5
EB
330
1F
100
AcDbEntity
  8
躯体
  6
JWW_DASHED3
 62
     2
370
     9
100
AcDbLine
 10
-149.8210261719555
 20
-249.9424576347371
 30
0.0
 11
-750.3210261719546
 21
-249.9424576347371
 31
0.0
  0
LINE
  5
EC
330
1F
100
AcDbEntity
  8
躯体
  6
Continuous
 62
     2
370
     9
100
AcDbLine
 10
178.4919982237252
 20
-249.9424576347371
 30
0.0
 11
-149.8210261719555
 21
-249.9424576347371
 31
0.0
  0
LINE
  5
ED
330
1F
100
AcDbEntity
  8
仕上
  6
JWW_CENTER1
 62
     3
370
     9
100
AcDbLine
 10
-147.8211236750289
 20
-300.4427555051482
 30
0.0
 11
178.4919982237252
 21
-300.4427555051482
 31
0.0
  0
LINE
  5
EE
330
1F
100
AcDbEntity
  8
その他
  6
Continuous
 62
     7
370
     9
100
AcDbLine
 10
-747.8210261719555
 20
-448.4055192435092
 30
0.0
 11
-149.8210261719555
 21
-448.4055192435092
 31
0.0
  0
LWPOLYLINE
  5
EF
330
1F
100
AcDbEntity
  8
その他
  6
Continuous
 62
     7
370
     9
100
AcDbPolyline
 90
        4
 70
     1
 43
0.4
 10
-747.6210261719555
 20
-448.4055192435092
 42
0.4142135623731
 10
-747.8210261719555
 20
-448.2055192435092
 42
0.4142135623731
 10
-748.0210261719556
 20
-448.4055192435092
 42
0.4142135623731
 10
-747.8210261719555
 20
-448.6055192435091
 42
0.4142135623731
  0
LWPOLYLINE
  5
F0
330
1F
100
AcDbEntity
  8
その他
  6
Continuous
 62
     7
370
     9
100
AcDbPolyline
 90
        4
 70
     1
 43
0.4
 10
-149.6210261719555
 20
-448.4055192435092
 42
0.4142135623731
 10
-149.8210261719555
 20
-448.2055192435092
 42
0.4142135623731
 10
-150.0210261719555
 20
-448.4055192435092
 42
0.4142135623731
 10
-149.8210261719555
 20
-448.6055192435091
 42
0.4142135623731
  0
TEXT
  5
F1
330
1F
100
AcDbEntity
  8
その他
  6
Continuous
 62
     2
370
   211
100
AcDbText
 10
-461.8210261719555
 20
-443.7495192435096
 30
0.0
 40
12.192
  1
598
 41
1.083333333333333
  7
ＭＳ ゴシック
100
AcDbText
  0
LINE
  5
F2
330
1F
100
AcDbEntity
  8
その他
  6
Continuous
 62
     7
370
     9
100
AcDbLine
 10
-149.8210261719555
 20
-448.4055192435092
 30
0.0
 11
-147.8211236750289
 21
-448.4055192435092
 31
0.0
  0
LWPOLYLINE
  5
F3
330
1F
100
AcDbEntity
  8
その他
  6
Continuous
 62
     7
370
     9
100
AcDbPolyline
 90
        4
 70
     1
 43
0.4
 10
-147.6211236750289
 20
-448.4055192435092
 42
0.4142135623731
 10
-147.8211236750289
 20
-448.2055192435092
 42
0.4142135623731
 10
-148.0211236750289
 20
-448.4055192435092
 42
0.4142135623731
 10
-147.8211236750289
 20
-448.6055192435091
 42
0.4142135623731
  0
LINE
  5
F4
330
1F
100
AcDbEntity
  8
その他
  6
Continuous
 62
     7
370
     9
100
AcDbLine
 10
-147.8211236750289
 20
-448.4055192435092
 30
0.0
 11
178.4919982237252
 21
-448.4055192435092
 31
0.0
  0
LINE
  5
F5
330
1F
100
AcDbEntity
  8
その他
  6
Continuous
 62
     7
370
     9
100
AcDbLine
 10
-743.3209413354439
 20
-410.3852957203583
 30
0.0
 11
-154.3211110084662
 21
-410.3852957203583
 31
0.0
  0
LWPOLYLINE
  5
F6
330
1F
100
AcDbEntity
  8
その他
  6
Continuous
 62
     7
370
     9
100
AcDbPolyline
 90
        4
 70
     1
 43
0.4
 10
-743.1209413354438
 20
-410.3852957203583
 42
0.4142135623731
 10
-743.3209413354439
 20
-410.1852957203583
 42
0.4142135623731
 10
-743.5209413354439
 20
-410.3852957203583
 42
0.4142135623731
 10
-743.3209413354439
 20
-410.5852957203583
 42
0.4142135623731
  0
LWPOLYLINE
  5
F7
330
1F
100
AcDbEntity
  8
その他
  6
Continuous
 62
     7
370
     9
100
AcDbPolyline
 90
        4
 70
     1
 43
0.4
 10
-154.1211110084662
 20
-410.3852957203583
 42
0.4142135623731
 10
-154.3211110084662
 20
-410.1852957203583
 42
0.4142135623731
 10
-154.5211110084662
 20
-410.3852957203583
 42
0.4142135623731
 10
-154.3211110084662
 20
-410.5852957203583
 42
0.4142135623731
  0
TEXT
  5
F8
330
1F
100
AcDbEntity
  8
その他
  6
Continuous
 62
     2
370
   211
100
AcDbText
 10
-461.821026171955
 20
-405.7292957203587
 30
0.0
 40
12.192
  1
589
 41
1.083333333333333
  7
ＭＳ ゴシック
100
AcDbText
  0
LINE
  5
F9
330
1F
100
AcDbEntity
  8
その他
  6
Continuous
 62
     7
370
     9
100
AcDbLine
 10
-747.8210261719555
 20
-449.6055192435094
 30
0.0
 11
-747.8210261719555
 21
-318.1660301535678
 31
0.0
  0
LINE
  5
FA
330
1F
100
AcDbEntity
  8
その他
  6
Continuous
 62
     7
370
     9
100
AcDbLine
 10
-743.3209413354439
 20
-411.5852957203585
 30
0.0
 11
-743.3209413354439
 21
-318.1660301535678
 31
0.0
  0
LINE
  5
FB
330
1F
100
AcDbEntity
  8
その他
  6
Continuous
 62
     7
370
     9
100
AcDbLine
 10
-147.8211236750289
 20
-449.6055192435094
 30
0.0
 11
-147.8211236750289
 21
-318.1660301535678
 31
0.0
  0
LINE
  5
FC
330
1F
100
AcDbEntity
  8
その他
  6
Continuous
 62
     7
370
     9
100
AcDbLine
 10
-149.8210261719555
 20
-449.6055192435094
 30
0.0
 11
-149.8210261719555
 21
-318.1660301535678
 31
0.0
  0
LINE
  5
FD
330
1F
100
AcDbEntity
  8
その他
  6
Continuous
 62
     7
370
     9
100
AcDbLine
 10
-154.3211110084662
 20
-411.5852957203585
 30
0.0
 11
-154.3211110084662
 21
-318.1660301535678
 31
0.0
  0
TEXT
  5
FE
330
1F
100
AcDbEntity
  8
その他
  6
Continuous
 62
     2
370
   211
100
AcDbText
 10
151.0517068431731
 20
-443.7495192435096
 30
0.0
 40
12.192
  1
598
 41
1.083333333333333
  7
ＭＳ ゴシック
100
AcDbText
  0
TEXT
  5
FF
330
1F
100
AcDbEntity
  8
その他
  6
Continuous
 62
     2
370
   211
100
AcDbText
 10
-141.5129552111105
 20
-443.7495192435096
 30
0.0
 40
12.192
  1
2
  7
ＭＳ ゴシック
100
AcDbText
  0
LWPOLYLINE
  5
100
330
1F
100
AcDbEntity
  8
その他
  6
Continuous
 62
     7
370
     9
100
AcDbPolyline
 90
        4
 70
     1
 43
0.4
 10
376.5547025267495
 20
-309.9424081467726
 42
0.4142135623731
 10
376.3547025267495
 20
-309.7424081467726
 42
0.4142135623731
 10
376.1547025267495
 20
-309.9424081467726
 42
0.4142135623731
 10
376.3547025267495
 20
-310.1424081467725
 42
0.4142135623731
  0
LINE
  5
101
330
1F
100
AcDbEntity
  8
その他
  6
Continuous
 62
     7
370
     9
100
AcDbLine
 10
409.6915838466004
 20
-309.9424081467726
 30
0.0
 11
409.6915838466004
 21
-303.9424873275159
 31
0.0
  0
LWPOLYLINE
  5
102
330
1F
100
AcDbEntity
  8
その他
  6
Continuous
 62
     7
370
     9
100
AcDbPolyline
 90
        4
 70
     1
 43
0.4
 10
409.8915838466004
 20
-309.9424081467726
 42
0.4142135623731
 10
409.6915838466004
 20
-309.7424081467726
 42
0.4142135623731
 10
409.4915838466004
 20
-309.9424081467726
 42
0.4142135623731
 10
409.6915838466004
 20
-310.1424081467725
 42
0.4142135623731
  0
LWPOLYLINE
  5
103
330
1F
100
AcDbEntity
  8
その他
  6
Continuous
 62
     7
370
     9
100
AcDbPolyline
 90
        4
 70
     1
 43
0.4
 10
409.8915838466004
 20
-303.9424873275159
 42
0.4142135623731
 10
409.6915838466004
 20
-303.7424873275159
 42
0.4142135623731
 10
409.4915838466004
 20
-303.9424873275159
 42
0.4142135623731
 10
409.6915838466004
 20
-304.1424873275159
 42
0.4142135623731
  0
LINE
  5
104
330
1F
100
AcDbEntity
  8
その他
  6
Continuous
 62
     7
370
     9
100
AcDbLine
 10
409.6915838466004
 20
-303.9424873275159
 30
0.0
 11
409.6915838466004
 21
-300.4427555051473
 31
0.0
  0
LWPOLYLINE
  5
105
330
1F
100
AcDbEntity
  8
その他
  6
Continuous
 62
     7
370
     9
100
AcDbPolyline
 90
        4
 70
     1
 43
0.4
 10
409.8915838466004
 20
-300.4427555051473
 42
0.4142135623731
 10
409.6915838466004
 20
-300.2427555051473
 42
0.4142135623731
 10
409.4915838466004
 20
-300.4427555051473
 42
0.4142135623731
 10
409.6915838466004
 20
-300.6427555051472
 42
0.4142135623731
  0
LINE
  5
106
330
1F
100
AcDbEntity
  8
その他
  6
Continuous
 62
     7
370
     9
100
AcDbLine
 10
500.7630757749309
 20
-303.9424873275159
 30
0.0
 11
500.7630757749309
 21
-297.9427555051473
 31
0.0
  0
LWPOLYLINE
  5
107
330
1F
100
AcDbEntity
  8
その他
  6
Continuous
 62
     7
370
     9
100
AcDbPolyline
 90
        4
 70
     1
 43
0.4
 10
500.9630757749309
 20
-303.9424873275159
 42
0.4142135623731
 10
500.7630757749309
 20
-303.7424873275159
 42
0.4142135623731
 10
500.563075774931
 20
-303.9424873275159
 42
0.4142135623731
 10
500.7630757749309
 20
-304.1424873275159
 42
0.4142135623731
  0
LWPOLYLINE
  5
108
330
1F
100
AcDbEntity
  8
その他
  6
Continuous
 62
     7
370
     9
100
AcDbPolyline
 90
        4
 70
     1
 43
0.4
 10
500.9630757749309
 20
-297.9427555051473
 42
0.4142135623731
 10
500.7630757749309
 20
-297.7427555051473
 42
0.4142135623731
 10
500.563075774931
 20
-297.9427555051473
 42
0.4142135623731
 10
500.7630757749309
 20
-298.1427555051472
 42
0.4142135623731
  0
LINE
  5
109
330
1F
100
AcDbEntity
  8
その他
  6
Continuous
 62
     7
370
     9
100
AcDbLine
 10
500.7630757749309
 20
-297.9427555051473
 30
0.0
 11
500.7630757749309
 21
-293.4428148907057
 31
0.0
  0
LWPOLYLINE
  5
10A
330
1F
100
AcDbEntity
  8
その他
  6
Continuous
 62
     7
370
     9
100
AcDbPolyline
 90
        4
 70
     1
 43
0.4
 10
500.9630757749309
 20
-293.4428148907057
 42
0.4142135623731
 10
500.7630757749309
 20
-293.2428148907057
 42
0.4142135623731
 10
500.563075774931
 20
-293.4428148907057
 42
0.4142135623731
 10
500.7630757749309
 20
-293.6428148907057
 42
0.4142135623731
  0
LINE
  5
10B
330
1F
100
AcDbEntity
  8
その他
  6
Continuous
 62
     7
370
     9
100
AcDbLine
 10
500.7630757749309
 20
-293.4428148907057
 30
0.0
 11
500.7630757749309
 21
-287.4426362627194
 31
0.0
  0
LWPOLYLINE
  5
10C
330
1F
100
AcDbEntity
  8
その他
  6
Continuous
 62
     7
370
     9
100
AcDbPolyline
 90
        4
 70
     1
 43
0.4
 10
500.9630757749309
 20
-287.4426362627194
 42
0.4142135623731
 10
500.7630757749309
 20
-287.2426362627194
 42
0.4142135623731
 10
500.563075774931
 20
-287.4426362627194
 42
0.4142135623731
 10
500.7630757749309
 20
-287.6426362627193
 42
0.4142135623731
  0
LINE
  5
10D
330
1F
100
AcDbEntity
  8
その他
  6
Continuous
 62
     7
370
     9
100
AcDbLine
 10
499.563075774931
 20
-303.9424873275159
 30
0.0
 11
520.9687737872124
 21
-303.9424873275159
 31
0.0
  0
LINE
  5
10E
330
1F
100
AcDbEntity
  8
その他
  6
Continuous
 62
     7
370
     9
100
AcDbLine
 10
499.563075774931
 20
-297.9427555051473
 30
0.0
 11
520.9687737872124
 21
-297.9427555051473
 31
0.0
  0
LINE
  5
10F
330
1F
100
AcDbEntity
  8
その他
  6
Continuous
 62
     7
370
     9
100
AcDbLine
 10
499.563075774931
 20
-293.4428148907057
 30
0.0
 11
520.9687737872124
 21
-293.4428148907057
 31
0.0
  0
LINE
  5
110
330
1F
100
AcDbEntity
  8
その他
  6
Continuous
 62
     7
370
     9
100
AcDbLine
 10
499.563075774931
 20
-287.4426362627194
 30
0.0
 11
520.9687737872124
 21
-287.4426362627194
 31
0.0
  0
TEXT
  5
111
330
1F
100
AcDbEntity
  8
その他
  6
Continuous
 62
     2
370
   211
100
AcDbText
 10
405.0355838466004
 20
-322.8185640072722
 30
0.0
 40
12.192
  1
6
 50
90.0
  7
ＭＳ ゴシック
100
AcDbText
  0
TEXT
  5
112
330
1F
100
AcDbEntity
  8
その他
  6
Continuous
 62
     2
370
   211
100
AcDbText
 10
405.0355838466004
 20
-304.2672660355377
 30
0.0
 40
12.192
  1
3.5
 50
90.0
 41
1.083333333333333
  7
ＭＳ ゴシック
100
AcDbText
  0
LINE
  5
113
330
1F
100
AcDbEntity
  8
その他
  6
Continuous
 62
     7
370
     9
100
AcDbLine
 10
409.6915838466004
 20
-309.9424081467726
 30
0.0
 11
409.6915838466004
 21
-326.8417441858539
 31
0.0
  0
TEXT
  5
114
330
1F
100
AcDbEntity
  8
その他
  6
Continuous
 62
     2
370
   211
100
AcDbText
 10
496.107075774931
 20
-317.5076224110728
 30
0.0
 40
12.192
  1
6
 50
90.0
  7
ＭＳ ゴシック
100
AcDbText
  0
TEXT
  5
115
330
1F
100
AcDbEntity
  8
その他
  6
Continuous
 62
     2
370
   211
100
AcDbText
 10
496.107075774931
 20
-285.1121401805715
 30
0.0
 40
12.192
  1
6
 50
90.0
  7
ＭＳ ゴシック
100
AcDbText
  0
LINE
  5
116
330
1F
100
AcDbEntity
  8
その他
  6
Continuous
 62
     7
370
     9
100
AcDbLine
 10
500.7630757749309
 20
-295.6927851979265
 30
0.0
 11
479.3214598641827
 21
-304.9293794528405
 31
0.0
  0
LINE
  5
117
330
1F
100
AcDbEntity
  8
その他
  6
Continuous
 62
     7
370
     9
100
AcDbLine
 10
479.3214598641827
 20
-304.9293794528405
 30
0.0
 11
479.3214598641827
 21
-329.7558237790183
 31
0.0
  0
TEXT
  5
118
330
1F
100
AcDbEntity
  8
その他
  6
Continuous
 62
     2
370
   211
100
AcDbText
 10
474.3406062186265
 20
-332.6637732399215
 30
0.0
 40
12.192
  1
4.5
 50
90.0
 41
1.083333333333333
  7
ＭＳ ゴシック
100
AcDbText
  0
LINE
  5
119
330
1F
100
AcDbEntity
  8
その他
  6
Continuous
 62
     7
370
     9
100
AcDbLine
 10
500.7630757749309
 20
-303.9424873275159
 30
0.0
 11
500.7630757749309
 21
-318.250886164448
 31
0.0
  0
LINE
  5
11A
330
1F
100
AcDbEntity
  8
その他
  6
Continuous
 62
     7
370
     9
100
AcDbLine
 10
500.7630757749309
 20
-287.4426362627194
 30
0.0
 11
500.7630757749309
 21
-275.0569098571134
 31
0.0
  0
LWPOLYLINE
  5
11B
330
1F
100
AcDbEntity
  8
その他
  6
Continuous
 62
     7
370
     9
100
AcDbPolyline
 90
        4
 70
     1
 43
0.4
 10
442.071821561697
 20
-282.9426956482778
 42
0.4142135623731
 10
441.871821561697
 20
-282.7426956482778
 42
0.4142135623731
 10
441.671821561697
 20
-282.9426956482778
 42
0.4142135623731
 10
441.871821561697
 20
-283.1426956482778
 42
0.4142135623731
  0
LINE
  5
11C
330
1F
100
AcDbEntity
  8
その他
  6
Continuous
 62
     7
370
     9
100
AcDbLine
 10
440.671821561697
 20
-282.9426956482778
 30
0.0
 11
458.4372227798392
 21
-282.9426956482778
 31
0.0
  0
LINE
  5
11D
330
1F
100
AcDbEntity
  8
その他
  6
Continuous
 62
     7
370
     9
100
AcDbLine
 10
408.4915838466004
 20
-300.4427555051473
 30
0.0
 11
458.4372227798392
 21
-300.4427555051473
 31
0.0
  0
LINE
  5
11E
330
1F
100
AcDbEntity
  8
その他
  6
Continuous
 62
     7
370
     9
100
AcDbLine
 10
375.1547025267495
 20
-309.9424081467726
 30
0.0
 11
458.4372227798392
 21
-309.9424081467726
 31
0.0
  0
LINE
  5
11F
330
1F
100
AcDbEntity
  8
その他
  6
Continuous
 62
     7
370
     9
100
AcDbLine
 10
408.4915838466004
 20
-303.9424873275159
 30
0.0
 11
458.4372227798392
 21
-303.9424873275159
 31
0.0
  0
LINE
  5
120
330
1F
100
AcDbEntity
  8
建具
  6
Continuous
 62
     4
370
     9
100
AcDbLine
 10
194.2606006944908
 20
-108.7466424799411
 30
0.0
 11
177.1373938084053
 21
-125.8699112259817
 31
0.0
  0
LINE
  5
121
330
1F
100
AcDbEntity
  8
建具
  6
Continuous
 62
     4
370
     9
100
AcDbLine
 10
161.3686725114249
 20
-141.6385706630069
 30
0.0
 11
177.1373938084053
 21
-125.8699112259817
 31
0.0
  0
LINE
  5
122
330
1F
100
AcDbEntity
  8
建具
  6
Continuous
 62
     4
370
     9
100
AcDbLine
 10
161.3686725114249
 20
-141.638570659941
 30
0.0
 11
178.4919982237252
 21
-141.638570659941
 31
0.0
  0
LINE
  5
123
330
1F
100
AcDbEntity
  8
建具
  6
Continuous
 62
     4
370
     9
100
AcDbLine
 10
178.4919982237252
 20
80.65766229109681
 30
0.0
 11
178.4919982237252
 21
-108.7466424799411
 31
0.0
  0
LINE
  5
124
330
1F
100
AcDbEntity
  8
建具
  6
Continuous
 62
     4
370
     9
100
AcDbLine
 10
194.2606006944908
 20
-108.7466424799411
 30
0.0
 11
178.4919982237252
 21
-108.7466424799411
 31
0.0
  0
LINE
  5
125
330
1F
100
AcDbEntity
  8
通り芯
  6
JWW_CENTER2
 62
     7
370
     9
100
AcDbLine
 10
521.069017357715
 20
-124.9424576347371
 30
0.0
 11
623.9488395088696
 21
-124.9424576347371
 31
0.0
  0
LINE
  5
126
330
1F
100
AcDbEntity
  8
建具
  6
Continuous
 62
     4
370
     9
100
AcDbLine
 10
178.4919982237252
 20
-330.5424538406598
 30
0.0
 11
178.4919982237252
 21
-141.638570659941
 31
0.0
  0
LINE
  5
127
330
1F
100
AcDbEntity
  8
仕上
  6
Continuous
 62
     7
370
     9
100
AcDbLine
 10
-149.8210261719564
 20
37.55772099325418
 30
0.0
 11
-747.8210261719555
 21
37.55772099325418
 31
0.0
  0
LINE
  5
128
330
1F
100
AcDbEntity
  8
仕上
  6
Continuous
 62
     7
370
     9
100
AcDbLine
 10
-743.3209413354457
 20
33.05763615674346
 30
0.0
 11
-743.3209413354457
 21
-282.9425514262077
 31
0.0
  0
LINE
  5
129
330
1F
100
AcDbEntity
  8
仕上
  6
JWW_DASHED1
 62
     7
370
     9
100
AcDbLine
 10
-743.3209413354457
 20
23.05758761140692
 30
0.0
 11
-747.8210261719555
 21
18.55792271562291
 31
0.0
  0
LINE
  5
12A
330
1F
100
AcDbEntity
  8
仕上
  6
JWW_DASHED1
 62
     7
370
     9
100
AcDbLine
 10
-733.3208927901082
 20
33.05763615674346
 30
0.0
 11
-728.8208079535984
 21
37.55772099325418
 31
0.0
  0
LINE
  5
12B
330
1F
100
AcDbEntity
  8
仕上
  6
Continuous
 62
     7
370
     9
100
AcDbLine
 10
-733.3208927901082
 20
33.05763615674346
 30
0.0
 11
-743.3209413354457
 21
23.05758761140692
 31
0.0
  0
LINE
  5
12C
330
1F
100
AcDbEntity
  8
仕上
  6
Continuous
 62
     7
370
     9
100
AcDbLine
 10
-747.8210261719555
 20
50.55784023568208
 30
0.0
 11
-747.8210261719555
 21
-300.4427555051464
 31
0.0
  0
LINE
  5
12D
330
1F
100
AcDbEntity
  8
仕上
  6
Continuous
 62
     7
370
     9
100
AcDbLine
 10
-154.3211110084671
 20
33.05763615674346
 30
0.0
 11
-154.3211110084671
 21
-282.9425514262077
 31
0.0
  0
LINE
  5
12E
330
1F
100
AcDbEntity
  8
仕上
  6
Continuous
 62
     7
370
     9
100
AcDbLine
 10
-149.8210261719564
 20
50.55784023568208
 30
0.0
 11
-149.8210261719564
 21
-300.4427555051464
 31
0.0
  0
LINE
  5
12F
330
1F
100
AcDbEntity
  8
仕上
  6
Continuous
 62
     7
370
     9
100
AcDbLine
 10
-149.8210261719564
 20
43.55775539917136
 30
0.0
 11
-747.8210261719555
 21
43.55775539917136
 31
0.0
  0
LINE
  5
130
330
1F
100
AcDbEntity
  8
仕上
  6
Continuous
 62
     7
370
     9
100
AcDbLine
 10
-149.8210261719564
 20
48.05784023568208
 30
0.0
 11
-747.8210261719555
 21
48.05784023568208
 31
0.0
  0
LINE
  5
131
330
1F
100
AcDbEntity
  8
仕上
  6
Continuous
 62
     7
370
     9
100
AcDbLine
 10
-149.8210261719564
 20
33.05763615674346
 30
0.0
 11
-747.8210261719555
 21
33.05763615674346
 31
0.0
  0
LINE
  5
132
330
1F
100
AcDbEntity
  8
仕上
  6
Continuous
 62
     7
370
     9
100
AcDbLine
 10
-164.3211595538037
 20
-282.9425514262077
 30
0.0
 11
-154.3211110084671
 21
-272.9425028808694
 31
0.0
  0
LINE
  5
133
330
1F
100
AcDbEntity
  8
仕上
  6
JWW_DASHED1
 62
     7
370
     9
100
AcDbLine
 10
-164.3211595538037
 20
-282.9425514262077
 30
0.0
 11
-168.8212443903144
 21
-287.4426362627185
 31
0.0
  0
LINE
  5
134
330
1F
100
AcDbEntity
  8
仕上
  6
JWW_DASHED1
 62
     7
370
     9
100
AcDbLine
 10
-154.3211110084671
 20
-272.9425028808694
 30
0.0
 11
-149.8210261719564
 21
-268.442837985089
 31
0.0
  0
LINE
  5
135
330
1F
100
AcDbEntity
  8
仕上
  6
Continuous
 62
     7
370
     9
100
AcDbLine
 10
-149.8210261719564
 20
-297.9427555051464
 30
0.0
 11
-747.8210261719555
 21
-297.9427555051464
 31
0.0
  0
LINE
  5
136
330
1F
100
AcDbEntity
  8
仕上
  6
Continuous
 62
     7
370
     9
100
AcDbLine
 10
-149.8210261719564
 20
-293.4426706686356
 30
0.0
 11
-747.8210261719555
 21
-293.4426706686356
 31
0.0
  0
LINE
  5
137
330
1F
100
AcDbEntity
  8
仕上
  6
Continuous
 62
     7
370
     9
100
AcDbLine
 10
-149.8210261719564
 20
-287.4426362627185
 30
0.0
 11
-747.8210261719555
 21
-287.4426362627185
 31
0.0
  0
LINE
  5
138
330
1F
100
AcDbEntity
  8
仕上
  6
Continuous
 62
     7
370
     9
100
AcDbLine
 10
-149.8210261719564
 20
-282.9425514262077
 30
0.0
 11
-747.8210261719555
 21
-282.9425514262077
 31
0.0
  0
LINE
  5
139
330
1F
100
AcDbEntity
  8
仕上
  6
Continuous
 62
     3
370
     9
100
AcDbLine
 10
-595.3210058465424
 20
-149.3970243896258
 30
0.0
 11
-595.3210058465424
 21
-100.4878908798385
 31
0.0
  0
LINE
  5
13A
330
1F
100
AcDbEntity
  8
仕上
  6
Continuous
 62
     3
370
     9
100
AcDbLine
 10
-625.3210464973695
 20
-100.4878908798385
 30
0.0
 11
-625.3210464973695
 21
-149.3970243896258
 31
0.0
  0
LINE
  5
13B
330
1F
100
AcDbEntity
  8
仕上
  6
Continuous
 62
     3
370
     9
100
AcDbLine
 10
-625.3210464973695
 20
-100.9878908798385
 30
0.0
 11
-595.3210058465424
 21
-100.9878908798385
 31
0.0
  0
LINE
  5
13C
330
1F
100
AcDbEntity
  8
仕上
  6
Continuous
 62
     3
370
     9
100
AcDbLine
 10
-625.3210464973695
 20
-100.4878908798385
 30
0.0
 11
-595.3210058465424
 21
-100.4878908798385
 31
0.0
  0
LINE
  5
13D
330
1F
100
AcDbEntity
  8
仕上
  6
Continuous
 62
     3
370
     9
100
AcDbLine
 10
-625.3210464973695
 20
-116.5764322309481
 30
0.0
 11
-595.3210058465424
 21
-116.5764322309481
 31
0.0
  0
LINE
  5
13E
330
1F
100
AcDbEntity
  8
仕上
  6
Continuous
 62
     3
370
     9
100
AcDbLine
 10
-625.3210464973695
 20
-149.3970243896258
 30
0.0
 11
-595.3210058465424
 21
-149.3970243896258
 31
0.0
  0
LINE
  5
13F
330
1F
100
AcDbEntity
  8
仕上
  6
Continuous
 62
     3
370
     9
100
AcDbLine
 10
-625.3210464973695
 20
-148.8970243896258
 30
0.0
 11
-595.3210058465424
 21
-148.8970243896258
 31
0.0
  0
LINE
  5
140
330
1F
100
AcDbEntity
  8
仕上
  6
Continuous
 62
     3
370
     9
100
AcDbLine
 10
-625.3210464973695
 20
-133.3084830385162
 30
0.0
 11
-595.3210058465424
 21
-133.3084830385162
 31
0.0
  0
LINE
  5
141
330
1F
100
AcDbEntity
  8
仕上
  6
JWW_CENTER2
 62
     7
370
     9
100
AcDbLine
 10
-610.3210261719555
 20
-93.42067462820182
 30
0.0
 11
-610.3210261719555
 21
-154.4494823035677
 31
0.0
  0
LINE
  5
142
330
1F
100
AcDbEntity
  8
仕上
  6
Continuous
 62
     3
370
     9
100
AcDbLine
 10
-302.3210464973704
 20
-149.3970243896258
 30
0.0
 11
-302.3210464973704
 21
-100.4878908798385
 31
0.0
  0
LINE
  5
143
330
1F
100
AcDbEntity
  8
仕上
  6
Continuous
 62
     3
370
     9
100
AcDbLine
 10
-272.3210058465424
 20
-100.4878908798385
 30
0.0
 11
-272.3210058465424
 21
-149.3970243896258
 31
0.0
  0
LINE
  5
144
330
1F
100
AcDbEntity
  8
仕上
  6
Continuous
 62
     3
370
     9
100
AcDbLine
 10
-272.3210058465424
 20
-100.9878908798385
 30
0.0
 11
-302.3210464973704
 21
-100.9878908798385
 31
0.0
  0
LINE
  5
145
330
1F
100
AcDbEntity
  8
仕上
  6
Continuous
 62
     3
370
     9
100
AcDbLine
 10
-272.3210058465424
 20
-100.4878908798385
 30
0.0
 11
-302.3210464973704
 21
-100.4878908798385
 31
0.0
  0
LINE
  5
146
330
1F
100
AcDbEntity
  8
仕上
  6
Continuous
 62
     3
370
     9
100
AcDbLine
 10
-272.3210058465424
 20
-116.5764322309481
 30
0.0
 11
-302.3210464973704
 21
-116.5764322309481
 31
0.0
  0
LINE
  5
147
330
1F
100
AcDbEntity
  8
仕上
  6
Continuous
 62
     3
370
     9
100
AcDbLine
 10
-272.3210058465424
 20
-149.3970243896258
 30
0.0
 11
-302.3210464973704
 21
-149.3970243896258
 31
0.0
  0
LINE
  5
148
330
1F
100
AcDbEntity
  8
仕上
  6
Continuous
 62
     3
370
     9
100
AcDbLine
 10
-272.3210058465424
 20
-148.8970243896258
 30
0.0
 11
-302.3210464973704
 21
-148.8970243896258
 31
0.0
  0
LINE
  5
149
330
1F
100
AcDbEntity
  8
仕上
  6
Continuous
 62
     3
370
     9
100
AcDbLine
 10
-272.3210058465424
 20
-133.3084830385162
 30
0.0
 11
-302.3210464973704
 21
-133.3084830385162
 31
0.0
  0
LINE
  5
14A
330
1F
100
AcDbEntity
  8
仕上
  6
JWW_CENTER2
 62
     7
370
     9
100
AcDbLine
 10
-287.3210261719564
 20
-93.42067462820182
 30
0.0
 11
-287.3210261719564
 21
-154.4494823035677
 31
0.0
  0
LINE
  5
14B
330
1F
100
AcDbEntity
  8
仕上
  6
JWW_DASHED1
 62
     2
370
     9
100
AcDbLine
 10
-547.8211071790224
 20
-282.9425514262077
 30
0.0
 11
-547.8211071790224
 21
33.05763615674346
 31
0.0
  0
LINE
  5
14C
330
1F
100
AcDbEntity
  8
仕上
  6
JWW_DASHED1
 62
     2
370
     9
100
AcDbLine
 10
-543.3210223425572
 20
33.05763615674346
 30
0.0
 11
-543.3210223425572
 21
-282.9425514262077
 31
0.0
  0
LINE
  5
14D
330
1F
100
AcDbEntity
  8
仕上
  6
JWW_DASHED1
 62
     2
370
     9
100
AcDbLine
 10
-354.321028646325
 20
-282.9425514262077
 30
0.0
 11
-354.321028646325
 21
33.05763615674346
 31
0.0
  0
LINE
  5
14E
330
1F
100
AcDbEntity
  8
仕上
  6
JWW_DASHED1
 62
     2
370
     9
100
AcDbLine
 10
-349.8209438098597
 20
33.05763615674346
 30
0.0
 11
-349.8209438098597
 21
-282.9425514262077
 31
0.0
  0
LINE
  5
14F
330
1F
100
AcDbEntity
  8
仕上
  6
Continuous
 62
     7
370
     9
100
AcDbLine
 10
-543.3210223425299
 20
48.05784023568208
 30
0.0
 11
-543.3210223425299
 21
50.55784023568208
 31
0.0
  0
LINE
  5
150
330
1F
100
AcDbEntity
  8
仕上
  6
Continuous
 62
     7
370
     9
100
AcDbLine
 10
-547.8211071790406
 20
48.05784023568208
 30
0.0
 11
-547.8211071790406
 21
50.55784023568208
 31
0.0
  0
LINE
  5
151
330
1F
100
AcDbEntity
  8
仕上
  6
Continuous
 62
     7
370
     9
100
AcDbLine
 10
-547.8211071790406
 20
50.55784023568208
 30
0.0
 11
-543.3210223425299
 21
50.55784023568208
 31
0.0
  0
LINE
  5
152
330
1F
100
AcDbEntity
  8
仕上
  6
Continuous
 62
     7
370
     9
100
AcDbLine
 10
-543.3210223425299
 20
37.55772099325418
 30
0.0
 11
-543.3210223425299
 21
43.55775539917136
 31
0.0
  0
LINE
  5
153
330
1F
100
AcDbEntity
  8
仕上
  6
Continuous
 62
     7
370
     9
100
AcDbLine
 10
-547.8211071790406
 20
37.55772099325418
 30
0.0
 11
-547.8211071790406
 21
43.55775539917136
 31
0.0
  0
LINE
  5
154
330
1F
100
AcDbEntity
  8
仕上
  6
Continuous
 62
     7
370
     9
100
AcDbLine
 10
-354.3210286463541
 20
37.55772099325418
 30
0.0
 11
-354.3210286463541
 21
43.55775539917136
 31
0.0
  0
LINE
  5
155
330
1F
100
AcDbEntity
  8
仕上
  6
Continuous
 62
     7
370
     9
100
AcDbLine
 10
-349.8209438098434
 20
37.55772099325418
 30
0.0
 11
-349.8209438098434
 21
43.55775539917136
 31
0.0
  0
LINE
  5
156
330
1F
100
AcDbEntity
  8
仕上
  6
Continuous
 62
     7
370
     9
100
AcDbLine
 10
-354.3210286463532
 20
50.55784023568208
 30
0.0
 11
-349.8209438098434
 21
50.55784023568208
 31
0.0
  0
LINE
  5
157
330
1F
100
AcDbEntity
  8
仕上
  6
Continuous
 62
     7
370
     9
100
AcDbLine
 10
-354.3210286463541
 20
48.05784023568208
 30
0.0
 11
-354.3210286463541
 21
50.55784023568208
 31
0.0
  0
LINE
  5
158
330
1F
100
AcDbEntity
  8
仕上
  6
Continuous
 62
     7
370
     9
100
AcDbLine
 10
-349.8209438098434
 20
48.05784023568208
 30
0.0
 11
-349.8209438098434
 21
50.55784023568208
 31
0.0
  0
LINE
  5
159
330
1F
100
AcDbEntity
  8
仕上
  6
Continuous
 62
     7
370
     9
100
AcDbLine
 10
-743.3209413354457
 20
43.55775539917136
 30
0.0
 11
-743.3209413354457
 21
37.55772099325418
 31
0.0
  0
LINE
  5
15A
330
1F
100
AcDbEntity
  8
仕上
  6
Continuous
 62
     7
370
     9
100
AcDbLine
 10
-743.3209413354457
 20
50.55784023568208
 30
0.0
 11
-743.3209413354457
 21
48.05784023568208
 31
0.0
  0
LINE
  5
15B
330
1F
100
AcDbEntity
  8
仕上
  6
Continuous
 62
     7
370
     9
100
AcDbLine
 10
-747.8210261719555
 20
50.55784023568208
 30
0.0
 11
-743.3209413354457
 21
50.55784023568208
 31
0.0
  0
LINE
  5
15C
330
1F
100
AcDbEntity
  8
仕上
  6
Continuous
 62
     7
370
     9
100
AcDbLine
 10
-154.3211110084671
 20
43.55775539917136
 30
0.0
 11
-154.3211110084671
 21
37.55772099325418
 31
0.0
  0
LINE
  5
15D
330
1F
100
AcDbEntity
  8
仕上
  6
Continuous
 62
     7
370
     9
100
AcDbLine
 10
-154.3211110084671
 20
50.55784023568208
 30
0.0
 11
-154.3211110084671
 21
48.05784023568208
 31
0.0
  0
LINE
  5
15E
330
1F
100
AcDbEntity
  8
仕上
  6
Continuous
 62
     7
370
     9
100
AcDbLine
 10
-149.8210261719564
 20
50.55784023568208
 30
0.0
 11
-154.3211110084671
 21
50.55784023568208
 31
0.0
  0
LINE
  5
15F
330
1F
100
AcDbEntity
  8
仕上
  6
Continuous
 62
     7
370
     9
100
AcDbLine
 10
-543.3210223425299
 20
-297.9427555051464
 30
0.0
 11
-543.3210223425299
 21
-300.4427555051464
 31
0.0
  0
LINE
  5
160
330
1F
100
AcDbEntity
  8
仕上
  6
Continuous
 62
     7
370
     9
100
AcDbLine
 10
-547.8211071790406
 20
-297.9427555051464
 30
0.0
 11
-547.8211071790406
 21
-300.4427555051464
 31
0.0
  0
LINE
  5
161
330
1F
100
AcDbEntity
  8
仕上
  6
Continuous
 62
     7
370
     9
100
AcDbLine
 10
-547.8211071790406
 20
-300.4427555051464
 30
0.0
 11
-543.3210223425299
 21
-300.4427555051464
 31
0.0
  0
LINE
  5
162
330
1F
100
AcDbEntity
  8
仕上
  6
Continuous
 62
     7
370
     9
100
AcDbLine
 10
-543.3210223425299
 20
-287.4426362627185
 30
0.0
 11
-543.3210223425299
 21
-293.4426706686356
 31
0.0
  0
LINE
  5
163
330
1F
100
AcDbEntity
  8
仕上
  6
Continuous
 62
     7
370
     9
100
AcDbLine
 10
-547.8211071790406
 20
-287.4426362627185
 30
0.0
 11
-547.8211071790406
 21
-293.4426706686356
 31
0.0
  0
LINE
  5
164
330
1F
100
AcDbEntity
  8
仕上
  6
Continuous
 62
     7
370
     9
100
AcDbLine
 10
-354.3210286463541
 20
-287.4426362627185
 30
0.0
 11
-354.3210286463541
 21
-293.4426706686356
 31
0.0
  0
LINE
  5
165
330
1F
100
AcDbEntity
  8
仕上
  6
Continuous
 62
     7
370
     9
100
AcDbLine
 10
-349.8209438098434
 20
-287.4426362627185
 30
0.0
 11
-349.8209438098434
 21
-293.4426706686356
 31
0.0
  0
LINE
  5
166
330
1F
100
AcDbEntity
  8
仕上
  6
Continuous
 62
     7
370
     9
100
AcDbLine
 10
-354.3210286463532
 20
-300.4427555051464
 30
0.0
 11
-349.8209438098434
 21
-300.4427555051464
 31
0.0
  0
LINE
  5
167
330
1F
100
AcDbEntity
  8
仕上
  6
Continuous
 62
     7
370
     9
100
AcDbLine
 10
-354.3210286463541
 20
-297.9427555051464
 30
0.0
 11
-354.3210286463541
 21
-300.4427555051464
 31
0.0
  0
LINE
  5
168
330
1F
100
AcDbEntity
  8
仕上
  6
Continuous
 62
     7
370
     9
100
AcDbLine
 10
-349.8209438098434
 20
-297.9427555051464
 30
0.0
 11
-349.8209438098434
 21
-300.4427555051464
 31
0.0
  0
LINE
  5
169
330
1F
100
AcDbEntity
  8
仕上
  6
Continuous
 62
     7
370
     9
100
AcDbLine
 10
-743.3209413354457
 20
-293.4426706686356
 30
0.0
 11
-743.3209413354457
 21
-287.4426362627185
 31
0.0
  0
LINE
  5
16A
330
1F
100
AcDbEntity
  8
仕上
  6
Continuous
 62
     7
370
     9
100
AcDbLine
 10
-743.3209413354457
 20
-300.4427555051464
 30
0.0
 11
-743.3209413354457
 21
-297.9427555051464
 31
0.0
  0
LINE
  5
16B
330
1F
100
AcDbEntity
  8
仕上
  6
Continuous
 62
     7
370
     9
100
AcDbLine
 10
-747.8210261719555
 20
-300.4427555051464
 30
0.0
 11
-743.3209413354457
 21
-300.4427555051464
 31
0.0
  0
LINE
  5
16C
330
1F
100
AcDbEntity
  8
仕上
  6
Continuous
 62
     7
370
     9
100
AcDbLine
 10
-154.3211110084671
 20
-293.4426706686356
 30
0.0
 11
-154.3211110084671
 21
-287.4426362627185
 31
0.0
  0
LINE
  5
16D
330
1F
100
AcDbEntity
  8
仕上
  6
Continuous
 62
     7
370
     9
100
AcDbLine
 10
-154.3211110084671
 20
-300.4427555051464
 30
0.0
 11
-154.3211110084671
 21
-297.9427555051464
 31
0.0
  0
LINE
  5
16E
330
1F
100
AcDbEntity
  8
仕上
  6
Continuous
 62
     7
370
     9
100
AcDbLine
 10
-149.8210261719564
 20
-300.4427555051464
 30
0.0
 11
-154.3211110084671
 21
-300.4427555051464
 31
0.0
  0
LINE
  5
16F
330
1F
100
AcDbEntity
  8
仕上
  6
JWW_CENTER2
 62
     7
370
     9
100
AcDbLine
 10
-717.8210315036949
 20
24.55771869559862
 30
0.0
 11
-717.8210315036949
 21
10.55771869559862
 31
0.0
  0
LINE
  5
170
330
1F
100
AcDbEntity
  8
仕上
  6
JWW_CENTER2
 62
     7
370
     9
100
AcDbLine
 10
-710.8210315036949
 20
17.55771869559862
 30
0.0
 11
-724.8210315036949
 21
17.55771869559862
 31
0.0
  0
CIRCLE
  5
171
330
1F
100
AcDbEntity
  8
仕上
  6
Continuous
 62
     7
370
     9
100
AcDbCircle
 10
-717.8210315036949
 20
17.55771869559862
 30
0.0
 40
5.0
  0
LINE
  5
172
330
1F
100
AcDbEntity
  8
仕上
  6
JWW_CENTER1
 62
     3
370
     9
100
AcDbLine
 10
-147.8211236750289
 20
50.55784023568208
 30
0.0
 11
178.4919982237252
 21
50.55784023568208
 31
0.0
  0
LINE
  5
173
330
1F
100
AcDbEntity
  8
仕上
  6
JWW_CENTER1
 62
     3
370
     9
100
AcDbLine
 10
-147.8211236750289
 20
50.55784023568208
 30
0.0
 11
-147.8211236750289
 21
-300.4427555051482
 31
0.0
  0
LINE
  5
174
330
1F
100
AcDbEntity
  8
仕上
  6
Continuous
 62
     7
370
     9
100
AcDbLine
 10
531.6416329869397
 20
48.05784023567617
 30
0.0
 11
531.6416329869397
 21
43.55789962123458
 31
0.0
  0
LINE
  5
175
330
1F
100
AcDbEntity
  8
仕上
  6
Continuous
 62
     7
370
     9
100
AcDbLine
 10
547.6417105180843
 20
43.55789962123458
 30
0.0
 11
531.6416329869397
 21
43.55789962123458
 31
0.0
  0
LINE
  5
176
330
1F
100
AcDbEntity
  8
仕上
  6
Continuous
 62
     7
370
     9
100
AcDbLine
 10
547.6417105180843
 20
48.05784023567617
 30
0.0
 11
531.6416329869397
 21
48.05784023567617
 31
0.0
  0
LINE
  5
177
330
1F
100
AcDbEntity
  8
仕上
  6
Continuous
 62
     7
370
     9
100
AcDbLine
 10
572.8418480946256
 20
37.55772099324827
 30
0.0
 11
531.6416329869397
 21
37.55772099324827
 31
0.0
  0
LINE
  5
178
330
1F
100
AcDbEntity
  8
仕上
  6
Continuous
 62
     7
370
     9
100
AcDbLine
 10
569.6418325883968
 20
33.05778037880668
 30
0.0
 11
531.6416329869397
 21
33.05778037880668
 31
0.0
  0
LINE
  5
179
330
1F
100
AcDbEntity
  8
仕上
  6
Continuous
 62
     7
370
     9
100
AcDbLine
 10
531.6416329869397
 20
-287.4426362627244
 30
0.0
 11
531.6416329869397
 21
37.55772099324827
 31
0.0
  0
LINE
  5
17A
330
1F
100
AcDbEntity
  8
仕上
  6
Continuous
 62
     2
370
     9
100
AcDbLine
 10
572.8418480946256
 20
50.55784023567617
 30
0.0
 11
572.8418480946256
 21
-300.4427555051523
 31
0.0
  0
LINE
  5
17B
330
1F
100
AcDbEntity
  8
仕上
  6
Continuous
 62
     2
370
     9
100
AcDbLine
 10
572.8418480946256
 20
50.55784023567617
 30
0.0
 11
604.8418794370026
 21
50.55784023567617
 31
0.0
  0
LINE
  5
17C
330
1F
100
AcDbEntity
  8
仕上
  6
Continuous
 62
     2
370
     9
100
AcDbLine
 10
604.8418794370026
 20
50.55784023567617
 30
0.0
 11
604.8418794370026
 21
46.05760175082037
 31
0.0
  0
LINE
  5
17D
330
1F
100
AcDbEntity
  8
仕上
  6
Continuous
 62
     2
370
     9
100
AcDbLine
 10
610.8419239761714
 20
46.05760175082037
 30
0.0
 11
572.8418480946256
 21
46.05760175082037
 31
0.0
  0
LINE
  5
17E
330
1F
100
AcDbEntity
  8
仕上
  6
Continuous
 62
     2
370
     9
100
AcDbLine
 10
610.8419239761714
 20
-295.9425170202946
 30
0.0
 11
610.8419239761714
 21
46.05760175082037
 31
0.0
  0
LINE
  5
17F
330
1F
100
AcDbEntity
  8
仕上
  6
Continuous
 62
     7
370
     9
100
AcDbLine
 10
569.6418325883968
 20
-287.4426362627244
 30
0.0
 11
569.6418325883968
 21
37.55772099324827
 31
0.0
  0
LINE
  5
180
330
1F
100
AcDbEntity
  8
仕上
  6
Continuous
 62
     7
370
     9
100
AcDbLine
 10
531.6416329869397
 20
-297.9427555051523
 30
0.0
 11
531.6416329869397
 21
-293.4428148907089
 31
0.0
  0
LINE
  5
181
330
1F
100
AcDbEntity
  8
仕上
  6
Continuous
 62
     7
370
     9
100
AcDbLine
 10
547.6417105180843
 20
-293.4428148907089
 30
0.0
 11
531.6416329869397
 21
-293.4428148907089
 31
0.0
  0
LINE
  5
182
330
1F
100
AcDbEntity
  8
仕上
  6
Continuous
 62
     7
370
     9
100
AcDbLine
 10
547.6417105180843
 20
-297.9427555051523
 30
0.0
 11
531.6416329869397
 21
-297.9427555051523
 31
0.0
  0
LINE
  5
183
330
1F
100
AcDbEntity
  8
仕上
  6
Continuous
 62
     7
370
     9
100
AcDbLine
 10
572.8418480946256
 20
-287.4426362627244
 30
0.0
 11
531.6416329869397
 21
-287.4426362627244
 31
0.0
  0
LINE
  5
184
330
1F
100
AcDbEntity
  8
仕上
  6
Continuous
 62
     7
370
     9
100
AcDbLine
 10
569.6418325883968
 20
-282.942695648281
 30
0.0
 11
531.6416329869397
 21
-282.942695648281
 31
0.0
  0
LINE
  5
185
330
1F
100
AcDbEntity
  8
仕上
  6
Continuous
 62
     2
370
     9
100
AcDbLine
 10
572.8418480946256
 20
-300.4427555051523
 30
0.0
 11
604.8418794370026
 21
-300.4427555051523
 31
0.0
  0
LINE
  5
186
330
1F
100
AcDbEntity
  8
仕上
  6
Continuous
 62
     2
370
     9
100
AcDbLine
 10
604.8418794370026
 20
-300.4427555051523
 30
0.0
 11
604.8418794370026
 21
-295.9425170202946
 31
0.0
  0
LINE
  5
187
330
1F
100
AcDbEntity
  8
仕上
  6
Continuous
 62
     2
370
     9
100
AcDbLine
 10
610.8419239761714
 20
-295.9425170202946
 30
0.0
 11
572.8418480946256
 21
-295.9425170202946
 31
0.0
  0
LINE
  5
188
330
1F
100
AcDbEntity
  8
仕上
  6
Continuous
 62
     3
370
     9
100
AcDbLine
 10
569.6418325883968
 20
-132.7104068271699
 30
0.0
 11
560.5078579921809
 21
-148.5309149028587
 31
0.0
  0
LINE
  5
189
330
1F
100
AcDbEntity
  8
仕上
  6
Continuous
 62
     3
370
     9
100
AcDbLine
 10
569.6418325883968
 20
-132.7104068271699
 30
0.0
 11
569.6418325883968
 21
-117.1745084423062
 31
0.0
  0
LINE
  5
18A
330
1F
100
AcDbEntity
  8
仕上
  6
Continuous
 62
     3
370
     9
100
AcDbLine
 10
569.6418325883968
 20
-117.1745084423062
 30
0.0
 11
560.5078579921809
 21
-101.3540003666192
 31
0.0
  0
LINE
  5
18B
330
1F
100
AcDbEntity
  8
仕上
  6
Continuous
 62
     3
370
     9
100
AcDbLine
 10
559.6418325883968
 20
-101.8540003666174
 30
0.0
 11
560.5078579921809
 21
-101.3540003666192
 31
0.0
  0
LINE
  5
18C
330
1F
100
AcDbEntity
  8
仕上
  6
Continuous
 62
     3
370
     9
100
AcDbLine
 10
559.6418325883968
 20
-148.0309149028587
 30
0.0
 11
560.5078579921809
 21
-148.5309149028587
 31
0.0
  0
LINE
  5
18D
330
1F
100
AcDbEntity
  8
仕上
  6
Continuous
 62
     3
370
     9
100
AcDbLine
 10
568.6418325883959
 20
-132.442457634738
 30
0.0
 11
559.6418325883968
 21
-148.0309149028587
 31
0.0
  0
LINE
  5
18E
330
1F
100
AcDbEntity
  8
仕上
  6
Continuous
 62
     3
370
     9
100
AcDbLine
 10
568.6418325883959
 20
-132.442457634738
 30
0.0
 11
568.6418325883959
 21
-117.442457634738
 31
0.0
  0
LINE
  5
18F
330
1F
100
AcDbEntity
  8
仕上
  6
Continuous
 62
     3
370
     9
100
AcDbLine
 10
568.6418325883959
 20
-117.442457634738
 30
0.0
 11
559.6418325883968
 21
-101.8540003666174
 31
0.0
  0
LINE
  5
190
330
1F
100
AcDbEntity
  8
仕上
  6
Continuous
 62
     7
370
     9
100
AcDbLine
 10
572.8418480946256
 20
44.55779357559481
 30
0.0
 11
553.8418101538526
 21
44.55779357559481
 31
0.0
  0
LINE
  5
191
330
1F
100
AcDbEntity
  8
仕上
  6
Continuous
 62
     7
370
     9
100
AcDbLine
 10
553.8418101538526
 20
44.55779357559481
 30
0.0
 11
553.8418101538526
 21
37.55772099324827
 31
0.0
  0
LINE
  5
192
330
1F
100
AcDbEntity
  8
仕上
  6
Continuous
 62
     7
370
     9
100
AcDbLine
 10
540.641637935736
 20
43.55789962123458
 30
0.0
 11
540.641637935736
 21
37.55772099324827
 31
0.0
  0
LINE
  5
193
330
1F
100
AcDbEntity
  8
仕上
  6
Continuous
 62
     7
370
     9
100
AcDbLine
 10
544.141637935736
 20
50.55784023567617
 30
0.0
 11
544.141637935736
 21
48.05784023567617
 31
0.0
  0
LINE
  5
194
330
1F
100
AcDbEntity
  8
仕上
  6
Continuous
 62
     7
370
     9
100
AcDbLine
 10
572.8418480946256
 20
50.55784023567617
 30
0.0
 11
544.141637935736
 21
50.55784023567617
 31
0.0
  0
LINE
  5
195
330
1F
100
AcDbEntity
  8
仕上
  6
Continuous
 62
     7
370
     9
100
AcDbLine
 10
572.8407948889607
 20
50.55784023567617
 30
0.0
 11
572.8407948889607
 21
44.55779357559481
 31
0.0
  0
LINE
  5
196
330
1F
100
AcDbEntity
  8
仕上
  6
Continuous
 62
     7
370
     9
100
AcDbLine
 10
547.6417105180843
 20
48.05784023567617
 30
0.0
 11
547.6417105180843
 21
43.55789962123458
 31
0.0
  0
LINE
  5
197
330
1F
100
AcDbEntity
  8
仕上
  6
Continuous
 62
     7
370
     9
100
AcDbLine
 10
547.6417105180843
 20
-297.9427555051523
 30
0.0
 11
547.6417105180843
 21
-293.4428148907089
 31
0.0
  0
LINE
  5
198
330
1F
100
AcDbEntity
  8
仕上
  6
Continuous
 62
     7
370
     9
100
AcDbLine
 10
572.8418480946256
 20
-294.4427088450727
 30
0.0
 11
553.8418101538526
 21
-294.4427088450727
 31
0.0
  0
LINE
  5
199
330
1F
100
AcDbEntity
  8
仕上
  6
Continuous
 62
     7
370
     9
100
AcDbLine
 10
553.8418101538526
 20
-294.4427088450727
 30
0.0
 11
553.8418101538526
 21
-287.4426362627244
 31
0.0
  0
LINE
  5
19A
330
1F
100
AcDbEntity
  8
仕上
  6
Continuous
 62
     7
370
     9
100
AcDbLine
 10
540.641637935736
 20
-293.4428148907107
 30
0.0
 11
540.641637935736
 21
-287.4426362627244
 31
0.0
  0
LINE
  5
19B
330
1F
100
AcDbEntity
  8
仕上
  6
Continuous
 62
     7
370
     9
100
AcDbLine
 10
544.141637935736
 20
-300.4427555051523
 30
0.0
 11
544.141637935736
 21
-297.9427555051523
 31
0.0
  0
LINE
  5
19C
330
1F
100
AcDbEntity
  8
仕上
  6
Continuous
 62
     7
370
     9
100
AcDbLine
 10
572.8418480946256
 20
-300.4427555051523
 30
0.0
 11
544.141637935736
 21
-300.4427555051523
 31
0.0
  0
LINE
  5
19D
330
1F
100
AcDbEntity
  8
仕上
  6
Continuous
 62
     7
370
     9
100
AcDbLine
 10
572.8407948889607
 20
-300.4427555051523
 30
0.0
 11
572.8407948889607
 21
-294.4427088450727
 31
0.0
  0
LINE
  5
19E
330
1F
100
AcDbEntity
  8
建具
  6
Continuous
 62
     4
370
     9
100
AcDbLine
 10
606.8415643636289
 20
54.05761329801203
 30
0.0
 11
531.6416329869397
 21
54.05761329801203
 31
0.0
  0
LINE
  5
19F
330
1F
100
AcDbEntity
  8
建具
  6
Continuous
 62
     4
370
     9
100
AcDbLine
 10
610.8416765363485
 20
50.05750112529245
 30
0.0
 11
610.8416765363485
 21
0.057645465188898
 31
0.0
  0
LINE
  5
1A0
330
1F
100
AcDbEntity
  8
建具
  6
Continuous
 62
     4
370
     9
100
AcDbLine
 10
610.8416765363485
 20
0.057645465188898
 30
0.0
 11
616.8415973556051
 21
0.057645465188898
 31
0.0
  0
LINE
  5
1A1
330
1F
100
AcDbEntity
  8
建具
  6
Continuous
 62
     4
370
     9
100
AcDbLine
 10
616.8415973556051
 20
0.057645465188898
 30
0.0
 11
616.8415973556051
 21
50.05750112529245
 31
0.0
  0
LINE
  5
1A2
330
1F
100
AcDbEntity
  8
建具
  6
Continuous
 62
     4
370
     9
100
AcDbLine
 10
586.8416220995877
 20
60.05753411726869
 30
0.0
 11
586.8416220995877
 21
69.05741534615413
 31
0.0
  0
LINE
  5
1A3
330
1F
100
AcDbEntity
  8
建具
  6
Continuous
 62
     4
370
     9
100
AcDbLine
 10
600.6565585570405
 20
60.05753411726869
 30
0.0
 11
586.8416220995877
 21
60.05753411726869
 31
0.0
  0
LINE
  5
1A4
330
1F
100
AcDbEntity
  8
建具
  6
Continuous
 62
     4
370
     9
100
AcDbLine
 10
600.6570534366859
 20
69.05741534615413
 30
0.0
 11
586.8416220995877
 21
69.05741534615413
 31
0.0
  0
LINE
  5
1A5
330
1F
100
AcDbEntity
  8
建具
  6
Continuous
 62
     4
370
     9
100
AcDbLine
 10
605.3153555376151
 20
60.6706899977587
 30
0.0
 11
663.5062735063651
 21
71.96421466256038
 31
0.0
  0
LINE
  5
1A6
330
1F
100
AcDbEntity
  8
建具
  6
Continuous
 62
     4
370
     9
100
AcDbLine
 10
602.9864519269735
 20
69.36424072622162
 30
0.0
 11
661.176875016078
 21
80.65751795120036
 31
0.0
  0
LINE
  5
1A7
330
1F
100
AcDbEntity
  8
建具
  6
JWW_CENTER2
 62
     4
370
     9
100
AcDbLine
 10
600.6565585570405
 20
64.55747473171118
 30
0.0
 11
583.036863666838
 21
64.55747473171118
 31
0.0
  0
LINE
  5
1A8
330
1F
100
AcDbEntity
  8
建具
  6
JWW_CENTER2
 62
     4
370
     9
100
AcDbLine
 10
604.1509037322943
 20
65.01746536198993
 30
0.0
 11
669.3176451807739
 21
78.18015044697745
 31
0.0
  0
LINE
  5
1A9
330
1F
100
AcDbEntity
  8
建具
  6
Continuous
 62
     4
370
     9
100
AcDbLine
 10
606.8415643636289
 20
-303.9425285674863
 30
0.0
 11
531.6416329869397
 21
-303.9425285674863
 31
0.0
  0
LINE
  5
1AA
330
1F
100
AcDbEntity
  8
建具
  6
Continuous
 62
     4
370
     9
100
AcDbLine
 10
531.6416329869397
 20
-303.9425285674863
 30
0.0
 11
531.6416329869397
 21
-309.942449386743
 31
0.0
  0
LINE
  5
1AB
330
1F
100
AcDbEntity
  8
建具
  6
Continuous
 62
     4
370
     9
100
AcDbLine
 10
531.6416329869397
 20
-309.942449386743
 30
0.0
 11
606.8415643636289
 21
-309.942449386743
 31
0.0
  0
LINE
  5
1AC
330
1F
100
AcDbEntity
  8
建具
  6
Continuous
 62
     4
370
     9
100
AcDbLine
 10
610.8416765363485
 20
-299.9424163947667
 30
0.0
 11
610.8416765363485
 21
-249.9424988747076
 31
0.0
  0
LINE
  5
1AD
330
1F
100
AcDbEntity
  8
建具
  6
Continuous
 62
     4
370
     9
100
AcDbLine
 10
610.8416765363485
 20
-249.9424988747076
 30
0.0
 11
616.8415973556051
 21
-249.9424988747076
 31
0.0
  0
LINE
  5
1AE
330
1F
100
AcDbEntity
  8
建具
  6
Continuous
 62
     4
370
     9
100
AcDbLine
 10
616.8415973556051
 20
-249.9424988747076
 30
0.0
 11
616.8415973556051
 21
-299.9424163947667
 31
0.0
  0
LINE
  5
1AF
330
1F
100
AcDbEntity
  8
建具
  6
Continuous
 62
     4
370
     9
100
AcDbLine
 10
586.8416220995877
 20
-309.942449386743
 30
0.0
 11
586.8416220995877
 21
-318.9423306156284
 31
0.0
  0
LINE
  5
1B0
330
1F
100
AcDbEntity
  8
建具
  6
Continuous
 62
     4
370
     9
100
AcDbLine
 10
600.6565585570405
 20
-309.942449386743
 30
0.0
 11
586.8416220995877
 21
-309.942449386743
 31
0.0
  0
LINE
  5
1B1
330
1F
100
AcDbEntity
  8
建具
  6
Continuous
 62
     4
370
     9
100
AcDbLine
 10
600.6570534366859
 20
-318.9423306156284
 30
0.0
 11
586.8416220995877
 21
-318.9423306156284
 31
0.0
  0
LINE
  5
1B2
330
1F
100
AcDbEntity
  8
建具
  6
Continuous
 62
     4
370
     9
100
AcDbLine
 10
605.3153555376151
 20
-310.555605267233
 30
0.0
 11
663.5062735063651
 21
-321.8490680720786
 31
0.0
  0
LINE
  5
1B3
330
1F
100
AcDbEntity
  8
建具
  6
Continuous
 62
     4
370
     9
100
AcDbLine
 10
602.9864519269735
 20
-319.2491559956959
 30
0.0
 11
661.176875016078
 21
-330.5424950806303
 31
0.0
  0
LINE
  5
1B4
330
1F
100
AcDbEntity
  8
建具
  6
JWW_CENTER2
 62
     4
370
     9
100
AcDbLine
 10
600.6565585570405
 20
-314.4423900011855
 30
0.0
 11
583.036863666838
 21
-314.4423900011855
 31
0.0
  0
LINE
  5
1B5
330
1F
100
AcDbEntity
  8
建具
  6
JWW_CENTER2
 62
     4
370
     9
100
AcDbLine
 10
604.1509037322943
 20
-314.9023806314642
 30
0.0
 11
669.3176451807739
 21
-328.0650038564961
 31
0.0
  0
LINE
  5
1B6
330
1F
100
AcDbEntity
  8
建具
  6
Continuous
 62
     4
370
     9
100
AcDbLine
 10
531.6416329869397
 20
54.05761329801203
 30
0.0
 11
531.6416329869397
 21
60.05753411726869
 31
0.0
  0
LINE
  5
1B7
330
1F
100
AcDbEntity
  8
建具
  6
Continuous
 62
     4
370
     9
100
AcDbLine
 10
531.6416329869397
 20
60.05753411726869
 30
0.0
 11
606.8415643636289
 21
60.05753411726869
 31
0.0
  0
ARC
  5
1B8
330
1F
100
AcDbEntity
  8
建具
  6
Continuous
 62
     4
370
     9
100
AcDbCircle
 10
606.8415643636289
 20
50.05750112529245
 30
0.0
 40
3.999999809909511
100
AcDbArc
 50
0.0
 51
90.0
  0
ARC
  5
1B9
330
1F
100
AcDbEntity
  8
建具
  6
Continuous
 62
     4
370
     9
100
AcDbCircle
 10
606.8415643636289
 20
50.05750112529245
 30
0.0
 40
9.9999991623131
100
AcDbArc
 50
0.0
 51
90.0
  0
ARC
  5
1BA
330
1F
100
AcDbEntity
  8
建具
  6
Continuous
 62
     4
370
     9
100
AcDbCircle
 10
600.6565585570405
 20
78.05742029495036
 30
0.0
 40
17.99999829885122
100
AcDbArc
 50
270.0
 51
285.0
  0
ARC
  5
1BB
330
1F
100
AcDbEntity
  8
建具
  6
Continuous
 62
     4
370
     9
100
AcDbCircle
 10
662.3418217010443
 20
76.31099002679161
 30
0.0
 40
4.499999574712805
100
AcDbArc
 50
285.0001373291016
 51
104.9999084472657
  0
ARC
  5
1BC
330
1F
100
AcDbEntity
  8
建具
  6
JWW_CENTER2
 62
     4
370
     9
100
AcDbCircle
 10
600.6565585570405
 20
78.05742029495036
 30
0.0
 40
13.50000065726203
100
AcDbArc
 50
270.0
 51
284.9999542236328
  0
ARC
  5
1BD
330
1F
100
AcDbEntity
  8
建具
  6
Continuous
 62
     4
370
     9
100
AcDbCircle
 10
600.6570534366859
 20
78.05742029495036
 30
0.0
 40
8.99999914942561
100
AcDbArc
 50
270.0
 51
285.0000152587891
  0
ARC
  5
1BE
330
1F
100
AcDbEntity
  8
建具
  6
Continuous
 62
     4
370
     9
100
AcDbCircle
 10
606.8415643636289
 20
-299.9424163947667
 30
0.0
 40
3.999999809909511
100
AcDbArc
 50
270.0
 51
0.0
  0
ARC
  5
1BF
330
1F
100
AcDbEntity
  8
建具
  6
Continuous
 62
     4
370
     9
100
AcDbCircle
 10
606.8415643636289
 20
-299.9424163947667
 30
0.0
 40
9.9999991623131
100
AcDbArc
 50
270.0
 51
0.0
  0
ARC
  5
1C0
330
1F
100
AcDbEntity
  8
建具
  6
Continuous
 62
     4
370
     9
100
AcDbCircle
 10
600.6565585570405
 20
-327.9424592843359
 30
0.0
 40
17.99999829885122
100
AcDbArc
 50
74.99999999999999
 51
89.99999999999999
  0
ARC
  5
1C1
330
1F
100
AcDbEntity
  8
建具
  6
Continuous
 62
     4
370
     9
100
AcDbCircle
 10
662.3418217010443
 20
-326.1958434363103
 30
0.0
 40
4.499999574712805
100
AcDbArc
 50
255.0000915527343
 51
74.99986267089842
  0
ARC
  5
1C2
330
1F
100
AcDbEntity
  8
建具
  6
JWW_CENTER2
 62
     4
370
     9
100
AcDbCircle
 10
600.6565585570405
 20
-327.9424592843359
 30
0.0
 40
13.50000065726203
100
AcDbArc
 50
75.00004577636717
 51
90.0
  0
ARC
  5
1C3
330
1F
100
AcDbEntity
  8
建具
  6
Continuous
 62
     4
370
     9
100
AcDbCircle
 10
600.6570534366859
 20
-327.9424592843359
 30
0.0
 40
8.99999914942561
100
AcDbArc
 50
74.99998474121095
 51
90.00000000000001
  0
LINE
  5
1C4
330
1F
100
AcDbEntity
  8
その他
  6
Continuous
 62
     7
370
     9
100
AcDbLine
 10
684.7699544675048
 20
60.05749287729827
 30
0.0
 11
684.7699544675048
 21
0.0575423652628615
 31
0.0
  0
LWPOLYLINE
  5
1C5
330
1F
100
AcDbEntity
  8
その他
  6
Continuous
 62
     7
370
     9
100
AcDbPolyline
 90
        4
 70
     1
 43
0.4
 10
684.9699544675049
 20
60.05749287729827
 42
0.4142135623731
 10
684.7699544675048
 20
60.25749287729828
 42
0.4142135623731
 10
684.5699544675048
 20
60.05749287729827
 42
0.4142135623731
 10
684.7699544675048
 20
59.85749287729827
 42
0.4142135623731
  0
LWPOLYLINE
  5
1C6
330
1F
100
AcDbEntity
  8
その他
  6
Continuous
 62
     7
370
     9
100
AcDbPolyline
 90
        4
 70
     1
 43
0.4
 10
684.9699544675049
 20
0.0575423652628615
 42
0.4142135623731
 10
684.7699544675048
 20
0.2575423652628615
 42
0.4142135623731
 10
684.5699544675048
 20
0.0575423652628615
 42
0.4142135623731
 10
684.7699544675048
 20
-0.1424576347371385
 42
0.4142135623731
  0
LINE
  5
1C7
330
1F
100
AcDbEntity
  8
その他
  6
Continuous
 62
     7
370
     9
100
AcDbLine
 10
685.9699544675049
 20
0.0575423652628615
 30
0.0
 11
627.2806438477697
 21
0.0575423652628615
 31
0.0
  0
TEXT
  5
1C8
330
1F
100
AcDbEntity
  8
その他
  6
Continuous
 62
     2
370
   211
100
AcDbText
 10
680.1139544675049
 20
21.55751762128057
 30
0.0
 40
12.192
  1
60
 50
90.0
 41
1.0625
  7
ＭＳ ゴシック
100
AcDbText
  0
LINE
  5
1C9
330
1F
100
AcDbEntity
  8
その他
  6
Continuous
 62
     7
370
     9
100
AcDbLine
 10
685.9699544675049
 20
60.05749287729827
 30
0.0
 11
627.2806438477697
 21
60.05749287729827
 31
0.0
  0
LWPOLYLINE
  5
1CA
330
1F
100
AcDbEntity
  8
その他
  6
Continuous
 62
     7
370
     9
100
AcDbPolyline
 90
        4
 70
     1
 43
0.4
 10
684.9699544675049
 20
-249.9424576347371
 42
0.4142135623731
 10
684.7699544675048
 20
-249.7424576347371
 42
0.4142135623731
 10
684.5699544675048
 20
-249.9424576347371
 42
0.4142135623731
 10
684.7699544675048
 20
-250.1424576347371
 42
0.4142135623731
  0
LINE
  5
1CB
330
1F
100
AcDbEntity
  8
その他
  6
Continuous
 62
     7
370
     9
100
AcDbLine
 10
685.9699544675049
 20
-249.9424576347371
 30
0.0
 11
627.2806438477697
 21
-249.9424576347371
 31
0.0
  0
LINE
  5
1CC
330
1F
100
AcDbEntity
  8
その他
  6
Continuous
 62
     7
370
     9
100
AcDbLine
 10
684.7699544675048
 20
-249.9424576347371
 30
0.0
 11
684.7699544675048
 21
-309.9424081467726
 31
0.0
  0
LWPOLYLINE
  5
1CD
330
1F
100
AcDbEntity
  8
その他
  6
Continuous
 62
     7
370
     9
100
AcDbPolyline
 90
        4
 70
     1
 43
0.4
 10
684.9699544675049
 20
-309.9424081467726
 42
0.4142135623731
 10
684.7699544675048
 20
-309.7424081467726
 42
0.4142135623731
 10
684.5699544675048
 20
-309.9424081467726
 42
0.4142135623731
 10
684.7699544675048
 20
-310.1424081467725
 42
0.4142135623731
  0
TEXT
  5
1CE
330
1F
100
AcDbEntity
  8
その他
  6
Continuous
 62
     2
370
   211
100
AcDbText
 10
680.1139544675049
 20
-288.4424328907546
 30
0.0
 40
12.192
  1
60
 50
90.0
 41
1.0625
  7
ＭＳ ゴシック
100
AcDbText
  0
LINE
  5
1CF
330
1F
100
AcDbEntity
  8
その他
  6
Continuous
 62
     7
370
     9
100
AcDbLine
 10
685.9699544675049
 20
-309.9424081467726
 30
0.0
 11
627.2806438477697
 21
-309.9424081467726
 31
0.0
  0
LINE
  5
1D0
330
1F
100
AcDbEntity
  8
寸法
  6
Continuous
 62
     7
370
     9
100
AcDbLine
 10
735.6279961238829
 20
197.1281397933194
 30
0.0
 11
666.641229802493
 21
77.6395554747894
 31
0.0
  0
LINE
  5
1D1
330
1F
100
AcDbEntity
  8
寸法
  6
Continuous
 62
     7
370
     9
100
AcDbLine
 10
666.641229802493
 20
77.6395554747894
 30
0.0
 11
670.4680641261439
 21
86.87835079990236
 31
0.0
  0
LINE
  5
1D2
330
1F
100
AcDbEntity
  8
寸法
  6
Continuous
 62
     7
370
     9
100
AcDbLine
 10
666.641229802493
 20
77.6395554747894
 30
0.0
 11
672.7288440925804
 21
85.57308887770182
 31
0.0
  0
TEXT
  5
1D3
330
1F
100
AcDbEntity
  8
寸法
  6
Continuous
 62
     7
370
     0
100
AcDbText
 10
737.8709002765004
 20
202.2797829062993
 30
0.0
 40
9.144
  1
アンカー：φ９
 50
359.9999409281058
 41
1.142857142857145
  7
ＭＳ ゴシック
100
AcDbText
  0
LINE
  5
1D4
330
1F
100
AcDbEntity
  8
寸法
  6
Continuous
 62
     7
370
     9
100
AcDbLine
 10
559.6418325883968
 20
-101.8540003666174
 30
0.0
 11
553.5542182983094
 21
-93.92046696370494
 31
0.0
  0
LINE
  5
1D5
330
1F
100
AcDbEntity
  8
寸法
  6
Continuous
 62
     7
370
     9
100
AcDbLine
 10
559.6418325883968
 20
-101.8540003666174
 30
0.0
 11
555.8149982647459
 21
-92.61520504150462
 31
0.0
  0
TEXT
  5
1D6
330
1F
100
AcDbEntity
  8
寸法
  6
Continuous
 62
     7
370
     0
100
AcDbText
 10
266.2954704860948
 20
134.2470592444672
 30
0.0
 40
9.144
  1
モルタル止め：ｔ＝１.０
 41
1.152173913043478
  7
ＭＳ ゴシック
100
AcDbText
  0
TEXT
  5
1D7
330
1F
100
AcDbEntity
  8
寸法
  6
Continuous
 62
     7
370
     0
100
AcDbText
 10
299.2059665345677
 20
115.9259074033482
 30
0.0
 40
9.144
  1
ＳＵＳ４３０
 41
1.138888888888864
  7
ＭＳ ゴシック
100
AcDbText
  0
LINE
  5
1D8
330
1F
100
AcDbEntity
  8
寸法
  6
Continuous
 62
     7
370
     9
100
AcDbLine
 10
426.3783954662121
 20
128.9650435202668
 30
0.0
 11
559.6418325883968
 21
-101.8540003666174
 31
0.0
  0
LINE
  5
1D9
330
1F
100
AcDbEntity
  8
寸法
  6
Continuous
 62
     7
370
     9
100
AcDbLine
 10
264.8999179628189
 20
128.9650435202668
 30
0.0
 11
426.3783954662121
 21
128.9650435202668
 31
0.0
  0
LINE
  5
1DA
330
1F
100
AcDbEntity
  8
寸法
  6
Continuous
 62
     7
370
     9
100
AcDbLine
 10
531.6416329869393
 20
-3.48356643241641
 30
0.0
 11
525.5540186968518
 21
4.449966970495552
 31
0.0
  0
LINE
  5
1DB
330
1F
100
AcDbEntity
  8
寸法
  6
Continuous
 62
     7
370
     9
100
AcDbLine
 10
531.6416329869393
 20
-3.48356643241641
 30
0.0
 11
527.8147986632883
 21
5.755228892696323
 31
0.0
  0
TEXT
  5
1DC
330
1F
100
AcDbEntity
  8
寸法
  6
Continuous
 62
     7
370
     0
100
AcDbText
 10
318.9722229676098
 20
190.0342464496346
 30
0.0
 40
9.144
  1
蓋：ＳＳ４００
 41
1.142857142857143
  7
ＭＳ ゴシック
100
AcDbText
  0
TEXT
  5
1DD
330
1F
100
AcDbEntity
  8
寸法
  6
Continuous
 62
     7
370
     0
100
AcDbText
 10
304.2709060015794
 20
171.4493468498463
 30
0.0
 40
9.144
  1
（溶融亜鉛めっき）
 41
1.148148148148148
  7
ＭＳ ゴシック
100
AcDbText
  0
LINE
  5
1DE
330
1F
100
AcDbEntity
  8
寸法
  6
Continuous
 62
     7
370
     9
100
AcDbLine
 10
309.8148902361853
 20
184.4146861375339
 30
0.0
 11
423.1585262854186
 21
184.4146861375339
 31
0.0
  0
LINE
  5
1DF
330
1F
100
AcDbEntity
  8
寸法
  6
Continuous
 62
     7
370
     9
100
AcDbLine
 10
423.1585262854186
 20
184.4146861375339
 30
0.0
 11
531.6416329869393
 21
-3.48356643241641
 31
0.0
  0
LWPOLYLINE
  5
1E0
330
1F
100
AcDbEntity
  8
その他
  6
Continuous
 62
     7
370
     9
100
AcDbPolyline
 90
        4
 70
     1
 43
0.4
 10
617.0415973556052
 20
144.6844813478217
 42
0.4142135623731
 10
616.8415973556051
 20
144.8844813478217
 42
0.4142135623731
 10
616.6415973556051
 20
144.6844813478217
 42
0.4142135623731
 10
616.8415973556051
 20
144.4844813478217
 42
0.4142135623731
  0
LWPOLYLINE
  5
1E1
330
1F
100
AcDbEntity
  8
その他
  6
Continuous
 62
     7
370
     9
100
AcDbPolyline
 90
        4
 70
     1
 43
0.4
 10
611.0416765363485
 20
114.7962429231277
 42
0.4142135623731
 10
610.8416765363485
 20
114.9962429231277
 42
0.4142135623731
 10
610.6416765363484
 20
114.7962429231277
 42
0.4142135623731
 10
610.8416765363485
 20
114.5962429231277
 42
0.4142135623731
  0
LINE
  5
1E2
330
1F
100
AcDbEntity
  8
その他
  6
Continuous
 62
     7
370
     9
100
AcDbLine
 10
610.8416765363485
 20
115.9962429231277
 30
0.0
 11
610.8416765363485
 21
79.03253882520335
 31
0.0
  0
LINE
  5
1E3
330
1F
100
AcDbEntity
  8
その他
  6
Continuous
 62
     7
370
     9
100
AcDbLine
 10
616.8415973556051
 20
145.8844813478217
 30
0.0
 11
616.8415973556051
 21
79.03253882520335
 31
0.0
  0
LINE
  5
1E4
330
1F
100
AcDbEntity
  8
その他
  6
Continuous
 62
     7
370
     9
100
AcDbLine
 10
531.6416775261085
 20
114.7962429231277
 30
0.0
 11
610.8416765363485
 21
114.7962429231277
 31
0.0
  0
TEXT
  5
1E5
330
1F
100
AcDbEntity
  8
その他
  6
Continuous
 62
     2
370
   211
100
AcDbText
 10
553.7416770312285
 20
119.4522429231278
 30
0.0
 40
12.192
  1
79.2
 41
1.09375
  7
ＭＳ ゴシック
100
AcDbText
  0
LINE
  5
1E6
330
1F
100
AcDbEntity
  8
その他
  6
Continuous
 62
     7
370
     9
100
AcDbLine
 10
531.6416775261085
 20
144.6844813478217
 30
0.0
 11
616.8415973556051
 21
144.6844813478217
 31
0.0
  0
TEXT
  5
1E7
330
1F
100
AcDbEntity
  8
その他
  6
Continuous
 62
     2
370
   211
100
AcDbText
 10
556.7416374408568
 20
149.3404813478218
 30
0.0
 40
12.192
  1
85.2
 41
1.09375
  7
ＭＳ ゴシック
100
AcDbText
  0
LINE
  5
1E8
330
1F
100
AcDbEntity
  8
その他
  6
Continuous
 62
     7
370
     9
100
AcDbLine
 10
376.3547025267495
 20
60.05749287729827
 30
0.0
 11
376.3547025267495
 21
-309.9424081467726
 31
0.0
  0
TEXT
  5
1E9
330
1F
100
AcDbEntity
  8
その他
  6
Continuous
 62
     2
370
   211
100
AcDbText
 10
371.6987025267495
 20
-137.9424576347371
 30
0.0
 40
12.192
  1
370
 50
90.0
 41
1.083333333333333
  7
ＭＳ ゴシック
100
AcDbText
  0
LINE
  5
1EA
330
1F
100
AcDbEntity
  8
その他
  6
Continuous
 62
     7
370
     9
100
AcDbLine
 10
409.6915838466004
 20
-300.4427555051473
 30
0.0
 11
409.6915838466004
 21
50.55784023568071
 31
0.0
  0
TEXT
  5
1EB
330
1F
100
AcDbEntity
  8
その他
  6
Continuous
 62
     2
370
   211
100
AcDbText
 10
405.0355838466004
 20
-137.942457634733
 30
0.0
 40
12.192
  1
351
 50
90.0
 41
1.083333333333333
  7
ＭＳ ゴシック
100
AcDbText
  0
LINE
  5
1EC
330
1F
100
AcDbEntity
  8
その他
  6
Continuous
 62
     7
370
     9
100
AcDbLine
 10
441.871821561697
 20
33.05778037881123
 30
0.0
 11
441.871821561697
 21
-282.9426956482778
 31
0.0
  0
TEXT
  5
1ED
330
1F
100
AcDbEntity
  8
その他
  6
Continuous
 62
     2
370
   211
100
AcDbText
 10
437.215821561697
 20
-137.942457634733
 30
0.0
 40
12.192
  1
316
 50
90.0
 41
1.083333333333333
  7
ＭＳ ゴシック
100
AcDbText
  0
LINE
  5
1EE
330
1F
100
AcDbEntity
  8
その他
  6
Continuous
 62
     7
370
     9
100
AcDbLine
 10
684.7699544675048
 20
0.0575423652628615
 30
0.0
 11
684.7699544675048
 21
-249.9424576347371
 31
0.0
  0
TEXT
  5
1EF
330
1F
100
AcDbEntity
  8
その他
  6
Continuous
 62
     2
370
   211
100
AcDbText
 10
680.1139544675049
 20
-137.9424576347371
 30
0.0
 40
12.192
  1
250
 50
90.0
 41
1.083333333333333
  7
ＭＳ ゴシック
100
AcDbText
  0
TEXT
  5
1F0
330
1F
100
AcDbEntity
  8
F-5ﾚｲﾔ
  6
Continuous
 62
     2
370
     9
100
AcDbText
 10
63.34966572385582
 20
703.171871598609
 30
0.0
 40
12.192
  1
250mm
 41
1.1
  7
ＭＳ ゴシック
100
AcDbText
  0
TEXT
  5
1F1
330
1F
100
AcDbEntity
  8
F-Fﾚｲﾔ
  6
Continuous
 62
     2
370
     9
100
AcDbText
 10
63.34966572385588
 20
575.171871598609
 30
0.0
 40
12.192
  1
寸法 幅351×長さ598×高さ79.2
 41
1.120689655172414
  7
ＭＳ ゴシック
100
AcDbText
  0
TEXT
  5
1F2
330
1F
100
AcDbEntity
  8
F-Fﾚｲﾔ
  6
Continuous
 62
     2
370
     9
100
AcDbText
 10
63.34966572385582
 20
543.171871598609
 30
0.0
 40
12.192
  1
蓋質量　10.3kg
 41
1.116071428571429
  7
ＭＳ ゴシック
100
AcDbText
  0
TEXT
  5
1F3
330
1F
100
AcDbEntity
  8
F-Fﾚｲﾔ
  6
Continuous
 62
     2
370
     9
100
AcDbText
 10
63.34966572385582
 20
479.1718715986091
 30
0.0
 40
12.192
  1
寸法 幅370×長さ2000×高さ85.2
 41
1.120833333333333
  7
ＭＳ ゴシック
100
AcDbText
  0
TEXT
  5
1F4
330
1F
100
AcDbEntity
  8
F-Fﾚｲﾔ
  6
Continuous
 62
     2
370
     9
100
AcDbText
 10
63.34966572385588
 20
415.1718715986091
 30
0.0
 40
12.192
  1
蓋　：HESM-2-3560
 41
1.117647058823529
  7
ＭＳ ゴシック
100
AcDbText
  0
LINE
  5
1F5
330
1F
100
AcDbEntity
  8
その他
  6
Continuous
 62
     7
370
     9
100
AcDbLine
 10
531.6416329869397
 20
-215.6284141887483
 30
0.0
 11
569.6418325883968
 21
-215.6284141887483
 31
0.0
  0
LWPOLYLINE
  5
1F6
330
1F
100
AcDbEntity
  8
その他
  6
Continuous
 62
     7
370
     9
100
AcDbPolyline
 90
        4
 70
     1
 43
0.4
 10
531.8416329869398
 20
-215.6284141887483
 42
0.4142135623731
 10
531.6416329869397
 20
-215.4284141887483
 42
0.4142135623731
 10
531.4416329869397
 20
-215.6284141887483
 42
0.4142135623731
 10
531.6416329869397
 20
-215.8284141887482
 42
0.4142135623731
  0
LWPOLYLINE
  5
1F7
330
1F
100
AcDbEntity
  8
その他
  6
Continuous
 62
     7
370
     9
100
AcDbPolyline
 90
        4
 70
     1
 43
0.4
 10
569.8418325883969
 20
-215.6284141887483
 42
0.4142135623731
 10
569.6418325883968
 20
-215.4284141887483
 42
0.4142135623731
 10
569.4418325883968
 20
-215.6284141887483
 42
0.4142135623731
 10
569.6418325883968
 20
-215.8284141887482
 42
0.4142135623731
  0
TEXT
  5
1F8
330
1F
100
AcDbEntity
  8
その他
  6
Continuous
 62
     2
370
   211
100
AcDbText
 10
542.1417327876683
 20
-210.9724141887482
 30
0.0
 40
12.192
  1
38
 41
1.0625
  7
ＭＳ ゴシック
100
AcDbText
  0
LINE
  5
1F9
330
1F
100
AcDbEntity
  8
その他
  6
Continuous
 62
     7
370
     9
100
AcDbLine
 10
569.6418325883968
 20
-215.6284141887483
 30
0.0
 11
572.8418480946265
 21
-215.6284141887483
 31
0.0
  0
LWPOLYLINE
  5
1FA
330
1F
100
AcDbEntity
  8
その他
  6
Continuous
 62
     7
370
     9
100
AcDbPolyline
 90
        4
 70
     1
 43
0.4
 10
573.0418480946265
 20
-215.6284141887483
 42
0.4142135623731
 10
572.8418480946265
 20
-215.4284141887483
 42
0.4142135623731
 10
572.6418480946264
 20
-215.6284141887483
 42
0.4142135623731
 10
572.8418480946265
 20
-215.8284141887482
 42
0.4142135623731
  0
LINE
  5
1FB
330
1F
100
AcDbEntity
  8
その他
  6
Continuous
 62
     7
370
     9
100
AcDbLine
 10
531.6416329869397
 20
-184.8774112712373
 30
0.0
 11
559.6418325883968
 21
-184.8774112712373
 31
0.0
  0
LWPOLYLINE
  5
1FC
330
1F
100
AcDbEntity
  8
その他
  6
Continuous
 62
     7
370
     9
100
AcDbPolyline
 90
        4
 70
     1
 43
0.4
 10
531.8416329869398
 20
-184.8774112712373
 42
0.4142135623731
 10
531.6416329869397
 20
-184.6774112712373
 42
0.4142135623731
 10
531.4416329869397
 20
-184.8774112712373
 42
0.4142135623731
 10
531.6416329869397
 20
-185.0774112712373
 42
0.4142135623731
  0
LWPOLYLINE
  5
1FD
330
1F
100
AcDbEntity
  8
その他
  6
Continuous
 62
     7
370
     9
100
AcDbPolyline
 90
        4
 70
     1
 43
0.4
 10
559.8418325883969
 20
-184.8774112712373
 42
0.4142135623731
 10
559.6418325883968
 20
-184.6774112712373
 42
0.4142135623731
 10
559.4418325883968
 20
-184.8774112712373
 42
0.4142135623731
 10
559.6418325883968
 20
-185.0774112712373
 42
0.4142135623731
  0
TEXT
  5
1FE
330
1F
100
AcDbEntity
  8
その他
  6
Continuous
 62
     2
370
   211
100
AcDbText
 10
537.1417327876683
 20
-180.2214112712377
 30
0.0
 40
12.192
  1
28
 41
1.0625
  7
ＭＳ ゴシック
100
AcDbText
  0
LWPOLYLINE
  5
1FF
330
1F
100
AcDbEntity
  8
その他
  6
Continuous
 62
     7
370
     9
100
AcDbPolyline
 90
        4
 70
     1
 43
0.4
 10
611.0416765363485
 20
-215.6284141887483
 42
0.4142135623731
 10
610.8416765363485
 20
-215.4284141887483
 42
0.4142135623731
 10
610.6416765363484
 20
-215.6284141887483
 42
0.4142135623731
 10
610.8416765363485
 20
-215.8284141887482
 42
0.4142135623731
  0
LINE
  5
200
330
1F
100
AcDbEntity
  8
その他
  6
Continuous
 62
     7
370
     9
100
AcDbLine
 10
572.8418480946265
 20
-215.6284141887483
 30
0.0
 11
610.8416765363485
 21
-215.6284141887483
 31
0.0
  0
TEXT
  5
201
330
1F
100
AcDbEntity
  8
その他
  6
Continuous
 62
     2
370
   211
100
AcDbText
 10
583.3417623154875
 20
-210.9724141887482
 30
0.0
 40
12.192
  1
38
 41
1.0625
  7
ＭＳ ゴシック
100
AcDbText
  0
LINE
  5
202
330
1F
100
AcDbEntity
  8
その他
  6
Continuous
 62
     7
370
     9
100
AcDbLine
 10
577.0987117742765
 20
-190.4783414401878
 30
0.0
 11
607.9803864239127
 21
-190.4783414401878
 31
0.0
  0
LINE
  5
203
330
1F
100
AcDbEntity
  8
その他
  6
Continuous
 62
     7
370
     9
100
AcDbLine
 10
571.2418403415116
 20
-215.6284141887483
 30
0.0
 11
577.0987117742765
 21
-190.4783414401878
 31
0.0
  0
TEXT
  5
204
330
1F
100
AcDbEntity
  8
その他
  6
Continuous
 62
     2
370
   211
100
AcDbText
 10
580.4744435464956
 20
-187.1883004806545
 30
0.0
 40
12.192
  1
3.2
 41
1.083333333333333
  7
ＭＳ ゴシック
100
AcDbText
  0
LINE
  5
205
330
1F
100
AcDbEntity
  8
その他
  6
Continuous
 62
     7
370
     9
100
AcDbLine
 10
559.6418325883968
 20
-186.0774112712371
 30
0.0
 11
559.6418325883968
 21
-162.1091184043763
 31
0.0
  0
LINE
  5
206
330
1F
100
AcDbEntity
  8
その他
  6
Continuous
 62
     7
370
     9
100
AcDbLine
 10
-720.6419442595204
 20
13.42946831268568
 30
0.0
 11
-726.7295585496074
 21
5.495934909773263
 31
0.0
  0
LINE
  5
207
330
1F
100
AcDbEntity
  8
その他
  6
Continuous
 62
     7
370
     9
100
AcDbLine
 10
-720.6419442595204
 20
13.42946831268568
 30
0.0
 11
-724.4687785831713
 21
4.19067298757272
 31
0.0
  0
LINE
  5
208
330
1F
100
AcDbEntity
  8
その他
  6
Continuous
 62
     7
370
     9
100
AcDbLine
 10
-769.4208018567213
 20
-71.05799138083262
 30
0.0
 11
-720.6419442595204
 21
13.42946831268568
 31
0.0
  0
LINE
  5
209
330
1F
100
AcDbEntity
  8
その他
  6
Continuous
 62
     7
370
     9
100
AcDbLine
 10
-810.2373900316568
 20
-71.05799138083262
 30
0.0
 11
-769.4208018567213
 21
-71.05799138083262
 31
0.0
  0
TEXT
  5
20A
330
1F
100
AcDbEntity
  8
その他
  6
Continuous
 62
     2
370
     9
100
AcDbText
 10
-808.7902753749438
 20
-65.7940586303267
 30
0.0
 40
12.192
  1
φ10
 41
1.09375
  7
ＭＳ ゴシック
100
AcDbText
  0
LINE
  5
20B
330
1F
100
AcDbEntity
  8
仕上
  6
Continuous
 62
     2
370
     9
100
AcDbLine
 10
-154.3211110084671
 20
-300.4427555051464
 30
0.0
 11
-743.3209413354457
 21
-300.4427555051464
 31
0.0
  0
LINE
  5
20C
330
1F
100
AcDbEntity
  8
仕上
  6
Continuous
 62
     2
370
     9
100
AcDbLine
 10
-743.3209413354457
 20
50.55784023568208
 30
0.0
 11
-154.3211110084671
 21
50.55784023568208
 31
0.0
  0
LINE
  5
20D
330
1F
100
AcDbEntity
  8
寸法
  6
Continuous
 62
     7
370
     9
100
AcDbLine
 10
252.2660097685088
 20
238.7938089058202
 30
0.0
 11
450.8995952931161
 21
238.7938089058202
 31
0.0
  0
TEXT
  5
20E
330
1F
100
AcDbEntity
  8
寸法
  6
Continuous
 62
     7
370
     0
100
AcDbText
 10
263.9569745805238
 20
224.9627760758743
 30
0.0
 40
9.144
  1
ＳＰＨＣ（溶融亜鉛めっき）
 50
0.00006301003343
 41
1.153846153846154
  7
ＭＳ ゴシック
100
AcDbText
  0
TEXT
  5
20F
330
1F
100
AcDbEntity
  8
寸法
  6
Continuous
 62
     7
370
     0
100
AcDbText
 10
252.7424832164947
 20
243.1971161685742
 30
0.0
 40
9.144
  1
受枠：Ｌ－８０Ｚ　ｔ＝６．０
 41
1.154761904761905
  7
ＭＳ ゴシック
100
AcDbText
  0
TEXT
  5
210
330
1F
100
AcDbEntity
  8
寸法
  6
Continuous
 62
     7
370
     0
100
AcDbText
 10
736.9483461720702
 20
184.3136429062279
 30
0.0
 40
9.144
  1
ＳＳ４００（溶融亜鉛めっき）
 41
1.154761904761905
  7
ＭＳ ゴシック
100
AcDbText
  0
LINE
  5
211
330
1F
100
AcDbEntity
  8
寸法
  6
Continuous
 62
     7
370
     9
100
AcDbLine
 10
735.6279961238829
 20
197.1281397933194
 30
0.0
 11
931.2357637040978
 21
197.1281397933194
 31
0.0
  0
TEXT
  5
212
330
1F
100
AcDbEntity
  8
F-Fﾚｲﾔ
  6
Continuous
 62
     2
370
     9
100
AcDbText
 10
63.34966572385588
 20
511.171871598609
 30
0.0
 40
12.192
  1
スチール製 溶融亜鉛めっき
 41
1.115
  7
ＭＳ ゴシック
100
AcDbText
  0
TEXT
  5
213
330
1F
100
AcDbEntity
  8
F-Fﾚｲﾔ
  6
Continuous
 62
     2
370
     9
100
AcDbText
 10
63.34966572385582
 20
383.1718715986091
 30
0.0
 40
12.192
  1
受枠：L-80Z
 41
1.113636363636364
  7
ＭＳ ゴシック
100
AcDbText
  0
TEXT
  5
214
330
1F
100
AcDbEntity
  8
F-4ﾚｲﾔ
  6
Continuous
 62
     2
370
     9
100
AcDbText
 10
121.5518978630822
 20
-777.8398842462343
 30
0.0
 40
12.192
  1
側溝用　ＨＥＳＭ－２－３５６０＋Ｌ－８０Ｚ
 41
1.119047619047619
  7
ＭＳ ゴシック
100
AcDbText
  0
LINE
  5
215
330
1F
100
AcDbEntity
  8
通り芯
  6
JWW_CENTER2
 62
     7
370
     9
100
AcDbLine
 10
206.9374100346822
 20
-124.942457634733
 30
0.0
 11
-769.8664445761983
 21
-124.942457634733
 31
0.0
  0
ENDSEC
  0
SECTION
  2
OBJECTS
  0
DICTIONARY
  5
C
330
0
100
AcDbDictionary
281
     1
  3
ACAD_GROUP
350
D
  3
ACAD_LAYOUT
350
1A
  3
ACAD_MLEADERSTYLE
350
217
  3
ACAD_MLINESTYLE
350
17
  3
ACAD_PLOTSETTINGS
350
19
  3
ACAD_PLOTSTYLENAME
350
E
  3
ACAD_TABLESTYLE
350
216
  3
ACAD_VISUALSTYLE
350
2A
  0
DICTIONARY
  5
D
102
{ACAD_REACTORS
330
C
102
}
330
C
100
AcDbDictionary
281
     1
  0
DICTIONARY
  5
1A
102
{ACAD_REACTORS
330
C
102
}
330
C
100
AcDbDictionary
281
     1
  3
Layout1
350
1E
  3
Layout2
350
26
  3
Model
350
22
  0
DICTIONARY
  5
217
102
{ACAD_REACTORS
330
C
102
}
330
C
100
AcDbDictionary
281
     1
  0
DICTIONARY
  5
17
102
{ACAD_REACTORS
330
C
102
}
330
C
100
AcDbDictionary
281
     1
  3
Standard
350
18
  0
DICTIONARY
  5
19
102
{ACAD_REACTORS
330
C
102
}
330
C
100
AcDbDictionary
281
     1
  0
ACDBDICTIONARYWDFLT
  5
E
102
{ACAD_REACTORS
330
C
102
}
330
C
100
AcDbDictionary
281
     1
  3
Normal
350
F
100
AcDbDictionaryWithDefault
340
F
  0
DICTIONARY
  5
216
102
{ACAD_REACTORS
330
C
102
}
330
C
100
AcDbDictionary
281
     1
  0
DICTIONARY
  5
2A
102
{ACAD_REACTORS
330
C
102
}
330
C
100
AcDbDictionary
281
     1
  3
2dWireframe
350
2F
  3
3D Hidden
350
31
  3
3dWireframe
350
30
  3
Basic
350
32
  3
Brighten
350
36
  3
ColorChange
350
3A
  3
Conceptual
350
34
  3
Dim
350
35
  3
Facepattern
350
39
  3
Flat
350
2B
  3
FlatWithEdges
350
2C
  3
Gouraud
350
2D
  3
GouraudWithEdges
350
2E
  3
Linepattern
350
38
  3
Realistic
350
33
  3
Thicken
350
37
  0
LAYOUT
  5
1E
102
{ACAD_REACTORS
330
1A
102
}
330
1A
100
AcDbPlotSettings
  1

  2
none_device
  4

  6

 40
0.0
 41
0.0
 42
0.0
 43
0.0
 44
0.0
 45
0.0
 46
0.0
 47
0.0
 48
0.0
 49
0.0
140
0.0
141
0.0
142
1.0
143
1.0
 70
   688
 72
     0
 73
     0
 74
     5
  7

 75
    16
 76
     0
 77
     5
 78
   300
147
1.0
148
0.0
149
0.0
100
AcDbLayout
  1
Layout1
 70
     1
 71
     1
 10
0.0
 20
0.0
 11
420.0
 21
297.0
 12
0.0
 22
0.0
 32
0.0
 14
1.000000000000000E+20
 24
1.000000000000000E+20
 34
1.000000000000000E+20
 15
-1.000000000000000E+20
 25
-1.000000000000000E+20
 35
-1.000000000000000E+20
146
0.0
 13
0.0
 23
0.0
 33
0.0
 16
1.0
 26
0.0
 36
0.0
 17
0.0
 27
1.0
 37
0.0
 76
     0
330
1B
  0
LAYOUT
  5
26
102
{ACAD_REACTORS
330
1A
102
}
330
1A
100
AcDbPlotSettings
  1

  2
none_device
  4

  6

 40
0.0
 41
0.0
 42
0.0
 43
0.0
 44
0.0
 45
0.0
 46
0.0
 47
0.0
 48
0.0
 49
0.0
140
0.0
141
0.0
142
1.0
143
1.0
 70
   688
 72
     0
 73
     0
 74
     5
  7

 75
    16
 76
     0
 77
     5
 78
   300
147
1.0
148
0.0
149
0.0
100
AcDbLayout
  1
Layout2
 70
     1
 71
     2
 10
0.0
 20
0.0
 11
0.0
 21
0.0
 12
0.0
 22
0.0
 32
0.0
 14
0.0
 24
0.0
 34
0.0
 15
0.0
 25
0.0
 35
0.0
146
0.0
 13
0.0
 23
0.0
 33
0.0
 16
1.0
 26
0.0
 36
0.0
 17
0.0
 27
1.0
 37
0.0
 76
     0
330
23
  0
LAYOUT
  5
22
102
{ACAD_REACTORS
330
1A
102
}
330
1A
100
AcDbPlotSettings
  1

  2
none_device
  4

  6

 40
0.0
 41
0.0
 42
0.0
 43
0.0
 44
0.0
 45
0.0
 46
0.0
 47
0.0
 48
0.0
 49
0.0
140
0.0
141
0.0
142
1.0
143
1.0
 70
  1712
 72
     0
 73
     0
 74
     0
  7

 75
     0
 76
     0
 77
     5
 78
   300
147
1.0
148
0.0
149
0.0
100
AcDbLayout
  1
Model
 70
     1
 71
     0
 10
-1188.0
 20
-840.0
 11
1188.0
 21
840.0
 12
0.0
 22
0.0
 32
0.0
 14
-1188.0
 24
-840.0
 34
0.0
 15
1188.0
 25
840.0
 35
0.0
146
0.0
 13
0.0
 23
0.0
 33
0.0
 16
1.0
 26
0.0
 36
0.0
 17
0.0
 27
1.0
 37
0.0
 76
     0
330
1F
331
29
  0
MLINESTYLE
  5
18
102
{ACAD_REACTORS
330
17
102
}
330
17
100
AcDbMlineStyle
  2
Standard
 70
     0
  3

 62
   256
 51
90.0
 52
90.0
 71
     2
 49
0.5
 62
   256
  6
BYLAYER
 49
-0.5
 62
   256
  6
BYLAYER
  0
ACDBPLACEHOLDER
  5
F
102
{ACAD_REACTORS
330
E
102
}
330
E
  0
VISUALSTYLE
  5
2F
102
{ACAD_REACTORS
330
2A
102
}
330
2A
100
AcDbVisualStyle
  2
2dWireframe
 70
     4
 71
     0
 72
     2
 73
     0
 90
        0
 40
-0.6
 41
-30.0
 62
     5
 63
     7
421
 16777215
 74
     1
 91
        4
 64
     7
 65
   257
 75
     1
175
     1
 42
1.0
 92
        0
 66
   257
 43
1.0
 76
     1
 77
     6
 78
     2
 67
     7
 79
     5
170
     0
171
     0
290
     0
174
     0
 93
        1
 44
0.0
173
     0
291
     0
 45
0.0
  0
VISUALSTYLE
  5
31
102
{ACAD_REACTORS
330
2A
102
}
330
2A
100
AcDbVisualStyle
  2
3D Hidden
 70
     6
 71
     1
 72
     2
 73
     2
 90
        0
 40
-0.6
 41
-30.0
 62
     5
 63
     7
421
 16777215
 74
     2
 91
        2
 64
     7
 65
   257
 75
     2
175
     1
 42
40.0
 92
        0
 66
   257
 43
1.0
 76
     1
 77
     6
 78
     2
 67
     7
 79
     3
170
     0
171
     0
290
     0
174
     0
 93
        1
 44
0.0
173
     0
291
     0
 45
0.0
  0
VISUALSTYLE
  5
30
102
{ACAD_REACTORS
330
2A
102
}
330
2A
100
AcDbVisualStyle
  2
3dWireframe
 70
     5
 71
     0
 72
     2
 73
     0
 90
        0
 40
-0.6
 41
-30.0
 62
     5
 63
     7
421
 16777215
 74
     1
 91
        4
 64
     7
 65
   257
 75
     1
175
     1
 42
1.0
 92
        0
 66
   257
 43
1.0
 76
     1
 77
     6
 78
     2
 67
     7
 79
     5
170
     0
171
     0
290
     0
174
     0
 93
        1
 44
0.0
173
     0
291
     0
 45
0.0
  0
VISUALSTYLE
  5
32
102
{ACAD_REACTORS
330
2A
102
}
330
2A
100
AcDbVisualStyle
  2
Basic
 70
     7
 71
     1
 72
     0
 73
     1
 90
        0
 40
-0.6
 41
-30.0
 62
     5
 63
     7
421
 16777215
 74
     0
 91
        4
 64
     7
 65
   257
 75
     1
175
     1
 42
1.0
 92
        8
 66
     7
 43
1.0
 76
     1
 77
     6
 78
     2
 67
     7
 79
     5
170
     0
171
     0
290
     0
174
     0
 93
        1
 44
0.0
173
     0
291
     1
 45
0.0
  0
VISUALSTYLE
  5
36
102
{ACAD_REACTORS
330
2A
102
}
330
2A
100
AcDbVisualStyle
  2
Brighten
 70
    12
 71
     2
 72
     2
 73
     0
 90
        0
 40
-0.6
 41
-30.0
 62
     5
 63
     7
421
 16777215
 74
     1
 91
        4
 64
     7
 65
   257
 75
     1
175
     1
 42
1.0
 92
        8
 66
     7
 43
1.0
 76
     1
 77
     6
 78
     2
 67
     7
 79
     5
170
     0
171
     0
290
     0
174
     0
 93
        1
 44
50.0
173
     0
291
     1
 45
0.0
  0
VISUALSTYLE
  5
3A
102
{ACAD_REACTORS
330
2A
102
}
330
2A
100
AcDbVisualStyle
  2
ColorChange
 70
    16
 71
     2
 72
     2
 73
     3
 90
        0
 40
-0.6
 41
-30.0
 62
     5
 63
     8
421
  8421504
 74
     1
 91
        4
 64
     7
 65
   257
 75
     1
175
     1
 42
1.0
 92
        8
 66
     8
424
  8421504
 43
1.0
 76
     1
 77
     6
 78
     2
 67
     7
 79
     5
170
     0
171
     0
290
     0
174
     0
 93
        1
 44
0.0
173
     0
291
     1
 45
0.0
  0
VISUALSTYLE
  5
34
102
{ACAD_REACTORS
330
2A
102
}
330
2A
100
AcDbVisualStyle
  2
Conceptual
 70
     9
 71
     3
 72
     2
 73
     0
 90
        0
 40
-0.6
 41
-30.0
 62
     5
 63
     7
421
 16777215
 74
     2
 91
        2
 64
     7
 65
   257
 75
     1
175
     1
 42
40.0
 92
        8
 66
     7
 43
1.0
 76
     1
 77
     6
 78
     2
 67
     7
 79
     3
170
     0
171
     0
290
     0
174
     0
 93
        1
 44
0.0
173
     0
291
     0
 45
0.0
  0
VISUALSTYLE
  5
35
102
{ACAD_REACTORS
330
2A
102
}
330
2A
100
AcDbVisualStyle
  2
Dim
 70
    11
 71
     2
 72
     2
 73
     0
 90
        0
 40
-0.6
 41
-30.0
 62
     5
 63
     7
421
 16777215
 74
     1
 91
        4
 64
     7
 65
   257
 75
     1
175
     1
 42
1.0
 92
        8
 66
     7
 43
1.0
 76
     1
 77
     6
 78
     2
 67
     7
 79
     5
170
     0
171
     0
290
     0
174
     0
 93
        1
 44
-50.0
173
     0
291
     1
 45
0.0
  0
VISUALSTYLE
  5
39
102
{ACAD_REACTORS
330
2A
102
}
330
2A
100
AcDbVisualStyle
  2
Facepattern
 70
    15
 71
     2
 72
     2
 73
     0
 90
        0
 40
-0.6
 41
-30.0
 62
     5
 63
     7
421
 16777215
 74
     1
 91
        4
 64
     7
 65
   257
 75
     1
175
     1
 42
1.0
 92
        8
 66
     7
 43
1.0
 76
     1
 77
     6
 78
     2
 67
     7
 79
     5
170
     0
171
     0
290
     0
174
     0
 93
        1
 44
0.0
173
     0
291
     1
 45
0.0
  0
VISUALSTYLE
  5
2B
102
{ACAD_REACTORS
330
2A
102
}
330
2A
100
AcDbVisualStyle
  2
Flat
 70
     0
 71
     2
 72
     1
 73
     1
 90
        2
 40
-0.6
 41
30.0
 62
     5
 63
     7
421
 16777215
 74
     0
 91
        4
 64
     7
 65
   257
 75
     1
175
     1
 42
1.0
 92
        8
 66
     7
 43
1.0
 76
     1
 77
     6
 78
     2
 67
     7
 79
     5
170
     0
171
     0
290
     0
174
     0
 93
       13
 44
0.0
173
     0
291
     1
 45
0.0
  0
VISUALSTYLE
  5
2C
102
{ACAD_REACTORS
330
2A
102
}
330
2A
100
AcDbVisualStyle
  2
FlatWithEdges
 70
     1
 71
     2
 72
     1
 73
     1
 90
        2
 40
-0.6
 41
30.0
 62
     5
 63
     7
421
 16777215
 74
     1
 91
        4
 64
     7
 65
   257
 75
     1
175
     1
 42
1.0
 92
        0
 66
   257
 43
1.0
 76
     1
 77
     6
 78
     2
 67
     7
 79
     5
170
     0
171
     0
290
     0
174
     0
 93
       13
 44
0.0
173
     0
291
     1
 45
0.0
  0
VISUALSTYLE
  5
2D
102
{ACAD_REACTORS
330
2A
102
}
330
2A
100
AcDbVisualStyle
  2
Gouraud
 70
     2
 71
     2
 72
     2
 73
     1
 90
        2
 40
-0.6
 41
30.0
 62
     5
 63
     7
421
 16777215
 74
     0
 91
        4
 64
     7
 65
   257
 75
     1
175
     1
 42
1.0
 92
        0
 66
     7
 43
1.0
 76
     1
 77
     6
 78
     2
 67
     7
 79
     5
170
     0
171
     0
290
     0
174
     0
 93
       13
 44
0.0
173
     0
291
     1
 45
0.0
  0
VISUALSTYLE
  5
2E
102
{ACAD_REACTORS
330
2A
102
}
330
2A
100
AcDbVisualStyle
  2
GouraudWithEdges
 70
     3
 71
     2
 72
     2
 73
     1
 90
        2
 40
-0.6
 41
30.0
 62
     5
 63
     7
421
 16777215
 74
     1
 91
        4
 64
     7
 65
   257
 75
     1
175
     1
 42
1.0
 92
        0
 66
   257
 43
1.0
 76
     1
 77
     6
 78
     2
 67
     7
 79
     5
170
     0
171
     0
290
     0
174
     0
 93
       13
 44
0.0
173
     0
291
     1
 45
0.0
  0
VISUALSTYLE
  5
38
102
{ACAD_REACTORS
330
2A
102
}
330
2A
100
AcDbVisualStyle
  2
Linepattern
 70
    14
 71
     2
 72
     2
 73
     0
 90
        0
 40
-0.6
 41
-30.0
 62
     5
 63
     7
421
 16777215
 74
     1
 91
        4
 64
     7
 65
   257
 75
     7
175
     7
 42
1.0
 92
        8
 66
     7
 43
1.0
 76
     1
 77
     6
 78
     2
 67
     7
 79
     5
170
     0
171
     0
290
     0
174
     0
 93
        1
 44
0.0
173
     0
291
     1
 45
0.0
  0
VISUALSTYLE
  5
33
102
{ACAD_REACTORS
330
2A
102
}
330
2A
100
AcDbVisualStyle
  2
Realistic
 70
     8
 71
     2
 72
     2
 73
     0
 90
        0
 40
-0.6
 41
-30.0
 62
     5
 63
     7
421
 16777215
 74
     1
 91
        0
 64
     7
 65
   257
 75
     1
175
     1
 42
1.0
 92
        8
 66
     8
424
  7895160
 43
1.0
 76
     1
 77
     6
 78
     2
 67
     7
 79
     5
170
     0
171
     0
290
     0
174
     0
 93
       13
 44
0.0
173
     0
291
     0
 45
0.0
  0
VISUALSTYLE
  5
37
102
{ACAD_REACTORS
330
2A
102
}
330
2A
100
AcDbVisualStyle
  2
Thicken
 70
    13
 71
     2
 72
     2
 73
     0
 90
        0
 40
-0.6
 41
-30.0
 62
     5
 63
     7
421
 16777215
 74
     1
 91
        4
 64
     7
 65
   257
 75
     1
175
     1
 42
1.0
 92
       12
 66
     7
 43
1.0
 76
     1
 77
     6
 78
     2
 67
     7
 79
     5
170
     0
171
     0
290
     0
174
     0
 93
        1
 44
0.0
173
     0
291
     1
 45
0.0
  0
ENDSEC
  0
EOF
