  0
SECTION
  2
HEADER
  9
$ACADVER
  1
AC1021
  9
$ACADMAINTVER
 70
    25
  9
$DWGCODEPAGE
  3
ANSI_932
  9
$INSBASE
 10
0.0
 20
0.0
 30
0.0
  9
$EXTMIN
 10
-1188.0
 20
-840.0
 30
0.0
  9
$EXTMAX
 10
1188.0
 20
840.0
 30
0.0
  9
$LIMMIN
 10
-1188.0
 20
-840.0
  9
$LIMMAX
 10
1188.0
 20
840.0
  9
$ORTHOMODE
 70
     0
  9
$REGENMODE
 70
     1
  9
$FILLMODE
 70
     1
  9
$QTEXTMODE
 70
     0
  9
$MIRRTEXT
 70
     1
  9
$LTSCALE
 40
4.0
  9
$ATTMODE
 70
     1
  9
$TEXTSIZE
 40
2.5
  9
$TRACEWID
 40
1.0
  9
$TEXTSTYLE
  7
Standard
  9
$CLAYER
  8
0
  9
$CELTYPE
  6
ByLayer
  9
$CECOLOR
 62
   256
  9
$CELTSCALE
 40
1.0
  9
$DISPSILH
 70
     0
  9
$DIMSCALE
 40
1.0
  9
$DIMASZ
 40
2.5
  9
$DIMEXO
 40
0.625
  9
$DIMDLI
 40
3.75
  9
$DIMRND
 40
0.0
  9
$DIMDLE
 40
0.0
  9
$DIMEXE
 40
1.25
  9
$DIMTP
 40
0.0
  9
$DIMTM
 40
0.0
  9
$DIMTXT
 40
2.5
  9
$DIMCEN
 40
2.5
  9
$DIMTSZ
 40
0.0
  9
$DIMTOL
 70
     0
  9
$DIMLIM
 70
     0
  9
$DIMTIH
 70
     0
  9
$DIMTOH
 70
     0
  9
$DIMSE1
 70
     0
  9
$DIMSE2
 70
     0
  9
$DIMTAD
 70
     1
  9
$DIMZIN
 70
     8
  9
$DIMBLK
  1

  9
$DIMASO
 70
     1
  9
$DIMSHO
 70
     1
  9
$DIMPOST
  1

  9
$DIMAPOST
  1

  9
$DIMALT
 70
     0
  9
$DIMALTD
 70
     3
  9
$DIMALTF
 40
0.03937007874016
  9
$DIMLFAC
 40
1.0
  9
$DIMTOFL
 70
     1
  9
$DIMTVP
 40
0.0
  9
$DIMTIX
 70
     0
  9
$DIMSOXD
 70
     0
  9
$DIMSAH
 70
     0
  9
$DIMBLK1
  1

  9
$DIMBLK2
  1

  9
$DIMSTYLE
  2
ISO-25
  9
$DIMCLRD
 70
     0
  9
$DIMCLRE
 70
     0
  9
$DIMCLRT
 70
     0
  9
$DIMTFAC
 40
1.0
  9
$DIMGAP
 40
0.625
  9
$DIMJUST
 70
     0
  9
$DIMSD1
 70
     0
  9
$DIMSD2
 70
     0
  9
$DIMTOLJ
 70
     0
  9
$DIMTZIN
 70
     8
  9
$DIMALTZ
 70
     0
  9
$DIMALTTZ
 70
     0
  9
$DIMUPT
 70
     0
  9
$DIMDEC
 70
     2
  9
$DIMTDEC
 70
     2
  9
$DIMALTU
 70
     2
  9
$DIMALTTD
 70
     3
  9
$DIMTXSTY
  7
Standard
  9
$DIMAUNIT
 70
     0
  9
$DIMADEC
 70
     0
  9
$DIMALTRND
 40
0.0
  9
$DIMAZIN
 70
     0
  9
$DIMDSEP
 70
    44
  9
$DIMATFIT
 70
     3
  9
$DIMFRAC
 70
     0
  9
$DIMLDRBLK
  1

  9
$DIMLUNIT
 70
     2
  9
$DIMLWD
 70
    -2
  9
$DIMLWE
 70
    -2
  9
$DIMTMOVE
 70
     0
  9
$DIMFXL
 40
1.0
  9
$DIMFXLON
 70
     0
  9
$DIMJOGANG
 40
0.7853981633974483
  9
$DIMTFILL
 70
     0
  9
$DIMTFILLCLR
 70
     0
  9
$DIMARCSYM
 70
     0
  9
$DIMLTYPE
  6

  9
$DIMLTEX1
  6

  9
$DIMLTEX2
  6

  9
$LUNITS
 70
     2
  9
$LUPREC
 70
     4
  9
$SKETCHINC
 40
1.0
  9
$FILLETRAD
 40
10.0
  9
$AUNITS
 70
     0
  9
$AUPREC
 70
     0
  9
$MENU
  1
.
  9
$ELEVATION
 40
0.0
  9
$PELEVATION
 40
0.0
  9
$THICKNESS
 40
0.0
  9
$LIMCHECK
 70
     0
  9
$CHAMFERA
 40
10.0
  9
$CHAMFERB
 40
10.0
  9
$CHAMFERC
 40
20.0
  9
$CHAMFERD
 40
0.0
  9
$SKPOLY
 70
     0
  9
$TDCREATE
 40
2457732.403413785
  9
$TDUCREATE
 40
2457732.028413785
  9
$TDUPDATE
 40
2457732.403413796
  9
$TDUUPDATE
 40
2457732.028413796
  9
$TDINDWG
 40
0.0000000116
  9
$TDUSRTIMER
 40
0.0000000116
  9
$USRTIMER
 70
     1
  9
$ANGBASE
 50
0.0
  9
$ANGDIR
 70
     0
  9
$PDMODE
 70
     0
  9
$PDSIZE
 40
0.0
  9
$PLINEWID
 40
0.0
  9
$SPLFRAME
 70
     0
  9
$SPLINETYPE
 70
     6
  9
$SPLINESEGS
 70
     8
  9
$HANDSEED
  5
1FF
  9
$SURFTAB1
 70
     6
  9
$SURFTAB2
 70
     6
  9
$SURFTYPE
 70
     6
  9
$SURFU
 70
     6
  9
$SURFV
 70
     6
  9
$UCSBASE
  2

  9
$UCSNAME
  2

  9
$UCSORG
 10
0.0
 20
0.0
 30
0.0
  9
$UCSXDIR
 10
1.0
 20
0.0
 30
0.0
  9
$UCSYDIR
 10
0.0
 20
1.0
 30
0.0
  9
$UCSORTHOREF
  2

  9
$UCSORTHOVIEW
 70
     0
  9
$UCSORGTOP
 10
0.0
 20
0.0
 30
0.0
  9
$UCSORGBOTTOM
 10
0.0
 20
0.0
 30
0.0
  9
$UCSORGLEFT
 10
0.0
 20
0.0
 30
0.0
  9
$UCSORGRIGHT
 10
0.0
 20
0.0
 30
0.0
  9
$UCSORGFRONT
 10
0.0
 20
0.0
 30
0.0
  9
$UCSORGBACK
 10
0.0
 20
0.0
 30
0.0
  9
$PUCSBASE
  2

  9
$PUCSNAME
  2

  9
$PUCSORG
 10
0.0
 20
0.0
 30
0.0
  9
$PUCSXDIR
 10
1.0
 20
0.0
 30
0.0
  9
$PUCSYDIR
 10
0.0
 20
1.0
 30
0.0
  9
$PUCSORTHOREF
  2

  9
$PUCSORTHOVIEW
 70
     0
  9
$PUCSORGTOP
 10
0.0
 20
0.0
 30
0.0
  9
$PUCSORGBOTTOM
 10
0.0
 20
0.0
 30
0.0
  9
$PUCSORGLEFT
 10
0.0
 20
0.0
 30
0.0
  9
$PUCSORGRIGHT
 10
0.0
 20
0.0
 30
0.0
  9
$PUCSORGFRONT
 10
0.0
 20
0.0
 30
0.0
  9
$PUCSORGBACK
 10
0.0
 20
0.0
 30
0.0
  9
$USERI1
 70
     0
  9
$USERI2
 70
     0
  9
$USERI3
 70
     0
  9
$USERI4
 70
     0
  9
$USERI5
 70
     0
  9
$USERR1
 40
0.0
  9
$USERR2
 40
0.0
  9
$USERR3
 40
0.0
  9
$USERR4
 40
0.0
  9
$USERR5
 40
0.0
  9
$WORLDVIEW
 70
     1
  9
$SHADEDGE
 70
     3
  9
$SHADEDIF
 70
    70
  9
$TILEMODE
 70
     1
  9
$MAXACTVP
 70
    64
  9
$PINSBASE
 10
0.0
 20
0.0
 30
0.0
  9
$PLIMCHECK
 70
     0
  9
$PEXTMIN
 10
1.000000000000000E+20
 20
1.000000000000000E+20
 30
1.000000000000000E+20
  9
$PEXTMAX
 10
-1.000000000000000E+20
 20
-1.000000000000000E+20
 30
-1.000000000000000E+20
  9
$PLIMMIN
 10
0.0
 20
0.0
  9
$PLIMMAX
 10
420.0
 20
297.0
  9
$UNITMODE
 70
     0
  9
$VISRETAIN
 70
     1
  9
$PLINEGEN
 70
     0
  9
$PSLTSCALE
 70
     1
  9
$TREEDEPTH
 70
  3020
  9
$CMLSTYLE
  2
Standard
  9
$CMLJUST
 70
     0
  9
$CMLSCALE
 40
20.0
  9
$PROXYGRAPHICS
 70
     1
  9
$MEASUREMENT
 70
     1
  9
$CELWEIGHT
370
    -1
  9
$ENDCAPS
280
     0
  9
$JOINSTYLE
280
     0
  9
$LWDISPLAY
290
     0
  9
$INSUNITS
 70
     4
  9
$HYPERLINKBASE
  1

  9
$STYLESHEET
  1

  9
$XEDIT
290
     1
  9
$CEPSNTYPE
380
     0
  9
$PSTYLEMODE
290
     1
  9
$FINGERPRINTGUID
  2
{918FEB35-D49C-4794-A568-5AAD1B6E0722}
  9
$VERSIONGUID
  2
{FAEB1C32-E019-11D5-929B-00C0DF256EC4}
  9
$EXTNAMES
290
     1
  9
$PSVPSCALE
 40
0.0
  9
$OLESTARTUP
290
     0
  9
$SORTENTS
280
   127
  9
$INDEXCTL
280
     0
  9
$HIDETEXT
280
     1
  9
$XCLIPFRAME
290
     0
  9
$HALOGAP
280
     0
  9
$OBSCOLOR
 70
   257
  9
$OBSLTYPE
280
     0
  9
$INTERSECTIONDISPLAY
280
     0
  9
$INTERSECTIONCOLOR
 70
   257
  9
$DIMASSOC
280
     2
  9
$PROJECTNAME
  1

  9
$CAMERADISPLAY
290
     0
  9
$LENSLENGTH
 40
50.0
  9
$CAMERAHEIGHT
 40
0.0
  9
$STEPSPERSEC
 40
2.0
  9
$STEPSIZE
 40
6.0
  9
$3DDWFPREC
 40
2.0
  9
$PSOLWIDTH
 40
5.0
  9
$PSOLHEIGHT
 40
80.0
  9
$LOFTANG1
 40
1.570796326794897
  9
$LOFTANG2
 40
1.570796326794897
  9
$LOFTMAG1
 40
0.0
  9
$LOFTMAG2
 40
0.0
  9
$LOFTPARAM
 70
     7
  9
$LOFTNORMALS
280
     1
  9
$LATITUDE
 40
37.795
  9
$LONGITUDE
 40
-122.394
  9
$NORTHDIRECTION
 40
0.0
  9
$TIMEZONE
 70
 -8000
  9
$LIGHTGLYPHDISPLAY
280
     1
  9
$TILEMODELIGHTSYNCH
280
     1
  9
$SOLIDHIST
280
     1
  9
$SHOWHIST
280
     1
  9
$DWFFRAME
280
     2
  9
$DGNFRAME
280
     2
  9
$REALWORLDSCALE
290
     1
  9
$INTERFERECOLOR
 62
   256
  9
$CSHADOW
280
     0
  9
$SHADOWPLANELOCATION
 40
0.0
  0
ENDSEC
  0
SECTION
  2
CLASSES
  0
CLASS
  1
ACDBDICTIONARYWDFLT
  2
AcDbDictionaryWithDefault
  3
ObjectDBX Classes
 90
        0
 91
        4
280
     0
281
     0
  0
CLASS
  1
VISUALSTYLE
  2
AcDbVisualStyle
  3
ObjectDBX Classes
 90
     4095
 91
        4
280
     0
281
     0
  0
ENDSEC
  0
SECTION
  2
TABLES
  0
TABLE
  2
VPORT
  5
8
330
0
100
AcDbSymbolTable
 70
     1
  0
VPORT
  5
29
330
8
100
AcDbSymbolTableRecord
100
AcDbViewportTableRecord
  2
*Active
 70
     0
 10
0.0
 20
0.0
 11
1.0
 21
1.0
 12
0.0
 22
0.0
 13
0.0
 23
0.0
 14
10.0
 24
10.0
 15
10.0
 25
10.0
 16
0.0
 26
0.0
 36
1.0
 17
0.0
 27
0.0
 37
0.0
 40
1848.0
 41
1.414285714285714
 42
50.0
 43
0.0
 44
0.0
 50
0.0
 51
0.0
 71
     0
 72
 10000
 73
     1
 74
     3
 75
     0
 76
     0
 77
     0
 78
     0
281
     0
 65
     1
110
0.0
120
0.0
130
0.0
111
1.0
121
0.0
131
0.0
112
0.0
122
1.0
132
0.0
 79
     0
146
0.0
 60
     3
 61
     5
292
     1
282
     1
141
0.0
142
0.0
 63
   256
  0
ENDTAB
  0
TABLE
  2
LTYPE
  5
5
330
0
100
AcDbSymbolTable
 70
     5
  0
LTYPE
  5
14
330
5
100
AcDbSymbolTableRecord
100
AcDbLinetypeTableRecord
  2
ByBlock
 70
     0
  3

 72
    65
 73
     0
 40
0.0
  0
LTYPE
  5
15
330
5
100
AcDbSymbolTableRecord
100
AcDbLinetypeTableRecord
  2
ByLayer
 70
     0
  3

 72
    65
 73
     0
 40
0.0
  0
LTYPE
  5
16
330
5
100
AcDbSymbolTableRecord
100
AcDbLinetypeTableRecord
  2
Continuous
 70
     0
  3
Solid line
 72
    65
 73
     0
 40
0.0
  0
LTYPE
  5
3C
330
5
100
AcDbSymbolTableRecord
100
AcDbLinetypeTableRecord
  2
JWW_CENTER2
 70
     0
  3
-------------  --  -------------
 72
    65
 73
     4
 40
13.54666666666667
 49
11.00666666666667
 74
     0
 49
-0.8466666666666667
 74
     0
 49
0.8466666666666667
 74
     0
 49
-0.8466666666666667
 74
     0
  0
LTYPE
  5
3D
330
5
100
AcDbSymbolTableRecord
100
AcDbLinetypeTableRecord
  2
JWW_DASHED3
 70
     0
  3
---  ------  ------  ------  ---
 72
    65
 73
     2
 40
3.386666666666667
 49
2.54
 74
     0
 49
-0.8466666666666667
 74
     0
  0
LTYPE
  5
3E
330
5
100
AcDbSymbolTableRecord
100
AcDbLinetypeTableRecord
  2
JWW_CENTER1
 70
     0
  3
-----  --  ----------  --  -----
 72
    65
 73
     4
 40
6.773333333333333
 49
4.233333333333333
 74
     0
 49
-0.8466666666666667
 74
     0
 49
0.8466666666666667
 74
     0
 49
-0.8466666666666667
 74
     0
  0
LTYPE
  5
3F
330
5
100
AcDbSymbolTableRecord
100
AcDbLinetypeTableRecord
  2
JWW_DASHED1
 70
     0
  3
-  --  --  --  --  --  --  --  -
 72
    65
 73
     2
 40
1.693333333333333
 49
0.8466666666666667
 74
     0
 49
-0.8466666666666667
 74
     0
  0
ENDTAB
  0
TABLE
  2
LAYER
  5
2
330
0
100
AcDbSymbolTable
 70
    10
  0
LAYER
  5
10
330
2
100
AcDbSymbolTableRecord
100
AcDbLayerTableRecord
  2
0
 70
     0
 62
     7
  6
Continuous
370
    -3
390
F
347
0
  0
LAYER
  5
40
330
2
100
AcDbSymbolTableRecord
100
AcDbLayerTableRecord
  2
F-Fﾚｲﾔ
 70
     0
 62
     7
  6
Continuous
370
    -3
390
F
347
0
  0
LAYER
  5
41
330
2
100
AcDbSymbolTableRecord
100
AcDbLayerTableRecord
  2
F-5ﾚｲﾔ
 70
     0
 62
     7
  6
Continuous
370
    -3
390
F
347
0
  0
LAYER
  5
42
330
2
100
AcDbSymbolTableRecord
100
AcDbLayerTableRecord
  2
建具
 70
     0
 62
     7
  6
Continuous
370
    -3
390
F
347
0
  0
LAYER
  5
43
330
2
100
AcDbSymbolTableRecord
100
AcDbLayerTableRecord
  2
躯体
 70
     0
 62
     7
  6
Continuous
370
    -3
390
F
347
0
  0
LAYER
  5
44
330
2
100
AcDbSymbolTableRecord
100
AcDbLayerTableRecord
  2
仕上
 70
     0
 62
     7
  6
Continuous
370
    -3
390
F
347
0
  0
LAYER
  5
45
330
2
100
AcDbSymbolTableRecord
100
AcDbLayerTableRecord
  2
通り芯
 70
     0
 62
     7
  6
Continuous
370
    -3
390
F
347
0
  0
LAYER
  5
46
330
2
100
AcDbSymbolTableRecord
100
AcDbLayerTableRecord
  2
その他
 70
     0
 62
     7
  6
Continuous
370
    -3
390
F
347
0
  0
LAYER
  5
47
330
2
100
AcDbSymbolTableRecord
100
AcDbLayerTableRecord
  2
寸法
 70
     0
 62
     7
  6
Continuous
370
    -3
390
F
347
0
  0
LAYER
  5
48
330
2
100
AcDbSymbolTableRecord
100
AcDbLayerTableRecord
  2
F-4ﾚｲﾔ
 70
     0
 62
     7
  6
Continuous
370
    -3
390
F
347
0
  0
ENDTAB
  0
TABLE
  2
STYLE
  5
3
330
0
100
AcDbSymbolTable
 70
     2
  0
STYLE
  5
11
330
3
100
AcDbSymbolTableRecord
100
AcDbTextStyleTableRecord
  2
Standard
 70
     0
 40
0.0
 41
1.0
 50
0.0
 71
     0
 42
2.5
  3
txt
  4

1001
ACAD
1000

1071
        0
  0
STYLE
  5
3B
330
3
100
AcDbSymbolTableRecord
100
AcDbTextStyleTableRecord
  2
ＭＳ ゴシック
 70
     0
 40
1.0
 41
1.0
 50
0.0
 71
     0
 42
10.0
  3

  4

1001
ACAD
1000
MS Gothic
1071
    32817
  0
ENDTAB
  0
TABLE
  2
VIEW
  5
6
330
0
100
AcDbSymbolTable
 70
     0
  0
ENDTAB
  0
TABLE
  2
UCS
  5
7
330
0
100
AcDbSymbolTable
 70
     0
  0
ENDTAB
  0
TABLE
  2
APPID
  5
9
330
0
100
AcDbSymbolTable
 70
     1
  0
APPID
  5
12
330
9
100
AcDbSymbolTableRecord
100
AcDbRegAppTableRecord
  2
ACAD
 70
     0
  0
ENDTAB
  0
TABLE
  2
DIMSTYLE
  5
A
330
0
100
AcDbSymbolTable
 70
     1
100
AcDbDimStyleTable
  0
DIMSTYLE
105
27
330
A
100
AcDbSymbolTableRecord
100
AcDbDimStyleTableRecord
  2
ISO-25
 70
     0
 41
2.5
 42
0.625
 43
3.75
 44
1.25
 73
     0
 74
     0
 77
     1
 78
     8
140
2.5
141
2.5
143
0.03937007874016
147
0.625
171
     3
172
     1
271
     2
272
     2
274
     3
278
    44
283
     0
284
     8
340
11
  0
ENDTAB
  0
TABLE
  2
BLOCK_RECORD
  5
1
330
0
100
AcDbSymbolTable
 70
     1
  0
BLOCK_RECORD
  5
1F
330
1
100
AcDbSymbolTableRecord
100
AcDbBlockTableRecord
  2
*Model_Space
340
22
 70
     0
280
     1
281
     0
  0
BLOCK_RECORD
  5
1B
330
1
100
AcDbSymbolTableRecord
100
AcDbBlockTableRecord
  2
*Paper_Space
340
1E
 70
     0
280
     1
281
     0
  0
BLOCK_RECORD
  5
23
330
1
100
AcDbSymbolTableRecord
100
AcDbBlockTableRecord
  2
*Paper_Space0
340
26
 70
     0
280
     1
281
     0
  0
ENDTAB
  0
ENDSEC
  0
SECTION
  2
BLOCKS
  0
BLOCK
  5
20
330
1F
100
AcDbEntity
  8
0
100
AcDbBlockBegin
  2
*Model_Space
 70
     0
 10
0.0
 20
0.0
 30
0.0
  3
*Model_Space
  1

  0
ENDBLK
  5
21
330
1F
100
AcDbEntity
  8
0
100
AcDbBlockEnd
  0
BLOCK
  5
1C
330
1B
100
AcDbEntity
 67
     1
  8
0
100
AcDbBlockBegin
  2
*Paper_Space
 70
     0
 10
0.0
 20
0.0
 30
0.0
  3
*Paper_Space
  1

  0
ENDBLK
  5
1D
330
1B
100
AcDbEntity
 67
     1
  8
0
100
AcDbBlockEnd
  0
BLOCK
  5
24
330
23
100
AcDbEntity
  8
0
100
AcDbBlockBegin
  2
*Paper_Space0
 70
     0
 10
0.0
 20
0.0
 30
0.0
  3
*Paper_Space0
  1

  0
ENDBLK
  5
25
330
23
100
AcDbEntity
  8
0
100
AcDbBlockEnd
  0
ENDSEC
  0
SECTION
  2
ENTITIES
  0
LINE
  5
49
330
1F
100
AcDbEntity
  8
F-Fﾚｲﾔ
  6
Continuous
 62
     7
370
     9
100
AcDbLine
 10
1101.311317057862
 20
774.3359939864725
 30
0.0
 11
1101.311317057862
 21
418.3359939864727
 31
0.0
  0
LINE
  5
4A
330
1F
100
AcDbEntity
  8
F-Fﾚｲﾔ
  6
Continuous
 62
     7
370
     9
100
AcDbLine
 10
532.6246401758603
 20
418.3359939864727
 30
0.0
 11
1101.311317057862
 21
418.3359939864727
 31
0.0
  0
LINE
  5
4B
330
1F
100
AcDbEntity
  8
F-Fﾚｲﾔ
  6
Continuous
 62
     7
370
     9
100
AcDbLine
 10
532.6246401758603
 20
774.3359939864725
 30
0.0
 11
532.6246401758603
 21
418.3359939864727
 31
0.0
  0
LINE
  5
4C
330
1F
100
AcDbEntity
  8
F-Fﾚｲﾔ
  6
Continuous
 62
     7
370
     9
100
AcDbLine
 10
532.6246401758603
 20
774.3359939864725
 30
0.0
 11
1101.311317057862
 21
774.3359939864725
 31
0.0
  0
LINE
  5
4D
330
1F
100
AcDbEntity
  8
F-Fﾚｲﾔ
  6
Continuous
 62
     7
370
     9
100
AcDbLine
 10
532.6246401758603
 20
742.3359939864725
 30
0.0
 11
1101.311317057862
 21
742.3359939864725
 31
0.0
  0
TEXT
  5
4E
330
1F
100
AcDbEntity
  8
F-Fﾚｲﾔ
  6
Continuous
 62
     2
370
     9
100
AcDbText
 10
543.2715302343217
 20
752.5919939864725
 30
0.0
 40
12.192
  1
名称
 41
1.0625
  7
ＭＳ ゴシック
100
AcDbText
  0
LINE
  5
4F
330
1F
100
AcDbEntity
  8
F-Fﾚｲﾔ
  6
Continuous
 62
     7
370
     9
100
AcDbLine
 10
532.6246401758603
 20
738.3359939864725
 30
0.0
 11
1101.311317057862
 21
738.3359939864725
 31
0.0
  0
LINE
  5
50
330
1F
100
AcDbEntity
  8
F-Fﾚｲﾔ
  6
Continuous
 62
     7
370
     9
100
AcDbLine
 10
532.6246401758603
 20
706.3359939864725
 30
0.0
 11
1101.311317057862
 21
706.3359939864725
 31
0.0
  0
LINE
  5
51
330
1F
100
AcDbEntity
  8
F-Fﾚｲﾔ
  6
Continuous
 62
     7
370
     9
100
AcDbLine
 10
532.6246401758603
 20
546.3359939864725
 30
0.0
 11
1101.311317057862
 21
546.3359939864725
 31
0.0
  0
LINE
  5
52
330
1F
100
AcDbEntity
  8
F-Fﾚｲﾔ
  6
Continuous
 62
     7
370
     9
100
AcDbLine
 10
532.6246401758603
 20
482.3359939864727
 30
0.0
 11
1101.311317057862
 21
482.3359939864727
 31
0.0
  0
TEXT
  5
53
330
1F
100
AcDbEntity
  8
F-Fﾚｲﾔ
  6
Continuous
 62
     2
370
     9
100
AcDbText
 10
543.2715302343217
 20
716.5919939864725
 30
0.0
 40
12.192
  1
適用桝
 41
1.083333333333333
  7
ＭＳ ゴシック
100
AcDbText
  0
TEXT
  5
54
330
1F
100
AcDbEntity
  8
F-Fﾚｲﾔ
  6
Continuous
 62
     2
370
     9
100
AcDbText
 10
543.2715302343217
 20
684.5919939864725
 30
0.0
 40
12.192
  1
蓋
  7
ＭＳ ゴシック
100
AcDbText
  0
TEXT
  5
55
330
1F
100
AcDbEntity
  8
F-Fﾚｲﾔ
  6
Continuous
 62
     2
370
     9
100
AcDbText
 10
543.2715302343217
 20
524.5919939864725
 30
0.0
 40
12.192
  1
受枠
 41
1.0625
  7
ＭＳ ゴシック
100
AcDbText
  0
TEXT
  5
56
330
1F
100
AcDbEntity
  8
F-Fﾚｲﾔ
  6
Continuous
 62
     2
370
     9
100
AcDbText
 10
543.2715302343217
 20
460.5919939864726
 30
0.0
 40
12.192
  1
品番
 41
1.0625
  7
ＭＳ ゴシック
100
AcDbText
  0
LINE
  5
57
330
1F
100
AcDbEntity
  8
F-Fﾚｲﾔ
  6
Continuous
 62
     7
370
     9
100
AcDbLine
 10
684.8200919050869
 20
774.3359939864725
 30
0.0
 11
684.8200919050869
 21
418.3359939864727
 31
0.0
  0
TEXT
  5
58
330
1F
100
AcDbEntity
  8
F-5ﾚｲﾔ
  6
Continuous
 62
     2
370
     9
100
AcDbText
 10
701.3540526626966
 20
716.5919939864725
 30
0.0
 40
12.192
  1
桝内径　300mm
 41
1.115384615384615
  7
ＭＳ ゴシック
100
AcDbText
  0
TEXT
  5
59
330
1F
100
AcDbEntity
  8
F-5ﾚｲﾔ
  6
Continuous
 62
     2
370
     9
100
AcDbText
 10
701.3540526626966
 20
684.5919939864725
 30
0.0
 40
12.192
  1
スチール製 溶融亜鉛めっき
 41
1.115
  7
ＭＳ ゴシック
100
AcDbText
  0
TEXT
  5
5A
330
1F
100
AcDbEntity
  8
F-5ﾚｲﾔ
  6
Continuous
 62
     2
370
     9
100
AcDbText
 10
701.3540526626966
 20
652.5919939864725
 30
0.0
 40
12.192
  1
充填深さ 28mm
 41
1.115384615384615
  7
ＭＳ ゴシック
100
AcDbText
  0
TEXT
  5
5B
330
1F
100
AcDbEntity
  8
F-5ﾚｲﾔ
  6
Continuous
 62
     2
370
     9
100
AcDbText
 10
701.3540526626966
 20
620.5919939864725
 30
0.0
 40
12.192
  1
目地すきま 6mm
 41
1.116071428571429
  7
ＭＳ ゴシック
100
AcDbText
  0
TEXT
  5
5C
330
1F
100
AcDbEntity
  8
F-Fﾚｲﾔ
  6
Continuous
 62
     2
370
     9
100
AcDbText
 10
701.3540526626966
 20
460.5919939864726
 30
0.0
 40
12.192
  1
カネソウ　カラー舗装用みぞ蓋
 41
1.116071428571429
  7
ＭＳ ゴシック
100
AcDbText
  0
LINE
  5
5D
330
1F
100
AcDbEntity
  8
F-Fﾚｲﾔ
  6
Continuous
 62
     7
370
     9
100
AcDbLine
 10
684.8200919050869
 20
674.3359939864725
 30
0.0
 11
1101.311317057862
 21
674.3359939864725
 31
0.0
  0
LINE
  5
5E
330
1F
100
AcDbEntity
  8
F-Fﾚｲﾔ
  6
Continuous
 62
     7
370
     9
100
AcDbLine
 10
684.8200919050869
 20
642.3359939864725
 30
0.0
 11
1101.311317057862
 21
642.3359939864725
 31
0.0
  0
LINE
  5
5F
330
1F
100
AcDbEntity
  8
F-Fﾚｲﾔ
  6
Continuous
 62
     7
370
     9
100
AcDbLine
 10
684.8200919050869
 20
610.3359939864725
 30
0.0
 11
1101.311317057862
 21
610.3359939864725
 31
0.0
  0
LINE
  5
60
330
1F
100
AcDbEntity
  8
F-Fﾚｲﾔ
  6
Continuous
 62
     7
370
     9
100
AcDbLine
 10
684.8200919050869
 20
578.3359939864725
 30
0.0
 11
1101.311317057862
 21
578.3359939864725
 31
0.0
  0
LINE
  5
61
330
1F
100
AcDbEntity
  8
F-Fﾚｲﾔ
  6
Continuous
 62
     7
370
     9
100
AcDbLine
 10
684.8200919050869
 20
514.3359939864725
 30
0.0
 11
1101.311317057862
 21
514.3359939864725
 31
0.0
  0
TEXT
  5
62
330
1F
100
AcDbEntity
  8
F-Fﾚｲﾔ
  6
Continuous
 62
     2
370
     9
100
AcDbText
 10
543.2715302343208
 20
344.2717124219273
 30
0.0
 40
12.192
  1
強度性能
 41
1.09375
  7
ＭＳ ゴシック
100
AcDbText
  0
TEXT
  5
63
330
1F
100
AcDbEntity
  8
F-Fﾚｲﾔ
  6
Continuous
 62
     2
370
     9
100
AcDbText
 10
543.2715302343208
 20
308.2716909642552
 30
0.0
 40
12.192
  1
強度
 41
1.0625
  7
ＭＳ ゴシック
100
AcDbText
  0
TEXT
  5
64
330
1F
100
AcDbEntity
  8
F-Fﾚｲﾔ
  6
Continuous
 62
     2
370
     9
100
AcDbText
 10
543.2715302343208
 20
244.2716909642551
 30
0.0
 40
12.192
  1
主な使用場所
 41
1.104166666666667
  7
ＭＳ ゴシック
100
AcDbText
  0
LINE
  5
65
330
1F
100
AcDbEntity
  8
F-Fﾚｲﾔ
  6
Continuous
 62
     7
370
     9
100
AcDbLine
 10
532.6246401758603
 20
366.0156909642552
 30
0.0
 11
1101.311317057862
 21
366.0156909642552
 31
0.0
  0
LINE
  5
66
330
1F
100
AcDbEntity
  8
F-Fﾚｲﾔ
  6
Continuous
 62
     7
370
     9
100
AcDbLine
 10
532.6246401758603
 20
334.0156909642552
 30
0.0
 11
1101.311317057862
 21
334.0156909642552
 31
0.0
  0
LINE
  5
67
330
1F
100
AcDbEntity
  8
F-Fﾚｲﾔ
  6
Continuous
 62
     7
370
     9
100
AcDbLine
 10
532.6246401758603
 20
330.0156909642552
 30
0.0
 11
1101.311317057862
 21
330.0156909642552
 31
0.0
  0
LINE
  5
68
330
1F
100
AcDbEntity
  8
F-Fﾚｲﾔ
  6
Continuous
 62
     7
370
     9
100
AcDbLine
 10
532.6246401758603
 20
266.0156909642551
 30
0.0
 11
1101.311317057862
 21
266.0156909642551
 31
0.0
  0
TEXT
  5
69
330
1F
100
AcDbEntity
  8
F-5ﾚｲﾔ
  6
Continuous
 62
     2
370
     9
100
AcDbText
 10
701.3540526626966
 20
752.5919939864725
 30
0.0
 40
12.192
  1
化粧用スリットみぞ蓋　タイル用　集水桝用
 41
1.11875
  7
ＭＳ ゴシック
100
AcDbText
  0
TEXT
  5
6A
330
1F
100
AcDbEntity
  8
F-Fﾚｲﾔ
  6
Continuous
 62
     2
370
     9
100
AcDbText
 10
701.3540526626966
 20
492.5919939864726
 30
0.0
 40
12.192
  1
寸法 幅420×長さ420×高さ85.2
 41
1.120689655172414
  7
ＭＳ ゴシック
100
AcDbText
  0
TEXT
  5
6B
330
1F
100
AcDbEntity
  8
F-Fﾚｲﾔ
  6
Continuous
 62
     2
370
     9
100
AcDbText
 10
701.3540526626966
 20
244.2716909642551
 30
0.0
 40
12.192
  1
建物内、建物敷地内、公園敷地内、
 41
1.1171875
  7
ＭＳ ゴシック
100
AcDbText
  0
LINE
  5
6C
330
1F
100
AcDbEntity
  8
F-Fﾚｲﾔ
  6
Continuous
 62
     7
370
     9
100
AcDbLine
 10
532.6246401758603
 20
170.0156909642551
 30
0.0
 11
1101.311317057862
 21
170.0156909642551
 31
0.0
  0
LINE
  5
6D
330
1F
100
AcDbEntity
  8
F-Fﾚｲﾔ
  6
Continuous
 62
     7
370
     9
100
AcDbLine
 10
532.6246401758603
 20
202.0156909642551
 30
0.0
 11
1101.311317057862
 21
202.0156909642551
 31
0.0
  0
TEXT
  5
6E
330
1F
100
AcDbEntity
  8
F-Fﾚｲﾔ
  6
Continuous
 62
     2
370
     9
100
AcDbText
 10
701.3540526626966
 20
212.2716909642551
 30
0.0
 40
12.192
  1
車道以外で車両の乗り入れる可能性のある場所
 41
1.119047619047619
  7
ＭＳ ゴシック
100
AcDbText
  0
LINE
  5
6F
330
1F
100
AcDbEntity
  8
F-Fﾚｲﾔ
  6
Continuous
 62
     7
370
     9
100
AcDbLine
 10
532.6246401758603
 20
138.0156909642551
 30
0.0
 11
1101.311317057862
 21
138.0156909642551
 31
0.0
  0
LINE
  5
70
330
1F
100
AcDbEntity
  8
F-Fﾚｲﾔ
  6
Continuous
 62
     7
370
     9
100
AcDbLine
 10
532.6246401758603
 20
74.0156909642551
 30
0.0
 11
1101.311317057862
 21
74.0156909642551
 31
0.0
  0
TEXT
  5
71
330
1F
100
AcDbEntity
  8
F-Fﾚｲﾔ
  6
Continuous
 62
     2
370
     9
100
AcDbText
 10
543.2715302343208
 20
148.2716909642551
 30
0.0
 40
12.192
  1
衝撃係数
 41
1.09375
  7
ＭＳ ゴシック
100
AcDbText
  0
TEXT
  5
72
330
1F
100
AcDbEntity
  8
F-Fﾚｲﾔ
  6
Continuous
 62
     2
370
     9
100
AcDbText
 10
543.2715302343208
 20
180.2716909642551
 30
0.0
 40
12.192
  1
車両進行方向
 41
1.104166666666667
  7
ＭＳ ゴシック
100
AcDbText
  0
TEXT
  5
73
330
1F
100
AcDbEntity
  8
F-Fﾚｲﾔ
  6
Continuous
 62
     2
370
     9
100
AcDbText
 10
543.2715302343208
 20
116.2716909642551
 30
0.0
 40
12.192
  1
衝撃を考慮した
 41
1.107142857142857
  7
ＭＳ ゴシック
100
AcDbText
  0
TEXT
  5
74
330
1F
100
AcDbEntity
  8
F-Fﾚｲﾔ
  6
Continuous
 62
     2
370
     9
100
AcDbText
 10
543.2715302343208
 20
84.2716909642551
 30
0.0
 40
12.192
  1
後輪1輪荷重
 41
1.102272727272727
  7
ＭＳ ゴシック
100
AcDbText
  0
LINE
  5
75
330
1F
100
AcDbEntity
  8
F-Fﾚｲﾔ
  6
Continuous
 62
     7
370
     9
100
AcDbLine
 10
532.6246401758603
 20
42.0156909642551
 30
0.0
 11
1101.311317057862
 21
42.0156909642551
 31
0.0
  0
TEXT
  5
76
330
1F
100
AcDbEntity
  8
F-Fﾚｲﾔ
  6
Continuous
 62
     2
370
     9
100
AcDbText
 10
543.2715302343208
 20
52.2716909642551
 30
0.0
 40
12.192
  1
後輪接地面積
 41
1.104166666666667
  7
ＭＳ ゴシック
100
AcDbText
  0
LINE
  5
77
330
1F
100
AcDbEntity
  8
F-Fﾚｲﾔ
  6
Continuous
 62
     7
370
     9
100
AcDbLine
 10
684.8200919050869
 20
334.0156909642552
 30
0.0
 11
684.8200919050869
 21
42.0156909642551
 31
0.0
  0
LINE
  5
78
330
1F
100
AcDbEntity
  8
F-Fﾚｲﾔ
  6
Continuous
 62
     7
370
     9
100
AcDbLine
 10
532.6246401758603
 20
366.0156909642552
 30
0.0
 11
532.6246401758603
 21
42.0156909642551
 31
0.0
  0
LINE
  5
79
330
1F
100
AcDbEntity
  8
F-Fﾚｲﾔ
  6
Continuous
 62
     7
370
     9
100
AcDbLine
 10
1101.311317057862
 20
366.0156909642552
 30
0.0
 11
1101.311317057862
 21
42.0156909642551
 31
0.0
  0
TEXT
  5
7A
330
1F
100
AcDbEntity
  8
F-Fﾚｲﾔ
  6
Continuous
 62
     2
370
     9
100
AcDbText
 10
701.3540526626966
 20
180.2716909642551
 30
0.0
 40
12.192
  1
横断方向、縦断方向
 41
1.111111111111111
  7
ＭＳ ゴシック
100
AcDbText
  0
TEXT
  5
7B
330
1F
100
AcDbEntity
  8
F-Fﾚｲﾔ
  6
Continuous
 62
     2
370
     9
100
AcDbText
 10
701.3540526626966
 20
148.2716909642551
 30
0.0
 40
12.192
  1
0.1
 41
1.083333333333333
  7
ＭＳ ゴシック
100
AcDbText
  0
TEXT
  5
7C
330
1F
100
AcDbEntity
  8
F-Fﾚｲﾔ
  6
Continuous
 62
     2
370
     9
100
AcDbText
 10
701.3540526626966
 20
588.5919939864725
 30
0.0
 40
12.192
  1
寸法 幅401×長さ401×高さ79.2
 41
1.120689655172414
  7
ＭＳ ゴシック
100
AcDbText
  0
TEXT
  5
7D
330
1F
100
AcDbEntity
  8
F-Fﾚｲﾔ
  6
Continuous
 62
     2
370
     9
100
AcDbText
 10
701.3540526626966
 20
556.5919939864725
 30
0.0
 40
12.192
  1
蓋質量　12.3kg
 41
1.116071428571429
  7
ＭＳ ゴシック
100
AcDbText
  0
TEXT
  5
7E
330
1F
100
AcDbEntity
  8
F-Fﾚｲﾔ
  6
Continuous
 62
     2
370
     9
100
AcDbText
 10
701.3540526626966
 20
308.2716909642552
 30
0.0
 40
12.192
  1
T-14：後輪1輪荷重54.9kN(5,600kgf)
 41
1.121212121212121
  7
ＭＳ ゴシック
100
AcDbText
  0
TEXT
  5
7F
330
1F
100
AcDbEntity
  8
F-Fﾚｲﾔ
  6
Continuous
 62
     2
370
     9
100
AcDbText
 10
701.3540526626966
 20
276.2716909642551
 30
0.0
 40
12.192
  1
  　　総重量14トンまでの車両が通行可能
 41
1.118421052631579
  7
ＭＳ ゴシック
100
AcDbText
  0
TEXT
  5
80
330
1F
100
AcDbEntity
  8
F-Fﾚｲﾔ
  6
Continuous
 62
     2
370
     9
100
AcDbText
 10
701.3540526626966
 20
100.2716909642551
 30
0.0
 40
12.192
  1
60.4kN
 41
1.104166666666667
  7
ＭＳ ゴシック
100
AcDbText
  0
TEXT
  5
81
330
1F
100
AcDbEntity
  8
F-Fﾚｲﾔ
  6
Continuous
 62
     2
370
     9
100
AcDbText
 10
701.3540526626966
 20
52.2716909642551
 30
0.0
 40
12.192
  1
200×500 mm
 41
1.113636363636364
  7
ＭＳ ゴシック
100
AcDbText
  0
LINE
  5
82
330
1F
100
AcDbEntity
  8
F-Fﾚｲﾔ
  6
Continuous
 62
     7
370
     9
100
AcDbLine
 10
532.6246401758603
 20
266.0156909642551
 30
0.0
 11
1101.311317057862
 21
266.0156909642551
 31
0.0
  0
TEXT
  5
83
330
1F
100
AcDbEntity
  8
F-Fﾚｲﾔ
  6
Continuous
 62
     2
370
     9
100
AcDbText
 10
701.3540526626966
 20
524.5919939864725
 30
0.0
 40
12.192
  1
スチール製 溶融亜鉛めっき
 41
1.115
  7
ＭＳ ゴシック
100
AcDbText
  0
TEXT
  5
84
330
1F
100
AcDbEntity
  8
F-Fﾚｲﾔ
  6
Continuous
 62
     2
370
     9
100
AcDbText
 10
701.3540526626966
 20
428.5919939864726
 30
0.0
 40
12.192
  1
集水桝用：HESW-14-300-Z
 41
1.119565217391304
  7
ＭＳ ゴシック
100
AcDbText
  0
LINE
  5
85
330
1F
100
AcDbEntity
  8
建具
  6
Continuous
 62
     4
370
     9
100
AcDbLine
 10
178.2588503243559
 20
41.72008789661854
 30
0.0
 11
103.0590179235955
 21
41.72008789661854
 31
0.0
  0
LINE
  5
86
330
1F
100
AcDbEntity
  8
建具
  6
Continuous
 62
     4
370
     9
100
AcDbLine
 10
182.2589624970755
 20
37.71997572389895
 30
0.0
 11
182.2589624970755
 21
-12.27999128412472
 31
0.0
  0
LINE
  5
87
330
1F
100
AcDbEntity
  8
建具
  6
Continuous
 62
     4
370
     9
100
AcDbLine
 10
182.2589624970755
 20
-12.27999128412472
 30
0.0
 11
188.2589822922614
 21
-12.27999128412472
 31
0.0
  0
LINE
  5
88
330
1F
100
AcDbEntity
  8
建具
  6
Continuous
 62
     4
370
     9
100
AcDbLine
 10
188.2589822922614
 20
-12.27999128412472
 30
0.0
 11
188.2589822922614
 21
37.71997572389895
 31
0.0
  0
LINE
  5
89
330
1F
100
AcDbEntity
  8
建具
  6
Continuous
 62
     4
370
     9
100
AcDbLine
 10
158.2588833163322
 20
47.72000871587531
 30
0.0
 11
158.2588833163322
 21
56.71988994476041
 31
0.0
  0
LINE
  5
8A
330
1F
100
AcDbEntity
  8
建具
  6
Continuous
 62
     4
370
     9
100
AcDbLine
 10
178.2588503243559
 20
47.72000871587531
 30
0.0
 11
103.0590179235955
 21
47.72000871587531
 31
0.0
  0
LINE
  5
8B
330
1F
100
AcDbEntity
  8
建具
  6
Continuous
 62
     4
370
     9
100
AcDbLine
 10
172.0744383733422
 20
56.71988994476041
 30
0.0
 11
158.2588833163322
 21
56.71988994476041
 31
0.0
  0
LINE
  5
8C
330
1F
100
AcDbEntity
  8
建具
  6
Continuous
 62
     4
370
     9
100
AcDbLine
 10
176.7327404742713
 20
48.33316459636521
 30
0.0
 11
234.9236584430213
 21
59.62661502921989
 31
0.0
  0
LINE
  5
8D
330
1F
100
AcDbEntity
  8
建具
  6
Continuous
 62
     4
370
     9
100
AcDbLine
 10
174.4037378877005
 20
57.02671532482802
 30
0.0
 11
232.5941609768051
 21
68.32006678175375
 31
0.0
  0
LINE
  5
8E
330
1F
100
AcDbEntity
  8
建具
  6
JWW_CENTER2
 62
     4
370
     9
100
AcDbLine
 10
172.0739434936972
 20
52.21994933031792
 30
0.0
 11
154.4541496275651
 21
52.21994933031792
 31
0.0
  0
LINE
  5
8F
330
1F
100
AcDbEntity
  8
建具
  6
JWW_CENTER2
 62
     4
370
     9
100
AcDbLine
 10
175.5681896930213
 20
52.67989047263208
 30
0.0
 11
240.7349311415009
 21
65.8425013256726
 31
0.0
  0
LINE
  5
90
330
1F
100
AcDbEntity
  8
建具
  6
Continuous
 62
     4
370
     9
100
AcDbLine
 10
103.0590179235955
 20
41.72008789661854
 30
0.0
 11
103.0590179235955
 21
47.72000871587531
 31
0.0
  0
LINE
  5
91
330
1F
100
AcDbEntity
  8
建具
  6
Continuous
 62
     4
370
     9
100
AcDbLine
 10
178.2588503243559
 20
-366.2801199528325
 30
0.0
 11
103.0590179235955
 21
-366.2801199528325
 31
0.0
  0
LINE
  5
92
330
1F
100
AcDbEntity
  8
建具
  6
Continuous
 62
     4
370
     9
100
AcDbLine
 10
182.2589624970755
 20
-362.2799582921484
 30
0.0
 11
182.2589624970755
 21
-312.2800407720894
 31
0.0
  0
LINE
  5
93
330
1F
100
AcDbEntity
  8
建具
  6
Continuous
 62
     4
370
     9
100
AcDbLine
 10
182.2589624970755
 20
-312.2800407720894
 30
0.0
 11
188.2589822922614
 21
-312.2800407720894
 31
0.0
  0
LINE
  5
94
330
1F
100
AcDbEntity
  8
建具
  6
Continuous
 62
     4
370
     9
100
AcDbLine
 10
188.2589822922614
 20
-312.2800407720894
 30
0.0
 11
188.2589822922614
 21
-362.2799582921484
 31
0.0
  0
LINE
  5
95
330
1F
100
AcDbEntity
  8
建具
  6
Continuous
 62
     4
370
     9
100
AcDbLine
 10
158.2588833163322
 20
-372.2799912841248
 30
0.0
 11
158.2588833163322
 21
-381.2799220009745
 31
0.0
  0
LINE
  5
96
330
1F
100
AcDbEntity
  8
建具
  6
Continuous
 62
     4
370
     9
100
AcDbLine
 10
178.2588503243559
 20
-372.2799912841248
 30
0.0
 11
103.0590179235955
 21
-372.2799912841248
 31
0.0
  0
LINE
  5
97
330
1F
100
AcDbEntity
  8
建具
  6
Continuous
 62
     4
370
     9
100
AcDbLine
 10
172.0744383733422
 20
-381.2799220009745
 30
0.0
 11
158.2588833163322
 21
-381.2799220009745
 31
0.0
  0
LINE
  5
98
330
1F
100
AcDbEntity
  8
建具
  6
Continuous
 62
     4
370
     9
100
AcDbLine
 10
176.7327404742713
 20
-372.8931471646147
 30
0.0
 11
234.9236584430213
 21
-384.1864986215404
 31
0.0
  0
LINE
  5
99
330
1F
100
AcDbEntity
  8
建具
  6
Continuous
 62
     4
370
     9
100
AcDbLine
 10
174.4037378877005
 20
-381.5867473810421
 30
0.0
 11
232.5941609768051
 21
-392.8800493500031
 31
0.0
  0
LINE
  5
9A
330
1F
100
AcDbEntity
  8
建具
  6
JWW_CENTER2
 62
     4
370
     9
100
AcDbLine
 10
172.0739434936972
 20
-376.7799813865319
 30
0.0
 11
154.4541496275651
 21
-376.7799813865319
 31
0.0
  0
LINE
  5
9B
330
1F
100
AcDbEntity
  8
建具
  6
JWW_CENTER2
 62
     4
370
     9
100
AcDbLine
 10
175.5681896930213
 20
-377.2398730408815
 30
0.0
 11
240.7349311415009
 21
-390.4024838939221
 31
0.0
  0
LINE
  5
9C
330
1F
100
AcDbEntity
  8
建具
  6
Continuous
 62
     4
370
     9
100
AcDbLine
 10
103.0590179235955
 20
-366.2801199528325
 30
0.0
 11
103.0590179235955
 21
-372.2799912841248
 31
0.0
  0
ARC
  5
9D
330
1F
100
AcDbEntity
  8
建具
  6
Continuous
 62
     4
370
     9
100
AcDbCircle
 10
178.2588503243559
 20
37.71997572389895
 30
0.0
 40
3.999999664925241
100
AcDbArc
 50
0.0
 51
90.0
  0
ARC
  5
9E
330
1F
100
AcDbEntity
  8
建具
  6
Continuous
 62
     4
370
     9
100
AcDbCircle
 10
178.2588503243559
 20
37.71997572389895
 30
0.0
 40
10.00000051549963
100
AcDbArc
 50
0.0
 51
90.0
  0
ARC
  5
9F
330
1F
100
AcDbEntity
  8
建具
  6
Continuous
 62
     4
370
     9
100
AcDbCircle
 10
172.0739434936972
 20
65.71996912550375
 30
0.0
 40
17.99999752560177
100
AcDbArc
 50
270.0
 51
285.0
  0
ARC
  5
A0
330
1F
100
AcDbEntity
  8
建具
  6
Continuous
 62
     4
370
     9
100
AcDbCircle
 10
233.7591076617713
 20
63.97334090548676
 30
0.0
 40
4.499999381400444
100
AcDbArc
 50
285.0001373291016
 51
104.9999084472657
  0
ARC
  5
A1
330
1F
100
AcDbEntity
  8
建具
  6
JWW_CENTER2
 62
     4
370
     9
100
AcDbCircle
 10
172.0739434936972
 20
65.71996912550375
 30
0.0
 40
13.50000123719911
100
AcDbArc
 50
270.0
 51
284.9999542236328
  0
ARC
  5
A2
330
1F
100
AcDbEntity
  8
建具
  6
Continuous
 62
     4
370
     9
100
AcDbCircle
 10
172.0744383733422
 20
65.71996912550375
 30
0.0
 40
8.999998762800887
100
AcDbArc
 50
270.0
 51
285.0000152587891
  0
ARC
  5
A3
330
1F
100
AcDbEntity
  8
建具
  6
Continuous
 62
     4
370
     9
100
AcDbCircle
 10
178.2588503243559
 20
-362.2799582921484
 30
0.0
 40
3.999999664925241
100
AcDbArc
 50
270.0
 51
0.0
  0
ARC
  5
A4
330
1F
100
AcDbEntity
  8
建具
  6
Continuous
 62
     4
370
     9
100
AcDbCircle
 10
178.2588503243559
 20
-362.2799582921484
 30
0.0
 40
10.00000051549963
100
AcDbArc
 50
270.0
 51
0.0
  0
ARC
  5
A5
330
1F
100
AcDbEntity
  8
建具
  6
Continuous
 62
     4
370
     9
100
AcDbCircle
 10
172.0739434936972
 20
-390.2799516937531
 30
0.0
 40
17.99999752560177
100
AcDbArc
 50
74.99999999999999
 51
89.99999999999999
  0
ARC
  5
A6
330
1F
100
AcDbEntity
  8
建具
  6
Continuous
 62
     4
370
     9
100
AcDbCircle
 10
233.7591076617713
 20
-388.5333729617008
 30
0.0
 40
4.499999381400444
100
AcDbArc
 50
255.0000915527343
 51
74.99986267089842
  0
ARC
  5
A7
330
1F
100
AcDbEntity
  8
建具
  6
JWW_CENTER2
 62
     4
370
     9
100
AcDbCircle
 10
172.0739434936972
 20
-390.2799516937531
 30
0.0
 40
13.50000123719911
100
AcDbArc
 50
75.00004577636717
 51
90.0
  0
ARC
  5
A8
330
1F
100
AcDbEntity
  8
建具
  6
Continuous
 62
     4
370
     9
100
AcDbCircle
 10
172.0744383733422
 20
-390.2799516937531
 30
0.0
 40
8.999998762800887
100
AcDbArc
 50
74.99998474121095
 51
90.00000000000001
  0
LINE
  5
A9
330
1F
100
AcDbEntity
  8
躯体
  6
JWW_DASHED3
 62
     2
370
     9
100
AcDbLine
 10
-737.5397188743123
 20
-312.2799912841248
 30
0.0
 11
-737.5397188743123
 21
-12.27999128412472
 31
0.0
  0
LINE
  5
AA
330
1F
100
AcDbEntity
  8
躯体
  6
JWW_DASHED3
 62
     2
370
     9
100
AcDbLine
 10
-737.5397188743123
 20
-12.27999128412472
 30
0.0
 11
-437.539718874312
 21
-12.27999128412472
 31
0.0
  0
LINE
  5
AB
330
1F
100
AcDbEntity
  8
躯体
  6
JWW_DASHED3
 62
     2
370
     9
100
AcDbLine
 10
-437.539718874312
 20
-12.27999128412472
 30
0.0
 11
-437.539718874312
 21
-312.2799912841248
 31
0.0
  0
LINE
  5
AC
330
1F
100
AcDbEntity
  8
躯体
  6
JWW_DASHED3
 62
     2
370
     9
100
AcDbLine
 10
-437.539718874312
 20
-312.2799912841248
 30
0.0
 11
-737.5397188743123
 21
-312.2799912841248
 31
0.0
  0
LINE
  5
AD
330
1F
100
AcDbEntity
  8
建具
  6
Continuous
 62
     4
370
     9
100
AcDbLine
 10
-797.5397436182943
 20
-372.2799912841248
 30
0.0
 11
-797.5397436182943
 21
47.72000871587531
 31
0.0
  0
LINE
  5
AE
330
1F
100
AcDbEntity
  8
建具
  6
Continuous
 62
     4
370
     9
100
AcDbLine
 10
-797.5397436182943
 20
47.72000871587531
 30
0.0
 11
-377.539718874312
 21
47.72000871587531
 31
0.0
  0
LINE
  5
AF
330
1F
100
AcDbEntity
  8
建具
  6
Continuous
 62
     4
370
     9
100
AcDbLine
 10
-377.539718874312
 20
47.72000871587531
 30
0.0
 11
-377.539718874312
 21
-372.2799912841248
 31
0.0
  0
LINE
  5
B0
330
1F
100
AcDbEntity
  8
建具
  6
Continuous
 62
     4
370
     9
100
AcDbLine
 10
-377.539718874312
 20
-372.2799912841248
 30
0.0
 11
-797.5397436182943
 21
-372.2799912841248
 31
0.0
  0
LINE
  5
B1
330
1F
100
AcDbEntity
  8
建具
  6
Continuous
 62
     4
370
     9
100
AcDbLine
 10
-791.5396990791264
 20
-366.2800209769035
 30
0.0
 11
-791.5396990791264
 21
41.71988994476041
 31
0.0
  0
LINE
  5
B2
330
1F
100
AcDbEntity
  8
建具
  6
Continuous
 62
     4
370
     9
100
AcDbLine
 10
-791.5396990791264
 20
41.71988994476041
 30
0.0
 11
-383.5397386694979
 21
41.71988994476041
 31
0.0
  0
LINE
  5
B3
330
1F
100
AcDbEntity
  8
建具
  6
Continuous
 62
     4
370
     9
100
AcDbLine
 10
-383.5397386694979
 20
41.71988994476041
 30
0.0
 11
-383.5397386694979
 21
-366.2800209769035
 31
0.0
  0
LINE
  5
B4
330
1F
100
AcDbEntity
  8
建具
  6
Continuous
 62
     4
370
     9
100
AcDbLine
 10
-383.5397386694979
 20
-366.2800209769035
 30
0.0
 11
-791.5396990791264
 21
-366.2800209769035
 31
0.0
  0
LINE
  5
B5
330
1F
100
AcDbEntity
  8
建具
  6
Continuous
 62
     4
370
     9
100
AcDbLine
 10
-542.5397683622766
 20
68.31986882989563
 30
0.0
 11
-632.539718874312
 21
68.31986882989563
 31
0.0
  0
LINE
  5
B6
330
1F
100
AcDbEntity
  8
建具
  6
Continuous
 62
     4
370
     9
100
AcDbLine
 10
-532.5396858823358
 20
58.32023174163541
 30
0.0
 11
-532.5396858823358
 21
52.21994933031792
 31
0.0
  0
LINE
  5
B7
330
1F
100
AcDbEntity
  8
建具
  6
Continuous
 62
     4
370
     9
100
AcDbLine
 10
-541.53966608715
 20
58.32023174163541
 30
0.0
 11
-541.53966608715
 21
52.21994933031792
 31
0.0
  0
LINE
  5
B8
330
1F
100
AcDbEntity
  8
建具
  6
Continuous
 62
     4
370
     9
100
AcDbLine
 10
-632.539718874312
 20
59.31998760101041
 30
0.0
 11
-542.5396198983829
 21
59.31998760101041
 31
0.0
  0
LINE
  5
B9
330
1F
100
AcDbEntity
  8
建具
  6
Continuous
 62
     4
370
     9
100
AcDbLine
 10
-633.5397716614741
 20
58.32023174163541
 30
0.0
 11
-633.5397716614741
 21
52.21994933031792
 31
0.0
  0
LINE
  5
BA
330
1F
100
AcDbEntity
  8
建具
  6
JWW_CENTER1
 62
     4
370
     9
100
AcDbLine
 10
-638.0398112518458
 20
44.11253405371312
 30
0.0
 11
-638.0398112518458
 21
59.71024968927063
 31
0.0
  0
LINE
  5
BB
330
1F
100
AcDbEntity
  8
建具
  6
JWW_CENTER1
 62
     4
370
     9
100
AcDbLine
 10
-629.8767220151483
 20
52.21994933031792
 30
0.0
 11
-646.2839122864741
 21
52.21994933031792
 31
0.0
  0
LINE
  5
BC
330
1F
100
AcDbEntity
  8
建具
  6
JWW_CENTER1
 62
     4
370
     9
100
AcDbLine
 10
-537.0395275208491
 20
44.11253405371312
 30
0.0
 11
-537.0395275208491
 21
59.71024968927063
 31
0.0
  0
LINE
  5
BD
330
1F
100
AcDbEntity
  8
建具
  6
JWW_CENTER1
 62
     4
370
     9
100
AcDbLine
 10
-528.8768836758325
 20
52.21994933031792
 30
0.0
 11
-545.2837275314066
 21
52.21994933031792
 31
0.0
  0
LINE
  5
BE
330
1F
100
AcDbEntity
  8
建具
  6
Continuous
 62
     4
370
     9
100
AcDbLine
 10
-642.5396528903595
 20
58.32023174163541
 30
0.0
 11
-642.5396528903595
 21
52.21994933031792
 31
0.0
  0
LINE
  5
BF
330
1F
100
AcDbEntity
  8
建具
  6
Continuous
 62
     4
370
     9
100
AcDbLine
 10
-542.5397683622766
 20
-392.8799503740742
 30
0.0
 11
-632.539718874312
 21
-392.8799503740742
 31
0.0
  0
LINE
  5
C0
330
1F
100
AcDbEntity
  8
建具
  6
Continuous
 62
     4
370
     9
100
AcDbLine
 10
-532.5396858823358
 20
-382.8802637978495
 30
0.0
 11
-532.5396858823358
 21
-376.7800308744964
 31
0.0
  0
LINE
  5
C1
330
1F
100
AcDbEntity
  8
建具
  6
Continuous
 62
     4
370
     9
100
AcDbLine
 10
-541.53966608715
 20
-382.8802637978495
 30
0.0
 11
-541.53966608715
 21
-376.7800308744964
 31
0.0
  0
LINE
  5
C2
330
1F
100
AcDbEntity
  8
建具
  6
Continuous
 62
     4
370
     9
100
AcDbLine
 10
-632.539718874312
 20
-383.8800691451889
 30
0.0
 11
-542.5396198983829
 21
-383.8800691451889
 31
0.0
  0
LINE
  5
C3
330
1F
100
AcDbEntity
  8
建具
  6
Continuous
 62
     4
370
     9
100
AcDbLine
 10
-633.5397716614741
 20
-382.8802637978495
 30
0.0
 11
-633.5397716614741
 21
-376.7800308744964
 31
0.0
  0
LINE
  5
C4
330
1F
100
AcDbEntity
  8
建具
  6
JWW_CENTER1
 62
     4
370
     9
100
AcDbLine
 10
-638.0398112518458
 20
-368.6726155978916
 30
0.0
 11
-638.0398112518458
 21
-384.2703312334492
 31
0.0
  0
LINE
  5
C5
330
1F
100
AcDbEntity
  8
建具
  6
JWW_CENTER1
 62
     4
370
     9
100
AcDbLine
 10
-629.8767220151483
 20
-376.7800308744964
 30
0.0
 11
-646.2839122864741
 21
-376.7800308744964
 31
0.0
  0
LINE
  5
C6
330
1F
100
AcDbEntity
  8
建具
  6
JWW_CENTER1
 62
     4
370
     9
100
AcDbLine
 10
-537.0395275208491
 20
-368.6726155978916
 30
0.0
 11
-537.0395275208491
 21
-384.2703312334492
 31
0.0
  0
LINE
  5
C7
330
1F
100
AcDbEntity
  8
建具
  6
JWW_CENTER1
 62
     4
370
     9
100
AcDbLine
 10
-528.8768836758325
 20
-376.7800308744964
 30
0.0
 11
-545.2837275314066
 21
-376.7800308744964
 31
0.0
  0
LINE
  5
C8
330
1F
100
AcDbEntity
  8
建具
  6
Continuous
 62
     4
370
     9
100
AcDbLine
 10
-642.5396528903595
 20
-382.8802637978495
 30
0.0
 11
-642.5396528903595
 21
-376.7800308744964
 31
0.0
  0
CIRCLE
  5
C9
330
1F
100
AcDbEntity
  8
建具
  6
Continuous
 62
     4
370
     9
100
AcDbCircle
 10
-638.0398112518458
 20
52.21994933031792
 30
0.0
 40
4.500000154649889
  0
CIRCLE
  5
CA
330
1F
100
AcDbEntity
  8
建具
  6
Continuous
 62
     4
370
     9
100
AcDbCircle
 10
-537.0398244486362
 20
52.21994933031792
 30
0.0
 40
4.500000154649889
  0
ARC
  5
CB
330
1F
100
AcDbEntity
  8
建具
  6
Continuous
 62
     4
370
     9
100
AcDbCircle
 10
-632.539718874312
 20
58.32023174163541
 30
0.0
 40
10.00000051549963
100
AcDbArc
 50
90.0
 51
180.0
  0
ARC
  5
CC
330
1F
100
AcDbEntity
  8
建具
  6
Continuous
 62
     4
370
     9
100
AcDbCircle
 10
-542.5397683622766
 20
58.32023174163541
 30
0.0
 40
10.00000051549963
100
AcDbArc
 50
0.0
 51
90.0
  0
ARC
  5
CD
330
1F
100
AcDbEntity
  8
建具
  6
Continuous
 62
     4
370
     9
100
AcDbCircle
 10
-542.5396198983829
 20
58.32023174163541
 30
0.0
 40
0.9999999162313101
100
AcDbArc
 50
0.0
 51
90.0
  0
ARC
  5
CE
330
1F
100
AcDbEntity
  8
建具
  6
Continuous
 62
     4
370
     9
100
AcDbCircle
 10
-632.539718874312
 20
58.32023174163541
 30
0.0
 40
0.9999999162313101
100
AcDbArc
 50
90.0
 51
180.0
  0
CIRCLE
  5
CF
330
1F
100
AcDbEntity
  8
建具
  6
Continuous
 62
     4
370
     9
100
AcDbCircle
 10
-638.0398112518458
 20
-376.7800308744964
 30
0.0
 40
4.500000154649889
  0
CIRCLE
  5
D0
330
1F
100
AcDbEntity
  8
建具
  6
Continuous
 62
     4
370
     9
100
AcDbCircle
 10
-537.0398244486362
 20
-376.7800308744964
 30
0.0
 40
4.500000154649889
  0
ARC
  5
D1
330
1F
100
AcDbEntity
  8
建具
  6
Continuous
 62
     4
370
     9
100
AcDbCircle
 10
-632.539718874312
 20
-382.8802637978495
 30
0.0
 40
10.00000051549963
100
AcDbArc
 50
180.0
 51
270.0
  0
ARC
  5
D2
330
1F
100
AcDbEntity
  8
建具
  6
Continuous
 62
     4
370
     9
100
AcDbCircle
 10
-542.5397683622766
 20
-382.8802637978495
 30
0.0
 40
10.00000051549963
100
AcDbArc
 50
270.0
 51
0.0
  0
ARC
  5
D3
330
1F
100
AcDbEntity
  8
建具
  6
Continuous
 62
     4
370
     9
100
AcDbCircle
 10
-542.5396198983829
 20
-382.8802637978495
 30
0.0
 40
0.9999999162313101
100
AcDbArc
 50
270.0
 51
0.0
  0
ARC
  5
D4
330
1F
100
AcDbEntity
  8
建具
  6
Continuous
 62
     4
370
     9
100
AcDbCircle
 10
-632.539718874312
 20
-382.8802637978495
 30
0.0
 40
0.9999999162313101
100
AcDbArc
 50
180.0
 51
270.0
  0
LINE
  5
D5
330
1F
100
AcDbEntity
  8
仕上
  6
Continuous
 62
     7
370
     9
100
AcDbLine
 10
-788.0397188743118
 20
38.22023235434321
 30
0.0
 11
-788.0397188743118
 21
-362.780363386486
 31
0.0
  0
LINE
  5
D6
330
1F
100
AcDbEntity
  8
仕上
  6
Continuous
 62
     7
370
     9
100
AcDbLine
 10
-788.0397188743118
 20
38.22023235434321
 30
0.0
 11
-783.5396340378006
 21
38.22023235434321
 31
0.0
  0
LINE
  5
D7
330
1F
100
AcDbEntity
  8
仕上
  6
Continuous
 62
     7
370
     9
100
AcDbLine
 10
-783.5396340378006
 20
38.22023235434321
 30
0.0
 11
-783.5396340378006
 21
35.7202323543431
 31
0.0
  0
LINE
  5
D8
330
1F
100
AcDbEntity
  8
仕上
  6
Continuous
 62
     7
370
     9
100
AcDbLine
 10
-783.5396340378006
 20
31.22014751783203
 30
0.0
 11
-783.5396340378006
 21
25.22011311191417
 31
0.0
  0
LINE
  5
D9
330
1F
100
AcDbEntity
  8
仕上
  6
JWW_DASHED1
 62
     2
370
     9
100
AcDbLine
 10
-782.0395824289244
 20
31.22014751783203
 30
0.0
 11
-782.0395824289244
 21
35.7202323543431
 31
0.0
  0
LINE
  5
DA
330
1F
100
AcDbEntity
  8
仕上
  6
Continuous
 62
     2
370
     9
100
AcDbLine
 10
-782.0395824289244
 20
25.22011311191417
 30
0.0
 11
-782.0395824289244
 21
31.22014751783203
 31
0.0
  0
LINE
  5
DB
330
1F
100
AcDbEntity
  8
仕上
  6
JWW_DASHED1
 62
     2
370
     9
100
AcDbLine
 10
-782.0395824289244
 20
25.22011311191417
 30
0.0
 11
-782.0395824289244
 21
20.72002827540413
 31
0.0
  0
LINE
  5
DC
330
1F
100
AcDbEntity
  8
仕上
  6
Continuous
 62
     7
370
     9
100
AcDbLine
 10
-773.5395854924636
 20
20.72002827540413
 30
0.0
 11
-783.5396340378006
 21
10.71997973006714
 31
0.0
  0
LINE
  5
DD
330
1F
100
AcDbEntity
  8
仕上
  6
JWW_DASHED1
 62
     7
370
     9
100
AcDbLine
 10
-773.5395854924636
 20
20.72002827540413
 30
0.0
 11
-769.0395006559538
 21
25.22011311191417
 31
0.0
  0
LINE
  5
DE
330
1F
100
AcDbEntity
  8
仕上
  6
JWW_DASHED1
 62
     7
370
     9
100
AcDbLine
 10
-783.5396340378006
 20
10.71997973006714
 30
0.0
 11
-788.0397188743118
 21
6.220314834284494
 31
0.0
  0
LINE
  5
DF
330
1F
100
AcDbEntity
  8
仕上
  6
Continuous
 62
     7
370
     9
100
AcDbLine
 10
-788.0397188743118
 20
-362.780363386486
 30
0.0
 11
-783.5396340378006
 21
-362.780363386486
 31
0.0
  0
LINE
  5
E0
330
1F
100
AcDbEntity
  8
仕上
  6
Continuous
 62
     7
370
     9
100
AcDbLine
 10
-783.5396340378006
 20
-362.780363386486
 30
0.0
 11
-783.5396340378006
 21
-360.2803633864862
 31
0.0
  0
LINE
  5
E1
330
1F
100
AcDbEntity
  8
仕上
  6
Continuous
 62
     7
370
     9
100
AcDbLine
 10
-783.5396340378006
 20
-355.7802785499748
 30
0.0
 11
-783.5396340378006
 21
-349.7802441440576
 31
0.0
  0
LINE
  5
E2
330
1F
100
AcDbEntity
  8
仕上
  6
Continuous
 62
     2
370
     9
100
AcDbLine
 10
-782.0395824289244
 20
-349.7802441440576
 30
0.0
 11
-782.0395824289244
 21
-355.7802785499748
 31
0.0
  0
LINE
  5
E3
330
1F
100
AcDbEntity
  8
仕上
  6
Continuous
 62
     7
370
     9
100
AcDbLine
 10
-401.5398522561593
 20
-345.2801593075462
 30
0.0
 11
-391.5398037108223
 21
-335.2801107622092
 31
0.0
  0
LINE
  5
E4
330
1F
100
AcDbEntity
  8
仕上
  6
JWW_DASHED1
 62
     7
370
     9
100
AcDbLine
 10
-401.5398522561593
 20
-345.2801593075462
 30
0.0
 11
-406.0399370926691
 21
-349.7802441440576
 31
0.0
  0
LINE
  5
E5
330
1F
100
AcDbEntity
  8
仕上
  6
JWW_DASHED1
 62
     7
370
     9
100
AcDbLine
 10
-391.5398037108223
 20
-335.2801107622092
 30
0.0
 11
-387.039718874312
 21
-330.7804458664273
 31
0.0
  0
LINE
  5
E6
330
1F
100
AcDbEntity
  8
仕上
  6
Continuous
 62
     7
370
     9
100
AcDbLine
 10
-391.5398037108223
 20
-355.7802785499748
 30
0.0
 11
-391.5398037108223
 21
-349.7802441440576
 31
0.0
  0
LINE
  5
E7
330
1F
100
AcDbEntity
  8
仕上
  6
Continuous
 62
     7
370
     9
100
AcDbLine
 10
-391.5398037108223
 20
-362.780363386486
 30
0.0
 11
-391.5398037108223
 21
-360.2803633864862
 31
0.0
  0
LINE
  5
E8
330
1F
100
AcDbEntity
  8
仕上
  6
Continuous
 62
     7
370
     9
100
AcDbLine
 10
-387.039718874312
 20
-362.780363386486
 30
0.0
 11
-391.5398037108223
 21
-362.780363386486
 31
0.0
  0
LINE
  5
E9
330
1F
100
AcDbEntity
  8
仕上
  6
Continuous
 62
     7
370
     9
100
AcDbLine
 10
-391.5398037108223
 20
31.22014751783203
 30
0.0
 11
-391.5398037108223
 21
25.22011311191417
 31
0.0
  0
LINE
  5
EA
330
1F
100
AcDbEntity
  8
仕上
  6
Continuous
 62
     7
370
     9
100
AcDbLine
 10
-391.5398037108223
 20
38.22023235434321
 30
0.0
 11
-391.5398037108223
 21
35.7202323543431
 31
0.0
  0
LINE
  5
EB
330
1F
100
AcDbEntity
  8
仕上
  6
Continuous
 62
     7
370
     9
100
AcDbLine
 10
-387.039718874312
 20
38.22023235434321
 30
0.0
 11
-391.5398037108223
 21
38.22023235434321
 31
0.0
  0
LINE
  5
EC
330
1F
100
AcDbEntity
  8
仕上
  6
Continuous
 62
     7
370
     9
100
AcDbLine
 10
-391.5398037108223
 20
20.72002827540413
 30
0.0
 11
-391.5398037108223
 21
-345.2801593075462
 31
0.0
  0
LINE
  5
ED
330
1F
100
AcDbEntity
  8
仕上
  6
Continuous
 62
     7
370
     9
100
AcDbLine
 10
-387.039718874312
 20
38.22023235434321
 30
0.0
 11
-387.039718874312
 21
-362.780363386486
 31
0.0
  0
LINE
  5
EE
330
1F
100
AcDbEntity
  8
仕上
  6
Continuous
 62
     7
370
     9
100
AcDbLine
 10
-387.039718874312
 20
35.7202323543431
 30
0.0
 11
-788.0397188743118
 21
35.7202323543431
 31
0.0
  0
LINE
  5
EF
330
1F
100
AcDbEntity
  8
仕上
  6
Continuous
 62
     7
370
     9
100
AcDbLine
 10
-387.039718874312
 20
31.22014751783203
 30
0.0
 11
-788.0397188743118
 21
31.22014751783203
 31
0.0
  0
LINE
  5
F0
330
1F
100
AcDbEntity
  8
仕上
  6
Continuous
 62
     7
370
     9
100
AcDbLine
 10
-387.039718874312
 20
25.22011311191417
 30
0.0
 11
-788.0397188743118
 21
25.22011311191417
 31
0.0
  0
LINE
  5
F1
330
1F
100
AcDbEntity
  8
仕上
  6
Continuous
 62
     2
370
     9
100
AcDbLine
 10
-387.039718874312
 20
-362.7803633864867
 30
0.0
 11
-788.0397188743118
 21
-362.7803633864867
 31
0.0
  0
LINE
  5
F2
330
1F
100
AcDbEntity
  8
仕上
  6
Continuous
 62
     7
370
     9
100
AcDbLine
 10
-387.039718874312
 20
-355.7802785499748
 30
0.0
 11
-788.0397188743118
 21
-355.7802785499748
 31
0.0
  0
LINE
  5
F3
330
1F
100
AcDbEntity
  8
仕上
  6
Continuous
 62
     7
370
     9
100
AcDbLine
 10
-387.039718874312
 20
-360.2803633864862
 30
0.0
 11
-788.0397188743118
 21
-360.2803633864862
 31
0.0
  0
LINE
  5
F4
330
1F
100
AcDbEntity
  8
仕上
  6
Continuous
 62
     3
370
     9
100
AcDbLine
 10
-672.5396985488976
 20
-186.734632270965
 30
0.0
 11
-672.5396985488976
 21
-137.8254987611778
 31
0.0
  0
LINE
  5
F5
330
1F
100
AcDbEntity
  8
仕上
  6
Continuous
 62
     3
370
     9
100
AcDbLine
 10
-702.5397391997251
 20
-137.8254987611778
 30
0.0
 11
-702.5397391997251
 21
-186.734632270965
 31
0.0
  0
LINE
  5
F6
330
1F
100
AcDbEntity
  8
仕上
  6
Continuous
 62
     3
370
     9
100
AcDbLine
 10
-702.5397391997251
 20
-138.3254987611773
 30
0.0
 11
-672.5396985488976
 21
-138.3254987611773
 31
0.0
  0
LINE
  5
F7
330
1F
100
AcDbEntity
  8
仕上
  6
Continuous
 62
     3
370
     9
100
AcDbLine
 10
-702.5397391997251
 20
-137.8254987611778
 30
0.0
 11
-672.5396985488976
 21
-137.8254987611778
 31
0.0
  0
LINE
  5
F8
330
1F
100
AcDbEntity
  8
仕上
  6
Continuous
 62
     3
370
     9
100
AcDbLine
 10
-702.5397391997251
 20
-153.9140401122872
 30
0.0
 11
-672.5396985488976
 21
-153.9140401122872
 31
0.0
  0
LINE
  5
F9
330
1F
100
AcDbEntity
  8
仕上
  6
Continuous
 62
     3
370
     9
100
AcDbLine
 10
-702.5397391997251
 20
-186.734632270965
 30
0.0
 11
-672.5396985488976
 21
-186.734632270965
 31
0.0
  0
LINE
  5
FA
330
1F
100
AcDbEntity
  8
仕上
  6
Continuous
 62
     3
370
     9
100
AcDbLine
 10
-702.5397391997251
 20
-186.2346322709654
 30
0.0
 11
-672.5396985488976
 21
-186.2346322709654
 31
0.0
  0
LINE
  5
FB
330
1F
100
AcDbEntity
  8
仕上
  6
Continuous
 62
     3
370
     9
100
AcDbLine
 10
-702.5397391997251
 20
-170.6460909198555
 30
0.0
 11
-672.5396985488976
 21
-170.6460909198555
 31
0.0
  0
LINE
  5
FC
330
1F
100
AcDbEntity
  8
仕上
  6
Continuous
 62
     3
370
     9
100
AcDbLine
 10
-502.539739199726
 20
-186.734632270965
 30
0.0
 11
-502.539739199726
 21
-137.8254987611778
 31
0.0
  0
LINE
  5
FD
330
1F
100
AcDbEntity
  8
仕上
  6
Continuous
 62
     3
370
     9
100
AcDbLine
 10
-472.5396985488981
 20
-137.8254987611778
 30
0.0
 11
-472.5396985488981
 21
-186.734632270965
 31
0.0
  0
LINE
  5
FE
330
1F
100
AcDbEntity
  8
仕上
  6
Continuous
 62
     3
370
     9
100
AcDbLine
 10
-472.5396985488981
 20
-138.3254987611773
 30
0.0
 11
-502.539739199726
 21
-138.3254987611773
 31
0.0
  0
LINE
  5
FF
330
1F
100
AcDbEntity
  8
仕上
  6
Continuous
 62
     3
370
     9
100
AcDbLine
 10
-472.5396985488981
 20
-137.8254987611778
 30
0.0
 11
-502.539739199726
 21
-137.8254987611778
 31
0.0
  0
LINE
  5
100
330
1F
100
AcDbEntity
  8
仕上
  6
Continuous
 62
     3
370
     9
100
AcDbLine
 10
-472.5396985488981
 20
-153.9140401122872
 30
0.0
 11
-502.539739199726
 21
-153.9140401122872
 31
0.0
  0
LINE
  5
101
330
1F
100
AcDbEntity
  8
仕上
  6
Continuous
 62
     3
370
     9
100
AcDbLine
 10
-472.5396985488981
 20
-186.734632270965
 30
0.0
 11
-502.539739199726
 21
-186.734632270965
 31
0.0
  0
LINE
  5
102
330
1F
100
AcDbEntity
  8
仕上
  6
Continuous
 62
     3
370
     9
100
AcDbLine
 10
-472.5396985488981
 20
-186.2346322709654
 30
0.0
 11
-502.539739199726
 21
-186.2346322709654
 31
0.0
  0
LINE
  5
103
330
1F
100
AcDbEntity
  8
仕上
  6
Continuous
 62
     3
370
     9
100
AcDbLine
 10
-472.5396985488981
 20
-170.6460909198555
 30
0.0
 11
-502.539739199726
 21
-170.6460909198555
 31
0.0
  0
LINE
  5
104
330
1F
100
AcDbEntity
  8
仕上
  6
Continuous
 62
     7
370
     9
100
AcDbLine
 10
-650.2896764560567
 20
-360.2803633864862
 30
0.0
 11
-650.2896764560567
 21
-362.780363386486
 31
0.0
  0
LINE
  5
105
330
1F
100
AcDbEntity
  8
仕上
  6
Continuous
 62
     7
370
     9
100
AcDbLine
 10
-654.7897612925669
 20
-360.2803633864862
 30
0.0
 11
-654.7897612925669
 21
-362.780363386486
 31
0.0
  0
LINE
  5
106
330
1F
100
AcDbEntity
  8
仕上
  6
Continuous
 62
     7
370
     9
100
AcDbLine
 10
-654.7897612925669
 20
-362.780363386486
 30
0.0
 11
-650.2896764560567
 21
-362.780363386486
 31
0.0
  0
LINE
  5
107
330
1F
100
AcDbEntity
  8
仕上
  6
Continuous
 62
     7
370
     9
100
AcDbLine
 10
-650.2896764560567
 20
-349.7802441440576
 30
0.0
 11
-650.2896764560567
 21
-355.7802785499748
 31
0.0
  0
LINE
  5
108
330
1F
100
AcDbEntity
  8
仕上
  6
Continuous
 62
     7
370
     9
100
AcDbLine
 10
-654.7897612925669
 20
-349.7802441440576
 30
0.0
 11
-654.7897612925669
 21
-355.7802785499748
 31
0.0
  0
LINE
  5
109
330
1F
100
AcDbEntity
  8
仕上
  6
Continuous
 62
     7
370
     9
100
AcDbLine
 10
-650.2896764560567
 20
35.7202323543431
 30
0.0
 11
-650.2896764560567
 21
38.22023235434321
 31
0.0
  0
LINE
  5
10A
330
1F
100
AcDbEntity
  8
仕上
  6
Continuous
 62
     7
370
     9
100
AcDbLine
 10
-654.7897612925669
 20
35.7202323543431
 30
0.0
 11
-654.7897612925669
 21
38.22023235434321
 31
0.0
  0
LINE
  5
10B
330
1F
100
AcDbEntity
  8
仕上
  6
Continuous
 62
     7
370
     9
100
AcDbLine
 10
-654.7897612925669
 20
38.22023235434321
 30
0.0
 11
-650.2896764560567
 21
38.22023235434321
 31
0.0
  0
LINE
  5
10C
330
1F
100
AcDbEntity
  8
仕上
  6
Continuous
 62
     7
370
     9
100
AcDbLine
 10
-650.2896764560567
 20
25.22011311191417
 30
0.0
 11
-650.2896764560567
 21
31.22014751783203
 31
0.0
  0
LINE
  5
10D
330
1F
100
AcDbEntity
  8
仕上
  6
Continuous
 62
     7
370
     9
100
AcDbLine
 10
-654.7897612925669
 20
25.22011311191417
 30
0.0
 11
-654.7897612925669
 21
31.22014751783203
 31
0.0
  0
LINE
  5
10E
330
1F
100
AcDbEntity
  8
仕上
  6
Continuous
 62
     2
370
     9
100
AcDbLine
 10
-649.5396248471791
 20
-349.7802441440576
 30
0.0
 11
-649.5396248471791
 21
-355.7802785499748
 31
0.0
  0
LINE
  5
10F
330
1F
100
AcDbEntity
  8
仕上
  6
Continuous
 62
     2
370
     9
100
AcDbLine
 10
-655.5398129014445
 20
-349.7802441440576
 30
0.0
 11
-655.5398129014445
 21
-355.7802785499748
 31
0.0
  0
LINE
  5
110
330
1F
100
AcDbEntity
  8
仕上
  6
Continuous
 62
     2
370
     9
100
AcDbLine
 10
-649.5396248471791
 20
25.22011311191417
 30
0.0
 11
-649.5396248471791
 21
31.22014751783203
 31
0.0
  0
LINE
  5
111
330
1F
100
AcDbEntity
  8
仕上
  6
Continuous
 62
     2
370
     9
100
AcDbLine
 10
-655.5398129014445
 20
25.22011311191417
 30
0.0
 11
-655.5398129014445
 21
31.22014751783203
 31
0.0
  0
LINE
  5
112
330
1F
100
AcDbEntity
  8
仕上
  6
JWW_DASHED1
 62
     2
370
     9
100
AcDbLine
 10
-649.5396248471791
 20
25.22011311191417
 30
0.0
 11
-649.5396248471791
 21
-349.7802441440576
 31
0.0
  0
LINE
  5
113
330
1F
100
AcDbEntity
  8
仕上
  6
JWW_DASHED1
 62
     2
370
     9
100
AcDbLine
 10
-655.5398129014445
 20
-349.7802441440576
 30
0.0
 11
-655.5398129014445
 21
25.22011311191417
 31
0.0
  0
LINE
  5
114
330
1F
100
AcDbEntity
  8
仕上
  6
Continuous
 62
     7
370
     9
100
AcDbLine
 10
-387.039718874312
 20
38.22023235434355
 30
0.0
 11
-788.0397188743118
 21
38.22023235434355
 31
0.0
  0
LINE
  5
115
330
1F
100
AcDbEntity
  8
仕上
  6
Continuous
 62
     7
370
     9
100
AcDbLine
 10
-387.039718874312
 20
-349.7802441440576
 30
0.0
 11
-788.0397188743118
 21
-349.7802441440576
 31
0.0
  0
LINE
  5
116
330
1F
100
AcDbEntity
  8
仕上
  6
Continuous
 62
     2
370
     9
100
AcDbLine
 10
-782.0395824289244
 20
20.72002827540413
 30
0.0
 11
-782.0395824289244
 21
12.22003133894358
 31
0.0
  0
LINE
  5
117
330
1F
100
AcDbEntity
  8
仕上
  6
Continuous
 62
     7
370
     9
100
AcDbLine
 10
-524.7897612925669
 20
35.7202323543431
 30
0.0
 11
-524.7897612925669
 21
38.22023235434321
 31
0.0
  0
LINE
  5
118
330
1F
100
AcDbEntity
  8
仕上
  6
Continuous
 62
     7
370
     9
100
AcDbLine
 10
-520.2896764560571
 20
35.7202323543431
 30
0.0
 11
-520.2896764560571
 21
38.22023235434321
 31
0.0
  0
LINE
  5
119
330
1F
100
AcDbEntity
  8
仕上
  6
Continuous
 62
     7
370
     9
100
AcDbLine
 10
-520.2896764560571
 20
38.22023235434321
 30
0.0
 11
-524.7897612925669
 21
38.22023235434321
 31
0.0
  0
LINE
  5
11A
330
1F
100
AcDbEntity
  8
仕上
  6
Continuous
 62
     7
370
     9
100
AcDbLine
 10
-524.7897612925669
 20
25.22011311191417
 30
0.0
 11
-524.7897612925669
 21
31.22014751783203
 31
0.0
  0
LINE
  5
11B
330
1F
100
AcDbEntity
  8
仕上
  6
Continuous
 62
     7
370
     9
100
AcDbLine
 10
-520.2896764560571
 20
25.22011311191417
 30
0.0
 11
-520.2896764560571
 21
31.22014751783203
 31
0.0
  0
LINE
  5
11C
330
1F
100
AcDbEntity
  8
仕上
  6
Continuous
 62
     2
370
     9
100
AcDbLine
 10
-525.539812901445
 20
25.22011311191417
 30
0.0
 11
-525.539812901445
 21
31.22014751783203
 31
0.0
  0
LINE
  5
11D
330
1F
100
AcDbEntity
  8
仕上
  6
Continuous
 62
     2
370
     9
100
AcDbLine
 10
-519.5396248471791
 20
25.22011311191417
 30
0.0
 11
-519.5396248471791
 21
31.22014751783203
 31
0.0
  0
LINE
  5
11E
330
1F
100
AcDbEntity
  8
仕上
  6
Continuous
 62
     7
370
     9
100
AcDbLine
 10
-524.7897612925669
 20
-360.2803633864862
 30
0.0
 11
-524.7897612925669
 21
-362.780363386486
 31
0.0
  0
LINE
  5
11F
330
1F
100
AcDbEntity
  8
仕上
  6
Continuous
 62
     7
370
     9
100
AcDbLine
 10
-520.2896764560571
 20
-360.2803633864862
 30
0.0
 11
-520.2896764560571
 21
-362.780363386486
 31
0.0
  0
LINE
  5
120
330
1F
100
AcDbEntity
  8
仕上
  6
Continuous
 62
     7
370
     9
100
AcDbLine
 10
-520.2896764560571
 20
-362.780363386486
 30
0.0
 11
-524.7897612925669
 21
-362.780363386486
 31
0.0
  0
LINE
  5
121
330
1F
100
AcDbEntity
  8
仕上
  6
Continuous
 62
     7
370
     9
100
AcDbLine
 10
-524.7897612925669
 20
-349.7802441440576
 30
0.0
 11
-524.7897612925669
 21
-355.7802785499748
 31
0.0
  0
LINE
  5
122
330
1F
100
AcDbEntity
  8
仕上
  6
Continuous
 62
     7
370
     9
100
AcDbLine
 10
-520.2896764560571
 20
-349.7802441440576
 30
0.0
 11
-520.2896764560571
 21
-355.7802785499748
 31
0.0
  0
LINE
  5
123
330
1F
100
AcDbEntity
  8
仕上
  6
Continuous
 62
     2
370
     9
100
AcDbLine
 10
-525.539812901445
 20
-349.7802441440576
 30
0.0
 11
-525.539812901445
 21
-355.7802785499748
 31
0.0
  0
LINE
  5
124
330
1F
100
AcDbEntity
  8
仕上
  6
Continuous
 62
     2
370
     9
100
AcDbLine
 10
-519.5396248471791
 20
-349.7802441440576
 30
0.0
 11
-519.5396248471791
 21
-355.7802785499748
 31
0.0
  0
LINE
  5
125
330
1F
100
AcDbEntity
  8
仕上
  6
JWW_DASHED1
 62
     2
370
     9
100
AcDbLine
 10
-720.5398129014445
 20
-349.7802441440576
 30
0.0
 11
-720.5398129014445
 21
25.22011311191417
 31
0.0
  0
LINE
  5
126
330
1F
100
AcDbEntity
  8
仕上
  6
JWW_DASHED1
 62
     2
370
     9
100
AcDbLine
 10
-714.5396248471791
 20
25.22011311191417
 30
0.0
 11
-714.5396248471791
 21
-349.7802441440576
 31
0.0
  0
LINE
  5
127
330
1F
100
AcDbEntity
  8
仕上
  6
Continuous
 62
     2
370
     9
100
AcDbLine
 10
-720.5398129014445
 20
25.22011311191417
 30
0.0
 11
-720.5398129014445
 21
31.22014751783203
 31
0.0
  0
LINE
  5
128
330
1F
100
AcDbEntity
  8
仕上
  6
Continuous
 62
     2
370
     9
100
AcDbLine
 10
-714.5396248471791
 20
25.22011311191417
 30
0.0
 11
-714.5396248471791
 21
31.22014751783203
 31
0.0
  0
LINE
  5
129
330
1F
100
AcDbEntity
  8
仕上
  6
Continuous
 62
     2
370
     9
100
AcDbLine
 10
-720.5398129014445
 20
-349.7802441440576
 30
0.0
 11
-720.5398129014445
 21
-355.7802785499748
 31
0.0
  0
LINE
  5
12A
330
1F
100
AcDbEntity
  8
仕上
  6
Continuous
 62
     2
370
     9
100
AcDbLine
 10
-714.5396248471791
 20
-349.7802441440576
 30
0.0
 11
-714.5396248471791
 21
-355.7802785499748
 31
0.0
  0
LINE
  5
12B
330
1F
100
AcDbEntity
  8
仕上
  6
Continuous
 62
     2
370
     9
100
AcDbLine
 10
-590.5398129014445
 20
25.22011311191417
 30
0.0
 11
-590.5398129014445
 21
31.22014751783203
 31
0.0
  0
LINE
  5
12C
330
1F
100
AcDbEntity
  8
仕上
  6
Continuous
 62
     2
370
     9
100
AcDbLine
 10
-584.5396248471791
 20
25.22011311191417
 30
0.0
 11
-584.5396248471791
 21
31.22014751783203
 31
0.0
  0
LINE
  5
12D
330
1F
100
AcDbEntity
  8
仕上
  6
Continuous
 62
     2
370
     9
100
AcDbLine
 10
-590.5398129014445
 20
-349.7802441440576
 30
0.0
 11
-590.5398129014445
 21
-355.7802785499748
 31
0.0
  0
LINE
  5
12E
330
1F
100
AcDbEntity
  8
仕上
  6
Continuous
 62
     2
370
     9
100
AcDbLine
 10
-584.5396248471791
 20
-349.7802441440576
 30
0.0
 11
-584.5396248471791
 21
-355.7802785499748
 31
0.0
  0
LINE
  5
12F
330
1F
100
AcDbEntity
  8
仕上
  6
JWW_DASHED1
 62
     2
370
     9
100
AcDbLine
 10
-454.5396248471791
 20
-349.7802441440576
 30
0.0
 11
-454.5396248471791
 21
25.22011311191417
 31
0.0
  0
LINE
  5
130
330
1F
100
AcDbEntity
  8
仕上
  6
JWW_DASHED1
 62
     2
370
     9
100
AcDbLine
 10
-460.5398129014445
 20
25.22011311191417
 30
0.0
 11
-460.5398129014445
 21
-349.7802441440576
 31
0.0
  0
LINE
  5
131
330
1F
100
AcDbEntity
  8
仕上
  6
Continuous
 62
     2
370
     9
100
AcDbLine
 10
-454.5396248471791
 20
25.22011311191417
 30
0.0
 11
-454.5396248471791
 21
31.22014751783203
 31
0.0
  0
LINE
  5
132
330
1F
100
AcDbEntity
  8
仕上
  6
Continuous
 62
     2
370
     9
100
AcDbLine
 10
-460.5398129014445
 20
25.22011311191417
 30
0.0
 11
-460.5398129014445
 21
31.22014751783203
 31
0.0
  0
LINE
  5
133
330
1F
100
AcDbEntity
  8
仕上
  6
Continuous
 62
     2
370
     9
100
AcDbLine
 10
-454.5396248471791
 20
-349.7802441440576
 30
0.0
 11
-454.5396248471791
 21
-355.7802785499748
 31
0.0
  0
LINE
  5
134
330
1F
100
AcDbEntity
  8
仕上
  6
Continuous
 62
     2
370
     9
100
AcDbLine
 10
-460.5398129014445
 20
-349.7802441440576
 30
0.0
 11
-460.5398129014445
 21
-355.7802785499748
 31
0.0
  0
LINE
  5
135
330
1F
100
AcDbEntity
  8
仕上
  6
Continuous
 62
     2
370
     9
100
AcDbLine
 10
-393.0897652398219
 20
-355.7802785499748
 30
0.0
 11
-393.0897652398219
 21
-349.7802441440576
 31
0.0
  0
LINE
  5
136
330
1F
100
AcDbEntity
  8
仕上
  6
JWW_DASHED1
 62
     2
370
     9
100
AcDbLine
 10
-393.0897652398219
 20
-345.2801593075462
 30
0.0
 11
-393.0897652398219
 21
-349.7802441440576
 31
0.0
  0
LINE
  5
137
330
1F
100
AcDbEntity
  8
仕上
  6
Continuous
 62
     2
370
     9
100
AcDbLine
 10
-393.0897652398219
 20
31.22014751783203
 30
0.0
 11
-393.0897652398219
 21
25.22011311191417
 31
0.0
  0
LINE
  5
138
330
1F
100
AcDbEntity
  8
仕上
  6
Continuous
 62
     2
370
     9
100
AcDbLine
 10
-393.0897652398219
 20
-336.8300722912088
 30
0.0
 11
-393.0897652398219
 21
-345.2801593075462
 31
0.0
  0
LINE
  5
139
330
1F
100
AcDbEntity
  8
仕上
  6
JWW_DASHED1
 62
     2
370
     9
100
AcDbLine
 10
-525.539812901445
 20
25.22011311191417
 30
0.0
 11
-525.539812901445
 21
-349.7802441440576
 31
0.0
  0
LINE
  5
13A
330
1F
100
AcDbEntity
  8
仕上
  6
JWW_DASHED1
 62
     2
370
     9
100
AcDbLine
 10
-519.5396248471791
 20
-349.7802441440576
 30
0.0
 11
-519.5396248471791
 21
25.22011311191417
 31
0.0
  0
LINE
  5
13B
330
1F
100
AcDbEntity
  8
仕上
  6
JWW_DASHED1
 62
     2
370
     9
100
AcDbLine
 10
-590.5398129014445
 20
-349.7802441440576
 30
0.0
 11
-590.5398129014445
 21
25.22011311191417
 31
0.0
  0
LINE
  5
13C
330
1F
100
AcDbEntity
  8
仕上
  6
JWW_DASHED1
 62
     2
370
     9
100
AcDbLine
 10
-584.5396248471791
 20
25.22011311191417
 30
0.0
 11
-584.5396248471791
 21
-349.7802441440576
 31
0.0
  0
LINE
  5
13D
330
1F
100
AcDbEntity
  8
通り芯
  6
JWW_CENTER2
 62
     7
370
     9
100
AcDbLine
 10
-370.3844496786371
 20
-162.2800655160715
 30
0.0
 11
-810.0851372785551
 21
-162.2800655160715
 31
0.0
  0
LINE
  5
13E
330
1F
100
AcDbEntity
  8
通り芯
  6
JWW_CENTER2
 62
     7
370
     9
100
AcDbLine
 10
-587.539718874312
 20
44.51988542516196
 30
0.0
 11
-587.539718874312
 21
-372.1033032604209
 31
0.0
  0
LINE
  5
13F
330
1F
100
AcDbEntity
  8
通り芯
  6
JWW_CENTER2
 62
     7
370
     9
100
AcDbLine
 10
-487.539718874312
 20
-130.7582825095417
 30
0.0
 11
-487.539718874312
 21
-191.7870901849066
 31
0.0
  0
LINE
  5
140
330
1F
100
AcDbEntity
  8
通り芯
  6
JWW_CENTER2
 62
     7
370
     9
100
AcDbLine
 10
-687.5397188743116
 20
-130.7582825095417
 30
0.0
 11
-687.5397188743116
 21
-191.7870901849066
 31
0.0
  0
LINE
  5
141
330
1F
100
AcDbEntity
  8
仕上
  6
Continuous
 62
     3
370
     9
100
AcDbLine
 10
141.0588711093005
 20
-170.0479652205389
 30
0.0
 11
131.9248965130845
 21
-185.8684732962278
 31
0.0
  0
LINE
  5
142
330
1F
100
AcDbEntity
  8
仕上
  6
Continuous
 62
     3
370
     9
100
AcDbLine
 10
141.0588711093005
 20
-170.0479652205389
 30
0.0
 11
141.0588711093005
 21
-154.5120668356767
 31
0.0
  0
LINE
  5
143
330
1F
100
AcDbEntity
  8
仕上
  6
Continuous
 62
     3
370
     9
100
AcDbLine
 10
141.0588711093005
 20
-154.5120668356767
 30
0.0
 11
131.9248965130845
 21
-138.6915587599882
 31
0.0
  0
LINE
  5
144
330
1F
100
AcDbEntity
  8
仕上
  6
Continuous
 62
     3
370
     9
100
AcDbLine
 10
131.0588711093005
 20
-139.1915587599878
 30
0.0
 11
131.9248965130845
 21
-138.6915587599882
 31
0.0
  0
LINE
  5
145
330
1F
100
AcDbEntity
  8
仕上
  6
Continuous
 62
     3
370
     9
100
AcDbLine
 10
131.0588711093005
 20
-185.3684732962282
 30
0.0
 11
131.9248965130845
 21
-185.8684732962278
 31
0.0
  0
LINE
  5
146
330
1F
100
AcDbEntity
  8
仕上
  6
Continuous
 62
     3
370
     9
100
AcDbLine
 10
140.0588711093014
 20
-169.780016028108
 30
0.0
 11
131.0588711093005
 21
-185.3684732962282
 31
0.0
  0
LINE
  5
147
330
1F
100
AcDbEntity
  8
仕上
  6
Continuous
 62
     3
370
     9
100
AcDbLine
 10
140.0588711093014
 20
-169.780016028108
 30
0.0
 11
140.0588711093014
 21
-154.780016028108
 31
0.0
  0
LINE
  5
148
330
1F
100
AcDbEntity
  8
仕上
  6
Continuous
 62
     3
370
     9
100
AcDbLine
 10
140.0588711093014
 20
-154.780016028108
 30
0.0
 11
131.0588711093005
 21
-139.1915587599878
 31
0.0
  0
LINE
  5
149
330
1F
100
AcDbEntity
  8
仕上
  6
Continuous
 62
     7
370
     9
100
AcDbLine
 10
144.2588866155297
 20
38.22028184230678
 30
0.0
 11
144.2588866155297
 21
33.72028184230609
 31
0.0
  0
LINE
  5
14A
330
1F
100
AcDbEntity
  8
仕上
  6
Continuous
 62
     7
370
     9
100
AcDbLine
 10
144.2588866155297
 20
-362.7803138985225
 30
0.0
 11
144.2588866155297
 21
-358.2803138985225
 31
0.0
  0
LINE
  5
14B
330
1F
100
AcDbEntity
  8
仕上
  6
Continuous
 62
     7
370
     9
100
AcDbLine
 10
141.0588711093005
 20
-349.7801946560942
 30
0.0
 11
141.0588711093005
 21
25.22016259987774
 31
0.0
  0
LINE
  5
14C
330
1F
100
AcDbEntity
  8
仕上
  6
Continuous
 62
     2
370
     9
100
AcDbLine
 10
144.2588866155297
 20
38.22028184230678
 30
0.0
 11
144.2588866155297
 21
-362.7803138985225
 31
0.0
  0
LINE
  5
14D
330
1F
100
AcDbEntity
  8
仕上
  6
Continuous
 62
     7
370
     9
100
AcDbLine
 10
144.2588866155297
 20
-362.7803138985225
 30
0.0
 11
115.558676456641
 21
-362.7803138985225
 31
0.0
  0
LINE
  5
14E
330
1F
100
AcDbEntity
  8
仕上
  6
Continuous
 62
     7
370
     9
100
AcDbLine
 10
103.0586715078438
 20
35.72028184230666
 30
0.0
 11
103.0586715078438
 21
31.22034122786519
 31
0.0
  0
LINE
  5
14F
330
1F
100
AcDbEntity
  8
仕上
  6
Continuous
 62
     7
370
     9
100
AcDbLine
 10
119.0587490389889
 20
31.22034122786519
 30
0.0
 11
103.0586715078438
 21
31.22034122786519
 31
0.0
  0
LINE
  5
150
330
1F
100
AcDbEntity
  8
仕上
  6
Continuous
 62
     7
370
     9
100
AcDbLine
 10
119.0587490389889
 20
35.72028184230666
 30
0.0
 11
103.0586715078438
 21
35.72028184230666
 31
0.0
  0
LINE
  5
151
330
1F
100
AcDbEntity
  8
仕上
  6
Continuous
 62
     7
370
     9
100
AcDbLine
 10
119.0587490389875
 20
35.72028184230666
 30
0.0
 11
119.0587490389875
 21
31.22034122786519
 31
0.0
  0
LINE
  5
152
330
1F
100
AcDbEntity
  8
仕上
  6
Continuous
 62
     7
370
     9
100
AcDbLine
 10
144.2588866155297
 20
25.22016259987774
 30
0.0
 11
103.0586715078438
 21
25.22016259987774
 31
0.0
  0
LINE
  5
153
330
1F
100
AcDbEntity
  8
仕上
  6
Continuous
 62
     7
370
     9
100
AcDbLine
 10
141.0588711093005
 20
20.72022198543627
 30
0.0
 11
103.0586715078438
 21
20.72022198543627
 31
0.0
  0
LINE
  5
154
330
1F
100
AcDbEntity
  8
仕上
  6
Continuous
 62
     7
370
     9
100
AcDbLine
 10
125.2588486747576
 20
32.22023518222588
 30
0.0
 11
125.2588486747576
 21
25.22016259987774
 31
0.0
  0
LINE
  5
155
330
1F
100
AcDbEntity
  8
仕上
  6
Continuous
 62
     7
370
     9
100
AcDbLine
 10
112.058676456641
 20
31.2203412278628
 30
0.0
 11
112.058676456641
 21
25.22016259987774
 31
0.0
  0
LINE
  5
156
330
1F
100
AcDbEntity
  8
仕上
  6
Continuous
 62
     7
370
     9
100
AcDbLine
 10
115.558676456641
 20
38.22028184230678
 30
0.0
 11
115.558676456641
 21
35.72028184230666
 31
0.0
  0
LINE
  5
157
330
1F
100
AcDbEntity
  8
仕上
  6
Continuous
 62
     7
370
     9
100
AcDbLine
 10
144.2588866155297
 20
38.22028184230678
 30
0.0
 11
115.558676456641
 21
38.22028184230678
 31
0.0
  0
LINE
  5
158
330
1F
100
AcDbEntity
  8
仕上
  6
Continuous
 62
     7
370
     9
100
AcDbLine
 10
103.0586715078438
 20
-360.2803138985228
 30
0.0
 11
103.0586715078438
 21
-355.7803732840789
 31
0.0
  0
LINE
  5
159
330
1F
100
AcDbEntity
  8
仕上
  6
Continuous
 62
     7
370
     9
100
AcDbLine
 10
119.0587490389889
 20
-355.7803732840789
 30
0.0
 11
103.0586715078438
 21
-355.7803732840789
 31
0.0
  0
LINE
  5
15A
330
1F
100
AcDbEntity
  8
仕上
  6
Continuous
 62
     7
370
     9
100
AcDbLine
 10
119.0587490389889
 20
-360.2803138985228
 30
0.0
 11
103.0586715078438
 21
-360.2803138985228
 31
0.0
  0
LINE
  5
15B
330
1F
100
AcDbEntity
  8
仕上
  6
Continuous
 62
     7
370
     9
100
AcDbLine
 10
119.0587490389889
 20
-360.2803138985228
 30
0.0
 11
119.0587490389889
 21
-355.7803732840789
 31
0.0
  0
LINE
  5
15C
330
1F
100
AcDbEntity
  8
仕上
  6
Continuous
 62
     7
370
     9
100
AcDbLine
 10
144.2588866155297
 20
-349.7801946560942
 30
0.0
 11
103.0586715078438
 21
-349.7801946560942
 31
0.0
  0
LINE
  5
15D
330
1F
100
AcDbEntity
  8
仕上
  6
Continuous
 62
     7
370
     9
100
AcDbLine
 10
141.0588711093005
 20
-345.2802540416503
 30
0.0
 11
103.0586715078438
 21
-345.2802540416503
 31
0.0
  0
LINE
  5
15E
330
1F
100
AcDbEntity
  8
仕上
  6
Continuous
 62
     7
370
     9
100
AcDbLine
 10
125.2588486747576
 20
-356.7802672384416
 30
0.0
 11
125.2588486747576
 21
-349.7801946560942
 31
0.0
  0
LINE
  5
15F
330
1F
100
AcDbEntity
  8
仕上
  6
Continuous
 62
     7
370
     9
100
AcDbLine
 10
112.058676456641
 20
-355.7803732840789
 30
0.0
 11
112.058676456641
 21
-349.7801946560942
 31
0.0
  0
LINE
  5
160
330
1F
100
AcDbEntity
  8
仕上
  6
Continuous
 62
     7
370
     9
100
AcDbLine
 10
115.558676456641
 20
-362.7803138985225
 30
0.0
 11
115.558676456641
 21
-360.2803138985228
 31
0.0
  0
LINE
  5
161
330
1F
100
AcDbEntity
  8
仕上
  6
Continuous
 62
     7
370
     9
100
AcDbLine
 10
103.0586715078438
 20
-349.7801946560942
 30
0.0
 11
103.0586715078438
 21
25.22016259987774
 31
0.0
  0
LINE
  5
162
330
1F
100
AcDbEntity
  8
仕上
  6
Continuous
 62
     7
370
     9
100
AcDbLine
 10
144.2588866155297
 20
32.22023518222588
 30
0.0
 11
125.2588486747576
 21
32.22023518222588
 31
0.0
  0
LINE
  5
163
330
1F
100
AcDbEntity
  8
仕上
  6
Continuous
 62
     7
370
     9
100
AcDbLine
 10
144.2588866155297
 20
-356.7802672384416
 30
0.0
 11
125.2588486747576
 21
-356.7802672384416
 31
0.0
  0
LINE
  5
164
330
1F
100
AcDbEntity
  8
仕上
  6
Continuous
 62
     2
370
     9
100
AcDbLine
 10
182.2589624970755
 20
-358.280075413664
 30
0.0
 11
182.2589624970755
 21
33.72004335744995
 31
0.0
  0
LINE
  5
165
330
1F
100
AcDbEntity
  8
仕上
  6
Continuous
 62
     2
370
     9
100
AcDbLine
 10
182.2589624970755
 20
33.72004335744995
 30
0.0
 11
144.2588866155297
 21
33.72004335744995
 31
0.0
  0
LINE
  5
166
330
1F
100
AcDbEntity
  8
仕上
  6
Continuous
 62
     2
370
     9
100
AcDbLine
 10
176.2589179579067
 20
38.22028184230678
 30
0.0
 11
176.2589179579067
 21
33.72004335744995
 31
0.0
  0
LINE
  5
167
330
1F
100
AcDbEntity
  8
仕上
  6
Continuous
 62
     2
370
     9
100
AcDbLine
 10
144.2588866155297
 20
38.22028184230678
 30
0.0
 11
176.2589179579067
 21
38.22028184230678
 31
0.0
  0
LINE
  5
168
330
1F
100
AcDbEntity
  8
仕上
  6
Continuous
 62
     2
370
     9
100
AcDbLine
 10
182.2589624970755
 20
-358.280075413664
 30
0.0
 11
144.2588866155297
 21
-358.280075413664
 31
0.0
  0
LINE
  5
169
330
1F
100
AcDbEntity
  8
仕上
  6
Continuous
 62
     2
370
     9
100
AcDbLine
 10
176.2589179579067
 20
-362.7803138985225
 30
0.0
 11
176.2589179579067
 21
-358.280075413664
 31
0.0
  0
LINE
  5
16A
330
1F
100
AcDbEntity
  8
仕上
  6
Continuous
 62
     2
370
     9
100
AcDbLine
 10
144.2588866155297
 20
-362.7803138985225
 30
0.0
 11
176.2589179579067
 21
-362.7803138985225
 31
0.0
  0
LINE
  5
16B
330
1F
100
AcDbEntity
  8
通り芯
  6
JWW_CENTER2
 62
     7
370
     9
100
AcDbLine
 10
95.97982205335614
 20
-162.280016028108
 30
0.0
 11
181.3658780297732
 21
-162.280016028108
 31
0.0
  0
LINE
  5
16C
330
1F
100
AcDbEntity
  8
その他
  6
Continuous
 62
     7
370
     9
100
AcDbLine
 10
255.0075919414066
 20
47.72000871587531
 30
0.0
 11
255.0075919414066
 21
-12.27999128412472
 31
0.0
  0
LWPOLYLINE
  5
16D
330
1F
100
AcDbEntity
  8
その他
  6
Continuous
 62
     7
370
     9
100
AcDbPolyline
 90
        4
 70
     1
 43
0.4
 10
255.2075919414066
 20
47.72000871587531
 42
0.4142135623731
 10
255.0075919414066
 20
47.92000871587531
 42
0.4142135623731
 10
254.8075919414066
 20
47.72000871587531
 42
0.4142135623731
 10
255.0075919414066
 20
47.52000871587531
 42
0.4142135623731
  0
LWPOLYLINE
  5
16E
330
1F
100
AcDbEntity
  8
その他
  6
Continuous
 62
     7
370
     9
100
AcDbPolyline
 90
        4
 70
     1
 43
0.4
 10
255.2075919414066
 20
-12.27999128412472
 42
0.4142135623731
 10
255.0075919414066
 20
-12.07999128412472
 42
0.4142135623731
 10
254.8075919414066
 20
-12.27999128412472
 42
0.4142135623731
 10
255.0075919414066
 20
-12.47999128412472
 42
0.4142135623731
  0
LINE
  5
16F
330
1F
100
AcDbEntity
  8
その他
  6
Continuous
 62
     7
370
     9
100
AcDbLine
 10
256.2075919414064
 20
-12.27999128412472
 30
0.0
 11
196.2589822922614
 21
-12.27999128412472
 31
0.0
  0
TEXT
  5
170
330
1F
100
AcDbEntity
  8
その他
  6
Continuous
 62
     2
370
   211
100
AcDbText
 10
250.3515919414065
 20
9.22000871587531
 30
0.0
 40
12.192
  1
60
 50
90.0
 41
1.0625
  7
ＭＳ ゴシック
100
AcDbText
  0
LINE
  5
171
330
1F
100
AcDbEntity
  8
その他
  6
Continuous
 62
     7
370
     9
100
AcDbLine
 10
255.0075919414066
 20
-12.27999128412472
 30
0.0
 11
255.0075919414066
 21
-312.2800407720894
 31
0.0
  0
LWPOLYLINE
  5
172
330
1F
100
AcDbEntity
  8
その他
  6
Continuous
 62
     7
370
     9
100
AcDbPolyline
 90
        4
 70
     1
 43
0.4
 10
255.2075919414066
 20
-312.2800407720894
 42
0.4142135623731
 10
255.0075919414066
 20
-312.0800407720894
 42
0.4142135623731
 10
254.8075919414066
 20
-312.2800407720894
 42
0.4142135623731
 10
255.0075919414066
 20
-312.4800407720894
 42
0.4142135623731
  0
LINE
  5
173
330
1F
100
AcDbEntity
  8
その他
  6
Continuous
 62
     7
370
     9
100
AcDbLine
 10
256.2075919414064
 20
-312.2800407720894
 30
0.0
 11
196.2589822922614
 21
-312.2800407720894
 31
0.0
  0
LINE
  5
174
330
1F
100
AcDbEntity
  8
その他
  6
Continuous
 62
     7
370
     9
100
AcDbLine
 10
255.0075919414066
 20
-312.2800407720894
 30
0.0
 11
255.0075919414066
 21
-372.2799912841248
 31
0.0
  0
LWPOLYLINE
  5
175
330
1F
100
AcDbEntity
  8
その他
  6
Continuous
 62
     7
370
     9
100
AcDbPolyline
 90
        4
 70
     1
 43
0.4
 10
255.2075919414066
 20
-372.2799912841248
 42
0.4142135623731
 10
255.0075919414066
 20
-372.0799912841248
 42
0.4142135623731
 10
254.8075919414066
 20
-372.2799912841248
 42
0.4142135623731
 10
255.0075919414066
 20
-372.4799912841248
 42
0.4142135623731
  0
TEXT
  5
176
330
1F
100
AcDbEntity
  8
その他
  6
Continuous
 62
     2
370
   211
100
AcDbText
 10
250.3515919414065
 20
-350.7800160281071
 30
0.0
 40
12.192
  1
60
 50
90.0
 41
1.0625
  7
ＭＳ ゴシック
100
AcDbText
  0
LINE
  5
177
330
1F
100
AcDbEntity
  8
その他
  6
Continuous
 62
     7
370
     9
100
AcDbLine
 10
256.2075919414064
 20
-372.2799912841248
 30
0.0
 11
196.2589822922614
 21
-372.2799912841248
 31
0.0
  0
LINE
  5
178
330
1F
100
AcDbEntity
  8
その他
  6
Continuous
 62
     7
370
     9
100
AcDbLine
 10
256.2075919414064
 20
47.72000871587531
 30
0.0
 11
196.2589822922614
 21
47.72000871587531
 31
0.0
  0
TEXT
  5
179
330
1F
100
AcDbEntity
  8
その他
  6
Continuous
 62
     2
370
   211
100
AcDbText
 10
250.3515919414065
 20
-184.280016028107
 30
0.0
 40
12.192
  1
□300
 50
90.0
 41
1.100000000000001
  7
ＭＳ ゴシック
100
AcDbText
  0
LINE
  5
17A
330
1F
100
AcDbEntity
  8
その他
  6
Continuous
 62
     7
370
     9
100
AcDbLine
 10
103.0586715078438
 20
-212.5496032888746
 30
0.0
 11
131.0588711093005
 21
-212.5496032888746
 31
0.0
  0
LWPOLYLINE
  5
17B
330
1F
100
AcDbEntity
  8
その他
  6
Continuous
 62
     7
370
     9
100
AcDbPolyline
 90
        4
 70
     1
 43
0.4
 10
103.2586715078438
 20
-212.5496032888746
 42
0.4142135623731
 10
103.0586715078438
 20
-212.3496032888746
 42
0.4142135623731
 10
102.8586715078438
 20
-212.5496032888746
 42
0.4142135623731
 10
103.0586715078438
 20
-212.7496032888746
 42
0.4142135623731
  0
LWPOLYLINE
  5
17C
330
1F
100
AcDbEntity
  8
その他
  6
Continuous
 62
     7
370
     9
100
AcDbPolyline
 90
        4
 70
     1
 43
0.4
 10
131.2588711093005
 20
-212.5496032888746
 42
0.4142135623731
 10
131.0588711093005
 20
-212.3496032888746
 42
0.4142135623731
 10
130.8588711093005
 20
-212.5496032888746
 42
0.4142135623731
 10
131.0588711093005
 20
-212.7496032888746
 42
0.4142135623731
  0
LINE
  5
17D
330
1F
100
AcDbEntity
  8
その他
  6
Continuous
 62
     7
370
     9
100
AcDbLine
 10
131.0588711093005
 20
-213.7496032888747
 30
0.0
 11
131.0588711093005
 21
-193.3684732962282
 31
0.0
  0
TEXT
  5
17E
330
1F
100
AcDbEntity
  8
その他
  6
Continuous
 62
     2
370
   211
100
AcDbText
 10
108.5587713085724
 20
-207.8936032888747
 30
0.0
 40
12.192
  1
28
 41
1.0625
  7
ＭＳ ゴシック
100
AcDbText
  0
LINE
  5
17F
330
1F
100
AcDbEntity
  8
その他
  6
Continuous
 62
     7
370
     9
100
AcDbLine
 10
103.0586715078438
 20
-241.8559719246739
 30
0.0
 11
141.0588711093005
 21
-241.8559719246739
 31
0.0
  0
LWPOLYLINE
  5
180
330
1F
100
AcDbEntity
  8
その他
  6
Continuous
 62
     7
370
     9
100
AcDbPolyline
 90
        4
 70
     1
 43
0.4
 10
103.2586715078438
 20
-241.8559719246739
 42
0.4142135623731
 10
103.0586715078438
 20
-241.6559719246739
 42
0.4142135623731
 10
102.8586715078438
 20
-241.8559719246739
 42
0.4142135623731
 10
103.0586715078438
 20
-242.0559719246739
 42
0.4142135623731
  0
LWPOLYLINE
  5
181
330
1F
100
AcDbEntity
  8
その他
  6
Continuous
 62
     7
370
     9
100
AcDbPolyline
 90
        4
 70
     1
 43
0.4
 10
141.2588711093005
 20
-241.8559719246739
 42
0.4142135623731
 10
141.0588711093005
 20
-241.6559719246739
 42
0.4142135623731
 10
140.8588711093005
 20
-241.8559719246739
 42
0.4142135623731
 10
141.0588711093005
 20
-242.0559719246739
 42
0.4142135623731
  0
TEXT
  5
182
330
1F
100
AcDbEntity
  8
その他
  6
Continuous
 62
     2
370
   211
100
AcDbText
 10
113.5587713085724
 20
-237.1999719246739
 30
0.0
 40
12.192
  1
38
 41
1.0625
  7
ＭＳ ゴシック
100
AcDbText
  0
LINE
  5
183
330
1F
100
AcDbEntity
  8
その他
  6
Continuous
 62
     7
370
     9
100
AcDbLine
 10
141.0588711093005
 20
-241.8559719246739
 30
0.0
 11
144.2588866155297
 21
-241.8559719246739
 31
0.0
  0
LWPOLYLINE
  5
184
330
1F
100
AcDbEntity
  8
その他
  6
Continuous
 62
     7
370
     9
100
AcDbPolyline
 90
        4
 70
     1
 43
0.4
 10
144.4588866155297
 20
-241.8559719246739
 42
0.4142135623731
 10
144.2588866155297
 20
-241.6559719246739
 42
0.4142135623731
 10
144.0588866155297
 20
-241.8559719246739
 42
0.4142135623731
 10
144.2588866155297
 20
-242.0559719246739
 42
0.4142135623731
  0
LINE
  5
185
330
1F
100
AcDbEntity
  8
その他
  6
Continuous
 62
     7
370
     9
100
AcDbLine
 10
144.2588866155297
 20
-241.8559719246739
 30
0.0
 11
182.2589624970755
 21
-241.8559719246739
 31
0.0
  0
LWPOLYLINE
  5
186
330
1F
100
AcDbEntity
  8
その他
  6
Continuous
 62
     7
370
     9
100
AcDbPolyline
 90
        4
 70
     1
 43
0.4
 10
182.4589624970755
 20
-241.8559719246739
 42
0.4142135623731
 10
182.2589624970755
 20
-241.6559719246739
 42
0.4142135623731
 10
182.0589624970755
 20
-241.8559719246739
 42
0.4142135623731
 10
182.2589624970755
 20
-242.0559719246739
 42
0.4142135623731
  0
TEXT
  5
187
330
1F
100
AcDbEntity
  8
その他
  6
Continuous
 62
     2
370
   211
100
AcDbText
 10
154.7589245563026
 20
-237.1999719246739
 30
0.0
 40
12.192
  1
38
 41
1.0625
  7
ＭＳ ゴシック
100
AcDbText
  0
TEXT
  5
188
330
1F
100
AcDbEntity
  8
その他
  6
Continuous
 62
     2
370
   211
100
AcDbText
 10
149.6014657513528
 20
-214.7640663011153
 30
0.0
 40
12.192
  1
3.2
 41
1.083333333333333
  7
ＭＳ ゴシック
100
AcDbText
  0
LINE
  5
189
330
1F
100
AcDbEntity
  8
その他
  6
Continuous
 62
     7
370
     9
100
AcDbLine
 10
142.6588788624153
 20
-241.8559719246739
 30
0.0
 11
148.0605029329376
 21
-219.492618683194
 31
0.0
  0
LINE
  5
18A
330
1F
100
AcDbEntity
  8
その他
  6
Continuous
 62
     7
370
     9
100
AcDbLine
 10
148.0605029329376
 20
-219.492618683194
 30
0.0
 11
177.6133909282593
 21
-219.492618683194
 31
0.0
  0
LWPOLYLINE
  5
18B
330
1F
100
AcDbEntity
  8
その他
  6
Continuous
 62
     7
370
     9
100
AcDbPolyline
 90
        4
 70
     1
 43
0.4
 10
73.66816001346992
 20
-360.2803138985228
 42
0.4142135623731
 10
73.46816001346991
 20
-360.0803138985228
 42
0.4142135623731
 10
73.26816001346991
 20
-360.2803138985228
 42
0.4142135623731
 10
73.46816001346991
 20
-360.4803138985228
 42
0.4142135623731
  0
LINE
  5
18C
330
1F
100
AcDbEntity
  8
その他
  6
Continuous
 62
     7
370
     9
100
AcDbLine
 10
72.26816001346964
 20
-360.2803138985228
 30
0.0
 11
95.05867150784383
 21
-360.2803138985228
 31
0.0
  0
LINE
  5
18D
330
1F
100
AcDbEntity
  8
その他
  6
Continuous
 62
     7
370
     9
100
AcDbLine
 10
73.46816001346991
 20
-360.2803138985228
 30
0.0
 11
73.46816001346991
 21
-355.7803732840789
 31
0.0
  0
LWPOLYLINE
  5
18E
330
1F
100
AcDbEntity
  8
その他
  6
Continuous
 62
     7
370
     9
100
AcDbPolyline
 90
        4
 70
     1
 43
0.4
 10
73.66816001346992
 20
-355.7803732840789
 42
0.4142135623731
 10
73.46816001346991
 20
-355.5803732840789
 42
0.4142135623731
 10
73.26816001346991
 20
-355.7803732840789
 42
0.4142135623731
 10
73.46816001346991
 20
-355.9803732840789
 42
0.4142135623731
  0
LINE
  5
18F
330
1F
100
AcDbEntity
  8
その他
  6
Continuous
 62
     7
370
     9
100
AcDbLine
 10
72.26816001346964
 20
-355.7803732840789
 30
0.0
 11
95.05867150784383
 21
-355.7803732840789
 31
0.0
  0
LINE
  5
190
330
1F
100
AcDbEntity
  8
その他
  6
Continuous
 62
     7
370
     9
100
AcDbLine
 10
73.46816001346991
 20
-355.7803732840789
 30
0.0
 11
73.46816001346991
 21
-349.7801946560942
 31
0.0
  0
LWPOLYLINE
  5
191
330
1F
100
AcDbEntity
  8
その他
  6
Continuous
 62
     7
370
     9
100
AcDbPolyline
 90
        4
 70
     1
 43
0.4
 10
73.66816001346992
 20
-349.7801946560942
 42
0.4142135623731
 10
73.46816001346991
 20
-349.5801946560942
 42
0.4142135623731
 10
73.26816001346991
 20
-349.7801946560942
 42
0.4142135623731
 10
73.46816001346991
 20
-349.9801946560942
 42
0.4142135623731
  0
LINE
  5
192
330
1F
100
AcDbEntity
  8
その他
  6
Continuous
 62
     7
370
     9
100
AcDbLine
 10
72.26816001346964
 20
-349.7801946560942
 30
0.0
 11
95.05867150784383
 21
-349.7801946560942
 31
0.0
  0
TEXT
  5
193
330
1F
100
AcDbEntity
  8
その他
  6
Continuous
 62
     2
370
   211
100
AcDbText
 10
68.81216001346982
 20
-344.8858100240628
 30
0.0
 40
12.192
  1
6
 50
90.0
  7
ＭＳ ゴシック
100
AcDbText
  0
LINE
  5
194
330
1F
100
AcDbEntity
  8
その他
  6
Continuous
 62
     7
370
     9
100
AcDbLine
 10
73.46816001346991
 20
-349.7801946560942
 30
0.0
 11
73.46816001346991
 21
-335.1048517318853
 31
0.0
  0
LINE
  5
195
330
1F
100
AcDbEntity
  8
その他
  6
Continuous
 62
     7
370
     9
100
AcDbLine
 10
-59.96248907095202
 20
47.72000871587531
 30
0.0
 11
-59.96248907095202
 21
-372.2799912841248
 31
0.0
  0
LWPOLYLINE
  5
196
330
1F
100
AcDbEntity
  8
その他
  6
Continuous
 62
     7
370
     9
100
AcDbPolyline
 90
        4
 70
     1
 43
0.4
 10
-59.76248907095201
 20
47.72000871587531
 42
0.4142135623731
 10
-59.96248907095202
 20
47.92000871587531
 42
0.4142135623731
 10
-60.16248907095202
 20
47.72000871587531
 42
0.4142135623731
 10
-59.96248907095202
 20
47.52000871587531
 42
0.4142135623731
  0
LWPOLYLINE
  5
197
330
1F
100
AcDbEntity
  8
その他
  6
Continuous
 62
     7
370
     9
100
AcDbPolyline
 90
        4
 70
     1
 43
0.4
 10
-59.76248907095201
 20
-372.2799912841248
 42
0.4142135623731
 10
-59.96248907095202
 20
-372.0799912841248
 42
0.4142135623731
 10
-60.16248907095202
 20
-372.2799912841248
 42
0.4142135623731
 10
-59.96248907095202
 20
-372.4799912841248
 42
0.4142135623731
  0
LINE
  5
198
330
1F
100
AcDbEntity
  8
その他
  6
Continuous
 62
     7
370
     9
100
AcDbLine
 10
-61.16248907095184
 20
47.72000871587531
 30
0.0
 11
95.05901792359549
 21
47.72000871587531
 31
0.0
  0
LINE
  5
199
330
1F
100
AcDbEntity
  8
その他
  6
Continuous
 62
     7
370
     9
100
AcDbLine
 10
-23.30469237057929
 20
-372.2799912841248
 30
0.0
 11
-23.30469237057929
 21
-366.2801199528325
 31
0.0
  0
LWPOLYLINE
  5
19A
330
1F
100
AcDbEntity
  8
その他
  6
Continuous
 62
     7
370
     9
100
AcDbPolyline
 90
        4
 70
     1
 43
0.4
 10
-23.10469237057929
 20
-372.2799912841248
 42
0.4142135623731
 10
-23.30469237057929
 20
-372.0799912841248
 42
0.4142135623731
 10
-23.50469237057929
 20
-372.2799912841248
 42
0.4142135623731
 10
-23.30469237057929
 20
-372.4799912841248
 42
0.4142135623731
  0
LWPOLYLINE
  5
19B
330
1F
100
AcDbEntity
  8
その他
  6
Continuous
 62
     7
370
     9
100
AcDbPolyline
 90
        4
 70
     1
 43
0.4
 10
-23.10469237057929
 20
-366.2801199528325
 42
0.4142135623731
 10
-23.30469237057929
 20
-366.0801199528325
 42
0.4142135623731
 10
-23.50469237057929
 20
-366.2801199528325
 42
0.4142135623731
 10
-23.30469237057929
 20
-366.4801199528325
 42
0.4142135623731
  0
LINE
  5
19C
330
1F
100
AcDbEntity
  8
その他
  6
Continuous
 62
     7
370
     9
100
AcDbLine
 10
-23.30469237057929
 20
-366.2801199528325
 30
0.0
 11
-23.30469237057929
 21
-362.7803138985224
 31
0.0
  0
LWPOLYLINE
  5
19D
330
1F
100
AcDbEntity
  8
その他
  6
Continuous
 62
     7
370
     9
100
AcDbPolyline
 90
        4
 70
     1
 43
0.4
 10
-23.10469237057929
 20
-362.7803138985224
 42
0.4142135623731
 10
-23.30469237057929
 20
-362.5803138985224
 42
0.4142135623731
 10
-23.50469237057929
 20
-362.7803138985224
 42
0.4142135623731
 10
-23.30469237057929
 20
-362.9803138985224
 42
0.4142135623731
  0
LINE
  5
19E
330
1F
100
AcDbEntity
  8
その他
  6
Continuous
 62
     7
370
     9
100
AcDbLine
 10
-23.30469237057929
 20
-362.7803138985224
 30
0.0
 11
-23.30469237057929
 21
38.22028184230678
 31
0.0
  0
LWPOLYLINE
  5
19F
330
1F
100
AcDbEntity
  8
その他
  6
Continuous
 62
     7
370
     9
100
AcDbPolyline
 90
        4
 70
     1
 43
0.4
 10
-23.10469237057929
 20
38.22028184230678
 42
0.4142135623731
 10
-23.30469237057929
 20
38.42028184230678
 42
0.4142135623731
 10
-23.50469237057929
 20
38.22028184230678
 42
0.4142135623731
 10
-23.30469237057929
 20
38.02028184230677
 42
0.4142135623731
  0
TEXT
  5
1A0
330
1F
100
AcDbEntity
  8
その他
  6
Continuous
 62
     2
370
   211
100
AcDbText
 10
-27.96069237057938
 20
-175.2800160281078
 30
0.0
 40
12.192
  1
401
 50
90.0
 41
1.083333333333332
  7
ＭＳ ゴシック
100
AcDbText
  0
LINE
  5
1A1
330
1F
100
AcDbEntity
  8
その他
  6
Continuous
 62
     7
370
     9
100
AcDbLine
 10
-23.30469237057929
 20
38.22028184230678
 30
0.0
 11
-23.30469237057929
 21
41.72008789661854
 31
0.0
  0
LWPOLYLINE
  5
1A2
330
1F
100
AcDbEntity
  8
その他
  6
Continuous
 62
     7
370
     9
100
AcDbPolyline
 90
        4
 70
     1
 43
0.4
 10
-23.10469237057929
 20
41.72008789661854
 42
0.4142135623731
 10
-23.30469237057929
 20
41.92008789661854
 42
0.4142135623731
 10
-23.50469237057929
 20
41.72008789661854
 42
0.4142135623731
 10
-23.30469237057929
 20
41.52008789661853
 42
0.4142135623731
  0
LINE
  5
1A3
330
1F
100
AcDbEntity
  8
その他
  6
Continuous
 62
     7
370
     9
100
AcDbLine
 10
-24.50469237057956
 20
41.72008789661854
 30
0.0
 11
95.05901792359549
 21
41.72008789661854
 31
0.0
  0
LINE
  5
1A4
330
1F
100
AcDbEntity
  8
その他
  6
Continuous
 62
     7
370
     9
100
AcDbLine
 10
-23.30469237057929
 20
41.72008789661854
 30
0.0
 11
-23.30469237057929
 21
47.72000871587531
 31
0.0
  0
LWPOLYLINE
  5
1A5
330
1F
100
AcDbEntity
  8
その他
  6
Continuous
 62
     7
370
     9
100
AcDbPolyline
 90
        4
 70
     1
 43
0.4
 10
-23.10469237057929
 20
47.72000871587531
 42
0.4142135623731
 10
-23.30469237057929
 20
47.92000871587531
 42
0.4142135623731
 10
-23.50469237057929
 20
47.72000871587531
 42
0.4142135623731
 10
-23.30469237057929
 20
47.52000871587531
 42
0.4142135623731
  0
LINE
  5
1A6
330
1F
100
AcDbEntity
  8
その他
  6
Continuous
 62
     7
370
     9
100
AcDbLine
 10
9.324168528637472
 20
-345.2802540416503
 30
0.0
 11
9.324168528637472
 21
20.72022198543627
 31
0.0
  0
LWPOLYLINE
  5
1A7
330
1F
100
AcDbEntity
  8
その他
  6
Continuous
 62
     7
370
     9
100
AcDbPolyline
 90
        4
 70
     1
 43
0.4
 10
9.524168528637471
 20
-345.2802540416503
 42
0.4142135623731
 10
9.324168528637472
 20
-345.0802540416503
 42
0.4142135623731
 10
9.124168528637473
 20
-345.2802540416503
 42
0.4142135623731
 10
9.324168528637472
 20
-345.4802540416503
 42
0.4142135623731
  0
LWPOLYLINE
  5
1A8
330
1F
100
AcDbEntity
  8
その他
  6
Continuous
 62
     7
370
     9
100
AcDbPolyline
 90
        4
 70
     1
 43
0.4
 10
9.524168528637471
 20
20.72022198543627
 42
0.4142135623731
 10
9.324168528637472
 20
20.92022198543627
 42
0.4142135623731
 10
9.124168528637473
 20
20.72022198543627
 42
0.4142135623731
 10
9.324168528637472
 20
20.52022198543627
 42
0.4142135623731
  0
LINE
  5
1A9
330
1F
100
AcDbEntity
  8
その他
  6
Continuous
 62
     7
370
     9
100
AcDbLine
 10
8.124168528637654
 20
20.72022198543627
 30
0.0
 11
95.05867150784383
 21
20.72022198543627
 31
0.0
  0
TEXT
  5
1AA
330
1F
100
AcDbEntity
  8
その他
  6
Continuous
 62
     2
370
   211
100
AcDbText
 10
4.668168528637381
 20
-175.280016028107
 30
0.0
 40
12.192
  1
366
 50
90.0
 41
1.083333333333335
  7
ＭＳ ゴシック
100
AcDbText
  0
LINE
  5
1AB
330
1F
100
AcDbEntity
  8
その他
  6
Continuous
 62
     7
370
     9
100
AcDbLine
 10
8.124168528637654
 20
-345.2802540416503
 30
0.0
 11
26.18406026394581
 21
-345.2802540416503
 31
0.0
  0
LINE
  5
1AC
330
1F
100
AcDbEntity
  8
その他
  6
Continuous
 62
     7
370
     9
100
AcDbLine
 10
-24.50469237057956
 20
-362.7803138985224
 30
0.0
 11
26.18406026394581
 21
-362.7803138985224
 31
0.0
  0
LINE
  5
1AD
330
1F
100
AcDbEntity
  8
その他
  6
Continuous
 62
     7
370
     9
100
AcDbLine
 10
-24.50469237057956
 20
-366.2801199528325
 30
0.0
 11
26.18406026394581
 21
-366.2801199528325
 31
0.0
  0
LINE
  5
1AE
330
1F
100
AcDbEntity
  8
その他
  6
Continuous
 62
     7
370
     9
100
AcDbLine
 10
-61.16248907095184
 20
-372.2799912841248
 30
0.0
 11
26.18406026394581
 21
-372.2799912841248
 31
0.0
  0
TEXT
  5
1AF
330
1F
100
AcDbEntity
  8
その他
  6
Continuous
 62
     2
370
   211
100
AcDbText
 10
-27.96069237057938
 20
52.72625814322427
 30
0.0
 40
12.192
  1
6
 50
90.0
  7
ＭＳ ゴシック
100
AcDbText
  0
TEXT
  5
1B0
330
1F
100
AcDbEntity
  8
その他
  6
Continuous
 62
     2
370
   211
100
AcDbText
 10
-27.96069237057938
 20
14.64674418311196
 30
0.0
 40
12.192
  1
3.5
 50
90.0
 41
1.083333333333333
  7
ＭＳ ゴシック
100
AcDbText
  0
LINE
  5
1B1
330
1F
100
AcDbEntity
  8
その他
  6
Continuous
 62
     7
370
     9
100
AcDbLine
 10
-23.30469237057929
 20
47.72000871587531
 30
0.0
 11
-23.30469237057929
 21
66.25684175274122
 31
0.0
  0
TEXT
  5
1B2
330
1F
100
AcDbEntity
  8
その他
  6
Continuous
 62
     2
370
   211
100
AcDbText
 10
-27.96069237057938
 20
-386.3431274980423
 30
0.0
 40
12.192
  1
6
 50
90.0
  7
ＭＳ ゴシック
100
AcDbText
  0
TEXT
  5
1B3
330
1F
100
AcDbEntity
  8
その他
  6
Continuous
 62
     2
370
   211
100
AcDbText
 10
-27.96069237057938
 20
-363.9614043592569
 30
0.0
 40
12.192
  1
3.5
 50
90.0
 41
1.083333333333333
  7
ＭＳ ゴシック
100
AcDbText
  0
LINE
  5
1B4
330
1F
100
AcDbEntity
  8
その他
  6
Continuous
 62
     7
370
     9
100
AcDbLine
 10
-23.30469237057929
 20
-372.2799912841248
 30
0.0
 11
-23.30469237057929
 21
-399.620705405913
 31
0.0
  0
LINE
  5
1B5
330
1F
100
AcDbEntity
  8
その他
  6
Continuous
 62
     7
370
     9
100
AcDbLine
 10
103.0590179235955
 20
142.5327121884501
 30
0.0
 11
188.2589822922614
 21
142.5327121884501
 31
0.0
  0
LWPOLYLINE
  5
1B6
330
1F
100
AcDbEntity
  8
その他
  6
Continuous
 62
     7
370
     9
100
AcDbPolyline
 90
        4
 70
     1
 43
0.4
 10
103.2590179235955
 20
142.5327121884501
 42
0.4142135623731
 10
103.0590179235955
 20
142.7327121884501
 42
0.4142135623731
 10
102.8590179235955
 20
142.5327121884501
 42
0.4142135623731
 10
103.0590179235955
 20
142.3327121884501
 42
0.4142135623731
  0
LWPOLYLINE
  5
1B7
330
1F
100
AcDbEntity
  8
その他
  6
Continuous
 62
     7
370
     9
100
AcDbPolyline
 90
        4
 70
     1
 43
0.4
 10
188.4589822922613
 20
142.5327121884501
 42
0.4142135623731
 10
188.2589822922614
 20
142.7327121884501
 42
0.4142135623731
 10
188.0589822922614
 20
142.5327121884501
 42
0.4142135623731
 10
188.2589822922614
 20
142.3327121884501
 42
0.4142135623731
  0
LINE
  5
1B8
330
1F
100
AcDbEntity
  8
その他
  6
Continuous
 62
     7
370
     9
100
AcDbLine
 10
103.0590179235955
 20
143.7327121884501
 30
0.0
 11
103.0590179235955
 21
55.72000871587531
 31
0.0
  0
TEXT
  5
1B9
330
1F
100
AcDbEntity
  8
その他
  6
Continuous
 62
     2
370
   211
100
AcDbText
 10
128.1590001079284
 20
147.18871218845
 30
0.0
 40
12.192
  1
85.2
 41
1.09375
  7
ＭＳ ゴシック
100
AcDbText
  0
LINE
  5
1BA
330
1F
100
AcDbEntity
  8
その他
  6
Continuous
 62
     7
370
     9
100
AcDbLine
 10
103.0590179235955
 20
109.1532550303873
 30
0.0
 11
182.2589624970755
 21
109.1532550303873
 31
0.0
  0
LWPOLYLINE
  5
1BB
330
1F
100
AcDbEntity
  8
その他
  6
Continuous
 62
     7
370
     9
100
AcDbPolyline
 90
        4
 70
     1
 43
0.4
 10
103.2590179235955
 20
109.1532550303873
 42
0.4142135623731
 10
103.0590179235955
 20
109.3532550303873
 42
0.4142135623731
 10
102.8590179235955
 20
109.1532550303873
 42
0.4142135623731
 10
103.0590179235955
 20
108.9532550303873
 42
0.4142135623731
  0
LWPOLYLINE
  5
1BC
330
1F
100
AcDbEntity
  8
その他
  6
Continuous
 62
     7
370
     9
100
AcDbPolyline
 90
        4
 70
     1
 43
0.4
 10
182.4589624970755
 20
109.1532550303873
 42
0.4142135623731
 10
182.2589624970755
 20
109.3532550303873
 42
0.4142135623731
 10
182.0589624970755
 20
109.1532550303873
 42
0.4142135623731
 10
182.2589624970755
 20
108.9532550303873
 42
0.4142135623731
  0
TEXT
  5
1BD
330
1F
100
AcDbEntity
  8
その他
  6
Continuous
 62
     2
370
   211
100
AcDbText
 10
125.1589902103355
 20
113.8092550303872
 30
0.0
 40
12.192
  1
79.2
 41
1.09375
  7
ＭＳ ゴシック
100
AcDbText
  0
LINE
  5
1BE
330
1F
100
AcDbEntity
  8
その他
  6
Continuous
 62
     7
370
     9
100
AcDbLine
 10
182.2589624970755
 20
110.3532550303873
 30
0.0
 11
182.2589624970755
 21
66.83287184784339
 31
0.0
  0
LINE
  5
1BF
330
1F
100
AcDbEntity
  8
その他
  6
Continuous
 62
     7
370
     9
100
AcDbLine
 10
188.2589822922614
 20
143.7327121884501
 30
0.0
 11
188.2589822922614
 21
66.83287184784339
 31
0.0
  0
TEXT
  5
1C0
330
1F
100
AcDbEntity
  8
その他
  6
Continuous
 62
     2
370
   211
100
AcDbText
 10
-64.61848907095211
 20
-184.2799912841247
 30
0.0
 40
12.192
  1
□420
 50
90.0
 41
1.100000000000001
  7
ＭＳ ゴシック
100
AcDbText
  0
LWPOLYLINE
  5
1C1
330
1F
100
AcDbEntity
  8
その他
  6
Continuous
 62
     7
370
     9
100
AcDbPolyline
 90
        4
 70
     1
 43
0.4
 10
-783.3396340378006
 20
96.2655663245919
 42
0.4142135623731
 10
-783.5396340378006
 20
96.4655663245919
 42
0.4142135623731
 10
-783.7396340378007
 20
96.2655663245919
 42
0.4142135623731
 10
-783.5396340378006
 20
96.0655663245919
 42
0.4142135623731
  0
LINE
  5
1C2
330
1F
100
AcDbEntity
  8
その他
  6
Continuous
 62
     7
370
     9
100
AcDbLine
 10
-783.5396340378006
 20
97.46556632459189
 30
0.0
 11
-783.5396340378006
 21
55.72000871587531
 31
0.0
  0
LWPOLYLINE
  5
1C3
330
1F
100
AcDbEntity
  8
その他
  6
Continuous
 62
     7
370
     9
100
AcDbPolyline
 90
        4
 70
     1
 43
0.4
 10
-787.8397188743118
 20
124.8765296029314
 42
0.4142135623731
 10
-788.0397188743118
 20
125.0765296029314
 42
0.4142135623731
 10
-788.2397188743118
 20
124.8765296029314
 42
0.4142135623731
 10
-788.0397188743118
 20
124.6765296029314
 42
0.4142135623731
  0
LINE
  5
1C4
330
1F
100
AcDbEntity
  8
その他
  6
Continuous
 62
     7
370
     9
100
AcDbLine
 10
-788.0397188743118
 20
126.0765296029314
 30
0.0
 11
-788.0397188743118
 21
55.72000871587531
 31
0.0
  0
LWPOLYLINE
  5
1C5
330
1F
100
AcDbEntity
  8
その他
  6
Continuous
 62
     7
370
     9
100
AcDbPolyline
 90
        4
 70
     1
 43
0.4
 10
-391.3398037108223
 20
96.2655663245919
 42
0.4142135623731
 10
-391.5398037108223
 20
96.4655663245919
 42
0.4142135623731
 10
-391.7398037108223
 20
96.2655663245919
 42
0.4142135623731
 10
-391.5398037108223
 20
96.0655663245919
 42
0.4142135623731
  0
LINE
  5
1C6
330
1F
100
AcDbEntity
  8
その他
  6
Continuous
 62
     7
370
     9
100
AcDbLine
 10
-391.5398037108223
 20
97.46556632459189
 30
0.0
 11
-391.5398037108223
 21
55.72000871587531
 31
0.0
  0
LWPOLYLINE
  5
1C7
330
1F
100
AcDbEntity
  8
その他
  6
Continuous
 62
     7
370
     9
100
AcDbPolyline
 90
        4
 70
     1
 43
0.4
 10
-386.839718874312
 20
124.8765296029314
 42
0.4142135623731
 10
-387.039718874312
 20
125.0765296029314
 42
0.4142135623731
 10
-387.239718874312
 20
124.8765296029314
 42
0.4142135623731
 10
-387.039718874312
 20
124.6765296029314
 42
0.4142135623731
  0
LINE
  5
1C8
330
1F
100
AcDbEntity
  8
その他
  6
Continuous
 62
     7
370
     9
100
AcDbLine
 10
-387.039718874312
 20
126.0765296029314
 30
0.0
 11
-387.039718874312
 21
55.72000871587531
 31
0.0
  0
LINE
  5
1C9
330
1F
100
AcDbEntity
  8
その他
  6
Continuous
 62
     7
370
     9
100
AcDbLine
 10
-783.5396340378006
 20
96.2655663245919
 30
0.0
 11
-391.5398037108223
 21
96.2655663245919
 31
0.0
  0
TEXT
  5
1CA
330
1F
100
AcDbEntity
  8
その他
  6
Continuous
 62
     2
370
   211
100
AcDbText
 10
-600.5397188743116
 20
100.9215663245919
 30
0.0
 40
12.192
  1
392
 41
1.083333333333333
  7
ＭＳ ゴシック
100
AcDbText
  0
LINE
  5
1CB
330
1F
100
AcDbEntity
  8
その他
  6
Continuous
 62
     7
370
     9
100
AcDbLine
 10
-788.0397188743118
 20
124.8765296029314
 30
0.0
 11
-387.039718874312
 21
124.8765296029314
 31
0.0
  0
TEXT
  5
1CC
330
1F
100
AcDbEntity
  8
その他
  6
Continuous
 62
     2
370
   211
100
AcDbText
 10
-600.539718874312
 20
129.5325296029314
 30
0.0
 40
12.192
  1
401
 41
1.083333333333333
  7
ＭＳ ゴシック
100
AcDbText
  0
LINE
  5
1CD
330
1F
100
AcDbEntity
  8
その他
  6
Continuous
 62
     7
370
     9
100
AcDbLine
 10
-755.5397188743118
 20
9.550240130835704
 30
0.0
 11
-749.4521045842246
 21
17.48377353374806
 31
0.0
  0
LINE
  5
1CE
330
1F
100
AcDbEntity
  8
その他
  6
Continuous
 62
     7
370
     9
100
AcDbLine
 10
-755.5397188743118
 20
9.550240130835704
 30
0.0
 11
-751.7128845506609
 21
18.78903545594866
 31
0.0
  0
CIRCLE
  5
1CF
330
1F
100
AcDbEntity
  8
仕上
  6
Continuous
 62
     7
370
     9
100
AcDbCircle
 10
-758.0397188743118
 20
5.220113111913491
 30
0.0
 40
5.0
  0
LINE
  5
1D0
330
1F
100
AcDbEntity
  8
通り芯
  6
JWW_CENTER2
 62
     7
370
     9
100
AcDbLine
 10
-758.0397188743118
 20
12.22011311191355
 30
0.0
 11
-758.0397188743118
 21
-1.779886888086509
 31
0.0
  0
LINE
  5
1D1
330
1F
100
AcDbEntity
  8
通り芯
  6
JWW_CENTER2
 62
     7
370
     9
100
AcDbLine
 10
-751.0397188743118
 20
5.220113111913491
 30
0.0
 11
-765.0397188743118
 21
5.220113111913491
 31
0.0
  0
LINE
  5
1D2
330
1F
100
AcDbEntity
  8
その他
  6
Continuous
 62
     7
370
     9
100
AcDbLine
 10
-728.8167022697733
 20
55.83586262140292
 30
0.0
 11
-688.0001140948375
 21
55.83586262140292
 31
0.0
  0
TEXT
  5
1D3
330
1F
100
AcDbEntity
  8
その他
  6
Continuous
 62
     2
370
     9
100
AcDbText
 10
-727.3695876130603
 20
61.0997953719089
 30
0.0
 40
12.192
  1
φ10
 41
1.09375
  7
ＭＳ ゴシック
100
AcDbText
  0
LINE
  5
1D4
330
1F
100
AcDbEntity
  8
その他
  6
Continuous
 62
     7
370
     9
100
AcDbLine
 10
-728.8167022697733
 20
55.83586262140292
 30
0.0
 11
-755.5397188743118
 21
9.550240130835704
 31
0.0
  0
LINE
  5
1D5
330
1F
100
AcDbEntity
  8
仕上
  6
Continuous
 62
     7
370
     9
100
AcDbLine
 10
-387.039718874312
 20
20.72002827540413
 30
0.0
 11
-788.0397188743118
 21
20.72002827540413
 31
0.0
  0
LINE
  5
1D6
330
1F
100
AcDbEntity
  8
仕上
  6
JWW_DASHED1
 62
     2
370
     9
100
AcDbLine
 10
-393.0897652398219
 20
25.22011311191417
 30
0.0
 11
-393.0897652398219
 21
-336.8300722912088
 31
0.0
  0
LINE
  5
1D7
330
1F
100
AcDbEntity
  8
仕上
  6
Continuous
 62
     7
370
     9
100
AcDbLine
 10
-783.5396340378006
 20
20.72002827540413
 30
0.0
 11
-783.5396340378006
 21
-345.2801593075462
 31
0.0
  0
LINE
  5
1D8
330
1F
100
AcDbEntity
  8
仕上
  6
Continuous
 62
     7
370
     9
100
AcDbLine
 10
-387.039718874312
 20
-345.2801593075462
 30
0.0
 11
-788.0397188743118
 21
-345.2801593075462
 31
0.0
  0
LINE
  5
1D9
330
1F
100
AcDbEntity
  8
仕上
  6
JWW_DASHED1
 62
     2
370
     9
100
AcDbLine
 10
-782.0395824289244
 20
12.22003133894361
 30
0.0
 11
-782.0395824289244
 21
-349.7802441440576
 31
0.0
  0
LINE
  5
1DA
330
1F
100
AcDbEntity
  8
寸法
  6
Continuous
 62
     7
370
     9
100
AcDbLine
 10
131.0588711093004
 20
-139.1915587599878
 30
0.0
 11
124.9712568192129
 21
-131.2580253570754
 31
0.0
  0
LINE
  5
1DB
330
1F
100
AcDbEntity
  8
寸法
  6
Continuous
 62
     7
370
     9
100
AcDbLine
 10
131.0588711093004
 20
-139.1915587599878
 30
0.0
 11
127.2320367856494
 21
-129.9527634348748
 31
0.0
  0
LINE
  5
1DC
330
1F
100
AcDbEntity
  8
寸法
  6
Continuous
 62
     7
370
     9
100
AcDbLine
 10
125.1836079812468
 20
47.72000871587528
 30
0.0
 11
119.0959936911593
 21
55.65354211878764
 31
0.0
  0
LINE
  5
1DD
330
1F
100
AcDbEntity
  8
寸法
  6
Continuous
 62
     7
370
     9
100
AcDbLine
 10
125.1836079812468
 20
47.72000871587528
 30
0.0
 11
121.3567736575959
 21
56.95880404098818
 31
0.0
  0
LINE
  5
1DE
330
1F
100
AcDbEntity
  8
寸法
  6
Continuous
 62
     7
370
     9
100
AcDbLine
 10
103.0586715078437
 20
-21.60070000019624
 30
0.0
 11
96.97105721775625
 21
-13.66716659728382
 31
0.0
  0
LINE
  5
1DF
330
1F
100
AcDbEntity
  8
寸法
  6
Continuous
 62
     7
370
     9
100
AcDbLine
 10
103.0586715078437
 20
-21.60070000019624
 30
0.0
 11
99.23183718419278
 21
-12.36190467508328
 31
0.0
  0
LINE
  5
1E0
330
1F
100
AcDbEntity
  8
寸法
  6
Continuous
 62
     7
370
     9
100
AcDbLine
 10
-5.858537453141423
 20
97.95634931082796
 30
0.0
 11
131.0588711093004
 21
-139.1915587599878
 31
0.0
  0
LINE
  5
1E1
330
1F
100
AcDbEntity
  8
寸法
  6
Continuous
 62
     7
370
     9
100
AcDbLine
 10
1.17272154221979
 20
154.8709419176851
 30
0.0
 11
103.0586715078437
 21
-21.60070000019624
 31
0.0
  0
LINE
  5
1E2
330
1F
100
AcDbEntity
  8
寸法
  6
Continuous
 62
     7
370
     9
100
AcDbLine
 10
29.00079928142037
 20
214.3135201986521
 30
0.0
 11
125.1836079812468
 21
47.72000871587528
 31
0.0
  0
LINE
  5
1E3
330
1F
100
AcDbEntity
  8
寸法
  6
Continuous
 62
     7
370
     9
100
AcDbLine
 10
-163.1541663961906
 20
214.3135201986521
 30
0.0
 11
29.00079928142037
 21
214.3135201986521
 31
0.0
  0
TEXT
  5
1E4
330
1F
100
AcDbEntity
  8
寸法
  6
Continuous
 62
     7
370
     9
100
AcDbText
 10
-161.9400409154591
 20
219.1008857758587
 30
0.0
 40
9.144
  1
受枠：Ｌ－８０Ｚ，ｔ＝６.０
 41
1.154320987654321
  7
ＭＳ ゴシック
100
AcDbText
  0
TEXT
  5
1E5
330
1F
100
AcDbEntity
  8
寸法
  6
Continuous
 62
     7
370
     9
100
AcDbText
 10
-165.0172846724769
 20
200.9077501343849
 30
0.0
 40
9.144
  1
ＳＰＨＣ（溶融亜鉛めっき）
 50
0.0001119257123205
 41
1.153846153846155
  7
ＭＳ ゴシック
100
AcDbText
  0
TEXT
  5
1E6
330
1F
100
AcDbEntity
  8
寸法
  6
Continuous
 62
     7
370
     9
100
AcDbText
 10
-102.175697425268
 20
160.8057040932232
 30
0.0
 40
9.144
  1
蓋：ＳＳ４００
 41
1.142857142857143
  7
ＭＳ ゴシック
100
AcDbText
  0
LINE
  5
1E7
330
1F
100
AcDbEntity
  8
寸法
  6
Continuous
 62
     7
370
     9
100
AcDbLine
 10
-113.2472129345614
 20
154.8709419176851
 30
0.0
 11
1.17272154221979
 21
154.8709419176851
 31
0.0
  0
TEXT
  5
1E8
330
1F
100
AcDbEntity
  8
寸法
  6
Continuous
 62
     7
370
     9
100
AcDbText
 10
-117.7722248714649
 20
141.6329358601454
 30
0.0
 40
9.144
  1
（溶融亜鉛めっき）
 41
1.148148148148148
  7
ＭＳ ゴシック
100
AcDbText
  0
TEXT
  5
1E9
330
1F
100
AcDbEntity
  8
寸法
  6
Continuous
 62
     7
370
     9
100
AcDbText
 10
-163.8551588729335
 20
101.4408930105938
 30
0.0
 40
9.144
  1
モルタル止め：ｔ＝１.０
 41
1.152173913043478
  7
ＭＳ ゴシック
100
AcDbText
  0
TEXT
  5
1EA
330
1F
100
AcDbEntity
  8
寸法
  6
Continuous
 62
     7
370
     9
100
AcDbText
 10
-122.8600329262092
 20
85.08395624873785
 30
0.0
 40
9.144
  1
ＳＵＳ４３０
 41
1.138888888888889
  7
ＭＳ ゴシック
100
AcDbText
  0
LINE
  5
1EB
330
1F
100
AcDbEntity
  8
寸法
  6
Continuous
 62
     7
370
     9
100
AcDbLine
 10
-165.169265509334
 20
97.95634931082796
 30
0.0
 11
-5.858537453141423
 21
97.95634931082796
 31
0.0
  0
LINE
  5
1EC
330
1F
100
AcDbEntity
  8
寸法
  6
Continuous
 62
     7
370
     9
100
AcDbLine
 10
238.0585146860299
 20
65.30190918463558
 30
0.0
 11
241.8853490096809
 21
74.54070450974854
 31
0.0
  0
LINE
  5
1ED
330
1F
100
AcDbEntity
  8
寸法
  6
Continuous
 62
     7
370
     9
100
AcDbLine
 10
238.0585146860299
 20
65.30190918463558
 30
0.0
 11
244.1461289761169
 21
73.235442587548
 31
0.0
  0
LINE
  5
1EE
330
1F
100
AcDbEntity
  8
寸法
  6
Continuous
 62
     7
370
     9
100
AcDbLine
 10
277.0873352727866
 20
132.9018094003887
 30
0.0
 11
238.0585146860299
 21
65.30190918463558
 31
0.0
  0
TEXT
  5
1EF
330
1F
100
AcDbEntity
  8
寸法
  6
Continuous
 62
     7
370
     9
100
AcDbText
 10
278.7560616782078
 20
137.7343939627932
 30
0.0
 40
9.144
  1
アンカー：φ９
 50
359.9998818562116
 41
1.142857142857142
  7
ＭＳ ゴシック
100
AcDbText
  0
LINE
  5
1F0
330
1F
100
AcDbEntity
  8
寸法
  6
Continuous
 62
     7
370
     9
100
AcDbLine
 10
277.0873352727866
 20
132.9018094003887
 30
0.0
 11
467.5917831314949
 21
132.9018094003887
 31
0.0
  0
TEXT
  5
1F1
330
1F
100
AcDbEntity
  8
寸法
  6
Continuous
 62
     7
370
     9
100
AcDbText
 10
278.0333300536166
 20
119.915399829085
 30
0.0
 40
9.144
  1
ＳＳ４００（溶融亜鉛めっき）
 41
1.154761904761905
  7
ＭＳ ゴシック
100
AcDbText
  0
LWPOLYLINE
  5
1F2
330
1F
100
AcDbEntity
  8
その他
  6
Continuous
 62
     7
370
     9
100
AcDbPolyline
 90
        4
 70
     1
 43
0.4
 10
73.66816001346992
 20
-366.2801199528325
 42
0.4142135623731
 10
73.46816001346991
 20
-366.0801199528325
 42
0.4142135623731
 10
73.26816001346991
 20
-366.2801199528325
 42
0.4142135623731
 10
73.46816001346991
 20
-366.4801199528325
 42
0.4142135623731
  0
LINE
  5
1F3
330
1F
100
AcDbEntity
  8
その他
  6
Continuous
 62
     7
370
     9
100
AcDbLine
 10
72.26816001346964
 20
-366.2801199528325
 30
0.0
 11
95.05867150784383
 21
-366.2801199528325
 31
0.0
  0
LINE
  5
1F4
330
1F
100
AcDbEntity
  8
その他
  6
Continuous
 62
     7
370
     9
100
AcDbLine
 10
73.46816001346991
 20
-366.2801199528325
 30
0.0
 11
73.46816001346991
 21
-360.2803138985228
 31
0.0
  0
TEXT
  5
1F5
330
1F
100
AcDbEntity
  8
その他
  6
Continuous
 62
     2
370
   211
100
AcDbText
 10
68.81216001346982
 20
-375.8440595823533
 30
0.0
 40
12.192
  1
6
 50
90.0
  7
ＭＳ ゴシック
100
AcDbText
  0
LINE
  5
1F6
330
1F
100
AcDbEntity
  8
その他
  6
Continuous
 62
     7
370
     9
100
AcDbLine
 10
73.46816001346991
 20
-366.2801199528325
 30
0.0
 11
73.46816001346991
 21
-377.8650131850901
 31
0.0
  0
LINE
  5
1F7
330
1F
100
AcDbEntity
  8
その他
  6
Continuous
 62
     7
370
     9
100
AcDbLine
 10
73.46816001346991
 20
-358.0303435913008
 30
0.0
 11
52.21388060880093
 21
-365.3368005468515
 31
0.0
  0
LINE
  5
1F8
330
1F
100
AcDbEntity
  8
その他
  6
Continuous
 62
     7
370
     9
100
AcDbLine
 10
52.21388060880093
 20
-365.3368005468515
 30
0.0
 11
52.21388060880093
 21
-391.6645383112257
 31
0.0
  0
TEXT
  5
1F9
330
1F
100
AcDbEntity
  8
その他
  6
Continuous
 62
     2
370
   211
100
AcDbText
 10
47.55495216205261
 20
-392.3887082028369
 30
0.0
 40
12.192
  1
4.5
 50
90.0
 41
1.083333333333333
  7
ＭＳ ゴシック
100
AcDbText
  0
LINE
  5
1FA
330
1F
100
AcDbEntity
  8
その他
  6
Continuous
 62
     7
370
     9
100
AcDbLine
 10
-24.50469237057956
 20
38.22028184230678
 30
0.0
 11
95.05901792359549
 21
38.22028184230678
 31
0.0
  0
TEXT
  5
1FB
330
1F
100
AcDbEntity
  8
F-4ﾚｲﾔ
  6
Continuous
 62
     2
370
     9
100
AcDbText
 10
-145.8083711549243
 20
-759.0108394076666
 30
0.0
 40
12.192
  1
カラー舗装用みぞ蓋　タイル用　充填深さ２８ｍｍ　スチール製
 41
1.120689655172414
  7
ＭＳ ゴシック
100
AcDbText
  0
TEXT
  5
1FC
330
1F
100
AcDbEntity
  8
F-4ﾚｲﾔ
  6
Continuous
 62
     2
370
     9
100
AcDbText
 10
123.8478605299833
 20
-777.8398842462342
 30
0.0
 40
12.192
  1
集水桝用　ＨＥＳＷ－１４－３００－Ｚ
 41
1.118055555555556
  7
ＭＳ ゴシック
100
AcDbText
  0
ENDSEC
  0
SECTION
  2
OBJECTS
  0
DICTIONARY
  5
C
330
0
100
AcDbDictionary
281
     1
  3
ACAD_GROUP
350
D
  3
ACAD_LAYOUT
350
1A
  3
ACAD_MLEADERSTYLE
350
1FE
  3
ACAD_MLINESTYLE
350
17
  3
ACAD_PLOTSETTINGS
350
19
  3
ACAD_PLOTSTYLENAME
350
E
  3
ACAD_TABLESTYLE
350
1FD
  3
ACAD_VISUALSTYLE
350
2A
  0
DICTIONARY
  5
D
102
{ACAD_REACTORS
330
C
102
}
330
C
100
AcDbDictionary
281
     1
  0
DICTIONARY
  5
1A
102
{ACAD_REACTORS
330
C
102
}
330
C
100
AcDbDictionary
281
     1
  3
Layout1
350
1E
  3
Layout2
350
26
  3
Model
350
22
  0
DICTIONARY
  5
1FE
102
{ACAD_REACTORS
330
C
102
}
330
C
100
AcDbDictionary
281
     1
  0
DICTIONARY
  5
17
102
{ACAD_REACTORS
330
C
102
}
330
C
100
AcDbDictionary
281
     1
  3
Standard
350
18
  0
DICTIONARY
  5
19
102
{ACAD_REACTORS
330
C
102
}
330
C
100
AcDbDictionary
281
     1
  0
ACDBDICTIONARYWDFLT
  5
E
102
{ACAD_REACTORS
330
C
102
}
330
C
100
AcDbDictionary
281
     1
  3
Normal
350
F
100
AcDbDictionaryWithDefault
340
F
  0
DICTIONARY
  5
1FD
102
{ACAD_REACTORS
330
C
102
}
330
C
100
AcDbDictionary
281
     1
  0
DICTIONARY
  5
2A
102
{ACAD_REACTORS
330
C
102
}
330
C
100
AcDbDictionary
281
     1
  3
2dWireframe
350
2F
  3
3D Hidden
350
31
  3
3dWireframe
350
30
  3
Basic
350
32
  3
Brighten
350
36
  3
ColorChange
350
3A
  3
Conceptual
350
34
  3
Dim
350
35
  3
Facepattern
350
39
  3
Flat
350
2B
  3
FlatWithEdges
350
2C
  3
Gouraud
350
2D
  3
GouraudWithEdges
350
2E
  3
Linepattern
350
38
  3
Realistic
350
33
  3
Thicken
350
37
  0
LAYOUT
  5
1E
102
{ACAD_REACTORS
330
1A
102
}
330
1A
100
AcDbPlotSettings
  1

  2
none_device
  4

  6

 40
0.0
 41
0.0
 42
0.0
 43
0.0
 44
0.0
 45
0.0
 46
0.0
 47
0.0
 48
0.0
 49
0.0
140
0.0
141
0.0
142
1.0
143
1.0
 70
   688
 72
     0
 73
     0
 74
     5
  7

 75
    16
 76
     0
 77
     5
 78
   300
147
1.0
148
0.0
149
0.0
100
AcDbLayout
  1
Layout1
 70
     1
 71
     1
 10
0.0
 20
0.0
 11
420.0
 21
297.0
 12
0.0
 22
0.0
 32
0.0
 14
1.000000000000000E+20
 24
1.000000000000000E+20
 34
1.000000000000000E+20
 15
-1.000000000000000E+20
 25
-1.000000000000000E+20
 35
-1.000000000000000E+20
146
0.0
 13
0.0
 23
0.0
 33
0.0
 16
1.0
 26
0.0
 36
0.0
 17
0.0
 27
1.0
 37
0.0
 76
     0
330
1B
  0
LAYOUT
  5
26
102
{ACAD_REACTORS
330
1A
102
}
330
1A
100
AcDbPlotSettings
  1

  2
none_device
  4

  6

 40
0.0
 41
0.0
 42
0.0
 43
0.0
 44
0.0
 45
0.0
 46
0.0
 47
0.0
 48
0.0
 49
0.0
140
0.0
141
0.0
142
1.0
143
1.0
 70
   688
 72
     0
 73
     0
 74
     5
  7

 75
    16
 76
     0
 77
     5
 78
   300
147
1.0
148
0.0
149
0.0
100
AcDbLayout
  1
Layout2
 70
     1
 71
     2
 10
0.0
 20
0.0
 11
0.0
 21
0.0
 12
0.0
 22
0.0
 32
0.0
 14
0.0
 24
0.0
 34
0.0
 15
0.0
 25
0.0
 35
0.0
146
0.0
 13
0.0
 23
0.0
 33
0.0
 16
1.0
 26
0.0
 36
0.0
 17
0.0
 27
1.0
 37
0.0
 76
     0
330
23
  0
LAYOUT
  5
22
102
{ACAD_REACTORS
330
1A
102
}
330
1A
100
AcDbPlotSettings
  1

  2
none_device
  4

  6

 40
0.0
 41
0.0
 42
0.0
 43
0.0
 44
0.0
 45
0.0
 46
0.0
 47
0.0
 48
0.0
 49
0.0
140
0.0
141
0.0
142
1.0
143
1.0
 70
  1712
 72
     0
 73
     0
 74
     0
  7

 75
     0
 76
     0
 77
     5
 78
   300
147
1.0
148
0.0
149
0.0
100
AcDbLayout
  1
Model
 70
     1
 71
     0
 10
-1188.0
 20
-840.0
 11
1188.0
 21
840.0
 12
0.0
 22
0.0
 32
0.0
 14
-1188.0
 24
-840.0
 34
0.0
 15
1188.0
 25
840.0
 35
0.0
146
0.0
 13
0.0
 23
0.0
 33
0.0
 16
1.0
 26
0.0
 36
0.0
 17
0.0
 27
1.0
 37
0.0
 76
     0
330
1F
331
29
  0
MLINESTYLE
  5
18
102
{ACAD_REACTORS
330
17
102
}
330
17
100
AcDbMlineStyle
  2
Standard
 70
     0
  3

 62
   256
 51
90.0
 52
90.0
 71
     2
 49
0.5
 62
   256
  6
BYLAYER
 49
-0.5
 62
   256
  6
BYLAYER
  0
ACDBPLACEHOLDER
  5
F
102
{ACAD_REACTORS
330
E
102
}
330
E
  0
VISUALSTYLE
  5
2F
102
{ACAD_REACTORS
330
2A
102
}
330
2A
100
AcDbVisualStyle
  2
2dWireframe
 70
     4
 71
     0
 72
     2
 73
     0
 90
        0
 40
-0.6
 41
-30.0
 62
     5
 63
     7
421
 16777215
 74
     1
 91
        4
 64
     7
 65
   257
 75
     1
175
     1
 42
1.0
 92
        0
 66
   257
 43
1.0
 76
     1
 77
     6
 78
     2
 67
     7
 79
     5
170
     0
171
     0
290
     0
174
     0
 93
        1
 44
0.0
173
     0
291
     0
 45
0.0
  0
VISUALSTYLE
  5
31
102
{ACAD_REACTORS
330
2A
102
}
330
2A
100
AcDbVisualStyle
  2
3D Hidden
 70
     6
 71
     1
 72
     2
 73
     2
 90
        0
 40
-0.6
 41
-30.0
 62
     5
 63
     7
421
 16777215
 74
     2
 91
        2
 64
     7
 65
   257
 75
     2
175
     1
 42
40.0
 92
        0
 66
   257
 43
1.0
 76
     1
 77
     6
 78
     2
 67
     7
 79
     3
170
     0
171
     0
290
     0
174
     0
 93
        1
 44
0.0
173
     0
291
     0
 45
0.0
  0
VISUALSTYLE
  5
30
102
{ACAD_REACTORS
330
2A
102
}
330
2A
100
AcDbVisualStyle
  2
3dWireframe
 70
     5
 71
     0
 72
     2
 73
     0
 90
        0
 40
-0.6
 41
-30.0
 62
     5
 63
     7
421
 16777215
 74
     1
 91
        4
 64
     7
 65
   257
 75
     1
175
     1
 42
1.0
 92
        0
 66
   257
 43
1.0
 76
     1
 77
     6
 78
     2
 67
     7
 79
     5
170
     0
171
     0
290
     0
174
     0
 93
        1
 44
0.0
173
     0
291
     0
 45
0.0
  0
VISUALSTYLE
  5
32
102
{ACAD_REACTORS
330
2A
102
}
330
2A
100
AcDbVisualStyle
  2
Basic
 70
     7
 71
     1
 72
     0
 73
     1
 90
        0
 40
-0.6
 41
-30.0
 62
     5
 63
     7
421
 16777215
 74
     0
 91
        4
 64
     7
 65
   257
 75
     1
175
     1
 42
1.0
 92
        8
 66
     7
 43
1.0
 76
     1
 77
     6
 78
     2
 67
     7
 79
     5
170
     0
171
     0
290
     0
174
     0
 93
        1
 44
0.0
173
     0
291
     1
 45
0.0
  0
VISUALSTYLE
  5
36
102
{ACAD_REACTORS
330
2A
102
}
330
2A
100
AcDbVisualStyle
  2
Brighten
 70
    12
 71
     2
 72
     2
 73
     0
 90
        0
 40
-0.6
 41
-30.0
 62
     5
 63
     7
421
 16777215
 74
     1
 91
        4
 64
     7
 65
   257
 75
     1
175
     1
 42
1.0
 92
        8
 66
     7
 43
1.0
 76
     1
 77
     6
 78
     2
 67
     7
 79
     5
170
     0
171
     0
290
     0
174
     0
 93
        1
 44
50.0
173
     0
291
     1
 45
0.0
  0
VISUALSTYLE
  5
3A
102
{ACAD_REACTORS
330
2A
102
}
330
2A
100
AcDbVisualStyle
  2
ColorChange
 70
    16
 71
     2
 72
     2
 73
     3
 90
        0
 40
-0.6
 41
-30.0
 62
     5
 63
     8
421
  8421504
 74
     1
 91
        4
 64
     7
 65
   257
 75
     1
175
     1
 42
1.0
 92
        8
 66
     8
424
  8421504
 43
1.0
 76
     1
 77
     6
 78
     2
 67
     7
 79
     5
170
     0
171
     0
290
     0
174
     0
 93
        1
 44
0.0
173
     0
291
     1
 45
0.0
  0
VISUALSTYLE
  5
34
102
{ACAD_REACTORS
330
2A
102
}
330
2A
100
AcDbVisualStyle
  2
Conceptual
 70
     9
 71
     3
 72
     2
 73
     0
 90
        0
 40
-0.6
 41
-30.0
 62
     5
 63
     7
421
 16777215
 74
     2
 91
        2
 64
     7
 65
   257
 75
     1
175
     1
 42
40.0
 92
        8
 66
     7
 43
1.0
 76
     1
 77
     6
 78
     2
 67
     7
 79
     3
170
     0
171
     0
290
     0
174
     0
 93
        1
 44
0.0
173
     0
291
     0
 45
0.0
  0
VISUALSTYLE
  5
35
102
{ACAD_REACTORS
330
2A
102
}
330
2A
100
AcDbVisualStyle
  2
Dim
 70
    11
 71
     2
 72
     2
 73
     0
 90
        0
 40
-0.6
 41
-30.0
 62
     5
 63
     7
421
 16777215
 74
     1
 91
        4
 64
     7
 65
   257
 75
     1
175
     1
 42
1.0
 92
        8
 66
     7
 43
1.0
 76
     1
 77
     6
 78
     2
 67
     7
 79
     5
170
     0
171
     0
290
     0
174
     0
 93
        1
 44
-50.0
173
     0
291
     1
 45
0.0
  0
VISUALSTYLE
  5
39
102
{ACAD_REACTORS
330
2A
102
}
330
2A
100
AcDbVisualStyle
  2
Facepattern
 70
    15
 71
     2
 72
     2
 73
     0
 90
        0
 40
-0.6
 41
-30.0
 62
     5
 63
     7
421
 16777215
 74
     1
 91
        4
 64
     7
 65
   257
 75
     1
175
     1
 42
1.0
 92
        8
 66
     7
 43
1.0
 76
     1
 77
     6
 78
     2
 67
     7
 79
     5
170
     0
171
     0
290
     0
174
     0
 93
        1
 44
0.0
173
     0
291
     1
 45
0.0
  0
VISUALSTYLE
  5
2B
102
{ACAD_REACTORS
330
2A
102
}
330
2A
100
AcDbVisualStyle
  2
Flat
 70
     0
 71
     2
 72
     1
 73
     1
 90
        2
 40
-0.6
 41
30.0
 62
     5
 63
     7
421
 16777215
 74
     0
 91
        4
 64
     7
 65
   257
 75
     1
175
     1
 42
1.0
 92
        8
 66
     7
 43
1.0
 76
     1
 77
     6
 78
     2
 67
     7
 79
     5
170
     0
171
     0
290
     0
174
     0
 93
       13
 44
0.0
173
     0
291
     1
 45
0.0
  0
VISUALSTYLE
  5
2C
102
{ACAD_REACTORS
330
2A
102
}
330
2A
100
AcDbVisualStyle
  2
FlatWithEdges
 70
     1
 71
     2
 72
     1
 73
     1
 90
        2
 40
-0.6
 41
30.0
 62
     5
 63
     7
421
 16777215
 74
     1
 91
        4
 64
     7
 65
   257
 75
     1
175
     1
 42
1.0
 92
        0
 66
   257
 43
1.0
 76
     1
 77
     6
 78
     2
 67
     7
 79
     5
170
     0
171
     0
290
     0
174
     0
 93
       13
 44
0.0
173
     0
291
     1
 45
0.0
  0
VISUALSTYLE
  5
2D
102
{ACAD_REACTORS
330
2A
102
}
330
2A
100
AcDbVisualStyle
  2
Gouraud
 70
     2
 71
     2
 72
     2
 73
     1
 90
        2
 40
-0.6
 41
30.0
 62
     5
 63
     7
421
 16777215
 74
     0
 91
        4
 64
     7
 65
   257
 75
     1
175
     1
 42
1.0
 92
        0
 66
     7
 43
1.0
 76
     1
 77
     6
 78
     2
 67
     7
 79
     5
170
     0
171
     0
290
     0
174
     0
 93
       13
 44
0.0
173
     0
291
     1
 45
0.0
  0
VISUALSTYLE
  5
2E
102
{ACAD_REACTORS
330
2A
102
}
330
2A
100
AcDbVisualStyle
  2
GouraudWithEdges
 70
     3
 71
     2
 72
     2
 73
     1
 90
        2
 40
-0.6
 41
30.0
 62
     5
 63
     7
421
 16777215
 74
     1
 91
        4
 64
     7
 65
   257
 75
     1
175
     1
 42
1.0
 92
        0
 66
   257
 43
1.0
 76
     1
 77
     6
 78
     2
 67
     7
 79
     5
170
     0
171
     0
290
     0
174
     0
 93
       13
 44
0.0
173
     0
291
     1
 45
0.0
  0
VISUALSTYLE
  5
38
102
{ACAD_REACTORS
330
2A
102
}
330
2A
100
AcDbVisualStyle
  2
Linepattern
 70
    14
 71
     2
 72
     2
 73
     0
 90
        0
 40
-0.6
 41
-30.0
 62
     5
 63
     7
421
 16777215
 74
     1
 91
        4
 64
     7
 65
   257
 75
     7
175
     7
 42
1.0
 92
        8
 66
     7
 43
1.0
 76
     1
 77
     6
 78
     2
 67
     7
 79
     5
170
     0
171
     0
290
     0
174
     0
 93
        1
 44
0.0
173
     0
291
     1
 45
0.0
  0
VISUALSTYLE
  5
33
102
{ACAD_REACTORS
330
2A
102
}
330
2A
100
AcDbVisualStyle
  2
Realistic
 70
     8
 71
     2
 72
     2
 73
     0
 90
        0
 40
-0.6
 41
-30.0
 62
     5
 63
     7
421
 16777215
 74
     1
 91
        0
 64
     7
 65
   257
 75
     1
175
     1
 42
1.0
 92
        8
 66
     8
424
  7895160
 43
1.0
 76
     1
 77
     6
 78
     2
 67
     7
 79
     5
170
     0
171
     0
290
     0
174
     0
 93
       13
 44
0.0
173
     0
291
     0
 45
0.0
  0
VISUALSTYLE
  5
37
102
{ACAD_REACTORS
330
2A
102
}
330
2A
100
AcDbVisualStyle
  2
Thicken
 70
    13
 71
     2
 72
     2
 73
     0
 90
        0
 40
-0.6
 41
-30.0
 62
     5
 63
     7
421
 16777215
 74
     1
 91
        4
 64
     7
 65
   257
 75
     1
175
     1
 42
1.0
 92
       12
 66
     7
 43
1.0
 76
     1
 77
     6
 78
     2
 67
     7
 79
     5
170
     0
171
     0
290
     0
174
     0
 93
        1
 44
0.0
173
     0
291
     1
 45
0.0
  0
ENDSEC
  0
EOF
