  0
SECTION
  2
HEADER
  9
$ACADVER
  1
AC1018
  9
$ACADMAINTVER
 70
     0
  9
$DWGCODEPAGE
  3
ANSI_932
  9
$INSBASE
 10
0.0
 20
0.0
 30
0.0
  9
$EXTMIN
 10
-1682.0
 20
-1188.0
 30
0.0
  9
$EXTMAX
 10
1682.0
 20
1188.0
 30
0.0
  9
$LIMMIN
 10
-1682.0
 20
-1188.0
  9
$LIMMAX
 10
1682.0
 20
1188.0
  9
$ORTHOMODE
 70
     0
  9
$REGENMODE
 70
     1
  9
$FILLMODE
 70
     1
  9
$QTEXTMODE
 70
     0
  9
$MIRRTEXT
 70
     1
  9
$LTSCALE
 40
4.0
  9
$ATTMODE
 70
     1
  9
$TEXTSIZE
 40
2.5
  9
$TRACEWID
 40
1.0
  9
$TEXTSTYLE
  7
Standard
  9
$CLAYER
  8
0
  9
$CELTYPE
  6
ByLayer
  9
$CECOLOR
 62
   256
  9
$CELTSCALE
 40
1.0
  9
$DISPSILH
 70
     0
  9
$DIMSCALE
 40
1.0
  9
$DIMASZ
 40
2.5
  9
$DIMEXO
 40
0.625
  9
$DIMDLI
 40
3.75
  9
$DIMRND
 40
0.0
  9
$DIMDLE
 40
0.0
  9
$DIMEXE
 40
1.25
  9
$DIMTP
 40
0.0
  9
$DIMTM
 40
0.0
  9
$DIMTXT
 40
2.5
  9
$DIMCEN
 40
2.5
  9
$DIMTSZ
 40
0.0
  9
$DIMTOL
 70
     0
  9
$DIMLIM
 70
     0
  9
$DIMTIH
 70
     0
  9
$DIMTOH
 70
     0
  9
$DIMSE1
 70
     0
  9
$DIMSE2
 70
     0
  9
$DIMTAD
 70
     1
  9
$DIMZIN
 70
     8
  9
$DIMBLK
  1

  9
$DIMASO
 70
     1
  9
$DIMSHO
 70
     1
  9
$DIMPOST
  1

  9
$DIMAPOST
  1

  9
$DIMALT
 70
     0
  9
$DIMALTD
 70
     3
  9
$DIMALTF
 40
0.03937007874016
  9
$DIMLFAC
 40
1.0
  9
$DIMTOFL
 70
     1
  9
$DIMTVP
 40
0.0
  9
$DIMTIX
 70
     0
  9
$DIMSOXD
 70
     0
  9
$DIMSAH
 70
     0
  9
$DIMBLK1
  1

  9
$DIMBLK2
  1

  9
$DIMSTYLE
  2
ISO-25
  9
$DIMCLRD
 70
     0
  9
$DIMCLRE
 70
     0
  9
$DIMCLRT
 70
     0
  9
$DIMTFAC
 40
1.0
  9
$DIMGAP
 40
0.625
  9
$DIMJUST
 70
     0
  9
$DIMSD1
 70
     0
  9
$DIMSD2
 70
     0
  9
$DIMTOLJ
 70
     0
  9
$DIMTZIN
 70
     8
  9
$DIMALTZ
 70
     0
  9
$DIMALTTZ
 70
     0
  9
$DIMUPT
 70
     0
  9
$DIMDEC
 70
     2
  9
$DIMTDEC
 70
     2
  9
$DIMALTU
 70
     2
  9
$DIMALTTD
 70
     3
  9
$DIMTXSTY
  7
Standard
  9
$DIMAUNIT
 70
     0
  9
$DIMADEC
 70
     0
  9
$DIMALTRND
 40
0.0
  9
$DIMAZIN
 70
     0
  9
$DIMDSEP
 70
    44
  9
$DIMATFIT
 70
     3
  9
$DIMFRAC
 70
     0
  9
$DIMLDRBLK
  1

  9
$DIMLUNIT
 70
     2
  9
$DIMLWD
 70
    -2
  9
$DIMLWE
 70
    -2
  9
$DIMTMOVE
 70
     0
  9
$LUNITS
 70
     2
  9
$LUPREC
 70
     4
  9
$SKETCHINC
 40
1.0
  9
$FILLETRAD
 40
10.0
  9
$AUNITS
 70
     0
  9
$AUPREC
 70
     0
  9
$MENU
  1
.
  9
$ELEVATION
 40
0.0
  9
$PELEVATION
 40
0.0
  9
$THICKNESS
 40
0.0
  9
$LIMCHECK
 70
     0
  9
$CHAMFERA
 40
0.0
  9
$CHAMFERB
 40
0.0
  9
$CHAMFERC
 40
0.0
  9
$CHAMFERD
 40
0.0
  9
$SKPOLY
 70
     0
  9
$TDCREATE
 40
2459781.478343599
  9
$TDUCREATE
 40
2459781.103343599
  9
$TDUPDATE
 40
2459781.47834375
  9
$TDUUPDATE
 40
2459781.10334375
  9
$TDINDWG
 40
0.0000000116
  9
$TDUSRTIMER
 40
0.0000000116
  9
$USRTIMER
 70
     1
  9
$ANGBASE
 50
0.0
  9
$ANGDIR
 70
     0
  9
$PDMODE
 70
     0
  9
$PDSIZE
 40
0.0
  9
$PLINEWID
 40
0.0
  9
$SPLFRAME
 70
     0
  9
$SPLINETYPE
 70
     6
  9
$SPLINESEGS
 70
     8
  9
$HANDSEED
  5
3D1
  9
$SURFTAB1
 70
     6
  9
$SURFTAB2
 70
     6
  9
$SURFTYPE
 70
     6
  9
$SURFU
 70
     6
  9
$SURFV
 70
     6
  9
$UCSBASE
  2

  9
$UCSNAME
  2

  9
$UCSORG
 10
0.0
 20
0.0
 30
0.0
  9
$UCSXDIR
 10
1.0
 20
0.0
 30
0.0
  9
$UCSYDIR
 10
0.0
 20
1.0
 30
0.0
  9
$UCSORTHOREF
  2

  9
$UCSORTHOVIEW
 70
     0
  9
$UCSORGTOP
 10
0.0
 20
0.0
 30
0.0
  9
$UCSORGBOTTOM
 10
0.0
 20
0.0
 30
0.0
  9
$UCSORGLEFT
 10
0.0
 20
0.0
 30
0.0
  9
$UCSORGRIGHT
 10
0.0
 20
0.0
 30
0.0
  9
$UCSORGFRONT
 10
0.0
 20
0.0
 30
0.0
  9
$UCSORGBACK
 10
0.0
 20
0.0
 30
0.0
  9
$PUCSBASE
  2

  9
$PUCSNAME
  2

  9
$PUCSORG
 10
0.0
 20
0.0
 30
0.0
  9
$PUCSXDIR
 10
1.0
 20
0.0
 30
0.0
  9
$PUCSYDIR
 10
0.0
 20
1.0
 30
0.0
  9
$PUCSORTHOREF
  2

  9
$PUCSORTHOVIEW
 70
     0
  9
$PUCSORGTOP
 10
0.0
 20
0.0
 30
0.0
  9
$PUCSORGBOTTOM
 10
0.0
 20
0.0
 30
0.0
  9
$PUCSORGLEFT
 10
0.0
 20
0.0
 30
0.0
  9
$PUCSORGRIGHT
 10
0.0
 20
0.0
 30
0.0
  9
$PUCSORGFRONT
 10
0.0
 20
0.0
 30
0.0
  9
$PUCSORGBACK
 10
0.0
 20
0.0
 30
0.0
  9
$USERI1
 70
     0
  9
$USERI2
 70
     0
  9
$USERI3
 70
     0
  9
$USERI4
 70
     0
  9
$USERI5
 70
     0
  9
$USERR1
 40
0.0
  9
$USERR2
 40
0.0
  9
$USERR3
 40
0.0
  9
$USERR4
 40
0.0
  9
$USERR5
 40
0.0
  9
$WORLDVIEW
 70
     1
  9
$SHADEDGE
 70
     3
  9
$SHADEDIF
 70
    70
  9
$TILEMODE
 70
     1
  9
$MAXACTVP
 70
    64
  9
$PINSBASE
 10
0.0
 20
0.0
 30
0.0
  9
$PLIMCHECK
 70
     0
  9
$PEXTMIN
 10
1.000000000000000E+20
 20
1.000000000000000E+20
 30
1.000000000000000E+20
  9
$PEXTMAX
 10
-1.000000000000000E+20
 20
-1.000000000000000E+20
 30
-1.000000000000000E+20
  9
$PLIMMIN
 10
0.0
 20
0.0
  9
$PLIMMAX
 10
420.0
 20
297.0
  9
$UNITMODE
 70
     0
  9
$VISRETAIN
 70
     1
  9
$PLINEGEN
 70
     0
  9
$PSLTSCALE
 70
     1
  9
$TREEDEPTH
 70
  3020
  9
$CMLSTYLE
  2
Standard
  9
$CMLJUST
 70
     0
  9
$CMLSCALE
 40
20.0
  9
$PROXYGRAPHICS
 70
     1
  9
$MEASUREMENT
 70
     1
  9
$CELWEIGHT
370
    -1
  9
$ENDCAPS
280
     0
  9
$JOINSTYLE
280
     0
  9
$LWDISPLAY
290
     0
  9
$INSUNITS
 70
     4
  9
$HYPERLINKBASE
  1

  9
$STYLESHEET
  1

  9
$XEDIT
290
     1
  9
$CEPSNTYPE
380
     0
  9
$PSTYLEMODE
290
     1
  9
$FINGERPRINTGUID
  2
{620BB396-A09F-43D1-87C9-9DB8FAE8A340}
  9
$VERSIONGUID
  2
{FAEB1C32-E019-11D5-929B-00C0DF256EC4}
  9
$EXTNAMES
290
     1
  9
$PSVPSCALE
 40
0.0
  9
$OLESTARTUP
290
     0
  9
$SORTENTS
280
   127
  9
$INDEXCTL
280
     0
  9
$HIDETEXT
280
     1
  9
$XCLIPFRAME
290
     0
  9
$HALOGAP
280
     0
  9
$OBSCOLOR
 70
   257
  9
$OBSLTYPE
280
     0
  9
$INTERSECTIONDISPLAY
280
     0
  9
$INTERSECTIONCOLOR
 70
   257
  9
$DIMASSOC
280
     2
  9
$PROJECTNAME
  1

  0
ENDSEC
  0
SECTION
  2
CLASSES
  0
CLASS
  1
ACDBDICTIONARYWDFLT
  2
AcDbDictionaryWithDefault
  3
ObjectDBX Classes
 90
        0
 91
        4
280
     0
281
     0
  0
CLASS
  1
VISUALSTYLE
  2
AcDbVisualStyle
  3
ObjectDBX Classes
 90
     4095
 91
        4
280
     0
281
     0
  0
CLASS
  1
MATERIAL
  2
AcDbMaterial
  3
ObjectDBX Classes
 90
     1153
 91
        4
280
     0
281
     0
  0
CLASS
  1
SCALE
  2
AcDbScale
  3
ObjectDBX Classes
 90
     1153
 91
        4
280
     0
281
     0
  0
CLASS
  1
TABLESTYLE
  2
AcDbTableStyle
  3
ObjectDBX Classes
 90
     4095
 91
        4
280
     0
281
     0
  0
CLASS
  1
MLEADERSTYLE
  2
AcDbMLeaderStyle
  3
ACDB_MLEADERSTYLE_CLASS
 90
     4095
 91
        4
280
     0
281
     0
  0
CLASS
  1
SUN
  2
AcDbSun
  3
SCENEOE
 90
     1153
 91
        4
280
     0
281
     0
  0
CLASS
  1
DICTIONARYVAR
  2
AcDbDictionaryVar
  3
ObjectDBX Classes
 90
        0
 91
        4
280
     0
281
     0
  0
CLASS
  1
CELLSTYLEMAP
  2
AcDbCellStyleMap
  3
ObjectDBX Classes
 90
     1152
 91
        4
280
     0
281
     0
  0
ENDSEC
  0
SECTION
  2
TABLES
  0
TABLE
  2
VPORT
  5
8
102
{ACAD_XDICTIONARY
360
388
102
}
330
0
100
AcDbSymbolTable
 70
     1
  0
VPORT
  5
29
330
8
100
AcDbSymbolTableRecord
100
AcDbViewportTableRecord
  2
*Active
 70
     0
 10
0.0
 20
0.0
 11
1.0
 21
1.0
 12
0.0
 22
0.0
 13
0.0
 23
0.0
 14
10.0
 24
10.0
 15
10.0
 25
10.0
 16
0.0
 26
0.0
 36
1.0
 17
0.0
 27
0.0
 37
0.0
 40
2613.6
 41
1.415824915824916
 42
50.0
 43
0.0
 44
0.0
 50
0.0
 51
0.0
 71
     0
 72
 10000
 73
     1
 74
     3
 75
     0
 76
     0
 77
     0
 78
     0
281
     0
 65
     1
110
0.0
120
0.0
130
0.0
111
1.0
121
0.0
131
0.0
112
0.0
122
1.0
132
0.0
 79
     0
146
0.0
  0
ENDTAB
  0
TABLE
  2
LTYPE
  5
5
330
0
100
AcDbSymbolTable
 70
     5
  0
LTYPE
  5
14
330
5
100
AcDbSymbolTableRecord
100
AcDbLinetypeTableRecord
  2
ByBlock
 70
     0
  3

 72
    65
 73
     0
 40
0.0
  0
LTYPE
  5
15
330
5
100
AcDbSymbolTableRecord
100
AcDbLinetypeTableRecord
  2
ByLayer
 70
     0
  3

 72
    65
 73
     0
 40
0.0
  0
LTYPE
  5
16
330
5
100
AcDbSymbolTableRecord
100
AcDbLinetypeTableRecord
  2
Continuous
 70
     0
  3
Solid line
 72
    65
 73
     0
 40
0.0
  0
LTYPE
  5
6F
330
5
100
AcDbSymbolTableRecord
100
AcDbLinetypeTableRecord
  2
JWW_CENTER2
 70
     0
  3
-------------  --  -------------
 72
    65
 73
     4
 40
13.54666666666667
 49
11.00666666666667
 74
     0
 49
-0.8466666666666667
 74
     0
 49
0.8466666666666667
 74
     0
 49
-0.8466666666666667
 74
     0
  0
LTYPE
  5
70
330
5
100
AcDbSymbolTableRecord
100
AcDbLinetypeTableRecord
  2
JWW_CENTER1
 70
     0
  3
-----  --  ----------  --  -----
 72
    65
 73
     4
 40
6.773333333333333
 49
4.233333333333333
 74
     0
 49
-0.8466666666666667
 74
     0
 49
0.8466666666666667
 74
     0
 49
-0.8466666666666667
 74
     0
  0
LTYPE
  5
71
330
5
100
AcDbSymbolTableRecord
100
AcDbLinetypeTableRecord
  2
JWW_DASHED1
 70
     0
  3
-  --  --  --  --  --  --  --  -
 72
    65
 73
     2
 40
1.693333333333333
 49
0.8466666666666667
 74
     0
 49
-0.8466666666666667
 74
     0
  0
LTYPE
  5
72
330
5
100
AcDbSymbolTableRecord
100
AcDbLinetypeTableRecord
  2
JWW_DASHED3
 70
     0
  3
---  ------  ------  ------  ---
 72
    65
 73
     2
 40
3.386666666666667
 49
2.54
 74
     0
 49
-0.8466666666666667
 74
     0
  0
ENDTAB
  0
TABLE
  2
LAYER
  5
2
330
0
100
AcDbSymbolTable
 70
    16
  0
LAYER
  5
10
330
2
100
AcDbSymbolTableRecord
100
AcDbLayerTableRecord
  2
0
 70
     0
 62
     7
  6
Continuous
370
    -3
390
F
  0
LAYER
  5
73
330
2
100
AcDbSymbolTableRecord
100
AcDbLayerTableRecord
  2
4-0
 70
     0
 62
     7
  6
Continuous
370
    -3
390
F
  0
LAYER
  5
74
330
2
100
AcDbSymbolTableRecord
100
AcDbLayerTableRecord
  2
F-5ﾚｲﾔ
 70
     0
 62
     7
  6
Continuous
370
    -3
390
F
  0
LAYER
  5
75
330
2
100
AcDbSymbolTableRecord
100
AcDbLayerTableRecord
  2
F-Fﾚｲﾔ
 70
     0
 62
     7
  6
Continuous
370
    -3
390
F
  0
LAYER
  5
76
330
2
100
AcDbSymbolTableRecord
100
AcDbLayerTableRecord
  2
4-2
 70
     0
 62
     7
  6
Continuous
370
    -3
390
F
  0
LAYER
  5
77
330
2
100
AcDbSymbolTableRecord
100
AcDbLayerTableRecord
  2
4-4
 70
     0
 62
     7
  6
Continuous
370
    -3
390
F
  0
LAYER
  5
78
330
2
100
AcDbSymbolTableRecord
100
AcDbLayerTableRecord
  2
4-1
 70
     0
 62
     7
  6
Continuous
370
    -3
390
F
  0
LAYER
  5
79
330
2
100
AcDbSymbolTableRecord
100
AcDbLayerTableRecord
  2
4-9
 70
     0
 62
     7
  6
Continuous
370
    -3
390
F
  0
LAYER
  5
7A
330
2
100
AcDbSymbolTableRecord
100
AcDbLayerTableRecord
  2
4-5
 70
     0
 62
     7
  6
Continuous
370
    -3
390
F
  0
LAYER
  5
7B
330
2
100
AcDbSymbolTableRecord
100
AcDbLayerTableRecord
  2
4-A
 70
     0
 62
     7
  6
Continuous
370
    -3
390
F
  0
LAYER
  5
7C
330
2
100
AcDbSymbolTableRecord
100
AcDbLayerTableRecord
  2
D-A
 70
     0
 62
     7
  6
Continuous
370
    -3
390
F
  0
LAYER
  5
7D
330
2
100
AcDbSymbolTableRecord
100
AcDbLayerTableRecord
  2
D-4
 70
     0
 62
     7
  6
Continuous
370
    -3
390
F
  0
LAYER
  5
7E
330
2
100
AcDbSymbolTableRecord
100
AcDbLayerTableRecord
  2
D-5
 70
     0
 62
     7
  6
Continuous
370
    -3
390
F
  0
LAYER
  5
7F
330
2
100
AcDbSymbolTableRecord
100
AcDbLayerTableRecord
  2
D-9
 70
     0
 62
     7
  6
Continuous
370
    -3
390
F
  0
LAYER
  5
80
330
2
100
AcDbSymbolTableRecord
100
AcDbLayerTableRecord
  2
D-1
 70
     0
 62
     7
  6
Continuous
370
    -3
390
F
  0
LAYER
  5
81
330
2
100
AcDbSymbolTableRecord
100
AcDbLayerTableRecord
  2
D-2
 70
     0
 62
     7
  6
Continuous
370
    -3
390
F
  0
ENDTAB
  0
TABLE
  2
STYLE
  5
3
330
0
100
AcDbSymbolTable
 70
     2
  0
STYLE
  5
11
330
3
100
AcDbSymbolTableRecord
100
AcDbTextStyleTableRecord
  2
Standard
 70
     0
 40
0.0
 41
1.0
 50
0.0
 71
     0
 42
2.5
  3
txt
  4

  0
STYLE
  5
6E
330
3
100
AcDbSymbolTableRecord
100
AcDbTextStyleTableRecord
  2
ＭＳ ゴシック
 70
     0
 40
1.0
 41
1.0
 50
0.0
 71
     0
 42
2.5
  3

  4

1001
ACAD
1000
MS Gothic
1071
    32817
  0
ENDTAB
  0
TABLE
  2
VIEW
  5
6
330
0
100
AcDbSymbolTable
 70
     0
  0
ENDTAB
  0
TABLE
  2
UCS
  5
7
330
0
100
AcDbSymbolTable
 70
     0
  0
ENDTAB
  0
TABLE
  2
APPID
  5
9
330
0
100
AcDbSymbolTable
 70
     2
  0
APPID
  5
12
330
9
100
AcDbSymbolTableRecord
100
AcDbRegAppTableRecord
  2
ACAD
 70
     0
  0
APPID
  5
3C7
330
9
100
AcDbSymbolTableRecord
100
AcDbRegAppTableRecord
  2
ACAD_MLEADERVER
 70
     0
  0
ENDTAB
  0
TABLE
  2
DIMSTYLE
  5
A
330
0
100
AcDbSymbolTable
 70
     1
100
AcDbDimStyleTable
  0
DIMSTYLE
105
27
330
A
100
AcDbSymbolTableRecord
100
AcDbDimStyleTableRecord
  2
ISO-25
 70
     0
 41
2.5
 42
0.625
 43
3.75
 44
1.25
 73
     0
 74
     0
 77
     1
 78
     8
140
2.5
141
2.5
143
0.03937007874016
147
0.625
171
     3
172
     1
178
     0
271
     2
272
     2
274
     3
278
    44
283
     0
284
     8
340
11
  0
ENDTAB
  0
TABLE
  2
BLOCK_RECORD
  5
1
330
0
100
AcDbSymbolTable
 70
     1
  0
BLOCK_RECORD
  5
1F
330
1
100
AcDbSymbolTableRecord
100
AcDbBlockTableRecord
  2
*Model_Space
340
22
  0
BLOCK_RECORD
  5
1B
330
1
100
AcDbSymbolTableRecord
100
AcDbBlockTableRecord
  2
*Paper_Space
340
1E
  0
BLOCK_RECORD
  5
23
330
1
100
AcDbSymbolTableRecord
100
AcDbBlockTableRecord
  2
*Paper_Space0
340
26
  0
ENDTAB
  0
ENDSEC
  0
SECTION
  2
BLOCKS
  0
BLOCK
  5
20
330
1F
100
AcDbEntity
  8
0
100
AcDbBlockBegin
  2
*Model_Space
 70
     0
 10
0.0
 20
0.0
 30
0.0
  3
*Model_Space
  1

  0
ENDBLK
  5
21
330
1F
100
AcDbEntity
  8
0
100
AcDbBlockEnd
  0
BLOCK
  5
1C
330
1B
100
AcDbEntity
 67
     1
  8
0
100
AcDbBlockBegin
  2
*Paper_Space
 70
     0
 10
0.0
 20
0.0
 30
0.0
  3
*Paper_Space
  1

  0
ENDBLK
  5
1D
330
1B
100
AcDbEntity
 67
     1
  8
0
100
AcDbBlockEnd
  0
BLOCK
  5
24
330
23
100
AcDbEntity
  8
0
100
AcDbBlockBegin
  2
*Paper_Space0
 70
     0
 10
0.0
 20
0.0
 30
0.0
  3
*Paper_Space0
  1

  0
ENDBLK
  5
25
330
23
100
AcDbEntity
  8
0
100
AcDbBlockEnd
  0
ENDSEC
  0
SECTION
  2
ENTITIES
  0
SOLID
  5
82
330
1F
100
AcDbEntity
  8
4-0
  6
Continuous
 62
     4
370
     9
100
AcDbTrace
 10
-1289.779649065456
 20
223.0039304735847
 30
0.0
 11
-1309.779649065456
 21
223.0039304735847
 31
0.0
 12
-1289.779649065456
 22
221.0039304735847
 32
0.0
 13
-1309.779649065456
 23
221.0039304735847
 33
0.0
  0
SOLID
  5
83
330
1F
100
AcDbEntity
  8
4-0
  6
Continuous
 62
     4
370
     9
100
AcDbTrace
 10
217.9863255477585
 20
223.0039304735847
 30
0.0
 11
197.986325547759
 21
223.0039304735847
 31
0.0
 12
217.9863255477585
 22
221.0039304735847
 32
0.0
 13
197.986325547759
 23
221.0039304735847
 33
0.0
  0
SOLID
  5
84
330
1F
100
AcDbEntity
  8
4-0
  6
Continuous
 62
     4
370
     9
100
AcDbTrace
 10
-362.0887195666028
 20
41.24260584994568
 30
0.0
 11
-362.0887195666028
 21
21.24260584994614
 31
0.0
 12
-360.0887195666028
 22
41.24260584994568
 32
0.0
 13
-360.0887195666028
 23
21.24260584994614
 33
0.0
  0
SOLID
  5
85
330
1F
100
AcDbEntity
  8
4-0
  6
Continuous
 62
     4
370
     9
100
AcDbTrace
 10
-362.0887195666028
 20
422.7652550972236
 30
0.0
 11
-362.0887195666028
 21
402.7652550972241
 31
0.0
 12
-360.0887195666028
 22
422.7652550972236
 32
0.0
 13
-360.0887195666028
 23
402.7652550972241
 33
0.0
  0
TEXT
  5
86
330
1F
100
AcDbEntity
  8
F-5ﾚｲﾔ
  6
Continuous
 62
     2
370
     9
100
AcDbText
 10
490.148065837673
 20
940.7874374533388
 30
0.0
 40
12.192
  1
スチール製 溶融亜鉛めっき
 41
1.115
  7
ＭＳ ゴシック
100
AcDbText
  0
LINE
  5
87
330
1F
100
AcDbEntity
  8
4-0
  6
JWW_CENTER2
 62
     7
370
     9
100
AcDbLine
 10
197.9863255477591
 20
222.0039304735849
 30
0.0
 11
-1289.779649065456
 21
222.0039304735849
 31
0.0
  0
LINE
  5
88
330
1F
100
AcDbEntity
  8
F-Fﾚｲﾔ
  6
Continuous
 62
     7
370
     9
100
AcDbLine
 10
321.4186533508367
 20
1066.531437453339
 30
0.0
 11
949.6774430588097
 21
1066.531437453339
 31
0.0
  0
TEXT
  5
89
330
1F
100
AcDbEntity
  8
F-Fﾚｲﾔ
  6
Continuous
 62
     2
370
     9
100
AcDbText
 10
332.0655434092981
 20
1044.787437453339
 30
0.0
 40
12.192
  1
名称
 41
1.0625
  7
ＭＳ ゴシック
100
AcDbText
  0
TEXT
  5
8A
330
1F
100
AcDbEntity
  8
F-5ﾚｲﾔ
  6
Continuous
 62
     2
370
     9
100
AcDbText
 10
991.2516982301509
 20
1044.787458911011
 30
0.0
 40
12.192
  1
強度性能
 41
1.09375
  7
ＭＳ ゴシック
100
AcDbText
  0
TEXT
  5
8B
330
1F
100
AcDbEntity
  8
F-5ﾚｲﾔ
  6
Continuous
 62
     2
370
     9
100
AcDbText
 10
991.2516982301509
 20
1008.787437453339
 30
0.0
 40
12.192
  1
強度
 41
1.0625
  7
ＭＳ ゴシック
100
AcDbText
  0
TEXT
  5
8C
330
1F
100
AcDbEntity
  8
F-5ﾚｲﾔ
  6
Continuous
 62
     2
370
     9
100
AcDbText
 10
991.2516982301509
 20
944.7874374533386
 30
0.0
 40
12.192
  1
主な使用場所
 41
1.104166666666667
  7
ＭＳ ゴシック
100
AcDbText
  0
LINE
  5
8D
330
1F
100
AcDbEntity
  8
F-5ﾚｲﾔ
  6
Continuous
 62
     7
370
     9
100
AcDbLine
 10
980.6048081716904
 20
1066.531437453339
 30
0.0
 11
1549.291485053692
 21
1066.531437453339
 31
0.0
  0
LINE
  5
8E
330
1F
100
AcDbEntity
  8
F-5ﾚｲﾔ
  6
Continuous
 62
     7
370
     9
100
AcDbLine
 10
980.6048081716904
 20
1034.531437453339
 30
0.0
 11
1549.291485053692
 21
1034.531437453339
 31
0.0
  0
LINE
  5
8F
330
1F
100
AcDbEntity
  8
F-5ﾚｲﾔ
  6
Continuous
 62
     7
370
     9
100
AcDbLine
 10
980.6048081716904
 20
1030.531437453339
 30
0.0
 11
1549.291485053692
 21
1030.531437453339
 31
0.0
  0
LINE
  5
90
330
1F
100
AcDbEntity
  8
F-5ﾚｲﾔ
  6
Continuous
 62
     7
370
     9
100
AcDbLine
 10
980.6048081716904
 20
966.5314374533386
 30
0.0
 11
1549.291485053692
 21
966.5314374533386
 31
0.0
  0
TEXT
  5
91
330
1F
100
AcDbEntity
  8
F-5ﾚｲﾔ
  6
Continuous
 62
     2
370
     9
100
AcDbText
 10
1149.334220658527
 20
1008.787437453339
 30
0.0
 40
12.192
  1
T-2：後輪1輪荷重7.8kN(800kgf)
 41
1.120689655172414
  7
ＭＳ ゴシック
100
AcDbText
  0
TEXT
  5
92
330
1F
100
AcDbEntity
  8
F-5ﾚｲﾔ
  6
Continuous
 62
     2
370
     9
100
AcDbText
 10
1149.334220658527
 20
976.7874374533386
 30
0.0
 40
12.192
  1
 　　総重量2トンまでの車両が通行可能
 41
1.118055555555556
  7
ＭＳ ゴシック
100
AcDbText
  0
TEXT
  5
93
330
1F
100
AcDbEntity
  8
F-5ﾚｲﾔ
  6
Continuous
 62
     2
370
     9
100
AcDbText
 10
1149.334220658527
 20
944.7874374533386
 30
0.0
 40
12.192
  1
建物内、建物敷地内、公園敷地内、
 41
1.1171875
  7
ＭＳ ゴシック
100
AcDbText
  0
LINE
  5
94
330
1F
100
AcDbEntity
  8
F-5ﾚｲﾔ
  6
Continuous
 62
     7
370
     9
100
AcDbLine
 10
980.6048081716904
 20
870.5314374533386
 30
0.0
 11
1549.291485053692
 21
870.5314374533386
 31
0.0
  0
LINE
  5
95
330
1F
100
AcDbEntity
  8
F-5ﾚｲﾔ
  6
Continuous
 62
     7
370
     9
100
AcDbLine
 10
980.6048081716904
 20
902.5314374533386
 30
0.0
 11
1549.291485053692
 21
902.5314374533386
 31
0.0
  0
TEXT
  5
96
330
1F
100
AcDbEntity
  8
F-5ﾚｲﾔ
  6
Continuous
 62
     2
370
     9
100
AcDbText
 10
1149.334220658527
 20
912.7874374533386
 30
0.0
 40
12.192
  1
車道以外で車両の乗り入れる可能性のある場所
 41
1.11904761904762
  7
ＭＳ ゴシック
100
AcDbText
  0
LINE
  5
97
330
1F
100
AcDbEntity
  8
F-5ﾚｲﾔ
  6
Continuous
 62
     7
370
     9
100
AcDbLine
 10
980.6048081716904
 20
838.5314374533386
 30
0.0
 11
1549.291485053692
 21
838.5314374533386
 31
0.0
  0
LINE
  5
98
330
1F
100
AcDbEntity
  8
F-5ﾚｲﾔ
  6
Continuous
 62
     7
370
     9
100
AcDbLine
 10
980.6048081716904
 20
774.5314374533386
 30
0.0
 11
1549.291485053692
 21
774.5314374533386
 31
0.0
  0
TEXT
  5
99
330
1F
100
AcDbEntity
  8
F-5ﾚｲﾔ
  6
Continuous
 62
     2
370
     9
100
AcDbText
 10
991.2516982301509
 20
848.7874374533386
 30
0.0
 40
12.192
  1
衝撃係数
 41
1.09375
  7
ＭＳ ゴシック
100
AcDbText
  0
TEXT
  5
9A
330
1F
100
AcDbEntity
  8
F-5ﾚｲﾔ
  6
Continuous
 62
     2
370
     9
100
AcDbText
 10
991.2516982301509
 20
880.7874374533386
 30
0.0
 40
12.192
  1
車両進行方向
 41
1.104166666666667
  7
ＭＳ ゴシック
100
AcDbText
  0
TEXT
  5
9B
330
1F
100
AcDbEntity
  8
F-5ﾚｲﾔ
  6
Continuous
 62
     2
370
     9
100
AcDbText
 10
991.2516982301509
 20
816.7874374533386
 30
0.0
 40
12.192
  1
衝撃を考慮した
 41
1.107142857142857
  7
ＭＳ ゴシック
100
AcDbText
  0
TEXT
  5
9C
330
1F
100
AcDbEntity
  8
F-5ﾚｲﾔ
  6
Continuous
 62
     2
370
     9
100
AcDbText
 10
991.2516982301509
 20
784.7874374533386
 30
0.0
 40
12.192
  1
後輪1輪荷重
 41
1.102272727272727
  7
ＭＳ ゴシック
100
AcDbText
  0
LINE
  5
9D
330
1F
100
AcDbEntity
  8
F-5ﾚｲﾔ
  6
Continuous
 62
     7
370
     9
100
AcDbLine
 10
980.6048081716904
 20
742.5314374533386
 30
0.0
 11
1549.291485053692
 21
742.5314374533386
 31
0.0
  0
TEXT
  5
9E
330
1F
100
AcDbEntity
  8
F-5ﾚｲﾔ
  6
Continuous
 62
     2
370
     9
100
AcDbText
 10
991.2516982301509
 20
752.7874374533386
 30
0.0
 40
12.192
  1
後輪接地面積
 41
1.104166666666667
  7
ＭＳ ゴシック
100
AcDbText
  0
LINE
  5
9F
330
1F
100
AcDbEntity
  8
F-5ﾚｲﾔ
  6
Continuous
 62
     7
370
     9
100
AcDbLine
 10
1132.800259900917
 20
1034.531437453339
 30
0.0
 11
1132.800259900917
 21
742.5314374533386
 31
0.0
  0
LINE
  5
A0
330
1F
100
AcDbEntity
  8
F-5ﾚｲﾔ
  6
Continuous
 62
     7
370
     9
100
AcDbLine
 10
980.6048081716904
 20
1066.531437453339
 30
0.0
 11
980.6048081716904
 21
742.5314374533386
 31
0.0
  0
LINE
  5
A1
330
1F
100
AcDbEntity
  8
F-5ﾚｲﾔ
  6
Continuous
 62
     7
370
     9
100
AcDbLine
 10
1549.291485053692
 20
1066.531437453339
 30
0.0
 11
1549.291485053692
 21
742.5314374533386
 31
0.0
  0
TEXT
  5
A2
330
1F
100
AcDbEntity
  8
F-5ﾚｲﾔ
  6
Continuous
 62
     2
370
     9
100
AcDbText
 10
1149.334220658527
 20
880.7874374533386
 30
0.0
 40
12.192
  1
横断方向、縦断方向
 41
1.111111111111111
  7
ＭＳ ゴシック
100
AcDbText
  0
TEXT
  5
A3
330
1F
100
AcDbEntity
  8
F-5ﾚｲﾔ
  6
Continuous
 62
     2
370
     9
100
AcDbText
 10
1149.334220658527
 20
848.7874374533386
 30
0.0
 40
12.192
  1
0.1
 41
1.083333333333333
  7
ＭＳ ゴシック
100
AcDbText
  0
TEXT
  5
A4
330
1F
100
AcDbEntity
  8
F-5ﾚｲﾔ
  6
Continuous
 62
     2
370
     9
100
AcDbText
 10
1149.334220658527
 20
752.7874374533386
 30
0.0
 40
12.192
  1
200×160 mm
 41
1.113636363636364
  7
ＭＳ ゴシック
100
AcDbText
  0
TEXT
  5
A5
330
1F
100
AcDbEntity
  8
F-5ﾚｲﾔ
  6
Continuous
 62
     2
370
     9
100
AcDbText
 10
1149.334220658527
 20
800.7874374533386
 30
0.0
 40
12.192
  1
8.6kN
 41
1.1
  7
ＭＳ ゴシック
100
AcDbText
  0
LINE
  5
A6
330
1F
100
AcDbEntity
  8
F-Fﾚｲﾔ
  6
Continuous
 62
     7
370
     9
100
AcDbLine
 10
1229.983960934116
 20
-840.2493627503754
 30
0.0
 11
1229.983960934116
 21
-960.2493627503754
 31
0.0
  0
TEXT
  5
A7
330
1F
100
AcDbEntity
  8
F-Fﾚｲﾔ
  6
Continuous
 62
     2
370
     9
100
AcDbText
 10
1243.175073972657
 20
-885.8115728899587
 30
0.0
 40
12.192
  1
なタイプの蓋を用意しております。
 41
1.1171875
  7
ＭＳ ゴシック
100
AcDbText
  0
TEXT
  5
A8
330
1F
100
AcDbEntity
  8
F-Fﾚｲﾔ
  6
Continuous
 62
     2
370
     9
100
AcDbText
 10
1243.175073972657
 20
-906.4859795566255
 30
0.0
 40
12.192
  1
「把手穴付」とご指示ください。
 41
1.116666666666667
  7
ＭＳ ゴシック
100
AcDbText
  0
TEXT
  5
A9
330
1F
100
AcDbEntity
  8
F-Fﾚｲﾔ
  6
Continuous
 62
     2
370
     9
100
AcDbText
 10
1243.175073972657
 20
-927.1603862232922
 30
0.0
 40
12.192
  1
把手穴付の蓋の設置は、5枚に1枚
 41
1.116666666666667
  7
ＭＳ ゴシック
100
AcDbText
  0
TEXT
  5
AA
330
1F
100
AcDbEntity
  8
F-Fﾚｲﾔ
  6
Continuous
 62
     2
370
     9
100
AcDbText
 10
1243.175073972657
 20
-947.834792889959
 30
0.0
 40
12.192
  1
程度が目安です。
 41
1.109375
  7
ＭＳ ゴシック
100
AcDbText
  0
TEXT
  5
AB
330
1F
100
AcDbEntity
  8
F-Fﾚｲﾔ
  6
Continuous
 62
     2
370
     9
100
AcDbText
 10
1243.175073972657
 20
-865.1371662232922
 30
0.0
 40
12.192
  1
専用ハンドルを用いる、開閉が容易
 41
1.1171875
  7
ＭＳ ゴシック
100
AcDbText
  0
LINE
  5
AC
330
1F
100
AcDbEntity
  8
F-Fﾚｲﾔ
  6
Continuous
 62
     7
370
     9
100
AcDbLine
 10
1229.983960934116
 20
-840.2493627503754
 30
0.0
 11
1535.229304201811
 21
-840.2493627503754
 31
0.0
  0
LINE
  5
AD
330
1F
100
AcDbEntity
  8
F-Fﾚｲﾔ
  6
Continuous
 62
     7
370
     9
100
AcDbLine
 10
1535.229304201811
 20
-840.2493627503754
 30
0.0
 11
1535.229304201811
 21
-960.2493627503754
 31
0.0
  0
LINE
  5
AE
330
1F
100
AcDbEntity
  8
F-Fﾚｲﾔ
  6
Continuous
 62
     7
370
     9
100
AcDbLine
 10
1535.229304201811
 20
-960.2493627503754
 30
0.0
 11
1229.983960934116
 21
-960.2493627503754
 31
0.0
  0
LINE
  5
AF
330
1F
100
AcDbEntity
  8
4-2
  6
Continuous
 62
     3
370
     9
100
AcDbLine
 10
-674.5135566237518
 20
213.6379417144629
 30
0.0
 11
-704.5135972745798
 21
213.6379417144629
 31
0.0
  0
LINE
  5
B0
330
1F
100
AcDbEntity
  8
4-2
  6
Continuous
 62
     3
370
     9
100
AcDbLine
 10
-674.5135566237518
 20
198.0494003633552
 30
0.0
 11
-704.5135972745798
 21
198.0494003633552
 31
0.0
  0
LINE
  5
B1
330
1F
100
AcDbEntity
  8
4-2
  6
Continuous
 62
     3
370
     9
100
AcDbLine
 10
-674.5135566237518
 20
197.5494003633532
 30
0.0
 11
-704.5135972745798
 21
197.5494003633532
 31
0.0
  0
LINE
  5
B2
330
1F
100
AcDbEntity
  8
4-2
  6
Continuous
 62
     3
370
     9
100
AcDbLine
 10
-674.5135566237518
 20
230.369992522031
 30
0.0
 11
-704.5135972745798
 21
230.369992522031
 31
0.0
  0
LINE
  5
B3
330
1F
100
AcDbEntity
  8
4-2
  6
Continuous
 62
     3
370
     9
100
AcDbLine
 10
-674.5135566237518
 20
246.4585338731407
 30
0.0
 11
-704.5135972745798
 21
246.4585338731407
 31
0.0
  0
LINE
  5
B4
330
1F
100
AcDbEntity
  8
4-2
  6
Continuous
 62
     3
370
     9
100
AcDbLine
 10
-674.5135566237518
 20
245.9585338731433
 30
0.0
 11
-704.5135972745798
 21
245.9585338731433
 31
0.0
  0
LINE
  5
B5
330
1F
100
AcDbEntity
  8
4-2
  6
Continuous
 62
     3
370
     9
100
AcDbLine
 10
-674.5135566237518
 20
246.4585338731407
 30
0.0
 11
-674.5135566237518
 21
197.5494003633532
 31
0.0
  0
LINE
  5
B6
330
1F
100
AcDbEntity
  8
4-2
  6
Continuous
 62
     3
370
     9
100
AcDbLine
 10
-704.5135972745798
 20
197.5494003633532
 30
0.0
 11
-704.5135972745798
 21
246.4585338731407
 31
0.0
  0
LINE
  5
B7
330
1F
100
AcDbEntity
  8
4-2
  6
Continuous
 62
     3
370
     9
100
AcDbLine
 10
-1027.51359727458
 20
213.6379417144629
 30
0.0
 11
-997.5135566237517
 21
213.6379417144629
 31
0.0
  0
LINE
  5
B8
330
1F
100
AcDbEntity
  8
4-2
  6
Continuous
 62
     3
370
     9
100
AcDbLine
 10
-1027.51359727458
 20
198.0494003633552
 30
0.0
 11
-997.5135566237517
 21
198.0494003633552
 31
0.0
  0
LINE
  5
B9
330
1F
100
AcDbEntity
  8
4-2
  6
Continuous
 62
     3
370
     9
100
AcDbLine
 10
-1027.51359727458
 20
197.5494003633532
 30
0.0
 11
-997.5135566237517
 21
197.5494003633532
 31
0.0
  0
LINE
  5
BA
330
1F
100
AcDbEntity
  8
4-2
  6
Continuous
 62
     3
370
     9
100
AcDbLine
 10
-1027.51359727458
 20
230.369992522031
 30
0.0
 11
-997.5135566237517
 21
230.369992522031
 31
0.0
  0
LINE
  5
BB
330
1F
100
AcDbEntity
  8
4-2
  6
Continuous
 62
     3
370
     9
100
AcDbLine
 10
-1027.51359727458
 20
246.4585338731407
 30
0.0
 11
-997.5135566237517
 21
246.4585338731407
 31
0.0
  0
LINE
  5
BC
330
1F
100
AcDbEntity
  8
4-2
  6
Continuous
 62
     3
370
     9
100
AcDbLine
 10
-1027.51359727458
 20
245.9585338731433
 30
0.0
 11
-997.5135566237517
 21
245.9585338731433
 31
0.0
  0
LINE
  5
BD
330
1F
100
AcDbEntity
  8
4-2
  6
Continuous
 62
     3
370
     9
100
AcDbLine
 10
-1027.51359727458
 20
246.4585338731407
 30
0.0
 11
-1027.51359727458
 21
197.5494003633532
 31
0.0
  0
LINE
  5
BE
330
1F
100
AcDbEntity
  8
4-2
  6
Continuous
 62
     3
370
     9
100
AcDbLine
 10
-997.5135566237517
 20
197.5494003633532
 30
0.0
 11
-997.5135566237517
 21
246.4585338731407
 31
0.0
  0
LINE
  5
BF
330
1F
100
AcDbEntity
  8
4-2
  6
Continuous
 62
     3
370
     9
100
AcDbLine
 10
-74.51365412682605
 20
213.6379417144629
 30
0.0
 11
-104.513694777654
 21
213.6379417144629
 31
0.0
  0
LINE
  5
C0
330
1F
100
AcDbEntity
  8
4-2
  6
Continuous
 62
     3
370
     9
100
AcDbLine
 10
-74.51365412682605
 20
198.0494003633552
 30
0.0
 11
-104.513694777654
 21
198.0494003633552
 31
0.0
  0
LINE
  5
C1
330
1F
100
AcDbEntity
  8
4-2
  6
Continuous
 62
     3
370
     9
100
AcDbLine
 10
-74.51365412682605
 20
197.5494003633532
 30
0.0
 11
-104.513694777654
 21
197.5494003633532
 31
0.0
  0
LINE
  5
C2
330
1F
100
AcDbEntity
  8
4-2
  6
Continuous
 62
     3
370
     9
100
AcDbLine
 10
-74.51365412682605
 20
230.369992522031
 30
0.0
 11
-104.513694777654
 21
230.369992522031
 31
0.0
  0
LINE
  5
C3
330
1F
100
AcDbEntity
  8
4-2
  6
Continuous
 62
     3
370
     9
100
AcDbLine
 10
-74.51365412682605
 20
246.4585338731407
 30
0.0
 11
-104.513694777654
 21
246.4585338731407
 31
0.0
  0
LINE
  5
C4
330
1F
100
AcDbEntity
  8
4-2
  6
Continuous
 62
     3
370
     9
100
AcDbLine
 10
-74.51365412682605
 20
245.9585338731433
 30
0.0
 11
-104.513694777654
 21
245.9585338731433
 31
0.0
  0
LINE
  5
C5
330
1F
100
AcDbEntity
  8
4-2
  6
Continuous
 62
     3
370
     9
100
AcDbLine
 10
-74.51365412682605
 20
246.4585338731407
 30
0.0
 11
-74.51365412682605
 21
197.5494003633532
 31
0.0
  0
LINE
  5
C6
330
1F
100
AcDbEntity
  8
4-2
  6
Continuous
 62
     3
370
     9
100
AcDbLine
 10
-104.513694777654
 20
197.5494003633532
 30
0.0
 11
-104.513694777654
 21
246.4585338731407
 31
0.0
  0
LINE
  5
C7
330
1F
100
AcDbEntity
  8
4-2
  6
Continuous
 62
     3
370
     9
100
AcDbLine
 10
-427.5136947776539
 20
213.6379417144629
 30
0.0
 11
-397.5136541268259
 21
213.6379417144629
 31
0.0
  0
LINE
  5
C8
330
1F
100
AcDbEntity
  8
4-2
  6
Continuous
 62
     3
370
     9
100
AcDbLine
 10
-427.5136947776539
 20
198.0494003633552
 30
0.0
 11
-397.5136541268259
 21
198.0494003633552
 31
0.0
  0
LINE
  5
C9
330
1F
100
AcDbEntity
  8
4-2
  6
Continuous
 62
     3
370
     9
100
AcDbLine
 10
-427.5136947776539
 20
197.5494003633532
 30
0.0
 11
-397.5136541268259
 21
197.5494003633532
 31
0.0
  0
LINE
  5
CA
330
1F
100
AcDbEntity
  8
4-2
  6
Continuous
 62
     3
370
     9
100
AcDbLine
 10
-427.5136947776539
 20
230.369992522031
 30
0.0
 11
-397.5136541268259
 21
230.369992522031
 31
0.0
  0
LINE
  5
CB
330
1F
100
AcDbEntity
  8
4-2
  6
Continuous
 62
     3
370
     9
100
AcDbLine
 10
-427.5136947776539
 20
246.4585338731407
 30
0.0
 11
-397.5136541268259
 21
246.4585338731407
 31
0.0
  0
LINE
  5
CC
330
1F
100
AcDbEntity
  8
4-2
  6
Continuous
 62
     3
370
     9
100
AcDbLine
 10
-427.5136947776539
 20
245.9585338731433
 30
0.0
 11
-397.5136541268259
 21
245.9585338731433
 31
0.0
  0
LINE
  5
CD
330
1F
100
AcDbEntity
  8
4-2
  6
Continuous
 62
     3
370
     9
100
AcDbLine
 10
-427.5136947776539
 20
246.4585338731407
 30
0.0
 11
-427.5136947776539
 21
197.5494003633532
 31
0.0
  0
LINE
  5
CE
330
1F
100
AcDbEntity
  8
4-2
  6
Continuous
 62
     3
370
     9
100
AcDbLine
 10
-397.5136541268259
 20
197.5494003633532
 30
0.0
 11
-397.5136541268259
 21
246.4585338731407
 31
0.0
  0
LINE
  5
CF
330
1F
100
AcDbEntity
  8
4-2
  6
Continuous
 62
     7
370
     9
100
AcDbLine
 10
-1150.013576949165
 20
-445.5120877461163
 30
0.0
 11
-552.0135769491667
 21
-445.5120877461163
 31
0.0
  0
LINE
  5
D0
330
1F
100
AcDbEntity
  8
4-2
  6
Continuous
 62
     7
370
     9
100
AcDbLine
 10
-550.013674452239
 20
-445.5120877461163
 30
0.0
 11
47.98632554775907
 21
-445.5120877461163
 31
0.0
  0
LINE
  5
D1
330
1F
100
AcDbEntity
  8
4-4
  6
Continuous
 62
     7
370
     9
100
AcDbLine
 10
-1150.013576949165
 20
-345.5123973993815
 30
0.0
 11
-552.0135769491667
 21
-345.5123973993815
 31
0.0
  0
LWPOLYLINE
  5
D2
330
1F
100
AcDbEntity
  8
4-4
  6
Continuous
 62
     7
370
     9
100
AcDbPolyline
 90
        4
 70
     1
 43
0.8
 10
-1149.613576949165
 20
-345.5123973993815
 42
0.4142135623731
 10
-1150.013576949165
 20
-345.1123973993815
 42
0.4142135623731
 10
-1150.413576949165
 20
-345.5123973993815
 42
0.4142135623731
 10
-1150.013576949165
 20
-345.9123973993815
 42
0.4142135623731
  0
LWPOLYLINE
  5
D3
330
1F
100
AcDbEntity
  8
4-4
  6
Continuous
 62
     7
370
     9
100
AcDbPolyline
 90
        4
 70
     1
 43
0.8
 10
-551.6135769491667
 20
-345.5123973993815
 42
0.4142135623731
 10
-552.0135769491667
 20
-345.1123973993815
 42
0.4142135623731
 10
-552.4135769491667
 20
-345.5123973993815
 42
0.4142135623731
 10
-552.0135769491667
 20
-345.9123973993815
 42
0.4142135623731
  0
LINE
  5
D4
330
1F
100
AcDbEntity
  8
4-4
  6
Continuous
 62
     7
370
     9
100
AcDbLine
 10
-1150.013576949165
 20
-344.3123973993815
 30
0.0
 11
-1150.013576949165
 21
-437.5123973993815
 31
0.0
  0
LINE
  5
D5
330
1F
100
AcDbEntity
  8
4-4
  6
Continuous
 62
     7
370
     9
100
AcDbLine
 10
-552.0135769491667
 20
-344.3123973993815
 30
0.0
 11
-552.0135769491667
 21
-437.5120877461163
 31
0.0
  0
TEXT
  5
D6
330
1F
100
AcDbEntity
  8
4-4
  6
Continuous
 62
     2
370
   211
100
AcDbText
 10
-864.0135769491658
 20
-340.8563973993815
 30
0.0
 40
12.192
  1
598
 41
1.083333333333333
  7
ＭＳ ゴシック
100
AcDbText
  0
LINE
  5
D7
330
1F
100
AcDbEntity
  8
4-4
  6
Continuous
 62
     7
370
     9
100
AcDbLine
 10
-552.0135769491667
 20
-345.5123973993815
 30
0.0
 11
-550.013674452239
 21
-345.5123973993815
 31
0.0
  0
LWPOLYLINE
  5
D8
330
1F
100
AcDbEntity
  8
4-4
  6
Continuous
 62
     7
370
     9
100
AcDbPolyline
 90
        4
 70
     1
 43
0.8
 10
-549.613674452239
 20
-345.5123973993815
 42
0.4142135623731
 10
-550.013674452239
 20
-345.1123973993815
 42
0.4142135623731
 10
-550.413674452239
 20
-345.5123973993815
 42
0.4142135623731
 10
-550.013674452239
 20
-345.9123973993815
 42
0.4142135623731
  0
LINE
  5
D9
330
1F
100
AcDbEntity
  8
4-4
  6
Continuous
 62
     7
370
     9
100
AcDbLine
 10
-550.013674452239
 20
-344.3123973993815
 30
0.0
 11
-550.013674452239
 21
-437.5120877461163
 31
0.0
  0
TEXT
  5
DA
330
1F
100
AcDbEntity
  8
4-4
  6
Continuous
 62
     2
370
   211
100
AcDbText
 10
-555.0136257007028
 20
-340.8563973993815
 30
0.0
 40
12.192
  1
2
  7
ＭＳ ゴシック
100
AcDbText
  0
LINE
  5
DB
330
1F
100
AcDbEntity
  8
4-4
  6
Continuous
 62
     7
370
     9
100
AcDbLine
 10
-550.013674452239
 20
-345.5123973993815
 30
0.0
 11
47.98632554775918
 21
-345.5123973993815
 31
0.0
  0
LWPOLYLINE
  5
DC
330
1F
100
AcDbEntity
  8
4-4
  6
Continuous
 62
     7
370
     9
100
AcDbPolyline
 90
        4
 70
     1
 43
0.8
 10
48.38632554775918
 20
-345.5123973993815
 42
0.4142135623731
 10
47.98632554775918
 20
-345.1123973993815
 42
0.4142135623731
 10
47.58632554775918
 20
-345.5123973993815
 42
0.4142135623731
 10
47.98632554775918
 20
-345.9123973993815
 42
0.4142135623731
  0
LINE
  5
DD
330
1F
100
AcDbEntity
  8
4-4
  6
Continuous
 62
     7
370
     9
100
AcDbLine
 10
47.98632554775918
 20
-344.3123973993815
 30
0.0
 11
47.98632554775918
 21
-437.5123973993815
 31
0.0
  0
TEXT
  5
DE
330
1F
100
AcDbEntity
  8
4-4
  6
Continuous
 62
     2
370
   211
100
AcDbText
 10
-264.0136744522399
 20
-340.8563973993815
 30
0.0
 40
12.192
  1
598
 41
1.083333333333333
  7
ＭＳ ゴシック
100
AcDbText
  0
LINE
  5
DF
330
1F
100
AcDbEntity
  8
4-4
  6
Continuous
 62
     7
370
     9
100
AcDbLine
 10
-1145.513492112656
 20
-395.5123973993815
 30
0.0
 11
-556.5136617856774
 21
-395.5123973993815
 31
0.0
  0
LWPOLYLINE
  5
E0
330
1F
100
AcDbEntity
  8
4-4
  6
Continuous
 62
     7
370
     9
100
AcDbPolyline
 90
        4
 70
     1
 43
0.8
 10
-1145.113492112656
 20
-395.5123973993815
 42
0.4142135623731
 10
-1145.513492112656
 20
-395.1123973993815
 42
0.4142135623731
 10
-1145.913492112656
 20
-395.5123973993815
 42
0.4142135623731
 10
-1145.513492112656
 20
-395.9123973993815
 42
0.4142135623731
  0
LWPOLYLINE
  5
E1
330
1F
100
AcDbEntity
  8
4-4
  6
Continuous
 62
     7
370
     9
100
AcDbPolyline
 90
        4
 70
     1
 43
0.8
 10
-556.1136617856774
 20
-395.5123973993815
 42
0.4142135623731
 10
-556.5136617856774
 20
-395.1123973993815
 42
0.4142135623731
 10
-556.9136617856774
 20
-395.5123973993815
 42
0.4142135623731
 10
-556.5136617856774
 20
-395.9123973993815
 42
0.4142135623731
  0
LINE
  5
E2
330
1F
100
AcDbEntity
  8
4-4
  6
Continuous
 62
     7
370
     9
100
AcDbLine
 10
-1145.513492112656
 20
-394.3123973993815
 30
0.0
 11
-1145.513492112656
 21
-437.5120877461163
 31
0.0
  0
LINE
  5
E3
330
1F
100
AcDbEntity
  8
4-4
  6
Continuous
 62
     7
370
     9
100
AcDbLine
 10
-556.5136617856774
 20
-394.3123973993815
 30
0.0
 11
-556.5136617856774
 21
-437.5123973993815
 31
0.0
  0
TEXT
  5
E4
330
1F
100
AcDbEntity
  8
4-4
  6
Continuous
 62
     2
370
   211
100
AcDbText
 10
-864.0135769491666
 20
-390.8563973993815
 30
0.0
 40
12.192
  1
589
 41
1.083333333333333
  7
ＭＳ ゴシック
100
AcDbText
  0
LWPOLYLINE
  5
E5
330
1F
100
AcDbEntity
  8
4-4
  6
Continuous
 62
     7
370
     9
100
AcDbPolyline
 90
        4
 70
     1
 43
0.8
 10
254.5173833058328
 20
-445.5123973993815
 42
0.4142135623731
 10
254.1173833058328
 20
-445.1123973993815
 42
0.4142135623731
 10
253.7173833058328
 20
-445.5123973993815
 42
0.4142135623731
 10
254.1173833058328
 20
-445.9123973993815
 42
0.4142135623731
  0
LINE
  5
E6
330
1F
100
AcDbEntity
  8
4-4
  6
Continuous
 62
     7
370
     9
100
AcDbLine
 10
255.3173833058328
 20
-445.5123973993815
 30
0.0
 11
155.9863255477591
 21
-445.5123973993815
 31
0.0
  0
LWPOLYLINE
  5
E7
330
1F
100
AcDbEntity
  8
4-4
  6
Continuous
 62
     7
370
     9
100
AcDbPolyline
 90
        4
 70
     1
 43
0.8
 10
205.1479070344642
 20
-445.5123973993815
 42
0.4142135623731
 10
204.7479070344642
 20
-445.1123973993815
 42
0.4142135623731
 10
204.3479070344642
 20
-445.5123973993815
 42
0.4142135623731
 10
204.7479070344642
 20
-445.9123973993815
 42
0.4142135623731
  0
LWPOLYLINE
  5
E8
330
1F
100
AcDbEntity
  8
4-4
  6
Continuous
 62
     7
370
     9
100
AcDbPolyline
 90
        4
 70
     1
 43
0.8
 10
925.0041639918678
 20
-445.5123973993815
 42
0.4142135623731
 10
924.6041639918678
 20
-445.1123973993815
 42
0.4142135623731
 10
924.2041639918679
 20
-445.5123973993815
 42
0.4142135623731
 10
924.6041639918678
 20
-445.9123973993815
 42
0.4142135623731
  0
LWPOLYLINE
  5
E9
330
1F
100
AcDbEntity
  8
4-4
  6
Continuous
 62
     7
370
     9
100
AcDbPolyline
 90
        4
 70
     1
 43
0.8
 10
824.304240900966
 20
-445.5123973993815
 42
0.4142135623731
 10
823.904240900966
 20
-445.1123973993815
 42
0.4142135623731
 10
823.504240900966
 20
-445.5123973993815
 42
0.4142135623731
 10
823.904240900966
 20
-445.9123973993815
 42
0.4142135623731
  0
LINE
  5
EA
330
1F
100
AcDbEntity
  8
F-Fﾚｲﾔ
  6
Continuous
 62
     7
370
     9
100
AcDbLine
 10
321.4186533508367
 20
998.5314374533389
 30
0.0
 11
949.6774430588097
 21
998.5314374533389
 31
0.0
  0
LINE
  5
EB
330
1F
100
AcDbEntity
  8
F-Fﾚｲﾔ
  6
Continuous
 62
     7
370
     9
100
AcDbLine
 10
321.4186533508367
 20
994.5314374533389
 30
0.0
 11
949.6774430588097
 21
994.5314374533389
 31
0.0
  0
LINE
  5
EC
330
1F
100
AcDbEntity
  8
F-Fﾚｲﾔ
  6
Continuous
 62
     7
370
     9
100
AcDbLine
 10
321.4186533508367
 20
962.5314374533389
 30
0.0
 11
949.6774430588097
 21
962.5314374533389
 31
0.0
  0
LINE
  5
ED
330
1F
100
AcDbEntity
  8
F-Fﾚｲﾔ
  6
Continuous
 62
     7
370
     9
100
AcDbLine
 10
321.4186533508367
 20
802.5314374533389
 30
0.0
 11
949.6774430588097
 21
802.5314374533389
 31
0.0
  0
LINE
  5
EE
330
1F
100
AcDbEntity
  8
F-Fﾚｲﾔ
  6
Continuous
 62
     7
370
     9
100
AcDbLine
 10
321.4186533508367
 20
738.5314374533389
 30
0.0
 11
949.6774430588097
 21
738.5314374533389
 31
0.0
  0
TEXT
  5
EF
330
1F
100
AcDbEntity
  8
F-Fﾚｲﾔ
  6
Continuous
 62
     2
370
     9
100
AcDbText
 10
332.0655434092981
 20
940.7874374533388
 30
0.0
 40
12.192
  1
蓋
  7
ＭＳ ゴシック
100
AcDbText
  0
TEXT
  5
F0
330
1F
100
AcDbEntity
  8
F-Fﾚｲﾔ
  6
Continuous
 62
     2
370
     9
100
AcDbText
 10
332.0655434092981
 20
780.7874374533388
 30
0.0
 40
12.192
  1
受枠
 41
1.0625
  7
ＭＳ ゴシック
100
AcDbText
  0
TEXT
  5
F1
330
1F
100
AcDbEntity
  8
F-Fﾚｲﾔ
  6
Continuous
 62
     2
370
     9
100
AcDbText
 10
332.0655434092981
 20
716.7874374533388
 30
0.0
 40
12.192
  1
品番
 41
1.0625
  7
ＭＳ ゴシック
100
AcDbText
  0
TEXT
  5
F2
330
1F
100
AcDbEntity
  8
F-5ﾚｲﾔ
  6
Continuous
 62
     2
370
     9
100
AcDbText
 10
490.148065837673
 20
876.7874374533388
 30
0.0
 40
12.192
  1
目地すきま 6mm
 41
1.116071428571428
  7
ＭＳ ゴシック
100
AcDbText
  0
TEXT
  5
F3
330
1F
100
AcDbEntity
  8
F-Fﾚｲﾔ
  6
Continuous
 62
     2
370
     9
100
AcDbText
 10
490.148065837673
 20
716.7874374533388
 30
0.0
 40
12.192
  1
カネソウ　カラー舗装用みぞ蓋
 41
1.116071428571428
  7
ＭＳ ゴシック
100
AcDbText
  0
LINE
  5
F4
330
1F
100
AcDbEntity
  8
F-Fﾚｲﾔ
  6
Continuous
 62
     7
370
     9
100
AcDbLine
 10
473.6141050800632
 20
930.5314374533389
 30
0.0
 11
949.6774430588097
 21
930.5314374533389
 31
0.0
  0
LINE
  5
F5
330
1F
100
AcDbEntity
  8
F-Fﾚｲﾔ
  6
Continuous
 62
     7
370
     9
100
AcDbLine
 10
473.6141050800632
 20
898.5314374533389
 30
0.0
 11
949.6774430588097
 21
898.5314374533389
 31
0.0
  0
LINE
  5
F6
330
1F
100
AcDbEntity
  8
F-Fﾚｲﾔ
  6
Continuous
 62
     7
370
     9
100
AcDbLine
 10
473.6141050800632
 20
866.5314374533389
 30
0.0
 11
949.6774430588097
 21
866.5314374533389
 31
0.0
  0
LINE
  5
F7
330
1F
100
AcDbEntity
  8
F-Fﾚｲﾔ
  6
Continuous
 62
     7
370
     9
100
AcDbLine
 10
473.6141050800632
 20
834.5314374533389
 30
0.0
 11
949.6774430588097
 21
834.5314374533389
 31
0.0
  0
LINE
  5
F8
330
1F
100
AcDbEntity
  8
F-Fﾚｲﾔ
  6
Continuous
 62
     7
370
     9
100
AcDbLine
 10
473.6141050800632
 20
770.5314374533389
 30
0.0
 11
949.6774430588097
 21
770.5314374533389
 31
0.0
  0
TEXT
  5
F9
330
1F
100
AcDbEntity
  8
F-Fﾚｲﾔ
  6
Continuous
 62
     2
370
     9
100
AcDbText
 10
332.0655434092981
 20
972.7874374533388
 30
0.0
 40
12.192
  1
みぞ幅
 41
1.083333333333333
  7
ＭＳ ゴシック
100
AcDbText
  0
LINE
  5
FA
330
1F
100
AcDbEntity
  8
F-Fﾚｲﾔ
  6
Continuous
 62
     7
370
     9
100
AcDbLine
 10
949.6774430588097
 20
1066.531437453339
 30
0.0
 11
949.6774430588097
 21
642.5314374533389
 31
0.0
  0
LINE
  5
FB
330
1F
100
AcDbEntity
  8
F-Fﾚｲﾔ
  6
Continuous
 62
     7
370
     9
100
AcDbLine
 10
321.4186533508367
 20
642.5314374533389
 30
0.0
 11
949.6774430588097
 21
642.5314374533389
 31
0.0
  0
LINE
  5
FC
330
1F
100
AcDbEntity
  8
F-Fﾚｲﾔ
  6
Continuous
 62
     7
370
     9
100
AcDbLine
 10
321.4186533508367
 20
1066.531437453339
 30
0.0
 11
321.4186533508367
 21
642.5314374533389
 31
0.0
  0
LINE
  5
FD
330
1F
100
AcDbEntity
  8
F-Fﾚｲﾔ
  6
Continuous
 62
     7
370
     9
100
AcDbLine
 10
473.6141050800632
 20
1066.531437453339
 30
0.0
 11
473.6141050800632
 21
642.5314374533389
 31
0.0
  0
TEXT
  5
FE
330
1F
100
AcDbEntity
  8
F-Fﾚｲﾔ
  6
Continuous
 62
     2
370
     9
100
AcDbText
 10
490.148065837673
 20
780.7874374533388
 30
0.0
 40
12.192
  1
スチール製 樹脂系塗装
 41
1.113095238095238
  7
ＭＳ ゴシック
100
AcDbText
  0
TEXT
  5
FF
330
1F
100
AcDbEntity
  8
F-5ﾚｲﾔ
  6
Continuous
 62
     2
370
     9
100
AcDbText
 10
490.148065837673
 20
1012.787437453339
 30
0.0
 40
12.192
  1
側溝用　スチール製蓋　シングルスリットタイプ
 41
1.119318181818182
  7
ＭＳ ゴシック
100
AcDbText
  0
LINE
  5
100
330
1F
100
AcDbEntity
  8
4-2
  6
JWW_CENTER1
 62
     3
370
     9
100
AcDbLine
 10
-1152.013576949165
 20
-445.5123973993815
 30
0.0
 11
-1250.013576949165
 21
-445.5123973993815
 31
0.0
  0
LINE
  5
101
330
1F
100
AcDbEntity
  8
4-2
  6
JWW_CENTER1
 62
     3
370
     9
100
AcDbLine
 10
49.98642305083513
 20
-445.5123973993815
 30
0.0
 11
147.9864230508351
 21
-445.5123973993815
 31
0.0
  0
LINE
  5
102
330
1F
100
AcDbEntity
  8
4-4
  6
Continuous
 62
     7
370
     9
100
AcDbLine
 10
47.98632554775918
 20
-345.5123973993815
 30
0.0
 11
49.98642305083513
 21
-345.5123973993815
 31
0.0
  0
LWPOLYLINE
  5
103
330
1F
100
AcDbEntity
  8
4-4
  6
Continuous
 62
     7
370
     9
100
AcDbPolyline
 90
        4
 70
     1
 43
0.8
 10
50.38642305083513
 20
-345.5123973993815
 42
0.4142135623731
 10
49.98642305083513
 20
-345.1123973993815
 42
0.4142135623731
 10
49.58642305083513
 20
-345.5123973993815
 42
0.4142135623731
 10
49.98642305083513
 20
-345.9123973993815
 42
0.4142135623731
  0
LINE
  5
104
330
1F
100
AcDbEntity
  8
4-4
  6
Continuous
 62
     7
370
     9
100
AcDbLine
 10
49.98642305083513
 20
-344.3123973993815
 30
0.0
 11
49.98642305083513
 21
-437.5123973993815
 31
0.0
  0
TEXT
  5
105
330
1F
100
AcDbEntity
  8
4-4
  6
Continuous
 62
     2
370
   211
100
AcDbText
 10
44.98637429929715
 20
-340.8563973993815
 30
0.0
 40
12.192
  1
2
  7
ＭＳ ゴシック
100
AcDbText
  0
LINE
  5
106
330
1F
100
AcDbEntity
  8
4-4
  6
Continuous
 62
     7
370
     9
100
AcDbLine
 10
49.98642305083513
 20
-345.5123973993815
 30
0.0
 11
147.9863255477591
 21
-345.5123973993815
 31
0.0
  0
LINE
  5
107
330
1F
100
AcDbEntity
  8
4-1
  6
Continuous
 62
     2
370
     9
100
AcDbLine
 10
-1250.013576949165
 20
-445.5123973993815
 30
0.0
 11
147.9863255477591
 21
-445.5123973993815
 31
0.0
  0
LINE
  5
108
330
1F
100
AcDbEntity
  8
4-0
  6
Continuous
 62
     4
370
     9
100
AcDbLine
 10
-1289.779649065456
 20
221.0039304735847
 30
0.0
 11
-1289.779649065456
 21
223.0039304735847
 31
0.0
  0
LINE
  5
109
330
1F
100
AcDbEntity
  8
4-0
  6
Continuous
 62
     4
370
     9
100
AcDbLine
 10
-1309.779649065456
 20
221.0039304735847
 30
0.0
 11
-1289.779649065456
 21
221.0039304735847
 31
0.0
  0
LINE
  5
10A
330
1F
100
AcDbEntity
  8
4-0
  6
Continuous
 62
     4
370
     9
100
AcDbLine
 10
-1289.779649065456
 20
223.0039304735847
 30
0.0
 11
-1309.779649065456
 21
223.0039304735847
 31
0.0
  0
LINE
  5
10B
330
1F
100
AcDbEntity
  8
4-0
  6
Continuous
 62
     4
370
     9
100
AcDbLine
 10
-1309.779649065456
 20
223.0039304735847
 30
0.0
 11
-1309.779649065456
 21
221.0039304735847
 31
0.0
  0
TEXT
  5
10C
330
1F
100
AcDbEntity
  8
4-0
  6
Continuous
 62
     2
370
     9
100
AcDbText
 10
-1307.935430603804
 20
181.1603899043181
 30
0.0
 40
12.19199999999983
  1
Ａ
 41
1.000000000000014
  7
ＭＳ ゴシック
100
AcDbText
  0
LINE
  5
10D
330
1F
100
AcDbEntity
  8
4-0
  6
Continuous
 62
     4
370
     9
100
AcDbLine
 10
-1300.013576949165
 20
195.6286300213758
 30
0.0
 11
-1300.013576949165
 21
222.0039304735849
 31
0.0
  0
LINE
  5
10E
330
1F
100
AcDbEntity
  8
4-0
  6
Continuous
 62
     4
370
     9
100
AcDbLine
 10
-1300.013576949165
 20
222.0039304735849
 30
0.0
 11
-1298.708315026964
 21
212.0894818598468
 31
0.0
  0
LINE
  5
10F
330
1F
100
AcDbEntity
  8
4-0
  6
Continuous
 62
     4
370
     9
100
AcDbLine
 10
-1300.013576949165
 20
222.0039304735849
 30
0.0
 11
-1301.318838871365
 21
212.0894818598468
 31
0.0
  0
LINE
  5
110
330
1F
100
AcDbEntity
  8
4-0
  6
Continuous
 62
     4
370
     9
100
AcDbLine
 10
217.9863255477585
 20
221.0039304735847
 30
0.0
 11
217.9863255477585
 21
223.0039304735847
 31
0.0
  0
LINE
  5
111
330
1F
100
AcDbEntity
  8
4-0
  6
Continuous
 62
     4
370
     9
100
AcDbLine
 10
197.986325547759
 20
221.0039304735847
 30
0.0
 11
217.9863255477585
 21
221.0039304735847
 31
0.0
  0
LINE
  5
112
330
1F
100
AcDbEntity
  8
4-0
  6
Continuous
 62
     4
370
     9
100
AcDbLine
 10
217.9863255477585
 20
223.0039304735847
 30
0.0
 11
197.986325547759
 21
223.0039304735847
 31
0.0
  0
LINE
  5
113
330
1F
100
AcDbEntity
  8
4-0
  6
Continuous
 62
     4
370
     9
100
AcDbLine
 10
197.986325547759
 20
223.0039304735847
 30
0.0
 11
197.986325547759
 21
221.0039304735847
 31
0.0
  0
TEXT
  5
114
330
1F
100
AcDbEntity
  8
4-0
  6
Continuous
 62
     2
370
     9
100
AcDbText
 10
199.8305440094111
 20
181.1603899043181
 30
0.0
 40
12.19199999999983
  1
Ａ
 41
1.000000000000014
  7
ＭＳ ゴシック
100
AcDbText
  0
LINE
  5
115
330
1F
100
AcDbEntity
  8
4-0
  6
Continuous
 62
     4
370
     9
100
AcDbLine
 10
207.75239766405
 20
195.6286300213758
 30
0.0
 11
207.75239766405
 21
222.0039304735849
 31
0.0
  0
LINE
  5
116
330
1F
100
AcDbEntity
  8
4-0
  6
Continuous
 62
     4
370
     9
100
AcDbLine
 10
207.75239766405
 20
222.0039304735849
 30
0.0
 11
209.0576595862506
 21
212.0894818598468
 31
0.0
  0
LINE
  5
117
330
1F
100
AcDbEntity
  8
4-0
  6
Continuous
 62
     4
370
     9
100
AcDbLine
 10
207.75239766405
 20
222.0039304735849
 30
0.0
 11
206.4471357418495
 21
212.0894818598468
 31
0.0
  0
TEXT
  5
118
330
1F
100
AcDbEntity
  8
F-5ﾚｲﾔ
  6
Continuous
 62
     2
370
     9
100
AcDbText
 10
490.148065837673
 20
1044.787437453339
 30
0.0
 40
12.192
  1
インターロッキングブロック用（充填深さ６５ｍｍ）
 41
1.119791666666667
  7
ＭＳ ゴシック
100
AcDbText
  0
TEXT
  5
119
330
1F
100
AcDbEntity
  8
F-5ﾚｲﾔ
  6
Continuous
 62
     2
370
     9
100
AcDbText
 10
490.148065837673
 20
908.7874374533388
 30
0.0
 40
12.192
  1
充填深さ 65mm
 41
1.115384615384614
  7
ＭＳ ゴシック
100
AcDbText
  0
LINE
  5
11A
330
1F
100
AcDbEntity
  8
4-2
  6
Continuous
 62
     7
370
     9
100
AcDbLine
 10
-556.5136617856774
 20
-445.5120877461163
 30
0.0
 11
-556.5136617856774
 21
-520.5122873475746
 31
0.0
  0
LINE
  5
11B
330
1F
100
AcDbEntity
  8
4-2
  6
Continuous
 62
     7
370
     9
100
AcDbLine
 10
-1145.513492112656
 20
-445.5120877461163
 30
0.0
 11
-1145.513492112656
 21
-520.5122873475746
 31
0.0
  0
LINE
  5
11C
330
1F
100
AcDbEntity
  8
4-2
  6
Continuous
 62
     7
370
     9
100
AcDbLine
 10
-1150.013576949165
 20
-445.5120877461163
 30
0.0
 11
-1150.013576949165
 21
-523.7123028538033
 31
0.0
  0
LINE
  5
11D
330
1F
100
AcDbEntity
  8
4-2
  6
Continuous
 62
     7
370
     9
100
AcDbLine
 10
-1150.013576949165
 20
-520.5122873475746
 30
0.0
 11
-552.0135769491667
 21
-520.5122873475746
 31
0.0
  0
LINE
  5
11E
330
1F
100
AcDbEntity
  8
4-2
  6
Continuous
 62
     7
370
     9
100
AcDbLine
 10
-552.0135769491667
 20
-445.5120877461163
 30
0.0
 11
-552.0135769491667
 21
-523.7123028538033
 31
0.0
  0
LINE
  5
11F
330
1F
100
AcDbEntity
  8
4-2
  6
Continuous
 62
     7
370
     9
100
AcDbLine
 10
-1150.013576949165
 20
-523.7123028538033
 30
0.0
 11
-552.0135769491667
 21
-523.7123028538033
 31
0.0
  0
LINE
  5
120
330
1F
100
AcDbEntity
  8
4-2
  6
JWW_DASHED1
 62
     7
370
     9
100
AcDbLine
 10
-1125.013582280905
 20
-520.5122873475746
 30
0.0
 11
-1125.013582280905
 21
-523.7123028538033
 31
0.0
  0
LINE
  5
121
330
1F
100
AcDbEntity
  8
4-2
  6
JWW_DASHED1
 62
     7
370
     9
100
AcDbLine
 10
-1115.013582280905
 20
-520.5122873475746
 30
0.0
 11
-1115.013582280905
 21
-523.7123028538033
 31
0.0
  0
LINE
  5
122
330
1F
100
AcDbEntity
  8
4-2
  6
JWW_CENTER1
 62
     7
370
     9
100
AcDbLine
 10
-1120.013582280905
 20
-517.2358882824756
 30
0.0
 11
-1120.013582280905
 21
-526.9887019189023
 31
0.0
  0
LINE
  5
123
330
1F
100
AcDbEntity
  8
4-2
  6
Continuous
 62
     7
370
     9
100
AcDbLine
 10
43.48624071124834
 20
-445.5120877461163
 30
0.0
 11
43.48624071124834
 21
-520.5122873475746
 31
0.0
  0
LINE
  5
124
330
1F
100
AcDbEntity
  8
4-2
  6
Continuous
 62
     7
370
     9
100
AcDbLine
 10
-545.51358961573
 20
-445.5120877461163
 30
0.0
 11
-545.51358961573
 21
-520.5122873475746
 31
0.0
  0
LINE
  5
125
330
1F
100
AcDbEntity
  8
4-2
  6
Continuous
 62
     7
370
     9
100
AcDbLine
 10
-550.013674452239
 20
-445.5120877461163
 30
0.0
 11
-550.013674452239
 21
-523.7123028538033
 31
0.0
  0
LINE
  5
126
330
1F
100
AcDbEntity
  8
4-2
  6
Continuous
 62
     7
370
     9
100
AcDbLine
 10
-550.013674452239
 20
-520.5122873475746
 30
0.0
 11
47.98632554775907
 21
-520.5122873475746
 31
0.0
  0
LINE
  5
127
330
1F
100
AcDbEntity
  8
4-2
  6
Continuous
 62
     7
370
     9
100
AcDbLine
 10
47.98632554775907
 20
-445.5120877461163
 30
0.0
 11
47.98632554775907
 21
-523.7123028538033
 31
0.0
  0
LINE
  5
128
330
1F
100
AcDbEntity
  8
4-2
  6
Continuous
 62
     7
370
     9
100
AcDbLine
 10
-550.013674452239
 20
-523.7123028538033
 30
0.0
 11
47.98632554775907
 21
-523.7123028538033
 31
0.0
  0
LINE
  5
129
330
1F
100
AcDbEntity
  8
4-2
  6
JWW_DASHED1
 62
     7
370
     9
100
AcDbLine
 10
-525.0136797839789
 20
-520.5122873475746
 30
0.0
 11
-525.0136797839789
 21
-523.7123028538033
 31
0.0
  0
LINE
  5
12A
330
1F
100
AcDbEntity
  8
4-2
  6
JWW_DASHED1
 62
     7
370
     9
100
AcDbLine
 10
-515.0136797839788
 20
-520.5122873475746
 30
0.0
 11
-515.0136797839788
 21
-523.7123028538033
 31
0.0
  0
LINE
  5
12B
330
1F
100
AcDbEntity
  8
4-2
  6
JWW_CENTER1
 62
     7
370
     9
100
AcDbLine
 10
-520.013679783979
 20
-517.2358882824756
 30
0.0
 11
-520.013679783979
 21
-526.9887019189023
 31
0.0
  0
LINE
  5
12C
330
1F
100
AcDbEntity
  8
4-2
  6
Continuous
 62
     3
370
     9
100
AcDbLine
 10
-1027.513556623752
 20
-510.5122873475757
 30
0.0
 11
-997.5135566237517
 21
-510.5122873475757
 31
0.0
  0
LINE
  5
12D
330
1F
100
AcDbEntity
  8
4-2
  6
Continuous
 62
     3
370
     9
100
AcDbLine
 10
-1027.513556623752
 20
-511.205462792066
 30
0.0
 11
-997.5135566237517
 21
-511.2054627920652
 31
0.0
  0
LINE
  5
12E
330
1F
100
AcDbEntity
  8
4-2
  6
Continuous
 62
     3
370
     9
100
AcDbLine
 10
-997.5135566237517
 20
-520.5122873475746
 30
0.0
 11
-997.5135566237517
 21
-510.5122873475757
 31
0.0
  0
LINE
  5
12F
330
1F
100
AcDbEntity
  8
4-2
  6
Continuous
 62
     3
370
     9
100
AcDbLine
 10
-1027.513556623752
 20
-510.5122873475757
 30
0.0
 11
-1027.513556623752
 21
-520.5122873475746
 31
0.0
  0
LINE
  5
130
330
1F
100
AcDbEntity
  8
4-2
  6
Continuous
 62
     3
370
     9
100
AcDbLine
 10
-997.5135566237517
 20
-520.5122873475746
 30
0.0
 11
-1027.513556623752
 21
-520.5122873475746
 31
0.0
  0
LINE
  5
131
330
1F
100
AcDbEntity
  8
4-2
  6
JWW_DASHED1
 62
     3
370
     9
100
AcDbLine
 10
-997.51355662375
 20
-519.7122873475753
 30
0.0
 11
-1027.513556623753
 21
-519.7122873475753
 31
0.0
  0
LINE
  5
132
330
1F
100
AcDbEntity
  8
4-2
  6
Continuous
 62
     3
370
     9
100
AcDbLine
 10
-704.5135566237518
 20
-510.5122873475757
 30
0.0
 11
-674.5135566237518
 21
-510.5122873475757
 31
0.0
  0
LINE
  5
133
330
1F
100
AcDbEntity
  8
4-2
  6
Continuous
 62
     3
370
     9
100
AcDbLine
 10
-704.5135566237518
 20
-511.205462792066
 30
0.0
 11
-674.5135566237518
 21
-511.2054627920652
 31
0.0
  0
LINE
  5
134
330
1F
100
AcDbEntity
  8
4-2
  6
Continuous
 62
     3
370
     9
100
AcDbLine
 10
-674.5135566237518
 20
-520.5122873475746
 30
0.0
 11
-674.5135566237518
 21
-510.5122873475757
 31
0.0
  0
LINE
  5
135
330
1F
100
AcDbEntity
  8
4-2
  6
Continuous
 62
     3
370
     9
100
AcDbLine
 10
-704.5135566237518
 20
-510.5122873475757
 30
0.0
 11
-704.5135566237518
 21
-520.5122873475746
 31
0.0
  0
LINE
  5
136
330
1F
100
AcDbEntity
  8
4-2
  6
Continuous
 62
     3
370
     9
100
AcDbLine
 10
-674.5135566237518
 20
-520.5122873475746
 30
0.0
 11
-704.5135566237518
 21
-520.5122873475746
 31
0.0
  0
LINE
  5
137
330
1F
100
AcDbEntity
  8
4-2
  6
JWW_DASHED1
 62
     3
370
     9
100
AcDbLine
 10
-674.5135566237498
 20
-519.7122873475753
 30
0.0
 11
-704.5135566237532
 21
-519.7122873475753
 31
0.0
  0
LINE
  5
138
330
1F
100
AcDbEntity
  8
4-2
  6
Continuous
 62
     3
370
     9
100
AcDbLine
 10
-427.5136541268259
 20
-510.5122873475757
 30
0.0
 11
-397.5136541268259
 21
-510.5122873475757
 31
0.0
  0
LINE
  5
139
330
1F
100
AcDbEntity
  8
4-2
  6
Continuous
 62
     3
370
     9
100
AcDbLine
 10
-427.5136541268259
 20
-511.205462792066
 30
0.0
 11
-397.5136541268259
 21
-511.2054627920652
 31
0.0
  0
LINE
  5
13A
330
1F
100
AcDbEntity
  8
4-2
  6
Continuous
 62
     3
370
     9
100
AcDbLine
 10
-397.5136541268259
 20
-520.5122873475746
 30
0.0
 11
-397.5136541268259
 21
-510.5122873475757
 31
0.0
  0
LINE
  5
13B
330
1F
100
AcDbEntity
  8
4-2
  6
Continuous
 62
     3
370
     9
100
AcDbLine
 10
-427.5136541268259
 20
-510.5122873475757
 30
0.0
 11
-427.5136541268259
 21
-520.5122873475746
 31
0.0
  0
LINE
  5
13C
330
1F
100
AcDbEntity
  8
4-2
  6
Continuous
 62
     3
370
     9
100
AcDbLine
 10
-397.5136541268259
 20
-520.5122873475746
 30
0.0
 11
-427.5136541268259
 21
-520.5122873475746
 31
0.0
  0
LINE
  5
13D
330
1F
100
AcDbEntity
  8
4-2
  6
JWW_DASHED1
 62
     3
370
     9
100
AcDbLine
 10
-397.5136541268242
 20
-519.7122873475753
 30
0.0
 11
-427.5136541268276
 21
-519.7122873475753
 31
0.0
  0
LINE
  5
13E
330
1F
100
AcDbEntity
  8
4-2
  6
Continuous
 62
     3
370
     9
100
AcDbLine
 10
-104.5136541268261
 20
-510.5122873475757
 30
0.0
 11
-74.51365412682605
 21
-510.5122873475757
 31
0.0
  0
LINE
  5
13F
330
1F
100
AcDbEntity
  8
4-2
  6
Continuous
 62
     3
370
     9
100
AcDbLine
 10
-104.5136541268261
 20
-511.205462792066
 30
0.0
 11
-74.51365412682605
 21
-511.2054627920652
 31
0.0
  0
LINE
  5
140
330
1F
100
AcDbEntity
  8
4-2
  6
Continuous
 62
     3
370
     9
100
AcDbLine
 10
-74.51365412682605
 20
-520.5122873475746
 30
0.0
 11
-74.51365412682605
 21
-510.5122873475757
 31
0.0
  0
LINE
  5
141
330
1F
100
AcDbEntity
  8
4-2
  6
Continuous
 62
     3
370
     9
100
AcDbLine
 10
-104.5136541268261
 20
-510.5122873475757
 30
0.0
 11
-104.5136541268261
 21
-520.5122873475746
 31
0.0
  0
LINE
  5
142
330
1F
100
AcDbEntity
  8
4-2
  6
Continuous
 62
     3
370
     9
100
AcDbLine
 10
-74.51365412682605
 20
-520.5122873475746
 30
0.0
 11
-104.5136541268261
 21
-520.5122873475746
 31
0.0
  0
LINE
  5
143
330
1F
100
AcDbEntity
  8
4-2
  6
JWW_DASHED1
 62
     3
370
     9
100
AcDbLine
 10
-74.51365412682401
 20
-519.7122873475753
 30
0.0
 11
-104.5136541268278
 21
-519.7122873475753
 31
0.0
  0
LINE
  5
144
330
1F
100
AcDbEntity
  8
4-9
  6
Continuous
 62
    30
370
     5
100
AcDbLine
 10
-1150.013576949165
 20
-523.7123028538033
 30
0.0
 11
-552.0135769491667
 21
-523.7123028538033
 31
0.0
  0
LINE
  5
145
330
1F
100
AcDbEntity
  8
4-9
  6
Continuous
 62
    30
370
     5
100
AcDbLine
 10
-550.013674452239
 20
-523.7123028538033
 30
0.0
 11
47.98632554775907
 21
-523.7123028538033
 31
0.0
  0
LINE
  5
146
330
1F
100
AcDbEntity
  8
4-2
  6
Continuous
 62
     3
370
     9
100
AcDbLine
 10
869.5352028743853
 20
-519.5125970008379
 30
0.0
 11
885.1236601425078
 21
-510.5125970008396
 31
0.0
  0
LINE
  5
147
330
1F
100
AcDbEntity
  8
4-2
  6
Continuous
 62
     3
370
     9
100
AcDbLine
 10
854.5352028743853
 20
-519.5125970008379
 30
0.0
 11
869.5352028743853
 21
-519.5125970008379
 31
0.0
  0
LINE
  5
148
330
1F
100
AcDbEntity
  8
4-2
  6
Continuous
 62
     3
370
     9
100
AcDbLine
 10
854.5352028743853
 20
-519.5125970008379
 30
0.0
 11
838.9467456062673
 21
-510.5125970008396
 31
0.0
  0
LINE
  5
149
330
1F
100
AcDbEntity
  8
4-2
  6
Continuous
 62
     3
370
     9
100
AcDbLine
 10
838.9467456062673
 20
-510.5125970008396
 30
0.0
 11
838.4467456062655
 21
-511.3786224046219
 31
0.0
  0
LINE
  5
14A
330
1F
100
AcDbEntity
  8
4-2
  6
Continuous
 62
     3
370
     9
100
AcDbLine
 10
885.1236601425078
 20
-510.5125970008396
 30
0.0
 11
885.6236601425051
 21
-511.3786224046219
 31
0.0
  0
LINE
  5
14B
330
1F
100
AcDbEntity
  8
4-2
  6
Continuous
 62
     3
370
     9
100
AcDbLine
 10
869.8031520668171
 20
-520.5125970008397
 30
0.0
 11
885.6236601425051
 21
-511.3786224046219
 31
0.0
  0
LINE
  5
14C
330
1F
100
AcDbEntity
  8
4-2
  6
Continuous
 62
     3
370
     9
100
AcDbLine
 10
854.2672536819553
 20
-520.5125970008397
 30
0.0
 11
869.8031520668171
 21
-520.5125970008397
 31
0.0
  0
LINE
  5
14D
330
1F
100
AcDbEntity
  8
4-2
  6
Continuous
 62
     3
370
     9
100
AcDbLine
 10
854.2672536819553
 20
-520.5125970008397
 30
0.0
 11
838.4467456062655
 21
-511.3786224046219
 31
0.0
  0
LWPOLYLINE
  5
14E
330
1F
100
AcDbEntity
  8
4-4
  6
Continuous
 62
     7
370
     9
100
AcDbPolyline
 90
        4
 70
     1
 43
0.8
 10
925.0041639918678
 20
-510.5125970008396
 42
0.4142135623731
 10
924.6041639918678
 20
-510.1125970008396
 42
0.4142135623731
 10
924.2041639918679
 20
-510.5125970008396
 42
0.4142135623731
 10
924.6041639918678
 20
-510.9125970008396
 42
0.4142135623731
  0
LINE
  5
14F
330
1F
100
AcDbEntity
  8
4-4
  6
Continuous
 62
     7
370
     9
100
AcDbLine
 10
925.8041639918677
 20
-510.5125970008396
 30
0.0
 11
893.1236601425078
 21
-510.5125970008396
 31
0.0
  0
LWPOLYLINE
  5
150
330
1F
100
AcDbEntity
  8
4-4
  6
Continuous
 62
     7
370
     9
100
AcDbPolyline
 90
        4
 70
     1
 43
0.8
 10
824.304240900966
 20
-520.5125970008397
 42
0.4142135623731
 10
823.904240900966
 20
-520.1125970008397
 42
0.4142135623731
 10
823.504240900966
 20
-520.5125970008397
 42
0.4142135623731
 10
823.904240900966
 20
-520.9125970008397
 42
0.4142135623731
  0
LINE
  5
151
330
1F
100
AcDbEntity
  8
4-4
  6
Continuous
 62
     7
370
     9
100
AcDbLine
 10
823.904240900966
 20
-520.5125970008397
 30
0.0
 11
823.904240900966
 21
-523.7126125070685
 31
0.0
  0
LWPOLYLINE
  5
152
330
1F
100
AcDbEntity
  8
4-4
  6
Continuous
 62
     7
370
     9
100
AcDbPolyline
 90
        4
 70
     1
 43
0.8
 10
824.304240900966
 20
-523.7126125070685
 42
0.4142135623731
 10
823.904240900966
 20
-523.3126125070685
 42
0.4142135623731
 10
823.504240900966
 20
-523.7126125070685
 42
0.4142135623731
 10
823.904240900966
 20
-524.1126125070684
 42
0.4142135623731
  0
LINE
  5
153
330
1F
100
AcDbEntity
  8
4-5
  6
Continuous
 62
     7
370
     9
100
AcDbLine
 10
770.5418306756394
 20
-665.5294798626758
 30
0.0
 11
854.2673670329611
 21
-520.5125970008397
 31
0.0
  0
LINE
  5
154
330
1F
100
AcDbEntity
  8
4-5
  6
Continuous
 62
     7
370
     9
100
AcDbLine
 10
854.2673670329611
 20
-520.5125970008397
 30
0.0
 11
850.4405327093102
 21
-529.7513923259526
 31
0.0
  0
LINE
  5
155
330
1F
100
AcDbEntity
  8
4-5
  6
Continuous
 62
     7
370
     9
100
AcDbLine
 10
854.2673670329611
 20
-520.5125970008397
 30
0.0
 11
848.1797527428737
 21
-528.446130403752
 31
0.0
  0
LINE
  5
156
330
1F
100
AcDbEntity
  8
4-4
  6
Continuous
 62
     7
370
     9
100
AcDbLine
 10
823.904240900966
 20
-445.5123973993815
 30
0.0
 11
823.904240900966
 21
-520.5125970008397
 31
0.0
  0
TEXT
  5
157
330
1F
100
AcDbEntity
  8
4-4
  6
Continuous
 62
     2
370
   211
100
AcDbText
 10
819.2482409009659
 20
-491.5124972001106
 30
0.0
 40
12.192
  1
75
 50
90.0
 41
1.0625
  7
ＭＳ ゴシック
100
AcDbText
  0
LINE
  5
158
330
1F
100
AcDbEntity
  8
4-4
  6
Continuous
 62
     7
370
     9
100
AcDbLine
 10
924.6041639918678
 20
-445.5123973993815
 30
0.0
 11
924.6041639918678
 21
-510.5125970008396
 31
0.0
  0
TEXT
  5
159
330
1F
100
AcDbEntity
  8
4-4
  6
Continuous
 62
     2
370
   211
100
AcDbText
 10
919.9481639918678
 20
-486.5124972001105
 30
0.0
 40
12.192
  1
65
 50
90.0
 41
1.0625
  7
ＭＳ ゴシック
100
AcDbText
  0
TEXT
  5
15A
330
1F
100
AcDbEntity
  8
4-4
  6
Continuous
 62
     2
370
   211
100
AcDbText
 10
789.2307268552448
 20
-510.8197463559645
 30
0.0
 40
12.192
  1
3.2
 50
90.0
 41
1.083333333333331
  7
ＭＳ ゴシック
100
AcDbText
  0
LINE
  5
15B
330
1F
100
AcDbEntity
  8
4-4
  6
Continuous
 62
     7
370
     9
100
AcDbLine
 10
791.4867268552448
 20
-484.8197463559646
 30
0.0
 11
791.4867268552448
 21
-510.8197463559645
 31
0.0
  0
LINE
  5
15C
330
1F
100
AcDbEntity
  8
4-4
  6
Continuous
 62
     7
370
     9
100
AcDbLine
 10
791.4867268552448
 20
-510.8197463559645
 30
0.0
 11
823.904240900966
 21
-522.1126047539541
 31
0.0
  0
TEXT
  5
15D
330
1F
100
AcDbEntity
  8
F-5ﾚｲﾔ
  6
Continuous
 62
     2
370
     0
100
AcDbText
 10
275.4673822126795
 20
-1071.517109547733
 30
0.0
 40
12.192
  1
カラー舗装用みぞ蓋　インターロッキングブロック用（充填深さ６５ｍｍ）　側溝用
 41
1.121710526315789
  7
ＭＳ ゴシック
100
AcDbText
  0
LINE
  5
15E
330
1F
100
AcDbEntity
  8
4-2
  6
Continuous
 62
     7
370
     9
100
AcDbLine
 10
-552.0135769491667
 20
71.5037540843428
 30
0.0
 11
-1150.013576949165
 21
71.5037540843428
 31
0.0
  0
LINE
  5
15F
330
1F
100
AcDbEntity
  8
4-2
  6
Continuous
 62
     7
370
     9
100
AcDbLine
 10
-552.0135769491667
 20
76.00375408434348
 30
0.0
 11
-1150.013576949165
 21
76.00375408434348
 31
0.0
  0
LINE
  5
160
330
1F
100
AcDbEntity
  8
4-2
  6
JWW_DASHED1
 62
     7
370
     9
100
AcDbLine
 10
-556.5136617856774
 20
86.0038026296827
 30
0.0
 11
-552.0135769491667
 21
90.50346752546227
 31
0.0
  0
LINE
  5
161
330
1F
100
AcDbEntity
  8
4-2
  6
JWW_DASHED1
 62
     7
370
     9
100
AcDbLine
 10
-566.5137103310137
 20
76.00375408434348
 30
0.0
 11
-571.0137951675244
 21
71.50366924783481
 31
0.0
  0
LINE
  5
162
330
1F
100
AcDbEntity
  8
4-2
  6
Continuous
 62
     7
370
     9
100
AcDbLine
 10
-566.5137103310137
 20
76.00375408434348
 30
0.0
 11
-556.5136617856774
 21
86.0038026296827
 31
0.0
  0
LINE
  5
163
330
1F
100
AcDbEntity
  8
4-2
  6
JWW_CENTER1
 62
     3
370
     9
100
AcDbLine
 10
-599.5137725444547
 20
90.10536371573858
 30
0.0
 11
-599.5137725444547
 21
69.49397290598341
 31
0.0
  0
LINE
  5
164
330
1F
100
AcDbEntity
  8
4-2
  6
Continuous
 62
     4
370
     9
100
AcDbLine
 10
-1087.813636146199
 20
85.03709907484176
 30
0.0
 11
-1087.813636146199
 21
76.00375408434348
 31
0.0
  0
LINE
  5
165
330
1F
100
AcDbEntity
  8
4-2
  6
Continuous
 62
     4
370
     9
100
AcDbLine
 10
-1088.480222061075
 20
85.70368498971885
 30
0.0
 11
-1145.513492112656
 21
85.70368498971885
 31
0.0
  0
LINE
  5
166
330
1F
100
AcDbEntity
  8
4-2
  6
Continuous
 62
     4
370
     9
100
AcDbLine
 10
-1085.513760761607
 20
86.47035677799738
 30
0.0
 11
-1085.513760761607
 21
76.00375408434348
 31
0.0
  0
LINE
  5
167
330
1F
100
AcDbEntity
  8
4-2
  6
Continuous
 62
     4
370
     9
100
AcDbLine
 10
-1087.046824377678
 20
88.00370035455376
 30
0.0
 11
-1145.513492112656
 21
88.00370035455376
 31
0.0
  0
ARC
  5
168
330
1F
100
AcDbEntity
  8
4-2
  6
Continuous
 62
     4
370
     9
100
AcDbCircle
 10
-1088.480222061075
 20
85.03709907484176
 30
0.0
 40
0.6666666359054536
100
AcDbArc
 50
0.0
 51
90.0
  0
ARC
  5
169
330
1F
100
AcDbEntity
  8
4-2
  6
Continuous
 62
     4
370
     9
100
AcDbCircle
 10
-1087.046824377678
 20
86.47035677799738
 30
0.0
 40
1.533333187397843
100
AcDbArc
 50
0.0
 51
90.0
  0
LINE
  5
16A
330
1F
100
AcDbEntity
  8
4-2
  6
Continuous
 62
     3
370
     9
100
AcDbLine
 10
-1099.513744736932
 20
85.70368498971885
 30
0.0
 11
-1099.513744736932
 21
76.00375408434348
 31
0.0
  0
LINE
  5
16B
330
1F
100
AcDbEntity
  8
4-2
  6
Continuous
 62
     3
370
     9
100
AcDbLine
 10
-1105.513577891795
 20
85.70368498971885
 30
0.0
 11
-1105.513577891795
 21
76.00375408434348
 31
0.0
  0
LINE
  5
16C
330
1F
100
AcDbEntity
  8
4-2
  6
Continuous
 62
     4
370
     9
100
AcDbLine
 10
-614.2136577323769
 20
85.03709907484176
 30
0.0
 11
-614.2136577323769
 21
76.00375408434348
 31
0.0
  0
LINE
  5
16D
330
1F
100
AcDbEntity
  8
4-2
  6
Continuous
 62
     4
370
     9
100
AcDbLine
 10
-613.5470718175
 20
85.70368498971885
 30
0.0
 11
-556.5136617856771
 21
85.70368498971885
 31
0.0
  0
LINE
  5
16E
330
1F
100
AcDbEntity
  8
4-2
  6
Continuous
 62
     4
370
     9
100
AcDbLine
 10
-616.513813077454
 20
86.47035677799738
 30
0.0
 11
-616.513813077454
 21
76.00375408434348
 31
0.0
  0
LINE
  5
16F
330
1F
100
AcDbEntity
  8
4-2
  6
Continuous
 62
     4
370
     9
100
AcDbLine
 10
-614.9803295206552
 20
88.00370035455376
 30
0.0
 11
-556.5136617856771
 21
88.00370035455376
 31
0.0
  0
ARC
  5
170
330
1F
100
AcDbEntity
  8
4-2
  6
Continuous
 62
     4
370
     9
100
AcDbCircle
 10
-613.5470718175
 20
85.03709907484176
 30
0.0
 40
0.6666666359054536
100
AcDbArc
 50
90.0
 51
180.0
  0
ARC
  5
171
330
1F
100
AcDbEntity
  8
4-2
  6
Continuous
 62
     4
370
     9
100
AcDbCircle
 10
-614.9803295206552
 20
86.47035677799738
 30
0.0
 40
1.533333187397843
100
AcDbArc
 50
90.0
 51
180.0
  0
LINE
  5
172
330
1F
100
AcDbEntity
  8
4-2
  6
Continuous
 62
     3
370
     9
100
AcDbLine
 10
-602.5135491416434
 20
85.70368498971885
 30
0.0
 11
-602.5135491416434
 21
76.00375408434348
 31
0.0
  0
LINE
  5
173
330
1F
100
AcDbEntity
  8
4-2
  6
Continuous
 62
     3
370
     9
100
AcDbLine
 10
-596.513715986781
 20
85.70368498971885
 30
0.0
 11
-596.513715986781
 21
76.00375408434348
 31
0.0
  0
LINE
  5
174
330
1F
100
AcDbEntity
  8
4-2
  6
JWW_CENTER1
 62
     3
370
     9
100
AcDbLine
 10
-1102.513521334121
 20
90.10536371573858
 30
0.0
 11
-1102.513521334121
 21
69.49397290598341
 31
0.0
  0
LINE
  5
175
330
1F
100
AcDbEntity
  8
4-2
  6
Continuous
 62
     7
370
     9
100
AcDbLine
 10
47.98632554775907
 20
71.5037540843428
 30
0.0
 11
-550.013674452239
 21
71.5037540843428
 31
0.0
  0
LINE
  5
176
330
1F
100
AcDbEntity
  8
4-2
  6
Continuous
 62
     7
370
     9
100
AcDbLine
 10
47.98632554775907
 20
76.00375408434348
 30
0.0
 11
-550.013674452239
 21
76.00375408434348
 31
0.0
  0
LINE
  5
177
330
1F
100
AcDbEntity
  8
4-2
  6
JWW_DASHED1
 62
     7
370
     9
100
AcDbLine
 10
43.48624071124834
 20
86.0038026296827
 30
0.0
 11
47.98632554775907
 21
90.50346752546227
 31
0.0
  0
LINE
  5
178
330
1F
100
AcDbEntity
  8
4-2
  6
JWW_DASHED1
 62
     7
370
     9
100
AcDbLine
 10
33.48619216591192
 20
76.00375408434348
 30
0.0
 11
28.98610732940097
 21
71.50366924783481
 31
0.0
  0
LINE
  5
179
330
1F
100
AcDbEntity
  8
4-2
  6
Continuous
 62
     7
370
     9
100
AcDbLine
 10
33.48619216591192
 20
76.00375408434348
 30
0.0
 11
43.48624071124834
 21
86.0038026296827
 31
0.0
  0
LINE
  5
17A
330
1F
100
AcDbEntity
  8
4-2
  6
JWW_CENTER1
 62
     3
370
     9
100
AcDbLine
 10
147.9863255477591
 20
71.5037540843428
 30
0.0
 11
49.98642305083524
 21
71.5037540843428
 31
0.0
  0
LINE
  5
17B
330
1F
100
AcDbEntity
  8
4-1
  6
Continuous
 62
     2
370
     9
100
AcDbLine
 10
147.9863255477591
 20
122.0039098535992
 30
0.0
 11
47.98642305083536
 21
122.0039098535992
 31
0.0
  0
LINE
  5
17C
330
1F
100
AcDbEntity
  8
4-1
  6
JWW_DASHED3
 62
     2
370
     9
100
AcDbLine
 10
47.98642305083536
 20
122.0039098535992
 30
0.0
 11
-1150.013576949165
 21
122.0039098535992
 31
0.0
  0
LINE
  5
17D
330
1F
100
AcDbEntity
  8
4-2
  6
JWW_CENTER1
 62
     3
370
     9
100
AcDbLine
 10
-1250.013479446089
 20
71.5037540843428
 30
0.0
 11
-1152.013576949165
 21
71.5037540843428
 31
0.0
  0
LINE
  5
17E
330
1F
100
AcDbEntity
  8
4-1
  6
Continuous
 62
     2
370
     9
100
AcDbLine
 10
-1150.013576949165
 20
122.0039098535992
 30
0.0
 11
-1250.013576949165
 21
122.0039098535992
 31
0.0
  0
LINE
  5
17F
330
1F
100
AcDbEntity
  8
4-4
  6
Continuous
 62
     7
370
     9
100
AcDbLine
 10
-1043.986474681242
 20
76.00375408434348
 30
0.0
 11
-1043.986474681242
 21
88.00370035455376
 31
0.0
  0
LWPOLYLINE
  5
180
330
1F
100
AcDbEntity
  8
4-4
  6
Continuous
 62
     7
370
     9
100
AcDbPolyline
 90
        4
 70
     1
 43
0.8
 10
-1043.586474681242
 20
76.00375408434348
 42
0.4142135623731
 10
-1043.986474681242
 20
76.40375408434349
 42
0.4142135623731
 10
-1044.386474681242
 20
76.00375408434348
 42
0.4142135623731
 10
-1043.986474681242
 20
75.60375408434348
 42
0.4142135623731
  0
LWPOLYLINE
  5
181
330
1F
100
AcDbEntity
  8
4-4
  6
Continuous
 62
     7
370
     9
100
AcDbPolyline
 90
        4
 70
     1
 43
0.8
 10
-1043.586474681242
 20
88.00370035455376
 42
0.4142135623731
 10
-1043.986474681242
 20
88.40370035455376
 42
0.4142135623731
 10
-1044.386474681242
 20
88.00370035455376
 42
0.4142135623731
 10
-1043.986474681242
 20
87.60370035455375
 42
0.4142135623731
  0
LINE
  5
182
330
1F
100
AcDbEntity
  8
4-4
  6
Continuous
 62
     7
370
     9
100
AcDbLine
 10
-1042.786474681242
 20
88.00370035455376
 30
0.0
 11
-1079.046824377678
 21
88.00370035455376
 31
0.0
  0
TEXT
  5
183
330
1F
100
AcDbEntity
  8
4-4
  6
Continuous
 62
     2
370
   211
100
AcDbText
 10
-1048.642474681242
 20
90.56429840351772
 30
0.0
 40
12.192
  1
12
 50
90.0
 41
1.062500000000001
  7
ＭＳ ゴシック
100
AcDbText
  0
LINE
  5
184
330
1F
100
AcDbEntity
  8
4-4
  6
Continuous
 62
     7
370
     9
100
AcDbLine
 10
-1043.986474681242
 20
88.00370035455376
 30
0.0
 11
-1043.986474681242
 21
109.6903341949804
 31
0.0
  0
LINE
  5
185
330
1F
100
AcDbEntity
  8
4-4
  6
Continuous
 62
     7
370
     9
100
AcDbLine
 10
-1145.513492112656
 20
132.1477644740431
 30
0.0
 11
-1085.51349119028
 21
132.1477644740431
 31
0.0
  0
LWPOLYLINE
  5
186
330
1F
100
AcDbEntity
  8
4-4
  6
Continuous
 62
     7
370
     9
100
AcDbPolyline
 90
        4
 70
     1
 43
0.8
 10
-1145.113492112656
 20
132.1477644740431
 42
0.4142135623731
 10
-1145.513492112656
 20
132.5477644740431
 42
0.4142135623731
 10
-1145.913492112656
 20
132.1477644740431
 42
0.4142135623731
 10
-1145.513492112656
 20
131.7477644740431
 42
0.4142135623731
  0
LWPOLYLINE
  5
187
330
1F
100
AcDbEntity
  8
4-4
  6
Continuous
 62
     7
370
     9
100
AcDbPolyline
 90
        4
 70
     1
 43
0.8
 10
-1085.11349119028
 20
132.1477644740431
 42
0.4142135623731
 10
-1085.51349119028
 20
132.5477644740431
 42
0.4142135623731
 10
-1085.91349119028
 20
132.1477644740431
 42
0.4142135623731
 10
-1085.51349119028
 20
131.7477644740431
 42
0.4142135623731
  0
LINE
  5
188
330
1F
100
AcDbEntity
  8
4-4
  6
Continuous
 62
     7
370
     9
100
AcDbLine
 10
-1085.51349119028
 20
133.3477644740431
 30
0.0
 11
-1085.51349119028
 21
94.47035677799738
 31
0.0
  0
TEXT
  5
189
330
1F
100
AcDbEntity
  8
4-4
  6
Continuous
 62
     2
370
   211
100
AcDbText
 10
-1124.013491651468
 20
136.8037644740431
 30
0.0
 40
12.192
  1
60
 41
1.0625
  7
ＭＳ ゴシック
100
AcDbText
  0
TEXT
  5
18A
330
1F
100
AcDbEntity
  8
4-5
  6
Continuous
 62
     2
370
     9
100
AcDbText
 10
-1083.700805256676
 20
24.76752009319296
 30
0.0
 40
12.192
  1
把手穴
 41
1.083333333333333
  7
ＭＳ ゴシック
100
AcDbText
  0
LINE
  5
18B
330
1F
100
AcDbEntity
  8
4-5
  6
Continuous
 62
     7
370
     9
100
AcDbLine
 10
-1031.700805256676
 20
18.91152009319296
 30
0.0
 11
-1083.700805256676
 21
18.91152009319296
 31
0.0
  0
LINE
  5
18C
330
1F
100
AcDbEntity
  8
4-5
  6
Continuous
 62
     7
370
     9
100
AcDbLine
 10
-1083.700805256676
 20
18.91152009319296
 30
0.0
 11
-1118.929780963813
 21
79.92989591656335
 31
0.0
  0
LWPOLYLINE
  5
18D
330
1F
100
AcDbEntity
  8
4-5
  6
Continuous
 62
     7
370
     9
100
AcDbPolyline
 90
        4
 70
     1
 43
0.8
 10
-1118.529780963813
 20
79.92989591656335
 42
0.4142135623731
 10
-1118.929780963813
 20
80.32989591656336
 42
0.4142135623731
 10
-1119.329780963813
 20
79.92989591656335
 42
0.4142135623731
 10
-1118.929780963813
 20
79.52989591656335
 42
0.4142135623731
  0
LINE
  5
18E
330
1F
100
AcDbEntity
  8
4-1
  6
Continuous
 62
     2
370
     9
100
AcDbLine
 10
147.9863255477591
 20
62.00395934156376
 30
0.0
 11
-1250.013576949165
 21
62.00395934156376
 31
0.0
  0
LINE
  5
18F
330
1F
100
AcDbEntity
  8
4-1
  6
Continuous
 62
     2
370
     9
100
AcDbLine
 10
147.9863255477591
 20
68.00388016082064
 30
0.0
 11
-1250.013576949165
 21
68.00388016082064
 31
0.0
  0
LINE
  5
190
330
1F
100
AcDbEntity
  8
4-1
  6
Continuous
 62
     2
370
     9
100
AcDbLine
 10
-1151.013576949165
 20
62.00389748160831
 30
0.0
 11
-1151.013576949165
 21
122.0039098535992
 31
0.0
  0
LINE
  5
191
330
1F
100
AcDbEntity
  8
4-0
  6
Continuous
 62
     4
370
     9
100
AcDbLine
 10
-360.0887195666028
 20
41.24260584994568
 30
0.0
 11
-362.0887195666028
 21
41.24260584994568
 31
0.0
  0
LINE
  5
192
330
1F
100
AcDbEntity
  8
4-0
  6
Continuous
 62
     4
370
     9
100
AcDbLine
 10
-360.0887195666028
 20
21.24260584994614
 30
0.0
 11
-360.0887195666028
 21
41.24260584994568
 31
0.0
  0
LINE
  5
193
330
1F
100
AcDbEntity
  8
4-0
  6
Continuous
 62
     4
370
     9
100
AcDbLine
 10
-362.0887195666028
 20
41.24260584994568
 30
0.0
 11
-362.0887195666028
 21
21.24260584994614
 31
0.0
  0
LINE
  5
194
330
1F
100
AcDbEntity
  8
4-0
  6
Continuous
 62
     4
370
     9
100
AcDbLine
 10
-362.0887195666028
 20
21.24260584994614
 30
0.0
 11
-360.0887195666028
 21
21.24260584994614
 31
0.0
  0
LINE
  5
195
330
1F
100
AcDbEntity
  8
4-0
  6
Continuous
 62
     4
370
     9
100
AcDbLine
 10
-334.713419114394
 20
31.00867796623721
 30
0.0
 11
-361.0887195666031
 21
31.00867796623721
 31
0.0
  0
LINE
  5
196
330
1F
100
AcDbEntity
  8
4-0
  6
Continuous
 62
     4
370
     9
100
AcDbLine
 10
-361.0887195666031
 20
31.00867796623721
 30
0.0
 11
-351.1742709528649
 21
32.31393988843775
 31
0.0
  0
LINE
  5
197
330
1F
100
AcDbEntity
  8
4-0
  6
Continuous
 62
     4
370
     9
100
AcDbLine
 10
-361.0887195666031
 20
31.00867796623721
 30
0.0
 11
-351.1742709528649
 21
29.70341604403666
 31
0.0
  0
TEXT
  5
198
330
1F
100
AcDbEntity
  8
4-0
  6
Continuous
 62
     2
370
     9
100
AcDbText
 10
-331.0180709148129
 20
25.674028758997
 30
0.0
 40
12.19199999999983
  1
Ｂ
 41
1.000000000000021
  7
ＭＳ ゴシック
100
AcDbText
  0
LINE
  5
199
330
1F
100
AcDbEntity
  8
4-A
  6
JWW_DASHED1
 62
     4
370
     9
100
AcDbLine
 10
-927.513656601222
 20
98.50374677897325
 30
0.0
 11
-927.513656601222
 21
85.50378165620525
 31
0.0
  0
LINE
  5
19A
330
1F
100
AcDbEntity
  8
4-A
  6
JWW_DASHED1
 62
     4
370
     9
100
AcDbLine
 10
-901.0135769491649
 20
85.50378165620525
 30
0.0
 11
-927.513656601222
 21
85.50378165620525
 31
0.0
  0
LINE
  5
19B
330
1F
100
AcDbEntity
  8
4-A
  6
JWW_DASHED1
 62
     4
370
     9
100
AcDbLine
 10
-901.0135769491649
 20
98.50374677897325
 30
0.0
 11
-927.513656601222
 21
98.50374677897325
 31
0.0
  0
LINE
  5
19C
330
1F
100
AcDbEntity
  8
4-A
  6
JWW_CENTER1
 62
     4
370
     9
100
AcDbLine
 10
-901.0135769491649
 20
100.9363234334736
 30
0.0
 11
-901.0135769491649
 21
83.45783043154323
 31
0.0
  0
LINE
  5
19D
330
1F
100
AcDbEntity
  8
4-A
  6
JWW_CENTER1
 62
     4
370
     9
100
AcDbLine
 10
-891.5520323967995
 20
92.0036242373469
 30
0.0
 11
-930.3420973815668
 21
92.0036242373469
 31
0.0
  0
ARC
  5
19E
330
1F
100
AcDbEntity
  8
4-A
  6
JWW_DASHED1
 62
     4
370
     9
100
AcDbCircle
 10
-901.0135769491649
 20
92.0036242373469
 30
0.0
 40
6.499982014586107
100
AcDbArc
 50
270.0
 51
90.0
  0
ARC
  5
19F
330
1F
100
AcDbEntity
  8
4-A
  6
JWW_DASHED1
 62
     4
370
     9
100
AcDbCircle
 10
-901.0135769491649
 20
92.0036242373469
 30
0.0
 40
6.499982014586107
100
AcDbArc
 50
90.0
 51
270.0
  0
LINE
  5
1A0
330
1F
100
AcDbEntity
  8
4-A
  6
JWW_DASHED1
 62
     4
370
     9
100
AcDbLine
 10
72.48634434140592
 20
98.50374677897325
 30
0.0
 11
72.48634434140592
 21
85.50378165620525
 31
0.0
  0
LINE
  5
1A1
330
1F
100
AcDbEntity
  8
4-A
  6
JWW_DASHED1
 62
     4
370
     9
100
AcDbLine
 10
98.98642399346306
 20
85.50378165620525
 30
0.0
 11
72.48634434140592
 21
85.50378165620525
 31
0.0
  0
LINE
  5
1A2
330
1F
100
AcDbEntity
  8
4-A
  6
JWW_DASHED1
 62
     4
370
     9
100
AcDbLine
 10
98.98642399346306
 20
98.50374677897325
 30
0.0
 11
72.48634434140592
 21
98.50374677897325
 31
0.0
  0
LINE
  5
1A3
330
1F
100
AcDbEntity
  8
4-A
  6
JWW_CENTER1
 62
     4
370
     9
100
AcDbLine
 10
98.98642399346306
 20
100.9363234334736
 30
0.0
 11
98.98642399346306
 21
83.45783043154323
 31
0.0
  0
LINE
  5
1A4
330
1F
100
AcDbEntity
  8
4-A
  6
JWW_CENTER1
 62
     4
370
     9
100
AcDbLine
 10
108.4479685458284
 20
92.0036242373469
 30
0.0
 11
69.65790356106118
 21
92.0036242373469
 31
0.0
  0
ARC
  5
1A5
330
1F
100
AcDbEntity
  8
4-A
  6
JWW_DASHED1
 62
     4
370
     9
100
AcDbCircle
 10
98.98642399346306
 20
92.0036242373469
 30
0.0
 40
6.499982014586107
100
AcDbArc
 50
270.0
 51
90.0
  0
ARC
  5
1A6
330
1F
100
AcDbEntity
  8
4-A
  6
JWW_DASHED1
 62
     4
370
     9
100
AcDbCircle
 10
98.98642399346306
 20
92.0036242373469
 30
0.0
 40
6.499982014586107
100
AcDbArc
 50
90.0
 51
270.0
  0
LINE
  5
1A7
330
1F
100
AcDbEntity
  8
4-A
  6
JWW_DASHED1
 62
     4
370
     9
100
AcDbLine
 10
-427.5135390083917
 20
98.50405713920784
 30
0.0
 11
-427.5135390083917
 21
85.50409201643984
 31
0.0
  0
LINE
  5
1A8
330
1F
100
AcDbEntity
  8
4-A
  6
JWW_DASHED1
 62
     4
370
     9
100
AcDbLine
 10
-401.0134593563346
 20
85.50409201643984
 30
0.0
 11
-427.5135390083917
 21
85.50409201643984
 31
0.0
  0
LINE
  5
1A9
330
1F
100
AcDbEntity
  8
4-A
  6
JWW_DASHED1
 62
     4
370
     9
100
AcDbLine
 10
-401.0134593563346
 20
98.50405713920784
 30
0.0
 11
-427.5135390083917
 21
98.50405713920784
 31
0.0
  0
LINE
  5
1AA
330
1F
100
AcDbEntity
  8
4-A
  6
JWW_CENTER1
 62
     4
370
     9
100
AcDbLine
 10
-401.0134593563346
 20
100.9366337937082
 30
0.0
 11
-401.0134593563346
 21
83.45814079177782
 31
0.0
  0
LINE
  5
1AB
330
1F
100
AcDbEntity
  8
4-A
  6
JWW_CENTER1
 62
     4
370
     9
100
AcDbLine
 10
-391.5519148039692
 20
92.00393459758149
 30
0.0
 11
-430.3419797887365
 21
92.00393459758149
 31
0.0
  0
ARC
  5
1AC
330
1F
100
AcDbEntity
  8
4-A
  6
JWW_DASHED1
 62
     4
370
     9
100
AcDbCircle
 10
-401.0134593563346
 20
92.00393459758149
 30
0.0
 40
6.499982014586107
100
AcDbArc
 50
270.0
 51
90.0
  0
ARC
  5
1AD
330
1F
100
AcDbEntity
  8
4-A
  6
JWW_DASHED1
 62
     4
370
     9
100
AcDbCircle
 10
-401.0134593563346
 20
92.00393459758149
 30
0.0
 40
6.499982014586107
100
AcDbArc
 50
90.0
 51
270.0
  0
TEXT
  5
1AE
330
1F
100
AcDbEntity
  8
4-5
  6
Continuous
 62
     2
370
     9
100
AcDbText
 10
-631.013625700703
 20
-10.37656899899236
 30
0.0
 40
12.192
  1
平面図　Ｓ＝１：４
 41
1.111111111111111
  7
ＭＳ ゴシック
100
AcDbText
  0
LINE
  5
1AF
330
1F
100
AcDbEntity
  8
4-5
  6
Continuous
 62
     7
370
     9
100
AcDbLine
 10
-638.213625700703
 20
9.367431001007638
 30
0.0
 11
-463.813625700703
 21
9.367431001007638
 31
0.0
  0
LINE
  5
1B0
330
1F
100
AcDbEntity
  8
4-5
  6
Continuous
 62
     7
370
     9
100
AcDbLine
 10
-638.213625700703
 20
-18.63256899899236
 30
0.0
 11
-463.813625700703
 21
-18.63256899899236
 31
0.0
  0
LINE
  5
1B1
330
1F
100
AcDbEntity
  8
4-5
  6
Continuous
 62
     7
370
     9
100
AcDbLine
 10
-638.213625700703
 20
9.367431001007638
 30
0.0
 11
-638.213625700703
 21
-18.63256899899236
 31
0.0
  0
LINE
  5
1B2
330
1F
100
AcDbEntity
  8
4-5
  6
Continuous
 62
     7
370
     9
100
AcDbLine
 10
-463.813625700703
 20
9.367431001007638
 30
0.0
 11
-463.813625700703
 21
-18.63256899899236
 31
0.0
  0
LINE
  5
1B3
330
1F
100
AcDbEntity
  8
4-2
  6
Continuous
 62
     7
370
     9
100
AcDbLine
 10
-552.0135769491667
 20
372.5042649886639
 30
0.0
 11
-556.5136617856774
 21
372.5042649886639
 31
0.0
  0
LINE
  5
1B4
330
1F
100
AcDbEntity
  8
4-2
  6
Continuous
 62
     7
370
     9
100
AcDbLine
 10
-556.5136617856774
 20
372.5042649886639
 30
0.0
 11
-556.5136617856774
 21
370.0042649886639
 31
0.0
  0
LINE
  5
1B5
330
1F
100
AcDbEntity
  8
4-2
  6
Continuous
 62
     7
370
     9
100
AcDbLine
 10
-556.5136617856774
 20
365.5041801521505
 30
0.0
 11
-556.5136617856774
 21
359.5041457462352
 31
0.0
  0
LINE
  5
1B6
330
1F
100
AcDbEntity
  8
4-2
  6
Continuous
 62
     7
370
     9
100
AcDbLine
 10
-1150.013576949165
 20
372.5042649886639
 30
0.0
 11
-1145.513492112656
 21
372.5042649886639
 31
0.0
  0
LINE
  5
1B7
330
1F
100
AcDbEntity
  8
4-2
  6
Continuous
 62
     7
370
     9
100
AcDbLine
 10
-1145.513492112656
 20
372.5042649886639
 30
0.0
 11
-1145.513492112656
 21
370.0042649886639
 31
0.0
  0
LINE
  5
1B8
330
1F
100
AcDbEntity
  8
4-2
  6
Continuous
 62
     7
370
     9
100
AcDbLine
 10
-1145.513492112656
 20
365.5041801521505
 30
0.0
 11
-1145.513492112656
 21
359.5041457462352
 31
0.0
  0
LINE
  5
1B9
330
1F
100
AcDbEntity
  8
4-2
  6
Continuous
 62
     7
370
     9
100
AcDbLine
 10
-752.0134945870526
 20
370.0042649886639
 30
0.0
 11
-752.0134945870526
 21
372.5042649886639
 31
0.0
  0
LINE
  5
1BA
330
1F
100
AcDbEntity
  8
4-2
  6
Continuous
 62
     7
370
     9
100
AcDbLine
 10
-756.513579423565
 20
370.0042649886639
 30
0.0
 11
-756.513579423565
 21
372.5042649886639
 31
0.0
  0
LINE
  5
1BB
330
1F
100
AcDbEntity
  8
4-2
  6
Continuous
 62
     7
370
     9
100
AcDbLine
 10
-756.5135794235633
 20
372.5042649886639
 30
0.0
 11
-752.0134945870526
 21
372.5042649886639
 31
0.0
  0
LINE
  5
1BC
330
1F
100
AcDbEntity
  8
4-2
  6
Continuous
 62
     7
370
     9
100
AcDbLine
 10
-752.0134945870526
 20
359.5041457462352
 30
0.0
 11
-752.0134945870526
 21
365.5041801521505
 31
0.0
  0
LINE
  5
1BD
330
1F
100
AcDbEntity
  8
4-2
  6
Continuous
 62
     7
370
     9
100
AcDbLine
 10
-756.513579423565
 20
359.5041457462352
 30
0.0
 11
-756.513579423565
 21
365.5041801521505
 31
0.0
  0
LINE
  5
1BE
330
1F
100
AcDbEntity
  8
4-2
  6
Continuous
 62
     7
370
     9
100
AcDbLine
 10
-950.0136579562499
 20
359.5041457462352
 30
0.0
 11
-950.0136579562499
 21
365.5041801521505
 31
0.0
  0
LINE
  5
1BF
330
1F
100
AcDbEntity
  8
4-2
  6
Continuous
 62
     7
370
     9
100
AcDbLine
 10
-945.5135731197408
 20
359.5041457462352
 30
0.0
 11
-945.5135731197408
 21
365.5041801521505
 31
0.0
  0
LINE
  5
1C0
330
1F
100
AcDbEntity
  8
4-2
  6
Continuous
 62
     7
370
     9
100
AcDbLine
 10
-950.0136579562499
 20
372.5042649886639
 30
0.0
 11
-945.5135731197408
 21
372.5042649886639
 31
0.0
  0
LINE
  5
1C1
330
1F
100
AcDbEntity
  8
4-2
  6
Continuous
 62
     7
370
     9
100
AcDbLine
 10
-950.0136579562499
 20
370.0042649886639
 30
0.0
 11
-950.0136579562499
 21
372.5042649886639
 31
0.0
  0
LINE
  5
1C2
330
1F
100
AcDbEntity
  8
4-2
  6
Continuous
 62
     7
370
     9
100
AcDbLine
 10
-945.5135731197408
 20
370.0042649886639
 30
0.0
 11
-945.5135731197408
 21
372.5042649886639
 31
0.0
  0
LINE
  5
1C3
330
1F
100
AcDbEntity
  8
4-2
  6
Continuous
 62
     7
370
     9
100
AcDbLine
 10
-552.0135769491667
 20
365.5041801521505
 30
0.0
 11
-1150.013576949165
 21
365.5041801521505
 31
0.0
  0
LINE
  5
1C4
330
1F
100
AcDbEntity
  8
4-2
  6
Continuous
 62
     7
370
     9
100
AcDbLine
 10
-552.0135769491667
 20
359.5041457462352
 30
0.0
 11
-1150.013576949165
 21
359.5041457462352
 31
0.0
  0
LINE
  5
1C5
330
1F
100
AcDbEntity
  8
4-2
  6
Continuous
 62
     2
370
     9
100
AcDbLine
 10
-552.0135769491667
 20
372.5042649886639
 30
0.0
 11
-1150.013576949165
 21
372.5042649886639
 31
0.0
  0
LINE
  5
1C6
330
1F
100
AcDbEntity
  8
4-2
  6
Continuous
 62
     7
370
     9
100
AcDbLine
 10
-552.0135769491667
 20
355.0040609097234
 30
0.0
 11
-1150.013576949165
 21
355.0040609097234
 31
0.0
  0
LINE
  5
1C7
330
1F
100
AcDbEntity
  8
4-2
  6
Continuous
 62
     7
370
     9
100
AcDbLine
 10
-552.0135769491667
 20
370.0042649886639
 30
0.0
 11
-1150.013576949165
 21
370.0042649886639
 31
0.0
  0
LINE
  5
1C8
330
1F
100
AcDbEntity
  8
4-2
  6
Continuous
 62
     7
370
     9
100
AcDbLine
 10
-1135.513443567317
 20
355.0040609097234
 30
0.0
 11
-1145.513492112656
 21
345.0040123643869
 31
0.0
  0
LINE
  5
1C9
330
1F
100
AcDbEntity
  8
4-2
  6
JWW_DASHED1
 62
     7
370
     9
100
AcDbLine
 10
-1135.513443567317
 20
355.0040609097234
 30
0.0
 11
-1131.013358730809
 21
359.5041457462352
 31
0.0
  0
LINE
  5
1CA
330
1F
100
AcDbEntity
  8
4-2
  6
JWW_DASHED1
 62
     7
370
     9
100
AcDbLine
 10
-1145.513492112656
 20
345.0040123643869
 30
0.0
 11
-1150.013576949165
 21
340.5043474686029
 31
0.0
  0
CIRCLE
  5
1CB
330
1F
100
AcDbEntity
  8
4-2
  6
Continuous
 62
     7
370
     9
100
AcDbCircle
 10
-1120.013582280905
 20
339.5041434485786
 30
0.0
 40
5.0
  0
LINE
  5
1CC
330
1F
100
AcDbEntity
  8
4-2
  6
JWW_CENTER2
 62
     7
370
     9
100
AcDbLine
 10
-1113.013582280905
 20
339.5041434485786
 30
0.0
 11
-1127.013582280905
 21
339.5041434485786
 31
0.0
  0
LINE
  5
1CD
330
1F
100
AcDbEntity
  8
4-2
  6
JWW_CENTER2
 62
     7
370
     9
100
AcDbLine
 10
-1120.013582280905
 20
346.5041434485786
 30
0.0
 11
-1120.013582280905
 21
332.5041434485787
 31
0.0
  0
LINE
  5
1CE
330
1F
100
AcDbEntity
  8
4-2
  6
Continuous
 62
     7
370
     9
100
AcDbLine
 10
47.98632554775907
 20
372.5042649886639
 30
0.0
 11
43.48624071124834
 21
372.5042649886639
 31
0.0
  0
LINE
  5
1CF
330
1F
100
AcDbEntity
  8
4-2
  6
Continuous
 62
     7
370
     9
100
AcDbLine
 10
43.48624071124834
 20
372.5042649886639
 30
0.0
 11
43.48624071124834
 21
370.0042649886639
 31
0.0
  0
LINE
  5
1D0
330
1F
100
AcDbEntity
  8
4-2
  6
Continuous
 62
     7
370
     9
100
AcDbLine
 10
43.48624071124834
 20
365.5041801521505
 30
0.0
 11
43.48624071124834
 21
359.5041457462352
 31
0.0
  0
LINE
  5
1D1
330
1F
100
AcDbEntity
  8
4-2
  6
Continuous
 62
     7
370
     9
100
AcDbLine
 10
-550.013674452239
 20
372.5042649886639
 30
0.0
 11
-545.5135896157303
 21
372.5042649886639
 31
0.0
  0
LINE
  5
1D2
330
1F
100
AcDbEntity
  8
4-2
  6
Continuous
 62
     7
370
     9
100
AcDbLine
 10
-545.5135896157303
 20
372.5042649886639
 30
0.0
 11
-545.5135896157303
 21
370.0042649886639
 31
0.0
  0
LINE
  5
1D3
330
1F
100
AcDbEntity
  8
4-2
  6
Continuous
 62
     7
370
     9
100
AcDbLine
 10
-545.5135896157303
 20
365.5041801521505
 30
0.0
 11
-545.5135896157303
 21
359.5041457462352
 31
0.0
  0
LINE
  5
1D4
330
1F
100
AcDbEntity
  8
4-2
  6
Continuous
 62
     7
370
     9
100
AcDbLine
 10
-152.0135920901268
 20
370.0042649886639
 30
0.0
 11
-152.0135920901268
 21
372.5042649886639
 31
0.0
  0
LINE
  5
1D5
330
1F
100
AcDbEntity
  8
4-2
  6
Continuous
 62
     7
370
     9
100
AcDbLine
 10
-156.5136769266396
 20
370.0042649886639
 30
0.0
 11
-156.5136769266396
 21
372.5042649886639
 31
0.0
  0
LINE
  5
1D6
330
1F
100
AcDbEntity
  8
4-2
  6
Continuous
 62
     7
370
     9
100
AcDbLine
 10
-156.5136769266376
 20
372.5042649886639
 30
0.0
 11
-152.0135920901268
 21
372.5042649886639
 31
0.0
  0
LINE
  5
1D7
330
1F
100
AcDbEntity
  8
4-2
  6
Continuous
 62
     7
370
     9
100
AcDbLine
 10
-152.0135920901268
 20
359.5041457462352
 30
0.0
 11
-152.0135920901268
 21
365.5041801521505
 31
0.0
  0
LINE
  5
1D8
330
1F
100
AcDbEntity
  8
4-2
  6
Continuous
 62
     7
370
     9
100
AcDbLine
 10
-156.5136769266396
 20
359.5041457462352
 30
0.0
 11
-156.5136769266396
 21
365.5041801521505
 31
0.0
  0
LINE
  5
1D9
330
1F
100
AcDbEntity
  8
4-2
  6
Continuous
 62
     7
370
     9
100
AcDbLine
 10
-350.0137554593241
 20
359.5041457462352
 30
0.0
 11
-350.0137554593241
 21
365.5041801521505
 31
0.0
  0
LINE
  5
1DA
330
1F
100
AcDbEntity
  8
4-2
  6
Continuous
 62
     7
370
     9
100
AcDbLine
 10
-345.5136706228154
 20
359.5041457462352
 30
0.0
 11
-345.5136706228154
 21
365.5041801521505
 31
0.0
  0
LINE
  5
1DB
330
1F
100
AcDbEntity
  8
4-2
  6
Continuous
 62
     7
370
     9
100
AcDbLine
 10
-350.0137554593241
 20
372.5042649886639
 30
0.0
 11
-345.5136706228154
 21
372.5042649886639
 31
0.0
  0
LINE
  5
1DC
330
1F
100
AcDbEntity
  8
4-2
  6
Continuous
 62
     7
370
     9
100
AcDbLine
 10
-350.0137554593241
 20
370.0042649886639
 30
0.0
 11
-350.0137554593241
 21
372.5042649886639
 31
0.0
  0
LINE
  5
1DD
330
1F
100
AcDbEntity
  8
4-2
  6
Continuous
 62
     7
370
     9
100
AcDbLine
 10
-345.5136706228154
 20
370.0042649886639
 30
0.0
 11
-345.5136706228154
 21
372.5042649886639
 31
0.0
  0
LINE
  5
1DE
330
1F
100
AcDbEntity
  8
4-2
  6
Continuous
 62
     7
370
     9
100
AcDbLine
 10
47.98632554775907
 20
365.5041801521505
 30
0.0
 11
-550.013674452239
 21
365.5041801521505
 31
0.0
  0
LINE
  5
1DF
330
1F
100
AcDbEntity
  8
4-2
  6
Continuous
 62
     7
370
     9
100
AcDbLine
 10
47.98632554775907
 20
359.5041457462352
 30
0.0
 11
-550.013674452239
 21
359.5041457462352
 31
0.0
  0
LINE
  5
1E0
330
1F
100
AcDbEntity
  8
4-2
  6
Continuous
 62
     2
370
     9
100
AcDbLine
 10
47.98632554775907
 20
372.5042649886639
 30
0.0
 11
-550.013674452239
 21
372.5042649886639
 31
0.0
  0
LINE
  5
1E1
330
1F
100
AcDbEntity
  8
4-2
  6
Continuous
 62
     7
370
     9
100
AcDbLine
 10
47.98632554775907
 20
355.0040609097234
 30
0.0
 11
-550.013674452239
 21
355.0040609097234
 31
0.0
  0
LINE
  5
1E2
330
1F
100
AcDbEntity
  8
4-2
  6
Continuous
 62
     7
370
     9
100
AcDbLine
 10
47.98632554775907
 20
370.0042649886639
 30
0.0
 11
-550.013674452239
 21
370.0042649886639
 31
0.0
  0
LINE
  5
1E3
330
1F
100
AcDbEntity
  8
4-2
  6
Continuous
 62
     7
370
     9
100
AcDbLine
 10
-535.513541070392
 20
355.0040609097234
 30
0.0
 11
-545.5135896157303
 21
345.0040123643869
 31
0.0
  0
LINE
  5
1E4
330
1F
100
AcDbEntity
  8
4-2
  6
JWW_DASHED1
 62
     7
370
     9
100
AcDbLine
 10
-535.513541070392
 20
355.0040609097234
 30
0.0
 11
-531.013456233883
 21
359.5041457462352
 31
0.0
  0
LINE
  5
1E5
330
1F
100
AcDbEntity
  8
4-2
  6
JWW_DASHED1
 62
     7
370
     9
100
AcDbLine
 10
-545.5135896157303
 20
345.0040123643869
 30
0.0
 11
-550.013674452239
 21
340.5043474686029
 31
0.0
  0
CIRCLE
  5
1E6
330
1F
100
AcDbEntity
  8
4-2
  6
Continuous
 62
     7
370
     9
100
AcDbCircle
 10
-520.013679783979
 20
339.5041434485786
 30
0.0
 40
5.0
  0
LINE
  5
1E7
330
1F
100
AcDbEntity
  8
4-2
  6
JWW_CENTER2
 62
     7
370
     9
100
AcDbLine
 10
-513.0136797839789
 20
339.5041434485786
 30
0.0
 11
-527.0136797839791
 21
339.5041434485786
 31
0.0
  0
LINE
  5
1E8
330
1F
100
AcDbEntity
  8
4-2
  6
JWW_CENTER2
 62
     7
370
     9
100
AcDbLine
 10
-520.013679783979
 20
346.5041434485786
 30
0.0
 11
-520.013679783979
 21
332.5041434485787
 31
0.0
  0
LINE
  5
1E9
330
1F
100
AcDbEntity
  8
4-2
  6
JWW_CENTER1
 62
     3
370
     9
100
AcDbLine
 10
147.9863255477591
 20
372.5042305827423
 30
0.0
 11
49.98642305083524
 21
372.5042305827423
 31
0.0
  0
LINE
  5
1EA
330
1F
100
AcDbEntity
  8
4-1
  6
Continuous
 62
     2
370
     9
100
AcDbLine
 10
147.9863255477591
 20
322.0039510935707
 30
0.0
 11
47.98642305083536
 21
322.0039510935707
 31
0.0
  0
LINE
  5
1EB
330
1F
100
AcDbEntity
  8
4-1
  6
JWW_DASHED3
 62
     2
370
     9
100
AcDbLine
 10
47.98642305083536
 20
322.0039510935707
 30
0.0
 11
-1150.013576949165
 21
322.0039510935707
 31
0.0
  0
LINE
  5
1EC
330
1F
100
AcDbEntity
  8
4-2
  6
JWW_CENTER1
 62
     3
370
     9
100
AcDbLine
 10
-1250.013479446089
 20
372.5042305827423
 30
0.0
 11
-1152.013576949165
 21
372.5042305827423
 31
0.0
  0
LINE
  5
1ED
330
1F
100
AcDbEntity
  8
4-1
  6
Continuous
 62
     2
370
     9
100
AcDbLine
 10
-1150.013576949165
 20
322.0039510935707
 30
0.0
 11
-1250.013576949165
 21
322.0039510935707
 31
0.0
  0
LWPOLYLINE
  5
1EE
330
1F
100
AcDbEntity
  8
4-4
  6
Continuous
 62
     7
370
     9
100
AcDbPolyline
 90
        4
 70
     1
 43
0.8
 10
-1150.613576949165
 20
452.0039634655616
 42
0.4142135623731
 10
-1151.013576949165
 20
452.4039634655616
 42
0.4142135623731
 10
-1151.413576949165
 20
452.0039634655616
 42
0.4142135623731
 10
-1151.013576949165
 20
451.6039634655616
 42
0.4142135623731
  0
LINE
  5
1EF
330
1F
100
AcDbEntity
  8
4-4
  6
Continuous
 62
     7
370
     9
100
AcDbLine
 10
-1151.013576949165
 20
502.0039634655616
 30
0.0
 11
147.9863255477591
 21
502.0039634655616
 31
0.0
  0
LWPOLYLINE
  5
1F0
330
1F
100
AcDbEntity
  8
4-4
  6
Continuous
 62
     7
370
     9
100
AcDbPolyline
 90
        4
 70
     1
 43
0.8
 10
-1150.613576949165
 20
502.0039634655616
 42
0.4142135623731
 10
-1151.013576949165
 20
502.4039634655616
 42
0.4142135623731
 10
-1151.413576949165
 20
502.0039634655616
 42
0.4142135623731
 10
-1151.013576949165
 20
501.6039634655616
 42
0.4142135623731
  0
LINE
  5
1F1
330
1F
100
AcDbEntity
  8
4-4
  6
Continuous
 62
     7
370
     9
100
AcDbLine
 10
-1151.013576949165
 20
503.2039634655616
 30
0.0
 11
-1151.013576949165
 21
390.0039634655616
 31
0.0
  0
TEXT
  5
1F2
330
1F
100
AcDbEntity
  8
4-4
  6
Continuous
 62
     2
370
   211
100
AcDbText
 10
112.9863255477591
 20
506.6599634655615
 30
0.0
 40
12.192
  1
2000
 41
1.09375
  7
ＭＳ ゴシック
100
AcDbText
  0
LWPOLYLINE
  5
1F3
330
1F
100
AcDbEntity
  8
4-4
  6
Continuous
 62
     7
370
     9
100
AcDbPolyline
 90
        4
 70
     1
 43
0.8
 10
-900.6135769491649
 20
452.0039634655616
 42
0.4142135623731
 10
-901.0135769491649
 20
452.4039634655616
 42
0.4142135623731
 10
-901.4135769491648
 20
452.0039634655616
 42
0.4142135623731
 10
-901.0135769491649
 20
451.6039634655616
 42
0.4142135623731
  0
LINE
  5
1F4
330
1F
100
AcDbEntity
  8
4-4
  6
Continuous
 62
     7
370
     9
100
AcDbLine
 10
-901.0135769491649
 20
453.2039634655616
 30
0.0
 11
-901.0135769491649
 21
368.5500305156266
 31
0.0
  0
LINE
  5
1F5
330
1F
100
AcDbEntity
  8
4-4
  6
Continuous
 62
     7
370
     9
100
AcDbLine
 10
-901.0135769491649
 20
452.0039634655616
 30
0.0
 11
-401.0134593563346
 21
452.0039634655616
 31
0.0
  0
LWPOLYLINE
  5
1F6
330
1F
100
AcDbEntity
  8
4-4
  6
Continuous
 62
     7
370
     9
100
AcDbPolyline
 90
        4
 70
     1
 43
0.8
 10
-400.6134593563346
 20
452.0039634655616
 42
0.4142135623731
 10
-401.0134593563346
 20
452.4039634655616
 42
0.4142135623731
 10
-401.4134593563346
 20
452.0039634655616
 42
0.4142135623731
 10
-401.0134593563346
 20
451.6039634655616
 42
0.4142135623731
  0
LINE
  5
1F7
330
1F
100
AcDbEntity
  8
4-4
  6
Continuous
 62
     7
370
     9
100
AcDbLine
 10
-401.0134593563346
 20
453.2039634655616
 30
0.0
 11
-401.0134593563346
 21
368.5500305156266
 31
0.0
  0
TEXT
  5
1F8
330
1F
100
AcDbEntity
  8
4-4
  6
Continuous
 62
     2
370
   211
100
AcDbText
 10
-664.0135181527497
 20
456.6599634655615
 30
0.0
 40
12.192
  1
500
 41
1.083333333333333
  7
ＭＳ ゴシック
100
AcDbText
  0
LINE
  5
1F9
330
1F
100
AcDbEntity
  8
4-4
  6
Continuous
 62
     7
370
     9
100
AcDbLine
 10
-401.0134593563346
 20
452.0039634655616
 30
0.0
 11
98.98642399346306
 21
452.0039634655616
 31
0.0
  0
LWPOLYLINE
  5
1FA
330
1F
100
AcDbEntity
  8
4-4
  6
Continuous
 62
     7
370
     9
100
AcDbPolyline
 90
        4
 70
     1
 43
0.8
 10
99.38642399346307
 20
452.0039634655616
 42
0.4142135623731
 10
98.98642399346306
 20
452.4039634655616
 42
0.4142135623731
 10
98.58642399346306
 20
452.0039634655616
 42
0.4142135623731
 10
98.98642399346306
 20
451.6039634655616
 42
0.4142135623731
  0
LINE
  5
1FB
330
1F
100
AcDbEntity
  8
4-4
  6
Continuous
 62
     7
370
     9
100
AcDbLine
 10
98.98642399346306
 20
453.2039634655616
 30
0.0
 11
98.98642399346306
 21
368.5500305156266
 31
0.0
  0
TEXT
  5
1FC
330
1F
100
AcDbEntity
  8
4-4
  6
Continuous
 62
     2
370
   211
100
AcDbText
 10
-164.0135176814358
 20
456.6599634655615
 30
0.0
 40
12.192
  1
500
 41
1.083333333333333
  7
ＭＳ ゴシック
100
AcDbText
  0
LINE
  5
1FD
330
1F
100
AcDbEntity
  8
4-4
  6
Continuous
 62
     7
370
     9
100
AcDbLine
 10
98.98642399346306
 20
452.0039634655616
 30
0.0
 11
147.9863255477591
 21
452.0039634655616
 31
0.0
  0
LINE
  5
1FE
330
1F
100
AcDbEntity
  8
4-4
  6
Continuous
 62
     7
370
     9
100
AcDbLine
 10
-1151.013576949165
 20
452.0039634655616
 30
0.0
 11
-901.0135769491649
 21
452.0039634655616
 31
0.0
  0
TEXT
  5
1FF
330
1F
100
AcDbEntity
  8
4-4
  6
Continuous
 62
     2
370
   211
100
AcDbText
 10
-1039.013576949165
 20
456.6599634655615
 30
0.0
 40
12.192
  1
250
 41
1.083333333333333
  7
ＭＳ ゴシック
100
AcDbText
  0
TEXT
  5
200
330
1F
100
AcDbEntity
  8
4-5
  6
Continuous
 62
     2
370
     9
100
AcDbText
 10
-1082.680228573545
 20
410.0234088866658
 30
0.0
 40
12.192
  1
φ10
 41
1.09375
  7
ＭＳ ゴシック
100
AcDbText
  0
LINE
  5
201
330
1F
100
AcDbEntity
  8
4-5
  6
Continuous
 62
     7
370
     9
100
AcDbLine
 10
-1082.680228573545
 20
404.1674088866658
 30
0.0
 11
-1047.680228573545
 21
404.1674088866658
 31
0.0
  0
LINE
  5
202
330
1F
100
AcDbEntity
  8
4-5
  6
Continuous
 62
     7
370
     9
100
AcDbLine
 10
-1082.680228573545
 20
404.1674088866658
 30
0.0
 11
-1117.513582280905
 21
343.8342704675009
 31
0.0
  0
LINE
  5
203
330
1F
100
AcDbEntity
  8
4-5
  6
Continuous
 62
     7
370
     9
100
AcDbLine
 10
-1117.513582280905
 20
343.8342704675009
 30
0.0
 11
-1113.686747957254
 21
353.0730657926138
 31
0.0
  0
LINE
  5
204
330
1F
100
AcDbEntity
  8
4-5
  6
Continuous
 62
     7
370
     9
100
AcDbLine
 10
-1117.513582280905
 20
343.8342704675009
 30
0.0
 11
-1111.425967990818
 21
351.7678038704132
 31
0.0
  0
LINE
  5
205
330
1F
100
AcDbEntity
  8
4-1
  6
Continuous
 62
     2
370
     9
100
AcDbLine
 10
147.9863255477591
 20
376.004042646305
 30
0.0
 11
-1250.013576949165
 21
376.004042646305
 31
0.0
  0
LINE
  5
206
330
1F
100
AcDbEntity
  8
4-1
  6
Continuous
 62
     2
370
     9
100
AcDbLine
 10
147.9863255477591
 20
382.0039634655616
 30
0.0
 11
-1250.013576949165
 21
382.0039634655616
 31
0.0
  0
LINE
  5
207
330
1F
100
AcDbEntity
  8
4-1
  6
Continuous
 62
     2
370
     9
100
AcDbLine
 10
-1151.013576949165
 20
322.0039510935707
 30
0.0
 11
-1151.013576949165
 21
382.0039634655616
 31
0.0
  0
LINE
  5
208
330
1F
100
AcDbEntity
  8
4-0
  6
Continuous
 62
     4
370
     9
100
AcDbLine
 10
-360.0887195666028
 20
422.7652550972236
 30
0.0
 11
-362.0887195666028
 21
422.7652550972236
 31
0.0
  0
LINE
  5
209
330
1F
100
AcDbEntity
  8
4-0
  6
Continuous
 62
     4
370
     9
100
AcDbLine
 10
-360.0887195666028
 20
402.7652550972241
 30
0.0
 11
-360.0887195666028
 21
422.7652550972236
 31
0.0
  0
LINE
  5
20A
330
1F
100
AcDbEntity
  8
4-0
  6
Continuous
 62
     4
370
     9
100
AcDbLine
 10
-362.0887195666028
 20
422.7652550972236
 30
0.0
 11
-362.0887195666028
 21
402.7652550972241
 31
0.0
  0
LINE
  5
20B
330
1F
100
AcDbEntity
  8
4-0
  6
Continuous
 62
     4
370
     9
100
AcDbLine
 10
-362.0887195666028
 20
402.7652550972241
 30
0.0
 11
-360.0887195666028
 21
402.7652550972241
 31
0.0
  0
LINE
  5
20C
330
1F
100
AcDbEntity
  8
4-0
  6
Continuous
 62
     4
370
     9
100
AcDbLine
 10
-334.713419114394
 20
412.5313272135152
 30
0.0
 11
-361.0887195666031
 21
412.5313272135152
 31
0.0
  0
LINE
  5
20D
330
1F
100
AcDbEntity
  8
4-0
  6
Continuous
 62
     4
370
     9
100
AcDbLine
 10
-361.0887195666031
 20
412.5313272135152
 30
0.0
 11
-351.1742709528649
 21
413.8365891357157
 31
0.0
  0
LINE
  5
20E
330
1F
100
AcDbEntity
  8
4-0
  6
Continuous
 62
     4
370
     9
100
AcDbLine
 10
-361.0887195666031
 20
412.5313272135152
 30
0.0
 11
-351.1742709528649
 21
411.2260652913146
 31
0.0
  0
TEXT
  5
20F
330
1F
100
AcDbEntity
  8
4-0
  6
Continuous
 62
     2
370
     9
100
AcDbText
 10
-331.0180709148129
 20
407.196678006275
 30
0.0
 40
12.19199999999983
  1
Ｂ
 41
1.000000000000021
  7
ＭＳ ゴシック
100
AcDbText
  0
LINE
  5
210
330
1F
100
AcDbEntity
  8
4-A
  6
JWW_DASHED1
 62
     4
370
     9
100
AcDbLine
 10
-874.5134972971074
 20
345.5041141681966
 30
0.0
 11
-874.5134972971074
 21
358.5040792909646
 31
0.0
  0
LINE
  5
211
330
1F
100
AcDbEntity
  8
4-A
  6
JWW_DASHED1
 62
     4
370
     9
100
AcDbLine
 10
-901.0135769491649
 20
358.5040792909646
 30
0.0
 11
-874.5134972971074
 21
358.5040792909646
 31
0.0
  0
LINE
  5
212
330
1F
100
AcDbEntity
  8
4-A
  6
JWW_DASHED1
 62
     4
370
     9
100
AcDbLine
 10
-901.0135769491649
 20
345.5041141681966
 30
0.0
 11
-874.5134972971074
 21
345.5041141681966
 31
0.0
  0
LINE
  5
213
330
1F
100
AcDbEntity
  8
4-A
  6
JWW_CENTER1
 62
     4
370
     9
100
AcDbLine
 10
-901.0135769491649
 20
343.0715375136962
 30
0.0
 11
-901.0135769491649
 21
360.5500305156266
 31
0.0
  0
LINE
  5
214
330
1F
100
AcDbEntity
  8
4-A
  6
JWW_CENTER1
 62
     4
370
     9
100
AcDbLine
 10
-910.4751215015299
 20
352.004236709823
 30
0.0
 11
-871.6850565167626
 21
352.004236709823
 31
0.0
  0
LINE
  5
215
330
1F
100
AcDbEntity
  8
4-A
  6
JWW_DASHED1
 62
     4
370
     9
100
AcDbLine
 10
-374.5133797042774
 20
345.5041141681966
 30
0.0
 11
-374.5133797042774
 21
358.5040792909646
 31
0.0
  0
LINE
  5
216
330
1F
100
AcDbEntity
  8
4-A
  6
JWW_DASHED1
 62
     4
370
     9
100
AcDbLine
 10
-401.0134593563346
 20
358.5040792909646
 30
0.0
 11
-374.5133797042774
 21
358.5040792909646
 31
0.0
  0
LINE
  5
217
330
1F
100
AcDbEntity
  8
4-A
  6
JWW_DASHED1
 62
     4
370
     9
100
AcDbLine
 10
-401.0134593563346
 20
345.5041141681966
 30
0.0
 11
-374.5133797042774
 21
345.5041141681966
 31
0.0
  0
LINE
  5
218
330
1F
100
AcDbEntity
  8
4-A
  6
JWW_CENTER1
 62
     4
370
     9
100
AcDbLine
 10
-401.0134593563346
 20
343.0715375136962
 30
0.0
 11
-401.0134593563346
 21
360.5500305156266
 31
0.0
  0
LINE
  5
219
330
1F
100
AcDbEntity
  8
4-A
  6
JWW_CENTER1
 62
     4
370
     9
100
AcDbLine
 10
-410.4750039086996
 20
352.004236709823
 30
0.0
 11
-371.6849389239327
 21
352.004236709823
 31
0.0
  0
ARC
  5
21A
330
1F
100
AcDbEntity
  8
4-A
  6
JWW_DASHED1
 62
     4
370
     9
100
AcDbCircle
 10
-901.0135769491649
 20
352.004236709823
 30
0.0
 40
6.499982014586107
100
AcDbArc
 50
90.0
 51
270.0
  0
ARC
  5
21B
330
1F
100
AcDbEntity
  8
4-A
  6
JWW_DASHED1
 62
     4
370
     9
100
AcDbCircle
 10
-901.0135769491649
 20
352.004236709823
 30
0.0
 40
6.499982014586107
100
AcDbArc
 50
270.0
 51
90.0
  0
ARC
  5
21C
330
1F
100
AcDbEntity
  8
4-A
  6
JWW_DASHED1
 62
     4
370
     9
100
AcDbCircle
 10
-401.0134593563346
 20
352.004236709823
 30
0.0
 40
6.499982014586107
100
AcDbArc
 50
90.0
 51
270.0
  0
ARC
  5
21D
330
1F
100
AcDbEntity
  8
4-A
  6
JWW_DASHED1
 62
     4
370
     9
100
AcDbCircle
 10
-401.0134593563346
 20
352.004236709823
 30
0.0
 40
6.499982014586107
100
AcDbArc
 50
270.0
 51
90.0
  0
LINE
  5
21E
330
1F
100
AcDbEntity
  8
4-A
  6
JWW_DASHED1
 62
     4
370
     9
100
AcDbLine
 10
125.4865036455203
 20
345.5041141681966
 30
0.0
 11
125.4865036455203
 21
358.5040792909646
 31
0.0
  0
LINE
  5
21F
330
1F
100
AcDbEntity
  8
4-A
  6
JWW_DASHED1
 62
     4
370
     9
100
AcDbLine
 10
98.98642399346306
 20
358.5040792909646
 30
0.0
 11
125.4865036455203
 21
358.5040792909646
 31
0.0
  0
LINE
  5
220
330
1F
100
AcDbEntity
  8
4-A
  6
JWW_DASHED1
 62
     4
370
     9
100
AcDbLine
 10
98.98642399346306
 20
345.5041141681966
 30
0.0
 11
125.4865036455203
 21
345.5041141681966
 31
0.0
  0
LINE
  5
221
330
1F
100
AcDbEntity
  8
4-A
  6
JWW_CENTER1
 62
     4
370
     9
100
AcDbLine
 10
98.98642399346306
 20
343.0715375136962
 30
0.0
 11
98.98642399346306
 21
360.5500305156266
 31
0.0
  0
LINE
  5
222
330
1F
100
AcDbEntity
  8
4-A
  6
JWW_CENTER1
 62
     4
370
     9
100
AcDbLine
 10
89.52487944109805
 20
352.004236709823
 30
0.0
 11
128.3149444258653
 21
352.004236709823
 31
0.0
  0
ARC
  5
223
330
1F
100
AcDbEntity
  8
4-A
  6
JWW_DASHED1
 62
     4
370
     9
100
AcDbCircle
 10
98.98642399346306
 20
352.004236709823
 30
0.0
 40
6.499982014586107
100
AcDbArc
 50
90.0
 51
270.0
  0
ARC
  5
224
330
1F
100
AcDbEntity
  8
4-A
  6
JWW_DASHED1
 62
     4
370
     9
100
AcDbCircle
 10
98.98642399346306
 20
352.004236709823
 30
0.0
 40
6.499982014586107
100
AcDbArc
 50
270.0
 51
90.0
  0
LINE
  5
225
330
1F
100
AcDbEntity
  8
4-2
  6
JWW_CENTER1
 62
     3
370
     9
100
AcDbLine
 10
49.98642305083524
 20
372.5042305827423
 30
0.0
 11
49.98642305083524
 21
71.5037540843428
 31
0.0
  0
LINE
  5
226
330
1F
100
AcDbEntity
  8
4-2
  6
Continuous
 62
     7
370
     9
100
AcDbLine
 10
-552.0135769491667
 20
71.5037540843428
 30
0.0
 11
-552.0135769491667
 21
372.5042649886639
 31
0.0
  0
LINE
  5
227
330
1F
100
AcDbEntity
  8
4-2
  6
Continuous
 62
     7
370
     9
100
AcDbLine
 10
-1150.013576949165
 20
372.5042649886639
 30
0.0
 11
-1150.013576949165
 21
71.5037540843428
 31
0.0
  0
LINE
  5
228
330
1F
100
AcDbEntity
  8
4-2
  6
Continuous
 62
     7
370
     9
100
AcDbLine
 10
-556.5136617856774
 20
76.00375408434348
 30
0.0
 11
-556.5136617856774
 21
355.0040609097234
 31
0.0
  0
LINE
  5
229
330
1F
100
AcDbEntity
  8
4-2
  6
Continuous
 62
     7
370
     9
100
AcDbLine
 10
-1145.513492112656
 20
355.0040609097234
 30
0.0
 11
-1145.513492112656
 21
76.00375408434348
 31
0.0
  0
LINE
  5
22A
330
1F
100
AcDbEntity
  8
4-2
  6
Continuous
 62
     7
370
     9
100
AcDbLine
 10
47.98632554775907
 20
71.5037540843428
 30
0.0
 11
47.98632554775907
 21
372.5042649886639
 31
0.0
  0
LINE
  5
22B
330
1F
100
AcDbEntity
  8
4-2
  6
Continuous
 62
     7
370
     9
100
AcDbLine
 10
-550.013674452239
 20
372.5042649886639
 30
0.0
 11
-550.013674452239
 21
71.5037540843428
 31
0.0
  0
LINE
  5
22C
330
1F
100
AcDbEntity
  8
4-2
  6
Continuous
 62
     7
370
     9
100
AcDbLine
 10
43.48624071124834
 20
76.00375408434348
 30
0.0
 11
43.48624071124834
 21
355.0040609097234
 31
0.0
  0
LINE
  5
22D
330
1F
100
AcDbEntity
  8
4-2
  6
Continuous
 62
     7
370
     9
100
AcDbLine
 10
-545.5135896157303
 20
355.0040609097234
 30
0.0
 11
-545.5135896157303
 21
76.00375408434348
 31
0.0
  0
LINE
  5
22E
330
1F
100
AcDbEntity
  8
4-2
  6
JWW_CENTER1
 62
     3
370
     9
100
AcDbLine
 10
-1152.013576949165
 20
372.5042305827423
 30
0.0
 11
-1152.013576949165
 21
71.5037540843428
 31
0.0
  0
LINE
  5
22F
330
1F
100
AcDbEntity
  8
4-0
  6
JWW_CENTER2
 62
     7
370
     9
100
AcDbLine
 10
-361.0887195666031
 20
402.7652550972242
 30
0.0
 11
-361.0887195666031
 21
41.2426058499457
 31
0.0
  0
LINE
  5
230
330
1F
100
AcDbEntity
  8
4-9
  6
JWW_DASHED1
 62
    30
370
     5
100
AcDbLine
 10
-752.013494587069
 20
359.5041457462352
 30
0.0
 11
-752.013494587069
 21
76.00375408434348
 31
0.0
  0
LINE
  5
231
330
1F
100
AcDbEntity
  8
4-9
  6
JWW_DASHED1
 62
    30
370
     5
100
AcDbLine
 10
-756.5135794235343
 20
76.00375408434348
 30
0.0
 11
-756.5135794235343
 21
359.5041457462352
 31
0.0
  0
LINE
  5
232
330
1F
100
AcDbEntity
  8
4-9
  6
JWW_DASHED1
 62
    30
370
     5
100
AcDbLine
 10
-945.5135731197664
 20
359.5041457462352
 30
0.0
 11
-945.5135731197664
 21
76.00375408434348
 31
0.0
  0
LINE
  5
233
330
1F
100
AcDbEntity
  8
4-9
  6
JWW_DASHED1
 62
    30
370
     5
100
AcDbLine
 10
-950.0136579562318
 20
76.00375408434348
 30
0.0
 11
-950.0136579562318
 21
359.5041457462352
 31
0.0
  0
LINE
  5
234
330
1F
100
AcDbEntity
  8
4-9
  6
JWW_DASHED1
 62
    30
370
     5
100
AcDbLine
 10
-152.0135920901432
 20
359.5041457462352
 30
0.0
 11
-152.0135920901432
 21
76.00375408434348
 31
0.0
  0
LINE
  5
235
330
1F
100
AcDbEntity
  8
4-9
  6
JWW_DASHED1
 62
    30
370
     5
100
AcDbLine
 10
-156.5136769266086
 20
76.00375408434348
 30
0.0
 11
-156.5136769266086
 21
359.5041457462352
 31
0.0
  0
LINE
  5
236
330
1F
100
AcDbEntity
  8
4-9
  6
JWW_DASHED1
 62
    30
370
     5
100
AcDbLine
 10
-345.5136706228407
 20
359.5041457462352
 30
0.0
 11
-345.5136706228407
 21
76.00375408434348
 31
0.0
  0
LINE
  5
237
330
1F
100
AcDbEntity
  8
4-9
  6
JWW_DASHED1
 62
    30
370
     5
100
AcDbLine
 10
-350.013755459306
 20
76.00375408434348
 30
0.0
 11
-350.013755459306
 21
359.5041457462352
 31
0.0
  0
LWPOLYLINE
  5
238
330
1F
100
AcDbEntity
  8
4-4
  6
Continuous
 62
     7
370
     9
100
AcDbPolyline
 90
        4
 70
     1
 43
0.8
 10
702.4350052171004
 20
-331.4916215511619
 42
0.4142135623731
 10
702.0350052171004
 20
-331.0916215511619
 42
0.4142135623731
 10
701.6350052171005
 20
-331.4916215511619
 42
0.4142135623731
 10
702.0350052171004
 20
-331.8916215511619
 42
0.4142135623731
  0
LINE
  5
239
330
1F
100
AcDbEntity
  8
4-4
  6
Continuous
 62
     7
370
     9
100
AcDbLine
 10
702.0350052171004
 20
-330.2916215511619
 30
0.0
 11
702.0350052171004
 21
-437.5127070526466
 31
0.0
  0
LINE
  5
23A
330
1F
100
AcDbEntity
  8
4-4
  6
Continuous
 62
     7
370
     9
100
AcDbLine
 10
702.0350052171004
 20
-358.3178767037084
 30
0.0
 11
708.0351183324481
 21
-358.3178767037084
 31
0.0
  0
LWPOLYLINE
  5
23B
330
1F
100
AcDbEntity
  8
4-4
  6
Continuous
 62
     7
370
     9
100
AcDbPolyline
 90
        4
 70
     1
 43
0.8
 10
702.4350052171004
 20
-358.3178767037084
 42
0.4142135623731
 10
702.0350052171004
 20
-357.9178767037084
 42
0.4142135623731
 10
701.6350052171005
 20
-358.3178767037084
 42
0.4142135623731
 10
702.0350052171004
 20
-358.7178767037083
 42
0.4142135623731
  0
LWPOLYLINE
  5
23C
330
1F
100
AcDbEntity
  8
4-4
  6
Continuous
 62
     7
370
     9
100
AcDbPolyline
 90
        4
 70
     1
 43
0.8
 10
708.435118332448
 20
-358.3178767037084
 42
0.4142135623731
 10
708.0351183324481
 20
-357.9178767037084
 42
0.4142135623731
 10
707.6351183324481
 20
-358.3178767037084
 42
0.4142135623731
 10
708.0351183324481
 20
-358.7178767037083
 42
0.4142135623731
  0
LINE
  5
23D
330
1F
100
AcDbEntity
  8
4-4
  6
Continuous
 62
     7
370
     9
100
AcDbLine
 10
708.0351183324481
 20
-357.1178767037084
 30
0.0
 11
708.0351183324481
 21
-437.5127070526466
 31
0.0
  0
LINE
  5
23E
330
1F
100
AcDbEntity
  8
4-4
  6
Continuous
 62
     7
370
     9
100
AcDbLine
 10
708.0351183324481
 20
-358.3178767037084
 30
0.0
 11
711.5349050039729
 21
-358.3178767037084
 31
0.0
  0
LWPOLYLINE
  5
23F
330
1F
100
AcDbEntity
  8
4-4
  6
Continuous
 62
     7
370
     9
100
AcDbPolyline
 90
        4
 70
     1
 43
0.8
 10
711.9349050039729
 20
-358.3178767037084
 42
0.4142135623731
 10
711.5349050039729
 20
-357.9178767037084
 42
0.4142135623731
 10
711.1349050039729
 20
-358.3178767037084
 42
0.4142135623731
 10
711.5349050039729
 20
-358.7178767037083
 42
0.4142135623731
  0
LINE
  5
240
330
1F
100
AcDbEntity
  8
4-4
  6
Continuous
 62
     7
370
     9
100
AcDbLine
 10
711.5349050039729
 20
-357.1178767037084
 30
0.0
 11
711.5349050039729
 21
-437.5123973993815
 31
0.0
  0
LWPOLYLINE
  5
241
330
1F
100
AcDbEntity
  8
4-4
  6
Continuous
 62
     7
370
     9
100
AcDbPolyline
 90
        4
 70
     1
 43
0.8
 10
716.4348456184144
 20
-386.5316967779382
 42
0.4142135623731
 10
716.0348456184145
 20
-386.1316967779383
 42
0.4142135623731
 10
715.6348456184145
 20
-386.5316967779382
 42
0.4142135623731
 10
716.0348456184145
 20
-386.9316967779382
 42
0.4142135623731
  0
LINE
  5
242
330
1F
100
AcDbEntity
  8
4-4
  6
Continuous
 62
     7
370
     9
100
AcDbLine
 10
716.0348456184145
 20
-385.3316967779382
 30
0.0
 11
716.0348456184145
 21
-437.5123973993815
 31
0.0
  0
TEXT
  5
243
330
1F
100
AcDbEntity
  8
4-4
  6
Continuous
 62
     2
370
   211
100
AcDbText
 10
712.3220154048211
 20
-353.6618767037083
 30
0.0
 40
12.192
  1
3.5
 41
1.083333333333333
  7
ＭＳ ゴシック
100
AcDbText
  0
TEXT
  5
244
330
1F
100
AcDbEntity
  8
4-4
  6
Continuous
 62
     2
370
   211
100
AcDbText
 10
689.0699947804069
 20
-353.6618767037083
 30
0.0
 40
12.192
  1
6
  7
ＭＳ ゴシック
100
AcDbText
  0
LINE
  5
245
330
1F
100
AcDbEntity
  8
4-4
  6
Continuous
 62
     7
370
     9
100
AcDbLine
 10
702.0350052171004
 20
-358.3178767037084
 30
0.0
 11
683.6047278580245
 21
-358.3178767037084
 31
0.0
  0
LINE
  5
246
330
1F
100
AcDbEntity
  8
4-1
  6
Continuous
 62
     2
370
     9
100
AcDbLine
 10
708.0351183324481
 20
-445.5127070526466
 30
0.0
 11
702.0350052171004
 21
-445.5127070526466
 31
0.0
  0
LINE
  5
247
330
1F
100
AcDbEntity
  8
4-2
  6
Continuous
 62
     7
370
     9
100
AcDbLine
 10
716.0348456184145
 20
-520.5125970008397
 30
0.0
 11
716.0348456184145
 21
-445.5123973993815
 31
0.0
  0
LWPOLYLINE
  5
248
330
1F
100
AcDbEntity
  8
4-4
  6
Continuous
 62
     7
370
     9
100
AcDbPolyline
 90
        4
 70
     1
 43
0.8
 10
1022.435261611888
 20
-331.4916215511619
 42
0.4142135623731
 10
1022.035261611888
 20
-331.0916215511619
 42
0.4142135623731
 10
1021.635261611888
 20
-331.4916215511619
 42
0.4142135623731
 10
1022.035261611888
 20
-331.8916215511619
 42
0.4142135623731
  0
LINE
  5
249
330
1F
100
AcDbEntity
  8
4-4
  6
Continuous
 62
     7
370
     9
100
AcDbLine
 10
1022.035261611888
 20
-330.2916215511619
 30
0.0
 11
1022.035261611888
 21
-437.5127070526466
 31
0.0
  0
LWPOLYLINE
  5
24A
330
1F
100
AcDbEntity
  8
4-4
  6
Continuous
 62
     7
370
     9
100
AcDbPolyline
 90
        4
 70
     1
 43
0.8
 10
1012.935500744802
 20
-358.3178767037084
 42
0.4142135623731
 10
1012.535500744802
 20
-357.9178767037084
 42
0.4142135623731
 10
1012.135500744802
 20
-358.3178767037084
 42
0.4142135623731
 10
1012.535500744802
 20
-358.7178767037083
 42
0.4142135623731
  0
LINE
  5
24B
330
1F
100
AcDbEntity
  8
4-4
  6
Continuous
 62
     7
370
     9
100
AcDbLine
 10
1012.535500744802
 20
-358.3178767037084
 30
0.0
 11
1016.035148496541
 21
-358.3178767037084
 31
0.0
  0
LWPOLYLINE
  5
24C
330
1F
100
AcDbEntity
  8
4-4
  6
Continuous
 62
     7
370
     9
100
AcDbPolyline
 90
        4
 70
     1
 43
0.8
 10
1016.435148496541
 20
-358.3178767037084
 42
0.4142135623731
 10
1016.035148496541
 20
-357.9178767037084
 42
0.4142135623731
 10
1015.635148496541
 20
-358.3178767037084
 42
0.4142135623731
 10
1016.035148496541
 20
-358.7178767037083
 42
0.4142135623731
  0
LINE
  5
24D
330
1F
100
AcDbEntity
  8
4-4
  6
Continuous
 62
     7
370
     9
100
AcDbLine
 10
1016.035148496541
 20
-358.3178767037084
 30
0.0
 11
1022.035261611888
 21
-358.3178767037084
 31
0.0
  0
LWPOLYLINE
  5
24E
330
1F
100
AcDbEntity
  8
4-4
  6
Continuous
 62
     7
370
     9
100
AcDbPolyline
 90
        4
 70
     1
 43
0.8
 10
1022.435261611888
 20
-358.3178767037084
 42
0.4142135623731
 10
1022.035261611888
 20
-357.9178767037084
 42
0.4142135623731
 10
1021.635261611888
 20
-358.3178767037084
 42
0.4142135623731
 10
1022.035261611888
 20
-358.7178767037083
 42
0.4142135623731
  0
LWPOLYLINE
  5
24F
330
1F
100
AcDbEntity
  8
4-4
  6
Continuous
 62
     7
370
     9
100
AcDbPolyline
 90
        4
 70
     1
 43
0.8
 10
995.4354408879318
 20
-386.5316967779382
 42
0.4142135623731
 10
995.0354408879318
 20
-386.1316967779383
 42
0.4142135623731
 10
994.6354408879318
 20
-386.5316967779382
 42
0.4142135623731
 10
995.0354408879318
 20
-386.9316967779382
 42
0.4142135623731
  0
LINE
  5
250
330
1F
100
AcDbEntity
  8
4-4
  6
Continuous
 62
     7
370
     9
100
AcDbLine
 10
995.0354408879318
 20
-385.3316967779382
 30
0.0
 11
995.0354408879318
 21
-437.5123973993815
 31
0.0
  0
LINE
  5
251
330
1F
100
AcDbEntity
  8
4-4
  6
Continuous
 62
     7
370
     9
100
AcDbLine
 10
999.5353815023734
 20
-414.7455168521681
 30
0.0
 11
1005.535560130361
 21
-414.7455168521681
 31
0.0
  0
LWPOLYLINE
  5
252
330
1F
100
AcDbEntity
  8
4-4
  6
Continuous
 62
     7
370
     9
100
AcDbPolyline
 90
        4
 70
     1
 43
0.8
 10
999.9353815023734
 20
-414.7455168521681
 42
0.4142135623731
 10
999.5353815023734
 20
-414.3455168521681
 42
0.4142135623731
 10
999.1353815023734
 20
-414.7455168521681
 42
0.4142135623731
 10
999.5353815023734
 20
-415.1455168521681
 42
0.4142135623731
  0
LWPOLYLINE
  5
253
330
1F
100
AcDbEntity
  8
4-4
  6
Continuous
 62
     7
370
     9
100
AcDbPolyline
 90
        4
 70
     1
 43
0.8
 10
1005.935560130361
 20
-414.7455168521681
 42
0.4142135623731
 10
1005.535560130361
 20
-414.3455168521681
 42
0.4142135623731
 10
1005.135560130361
 20
-414.7455168521681
 42
0.4142135623731
 10
1005.535560130361
 20
-415.1455168521681
 42
0.4142135623731
  0
LINE
  5
254
330
1F
100
AcDbEntity
  8
4-4
  6
Continuous
 62
     7
370
     9
100
AcDbLine
 10
999.5353815023734
 20
-413.5455168521681
 30
0.0
 11
999.5353815023734
 21
-437.5123973993815
 31
0.0
  0
LINE
  5
255
330
1F
100
AcDbEntity
  8
4-4
  6
Continuous
 62
     7
370
     9
100
AcDbLine
 10
1005.535560130361
 20
-413.5455168521681
 30
0.0
 11
1005.535560130361
 21
-437.5123973993815
 31
0.0
  0
TEXT
  5
256
330
1F
100
AcDbEntity
  8
4-4
  6
Continuous
 62
     2
370
   211
100
AcDbText
 10
998.535470816367
 20
-410.0895168521681
 30
0.0
 40
12.192
  1
6
  7
ＭＳ ゴシック
100
AcDbText
  0
LWPOLYLINE
  5
257
330
1F
100
AcDbEntity
  8
4-4
  6
Continuous
 62
     7
370
     9
100
AcDbPolyline
 90
        4
 70
     1
 43
0.8
 10
1010.435500744802
 20
-414.7455168521681
 42
0.4142135623731
 10
1010.035500744802
 20
-414.3455168521681
 42
0.4142135623731
 10
1009.635500744802
 20
-414.7455168521681
 42
0.4142135623731
 10
1010.035500744802
 20
-415.1455168521681
 42
0.4142135623731
  0
LINE
  5
258
330
1F
100
AcDbEntity
  8
4-4
  6
Continuous
 62
     7
370
     9
100
AcDbLine
 10
1010.035500744802
 20
-413.5455168521681
 30
0.0
 11
1010.035500744802
 21
-437.5123973993815
 31
0.0
  0
LINE
  5
259
330
1F
100
AcDbEntity
  8
4-4
  6
Continuous
 62
     7
370
     9
100
AcDbLine
 10
1010.035500744802
 20
-414.7455168521681
 30
0.0
 11
1016.035148496541
 21
-414.7455168521681
 31
0.0
  0
LWPOLYLINE
  5
25A
330
1F
100
AcDbEntity
  8
4-4
  6
Continuous
 62
     7
370
     9
100
AcDbPolyline
 90
        4
 70
     1
 43
0.8
 10
1016.435148496541
 20
-414.7455168521681
 42
0.4142135623731
 10
1016.035148496541
 20
-414.3455168521681
 42
0.4142135623731
 10
1015.635148496541
 20
-414.7455168521681
 42
0.4142135623731
 10
1016.035148496541
 20
-415.1455168521681
 42
0.4142135623731
  0
LINE
  5
25B
330
1F
100
AcDbEntity
  8
4-4
  6
Continuous
 62
     7
370
     9
100
AcDbLine
 10
1016.035148496541
 20
-413.5455168521681
 30
0.0
 11
1016.035148496541
 21
-437.5127070526466
 31
0.0
  0
LINE
  5
25C
330
1F
100
AcDbEntity
  8
4-4
  6
Continuous
 62
     7
370
     9
100
AcDbLine
 10
1012.535500744802
 20
-357.1178767037084
 30
0.0
 11
1012.535500744802
 21
-393.3709011446612
 31
0.0
  0
LINE
  5
25D
330
1F
100
AcDbEntity
  8
4-4
  6
Continuous
 62
     7
370
     9
100
AcDbLine
 10
1016.035148496541
 20
-357.1178767037084
 30
0.0
 11
1016.035148496541
 21
-393.3709011446612
 31
0.0
  0
LINE
  5
25E
330
1F
100
AcDbEntity
  8
4-4
  6
Continuous
 62
     7
370
     9
100
AcDbLine
 10
1005.535560130361
 20
-414.7455168521681
 30
0.0
 11
1010.035500744802
 21
-414.7455168521681
 31
0.0
  0
TEXT
  5
25F
330
1F
100
AcDbEntity
  8
4-4
  6
Continuous
 62
     2
370
   211
100
AcDbText
 10
1014.54951232799
 20
-410.0895168521681
 30
0.0
 40
12.192
  1
6
  7
ＭＳ ゴシック
100
AcDbText
  0
TEXT
  5
260
330
1F
100
AcDbEntity
  8
4-4
  6
Continuous
 62
     2
370
   211
100
AcDbText
 10
1023.102447628195
 20
-381.9486928397998
 30
0.0
 40
12.192
  1
4.5
 41
1.083333333333333
  7
ＭＳ ゴシック
100
AcDbText
  0
LINE
  5
261
330
1F
100
AcDbEntity
  8
4-4
  6
Continuous
 62
     7
370
     9
100
AcDbLine
 10
1049.102447628195
 20
-384.2046928397998
 30
0.0
 11
1023.102447628195
 21
-384.2046928397998
 31
0.0
  0
LINE
  5
262
330
1F
100
AcDbEntity
  8
4-4
  6
Continuous
 62
     7
370
     9
100
AcDbLine
 10
1023.102447628195
 20
-384.2046928397998
 30
0.0
 11
1007.785530437581
 21
-414.7455168521682
 31
0.0
  0
TEXT
  5
263
330
1F
100
AcDbEntity
  8
4-4
  6
Continuous
 62
     2
370
   211
100
AcDbText
 10
984.7996087610043
 20
-353.6618767037083
 30
0.0
 40
12.192
  1
3.5
 41
1.083333333333333
  7
ＭＳ ゴシック
100
AcDbText
  0
TEXT
  5
264
330
1F
100
AcDbEntity
  8
4-4
  6
Continuous
 62
     2
370
   211
100
AcDbText
 10
1026.519049974178
 20
-353.6618767037083
 30
0.0
 40
12.192
  1
6
  7
ＭＳ ゴシック
100
AcDbText
  0
LINE
  5
265
330
1F
100
AcDbEntity
  8
4-4
  6
Continuous
 62
     7
370
     9
100
AcDbLine
 10
1022.035261611888
 20
-358.3178767037084
 30
0.0
 11
1039.867461749371
 21
-358.3178767037084
 31
0.0
  0
LWPOLYLINE
  5
266
330
1F
100
AcDbEntity
  8
4-4
  6
Continuous
 62
     7
370
     9
100
AcDbPolyline
 90
        4
 70
     1
 43
0.8
 10
1061.856051371584
 20
-445.5127070526466
 42
0.4142135623731
 10
1061.456051371583
 20
-445.1127070526467
 42
0.4142135623731
 10
1061.056051371583
 20
-445.5127070526466
 42
0.4142135623731
 10
1061.456051371583
 20
-445.9127070526466
 42
0.4142135623731
  0
LWPOLYLINE
  5
267
330
1F
100
AcDbEntity
  8
4-4
  6
Continuous
 62
     7
370
     9
100
AcDbPolyline
 90
        4
 70
     1
 43
0.8
 10
1097.693568699485
 20
-445.5127070526466
 42
0.4142135623731
 10
1097.293568699485
 20
-445.1127070526467
 42
0.4142135623731
 10
1096.893568699485
 20
-445.5127070526466
 42
0.4142135623731
 10
1097.293568699485
 20
-445.9127070526466
 42
0.4142135623731
  0
LINE
  5
268
330
1F
100
AcDbEntity
  8
4-4
  6
Continuous
 62
     7
370
     9
100
AcDbLine
 10
1098.493568699485
 20
-445.5127070526466
 30
0.0
 11
1030.035261611888
 21
-445.5127070526466
 31
0.0
  0
LINE
  5
269
330
1F
100
AcDbEntity
  8
4-5
  6
Continuous
 62
     7
370
     9
100
AcDbLine
 10
1022.035261611888
 20
-445.5127070526466
 30
0.0
 11
1025.862095935539
 21
-436.2739117275337
 31
0.0
  0
LINE
  5
26A
330
1F
100
AcDbEntity
  8
4-5
  6
Continuous
 62
     7
370
     9
100
AcDbLine
 10
1022.035261611888
 20
-445.5127070526466
 30
0.0
 11
1028.122875901976
 21
-437.5791736497343
 31
0.0
  0
LINE
  5
26B
330
1F
100
AcDbEntity
  8
4-5
  6
Continuous
 62
     7
370
     9
100
AcDbLine
 10
1070.875784584296
 20
-360.9184397962011
 30
0.0
 11
1022.035261611888
 21
-445.5127070526466
 31
0.0
  0
TEXT
  5
26C
330
1F
100
AcDbEntity
  8
4-5
  6
Continuous
 62
     2
370
     9
100
AcDbText
 10
1070.875784584296
 20
-378.4966109389777
 30
0.0
 40
12.192
  1
ＳＰＨＣ（樹脂系塗装）
 41
1.113636363636364
  7
ＭＳ ゴシック
100
AcDbText
  0
LINE
  5
26D
330
1F
100
AcDbEntity
  8
4-5
  6
Continuous
 62
     7
370
     9
100
AcDbLine
 10
1070.875784584296
 20
-360.9184397962011
 30
0.0
 11
1266.875784584296
 21
-360.9184397962011
 31
0.0
  0
LINE
  5
26E
330
1F
100
AcDbEntity
  8
4-1
  6
Continuous
 62
     2
370
     9
100
AcDbLine
 10
1016.035148496541
 20
-445.5127070526466
 30
0.0
 11
1022.035261611888
 21
-445.5127070526466
 31
0.0
  0
LINE
  5
26F
330
1F
100
AcDbEntity
  8
4-2
  6
Continuous
 62
     7
370
     9
100
AcDbLine
 10
995.0354408879318
 20
-520.5125970008397
 30
0.0
 11
995.0354408879318
 21
-445.5123973993815
 31
0.0
  0
LINE
  5
270
330
1F
100
AcDbEntity
  8
4-2
  6
Continuous
 62
     7
370
     9
100
AcDbLine
 10
999.5353815023734
 20
-523.7126125070685
 30
0.0
 11
999.5353815023734
 21
-445.5123973993815
 31
0.0
  0
LINE
  5
271
330
1F
100
AcDbEntity
  8
4-2
  6
Continuous
 62
     7
370
     9
100
AcDbLine
 10
711.5349050039729
 20
-445.5123973993815
 30
0.0
 11
999.5353815023734
 21
-445.5123973993815
 31
0.0
  0
LINE
  5
272
330
1F
100
AcDbEntity
  8
4-2
  6
Continuous
 62
     7
370
     9
100
AcDbLine
 10
711.5349050039729
 20
-520.5125970008397
 30
0.0
 11
999.5353815023734
 21
-520.5125970008397
 31
0.0
  0
LINE
  5
273
330
1F
100
AcDbEntity
  8
4-9
  6
Continuous
 62
    30
370
     5
100
AcDbLine
 10
1012.535500744802
 20
-523.7126125070685
 30
0.0
 11
711.5349050039729
 21
-523.7126125070685
 31
0.0
  0
LINE
  5
274
330
1F
100
AcDbEntity
  8
4-5
  6
Continuous
 62
     7
370
     9
100
AcDbLine
 10
993.599763475557
 20
-300.4947115995873
 30
0.0
 11
909.8742271182352
 21
-445.5115944614234
 31
0.0
  0
LINE
  5
275
330
1F
100
AcDbEntity
  8
4-5
  6
Continuous
 62
     7
370
     9
100
AcDbLine
 10
909.8742271182352
 20
-445.5115944614234
 30
0.0
 11
913.7010614418862
 21
-436.2727991363105
 31
0.0
  0
LINE
  5
276
330
1F
100
AcDbEntity
  8
4-5
  6
Continuous
 62
     7
370
     9
100
AcDbLine
 10
909.8742271182352
 20
-445.5115944614234
 30
0.0
 11
915.9618414083227
 21
-437.5780610585111
 31
0.0
  0
LINE
  5
277
330
1F
100
AcDbEntity
  8
4-5
  6
Continuous
 62
     7
370
     9
100
AcDbLine
 10
993.599763475557
 20
-300.4947115995873
 30
0.0
 11
1243.599763475557
 21
-300.4947115995873
 31
0.0
  0
TEXT
  5
278
330
1F
100
AcDbEntity
  8
4-5
  6
Continuous
 62
     2
370
     9
100
AcDbText
 10
993.599763475557
 20
-318.072882742364
 30
0.0
 40
12.192
  1
ＳＳ４００（溶融亜鉛めっき）
 41
1.116071428571429
  7
ＭＳ ゴシック
100
AcDbText
  0
LINE
  5
279
330
1F
100
AcDbEntity
  8
4-4
  6
Continuous
 62
     7
370
     9
100
AcDbLine
 10
716.0348456184145
 20
-386.5316967779382
 30
0.0
 11
995.0354408879318
 21
-386.5316967779382
 31
0.0
  0
TEXT
  5
27A
330
1F
100
AcDbEntity
  8
4-4
  6
Continuous
 62
     2
370
   211
100
AcDbText
 10
842.5351432531731
 20
-381.8756967779383
 30
0.0
 40
12.192
  1
279
 41
1.083333333333333
  7
ＭＳ ゴシック
100
AcDbText
  0
LINE
  5
27B
330
1F
100
AcDbEntity
  8
4-4
  6
Continuous
 62
     7
370
     9
100
AcDbLine
 10
711.5349050039729
 20
-358.3178767037084
 30
0.0
 11
1012.535500744802
 21
-358.3178767037084
 31
0.0
  0
TEXT
  5
27C
330
1F
100
AcDbEntity
  8
4-4
  6
Continuous
 62
     2
370
   211
100
AcDbText
 10
849.0352028743876
 20
-353.6618767037083
 30
0.0
 40
12.192
  1
301
 41
1.083333333333333
  7
ＭＳ ゴシック
100
AcDbText
  0
LINE
  5
27D
330
1F
100
AcDbEntity
  8
4-4
  6
Continuous
 62
     7
370
     9
100
AcDbLine
 10
702.0350052171004
 20
-331.4916215511619
 30
0.0
 11
1022.035261611888
 21
-331.4916215511619
 31
0.0
  0
TEXT
  5
27E
330
1F
100
AcDbEntity
  8
4-4
  6
Continuous
 62
     2
370
   211
100
AcDbText
 10
849.0351334144943
 20
-326.8356215511619
 30
0.0
 40
12.192
  1
320
 41
1.083333333333333
  7
ＭＳ ゴシック
100
AcDbText
  0
TEXT
  5
27F
330
1F
100
AcDbEntity
  8
F-5ﾚｲﾔ
  6
Continuous
 62
     2
370
     9
100
AcDbText
 10
490.148065837673
 20
972.7874374533388
 30
0.0
 40
12.192
  1
200mm
 41
1.099999999999999
  7
ＭＳ ゴシック
100
AcDbText
  0
TEXT
  5
280
330
1F
100
AcDbEntity
  8
F-Fﾚｲﾔ
  6
Continuous
 62
     2
370
     9
100
AcDbText
 10
490.148065837673
 20
844.7874374533388
 30
0.0
 40
12.192
  1
寸法 幅301×長さ598×高さ110.2
 41
1.120833333333333
  7
ＭＳ ゴシック
100
AcDbText
  0
TEXT
  5
281
330
1F
100
AcDbEntity
  8
F-Fﾚｲﾔ
  6
Continuous
 62
     2
370
     9
100
AcDbText
 10
490.1480658376729
 20
748.7874374533388
 30
0.0
 40
12.192
  1
寸法 幅320×長さ2000×高さ116.2
 41
1.120967741935484
  7
ＭＳ ゴシック
100
AcDbText
  0
TEXT
  5
282
330
1F
100
AcDbEntity
  8
F-Fﾚｲﾔ
  6
Continuous
 62
     2
370
     9
100
AcDbText
 10
490.148065837673
 20
684.7874374533388
 30
0.0
 40
12.192
  1
蓋　：HISHM-2-3060
 41
1.118055555555556
  7
ＭＳ ゴシック
100
AcDbText
  0
TEXT
  5
283
330
1F
100
AcDbEntity
  8
F-Fﾚｲﾔ
  6
Continuous
 62
     2
370
     9
100
AcDbText
 10
490.148065837673
 20
652.7874374533388
 30
0.0
 40
12.192
  1
受枠：L-111H
 41
1.114583333333333
  7
ＭＳ ゴシック
100
AcDbText
  0
TEXT
  5
284
330
1F
100
AcDbEntity
  8
F-5ﾚｲﾔ
  6
Continuous
 62
     2
370
     0
100
AcDbText
 10
275.4673822126795
 20
-1090.025489238084
 30
0.0
 40
12.192
  1
スチール製蓋　シングルスリットタイプ　ＨＩＳＨＭ－２－３０６０＋Ｌ－１１１Ｈ
 41
1.121710526315789
  7
ＭＳ ゴシック
100
AcDbText
  0
LWPOLYLINE
  5
285
330
1F
100
AcDbEntity
  8
4-4
  6
Continuous
 62
     7
370
     9
100
AcDbPolyline
 90
        4
 70
     1
 43
0.8
 10
254.5173833058328
 20
-561.7123518704539
 42
0.4142135623731
 10
254.1173833058328
 20
-561.3123518704539
 42
0.4142135623731
 10
253.7173833058328
 20
-561.7123518704539
 42
0.4142135623731
 10
254.1173833058328
 20
-562.1123518704538
 42
0.4142135623731
  0
LINE
  5
286
330
1F
100
AcDbEntity
  8
4-4
  6
Continuous
 62
     7
370
     9
100
AcDbLine
 10
255.3173833058328
 20
-561.7123518704539
 30
0.0
 11
155.9863255477591
 21
-561.7123518704539
 31
0.0
  0
LWPOLYLINE
  5
287
330
1F
100
AcDbEntity
  8
4-4
  6
Continuous
 62
     7
370
     9
100
AcDbPolyline
 90
        4
 70
     1
 43
0.8
 10
205.1479070344642
 20
-555.7123787353491
 42
0.4142135623731
 10
204.7479070344642
 20
-555.3123787353492
 42
0.4142135623731
 10
204.3479070344642
 20
-555.7123787353491
 42
0.4142135623731
 10
204.7479070344642
 20
-556.1123787353491
 42
0.4142135623731
  0
LINE
  5
288
330
1F
100
AcDbEntity
  8
4-4
  6
Continuous
 62
     7
370
     9
100
AcDbLine
 10
205.9479070344642
 20
-555.7123787353491
 30
0.0
 11
155.9863255477591
 21
-555.7123787353491
 31
0.0
  0
LINE
  5
289
330
1F
100
AcDbEntity
  8
4-2
  6
JWW_CENTER1
 62
     3
370
     9
100
AcDbLine
 10
-1152.013576949165
 20
-445.5123973993815
 30
0.0
 11
-1152.013576949165
 21
-555.7123787353491
 31
0.0
  0
LINE
  5
28A
330
1F
100
AcDbEntity
  8
4-2
  6
JWW_CENTER1
 62
     3
370
     9
100
AcDbLine
 10
-1152.013576949165
 20
-555.7123787353491
 30
0.0
 11
-1250.013576949165
 21
-555.7123787353491
 31
0.0
  0
LINE
  5
28B
330
1F
100
AcDbEntity
  8
4-2
  6
JWW_CENTER1
 62
     3
370
     9
100
AcDbLine
 10
49.98642305083513
 20
-445.5123973993816
 30
0.0
 11
49.98642305083513
 21
-555.7123787353491
 31
0.0
  0
LINE
  5
28C
330
1F
100
AcDbEntity
  8
4-2
  6
JWW_CENTER1
 62
     3
370
     9
100
AcDbLine
 10
49.98642305083513
 20
-555.7123787353491
 30
0.0
 11
147.9864230508351
 21
-555.7123787353491
 31
0.0
  0
LINE
  5
28D
330
1F
100
AcDbEntity
  8
4-1
  6
Continuous
 62
     2
370
     9
100
AcDbLine
 10
-1250.013576949165
 20
-561.7123518704539
 30
0.0
 11
147.9863255477591
 21
-561.7123518704539
 31
0.0
  0
LINE
  5
28E
330
1F
100
AcDbEntity
  8
4-1
  6
Continuous
 62
     2
370
     9
100
AcDbLine
 10
-1250.013576949165
 20
-555.7123787353491
 30
0.0
 11
147.9863255477591
 21
-555.7123787353491
 31
0.0
  0
LINE
  5
28F
330
1F
100
AcDbEntity
  8
4-1
  6
Continuous
 62
     2
370
     9
100
AcDbLine
 10
-1151.013576949165
 20
-445.5123973993815
 30
0.0
 11
-1151.013576949165
 21
-561.7123518704539
 31
0.0
  0
LINE
  5
290
330
1F
100
AcDbEntity
  8
4-9
  6
Continuous
 62
    30
370
     5
100
AcDbLine
 10
-945.5135731197664
 20
-523.7123028538033
 30
0.0
 11
-945.5135731197664
 21
-555.7123787353491
 31
0.0
  0
LINE
  5
291
330
1F
100
AcDbEntity
  8
4-9
  6
Continuous
 62
    30
370
     5
100
AcDbLine
 10
-950.0136579562318
 20
-523.7123028538033
 30
0.0
 11
-950.0136579562318
 21
-555.7123787353491
 31
0.0
  0
LINE
  5
292
330
1F
100
AcDbEntity
  8
4-9
  6
Continuous
 62
    30
370
     5
100
AcDbLine
 10
-945.5135731197664
 20
-555.7123787353491
 30
0.0
 11
-950.0136579562318
 21
-555.7123787353491
 31
0.0
  0
LINE
  5
293
330
1F
100
AcDbEntity
  8
4-9
  6
Continuous
 62
    30
370
     5
100
AcDbLine
 10
-752.013494587069
 20
-523.7123028538033
 30
0.0
 11
-752.013494587069
 21
-555.7123787353491
 31
0.0
  0
LINE
  5
294
330
1F
100
AcDbEntity
  8
4-9
  6
Continuous
 62
    30
370
     5
100
AcDbLine
 10
-756.5135794235343
 20
-523.7123028538033
 30
0.0
 11
-756.5135794235343
 21
-555.7123787353491
 31
0.0
  0
LINE
  5
295
330
1F
100
AcDbEntity
  8
4-9
  6
Continuous
 62
    30
370
     5
100
AcDbLine
 10
-752.013494587069
 20
-555.7123787353491
 30
0.0
 11
-756.5135794235343
 21
-555.7123787353491
 31
0.0
  0
LINE
  5
296
330
1F
100
AcDbEntity
  8
4-9
  6
Continuous
 62
    30
370
     5
100
AcDbLine
 10
-945.5135731197664
 20
-549.7123341961783
 30
0.0
 11
-756.5135794235343
 21
-549.7123341961783
 31
0.0
  0
LINE
  5
297
330
1F
100
AcDbEntity
  8
4-9
  6
Continuous
 62
    30
370
     5
100
AcDbLine
 10
-552.0135769491667
 20
-555.7123787353491
 30
0.0
 11
-556.5136617856317
 21
-555.7123787353491
 31
0.0
  0
LINE
  5
298
330
1F
100
AcDbEntity
  8
4-9
  6
Continuous
 62
    30
370
     5
100
AcDbLine
 10
-752.013494587069
 20
-549.7123341961783
 30
0.0
 11
-556.5136617856317
 21
-549.7123341961783
 31
0.0
  0
LINE
  5
299
330
1F
100
AcDbEntity
  8
4-9
  6
Continuous
 62
    30
370
     5
100
AcDbLine
 10
-1145.513492112699
 20
-523.7123028538033
 30
0.0
 11
-1145.513492112699
 21
-555.7123787353491
 31
0.0
  0
LINE
  5
29A
330
1F
100
AcDbEntity
  8
4-9
  6
Continuous
 62
    30
370
     5
100
AcDbLine
 10
-1150.013576949165
 20
-523.7123028538033
 30
0.0
 11
-1150.013576949165
 21
-555.7123787353491
 31
0.0
  0
LINE
  5
29B
330
1F
100
AcDbEntity
  8
4-9
  6
Continuous
 62
    30
370
     5
100
AcDbLine
 10
-1145.513492112699
 20
-555.7123787353491
 30
0.0
 11
-1150.013576949165
 21
-555.7123787353491
 31
0.0
  0
LINE
  5
29C
330
1F
100
AcDbEntity
  8
4-9
  6
Continuous
 62
    30
370
     5
100
AcDbLine
 10
-1145.513492112699
 20
-549.7123341961783
 30
0.0
 11
-950.0136579562318
 21
-549.7123341961783
 31
0.0
  0
LINE
  5
29D
330
1F
100
AcDbEntity
  8
4-9
  6
Continuous
 62
    30
370
     5
100
AcDbLine
 10
-552.0135769491667
 20
-555.7123787353491
 30
0.0
 11
-552.0135769491667
 21
-523.7123028538033
 31
0.0
  0
LINE
  5
29E
330
1F
100
AcDbEntity
  8
4-9
  6
Continuous
 62
    30
370
     5
100
AcDbLine
 10
-556.5136617856317
 20
-555.7123787353491
 30
0.0
 11
-556.5136617856317
 21
-523.7123028538033
 31
0.0
  0
LINE
  5
29F
330
1F
100
AcDbEntity
  8
4-9
  6
Continuous
 62
    30
370
     5
100
AcDbLine
 10
-345.5136706228407
 20
-523.7123028538033
 30
0.0
 11
-345.5136706228407
 21
-555.7123787353491
 31
0.0
  0
LINE
  5
2A0
330
1F
100
AcDbEntity
  8
4-9
  6
Continuous
 62
    30
370
     5
100
AcDbLine
 10
-350.013755459306
 20
-523.7123028538033
 30
0.0
 11
-350.013755459306
 21
-555.7123787353491
 31
0.0
  0
LINE
  5
2A1
330
1F
100
AcDbEntity
  8
4-9
  6
Continuous
 62
    30
370
     5
100
AcDbLine
 10
-345.5136706228407
 20
-555.7123787353491
 30
0.0
 11
-350.013755459306
 21
-555.7123787353491
 31
0.0
  0
LINE
  5
2A2
330
1F
100
AcDbEntity
  8
4-9
  6
Continuous
 62
    30
370
     5
100
AcDbLine
 10
-152.0135920901432
 20
-523.7123028538033
 30
0.0
 11
-152.0135920901432
 21
-555.7123787353491
 31
0.0
  0
LINE
  5
2A3
330
1F
100
AcDbEntity
  8
4-9
  6
Continuous
 62
    30
370
     5
100
AcDbLine
 10
-156.5136769266086
 20
-523.7123028538033
 30
0.0
 11
-156.5136769266086
 21
-555.7123787353491
 31
0.0
  0
LINE
  5
2A4
330
1F
100
AcDbEntity
  8
4-9
  6
Continuous
 62
    30
370
     5
100
AcDbLine
 10
-152.0135920901432
 20
-555.7123787353491
 30
0.0
 11
-156.5136769266086
 21
-555.7123787353491
 31
0.0
  0
LINE
  5
2A5
330
1F
100
AcDbEntity
  8
4-9
  6
Continuous
 62
    30
370
     5
100
AcDbLine
 10
-345.5136706228407
 20
-549.7123341961783
 30
0.0
 11
-156.5136769266086
 21
-549.7123341961783
 31
0.0
  0
LINE
  5
2A6
330
1F
100
AcDbEntity
  8
4-9
  6
Continuous
 62
    30
370
     5
100
AcDbLine
 10
47.98632554775907
 20
-555.7123787353491
 30
0.0
 11
43.48624071129404
 21
-555.7123787353491
 31
0.0
  0
LINE
  5
2A7
330
1F
100
AcDbEntity
  8
4-9
  6
Continuous
 62
    30
370
     5
100
AcDbLine
 10
-152.0135920901432
 20
-549.7123341961783
 30
0.0
 11
43.48624071129404
 21
-549.7123341961783
 31
0.0
  0
LINE
  5
2A8
330
1F
100
AcDbEntity
  8
4-9
  6
Continuous
 62
    30
370
     5
100
AcDbLine
 10
-545.513589615774
 20
-523.7123028538033
 30
0.0
 11
-545.513589615774
 21
-555.7123787353491
 31
0.0
  0
LINE
  5
2A9
330
1F
100
AcDbEntity
  8
4-9
  6
Continuous
 62
    30
370
     5
100
AcDbLine
 10
-550.013674452239
 20
-523.7123028538033
 30
0.0
 11
-550.013674452239
 21
-555.7123787353491
 31
0.0
  0
LINE
  5
2AA
330
1F
100
AcDbEntity
  8
4-9
  6
Continuous
 62
    30
370
     5
100
AcDbLine
 10
-545.513589615774
 20
-555.7123787353491
 30
0.0
 11
-550.013674452239
 21
-555.7123787353491
 31
0.0
  0
LINE
  5
2AB
330
1F
100
AcDbEntity
  8
4-9
  6
Continuous
 62
    30
370
     5
100
AcDbLine
 10
-545.513589615774
 20
-549.7123341961783
 30
0.0
 11
-350.013755459306
 21
-549.7123341961783
 31
0.0
  0
LINE
  5
2AC
330
1F
100
AcDbEntity
  8
4-9
  6
Continuous
 62
    30
370
     5
100
AcDbLine
 10
47.98632554775907
 20
-555.7123787353491
 30
0.0
 11
47.98632554775907
 21
-523.7123028538033
 31
0.0
  0
LINE
  5
2AD
330
1F
100
AcDbEntity
  8
4-9
  6
Continuous
 62
    30
370
     5
100
AcDbLine
 10
43.48624071129404
 20
-555.7123787353491
 30
0.0
 11
43.48624071129404
 21
-523.7123028538033
 31
0.0
  0
LINE
  5
2AE
330
1F
100
AcDbEntity
  8
4-A
  6
Continuous
 62
     4
370
     9
100
AcDbLine
 10
-874.5135788565135
 20
-574.7122603177195
 30
0.0
 11
-874.5135788565135
 21
-561.7123518704539
 31
0.0
  0
LINE
  5
2AF
330
1F
100
AcDbEntity
  8
4-A
  6
Continuous
 62
     4
370
     9
100
AcDbLine
 10
-888.513643706367
 20
-574.7122603177195
 30
0.0
 11
-874.5135788565135
 21
-574.7122603177195
 31
0.0
  0
LINE
  5
2B0
330
1F
100
AcDbEntity
  8
4-A
  6
Continuous
 62
     4
370
     9
100
AcDbLine
 10
-888.513643706367
 20
-561.7123518704539
 30
0.0
 11
-874.5135788565135
 21
-561.7123518704539
 31
0.0
  0
LINE
  5
2B1
330
1F
100
AcDbEntity
  8
4-A
  6
Continuous
 62
     4
370
     9
100
AcDbLine
 10
-894.513571227119
 20
-604.7123060940867
 30
0.0
 11
-894.513571227119
 21
-580.7123900174265
 31
0.0
  0
LINE
  5
2B2
330
1F
100
AcDbEntity
  8
4-A
  6
Continuous
 62
     4
370
     9
100
AcDbLine
 10
-907.513679945991
 20
-604.7123060940867
 30
0.0
 11
-907.513679945991
 21
-580.7123900174265
 31
0.0
  0
LINE
  5
2B3
330
1F
100
AcDbEntity
  8
4-A
  6
Continuous
 62
     4
370
     9
100
AcDbLine
 10
-907.513679945991
 20
-604.7123060940867
 30
0.0
 11
-894.513571227119
 21
-604.7123060940867
 31
0.0
  0
LINE
  5
2B4
330
1F
100
AcDbEntity
  8
4-A
  6
JWW_CENTER1
 62
     4
370
     9
100
AcDbLine
 10
-888.513643706367
 20
-568.2123060940867
 30
0.0
 11
-874.5135788565135
 21
-568.2123060940867
 31
0.0
  0
LINE
  5
2B5
330
1F
100
AcDbEntity
  8
4-A
  6
JWW_CENTER1
 62
     4
370
     9
100
AcDbLine
 10
-901.0135769491649
 20
-604.7123060940867
 30
0.0
 11
-901.0135769491649
 21
-580.7123900174265
 31
0.0
  0
ARC
  5
2B6
330
1F
100
AcDbEntity
  8
4-A
  6
Continuous
 62
     4
370
     9
100
AcDbCircle
 10
-888.513643706367
 20
-580.7123900174265
 30
0.0
 40
5.999999999999996
100
AcDbArc
 50
90.00000000000001
 51
180.0
  0
ARC
  5
2B7
330
1F
100
AcDbEntity
  8
4-A
  6
Continuous
 62
     4
370
     9
100
AcDbCircle
 10
-888.513643706367
 20
-580.7123900174265
 30
0.0
 40
19.0
100
AcDbArc
 50
90.00000000000001
 51
180.0
  0
ARC
  5
2B8
330
1F
100
AcDbEntity
  8
4-A
  6
JWW_CENTER1
 62
     4
370
     9
100
AcDbCircle
 10
-888.513643706367
 20
-580.7123900174265
 30
0.0
 40
12.49999999999999
100
AcDbArc
 50
90.00000000000001
 51
180.0
  0
LINE
  5
2B9
330
1F
100
AcDbEntity
  8
4-A
  6
Continuous
 62
     4
370
     9
100
AcDbLine
 10
-374.5134612636832
 20
-574.7122603177195
 30
0.0
 11
-374.5134612636832
 21
-561.7123518704539
 31
0.0
  0
LINE
  5
2BA
330
1F
100
AcDbEntity
  8
4-A
  6
Continuous
 62
     4
370
     9
100
AcDbLine
 10
-388.5135261135367
 20
-574.7122603177195
 30
0.0
 11
-374.5134612636832
 21
-574.7122603177195
 31
0.0
  0
LINE
  5
2BB
330
1F
100
AcDbEntity
  8
4-A
  6
Continuous
 62
     4
370
     9
100
AcDbLine
 10
-388.5135261135367
 20
-561.7123518704539
 30
0.0
 11
-374.5134612636832
 21
-561.7123518704539
 31
0.0
  0
LINE
  5
2BC
330
1F
100
AcDbEntity
  8
4-A
  6
Continuous
 62
     4
370
     9
100
AcDbLine
 10
-394.5134536342887
 20
-604.7123060940867
 30
0.0
 11
-394.5134536342887
 21
-580.7123900174265
 31
0.0
  0
LINE
  5
2BD
330
1F
100
AcDbEntity
  8
4-A
  6
Continuous
 62
     4
370
     9
100
AcDbLine
 10
-407.5135623531608
 20
-604.7123060940867
 30
0.0
 11
-407.5135623531608
 21
-580.7123900174265
 31
0.0
  0
LINE
  5
2BE
330
1F
100
AcDbEntity
  8
4-A
  6
Continuous
 62
     4
370
     9
100
AcDbLine
 10
-407.5135623531608
 20
-604.7123060940867
 30
0.0
 11
-394.5134536342887
 21
-604.7123060940867
 31
0.0
  0
LINE
  5
2BF
330
1F
100
AcDbEntity
  8
4-A
  6
JWW_CENTER1
 62
     4
370
     9
100
AcDbLine
 10
-388.5135261135367
 20
-568.2123060940867
 30
0.0
 11
-374.5134612636832
 21
-568.2123060940867
 31
0.0
  0
LINE
  5
2C0
330
1F
100
AcDbEntity
  8
4-A
  6
JWW_CENTER1
 62
     4
370
     9
100
AcDbLine
 10
-401.0134593563346
 20
-604.7123060940867
 30
0.0
 11
-401.0134593563346
 21
-580.7123900174265
 31
0.0
  0
ARC
  5
2C1
330
1F
100
AcDbEntity
  8
4-A
  6
Continuous
 62
     4
370
     9
100
AcDbCircle
 10
-388.5135261135367
 20
-580.7123900174265
 30
0.0
 40
5.999999999999996
100
AcDbArc
 50
90.00000000000001
 51
180.0
  0
ARC
  5
2C2
330
1F
100
AcDbEntity
  8
4-A
  6
Continuous
 62
     4
370
     9
100
AcDbCircle
 10
-388.5135261135367
 20
-580.7123900174265
 30
0.0
 40
19.0
100
AcDbArc
 50
90.00000000000001
 51
180.0
  0
ARC
  5
2C3
330
1F
100
AcDbEntity
  8
4-A
  6
JWW_CENTER1
 62
     4
370
     9
100
AcDbCircle
 10
-388.5135261135367
 20
-580.7123900174265
 30
0.0
 40
12.49999999999999
100
AcDbArc
 50
90.00000000000001
 51
180.0
  0
LINE
  5
2C4
330
1F
100
AcDbEntity
  8
4-A
  6
Continuous
 62
     4
370
     9
100
AcDbLine
 10
125.4864220861144
 20
-574.7122603177195
 30
0.0
 11
125.4864220861144
 21
-561.7123518704539
 31
0.0
  0
LINE
  5
2C5
330
1F
100
AcDbEntity
  8
4-A
  6
Continuous
 62
     4
370
     9
100
AcDbLine
 10
111.4863572362609
 20
-574.7122603177195
 30
0.0
 11
125.4864220861144
 21
-574.7122603177195
 31
0.0
  0
LINE
  5
2C6
330
1F
100
AcDbEntity
  8
4-A
  6
Continuous
 62
     4
370
     9
100
AcDbLine
 10
111.4863572362609
 20
-561.7123518704539
 30
0.0
 11
125.4864220861144
 21
-561.7123518704539
 31
0.0
  0
LINE
  5
2C7
330
1F
100
AcDbEntity
  8
4-A
  6
Continuous
 62
     4
370
     9
100
AcDbLine
 10
105.486429715509
 20
-604.7123060940867
 30
0.0
 11
105.486429715509
 21
-580.7123900174265
 31
0.0
  0
LINE
  5
2C8
330
1F
100
AcDbEntity
  8
4-A
  6
Continuous
 62
     4
370
     9
100
AcDbLine
 10
92.48632099663689
 20
-604.7123060940867
 30
0.0
 11
92.48632099663689
 21
-580.7123900174265
 31
0.0
  0
LINE
  5
2C9
330
1F
100
AcDbEntity
  8
4-A
  6
Continuous
 62
     4
370
     9
100
AcDbLine
 10
92.48632099663689
 20
-604.7123060940867
 30
0.0
 11
105.486429715509
 21
-604.7123060940867
 31
0.0
  0
LINE
  5
2CA
330
1F
100
AcDbEntity
  8
4-A
  6
JWW_CENTER1
 62
     4
370
     9
100
AcDbLine
 10
111.4863572362609
 20
-568.2123060940867
 30
0.0
 11
125.4864220861144
 21
-568.2123060940867
 31
0.0
  0
LINE
  5
2CB
330
1F
100
AcDbEntity
  8
4-A
  6
JWW_CENTER1
 62
     4
370
     9
100
AcDbLine
 10
98.98642399346306
 20
-604.7123060940867
 30
0.0
 11
98.98642399346306
 21
-580.7123900174265
 31
0.0
  0
ARC
  5
2CC
330
1F
100
AcDbEntity
  8
4-A
  6
Continuous
 62
     4
370
     9
100
AcDbCircle
 10
111.4863572362609
 20
-580.7123900174265
 30
0.0
 40
5.999999999999996
100
AcDbArc
 50
90.00000000000001
 51
180.0
  0
ARC
  5
2CD
330
1F
100
AcDbEntity
  8
4-A
  6
Continuous
 62
     4
370
     9
100
AcDbCircle
 10
111.4863572362609
 20
-580.7123900174265
 30
0.0
 40
19.0
100
AcDbArc
 50
90.00000000000001
 51
180.0
  0
ARC
  5
2CE
330
1F
100
AcDbEntity
  8
4-A
  6
JWW_CENTER1
 62
     4
370
     9
100
AcDbCircle
 10
111.4863572362609
 20
-580.7123900174265
 30
0.0
 40
12.49999999999999
100
AcDbArc
 50
90.00000000000001
 51
180.0
  0
TEXT
  5
2CF
330
1F
100
AcDbEntity
  8
4-5
  6
Continuous
 62
     2
370
     9
100
AcDbText
 10
-633.6261860622857
 20
-668.8885933575191
 30
0.0
 40
12.192
  1
Ａ－Ａ断面図　Ｓ＝１：４
 41
1.114583333333333
  7
ＭＳ ゴシック
100
AcDbText
  0
LINE
  5
2D0
330
1F
100
AcDbEntity
  8
4-5
  6
Continuous
 62
     7
370
     9
100
AcDbLine
 10
-640.8261860622857
 20
-649.144593357519
 30
0.0
 11
-412.4261860622857
 21
-649.144593357519
 31
0.0
  0
LINE
  5
2D1
330
1F
100
AcDbEntity
  8
4-5
  6
Continuous
 62
     7
370
     9
100
AcDbLine
 10
-640.8261860622857
 20
-677.144593357519
 30
0.0
 11
-412.4261860622857
 21
-677.144593357519
 31
0.0
  0
LINE
  5
2D2
330
1F
100
AcDbEntity
  8
4-5
  6
Continuous
 62
     7
370
     9
100
AcDbLine
 10
-640.8261860622857
 20
-649.144593357519
 30
0.0
 11
-640.8261860622857
 21
-677.144593357519
 31
0.0
  0
LINE
  5
2D3
330
1F
100
AcDbEntity
  8
4-5
  6
Continuous
 62
     7
370
     9
100
AcDbLine
 10
-412.4261860622857
 20
-649.144593357519
 30
0.0
 11
-412.4261860622857
 21
-677.144593357519
 31
0.0
  0
LINE
  5
2D4
330
1F
100
AcDbEntity
  8
4-4
  6
Continuous
 62
     7
370
     9
100
AcDbLine
 10
204.7479070344642
 20
-445.5123973993815
 30
0.0
 11
204.7479070344642
 21
-555.7123787353491
 31
0.0
  0
TEXT
  5
2D5
330
1F
100
AcDbEntity
  8
4-4
  6
Continuous
 62
     2
370
   211
100
AcDbText
 10
200.0919070344642
 20
-522.6123880673654
 30
0.0
 40
12.192
  1
110.2
 50
90.0
 41
1.1
  7
ＭＳ ゴシック
100
AcDbText
  0
LINE
  5
2D6
330
1F
100
AcDbEntity
  8
4-4
  6
Continuous
 62
     7
370
     9
100
AcDbLine
 10
254.1173833058328
 20
-445.5123973993815
 30
0.0
 11
254.1173833058328
 21
-561.7123518704539
 31
0.0
  0
TEXT
  5
2D7
330
1F
100
AcDbEntity
  8
4-4
  6
Continuous
 62
     2
370
   211
100
AcDbText
 10
249.4613833058328
 20
-525.6123746349176
 30
0.0
 40
12.192
  1
116.2
 50
90.0
 41
1.1
  7
ＭＳ ゴシック
100
AcDbText
  0
TEXT
  5
2D8
330
1F
100
AcDbEntity
  8
4-5
  6
Continuous
 62
     2
370
     9
100
AcDbText
 10
993.599763475557
 20
-294.4045404568108
 30
0.0
 40
12.192
  1
蓋：ＨＩＳＨＭ－２－３０６０
 41
1.116071428571429
  7
ＭＳ ゴシック
100
AcDbText
  0
TEXT
  5
2D9
330
1F
100
AcDbEntity
  8
4-5
  6
Continuous
 62
     2
370
     9
100
AcDbText
 10
1070.875784584296
 20
-354.8282686534245
 30
0.0
 40
12.192
  1
受枠：Ｌ－１１１Ｈ
 41
1.111111111111111
  7
ＭＳ ゴシック
100
AcDbText
  0
LINE
  5
2DA
330
1F
100
AcDbEntity
  8
4-0
  6
JWW_CENTER2
 62
     7
370
     9
100
AcDbLine
 10
862.0352595498891
 20
-438.4327450069362
 30
0.0
 11
862.0352595498891
 21
-550.6524915701274
 31
0.0
  0
LWPOLYLINE
  5
2DB
330
1F
100
AcDbEntity
  8
4-4
  6
Continuous
 62
     7
370
     9
100
AcDbPolyline
 90
        4
 70
     1
 43
0.8
 10
824.304240900966
 20
-555.7126883886143
 42
0.4142135623731
 10
823.904240900966
 20
-555.3126883886143
 42
0.4142135623731
 10
823.504240900966
 20
-555.7126883886143
 42
0.4142135623731
 10
823.904240900966
 20
-556.1126883886143
 42
0.4142135623731
  0
LINE
  5
2DC
330
1F
100
AcDbEntity
  8
4-4
  6
Continuous
 62
     7
370
     9
100
AcDbLine
 10
702.0350052171004
 20
-636.7921063476082
 30
0.0
 11
762.0351565088779
 21
-636.7921063476082
 31
0.0
  0
LWPOLYLINE
  5
2DD
330
1F
100
AcDbEntity
  8
4-4
  6
Continuous
 62
     7
370
     9
100
AcDbPolyline
 90
        4
 70
     1
 43
0.8
 10
702.4350052171004
 20
-636.7921063476082
 42
0.4142135623731
 10
702.0350052171004
 20
-636.3921063476082
 42
0.4142135623731
 10
701.6350052171005
 20
-636.7921063476082
 42
0.4142135623731
 10
702.0350052171004
 20
-637.1921063476082
 42
0.4142135623731
  0
LWPOLYLINE
  5
2DE
330
1F
100
AcDbEntity
  8
4-4
  6
Continuous
 62
     7
370
     9
100
AcDbPolyline
 90
        4
 70
     1
 43
0.8
 10
762.4351565088779
 20
-636.7921063476082
 42
0.4142135623731
 10
762.0351565088779
 20
-636.3921063476082
 42
0.4142135623731
 10
761.6351565088779
 20
-636.7921063476082
 42
0.4142135623731
 10
762.0351565088779
 20
-637.1921063476082
 42
0.4142135623731
  0
LINE
  5
2DF
330
1F
100
AcDbEntity
  8
4-4
  6
Continuous
 62
     7
370
     9
100
AcDbLine
 10
702.0350052171004
 20
-637.9921063476082
 30
0.0
 11
702.0350052171004
 21
-563.7126883886143
 31
0.0
  0
LINE
  5
2E0
330
1F
100
AcDbEntity
  8
4-4
  6
Continuous
 62
     7
370
     9
100
AcDbLine
 10
762.0351565088779
 20
-637.9921063476082
 30
0.0
 11
762.0351565088779
 21
-569.712661523719
 31
0.0
  0
TEXT
  5
2E1
330
1F
100
AcDbEntity
  8
4-4
  6
Continuous
 62
     2
370
   211
100
AcDbText
 10
723.5350808629892
 20
-632.1361063476082
 30
0.0
 40
12.192
  1
60
 41
1.0625
  7
ＭＳ ゴシック
100
AcDbText
  0
LINE
  5
2E2
330
1F
100
AcDbEntity
  8
4-A
  6
Continuous
 62
     4
370
     9
100
AcDbLine
 10
738.5351342687511
 20
-568.2126605700447
 30
0.0
 11
738.5351342687511
 21
-604.7126605700448
 31
0.0
  0
LINE
  5
2E3
330
1F
100
AcDbEntity
  8
4-A
  6
Continuous
 62
     4
370
     9
100
AcDbLine
 10
738.5351342687511
 20
-604.7126605700448
 30
0.0
 11
725.535119009962
 21
-604.7126605700448
 31
0.0
  0
LINE
  5
2E4
330
1F
100
AcDbEntity
  8
4-A
  6
Continuous
 62
     4
370
     9
100
AcDbLine
 10
725.535119009962
 20
-568.2126605700447
 30
0.0
 11
725.535119009962
 21
-604.7126605700448
 31
0.0
  0
LINE
  5
2E5
330
1F
100
AcDbEntity
  8
4-A
  6
JWW_CENTER1
 62
     4
370
     9
100
AcDbLine
 10
732.0350808629892
 20
-604.7126605700448
 30
0.0
 11
732.0350808629892
 21
-559.0419299792244
 31
0.0
  0
LINE
  5
2E6
330
1F
100
AcDbEntity
  8
4-A
  6
JWW_CENTER1
 62
     4
370
     9
100
AcDbLine
 10
743.3618936071298
 20
-568.2126605700447
 30
0.0
 11
720.3780831823251
 21
-568.2126605700447
 31
0.0
  0
LINE
  5
2E7
330
1F
100
AcDbEntity
  8
4-1
  6
Continuous
 62
     2
370
     9
100
AcDbLine
 10
762.0351565088779
 20
-561.712661523719
 30
0.0
 11
762.0351565088779
 21
-555.7126883886143
 31
0.0
  0
LINE
  5
2E8
330
1F
100
AcDbEntity
  8
4-1
  6
Continuous
 62
     2
370
     9
100
AcDbLine
 10
708.0351183324481
 20
-561.712661523719
 30
0.0
 11
762.0351565088779
 21
-561.712661523719
 31
0.0
  0
LINE
  5
2E9
330
1F
100
AcDbEntity
  8
4-1
  6
Continuous
 62
     2
370
     9
100
AcDbLine
 10
711.0351748901219
 20
-555.7126883886143
 30
0.0
 11
762.0351565088779
 21
-555.7126883886143
 31
0.0
  0
ARC
  5
2EA
330
1F
100
AcDbEntity
  8
4-1
  6
Continuous
 62
     2
370
     9
100
AcDbCircle
 10
708.0351183324481
 20
-555.7126883886143
 30
0.0
 40
5.999999928198266
100
AcDbArc
 50
180.0
 51
270.0
  0
ARC
  5
2EB
330
1F
100
AcDbEntity
  8
4-1
  6
Continuous
 62
     2
370
     9
100
AcDbCircle
 10
711.0351748901219
 20
-552.7126318309403
 30
0.0
 40
2.999999964099133
100
AcDbArc
 50
180.0
 51
270.0
  0
LINE
  5
2EC
330
1F
100
AcDbEntity
  8
4-1
  6
Continuous
 62
     2
370
     9
100
AcDbLine
 10
702.0350052171004
 20
-555.7126883886143
 30
0.0
 11
702.0350052171004
 21
-445.5127070526466
 31
0.0
  0
LINE
  5
2ED
330
1F
100
AcDbEntity
  8
4-1
  6
Continuous
 62
     2
370
     9
100
AcDbLine
 10
708.0351183324481
 20
-552.7126318309403
 30
0.0
 11
708.0351183324481
 21
-445.5127070526466
 31
0.0
  0
ARC
  5
2EE
330
1F
100
AcDbEntity
  8
4-A
  6
Continuous
 62
     4
370
     9
100
AcDbCircle
 10
732.0350808629892
 20
-568.2126605700447
 30
0.0
 40
6.499999046325683
100
AcDbArc
 50
0.0
 51
180.0
  0
ARC
  5
2EF
330
1F
100
AcDbEntity
  8
4-A
  6
JWW_DASHED1
 62
     4
370
     9
100
AcDbCircle
 10
732.0350808629892
 20
-568.2126605700447
 30
0.0
 40
6.499999046325683
100
AcDbArc
 50
180.0
 51
0.0
  0
LINE
  5
2F0
330
1F
100
AcDbEntity
  8
4-9
  6
Continuous
 62
    30
370
     5
100
AcDbLine
 10
716.0351434888296
 20
-555.7126883886143
 30
0.0
 11
716.0351434888296
 21
-523.7126125070685
 31
0.0
  0
LINE
  5
2F1
330
1F
100
AcDbEntity
  8
4-9
  6
Continuous
 62
    30
370
     5
100
AcDbLine
 10
711.5349050039729
 20
-549.7126438494435
 30
0.0
 11
716.0351434888296
 21
-549.7126438494435
 31
0.0
  0
LINE
  5
2F2
330
1F
100
AcDbEntity
  8
4-9
  6
Continuous
 62
    30
370
     5
100
AcDbLine
 10
711.5349050039729
 20
-523.7126125070685
 30
0.0
 11
711.5349050039729
 21
-549.7126438494435
 31
0.0
  0
LWPOLYLINE
  5
2F3
330
1F
100
AcDbEntity
  8
4-4
  6
Continuous
 62
     7
370
     9
100
AcDbPolyline
 90
        4
 70
     1
 43
0.8
 10
1061.856051371584
 20
-555.7126883886143
 42
0.4142135623731
 10
1061.456051371583
 20
-555.3126883886143
 42
0.4142135623731
 10
1061.056051371583
 20
-555.7126883886143
 42
0.4142135623731
 10
1061.456051371583
 20
-556.1126883886143
 42
0.4142135623731
  0
LINE
  5
2F4
330
1F
100
AcDbEntity
  8
4-4
  6
Continuous
 62
     7
370
     9
100
AcDbLine
 10
1062.656051371583
 20
-555.7126883886143
 30
0.0
 11
1030.035261611888
 21
-555.7126883886143
 31
0.0
  0
LINE
  5
2F5
330
1F
100
AcDbEntity
  8
4-4
  6
Continuous
 62
     7
370
     9
100
AcDbLine
 10
1098.493568699485
 20
-561.712661523719
 30
0.0
 11
1024.035148496541
 21
-561.712661523719
 31
0.0
  0
LWPOLYLINE
  5
2F6
330
1F
100
AcDbEntity
  8
4-4
  6
Continuous
 62
     7
370
     9
100
AcDbPolyline
 90
        4
 70
     1
 43
0.8
 10
1097.693568699485
 20
-561.712661523719
 42
0.4142135623731
 10
1097.293568699485
 20
-561.312661523719
 42
0.4142135623731
 10
1096.893568699485
 20
-561.712661523719
 42
0.4142135623731
 10
1097.293568699485
 20
-562.112661523719
 42
0.4142135623731
  0
LWPOLYLINE
  5
2F7
330
1F
100
AcDbEntity
  8
4-4
  6
Continuous
 62
     7
370
     9
100
AcDbPolyline
 90
        4
 70
     1
 43
0.8
 10
962.4351103201108
 20
-636.7921063476082
 42
0.4142135623731
 10
962.0351103201108
 20
-636.3921063476082
 42
0.4142135623731
 10
961.6351103201108
 20
-636.7921063476082
 42
0.4142135623731
 10
962.0351103201108
 20
-637.1921063476082
 42
0.4142135623731
  0
LINE
  5
2F8
330
1F
100
AcDbEntity
  8
4-4
  6
Continuous
 62
     7
370
     9
100
AcDbLine
 10
962.0351103201108
 20
-637.9921063476082
 30
0.0
 11
962.0351103201108
 21
-569.712661523719
 31
0.0
  0
LINE
  5
2F9
330
1F
100
AcDbEntity
  8
4-4
  6
Continuous
 62
     7
370
     9
100
AcDbLine
 10
962.0351103201108
 20
-636.7921063476082
 30
0.0
 11
1022.035261611888
 21
-636.7921063476082
 31
0.0
  0
LWPOLYLINE
  5
2FA
330
1F
100
AcDbEntity
  8
4-4
  6
Continuous
 62
     7
370
     9
100
AcDbPolyline
 90
        4
 70
     1
 43
0.8
 10
1022.435261611888
 20
-636.7921063476082
 42
0.4142135623731
 10
1022.035261611888
 20
-636.3921063476082
 42
0.4142135623731
 10
1021.635261611888
 20
-636.7921063476082
 42
0.4142135623731
 10
1022.035261611888
 20
-637.1921063476082
 42
0.4142135623731
  0
LINE
  5
2FB
330
1F
100
AcDbEntity
  8
4-4
  6
Continuous
 62
     7
370
     9
100
AcDbLine
 10
1022.035261611888
 20
-637.9921063476082
 30
0.0
 11
1022.035261611888
 21
-563.7126883886143
 31
0.0
  0
TEXT
  5
2FC
330
1F
100
AcDbEntity
  8
4-4
  6
Continuous
 62
     2
370
   211
100
AcDbText
 10
983.5351859659997
 20
-632.1361063476082
 30
0.0
 40
12.192
  1
60
 41
1.0625
  7
ＭＳ ゴシック
100
AcDbText
  0
LINE
  5
2FD
330
1F
100
AcDbEntity
  8
4-A
  6
Continuous
 62
     4
370
     9
100
AcDbLine
 10
998.5352393717612
 20
-568.2126605700447
 30
0.0
 11
998.5352393717612
 21
-604.7126605700448
 31
0.0
  0
LINE
  5
2FE
330
1F
100
AcDbEntity
  8
4-A
  6
Continuous
 62
     4
370
     9
100
AcDbLine
 10
998.5352393717612
 20
-604.7126605700448
 30
0.0
 11
985.5352241129722
 21
-604.7126605700448
 31
0.0
  0
LINE
  5
2FF
330
1F
100
AcDbEntity
  8
4-A
  6
Continuous
 62
     4
370
     9
100
AcDbLine
 10
985.5352241129722
 20
-568.2126605700447
 30
0.0
 11
985.5352241129722
 21
-604.7126605700448
 31
0.0
  0
CIRCLE
  5
300
330
1F
100
AcDbEntity
  8
4-A
  6
Continuous
 62
     4
370
     9
100
AcDbCircle
 10
992.0351859659995
 20
-568.2126605700447
 30
0.0
 40
6.499999046325683
  0
LINE
  5
301
330
1F
100
AcDbEntity
  8
4-A
  6
JWW_CENTER1
 62
     4
370
     9
100
AcDbLine
 10
992.0351859659995
 20
-604.7126605700448
 30
0.0
 11
992.0351859659995
 21
-559.0419299792244
 31
0.0
  0
LINE
  5
302
330
1F
100
AcDbEntity
  8
4-A
  6
JWW_CENTER1
 62
     4
370
     9
100
AcDbLine
 10
1003.36199871014
 20
-568.2126605700447
 30
0.0
 11
980.3781882853355
 21
-568.2126605700447
 31
0.0
  0
LINE
  5
303
330
1F
100
AcDbEntity
  8
4-5
  6
Continuous
 62
     7
370
     9
100
AcDbLine
 10
998.5351850123252
 20
-586.4626605700448
 30
0.0
 11
1002.362019335976
 21
-595.7014558951577
 31
0.0
  0
LINE
  5
304
330
1F
100
AcDbEntity
  8
4-5
  6
Continuous
 62
     7
370
     9
100
AcDbLine
 10
998.5351850123252
 20
-586.4626605700448
 30
0.0
 11
1004.622799302413
 21
-594.3961939729571
 31
0.0
  0
LINE
  5
305
330
1F
100
AcDbEntity
  8
4-5
  6
Continuous
 62
     7
370
     9
100
AcDbLine
 10
1048.225886299221
 20
-672.5294798626758
 30
0.0
 11
998.5351850123252
 21
-586.4626605700448
 31
0.0
  0
TEXT
  5
306
330
1F
100
AcDbEntity
  8
4-5
  6
Continuous
 62
     2
370
     9
100
AcDbText
 10
1048.225886299221
 20
-666.4393087198993
 30
0.0
 40
12.192
  1
アンカー：φ１３
 41
1.109375
  7
ＭＳ ゴシック
100
AcDbText
  0
LINE
  5
307
330
1F
100
AcDbEntity
  8
4-5
  6
Continuous
 62
     7
370
     9
100
AcDbLine
 10
1048.225886299221
 20
-672.5294798626758
 30
0.0
 11
1190.225886299221
 21
-672.5294798626758
 31
0.0
  0
LINE
  5
308
330
1F
100
AcDbEntity
  8
4-1
  6
Continuous
 62
     2
370
     9
100
AcDbLine
 10
1022.035261611888
 20
-555.7126883886143
 30
0.0
 11
1022.035261611888
 21
-445.5127070526466
 31
0.0
  0
ARC
  5
309
330
1F
100
AcDbEntity
  8
4-1
  6
Continuous
 62
     2
370
     9
100
AcDbCircle
 10
1016.035148496541
 20
-555.7126883886143
 30
0.0
 40
5.999999928198266
100
AcDbArc
 50
270.0
 51
0.0
  0
LINE
  5
30A
330
1F
100
AcDbEntity
  8
4-1
  6
Continuous
 62
     2
370
     9
100
AcDbLine
 10
962.0351103201108
 20
-561.712661523719
 30
0.0
 11
962.0351103201108
 21
-555.7126883886143
 31
0.0
  0
LINE
  5
30B
330
1F
100
AcDbEntity
  8
4-1
  6
Continuous
 62
     2
370
     9
100
AcDbLine
 10
1016.035148496541
 20
-561.712661523719
 30
0.0
 11
962.0351103201108
 21
-561.712661523719
 31
0.0
  0
LINE
  5
30C
330
1F
100
AcDbEntity
  8
4-1
  6
Continuous
 62
     2
370
     9
100
AcDbLine
 10
1013.035091938867
 20
-555.7126883886143
 30
0.0
 11
962.0351103201108
 21
-555.7126883886143
 31
0.0
  0
ARC
  5
30D
330
1F
100
AcDbEntity
  8
4-1
  6
Continuous
 62
     2
370
     9
100
AcDbCircle
 10
1013.035091938867
 20
-552.7126318309403
 30
0.0
 40
2.999999964099133
100
AcDbArc
 50
270.0
 51
0.0
  0
LINE
  5
30E
330
1F
100
AcDbEntity
  8
4-1
  6
Continuous
 62
     2
370
     9
100
AcDbLine
 10
1016.035148496541
 20
-552.7126318309403
 30
0.0
 11
1016.035148496541
 21
-445.5127070526466
 31
0.0
  0
LINE
  5
30F
330
1F
100
AcDbEntity
  8
4-9
  6
Continuous
 62
    30
370
     5
100
AcDbLine
 10
1008.035262259946
 20
-555.7126883886143
 30
0.0
 11
1008.035262259946
 21
-523.7126125070685
 31
0.0
  0
LINE
  5
310
330
1F
100
AcDbEntity
  8
4-9
  6
Continuous
 62
    30
370
     5
100
AcDbLine
 10
1012.535500744802
 20
-549.7126438494435
 30
0.0
 11
1008.035262259946
 21
-549.7126438494435
 31
0.0
  0
LINE
  5
311
330
1F
100
AcDbEntity
  8
4-9
  6
Continuous
 62
    30
370
     5
100
AcDbLine
 10
1012.535500744802
 20
-523.7126125070685
 30
0.0
 11
1012.535500744802
 21
-549.7126438494435
 31
0.0
  0
LINE
  5
312
330
1F
100
AcDbEntity
  8
4-9
  6
Continuous
 62
    30
370
     5
100
AcDbLine
 10
716.0351434888296
 20
-555.7126883886143
 30
0.0
 11
1008.035262259946
 21
-555.7126883886143
 31
0.0
  0
TEXT
  5
313
330
1F
100
AcDbEntity
  8
4-5
  6
Continuous
 62
     2
370
     9
100
AcDbText
 10
1048.225886299221
 20
-690.1076510054523
 30
0.0
 40
12.192
  1
ＳＳ４００
 41
1.1
  7
ＭＳ ゴシック
100
AcDbText
  0
LINE
  5
314
330
1F
100
AcDbEntity
  8
4-4
  6
Continuous
 62
     7
370
     9
100
AcDbLine
 10
762.0351565088779
 20
-636.7921063476082
 30
0.0
 11
962.0351103201108
 21
-636.7921063476082
 31
0.0
  0
TEXT
  5
315
330
1F
100
AcDbEntity
  8
4-4
  6
Continuous
 62
     2
370
   211
100
AcDbText
 10
849.0351334144943
 20
-632.1361063476082
 30
0.0
 40
12.192
  1
200
 41
1.083333333333333
  7
ＭＳ ゴシック
100
AcDbText
  0
TEXT
  5
316
330
1F
100
AcDbEntity
  8
4-5
  6
Continuous
 62
     2
370
     9
100
AcDbText
 10
755.0351334144943
 20
-753.1423104723852
 30
0.0
 40
12.192
  1
Ｂ－Ｂ断面図　Ｓ＝１：４
 41
1.114583333333333
  7
ＭＳ ゴシック
100
AcDbText
  0
LINE
  5
317
330
1F
100
AcDbEntity
  8
4-5
  6
Continuous
 62
     7
370
     9
100
AcDbLine
 10
747.8351334144943
 20
-733.3983104723852
 30
0.0
 11
976.2351334144944
 21
-733.3983104723852
 31
0.0
  0
LINE
  5
318
330
1F
100
AcDbEntity
  8
4-5
  6
Continuous
 62
     7
370
     9
100
AcDbLine
 10
747.8351334144943
 20
-761.3983104723852
 30
0.0
 11
976.2351334144944
 21
-761.3983104723852
 31
0.0
  0
LINE
  5
319
330
1F
100
AcDbEntity
  8
4-5
  6
Continuous
 62
     7
370
     9
100
AcDbLine
 10
747.8351334144943
 20
-733.3983104723852
 30
0.0
 11
747.8351334144943
 21
-761.3983104723852
 31
0.0
  0
LINE
  5
31A
330
1F
100
AcDbEntity
  8
4-5
  6
Continuous
 62
     7
370
     9
100
AcDbLine
 10
976.2351334144944
 20
-733.3983104723852
 30
0.0
 11
976.2351334144944
 21
-761.3983104723852
 31
0.0
  0
LINE
  5
31B
330
1F
100
AcDbEntity
  8
4-4
  6
Continuous
 62
     7
370
     9
100
AcDbLine
 10
823.904240900966
 20
-523.7126125070685
 30
0.0
 11
823.904240900966
 21
-555.7126883886143
 31
0.0
  0
TEXT
  5
31C
330
1F
100
AcDbEntity
  8
4-4
  6
Continuous
 62
     2
370
   211
100
AcDbText
 10
819.2482409009659
 20
-548.2126504478414
 30
0.0
 40
12.192
  1
32
 50
90.0
 41
1.0625
  7
ＭＳ ゴシック
100
AcDbText
  0
TEXT
  5
31D
330
1F
100
AcDbEntity
  8
4-5
  6
Continuous
 62
     2
370
     9
100
AcDbText
 10
664.5418306756394
 20
-659.4393087198993
 30
0.0
 40
12.192
  1
モルタル止め
 41
1.104166666666667
  7
ＭＳ ゴシック
100
AcDbText
  0
TEXT
  5
31E
330
1F
100
AcDbEntity
  8
4-5
  6
Continuous
 62
     2
370
     9
100
AcDbText
 10
664.5418306756394
 20
-683.1076510054523
 30
0.0
 40
12.192
  1
ＳＵＳ４３０
 41
1.104166666666667
  7
ＭＳ ゴシック
100
AcDbText
  0
LINE
  5
31F
330
1F
100
AcDbEntity
  8
4-5
  6
Continuous
 62
     7
370
     9
100
AcDbLine
 10
664.5418306756394
 20
-665.5294798626758
 30
0.0
 11
770.5418306756394
 21
-665.5294798626758
 31
0.0
  0
LINE
  5
320
330
1F
100
AcDbEntity
  8
4-4
  6
Continuous
 62
     7
370
     9
100
AcDbLine
 10
1061.456051371583
 20
-445.5127070526466
 30
0.0
 11
1061.456051371583
 21
-555.7126883886143
 31
0.0
  0
TEXT
  5
321
330
1F
100
AcDbEntity
  8
4-4
  6
Continuous
 62
     2
370
   211
100
AcDbText
 10
1056.800051371583
 20
-522.6126977206304
 30
0.0
 40
12.192
  1
110.2
 50
90.0
 41
1.1
  7
ＭＳ ゴシック
100
AcDbText
  0
LINE
  5
322
330
1F
100
AcDbEntity
  8
4-4
  6
Continuous
 62
     7
370
     9
100
AcDbLine
 10
1097.293568699485
 20
-445.5127070526466
 30
0.0
 11
1097.293568699485
 21
-561.712661523719
 31
0.0
  0
TEXT
  5
323
330
1F
100
AcDbEntity
  8
4-4
  6
Continuous
 62
     2
370
   211
100
AcDbText
 10
1092.637568699485
 20
-525.6126842881829
 30
0.0
 40
12.192
  1
116.2
 50
90.0
 41
1.1
  7
ＭＳ ゴシック
100
AcDbText
  0
LINE
  5
324
330
1F
100
AcDbEntity
  8
D-A
  6
Continuous
 62
     4
370
     9
100
AcDbLine
 10
857.5212554049319
 20
126.3761751430883
 30
0.0
 11
857.5212554049319
 21
53.37617514308806
 31
0.0
  0
LINE
  5
325
330
1F
100
AcDbEntity
  8
D-A
  6
Continuous
 62
     4
370
     9
100
AcDbLine
 10
857.5212554049319
 20
53.37617514308806
 30
0.0
 11
831.5212248873538
 21
53.37617514308806
 31
0.0
  0
LINE
  5
326
330
1F
100
AcDbEntity
  8
D-A
  6
Continuous
 62
     4
370
     9
100
AcDbLine
 10
831.5212248873538
 20
126.3761751430883
 30
0.0
 11
831.5212248873538
 21
53.37617514308806
 31
0.0
  0
CIRCLE
  5
327
330
1F
100
AcDbEntity
  8
D-A
  6
Continuous
 62
     4
370
     9
100
AcDbCircle
 10
844.521148593408
 20
126.3761751430883
 30
0.0
 40
12.99999809265137
  0
LINE
  5
328
330
1F
100
AcDbEntity
  8
D-A
  6
JWW_CENTER1
 62
     4
370
     9
100
AcDbLine
 10
844.521148593408
 20
53.37617514308806
 30
0.0
 11
844.521148593408
 21
144.7176363247289
 31
0.0
  0
LINE
  5
329
330
1F
100
AcDbEntity
  8
D-A
  6
JWW_CENTER1
 62
     4
370
     9
100
AcDbLine
 10
867.1747740816893
 20
126.3761751430883
 30
0.0
 11
821.2071532320799
 21
126.3761751430883
 31
0.0
  0
LWPOLYLINE
  5
32A
330
1F
100
AcDbEntity
  8
D-4
  6
Continuous
 62
     7
370
     9
100
AcDbPolyline
 90
        4
 70
     1
 43
0.8
 10
738.5737144388287
 20
139.376119649553
 42
0.4142135623731
 10
738.1737144388287
 20
139.776119649553
 42
0.4142135623731
 10
737.7737144388287
 20
139.376119649553
 42
0.4142135623731
 10
738.1737144388287
 20
138.976119649553
 42
0.4142135623731
  0
LINE
  5
32B
330
1F
100
AcDbEntity
  8
D-4
  6
Continuous
 62
     7
370
     9
100
AcDbLine
 10
736.9737144388287
 20
139.376119649553
 30
0.0
 11
788.5212235323258
 21
139.376119649553
 31
0.0
  0
LINE
  5
32C
330
1F
100
AcDbEntity
  8
D-4
  6
Continuous
 62
     7
370
     9
100
AcDbLine
 10
738.1737144388287
 20
139.376119649553
 30
0.0
 11
738.1737144388287
 21
53.37617514308806
 31
0.0
  0
LWPOLYLINE
  5
32D
330
1F
100
AcDbEntity
  8
D-4
  6
Continuous
 62
     7
370
     9
100
AcDbPolyline
 90
        4
 70
     1
 43
0.8
 10
738.5737144388287
 20
53.37617514308806
 42
0.4142135623731
 10
738.1737144388287
 20
53.77617514308806
 42
0.4142135623731
 10
737.7737144388287
 20
53.37617514308806
 42
0.4142135623731
 10
738.1737144388287
 20
52.97617514308806
 42
0.4142135623731
  0
LINE
  5
32E
330
1F
100
AcDbEntity
  8
D-4
  6
Continuous
 62
     7
370
     9
100
AcDbLine
 10
736.9737144388287
 20
53.37617514308806
 30
0.0
 11
823.5212248873538
 21
53.37617514308806
 31
0.0
  0
TEXT
  5
32F
330
1F
100
AcDbEntity
  8
D-4
  6
Continuous
 62
     2
370
   211
100
AcDbText
 10
733.5177144388288
 20
87.87614739632053
 30
0.0
 40
12.192
  1
43
 50
90.0
 41
1.0625
  7
ＭＳ ゴシック
100
AcDbText
  0
LINE
  5
330
330
1F
100
AcDbEntity
  8
D-4
  6
Continuous
 62
     7
370
     9
100
AcDbLine
 10
784.5209973016308
 20
6.983250655566273
 30
0.0
 11
844.521148593408
 21
6.983250655566273
 31
0.0
  0
LWPOLYLINE
  5
331
330
1F
100
AcDbEntity
  8
D-4
  6
Continuous
 62
     7
370
     9
100
AcDbPolyline
 90
        4
 70
     1
 43
0.8
 10
784.9209973016308
 20
6.983250655566273
 42
0.4142135623731
 10
784.5209973016308
 20
7.383250655566274
 42
0.4142135623731
 10
784.1209973016308
 20
6.983250655566273
 42
0.4142135623731
 10
784.5209973016308
 20
6.583250655566273
 42
0.4142135623731
  0
LWPOLYLINE
  5
332
330
1F
100
AcDbEntity
  8
D-4
  6
Continuous
 62
     7
370
     9
100
AcDbPolyline
 90
        4
 70
     1
 43
0.8
 10
844.921148593408
 20
6.983250655566273
 42
0.4142135623731
 10
844.521148593408
 20
7.383250655566274
 42
0.4142135623731
 10
844.1211485934081
 20
6.983250655566273
 42
0.4142135623731
 10
844.521148593408
 20
6.583250655566273
 42
0.4142135623731
  0
LINE
  5
333
330
1F
100
AcDbEntity
  8
D-4
  6
Continuous
 62
     7
370
     9
100
AcDbLine
 10
784.5209973016308
 20
5.78325065556627
 30
0.0
 11
784.5209973016308
 21
143.3761195059495
 31
0.0
  0
LINE
  5
334
330
1F
100
AcDbEntity
  8
D-4
  6
Continuous
 62
     7
370
     9
100
AcDbLine
 10
844.521148593408
 20
5.78325065556627
 30
0.0
 11
844.521148593408
 21
45.37617514308806
 31
0.0
  0
TEXT
  5
335
330
1F
100
AcDbEntity
  8
D-4
  6
Continuous
 62
     2
370
   211
100
AcDbText
 10
806.0210729475194
 20
11.63925065556627
 30
0.0
 40
12.192
  1
30
 41
1.0625
  7
ＭＳ ゴシック
100
AcDbText
  0
TEXT
  5
336
330
1F
100
AcDbEntity
  8
D-5
  6
Continuous
 62
     2
370
     9
100
AcDbText
 10
749.295774197808
 20
-56.91353089268405
 30
0.0
 40
12.192
  1
把手部断面詳細図　Ｓ＝１：２
 41
1.116071428571429
  7
ＭＳ ゴシック
100
AcDbText
  0
LINE
  5
337
330
1F
100
AcDbEntity
  8
D-5
  6
Continuous
 62
     7
370
     9
100
AcDbLine
 10
742.0957741978079
 20
-37.16953089268405
 30
0.0
 11
1006.495774197808
 21
-37.16953089268405
 31
0.0
  0
LINE
  5
338
330
1F
100
AcDbEntity
  8
D-5
  6
Continuous
 62
     7
370
     9
100
AcDbLine
 10
742.0957741978079
 20
-65.16953089268405
 30
0.0
 11
1006.495774197808
 21
-65.16953089268405
 31
0.0
  0
LINE
  5
339
330
1F
100
AcDbEntity
  8
D-5
  6
Continuous
 62
     7
370
     9
100
AcDbLine
 10
742.0957741978079
 20
-37.16953089268405
 30
0.0
 11
742.0957741978079
 21
-65.16953089268405
 31
0.0
  0
LINE
  5
33A
330
1F
100
AcDbEntity
  8
D-5
  6
Continuous
 62
     7
370
     9
100
AcDbLine
 10
1006.495774197808
 20
-37.16953089268405
 30
0.0
 11
1006.495774197808
 21
-65.16953089268405
 31
0.0
  0
LINE
  5
33B
330
1F
100
AcDbEntity
  8
D-9
  6
Continuous
 62
    30
370
     5
100
AcDbLine
 10
803.5207968753757
 20
163.3762085842908
 30
0.0
 11
812.5212738450891
 21
163.3762085842908
 31
0.0
  0
LINE
  5
33C
330
1F
100
AcDbEntity
  8
D-9
  6
Continuous
 62
    30
370
     5
100
AcDbLine
 10
812.5212738450891
 20
151.3761195059495
 30
0.0
 11
1008.082442593133
 21
151.3761195059495
 31
0.0
  0
LINE
  5
33D
330
1F
100
AcDbEntity
  8
D-1
  6
Continuous
 62
     2
370
     9
100
AcDbLine
 10
904.5212998851855
 20
139.3761732357397
 30
0.0
 11
904.5212998851855
 21
151.3761195059495
 31
0.0
  0
LINE
  5
33E
330
1F
100
AcDbEntity
  8
D-1
  6
Continuous
 62
     2
370
     9
100
AcDbLine
 10
796.5212235323258
 20
139.3761732357397
 30
0.0
 11
904.5212998851855
 21
139.3761732357397
 31
0.0
  0
LINE
  5
33F
330
1F
100
AcDbEntity
  8
D-1
  6
Continuous
 62
     2
370
     9
100
AcDbLine
 10
802.5213366476733
 20
151.3761195059495
 30
0.0
 11
904.5212998851855
 21
151.3761195059495
 31
0.0
  0
ARC
  5
340
330
1F
100
AcDbEntity
  8
D-1
  6
Continuous
 62
     2
370
     9
100
AcDbCircle
 10
796.5212235323258
 20
151.3761195059495
 30
0.0
 40
11.99999985639653
100
AcDbArc
 50
180.0
 51
270.0
  0
ARC
  5
341
330
1F
100
AcDbEntity
  8
D-1
  6
Continuous
 62
     2
370
     9
100
AcDbCircle
 10
802.5213366476733
 20
157.3762326212972
 30
0.0
 40
5.999999928198267
100
AcDbArc
 50
180.0
 51
270.0
  0
LWPOLYLINE
  5
342
330
1F
100
AcDbEntity
  8
D-4
  6
Continuous
 62
     7
370
     9
100
AcDbPolyline
 90
        4
 70
     1
 43
0.8
 10
884.7994080236537
 20
221.7756829749686
 42
0.4142135623731
 10
884.3994080236537
 20
222.1756829749686
 42
0.4142135623731
 10
883.9994080236537
 20
221.7756829749686
 42
0.4142135623731
 10
884.3994080236537
 20
221.3756829749686
 42
0.4142135623731
  0
LINE
  5
343
330
1F
100
AcDbEntity
  8
D-2
  6
Continuous
 62
     7
370
     9
100
AcDbLine
 10
803.5207968753757
 20
221.7763022814987
 30
0.0
 11
1008.082442593133
 21
221.7763022814987
 31
0.0
  0
LINE
  5
344
330
1F
100
AcDbEntity
  8
D-9
  6
Continuous
 62
    30
370
     5
100
AcDbLine
 10
1008.082442593133
 20
215.3762712690412
 30
0.0
 11
803.5207968753757
 21
215.3762712690412
 31
0.0
  0
LWPOLYLINE
  5
345
330
1F
100
AcDbEntity
  8
D-4
  6
Continuous
 62
     7
370
     9
100
AcDbPolyline
 90
        4
 70
     1
 43
0.8
 10
884.7994080236537
 20
371.7760821778846
 42
0.4142135623731
 10
884.3994080236537
 20
372.1760821778846
 42
0.4142135623731
 10
883.9994080236537
 20
371.7760821778846
 42
0.4142135623731
 10
884.3994080236537
 20
371.3760821778847
 42
0.4142135623731
  0
LINE
  5
346
330
1F
100
AcDbEntity
  8
D-2
  6
Continuous
 62
     7
370
     9
100
AcDbLine
 10
803.5207968753757
 20
371.7767014844147
 30
0.0
 11
1008.082442593133
 21
371.7767014844147
 31
0.0
  0
LINE
  5
347
330
1F
100
AcDbEntity
  8
D-2
  6
JWW_CENTER1
 62
     3
370
     9
100
AcDbLine
 10
840.4965779368499
 20
351.776884354227
 30
0.0
 11
800.593810004297
 21
351.776884354227
 31
0.0
  0
LINE
  5
348
330
1F
100
AcDbEntity
  8
D-2
  6
Continuous
 62
     3
370
     9
100
AcDbLine
 10
803.5207968753757
 20
357.7769974695738
 30
0.0
 11
836.5208590888167
 21
357.7769974695738
 31
0.0
  0
LINE
  5
349
330
1F
100
AcDbEntity
  8
D-2
  6
Continuous
 62
     3
370
     9
100
AcDbLine
 10
803.5207968753757
 20
345.7773311598495
 30
0.0
 11
836.5208590888167
 21
345.7773311598495
 31
0.0
  0
LINE
  5
34A
330
1F
100
AcDbEntity
  8
D-2
  6
Continuous
 62
     3
370
     9
100
AcDbLine
 10
812.5209665483969
 20
345.2767618126003
 30
0.0
 11
803.5207968753757
 21
345.2767618126003
 31
0.0
  0
LINE
  5
34B
330
1F
100
AcDbEntity
  8
D-2
  6
Continuous
 62
     3
370
     9
100
AcDbLine
 10
836.5208590888167
 20
345.2767618126003
 30
0.0
 11
831.9208283591472
 21
345.2767618126003
 31
0.0
  0
LINE
  5
34C
330
1F
100
AcDbEntity
  8
D-2
  6
Continuous
 62
     3
370
     9
100
AcDbLine
 10
812.5209665483969
 20
358.2770068958531
 30
0.0
 11
803.5207968753757
 21
358.2770068958531
 31
0.0
  0
LINE
  5
34D
330
1F
100
AcDbEntity
  8
D-2
  6
Continuous
 62
     3
370
     9
100
AcDbLine
 10
836.5208590888167
 20
358.2770068958531
 30
0.0
 11
831.9208283591472
 21
358.2770068958531
 31
0.0
  0
LINE
  5
34E
330
1F
100
AcDbEntity
  8
D-2
  6
Continuous
 62
     4
370
     9
100
AcDbLine
 10
831.9208283591472
 20
371.7767014844147
 30
0.0
 11
831.9208283591472
 21
357.7769974695738
 31
0.0
  0
LINE
  5
34F
330
1F
100
AcDbEntity
  8
D-2
  6
Continuous
 62
     7
370
     9
100
AcDbLine
 10
812.5206781042589
 20
357.7769974695738
 30
0.0
 11
812.5206781042589
 21
371.7767014844147
 31
0.0
  0
LWPOLYLINE
  5
350
330
1F
100
AcDbEntity
  8
D-4
  6
Continuous
 62
     7
370
     9
100
AcDbPolyline
 90
        4
 70
     1
 43
0.8
 10
738.5737144388287
 20
371.7760821778846
 42
0.4142135623731
 10
738.1737144388287
 20
372.1760821778846
 42
0.4142135623731
 10
737.7737144388287
 20
371.7760821778846
 42
0.4142135623731
 10
738.1737144388287
 20
371.3760821778847
 42
0.4142135623731
  0
LINE
  5
351
330
1F
100
AcDbEntity
  8
D-4
  6
Continuous
 62
     7
370
     9
100
AcDbLine
 10
736.9737144388287
 20
371.7760821778846
 30
0.0
 11
776.5209973016308
 21
371.7760821778846
 31
0.0
  0
LINE
  5
352
330
1F
100
AcDbEntity
  8
D-4
  6
Continuous
 62
     7
370
     9
100
AcDbLine
 10
836.5208590888167
 20
430.941483143616
 30
0.0
 11
812.5206781042589
 21
430.941483143616
 31
0.0
  0
LWPOLYLINE
  5
353
330
1F
100
AcDbEntity
  8
D-4
  6
Continuous
 62
     7
370
     9
100
AcDbPolyline
 90
        4
 70
     1
 43
0.8
 10
836.9208590888167
 20
430.941483143616
 42
0.4142135623731
 10
836.5208590888167
 20
431.341483143616
 42
0.4142135623731
 10
836.1208590888167
 20
430.941483143616
 42
0.4142135623731
 10
836.5208590888167
 20
430.541483143616
 42
0.4142135623731
  0
LWPOLYLINE
  5
354
330
1F
100
AcDbEntity
  8
D-4
  6
Continuous
 62
     7
370
     9
100
AcDbPolyline
 90
        4
 70
     1
 43
0.8
 10
812.9206781042589
 20
430.941483143616
 42
0.4142135623731
 10
812.5206781042589
 20
431.341483143616
 42
0.4142135623731
 10
812.1206781042589
 20
430.941483143616
 42
0.4142135623731
 10
812.5206781042589
 20
430.541483143616
 42
0.4142135623731
  0
LINE
  5
355
330
1F
100
AcDbEntity
  8
D-4
  6
Continuous
 62
     7
370
     9
100
AcDbLine
 10
836.5208590888167
 20
432.141483143616
 30
0.0
 11
836.5208590888167
 21
379.7767014844147
 31
0.0
  0
LINE
  5
356
330
1F
100
AcDbEntity
  8
D-4
  6
Continuous
 62
     7
370
     9
100
AcDbLine
 10
812.5206781042589
 20
432.141483143616
 30
0.0
 11
812.5206781042589
 21
379.7767014844147
 31
0.0
  0
TEXT
  5
357
330
1F
100
AcDbEntity
  8
D-4
  6
Continuous
 62
     2
370
   211
100
AcDbText
 10
816.0207685965378
 20
435.5974831436159
 30
0.0
 40
12.192
  1
12
 41
1.0625
  7
ＭＳ ゴシック
100
AcDbText
  0
LINE
  5
358
330
1F
100
AcDbEntity
  8
D-4
  6
Continuous
 62
     7
370
     9
100
AcDbLine
 10
812.5206781042589
 20
430.941483143616
 30
0.0
 11
803.5207968753757
 21
430.941483143616
 31
0.0
  0
LWPOLYLINE
  5
359
330
1F
100
AcDbEntity
  8
D-4
  6
Continuous
 62
     7
370
     9
100
AcDbPolyline
 90
        4
 70
     1
 43
0.8
 10
803.9207968753757
 20
430.941483143616
 42
0.4142135623731
 10
803.5207968753757
 20
431.341483143616
 42
0.4142135623731
 10
803.1207968753757
 20
430.941483143616
 42
0.4142135623731
 10
803.5207968753757
 20
430.541483143616
 42
0.4142135623731
  0
LINE
  5
35A
330
1F
100
AcDbEntity
  8
D-4
  6
Continuous
 62
     7
370
     9
100
AcDbLine
 10
803.5207968753757
 20
432.141483143616
 30
0.0
 11
803.5207968753757
 21
379.7767014844147
 31
0.0
  0
LINE
  5
35B
330
1F
100
AcDbEntity
  8
D-4
  6
Continuous
 62
     7
370
     9
100
AcDbLine
 10
803.5207968753757
 20
430.941483143616
 30
0.0
 11
796.5212235323258
 21
430.941483143616
 31
0.0
  0
LWPOLYLINE
  5
35C
330
1F
100
AcDbEntity
  8
D-4
  6
Continuous
 62
     7
370
     9
100
AcDbPolyline
 90
        4
 70
     1
 43
0.8
 10
796.9212235323258
 20
430.941483143616
 42
0.4142135623731
 10
796.5212235323258
 20
431.341483143616
 42
0.4142135623731
 10
796.1212235323259
 20
430.941483143616
 42
0.4142135623731
 10
796.5212235323258
 20
430.541483143616
 42
0.4142135623731
  0
LINE
  5
35D
330
1F
100
AcDbEntity
  8
D-4
  6
Continuous
 62
     7
370
     9
100
AcDbLine
 10
796.5212235323258
 20
432.141483143616
 30
0.0
 11
796.5212235323258
 21
379.7760821778846
 31
0.0
  0
LINE
  5
35E
330
1F
100
AcDbEntity
  8
D-4
  6
Continuous
 62
     7
370
     9
100
AcDbLine
 10
796.5212235323258
 20
430.941483143616
 30
0.0
 11
784.5209973016308
 21
430.941483143616
 31
0.0
  0
LWPOLYLINE
  5
35F
330
1F
100
AcDbEntity
  8
D-4
  6
Continuous
 62
     7
370
     9
100
AcDbPolyline
 90
        4
 70
     1
 43
0.8
 10
784.9209973016308
 20
430.941483143616
 42
0.4142135623731
 10
784.5209973016308
 20
431.341483143616
 42
0.4142135623731
 10
784.1209973016308
 20
430.941483143616
 42
0.4142135623731
 10
784.5209973016308
 20
430.541483143616
 42
0.4142135623731
  0
LINE
  5
360
330
1F
100
AcDbEntity
  8
D-4
  6
Continuous
 62
     7
370
     9
100
AcDbLine
 10
784.5209973016308
 20
432.141483143616
 30
0.0
 11
784.5209973016308
 21
379.7760821778846
 31
0.0
  0
TEXT
  5
361
330
1F
100
AcDbEntity
  8
D-4
  6
Continuous
 62
     2
370
   211
100
AcDbText
 10
786.5211104169783
 20
435.5974831436159
 30
0.0
 40
12.192
  1
6
  7
ＭＳ ゴシック
100
AcDbText
  0
LINE
  5
362
330
1F
100
AcDbEntity
  8
D-4
  6
Continuous
 62
     7
370
     9
100
AcDbLine
 10
808.0207374898173
 20
430.941483143616
 30
0.0
 11
815.7435231403352
 21
459.7633115673128
 31
0.0
  0
TEXT
  5
363
330
1F
100
AcDbEntity
  8
D-4
  6
Continuous
 62
     2
370
   211
100
AcDbText
 10
815.7435231403352
 20
464.9627967842358
 30
0.0
 40
12.192
  1
4.5
 41
1.083333333333329
  7
ＭＳ ゴシック
100
AcDbText
  0
LINE
  5
364
330
1F
100
AcDbEntity
  8
D-4
  6
Continuous
 62
     7
370
     9
100
AcDbLine
 10
815.7435231403352
 20
459.7633115673128
 30
0.0
 11
841.7435231403351
 21
459.7633115673128
 31
0.0
  0
LINE
  5
365
330
1F
100
AcDbEntity
  8
D-4
  6
Continuous
 62
     7
370
     9
100
AcDbLine
 10
800.0210102038508
 20
430.941483143616
 30
0.0
 11
792.2982245533328
 21
459.7633115673128
 31
0.0
  0
LINE
  5
366
330
1F
100
AcDbEntity
  8
D-4
  6
Continuous
 62
     7
370
     9
100
AcDbLine
 10
766.298224553333
 20
459.7633115673128
 30
0.0
 11
792.2982245533328
 21
459.7633115673128
 31
0.0
  0
TEXT
  5
367
330
1F
100
AcDbEntity
  8
D-4
  6
Continuous
 62
     2
370
   211
100
AcDbText
 10
766.298224553333
 20
464.9627967842358
 30
0.0
 40
12.192
  1
3.5
 41
1.083333333333333
  7
ＭＳ ゴシック
100
AcDbText
  0
LINE
  5
368
330
1F
100
AcDbEntity
  8
D-4
  6
Continuous
 62
     7
370
     9
100
AcDbLine
 10
836.5208590888167
 20
405.5597358427216
 30
0.0
 11
831.9208283591472
 21
405.5597358427216
 31
0.0
  0
LWPOLYLINE
  5
369
330
1F
100
AcDbEntity
  8
D-4
  6
Continuous
 62
     7
370
     9
100
AcDbPolyline
 90
        4
 70
     1
 43
0.8
 10
836.9208590888167
 20
405.5597358427216
 42
0.4142135623731
 10
836.5208590888167
 20
405.9597358427216
 42
0.4142135623731
 10
836.1208590888167
 20
405.5597358427216
 42
0.4142135623731
 10
836.5208590888167
 20
405.1597358427216
 42
0.4142135623731
  0
LWPOLYLINE
  5
36A
330
1F
100
AcDbEntity
  8
D-4
  6
Continuous
 62
     7
370
     9
100
AcDbPolyline
 90
        4
 70
     1
 43
0.8
 10
832.3208283591472
 20
405.5597358427216
 42
0.4142135623731
 10
831.9208283591472
 20
405.9597358427216
 42
0.4142135623731
 10
831.5208283591472
 20
405.5597358427216
 42
0.4142135623731
 10
831.9208283591472
 20
405.1597358427216
 42
0.4142135623731
  0
LINE
  5
36B
330
1F
100
AcDbEntity
  8
D-4
  6
Continuous
 62
     7
370
     9
100
AcDbLine
 10
831.9208283591472
 20
406.7597358427216
 30
0.0
 11
831.9208283591472
 21
379.7767014844147
 31
0.0
  0
TEXT
  5
36C
330
1F
100
AcDbEntity
  8
D-4
  6
Continuous
 62
     2
370
   211
100
AcDbText
 10
840.0052274451755
 20
410.2157358427215
 30
0.0
 40
12.192
  1
2.3
 41
1.083333333333333
  7
ＭＳ ゴシック
100
AcDbText
  0
LINE
  5
36D
330
1F
100
AcDbEntity
  8
D-4
  6
Continuous
 62
     7
370
     9
100
AcDbLine
 10
836.5208590888167
 20
405.5597358427216
 30
0.0
 11
866.0052274451755
 21
405.5597358427216
 31
0.0
  0
LINE
  5
36E
330
1F
100
AcDbEntity
  8
D-1
  6
Continuous
 62
     2
370
     9
100
AcDbLine
 10
796.5212235323258
 20
371.7760821778846
 30
0.0
 11
784.5209973016308
 21
371.7760821778846
 31
0.0
  0
LINE
  5
36F
330
1F
100
AcDbEntity
  8
D-2
  6
Continuous
 62
     7
370
     9
100
AcDbLine
 10
803.5207968753757
 20
215.3762712690412
 30
0.0
 11
803.5207968753757
 21
371.7767014844147
 31
0.0
  0
LINE
  5
370
330
1F
100
AcDbEntity
  8
D-2
  6
Continuous
 62
     4
370
     9
100
AcDbLine
 10
831.9208283591472
 20
345.7773311598495
 30
0.0
 11
831.9208283591472
 21
221.7775083738933
 31
0.0
  0
LINE
  5
371
330
1F
100
AcDbEntity
  8
D-2
  6
Continuous
 62
     4
370
     9
100
AcDbLine
 10
836.5208590888167
 20
371.7767014844147
 30
0.0
 11
836.5208590888167
 21
221.7775083738933
 31
0.0
  0
LINE
  5
372
330
1F
100
AcDbEntity
  8
D-2
  6
Continuous
 62
     7
370
     9
100
AcDbLine
 10
812.5206781042589
 20
221.7763022814987
 30
0.0
 11
812.5206781042589
 21
345.7773311598495
 31
0.0
  0
LINE
  5
373
330
1F
100
AcDbEntity
  8
D-4
  6
Continuous
 62
     7
370
     9
100
AcDbLine
 10
884.3994080236537
 20
221.7756829749686
 30
0.0
 11
884.3994080236537
 21
371.7760821778846
 31
0.0
  0
TEXT
  5
374
330
1F
100
AcDbEntity
  8
D-4
  6
Continuous
 62
     2
370
   211
100
AcDbText
 10
879.7434080236536
 20
288.2758825764266
 30
0.0
 40
12.192
  1
75
 50
90.0
 41
1.0625
  7
ＭＳ ゴシック
100
AcDbText
  0
LINE
  5
375
330
1F
100
AcDbEntity
  8
D-9
  6
Continuous
 62
    30
370
     5
100
AcDbLine
 10
812.5212738450891
 20
151.3761195059495
 30
0.0
 11
812.5212738450891
 21
215.3762712690412
 31
0.0
  0
LINE
  5
376
330
1F
100
AcDbEntity
  8
D-9
  6
Continuous
 62
    30
370
     5
100
AcDbLine
 10
803.5207968753757
 20
215.3762712690412
 30
0.0
 11
803.5207968753757
 21
163.3762085842908
 31
0.0
  0
LINE
  5
377
330
1F
100
AcDbEntity
  8
D-1
  6
Continuous
 62
     2
370
     9
100
AcDbLine
 10
784.5209973016308
 20
151.3761195059495
 30
0.0
 11
784.5209973016308
 21
371.7760821778846
 31
0.0
  0
LINE
  5
378
330
1F
100
AcDbEntity
  8
D-1
  6
Continuous
 62
     2
370
     9
100
AcDbLine
 10
796.5212235323258
 20
157.3762326212972
 30
0.0
 11
796.5212235323258
 21
371.7760821778846
 31
0.0
  0
LINE
  5
379
330
1F
100
AcDbEntity
  8
D-4
  6
Continuous
 62
     7
370
     9
100
AcDbLine
 10
738.1737144388287
 20
371.7760821778846
 30
0.0
 11
738.1737144388287
 21
139.376119649553
 31
0.0
  0
TEXT
  5
37A
330
1F
100
AcDbEntity
  8
D-4
  6
Continuous
 62
     2
370
   211
100
AcDbText
 10
733.5177144388288
 20
233.5761009137188
 30
0.0
 40
12.192
  1
116.2
 50
90.0
 41
1.1
  7
ＭＳ ゴシック
100
AcDbText
  0
TEXT
  5
37B
330
1F
100
AcDbEntity
  8
F-Fﾚｲﾔ
  6
Continuous
 62
     2
370
     9
100
AcDbText
 10
490.1480658376729
 20
812.7874374533388
 30
0.0
 40
12.192
  1
蓋質量　12.3kg
 41
1.116071428571429
  7
ＭＳ ゴシック
100
AcDbText
  0
LINE
  5
37C
330
1F
100
AcDbEntity
  8
4-2
  6
Continuous
 62
     7
370
     9
100
AcDbLine
 10
1010.035500744801
 20
-445.5123973993815
 30
0.0
 11
1005.53556013036
 21
-445.5123973993815
 31
0.0
  0
LINE
  5
37D
330
1F
100
AcDbEntity
  8
4-2
  6
Continuous
 62
     7
370
     9
100
AcDbLine
 10
1005.53556013036
 20
-461.5124749305261
 30
0.0
 11
1005.53556013036
 21
-445.5123973993815
 31
0.0
  0
LINE
  5
37E
330
1F
100
AcDbEntity
  8
4-2
  6
Continuous
 62
     7
370
     9
100
AcDbLine
 10
1010.035500744801
 20
-461.5124749305261
 30
0.0
 11
1010.035500744801
 21
-445.5123973993815
 31
0.0
  0
LINE
  5
37F
330
1F
100
AcDbEntity
  8
4-2
  6
Continuous
 62
     7
370
     9
100
AcDbLine
 10
1010.035500744801
 20
-461.5124749305261
 30
0.0
 11
1005.53556013036
 21
-461.5124749305261
 31
0.0
  0
LINE
  5
380
330
1F
100
AcDbEntity
  8
4-2
  6
Continuous
 62
     7
370
     9
100
AcDbLine
 10
1006.535454084724
 20
-467.7125745662953
 30
0.0
 11
999.5353815023734
 21
-467.7125745662953
 31
0.0
  0
LINE
  5
381
330
1F
100
AcDbEntity
  8
4-2
  6
Continuous
 62
     7
370
     9
100
AcDbLine
 10
1005.535560130356
 20
-454.5124023481777
 30
0.0
 11
999.5353815023734
 21
-454.5124023481777
 31
0.0
  0
LINE
  5
382
330
1F
100
AcDbEntity
  8
4-2
  6
Continuous
 62
     7
370
     9
100
AcDbLine
 10
1006.535454084724
 20
-497.7125745662953
 30
0.0
 11
999.5353815023734
 21
-497.7125745662953
 31
0.0
  0
LINE
  5
383
330
1F
100
AcDbEntity
  8
4-2
  6
Continuous
 62
     7
370
     9
100
AcDbLine
 10
1006.535454084724
 20
-497.7125745662953
 30
0.0
 11
1006.535454084724
 21
-467.7125745662953
 31
0.0
  0
LINE
  5
384
330
1F
100
AcDbEntity
  8
4-2
  6
Continuous
 62
     7
370
     9
100
AcDbLine
 10
1012.535500744801
 20
-458.0124023481786
 30
0.0
 11
1010.035500744801
 21
-458.0124023481786
 31
0.0
  0
LINE
  5
385
330
1F
100
AcDbEntity
  8
4-2
  6
Continuous
 62
     7
370
     9
100
AcDbLine
 10
1012.535500744801
 20
-523.7126125070674
 30
0.0
 11
1012.535500744801
 21
-458.0124023481786
 31
0.0
  0
LINE
  5
386
330
1F
100
AcDbEntity
  8
4-2
  6
Continuous
 62
     7
370
     9
100
AcDbLine
 10
711.5349050039729
 20
-445.5123973993815
 30
0.0
 11
711.5349050039729
 21
-523.7126125070674
 31
0.0
  0
LINE
  5
387
330
1F
100
AcDbEntity
  8
4-2
  6
Continuous
 62
     7
370
     9
100
AcDbLine
 10
1012.535500744801
 20
-523.7126125070674
 30
0.0
 11
711.5349050039729
 21
-523.7126125070674
 31
0.0
  0
ENDSEC
  0
SECTION
  2
OBJECTS
  0
DICTIONARY
  5
C
330
0
100
AcDbDictionary
281
     1
  3
ACAD_DETAILVIEWSTYLE
350
3CD
  3
ACAD_GROUP
350
D
  3
ACAD_LAYOUT
350
1A
  3
ACAD_MATERIAL
350
43
  3
ACAD_MLEADERSTYLE
350
6B
  3
ACAD_MLINESTYLE
350
17
  3
ACAD_PLOTSETTINGS
350
19
  3
ACAD_PLOTSTYLENAME
350
E
  3
ACAD_SCALELIST
350
47
  3
ACAD_SECTIONVIEWSTYLE
350
3CE
  3
ACAD_TABLESTYLE
350
69
  3
ACAD_VISUALSTYLE
350
2A
  3
ACDB_RECOMPOSE_DATA
350
3CA
  3
AcDbVariableDictionary
350
38A
  0
DICTIONARY
  5
388
330
8
100
AcDbDictionary
280
     1
281
     1
  3
ACAD_XREC_ROUNDTRIP
360
389
  0
DICTIONARY
  5
3CD
102
{ACAD_REACTORS
330
C
102
}
330
C
100
AcDbDictionary
281
     1
  0
DICTIONARY
  5
D
102
{ACAD_REACTORS
330
C
102
}
330
C
100
AcDbDictionary
281
     1
  0
DICTIONARY
  5
1A
102
{ACAD_REACTORS
330
C
102
}
330
C
100
AcDbDictionary
281
     1
  3
Layout1
350
1E
  3
Layout2
350
26
  3
Model
350
22
  0
DICTIONARY
  5
43
102
{ACAD_REACTORS
330
C
102
}
330
C
100
AcDbDictionary
281
     1
  3
ByBlock
350
45
  3
ByLayer
350
44
  3
Global
350
46
  0
DICTIONARY
  5
6B
102
{ACAD_REACTORS
330
C
102
}
330
C
100
AcDbDictionary
281
     1
  3
Standard
350
6C
  0
DICTIONARY
  5
17
102
{ACAD_REACTORS
330
C
102
}
330
C
100
AcDbDictionary
281
     1
  3
Standard
350
18
  0
DICTIONARY
  5
19
102
{ACAD_REACTORS
330
C
102
}
330
C
100
AcDbDictionary
281
     1
  0
ACDBDICTIONARYWDFLT
  5
E
102
{ACAD_REACTORS
330
C
102
}
330
C
100
AcDbDictionary
281
     1
  3
Normal
350
F
100
AcDbDictionaryWithDefault
340
F
  0
DICTIONARY
  5
47
102
{ACAD_REACTORS
330
C
102
}
330
C
100
AcDbDictionary
281
     1
  3
A0
350
48
  3
A1
350
49
  3
A2
350
4A
  3
A3
350
4B
  3
A4
350
4C
  3
A5
350
4D
  3
A6
350
4E
  3
A7
350
4F
  3
A8
350
50
  3
A9
350
51
  3
B0
350
52
  3
B1
350
53
  3
B2
350
54
  3
B3
350
55
  3
B4
350
56
  3
B5
350
57
  3
B6
350
58
  3
B7
350
59
  3
B8
350
5A
  3
B9
350
5B
  3
C0
350
5C
  3
C1
350
5D
  3
C2
350
5E
  3
C3
350
5F
  3
C4
350
60
  3
C5
350
61
  3
C6
350
62
  3
C7
350
63
  3
C8
350
64
  3
C9
350
65
  3
D0
350
66
  3
D1
350
67
  3
D2
350
68
  0
DICTIONARY
  5
3CE
102
{ACAD_REACTORS
330
C
102
}
330
C
100
AcDbDictionary
281
     1
  0
DICTIONARY
  5
69
102
{ACAD_REACTORS
330
C
102
}
330
C
100
AcDbDictionary
281
     1
  3
Standard
350
6A
  0
DICTIONARY
  5
2A
102
{ACAD_REACTORS
330
C
102
}
330
C
100
AcDbDictionary
281
     1
  3
2dWireframe
350
2F
  3
Basic
350
32
  3
Brighten
350
36
  3
ColorChange
350
3A
  3
Conceptual
350
34
  3
Dim
350
35
  3
EdgeColorOff
350
3D
  3
Facepattern
350
39
  3
Flat
350
2B
  3
FlatWithEdges
350
2C
  3
Gouraud
350
2D
  3
GouraudWithEdges
350
2E
  3
Hidden
350
31
  3
JitterOff
350
3B
  3
Linepattern
350
38
  3
OverhangOff
350
3C
  3
Realistic
350
33
  3
Shaded
350
42
  3
Shaded with edges
350
41
  3
Shades of Gray
350
3E
  3
Sketchy
350
3F
  3
Thicken
350
37
  3
Wireframe
350
30
  3
X-Ray
350
40
  0
XRECORD
  5
3CA
102
{ACAD_REACTORS
330
C
102
}
330
C
100
AcDbXrecord
280
     1
 90
        1
330
6A
  0
DICTIONARY
  5
38A
102
{ACAD_REACTORS
330
C
102
}
330
C
100
AcDbDictionary
281
     1
  3
CANNOSCALE
350
38B
  3
CENTEREXE
350
3CF
  3
CENTERLTYPEFILE
350
3D0
  3
CMLEADERSTYLE
350
3CC
  3
CTABLESTYLE
350
3CB
  3
MSLTSCALE
350
38C
  3
XCLIPFRAME
350
38D
  0
XRECORD
  5
389
102
{ACAD_REACTORS
330
388
102
}
330
388
100
AcDbXrecord
280
     1
102
VTR_0.000_0.000_1.000_1.000_VISUALSTYLE
340
2F
102
VTR_0.000_0.000_1.000_1.000_GRIDDISPLAY
 70
     3
102
VTR_0.000_0.000_1.000_1.000_GRIDMAJOR
 70
     5
102
VTR_0.000_0.000_1.000_1.000_DEFAULTLIGHTING
280
     1
102
VTR_0.000_0.000_1.000_1.000_DEFAULTLIGHTINGTYPE
 70
     1
102
VTR_0.000_0.000_1.000_1.000_BRIGHTNESS
141
0.0
102
VTR_0.000_0.000_1.000_1.000_CONTRAST
142
0.0
  0
LAYOUT
  5
1E
102
{ACAD_REACTORS
330
1A
102
}
330
1A
100
AcDbPlotSettings
  1

  2
none_device
  4

  6

 40
0.0
 41
0.0
 42
0.0
 43
0.0
 44
0.0
 45
0.0
 46
0.0
 47
0.0
 48
0.0
 49
0.0
140
0.0
141
0.0
142
1.0
143
1.0
 70
   688
 72
     1
 73
     0
 74
     5
  7

 75
    16
 76
     0
 77
     5
 78
   300
147
1.0
148
0.0
149
0.0
100
AcDbLayout
  1
Layout1
 70
     1
 71
     1
 10
0.0
 20
0.0
 11
420.0
 21
297.0
 12
0.0
 22
0.0
 32
0.0
 14
1.000000000000000E+20
 24
1.000000000000000E+20
 34
1.000000000000000E+20
 15
-1.000000000000000E+20
 25
-1.000000000000000E+20
 35
-1.000000000000000E+20
146
0.0
 13
0.0
 23
0.0
 33
0.0
 16
1.0
 26
0.0
 36
0.0
 17
0.0
 27
1.0
 37
0.0
 76
     0
330
1B
  0
LAYOUT
  5
26
102
{ACAD_REACTORS
330
1A
102
}
330
1A
100
AcDbPlotSettings
  1

  2
none_device
  4

  6

 40
0.0
 41
0.0
 42
0.0
 43
0.0
 44
0.0
 45
0.0
 46
0.0
 47
0.0
 48
0.0
 49
0.0
140
0.0
141
0.0
142
1.0
143
1.0
 70
   688
 72
     1
 73
     0
 74
     5
  7

 75
    16
 76
     0
 77
     5
 78
   300
147
1.0
148
0.0
149
0.0
100
AcDbLayout
  1
Layout2
 70
     1
 71
     2
 10
0.0
 20
0.0
 11
0.0
 21
0.0
 12
0.0
 22
0.0
 32
0.0
 14
0.0
 24
0.0
 34
0.0
 15
0.0
 25
0.0
 35
0.0
146
0.0
 13
0.0
 23
0.0
 33
0.0
 16
1.0
 26
0.0
 36
0.0
 17
0.0
 27
1.0
 37
0.0
 76
     0
330
23
  0
LAYOUT
  5
22
102
{ACAD_REACTORS
330
1A
102
}
330
1A
100
AcDbPlotSettings
  1

  2
none_device
  4
Letter_(8.50_x_11.00_Inches)
  6

 40
6.35
 41
6.35
 42
6.35000508
 43
6.35000508
 44
215.9
 45
279.4
 46
0.0
 47
0.0
 48
0.0
 49
0.0
140
0.0
141
0.0
142
1.0
143
1.0
 70
  1712
 72
     1
 73
     0
 74
     0
  7

 75
     0
 76
     0
 77
     5
 78
   300
147
1.0
148
0.0
149
0.0
100
AcDbLayout
  1
Model
 70
     1
 71
     0
 10
-1682.0
 20
-1188.0
 11
1682.0
 21
1188.0
 12
0.0
 22
0.0
 32
0.0
 14
-1682.0
 24
-1188.0
 34
0.0
 15
1682.0
 25
1188.0
 35
0.0
146
0.0
 13
0.0
 23
0.0
 33
0.0
 16
1.0
 26
0.0
 36
0.0
 17
0.0
 27
1.0
 37
0.0
 76
     0
330
1F
331
29
  0
MATERIAL
  5
45
102
{ACAD_REACTORS
330
43
102
}
102
{ACAD_XDICTIONARY
360
3C0
102
}
330
43
100
AcDbMaterial
  1
ByBlock
  0
MATERIAL
  5
44
102
{ACAD_REACTORS
330
43
102
}
102
{ACAD_XDICTIONARY
360
3BE
102
}
330
43
100
AcDbMaterial
  1
ByLayer
  0
MATERIAL
  5
46
102
{ACAD_REACTORS
330
43
102
}
102
{ACAD_XDICTIONARY
360
3C2
102
}
330
43
100
AcDbMaterial
  1
Global
  0
MLEADERSTYLE
  5
6C
102
{ACAD_REACTORS
330
6B
102
}
102
{ACAD_XDICTIONARY
360
3C8
102
}
330
6B
100
AcDbMLeaderStyle
170
     2
171
     1
172
     0
 90
        2
 40
0.0
 41
0.0
173
     1
 91
-1056964608
340
14
 92
       -2
290
     1
 42
2.0
291
     1
 43
8.0
  3
Standard
341
0
 44
4.0
300

342
11
174
     1
178
     6
175
     1
176
     0
 93
-1056964608
 45
4.0
292
     0
297
     0
 46
4.0
343
0
 94
-1056964608
 47
1.0
 49
1.0
140
1.0
293
     1
141
0.0
294
     1
177
     0
142
1.0
295
     0
296
     0
143
3.75
1001
ACAD_MLEADERVER
1070
     2
  0
MLINESTYLE
  5
18
102
{ACAD_REACTORS
330
17
102
}
330
17
100
AcDbMlineStyle
  2
Standard
 70
     0
  3

 62
   256
 51
90.0
 52
90.0
 71
     2
 49
0.5
 62
   256
  6
BYLAYER
 49
-0.5
 62
   256
  6
BYLAYER
  0
ACDBPLACEHOLDER
  5
F
102
{ACAD_REACTORS
330
E
102
}
330
E
  0
SCALE
  5
48
102
{ACAD_REACTORS
330
47
102
}
330
47
100
AcDbScale
 70
     0
300
1:1
140
1.0
141
1.0
290
     1
  0
SCALE
  5
49
102
{ACAD_REACTORS
330
47
102
}
330
47
100
AcDbScale
 70
     0
300
1:2
140
1.0
141
2.0
290
     0
  0
SCALE
  5
4A
102
{ACAD_REACTORS
330
47
102
}
330
47
100
AcDbScale
 70
     0
300
1:4
140
1.0
141
4.0
290
     0
  0
SCALE
  5
4B
102
{ACAD_REACTORS
330
47
102
}
330
47
100
AcDbScale
 70
     0
300
1:5
140
1.0
141
5.0
290
     0
  0
SCALE
  5
4C
102
{ACAD_REACTORS
330
47
102
}
330
47
100
AcDbScale
 70
     0
300
1:8
140
1.0
141
8.0
290
     0
  0
SCALE
  5
4D
102
{ACAD_REACTORS
330
47
102
}
330
47
100
AcDbScale
 70
     0
300
1:10
140
1.0
141
10.0
290
     0
  0
SCALE
  5
4E
102
{ACAD_REACTORS
330
47
102
}
330
47
100
AcDbScale
 70
     0
300
1:16
140
1.0
141
16.0
290
     0
  0
SCALE
  5
4F
102
{ACAD_REACTORS
330
47
102
}
330
47
100
AcDbScale
 70
     0
300
1:20
140
1.0
141
20.0
290
     0
  0
SCALE
  5
50
102
{ACAD_REACTORS
330
47
102
}
330
47
100
AcDbScale
 70
     0
300
1:30
140
1.0
141
30.0
290
     0
  0
SCALE
  5
51
102
{ACAD_REACTORS
330
47
102
}
330
47
100
AcDbScale
 70
     0
300
1:40
140
1.0
141
40.0
290
     0
  0
SCALE
  5
52
102
{ACAD_REACTORS
330
47
102
}
330
47
100
AcDbScale
 70
     0
300
1:50
140
1.0
141
50.0
290
     0
  0
SCALE
  5
53
102
{ACAD_REACTORS
330
47
102
}
330
47
100
AcDbScale
 70
     0
300
1:100
140
1.0
141
100.0
290
     0
  0
SCALE
  5
54
102
{ACAD_REACTORS
330
47
102
}
330
47
100
AcDbScale
 70
     0
300
2:1
140
2.0
141
1.0
290
     0
  0
SCALE
  5
55
102
{ACAD_REACTORS
330
47
102
}
330
47
100
AcDbScale
 70
     0
300
4:1
140
4.0
141
1.0
290
     0
  0
SCALE
  5
56
102
{ACAD_REACTORS
330
47
102
}
330
47
100
AcDbScale
 70
     0
300
8:1
140
8.0
141
1.0
290
     0
  0
SCALE
  5
57
102
{ACAD_REACTORS
330
47
102
}
330
47
100
AcDbScale
 70
     0
300
10:1
140
10.0
141
1.0
290
     0
  0
SCALE
  5
58
102
{ACAD_REACTORS
330
47
102
}
330
47
100
AcDbScale
 70
     0
300
100:1
140
100.0
141
1.0
290
     0
  0
SCALE
  5
59
102
{ACAD_REACTORS
330
47
102
}
330
47
100
AcDbScale
 70
     0
300
1/128" = 1'-0"
140
0.0078125
141
12.0
290
     0
  0
SCALE
  5
5A
102
{ACAD_REACTORS
330
47
102
}
330
47
100
AcDbScale
 70
     0
300
1/64" = 1'-0"
140
0.015625
141
12.0
290
     0
  0
SCALE
  5
5B
102
{ACAD_REACTORS
330
47
102
}
330
47
100
AcDbScale
 70
     0
300
1/32" = 1'-0"
140
0.03125
141
12.0
290
     0
  0
SCALE
  5
5C
102
{ACAD_REACTORS
330
47
102
}
330
47
100
AcDbScale
 70
     0
300
1/16" = 1'-0"
140
0.0625
141
12.0
290
     0
  0
SCALE
  5
5D
102
{ACAD_REACTORS
330
47
102
}
330
47
100
AcDbScale
 70
     0
300
3/32" = 1'-0"
140
0.09375
141
12.0
290
     0
  0
SCALE
  5
5E
102
{ACAD_REACTORS
330
47
102
}
330
47
100
AcDbScale
 70
     0
300
1/8" = 1'-0"
140
0.125
141
12.0
290
     0
  0
SCALE
  5
5F
102
{ACAD_REACTORS
330
47
102
}
330
47
100
AcDbScale
 70
     0
300
3/16" = 1'-0"
140
0.1875
141
12.0
290
     0
  0
SCALE
  5
60
102
{ACAD_REACTORS
330
47
102
}
330
47
100
AcDbScale
 70
     0
300
1/4" = 1'-0"
140
0.25
141
12.0
290
     0
  0
SCALE
  5
61
102
{ACAD_REACTORS
330
47
102
}
330
47
100
AcDbScale
 70
     0
300
3/8" = 1'-0"
140
0.375
141
12.0
290
     0
  0
SCALE
  5
62
102
{ACAD_REACTORS
330
47
102
}
330
47
100
AcDbScale
 70
     0
300
1/2" = 1'-0"
140
0.5
141
12.0
290
     0
  0
SCALE
  5
63
102
{ACAD_REACTORS
330
47
102
}
330
47
100
AcDbScale
 70
     0
300
3/4" = 1'-0"
140
0.75
141
12.0
290
     0
  0
SCALE
  5
64
102
{ACAD_REACTORS
330
47
102
}
330
47
100
AcDbScale
 70
     0
300
1" = 1'-0"
140
1.0
141
12.0
290
     0
  0
SCALE
  5
65
102
{ACAD_REACTORS
330
47
102
}
330
47
100
AcDbScale
 70
     0
300
1-1/2" = 1'-0"
140
1.5
141
12.0
290
     0
  0
SCALE
  5
66
102
{ACAD_REACTORS
330
47
102
}
330
47
100
AcDbScale
 70
     0
300
3" = 1'-0"
140
3.0
141
12.0
290
     0
  0
SCALE
  5
67
102
{ACAD_REACTORS
330
47
102
}
330
47
100
AcDbScale
 70
     0
300
6" = 1'-0"
140
6.0
141
12.0
290
     0
  0
SCALE
  5
68
102
{ACAD_REACTORS
330
47
102
}
330
47
100
AcDbScale
 70
     0
300
1'-0" = 1'-0"
140
12.0
141
12.0
290
     0
  0
TABLESTYLE
  5
6A
102
{ACAD_REACTORS
330
69
102
}
102
{ACAD_XDICTIONARY
360
3C4
102
}
330
69
100
AcDbTableStyle
  3
Standard
 70
     0
 71
     0
 40
0.06
 41
0.06
280
     0
281
     0
  7
Standard
140
4.5
170
     2
 62
     0
 63
   257
283
     0
274
    -2
284
     1
 64
     0
275
    -2
285
     1
 65
     0
276
    -2
286
     1
 66
     0
277
    -2
287
     1
 67
     0
278
    -2
288
     1
 68
     0
279
    -2
289
     1
 69
     0
  7
Standard
140
6.0
170
     5
 62
     0
 63
   257
283
     0
274
    -2
284
     1
 64
     0
275
    -2
285
     1
 65
     0
276
    -2
286
     1
 66
     0
277
    -2
287
     1
 67
     0
278
    -2
288
     1
 68
     0
279
    -2
289
     1
 69
     0
  7
Standard
140
4.5
170
     5
 62
     0
 63
   257
283
     0
274
    -2
284
     1
 64
     0
275
    -2
285
     1
 65
     0
276
    -2
286
     1
 66
     0
277
    -2
287
     1
 67
     0
278
    -2
288
     1
 68
     0
279
    -2
289
     1
 69
     0
  0
VISUALSTYLE
  5
2F
102
{ACAD_REACTORS
330
2A
102
}
102
{ACAD_XDICTIONARY
360
396
102
}
330
2A
100
AcDbVisualStyle
  2
2dWireframe
 70
     4
 71
     0
 72
     2
 73
     0
 90
        0
 40
0.6
 41
30.0
 62
     5
 63
     7
421
 16777215
 74
     1
 91
        4
 64
     7
 65
   257
 75
     1
175
     1
 42
1.0
 92
        0
 66
   257
 43
1.0
 76
     1
 77
     6
 78
     2
 67
     7
 79
     5
170
     0
171
     0
290
     0
174
     0
 93
        1
 44
0.0
173
     0
291
     0
 45
0.0
1001
ACAD
1000
AcDbSavedByObjectVersion
1070
     0
  0
VISUALSTYLE
  5
32
102
{ACAD_REACTORS
330
2A
102
}
102
{ACAD_XDICTIONARY
360
39C
102
}
330
2A
100
AcDbVisualStyle
  2
Basic
 70
     7
 71
     1
 72
     0
 73
     1
 90
        0
 40
0.6
 41
30.0
 62
     5
 63
     7
421
 16777215
 74
     0
 91
        4
 64
     7
 65
   257
 75
     1
175
     1
 42
1.0
 92
        8
 66
     7
 43
1.0
 76
     1
 77
     6
 78
     2
 67
     7
 79
     5
170
     0
171
     0
290
     0
174
     0
 93
        1
 44
0.0
173
     0
291
     1
 45
0.0
1001
ACAD
1000
AcDbSavedByObjectVersion
1070
     0
  0
VISUALSTYLE
  5
36
102
{ACAD_REACTORS
330
2A
102
}
102
{ACAD_XDICTIONARY
360
3A4
102
}
330
2A
100
AcDbVisualStyle
  2
Brighten
 70
    12
 71
     2
 72
     2
 73
     0
 90
        0
 40
0.6
 41
30.0
 62
     5
 63
     7
421
 16777215
 74
     1
 91
        4
 64
     7
 65
   257
 75
     1
175
     1
 42
1.0
 92
        8
 66
     7
 43
1.0
 76
     1
 77
     6
 78
     2
 67
     7
 79
     5
170
     0
171
     0
290
     0
174
     0
 93
        1
 44
50.0
173
     0
291
     1
 45
0.0
1001
ACAD
1000
AcDbSavedByObjectVersion
1070
     0
  0
VISUALSTYLE
  5
3A
102
{ACAD_REACTORS
330
2A
102
}
102
{ACAD_XDICTIONARY
360
3AC
102
}
330
2A
100
AcDbVisualStyle
  2
ColorChange
 70
    16
 71
     2
 72
     2
 73
     3
 90
        0
 40
0.6
 41
30.0
 62
     5
 63
     8
421
  8421504
 74
     1
 91
        4
 64
     7
 65
   257
 75
     1
175
     1
 42
1.0
 92
        8
 66
     8
424
  8421504
 43
1.0
 76
     1
 77
     6
 78
     2
 67
     7
 79
     5
170
     0
171
     0
290
     0
174
     0
 93
        1
 44
0.0
173
     0
291
     1
 45
0.0
1001
ACAD
1000
AcDbSavedByObjectVersion
1070
     0
  0
VISUALSTYLE
  5
34
102
{ACAD_REACTORS
330
2A
102
}
102
{ACAD_XDICTIONARY
360
3A0
102
}
330
2A
100
AcDbVisualStyle
  2
Conceptual
 70
     9
 71
     3
 72
     2
 73
     0
 90
        0
 40
0.6
 41
30.0
 62
     5
 63
     7
421
 16777215
 74
     2
 91
        2
 64
     7
 65
   257
 75
     1
175
     1
 42
179.0
 92
        8
 66
     7
 43
1.0
 76
     1
 77
     6
 78
     2
 67
     7
 79
     3
170
     0
171
     0
290
     0
174
     0
 93
        1
 44
0.0
173
     0
291
     0
 45
0.0
1001
ACAD
1000
AcDbSavedByObjectVersion
1070
     0
  0
VISUALSTYLE
  5
35
102
{ACAD_REACTORS
330
2A
102
}
102
{ACAD_XDICTIONARY
360
3A2
102
}
330
2A
100
AcDbVisualStyle
  2
Dim
 70
    11
 71
     2
 72
     2
 73
     0
 90
        0
 40
0.6
 41
30.0
 62
     5
 63
     7
421
 16777215
 74
     1
 91
        4
 64
     7
 65
   257
 75
     1
175
     1
 42
1.0
 92
        8
 66
     7
 43
1.0
 76
     1
 77
     6
 78
     2
 67
     7
 79
     5
170
     0
171
     0
290
     0
174
     0
 93
        1
 44
-50.0
173
     0
291
     1
 45
0.0
1001
ACAD
1000
AcDbSavedByObjectVersion
1070
     0
  0
VISUALSTYLE
  5
3D
102
{ACAD_REACTORS
330
2A
102
}
102
{ACAD_XDICTIONARY
360
3B2
102
}
330
2A
100
AcDbVisualStyle
  2
EdgeColorOff
 70
    22
 71
     2
 72
     2
 73
     0
 90
        0
 40
0.6
 41
30.0
 62
     5
 63
     7
421
 16777215
 74
     1
 91
        4
 64
     7
 65
   257
 75
     1
175
     1
 42
1.0
 92
        8
 66
     7
 43
1.0
 76
     1
 77
     6
 78
     2
 67
     7
 79
     5
170
     0
171
     0
290
     0
174
     0
 93
        1
 44
0.0
173
     0
291
     1
 45
0.0
1001
ACAD
1000
AcDbSavedByObjectVersion
1070
     0
  0
VISUALSTYLE
  5
39
102
{ACAD_REACTORS
330
2A
102
}
102
{ACAD_XDICTIONARY
360
3AA
102
}
330
2A
100
AcDbVisualStyle
  2
Facepattern
 70
    15
 71
     2
 72
     2
 73
     0
 90
        0
 40
0.6
 41
30.0
 62
     5
 63
     7
421
 16777215
 74
     1
 91
        4
 64
     7
 65
   257
 75
     1
175
     1
 42
1.0
 92
        8
 66
     7
 43
1.0
 76
     1
 77
     6
 78
     2
 67
     7
 79
     5
170
     0
171
     0
290
     0
174
     0
 93
        1
 44
0.0
173
     0
291
     1
 45
0.0
1001
ACAD
1000
AcDbSavedByObjectVersion
1070
     0
  0
VISUALSTYLE
  5
2B
102
{ACAD_REACTORS
330
2A
102
}
102
{ACAD_XDICTIONARY
360
38E
102
}
330
2A
100
AcDbVisualStyle
  2
Flat
 70
     0
 71
     2
 72
     1
 73
     1
 90
        2
 40
0.6
 41
30.0
 62
     5
 63
     7
421
 16777215
 74
     0
 91
        0
 64
     7
 65
   257
 75
     1
175
     1
 42
1.0
 92
        8
 66
     7
 43
1.0
 76
     1
 77
     6
 78
     2
 67
     7
 79
     5
170
     0
171
     0
290
     0
174
     0
 93
       13
 44
0.0
173
     0
291
     1
 45
0.0
1001
ACAD
1000
AcDbSavedByObjectVersion
1070
     0
  0
VISUALSTYLE
  5
2C
102
{ACAD_REACTORS
330
2A
102
}
102
{ACAD_XDICTIONARY
360
390
102
}
330
2A
100
AcDbVisualStyle
  2
FlatWithEdges
 70
     1
 71
     2
 72
     1
 73
     1
 90
        2
 40
0.6
 41
30.0
 62
     5
 63
     7
421
 16777215
 74
     1
 91
        0
 64
     7
 65
   257
 75
     1
175
     1
 42
1.0
 92
        0
 66
   257
 43
1.0
 76
     1
 77
     6
 78
     2
 67
     7
 79
     5
170
     0
171
     0
290
     0
174
     0
 93
       13
 44
0.0
173
     0
291
     1
 45
0.0
1001
ACAD
1000
AcDbSavedByObjectVersion
1070
     0
  0
VISUALSTYLE
  5
2D
102
{ACAD_REACTORS
330
2A
102
}
102
{ACAD_XDICTIONARY
360
392
102
}
330
2A
100
AcDbVisualStyle
  2
Gouraud
 70
     2
 71
     2
 72
     2
 73
     1
 90
        2
 40
0.6
 41
30.0
 62
     5
 63
     7
421
 16777215
 74
     0
 91
        0
 64
     7
 65
   257
 75
     1
175
     1
 42
1.0
 92
        0
 66
     7
 43
1.0
 76
     1
 77
     6
 78
     2
 67
     7
 79
     5
170
     0
171
     0
290
     0
174
     0
 93
       13
 44
0.0
173
     0
291
     1
 45
0.0
1001
ACAD
1000
AcDbSavedByObjectVersion
1070
     0
  0
VISUALSTYLE
  5
2E
102
{ACAD_REACTORS
330
2A
102
}
102
{ACAD_XDICTIONARY
360
394
102
}
330
2A
100
AcDbVisualStyle
  2
GouraudWithEdges
 70
     3
 71
     2
 72
     2
 73
     1
 90
        2
 40
0.6
 41
30.0
 62
     5
 63
     7
421
 16777215
 74
     1
 91
        0
 64
     7
 65
   257
 75
     1
175
     1
 42
1.0
 92
        0
 66
   257
 43
1.0
 76
     1
 77
     6
 78
     2
 67
     7
 79
     5
170
     0
171
     0
290
     0
174
     0
 93
       13
 44
0.0
173
     0
291
     1
 45
0.0
1001
ACAD
1000
AcDbSavedByObjectVersion
1070
     0
  0
VISUALSTYLE
  5
31
102
{ACAD_REACTORS
330
2A
102
}
102
{ACAD_XDICTIONARY
360
39A
102
}
330
2A
100
AcDbVisualStyle
  2
Hidden
 70
     6
 71
     1
 72
     2
 73
     2
 90
        0
 40
0.6
 41
30.0
 62
     5
 63
     7
421
 16777215
 74
     2
 91
        2
 64
     7
 65
   257
 75
     2
175
     1
 42
40.0
 92
        0
 66
   257
 43
1.0
 76
     1
 77
     6
 78
     2
 67
     7
 79
     3
170
     0
171
     0
290
     0
174
     0
 93
        1
 44
0.0
173
     0
291
     0
 45
0.0
1001
ACAD
1000
AcDbSavedByObjectVersion
1070
     0
  0
VISUALSTYLE
  5
3B
102
{ACAD_REACTORS
330
2A
102
}
102
{ACAD_XDICTIONARY
360
3AE
102
}
330
2A
100
AcDbVisualStyle
  2
JitterOff
 70
    20
 71
     2
 72
     2
 73
     0
 90
        0
 40
0.6
 41
30.0
 62
     5
 63
     7
421
 16777215
 74
     1
 91
        4
 64
     7
 65
   257
 75
     1
175
     1
 42
1.0
 92
       10
 66
     7
 43
1.0
 76
     1
 77
     6
 78
     2
 67
     7
 79
     5
170
     0
171
     0
290
     0
174
     0
 93
        1
 44
0.0
173
     0
291
     1
 45
0.0
1001
ACAD
1000
AcDbSavedByObjectVersion
1070
     0
  0
VISUALSTYLE
  5
38
102
{ACAD_REACTORS
330
2A
102
}
102
{ACAD_XDICTIONARY
360
3A8
102
}
330
2A
100
AcDbVisualStyle
  2
Linepattern
 70
    14
 71
     2
 72
     2
 73
     0
 90
        0
 40
0.6
 41
30.0
 62
     5
 63
     7
421
 16777215
 74
     1
 91
        4
 64
     7
 65
   257
 75
     7
175
     7
 42
1.0
 92
        8
 66
     7
 43
1.0
 76
     1
 77
     6
 78
     2
 67
     7
 79
     5
170
     0
171
     0
290
     0
174
     0
 93
        1
 44
0.0
173
     0
291
     1
 45
0.0
1001
ACAD
1000
AcDbSavedByObjectVersion
1070
     0
  0
VISUALSTYLE
  5
3C
102
{ACAD_REACTORS
330
2A
102
}
102
{ACAD_XDICTIONARY
360
3B0
102
}
330
2A
100
AcDbVisualStyle
  2
OverhangOff
 70
    21
 71
     2
 72
     2
 73
     0
 90
        0
 40
0.6
 41
30.0
 62
     5
 63
     7
421
 16777215
 74
     1
 91
        4
 64
     7
 65
   257
 75
     1
175
     1
 42
1.0
 92
        9
 66
     7
 43
1.0
 76
     1
 77
     6
 78
     2
 67
     7
 79
     5
170
     0
171
     0
290
     0
174
     0
 93
        1
 44
0.0
173
     0
291
     1
 45
0.0
1001
ACAD
1000
AcDbSavedByObjectVersion
1070
     0
  0
VISUALSTYLE
  5
33
102
{ACAD_REACTORS
330
2A
102
}
102
{ACAD_XDICTIONARY
360
39E
102
}
330
2A
100
AcDbVisualStyle
  2
Realistic
 70
     8
 71
     2
 72
     3
 73
     0
 90
        2
 40
0.6
 41
30.0
 62
     5
 63
     7
421
 16777215
 74
     0
 91
        0
 64
     7
 65
   257
 75
     1
175
     1
 42
1.0
 92
        8
 66
   257
 43
1.0
 76
     1
 77
     6
 78
     2
 67
     7
 79
     3
170
     0
171
     0
290
     0
174
     0
 93
       13
 44
0.0
173
     0
291
     0
 45
0.0
1001
ACAD
1000
AcDbSavedByObjectVersion
1070
     0
  0
VISUALSTYLE
  5
42
102
{ACAD_REACTORS
330
2A
102
}
102
{ACAD_XDICTIONARY
360
3BC
102
}
330
2A
100
AcDbVisualStyle
  2
Shaded
 70
    27
 71
     2
 72
     2
 73
     1
 90
        2
 40
0.6
 41
30.0
 62
     5
 63
     7
421
 16777215
 74
     0
 91
        4
 64
     7
 65
   257
 75
     1
175
     1
 42
1.0
 92
        8
 66
   257
 43
1.0
 76
     1
 77
     6
 78
     2
 67
     8
425
  7895160
 79
     3
170
     0
171
     0
290
     0
174
     0
 93
        5
 44
0.0
173
     0
291
     0
 45
0.0
1001
ACAD
1000
AcDbSavedByObjectVersion
1070
     0
  0
VISUALSTYLE
  5
41
102
{ACAD_REACTORS
330
2A
102
}
102
{ACAD_XDICTIONARY
360
3BA
102
}
330
2A
100
AcDbVisualStyle
  2
Shaded with edges
 70
    26
 71
     2
 72
     2
 73
     1
 90
        2
 40
0.6
 41
30.0
 62
     5
 63
     7
421
 16777215
 74
     1
 91
       10
 64
     7
 65
   257
 75
     2
175
     1
 42
1.0
 92
        8
 66
   257
 43
1.0
 76
     1
 77
     6
 78
     2
 67
     7
 79
     3
170
     0
171
     0
290
     0
174
     0
 93
        5
 44
0.0
173
     0
291
     0
 45
0.0
1001
ACAD
1000
AcDbSavedByObjectVersion
1070
     0
  0
VISUALSTYLE
  5
3E
102
{ACAD_REACTORS
330
2A
102
}
102
{ACAD_XDICTIONARY
360
3B4
102
}
330
2A
100
AcDbVisualStyle
  2
Shades of Gray
 70
    23
 71
     2
 72
     2
 73
     3
 90
        0
 40
0.6
 41
30.0
 62
     5
 63
     7
421
 16777215
 74
     2
 91
        2
 64
     7
 65
     7
 75
     1
175
     1
 42
40.0
 92
        8
 66
     7
 43
1.0
 76
     1
 77
     6
 78
     2
 67
     7
 79
     3
170
     0
171
     0
290
     0
174
     0
 93
        1
 44
0.0
173
     0
291
     0
 45
0.0
1001
ACAD
1000
AcDbSavedByObjectVersion
1070
     0
  0
VISUALSTYLE
  5
3F
102
{ACAD_REACTORS
330
2A
102
}
102
{ACAD_XDICTIONARY
360
3B6
102
}
330
2A
100
AcDbVisualStyle
  2
Sketchy
 70
    24
 71
     1
 72
     2
 73
     2
 90
        0
 40
0.6
 41
30.0
 62
     5
 63
     7
421
 16777215
 74
     2
 91
        2
 64
     7
 65
     7
 75
     1
175
     1
 42
40.0
 92
       11
 66
     7
 43
1.0
 76
     1
 77
     6
 78
     2
 67
     7
 79
     6
170
     0
171
     0
290
     0
174
     0
 93
        1
 44
0.0
173
     0
291
     0
 45
0.0
1001
ACAD
1000
AcDbSavedByObjectVersion
1070
     0
  0
VISUALSTYLE
  5
37
102
{ACAD_REACTORS
330
2A
102
}
102
{ACAD_XDICTIONARY
360
3A6
102
}
330
2A
100
AcDbVisualStyle
  2
Thicken
 70
    13
 71
     2
 72
     2
 73
     0
 90
        0
 40
0.6
 41
30.0
 62
     5
 63
     7
421
 16777215
 74
     1
 91
        4
 64
     7
 65
   257
 75
     1
175
     1
 42
1.0
 92
       12
 66
     7
 43
1.0
 76
     1
 77
     6
 78
     2
 67
     7
 79
     5
170
     0
171
     0
290
     0
174
     0
 93
        1
 44
0.0
173
     0
291
     1
 45
0.0
1001
ACAD
1000
AcDbSavedByObjectVersion
1070
     0
  0
VISUALSTYLE
  5
30
102
{ACAD_REACTORS
330
2A
102
}
102
{ACAD_XDICTIONARY
360
398
102
}
330
2A
100
AcDbVisualStyle
  2
Wireframe
 70
     5
 71
     0
 72
     2
 73
     0
 90
        0
 40
0.6
 41
30.0
 62
     5
 63
     7
421
 16777215
 74
     1
 91
        4
 64
     7
 65
   257
 75
     1
175
     1
 42
1.0
 92
        0
 66
   257
 43
1.0
 76
     1
 77
     6
 78
     2
 67
     7
 79
     3
170
     0
171
     0
290
     0
174
     0
 93
        1
 44
0.0
173
     0
291
     0
 45
0.0
1001
ACAD
1000
AcDbSavedByObjectVersion
1070
     0
  0
VISUALSTYLE
  5
40
102
{ACAD_REACTORS
330
2A
102
}
102
{ACAD_XDICTIONARY
360
3B8
102
}
330
2A
100
AcDbVisualStyle
  2
X-Ray
 70
    25
 71
     2
 72
     2
 73
     1
 90
        1
 40
0.5
 41
30.0
 62
     5
 63
     7
421
 16777215
 74
     1
 91
        0
 64
     7
 65
   257
 75
     1
175
     1
 42
1.0
 92
        8
 66
     7
 43
1.0
 76
     1
 77
     6
 78
     2
 67
     7
 79
     3
170
     0
171
     0
290
     0
174
     0
 93
       13
 44
0.0
173
     0
291
     0
 45
0.0
1001
ACAD
1000
AcDbSavedByObjectVersion
1070
     0
  0
DICTIONARYVAR
  5
38B
102
{ACAD_REACTORS
330
38A
102
}
330
38A
100
DictionaryVariables
280
     0
  1
1:1
  0
DICTIONARYVAR
  5
3CF
102
{ACAD_REACTORS
330
38A
102
}
330
38A
100
DictionaryVariables
280
     0
  1
3.500000
  0
DICTIONARYVAR
  5
3D0
102
{ACAD_REACTORS
330
38A
102
}
330
38A
100
DictionaryVariables
280
     0
  1
acadiso.lin
  0
DICTIONARYVAR
  5
3CC
102
{ACAD_REACTORS
330
38A
102
}
330
38A
100
DictionaryVariables
280
     0
  1
Standard
  0
DICTIONARYVAR
  5
3CB
102
{ACAD_REACTORS
330
38A
102
}
330
38A
100
DictionaryVariables
280
     0
  1
Standard
  0
DICTIONARYVAR
  5
38C
102
{ACAD_REACTORS
330
38A
102
}
330
38A
100
DictionaryVariables
280
     0
  1
1
  0
DICTIONARYVAR
  5
38D
102
{ACAD_REACTORS
330
38A
102
}
330
38A
100
DictionaryVariables
280
     0
  1
2
  0
DICTIONARY
  5
3C0
330
45
100
AcDbDictionary
280
     1
281
     1
  3
ACAD_XREC_ROUNDTRIP
360
3C1
  0
DICTIONARY
  5
3BE
330
44
100
AcDbDictionary
280
     1
281
     1
  3
ACAD_XREC_ROUNDTRIP
360
3BF
  0
DICTIONARY
  5
3C2
330
46
100
AcDbDictionary
280
     1
281
     1
  3
ACAD_XREC_ROUNDTRIP
360
3C3
  0
DICTIONARY
  5
3C8
330
6C
100
AcDbDictionary
280
     1
281
     1
  3
ACAD_XREC_ROUNDTRIP
360
3C9
  0
DICTIONARY
  5
3C4
330
6A
100
AcDbDictionary
280
     1
281
     1
  3
ACAD_ROUNDTRIP_2008_TABLESTYLE_CELLSTYLEMAP
360
3C6
  3
ACAD_XREC_ROUNDTRIP
360
3C5
  0
DICTIONARY
  5
396
330
2F
100
AcDbDictionary
280
     1
281
     1
  3
ACAD_XREC_ROUNDTRIP
360
397
  0
DICTIONARY
  5
39C
330
32
100
AcDbDictionary
280
     1
281
     1
  3
ACAD_XREC_ROUNDTRIP
360
39D
  0
DICTIONARY
  5
3A4
330
36
100
AcDbDictionary
280
     1
281
     1
  3
ACAD_XREC_ROUNDTRIP
360
3A5
  0
DICTIONARY
  5
3AC
330
3A
100
AcDbDictionary
280
     1
281
     1
  3
ACAD_XREC_ROUNDTRIP
360
3AD
  0
DICTIONARY
  5
3A0
330
34
100
AcDbDictionary
280
     1
281
     1
  3
ACAD_XREC_ROUNDTRIP
360
3A1
  0
DICTIONARY
  5
3A2
330
35
100
AcDbDictionary
280
     1
281
     1
  3
ACAD_XREC_ROUNDTRIP
360
3A3
  0
DICTIONARY
  5
3B2
330
3D
100
AcDbDictionary
280
     1
281
     1
  3
ACAD_XREC_ROUNDTRIP
360
3B3
  0
DICTIONARY
  5
3AA
330
39
100
AcDbDictionary
280
     1
281
     1
  3
ACAD_XREC_ROUNDTRIP
360
3AB
  0
DICTIONARY
  5
38E
330
2B
100
AcDbDictionary
280
     1
281
     1
  3
ACAD_XREC_ROUNDTRIP
360
38F
  0
DICTIONARY
  5
390
330
2C
100
AcDbDictionary
280
     1
281
     1
  3
ACAD_XREC_ROUNDTRIP
360
391
  0
DICTIONARY
  5
392
330
2D
100
AcDbDictionary
280
     1
281
     1
  3
ACAD_XREC_ROUNDTRIP
360
393
  0
DICTIONARY
  5
394
330
2E
100
AcDbDictionary
280
     1
281
     1
  3
ACAD_XREC_ROUNDTRIP
360
395
  0
DICTIONARY
  5
39A
330
31
100
AcDbDictionary
280
     1
281
     1
  3
ACAD_XREC_ROUNDTRIP
360
39B
  0
DICTIONARY
  5
3AE
330
3B
100
AcDbDictionary
280
     1
281
     1
  3
ACAD_XREC_ROUNDTRIP
360
3AF
  0
DICTIONARY
  5
3A8
330
38
100
AcDbDictionary
280
     1
281
     1
  3
ACAD_XREC_ROUNDTRIP
360
3A9
  0
DICTIONARY
  5
3B0
330
3C
100
AcDbDictionary
280
     1
281
     1
  3
ACAD_XREC_ROUNDTRIP
360
3B1
  0
DICTIONARY
  5
39E
330
33
100
AcDbDictionary
280
     1
281
     1
  3
ACAD_XREC_ROUNDTRIP
360
39F
  0
DICTIONARY
  5
3BC
330
42
100
AcDbDictionary
280
     1
281
     1
  3
ACAD_XREC_ROUNDTRIP
360
3BD
  0
DICTIONARY
  5
3BA
330
41
100
AcDbDictionary
280
     1
281
     1
  3
ACAD_XREC_ROUNDTRIP
360
3BB
  0
DICTIONARY
  5
3B4
330
3E
100
AcDbDictionary
280
     1
281
     1
  3
ACAD_XREC_ROUNDTRIP
360
3B5
  0
DICTIONARY
  5
3B6
330
3F
100
AcDbDictionary
280
     1
281
     1
  3
ACAD_XREC_ROUNDTRIP
360
3B7
  0
DICTIONARY
  5
3A6
330
37
100
AcDbDictionary
280
     1
281
     1
  3
ACAD_XREC_ROUNDTRIP
360
3A7
  0
DICTIONARY
  5
398
330
30
100
AcDbDictionary
280
     1
281
     1
  3
ACAD_XREC_ROUNDTRIP
360
399
  0
DICTIONARY
  5
3B8
330
40
100
AcDbDictionary
280
     1
281
     1
  3
ACAD_XREC_ROUNDTRIP
360
3B9
  0
XRECORD
  5
3C1
102
{ACAD_REACTORS
330
3C0
102
}
330
3C0
100
AcDbXrecord
280
     1
102
MATERIAL
148
0.0
149
0.0
149
0.0
 93
        0
 94
      127
282
     0
 72
     1
 77
     1
171
     1
175
     1
179
     1
273
     0
  0
XRECORD
  5
3BF
102
{ACAD_REACTORS
330
3BE
102
}
330
3BE
100
AcDbXrecord
280
     1
102
MATERIAL
148
0.0
149
0.0
149
0.0
 93
        0
 94
      127
282
     0
 72
     1
 77
     1
171
     1
175
     1
179
     1
273
     0
  0
XRECORD
  5
3C3
102
{ACAD_REACTORS
330
3C2
102
}
330
3C2
100
AcDbXrecord
280
     1
102
MATERIAL
148
0.0
149
0.0
149
0.0
 93
        0
 94
      127
282
     0
 72
     1
 77
     1
171
     1
175
     1
179
     1
273
     0
  0
XRECORD
  5
3C9
102
{ACAD_REACTORS
330
3C8
102
}
330
3C8
100
AcDbXrecord
280
     1
102
ACAD_ROUNDTRIP_2010_MLEADER_STYLE
  0
CELLSTYLEMAP
  5
3C6
102
{ACAD_REACTORS
330
3C4
102
}
330
3C4
100
AcDbCellStyleMap
 90
        3
300
CELLSTYLE
  1
TABLEFORMAT_BEGIN
 90
        5
170
     1
 91
        0
 92
    32768
 62
   257
 93
        1
300
CONTENTFORMAT
  1
CONTENTFORMAT_BEGIN
 90
        0
 91
        0
 92
        4
 93
        0
300

 40
0.0
140
1.0
 94
        5
 62
     0
340
11
144
6.0
309
CONTENTFORMAT_END
171
     1
301
MARGIN
  1
CELLMARGIN_BEGIN
 40
1.5
 40
1.5
 40
1.5
 40
1.5
 40
1.5
 40
1.5
309
CELLMARGIN_END
 94
        6
 95
        1
302
GRIDFORMAT
  1
GRIDFORMAT_BEGIN
 90
        0
 91
        1
 62
     0
 92
       -2
340
14
 93
        0
 40
0.045
309
GRIDFORMAT_END
 95
        2
302
GRIDFORMAT
  1
GRIDFORMAT_BEGIN
 90
        0
 91
        1
 62
     0
 92
       -2
340
14
 93
        0
 40
0.045
309
GRIDFORMAT_END
 95
        4
302
GRIDFORMAT
  1
GRIDFORMAT_BEGIN
 90
        0
 91
        1
 62
     0
 92
       -2
340
14
 93
        0
 40
0.045
309
GRIDFORMAT_END
 95
        8
302
GRIDFORMAT
  1
GRIDFORMAT_BEGIN
 90
        0
 91
        1
 62
     0
 92
       -2
340
14
 93
        0
 40
0.045
309
GRIDFORMAT_END
 95
       16
302
GRIDFORMAT
  1
GRIDFORMAT_BEGIN
 90
        0
 91
        1
 62
     0
 92
       -2
340
14
 93
        0
 40
0.045
309
GRIDFORMAT_END
 95
       32
302
GRIDFORMAT
  1
GRIDFORMAT_BEGIN
 90
        0
 91
        1
 62
     0
 92
       -2
340
14
 93
        0
 40
0.045
309
GRIDFORMAT_END
309
TABLEFORMAT_END
  1
CELLSTYLE_BEGIN
 90
        1
 91
        1
300
_TITLE
309
CELLSTYLE_END
300
CELLSTYLE
  1
TABLEFORMAT_BEGIN
 90
        5
170
     1
 91
        0
 92
        0
 62
   257
 93
        1
300
CONTENTFORMAT
  1
CONTENTFORMAT_BEGIN
 90
        0
 91
        0
 92
        4
 93
        0
300

 40
0.0
140
1.0
 94
        5
 62
     0
340
11
144
4.5
309
CONTENTFORMAT_END
171
     1
301
MARGIN
  1
CELLMARGIN_BEGIN
 40
1.5
 40
1.5
 40
1.5
 40
1.5
 40
1.5
 40
1.5
309
CELLMARGIN_END
 94
        6
 95
        1
302
GRIDFORMAT
  1
GRIDFORMAT_BEGIN
 90
        0
 91
        1
 62
     0
 92
       -2
340
14
 93
        0
 40
0.045
309
GRIDFORMAT_END
 95
        2
302
GRIDFORMAT
  1
GRIDFORMAT_BEGIN
 90
        0
 91
        1
 62
     0
 92
       -2
340
14
 93
        0
 40
0.045
309
GRIDFORMAT_END
 95
        4
302
GRIDFORMAT
  1
GRIDFORMAT_BEGIN
 90
        0
 91
        1
 62
     0
 92
       -2
340
14
 93
        0
 40
0.045
309
GRIDFORMAT_END
 95
        8
302
GRIDFORMAT
  1
GRIDFORMAT_BEGIN
 90
        0
 91
        1
 62
     0
 92
       -2
340
14
 93
        0
 40
0.045
309
GRIDFORMAT_END
 95
       16
302
GRIDFORMAT
  1
GRIDFORMAT_BEGIN
 90
        0
 91
        1
 62
     0
 92
       -2
340
14
 93
        0
 40
0.045
309
GRIDFORMAT_END
 95
       32
302
GRIDFORMAT
  1
GRIDFORMAT_BEGIN
 90
        0
 91
        1
 62
     0
 92
       -2
340
14
 93
        0
 40
0.045
309
GRIDFORMAT_END
309
TABLEFORMAT_END
  1
CELLSTYLE_BEGIN
 90
        2
 91
        1
300
_HEADER
309
CELLSTYLE_END
300
CELLSTYLE
  1
TABLEFORMAT_BEGIN
 90
        5
170
     1
 91
        0
 92
        0
 62
   257
 93
        1
300
CONTENTFORMAT
  1
CONTENTFORMAT_BEGIN
 90
        0
 91
        0
 92
        4
 93
        0
300

 40
0.0
140
1.0
 94
        2
 62
     0
340
11
144
4.5
309
CONTENTFORMAT_END
171
     1
301
MARGIN
  1
CELLMARGIN_BEGIN
 40
1.5
 40
1.5
 40
1.5
 40
1.5
 40
1.5
 40
1.5
309
CELLMARGIN_END
 94
        6
 95
        1
302
GRIDFORMAT
  1
GRIDFORMAT_BEGIN
 90
        0
 91
        1
 62
     0
 92
       -2
340
14
 93
        0
 40
0.045
309
GRIDFORMAT_END
 95
        2
302
GRIDFORMAT
  1
GRIDFORMAT_BEGIN
 90
        0
 91
        1
 62
     0
 92
       -2
340
14
 93
        0
 40
0.045
309
GRIDFORMAT_END
 95
        4
302
GRIDFORMAT
  1
GRIDFORMAT_BEGIN
 90
        0
 91
        1
 62
     0
 92
       -2
340
14
 93
        0
 40
0.045
309
GRIDFORMAT_END
 95
        8
302
GRIDFORMAT
  1
GRIDFORMAT_BEGIN
 90
        0
 91
        1
 62
     0
 92
       -2
340
14
 93
        0
 40
0.045
309
GRIDFORMAT_END
 95
       16
302
GRIDFORMAT
  1
GRIDFORMAT_BEGIN
 90
        0
 91
        1
 62
     0
 92
       -2
340
14
 93
        0
 40
0.045
309
GRIDFORMAT_END
 95
       32
302
GRIDFORMAT
  1
GRIDFORMAT_BEGIN
 90
        0
 91
        1
 62
     0
 92
       -2
340
14
 93
        0
 40
0.045
309
GRIDFORMAT_END
309
TABLEFORMAT_END
  1
CELLSTYLE_BEGIN
 90
        3
 91
        2
300
_DATA
309
CELLSTYLE_END
  0
XRECORD
  5
3C5
102
{ACAD_REACTORS
330
3C4
102
}
330
3C4
100
AcDbXrecord
280
     1
102
ACAD_ROUNDTRIP_PRE2007_TABLESTYLE
 90
        4
 91
        0
  1

 92
        4
 93
        0
  2

 94
        4
 95
        0
  3

  0
XRECORD
  5
397
102
{ACAD_REACTORS
330
396
102
}
330
396
100
AcDbXrecord
280
     1
102
RTVSPropertyOp0
 70
     1
102
RTVSPropertyOp1
 70
     1
102
RTVSPropertyOp2
 70
     1
102
RTVSPropertyOp3
 70
     1
102
RTVSPropertyOp4
 70
     1
102
RTVSPropertyOp5
 70
     1
102
RTVSPropertyOp6
 70
     1
102
RTVSPropertyOp7
 70
     1
102
RTVSPropertyOp8
 70
     1
102
RTVSPropertyOp9
 70
     1
102
RTVSPropertyOp10
 70
     1
102
RTVSPropertyOp11
 70
     1
102
RTVSPropertyOp12
 70
     1
102
RTVSPropertyOp13
 70
     1
102
RTVSPropertyOp14
 70
     1
102
RTVSPropertyOp15
 70
     1
102
RTVSPropertyOp16
 70
     1
102
RTVSPropertyOp17
 70
     1
102
RTVSPropertyOp18
 70
     1
102
RTVSPropertyOp19
 70
     1
102
RTVSPropertyOp20
 70
     1
102
RTVSPropertyOp21
 70
     1
102
RTVSPropertyOp22
 70
     1
102
RTVSPropertyOp23
 70
     1
102
RTVSPropertyOp24
 70
     1
102
RTVSPropertyOp25
 70
     1
102
RTVSPropertyOp26
 70
     1
102
RTVSPropertyOp27
 70
     1
102
RTVSPropertyOp28
 70
     1
102
RTVSPropertyOp29
 70
     1
102
RTVSPropertyOp30
 70
     1
102
RTVSPropertyOp31
 70
     1
102
RTVSPropertyOp32
 70
     1
102
RTVSPropertyOp33
 70
     1
102
RTVSPropertyOp34
 70
     1
102
RTVSPropertyOp35
 70
     1
102
RTVSPropertyOp36
 70
     1
102
RTVSPropertyOp37
 70
     1
102
RTVSPropertyOp38
 70
     1
102
RTVSPropertyOp39
 70
     1
102
RTVSPropertyOp40
 70
     1
102
RTVSPropertyOp41
 70
     1
102
RTVSPropertyOp42
 70
     1
102
RTVSPropertyOp43
 70
     1
102
RTVSPropertyOp44
 70
     1
102
RTVSPropertyOp45
 70
     1
102
RTVSPropertyOp46
 70
     1
102
RTVSPropertyOp47
 70
     1
102
RTVSPropertyOp48
 70
     1
102
RTVSPropertyOp49
 70
     1
102
RTVSPropertyOp50
 70
     1
102
RTVSPropertyOp51
 70
     0
102
RTVSPropertyOp52
 70
     0
102
RTVSPropertyOp53
 70
     1
102
RTVSPropertyOp54
 70
     1
102
RTVSPropertyOp55
 70
     1
102
RTVSPropertyOp56
 70
     1
102
RTVSPropertyOp57
 70
     1
102
RTVSPost2010Prop28
280
     1
102
RTVSPost2010PropOp28
 70
     1
102
RTVSPost2010Prop29
280
     1
102
RTVSPost2010PropOp29
 70
     1
102
RTVSPost2010Prop30
280
     0
102
RTVSPost2010PropOp30
 70
     1
102
RTVSPost2010Prop31
280
     0
102
RTVSPost2010PropOp31
 70
     1
102
RTVSPost2010Prop32
280
     0
102
RTVSPost2010PropOp32
 70
     1
102
RTVSPost2010Prop33
280
     0
102
RTVSPost2010PropOp33
 70
     1
102
RTVSPost2010Prop34
280
     0
102
RTVSPost2010PropOp34
 70
     1
102
RTVSPost2010Prop35
280
     0
102
RTVSPost2010PropOp35
 70
     1
102
RTVSPost2010Prop36
280
     0
102
RTVSPost2010PropOp36
 70
     1
102
RTVSPost2010Prop37
 90
       50
102
RTVSPost2010PropOp37
 70
     1
102
RTVSPost2010Prop38
140
0.0
102
RTVSPost2010PropOp38
 70
     1
102
RTVSPost2010Prop39
140
1.0
102
RTVSPost2010PropOp39
 70
     1
102
RTVSPost2010Prop40
 90
        0
102
RTVSPost2010PropOp40
 70
     1
102
RTVSPost2010Prop41ColorIndex
 90
       18
102
RTVSPost2010Prop41ColorRGB
 90
        0
102
RTVSPost2010PropOp41
 70
     1
102
RTVSPost2010Prop42
 90
       50
102
RTVSPost2010PropOp42
 70
     1
102
RTVSPost2010Prop43
 90
        3
102
RTVSPost2010PropOp43
 70
     1
102
RTVSPost2010Prop44ColorIndex
 90
        5
102
RTVSPost2010Prop44ColorRGB
 90
      255
102
RTVSPost2010PropOp44
 70
     1
102
RTVSPost2010Prop45
280
     0
102
RTVSPost2010PropOp45
 70
     1
102
RTVSPost2010Prop46
 90
       50
102
RTVSPost2010PropOp46
 70
     1
102
RTVSPost2010Prop47
 90
       50
102
RTVSPost2010PropOp47
 70
     1
102
RTVSPost2010Prop48
 90
       50
102
RTVSPost2010PropOp48
 70
     1
102
RTVSPost2010Prop49
280
     0
102
RTVSPost2010PropOp49
 70
     1
102
RTVSPost2010Prop50
 90
       50
102
RTVSPost2010PropOp50
 70
     1
102
RTVSPost2010Prop51ColorIndex
 90
      256
102
RTVSPost2010Prop51ColorRGB
 90
-16777216
102
RTVSPost2010PropOp51
 70
     0
102
RTVSPost2010Prop52
140
1.0
102
RTVSPost2010PropOp52
 70
     0
102
RTVSPost2010Prop53
 90
        2
102
RTVSPost2010PropOp53
 70
     1
102
RTVSPost2010Prop54
  1
strokes_ogs.tif
102
RTVSPost2010PropOp54
 70
     1
102
RTVSPost2010Prop55
280
     0
102
RTVSPost2010PropOp55
 70
     1
102
RTVSPost2010Prop56
140
1.0
102
RTVSPost2010PropOp56
 70
     1
102
RTVSPost2010Prop57
140
1.0
102
RTVSPost2010PropOp57
 70
     1
  0
XRECORD
  5
39D
102
{ACAD_REACTORS
330
39C
102
}
330
39C
100
AcDbXrecord
280
     1
102
RTVSPropertyOp0
 70
     1
102
RTVSPropertyOp1
 70
     1
102
RTVSPropertyOp2
 70
     1
102
RTVSPropertyOp3
 70
     1
102
RTVSPropertyOp4
 70
     1
102
RTVSPropertyOp5
 70
     1
102
RTVSPropertyOp6
 70
     1
102
RTVSPropertyOp7
 70
     1
102
RTVSPropertyOp8
 70
     1
102
RTVSPropertyOp9
 70
     1
102
RTVSPropertyOp10
 70
     1
102
RTVSPropertyOp11
 70
     1
102
RTVSPropertyOp12
 70
     1
102
RTVSPropertyOp13
 70
     1
102
RTVSPropertyOp14
 70
     1
102
RTVSPropertyOp15
 70
     1
102
RTVSPropertyOp16
 70
     1
102
RTVSPropertyOp17
 70
     1
102
RTVSPropertyOp18
 70
     1
102
RTVSPropertyOp19
 70
     1
102
RTVSPropertyOp20
 70
     1
102
RTVSPropertyOp21
 70
     1
102
RTVSPropertyOp22
 70
     1
102
RTVSPropertyOp23
 70
     1
102
RTVSPropertyOp24
 70
     1
102
RTVSPropertyOp25
 70
     1
102
RTVSPropertyOp26
 70
     1
102
RTVSPropertyOp27
 70
     1
102
RTVSPropertyOp28
 70
     1
102
RTVSPropertyOp29
 70
     1
102
RTVSPropertyOp30
 70
     1
102
RTVSPropertyOp31
 70
     1
102
RTVSPropertyOp32
 70
     1
102
RTVSPropertyOp33
 70
     1
102
RTVSPropertyOp34
 70
     1
102
RTVSPropertyOp35
 70
     1
102
RTVSPropertyOp36
 70
     1
102
RTVSPropertyOp37
 70
     1
102
RTVSPropertyOp38
 70
     1
102
RTVSPropertyOp39
 70
     1
102
RTVSPropertyOp40
 70
     1
102
RTVSPropertyOp41
 70
     1
102
RTVSPropertyOp42
 70
     1
102
RTVSPropertyOp43
 70
     1
102
RTVSPropertyOp44
 70
     1
102
RTVSPropertyOp45
 70
     1
102
RTVSPropertyOp46
 70
     1
102
RTVSPropertyOp47
 70
     1
102
RTVSPropertyOp48
 70
     1
102
RTVSPropertyOp49
 70
     1
102
RTVSPropertyOp50
 70
     1
102
RTVSPropertyOp51
 70
     0
102
RTVSPropertyOp52
 70
     0
102
RTVSPropertyOp53
 70
     1
102
RTVSPropertyOp54
 70
     1
102
RTVSPropertyOp55
 70
     1
102
RTVSPropertyOp56
 70
     1
102
RTVSPropertyOp57
 70
     1
102
RTVSPost2010Prop28
280
     0
102
RTVSPost2010PropOp28
 70
     1
102
RTVSPost2010Prop29
280
     1
102
RTVSPost2010PropOp29
 70
     1
102
RTVSPost2010Prop30
280
     1
102
RTVSPost2010PropOp30
 70
     1
102
RTVSPost2010Prop31
280
     0
102
RTVSPost2010PropOp31
 70
     1
102
RTVSPost2010Prop32
280
     0
102
RTVSPost2010PropOp32
 70
     1
102
RTVSPost2010Prop33
280
     0
102
RTVSPost2010PropOp33
 70
     1
102
RTVSPost2010Prop34
280
     0
102
RTVSPost2010PropOp34
 70
     1
102
RTVSPost2010Prop35
280
     0
102
RTVSPost2010PropOp35
 70
     1
102
RTVSPost2010Prop36
280
     0
102
RTVSPost2010PropOp36
 70
     1
102
RTVSPost2010Prop37
 90
       50
102
RTVSPost2010PropOp37
 70
     1
102
RTVSPost2010Prop38
140
0.0
102
RTVSPost2010PropOp38
 70
     1
102
RTVSPost2010Prop39
140
1.0
102
RTVSPost2010PropOp39
 70
     1
102
RTVSPost2010Prop40
 90
        0
102
RTVSPost2010PropOp40
 70
     1
102
RTVSPost2010Prop41ColorIndex
 90
       18
102
RTVSPost2010Prop41ColorRGB
 90
        0
102
RTVSPost2010PropOp41
 70
     1
102
RTVSPost2010Prop42
 90
       50
102
RTVSPost2010PropOp42
 70
     1
102
RTVSPost2010Prop43
 90
        3
102
RTVSPost2010PropOp43
 70
     1
102
RTVSPost2010Prop44ColorIndex
 90
        5
102
RTVSPost2010Prop44ColorRGB
 90
      255
102
RTVSPost2010PropOp44
 70
     1
102
RTVSPost2010Prop45
280
     0
102
RTVSPost2010PropOp45
 70
     1
102
RTVSPost2010Prop46
 90
       50
102
RTVSPost2010PropOp46
 70
     1
102
RTVSPost2010Prop47
 90
       50
102
RTVSPost2010PropOp47
 70
     1
102
RTVSPost2010Prop48
 90
       50
102
RTVSPost2010PropOp48
 70
     1
102
RTVSPost2010Prop49
280
     0
102
RTVSPost2010PropOp49
 70
     1
102
RTVSPost2010Prop50
 90
       50
102
RTVSPost2010PropOp50
 70
     1
102
RTVSPost2010Prop51ColorIndex
 90
      256
102
RTVSPost2010Prop51ColorRGB
 90
-16777216
102
RTVSPost2010PropOp51
 70
     0
102
RTVSPost2010Prop52
140
1.0
102
RTVSPost2010PropOp52
 70
     0
102
RTVSPost2010Prop53
 90
        2
102
RTVSPost2010PropOp53
 70
     1
102
RTVSPost2010Prop54
  1
strokes_ogs.tif
102
RTVSPost2010PropOp54
 70
     1
102
RTVSPost2010Prop55
280
     0
102
RTVSPost2010PropOp55
 70
     1
102
RTVSPost2010Prop56
140
1.0
102
RTVSPost2010PropOp56
 70
     1
102
RTVSPost2010Prop57
140
1.0
102
RTVSPost2010PropOp57
 70
     1
  0
XRECORD
  5
3A5
102
{ACAD_REACTORS
330
3A4
102
}
330
3A4
100
AcDbXrecord
280
     1
102
RTVSPropertyOp0
 70
     1
102
RTVSPropertyOp1
 70
     1
102
RTVSPropertyOp2
 70
     1
102
RTVSPropertyOp3
 70
     1
102
RTVSPropertyOp4
 70
     1
102
RTVSPropertyOp5
 70
     1
102
RTVSPropertyOp6
 70
     1
102
RTVSPropertyOp7
 70
     1
102
RTVSPropertyOp8
 70
     1
102
RTVSPropertyOp9
 70
     1
102
RTVSPropertyOp10
 70
     1
102
RTVSPropertyOp11
 70
     1
102
RTVSPropertyOp12
 70
     1
102
RTVSPropertyOp13
 70
     1
102
RTVSPropertyOp14
 70
     1
102
RTVSPropertyOp15
 70
     1
102
RTVSPropertyOp16
 70
     1
102
RTVSPropertyOp17
 70
     1
102
RTVSPropertyOp18
 70
     1
102
RTVSPropertyOp19
 70
     1
102
RTVSPropertyOp20
 70
     1
102
RTVSPropertyOp21
 70
     1
102
RTVSPropertyOp22
 70
     1
102
RTVSPropertyOp23
 70
     1
102
RTVSPropertyOp24
 70
     1
102
RTVSPropertyOp25
 70
     1
102
RTVSPropertyOp26
 70
     1
102
RTVSPropertyOp27
 70
     1
102
RTVSPropertyOp28
 70
     1
102
RTVSPropertyOp29
 70
     1
102
RTVSPropertyOp30
 70
     1
102
RTVSPropertyOp31
 70
     1
102
RTVSPropertyOp32
 70
     1
102
RTVSPropertyOp33
 70
     1
102
RTVSPropertyOp34
 70
     1
102
RTVSPropertyOp35
 70
     1
102
RTVSPropertyOp36
 70
     1
102
RTVSPropertyOp37
 70
     1
102
RTVSPropertyOp38
 70
     1
102
RTVSPropertyOp39
 70
     1
102
RTVSPropertyOp40
 70
     1
102
RTVSPropertyOp41
 70
     1
102
RTVSPropertyOp42
 70
     1
102
RTVSPropertyOp43
 70
     1
102
RTVSPropertyOp44
 70
     1
102
RTVSPropertyOp45
 70
     1
102
RTVSPropertyOp46
 70
     1
102
RTVSPropertyOp47
 70
     1
102
RTVSPropertyOp48
 70
     1
102
RTVSPropertyOp49
 70
     1
102
RTVSPropertyOp50
 70
     1
102
RTVSPropertyOp51
 70
     0
102
RTVSPropertyOp52
 70
     0
102
RTVSPropertyOp53
 70
     1
102
RTVSPropertyOp54
 70
     1
102
RTVSPropertyOp55
 70
     1
102
RTVSPropertyOp56
 70
     1
102
RTVSPropertyOp57
 70
     1
102
RTVSPost2010Prop28
280
     0
102
RTVSPost2010PropOp28
 70
     1
102
RTVSPost2010Prop29
280
     1
102
RTVSPost2010PropOp29
 70
     1
102
RTVSPost2010Prop30
280
     1
102
RTVSPost2010PropOp30
 70
     1
102
RTVSPost2010Prop31
280
     0
102
RTVSPost2010PropOp31
 70
     1
102
RTVSPost2010Prop32
280
     0
102
RTVSPost2010PropOp32
 70
     1
102
RTVSPost2010Prop33
280
     0
102
RTVSPost2010PropOp33
 70
     1
102
RTVSPost2010Prop34
280
     0
102
RTVSPost2010PropOp34
 70
     1
102
RTVSPost2010Prop35
280
     0
102
RTVSPost2010PropOp35
 70
     1
102
RTVSPost2010Prop36
280
     0
102
RTVSPost2010PropOp36
 70
     1
102
RTVSPost2010Prop37
 90
       50
102
RTVSPost2010PropOp37
 70
     1
102
RTVSPost2010Prop38
140
0.0
102
RTVSPost2010PropOp38
 70
     1
102
RTVSPost2010Prop39
140
1.0
102
RTVSPost2010PropOp39
 70
     1
102
RTVSPost2010Prop40
 90
        0
102
RTVSPost2010PropOp40
 70
     1
102
RTVSPost2010Prop41ColorIndex
 90
       18
102
RTVSPost2010Prop41ColorRGB
 90
        0
102
RTVSPost2010PropOp41
 70
     1
102
RTVSPost2010Prop42
 90
       50
102
RTVSPost2010PropOp42
 70
     1
102
RTVSPost2010Prop43
 90
        3
102
RTVSPost2010PropOp43
 70
     1
102
RTVSPost2010Prop44ColorIndex
 90
        5
102
RTVSPost2010Prop44ColorRGB
 90
      255
102
RTVSPost2010PropOp44
 70
     1
102
RTVSPost2010Prop45
280
     0
102
RTVSPost2010PropOp45
 70
     1
102
RTVSPost2010Prop46
 90
       50
102
RTVSPost2010PropOp46
 70
     1
102
RTVSPost2010Prop47
 90
       50
102
RTVSPost2010PropOp47
 70
     1
102
RTVSPost2010Prop48
 90
       50
102
RTVSPost2010PropOp48
 70
     1
102
RTVSPost2010Prop49
280
     0
102
RTVSPost2010PropOp49
 70
     1
102
RTVSPost2010Prop50
 90
       50
102
RTVSPost2010PropOp50
 70
     1
102
RTVSPost2010Prop51ColorIndex
 90
      256
102
RTVSPost2010Prop51ColorRGB
 90
-16777216
102
RTVSPost2010PropOp51
 70
     0
102
RTVSPost2010Prop52
140
1.0
102
RTVSPost2010PropOp52
 70
     0
102
RTVSPost2010Prop53
 90
        2
102
RTVSPost2010PropOp53
 70
     1
102
RTVSPost2010Prop54
  1
strokes_ogs.tif
102
RTVSPost2010PropOp54
 70
     1
102
RTVSPost2010Prop55
280
     0
102
RTVSPost2010PropOp55
 70
     1
102
RTVSPost2010Prop56
140
1.0
102
RTVSPost2010PropOp56
 70
     1
102
RTVSPost2010Prop57
140
1.0
102
RTVSPost2010PropOp57
 70
     1
  0
XRECORD
  5
3AD
102
{ACAD_REACTORS
330
3AC
102
}
330
3AC
100
AcDbXrecord
280
     1
102
RTVSPropertyOp0
 70
     1
102
RTVSPropertyOp1
 70
     1
102
RTVSPropertyOp2
 70
     1
102
RTVSPropertyOp3
 70
     1
102
RTVSPropertyOp4
 70
     1
102
RTVSPropertyOp5
 70
     1
102
RTVSPropertyOp6
 70
     1
102
RTVSPropertyOp7
 70
     1
102
RTVSPropertyOp8
 70
     1
102
RTVSPropertyOp9
 70
     1
102
RTVSPropertyOp10
 70
     1
102
RTVSPropertyOp11
 70
     1
102
RTVSPropertyOp12
 70
     1
102
RTVSPropertyOp13
 70
     1
102
RTVSPropertyOp14
 70
     1
102
RTVSPropertyOp15
 70
     1
102
RTVSPropertyOp16
 70
     1
102
RTVSPropertyOp17
 70
     1
102
RTVSPropertyOp18
 70
     1
102
RTVSPropertyOp19
 70
     1
102
RTVSPropertyOp20
 70
     1
102
RTVSPropertyOp21
 70
     1
102
RTVSPropertyOp22
 70
     1
102
RTVSPropertyOp23
 70
     1
102
RTVSPropertyOp24
 70
     1
102
RTVSPropertyOp25
 70
     1
102
RTVSPropertyOp26
 70
     1
102
RTVSPropertyOp27
 70
     1
102
RTVSPropertyOp28
 70
     1
102
RTVSPropertyOp29
 70
     1
102
RTVSPropertyOp30
 70
     1
102
RTVSPropertyOp31
 70
     1
102
RTVSPropertyOp32
 70
     1
102
RTVSPropertyOp33
 70
     1
102
RTVSPropertyOp34
 70
     1
102
RTVSPropertyOp35
 70
     1
102
RTVSPropertyOp36
 70
     1
102
RTVSPropertyOp37
 70
     1
102
RTVSPropertyOp38
 70
     1
102
RTVSPropertyOp39
 70
     1
102
RTVSPropertyOp40
 70
     1
102
RTVSPropertyOp41
 70
     1
102
RTVSPropertyOp42
 70
     1
102
RTVSPropertyOp43
 70
     1
102
RTVSPropertyOp44
 70
     1
102
RTVSPropertyOp45
 70
     1
102
RTVSPropertyOp46
 70
     1
102
RTVSPropertyOp47
 70
     1
102
RTVSPropertyOp48
 70
     1
102
RTVSPropertyOp49
 70
     1
102
RTVSPropertyOp50
 70
     1
102
RTVSPropertyOp51
 70
     0
102
RTVSPropertyOp52
 70
     0
102
RTVSPropertyOp53
 70
     1
102
RTVSPropertyOp54
 70
     1
102
RTVSPropertyOp55
 70
     1
102
RTVSPropertyOp56
 70
     1
102
RTVSPropertyOp57
 70
     1
102
RTVSPost2010Prop28
280
     0
102
RTVSPost2010PropOp28
 70
     1
102
RTVSPost2010Prop29
280
     1
102
RTVSPost2010PropOp29
 70
     1
102
RTVSPost2010Prop30
280
     1
102
RTVSPost2010PropOp30
 70
     1
102
RTVSPost2010Prop31
280
     0
102
RTVSPost2010PropOp31
 70
     1
102
RTVSPost2010Prop32
280
     0
102
RTVSPost2010PropOp32
 70
     1
102
RTVSPost2010Prop33
280
     0
102
RTVSPost2010PropOp33
 70
     1
102
RTVSPost2010Prop34
280
     0
102
RTVSPost2010PropOp34
 70
     1
102
RTVSPost2010Prop35
280
     0
102
RTVSPost2010PropOp35
 70
     1
102
RTVSPost2010Prop36
280
     0
102
RTVSPost2010PropOp36
 70
     1
102
RTVSPost2010Prop37
 90
       50
102
RTVSPost2010PropOp37
 70
     1
102
RTVSPost2010Prop38
140
0.0
102
RTVSPost2010PropOp38
 70
     1
102
RTVSPost2010Prop39
140
1.0
102
RTVSPost2010PropOp39
 70
     1
102
RTVSPost2010Prop40
 90
        0
102
RTVSPost2010PropOp40
 70
     1
102
RTVSPost2010Prop41ColorIndex
 90
       18
102
RTVSPost2010Prop41ColorRGB
 90
        0
102
RTVSPost2010PropOp41
 70
     1
102
RTVSPost2010Prop42
 90
       50
102
RTVSPost2010PropOp42
 70
     1
102
RTVSPost2010Prop43
 90
        3
102
RTVSPost2010PropOp43
 70
     1
102
RTVSPost2010Prop44ColorIndex
 90
        5
102
RTVSPost2010Prop44ColorRGB
 90
      255
102
RTVSPost2010PropOp44
 70
     1
102
RTVSPost2010Prop45
280
     0
102
RTVSPost2010PropOp45
 70
     1
102
RTVSPost2010Prop46
 90
       50
102
RTVSPost2010PropOp46
 70
     1
102
RTVSPost2010Prop47
 90
       50
102
RTVSPost2010PropOp47
 70
     1
102
RTVSPost2010Prop48
 90
       50
102
RTVSPost2010PropOp48
 70
     1
102
RTVSPost2010Prop49
280
     0
102
RTVSPost2010PropOp49
 70
     1
102
RTVSPost2010Prop50
 90
       50
102
RTVSPost2010PropOp50
 70
     1
102
RTVSPost2010Prop51ColorIndex
 90
      256
102
RTVSPost2010Prop51ColorRGB
 90
-16777216
102
RTVSPost2010PropOp51
 70
     0
102
RTVSPost2010Prop52
140
1.0
102
RTVSPost2010PropOp52
 70
     0
102
RTVSPost2010Prop53
 90
        2
102
RTVSPost2010PropOp53
 70
     1
102
RTVSPost2010Prop54
  1
strokes_ogs.tif
102
RTVSPost2010PropOp54
 70
     1
102
RTVSPost2010Prop55
280
     0
102
RTVSPost2010PropOp55
 70
     1
102
RTVSPost2010Prop56
140
1.0
102
RTVSPost2010PropOp56
 70
     1
102
RTVSPost2010Prop57
140
1.0
102
RTVSPost2010PropOp57
 70
     1
  0
XRECORD
  5
3A1
102
{ACAD_REACTORS
330
3A0
102
}
330
3A0
100
AcDbXrecord
280
     1
102
RTVSPropertyOp0
 70
     1
102
RTVSPropertyOp1
 70
     1
102
RTVSPropertyOp2
 70
     1
102
RTVSPropertyOp3
 70
     1
102
RTVSPropertyOp4
 70
     1
102
RTVSPropertyOp5
 70
     1
102
RTVSPropertyOp6
 70
     1
102
RTVSPropertyOp7
 70
     1
102
RTVSPropertyOp8
 70
     1
102
RTVSPropertyOp9
 70
     1
102
RTVSPropertyOp10
 70
     1
102
RTVSPropertyOp11
 70
     1
102
RTVSPropertyOp12
 70
     1
102
RTVSPropertyOp13
 70
     1
102
RTVSPropertyOp14
 70
     1
102
RTVSPropertyOp15
 70
     1
102
RTVSPropertyOp16
 70
     1
102
RTVSPropertyOp17
 70
     1
102
RTVSPropertyOp18
 70
     1
102
RTVSPropertyOp19
 70
     1
102
RTVSPropertyOp20
 70
     1
102
RTVSPropertyOp21
 70
     1
102
RTVSPropertyOp22
 70
     1
102
RTVSPropertyOp23
 70
     1
102
RTVSPropertyOp24
 70
     1
102
RTVSPropertyOp25
 70
     1
102
RTVSPropertyOp26
 70
     1
102
RTVSPropertyOp27
 70
     1
102
RTVSPropertyOp28
 70
     1
102
RTVSPropertyOp29
 70
     1
102
RTVSPropertyOp30
 70
     1
102
RTVSPropertyOp31
 70
     1
102
RTVSPropertyOp32
 70
     1
102
RTVSPropertyOp33
 70
     1
102
RTVSPropertyOp34
 70
     1
102
RTVSPropertyOp35
 70
     1
102
RTVSPropertyOp36
 70
     1
102
RTVSPropertyOp37
 70
     1
102
RTVSPropertyOp38
 70
     1
102
RTVSPropertyOp39
 70
     1
102
RTVSPropertyOp40
 70
     1
102
RTVSPropertyOp41
 70
     1
102
RTVSPropertyOp42
 70
     1
102
RTVSPropertyOp43
 70
     1
102
RTVSPropertyOp44
 70
     1
102
RTVSPropertyOp45
 70
     1
102
RTVSPropertyOp46
 70
     1
102
RTVSPropertyOp47
 70
     1
102
RTVSPropertyOp48
 70
     1
102
RTVSPropertyOp49
 70
     1
102
RTVSPropertyOp50
 70
     1
102
RTVSPropertyOp51
 70
     0
102
RTVSPropertyOp52
 70
     0
102
RTVSPropertyOp53
 70
     1
102
RTVSPropertyOp54
 70
     1
102
RTVSPropertyOp55
 70
     1
102
RTVSPropertyOp56
 70
     1
102
RTVSPropertyOp57
 70
     1
102
RTVSPost2010Prop28
280
     0
102
RTVSPost2010PropOp28
 70
     1
102
RTVSPost2010Prop29
280
     1
102
RTVSPost2010PropOp29
 70
     1
102
RTVSPost2010Prop30
280
     1
102
RTVSPost2010PropOp30
 70
     1
102
RTVSPost2010Prop31
280
     0
102
RTVSPost2010PropOp31
 70
     1
102
RTVSPost2010Prop32
280
     0
102
RTVSPost2010PropOp32
 70
     1
102
RTVSPost2010Prop33
280
     0
102
RTVSPost2010PropOp33
 70
     1
102
RTVSPost2010Prop34
280
     0
102
RTVSPost2010PropOp34
 70
     1
102
RTVSPost2010Prop35
280
     0
102
RTVSPost2010PropOp35
 70
     1
102
RTVSPost2010Prop36
280
     0
102
RTVSPost2010PropOp36
 70
     1
102
RTVSPost2010Prop37
 90
       50
102
RTVSPost2010PropOp37
 70
     1
102
RTVSPost2010Prop38
140
0.0
102
RTVSPost2010PropOp38
 70
     1
102
RTVSPost2010Prop39
140
1.0
102
RTVSPost2010PropOp39
 70
     1
102
RTVSPost2010Prop40
 90
        0
102
RTVSPost2010PropOp40
 70
     1
102
RTVSPost2010Prop41ColorIndex
 90
       18
102
RTVSPost2010Prop41ColorRGB
 90
        0
102
RTVSPost2010PropOp41
 70
     1
102
RTVSPost2010Prop42
 90
       50
102
RTVSPost2010PropOp42
 70
     1
102
RTVSPost2010Prop43
 90
        3
102
RTVSPost2010PropOp43
 70
     1
102
RTVSPost2010Prop44ColorIndex
 90
        5
102
RTVSPost2010Prop44ColorRGB
 90
      255
102
RTVSPost2010PropOp44
 70
     1
102
RTVSPost2010Prop45
280
     0
102
RTVSPost2010PropOp45
 70
     1
102
RTVSPost2010Prop46
 90
       50
102
RTVSPost2010PropOp46
 70
     1
102
RTVSPost2010Prop47
 90
       50
102
RTVSPost2010PropOp47
 70
     1
102
RTVSPost2010Prop48
 90
       50
102
RTVSPost2010PropOp48
 70
     1
102
RTVSPost2010Prop49
280
     0
102
RTVSPost2010PropOp49
 70
     1
102
RTVSPost2010Prop50
 90
       50
102
RTVSPost2010PropOp50
 70
     1
102
RTVSPost2010Prop51ColorIndex
 90
      256
102
RTVSPost2010Prop51ColorRGB
 90
-16777216
102
RTVSPost2010PropOp51
 70
     0
102
RTVSPost2010Prop52
140
1.0
102
RTVSPost2010PropOp52
 70
     0
102
RTVSPost2010Prop53
 90
        2
102
RTVSPost2010PropOp53
 70
     1
102
RTVSPost2010Prop54
  1
strokes_ogs.tif
102
RTVSPost2010PropOp54
 70
     1
102
RTVSPost2010Prop55
280
     0
102
RTVSPost2010PropOp55
 70
     1
102
RTVSPost2010Prop56
140
1.0
102
RTVSPost2010PropOp56
 70
     1
102
RTVSPost2010Prop57
140
1.0
102
RTVSPost2010PropOp57
 70
     1
  0
XRECORD
  5
3A3
102
{ACAD_REACTORS
330
3A2
102
}
330
3A2
100
AcDbXrecord
280
     1
102
RTVSPropertyOp0
 70
     1
102
RTVSPropertyOp1
 70
     1
102
RTVSPropertyOp2
 70
     1
102
RTVSPropertyOp3
 70
     1
102
RTVSPropertyOp4
 70
     1
102
RTVSPropertyOp5
 70
     1
102
RTVSPropertyOp6
 70
     1
102
RTVSPropertyOp7
 70
     1
102
RTVSPropertyOp8
 70
     1
102
RTVSPropertyOp9
 70
     1
102
RTVSPropertyOp10
 70
     1
102
RTVSPropertyOp11
 70
     1
102
RTVSPropertyOp12
 70
     1
102
RTVSPropertyOp13
 70
     1
102
RTVSPropertyOp14
 70
     1
102
RTVSPropertyOp15
 70
     1
102
RTVSPropertyOp16
 70
     1
102
RTVSPropertyOp17
 70
     1
102
RTVSPropertyOp18
 70
     1
102
RTVSPropertyOp19
 70
     1
102
RTVSPropertyOp20
 70
     1
102
RTVSPropertyOp21
 70
     1
102
RTVSPropertyOp22
 70
     1
102
RTVSPropertyOp23
 70
     1
102
RTVSPropertyOp24
 70
     1
102
RTVSPropertyOp25
 70
     1
102
RTVSPropertyOp26
 70
     1
102
RTVSPropertyOp27
 70
     1
102
RTVSPropertyOp28
 70
     1
102
RTVSPropertyOp29
 70
     1
102
RTVSPropertyOp30
 70
     1
102
RTVSPropertyOp31
 70
     1
102
RTVSPropertyOp32
 70
     1
102
RTVSPropertyOp33
 70
     1
102
RTVSPropertyOp34
 70
     1
102
RTVSPropertyOp35
 70
     1
102
RTVSPropertyOp36
 70
     1
102
RTVSPropertyOp37
 70
     1
102
RTVSPropertyOp38
 70
     1
102
RTVSPropertyOp39
 70
     1
102
RTVSPropertyOp40
 70
     1
102
RTVSPropertyOp41
 70
     1
102
RTVSPropertyOp42
 70
     1
102
RTVSPropertyOp43
 70
     1
102
RTVSPropertyOp44
 70
     1
102
RTVSPropertyOp45
 70
     1
102
RTVSPropertyOp46
 70
     1
102
RTVSPropertyOp47
 70
     1
102
RTVSPropertyOp48
 70
     1
102
RTVSPropertyOp49
 70
     1
102
RTVSPropertyOp50
 70
     1
102
RTVSPropertyOp51
 70
     0
102
RTVSPropertyOp52
 70
     0
102
RTVSPropertyOp53
 70
     1
102
RTVSPropertyOp54
 70
     1
102
RTVSPropertyOp55
 70
     1
102
RTVSPropertyOp56
 70
     1
102
RTVSPropertyOp57
 70
     1
102
RTVSPost2010Prop28
280
     0
102
RTVSPost2010PropOp28
 70
     1
102
RTVSPost2010Prop29
280
     1
102
RTVSPost2010PropOp29
 70
     1
102
RTVSPost2010Prop30
280
     1
102
RTVSPost2010PropOp30
 70
     1
102
RTVSPost2010Prop31
280
     0
102
RTVSPost2010PropOp31
 70
     1
102
RTVSPost2010Prop32
280
     0
102
RTVSPost2010PropOp32
 70
     1
102
RTVSPost2010Prop33
280
     0
102
RTVSPost2010PropOp33
 70
     1
102
RTVSPost2010Prop34
280
     0
102
RTVSPost2010PropOp34
 70
     1
102
RTVSPost2010Prop35
280
     0
102
RTVSPost2010PropOp35
 70
     1
102
RTVSPost2010Prop36
280
     0
102
RTVSPost2010PropOp36
 70
     1
102
RTVSPost2010Prop37
 90
       50
102
RTVSPost2010PropOp37
 70
     1
102
RTVSPost2010Prop38
140
0.0
102
RTVSPost2010PropOp38
 70
     1
102
RTVSPost2010Prop39
140
1.0
102
RTVSPost2010PropOp39
 70
     1
102
RTVSPost2010Prop40
 90
        0
102
RTVSPost2010PropOp40
 70
     1
102
RTVSPost2010Prop41ColorIndex
 90
       18
102
RTVSPost2010Prop41ColorRGB
 90
        0
102
RTVSPost2010PropOp41
 70
     1
102
RTVSPost2010Prop42
 90
       50
102
RTVSPost2010PropOp42
 70
     1
102
RTVSPost2010Prop43
 90
        3
102
RTVSPost2010PropOp43
 70
     1
102
RTVSPost2010Prop44ColorIndex
 90
        5
102
RTVSPost2010Prop44ColorRGB
 90
      255
102
RTVSPost2010PropOp44
 70
     1
102
RTVSPost2010Prop45
280
     0
102
RTVSPost2010PropOp45
 70
     1
102
RTVSPost2010Prop46
 90
       50
102
RTVSPost2010PropOp46
 70
     1
102
RTVSPost2010Prop47
 90
       50
102
RTVSPost2010PropOp47
 70
     1
102
RTVSPost2010Prop48
 90
       50
102
RTVSPost2010PropOp48
 70
     1
102
RTVSPost2010Prop49
280
     0
102
RTVSPost2010PropOp49
 70
     1
102
RTVSPost2010Prop50
 90
       50
102
RTVSPost2010PropOp50
 70
     1
102
RTVSPost2010Prop51ColorIndex
 90
      256
102
RTVSPost2010Prop51ColorRGB
 90
-16777216
102
RTVSPost2010PropOp51
 70
     0
102
RTVSPost2010Prop52
140
1.0
102
RTVSPost2010PropOp52
 70
     0
102
RTVSPost2010Prop53
 90
        2
102
RTVSPost2010PropOp53
 70
     1
102
RTVSPost2010Prop54
  1
strokes_ogs.tif
102
RTVSPost2010PropOp54
 70
     1
102
RTVSPost2010Prop55
280
     0
102
RTVSPost2010PropOp55
 70
     1
102
RTVSPost2010Prop56
140
1.0
102
RTVSPost2010PropOp56
 70
     1
102
RTVSPost2010Prop57
140
1.0
102
RTVSPost2010PropOp57
 70
     1
  0
XRECORD
  5
3B3
102
{ACAD_REACTORS
330
3B2
102
}
330
3B2
100
AcDbXrecord
280
     1
102
RTVSPropertyOp0
 70
     0
102
RTVSPropertyOp1
 70
     0
102
RTVSPropertyOp2
 70
     0
102
RTVSPropertyOp3
 70
     0
102
RTVSPropertyOp4
 70
     0
102
RTVSPropertyOp5
 70
     0
102
RTVSPropertyOp6
 70
     0
102
RTVSPropertyOp7
 70
     0
102
RTVSPropertyOp8
 70
     0
102
RTVSPropertyOp9
 70
     0
102
RTVSPropertyOp10
 70
     0
102
RTVSPropertyOp11
 70
     0
102
RTVSPropertyOp12
 70
     0
102
RTVSPropertyOp13
 70
     0
102
RTVSPropertyOp14
 70
     2
102
RTVSPropertyOp15
 70
     0
102
RTVSPropertyOp16
 70
     0
102
RTVSPropertyOp17
 70
     0
102
RTVSPropertyOp18
 70
     0
102
RTVSPropertyOp19
 70
     0
102
RTVSPropertyOp20
 70
     0
102
RTVSPropertyOp21
 70
     0
102
RTVSPropertyOp22
 70
     0
102
RTVSPropertyOp23
 70
     0
102
RTVSPropertyOp24
 70
     0
102
RTVSPropertyOp25
 70
     0
102
RTVSPropertyOp26
 70
     0
102
RTVSPropertyOp27
 70
     0
102
RTVSPropertyOp28
 70
     0
102
RTVSPropertyOp29
 70
     0
102
RTVSPropertyOp30
 70
     0
102
RTVSPropertyOp31
 70
     0
102
RTVSPropertyOp32
 70
     0
102
RTVSPropertyOp33
 70
     0
102
RTVSPropertyOp34
 70
     0
102
RTVSPropertyOp35
 70
     0
102
RTVSPropertyOp36
 70
     0
102
RTVSPropertyOp37
 70
     0
102
RTVSPropertyOp38
 70
     0
102
RTVSPropertyOp39
 70
     0
102
RTVSPropertyOp40
 70
     0
102
RTVSPropertyOp41
 70
     0
102
RTVSPropertyOp42
 70
     0
102
RTVSPropertyOp43
 70
     0
102
RTVSPropertyOp44
 70
     0
102
RTVSPropertyOp45
 70
     0
102
RTVSPropertyOp46
 70
     0
102
RTVSPropertyOp47
 70
     0
102
RTVSPropertyOp48
 70
     0
102
RTVSPropertyOp49
 70
     0
102
RTVSPropertyOp50
 70
     0
102
RTVSPropertyOp51
 70
     0
102
RTVSPropertyOp52
 70
     0
102
RTVSPropertyOp53
 70
     0
102
RTVSPropertyOp54
 70
     0
102
RTVSPropertyOp55
 70
     0
102
RTVSPropertyOp56
 70
     0
102
RTVSPropertyOp57
 70
     0
102
RTVSPost2010Prop28
280
     0
102
RTVSPost2010PropOp28
 70
     0
102
RTVSPost2010Prop29
280
     1
102
RTVSPost2010PropOp29
 70
     0
102
RTVSPost2010Prop30
280
     1
102
RTVSPost2010PropOp30
 70
     0
102
RTVSPost2010Prop31
280
     0
102
RTVSPost2010PropOp31
 70
     0
102
RTVSPost2010Prop32
280
     0
102
RTVSPost2010PropOp32
 70
     0
102
RTVSPost2010Prop33
280
     0
102
RTVSPost2010PropOp33
 70
     0
102
RTVSPost2010Prop34
280
     0
102
RTVSPost2010PropOp34
 70
     0
102
RTVSPost2010Prop35
280
     0
102
RTVSPost2010PropOp35
 70
     0
102
RTVSPost2010Prop36
280
     0
102
RTVSPost2010PropOp36
 70
     0
102
RTVSPost2010Prop37
 90
       50
102
RTVSPost2010PropOp37
 70
     0
102
RTVSPost2010Prop38
140
0.0
102
RTVSPost2010PropOp38
 70
     0
102
RTVSPost2010Prop39
140
1.0
102
RTVSPost2010PropOp39
 70
     0
102
RTVSPost2010Prop40
 90
        0
102
RTVSPost2010PropOp40
 70
     0
102
RTVSPost2010Prop41ColorIndex
 90
       18
102
RTVSPost2010Prop41ColorRGB
 90
        0
102
RTVSPost2010PropOp41
 70
     0
102
RTVSPost2010Prop42
 90
       50
102
RTVSPost2010PropOp42
 70
     0
102
RTVSPost2010Prop43
 90
        3
102
RTVSPost2010PropOp43
 70
     0
102
RTVSPost2010Prop44ColorIndex
 90
        5
102
RTVSPost2010Prop44ColorRGB
 90
      255
102
RTVSPost2010PropOp44
 70
     0
102
RTVSPost2010Prop45
280
     0
102
RTVSPost2010PropOp45
 70
     0
102
RTVSPost2010Prop46
 90
       50
102
RTVSPost2010PropOp46
 70
     0
102
RTVSPost2010Prop47
 90
       50
102
RTVSPost2010PropOp47
 70
     0
102
RTVSPost2010Prop48
 90
       50
102
RTVSPost2010PropOp48
 70
     0
102
RTVSPost2010Prop49
280
     0
102
RTVSPost2010PropOp49
 70
     0
102
RTVSPost2010Prop50
 90
       50
102
RTVSPost2010PropOp50
 70
     0
102
RTVSPost2010Prop51ColorIndex
 90
      256
102
RTVSPost2010Prop51ColorRGB
 90
-16777216
102
RTVSPost2010PropOp51
 70
     0
102
RTVSPost2010Prop52
140
1.0
102
RTVSPost2010PropOp52
 70
     0
102
RTVSPost2010Prop53
 90
        2
102
RTVSPost2010PropOp53
 70
     0
102
RTVSPost2010Prop54
  1
strokes_ogs.tif
102
RTVSPost2010PropOp54
 70
     0
102
RTVSPost2010Prop55
280
     0
102
RTVSPost2010PropOp55
 70
     0
102
RTVSPost2010Prop56
140
1.0
102
RTVSPost2010PropOp56
 70
     0
102
RTVSPost2010Prop57
140
1.0
102
RTVSPost2010PropOp57
 70
     0
  0
XRECORD
  5
3AB
102
{ACAD_REACTORS
330
3AA
102
}
330
3AA
100
AcDbXrecord
280
     1
102
RTVSPropertyOp0
 70
     1
102
RTVSPropertyOp1
 70
     1
102
RTVSPropertyOp2
 70
     1
102
RTVSPropertyOp3
 70
     1
102
RTVSPropertyOp4
 70
     1
102
RTVSPropertyOp5
 70
     1
102
RTVSPropertyOp6
 70
     1
102
RTVSPropertyOp7
 70
     1
102
RTVSPropertyOp8
 70
     1
102
RTVSPropertyOp9
 70
     1
102
RTVSPropertyOp10
 70
     1
102
RTVSPropertyOp11
 70
     1
102
RTVSPropertyOp12
 70
     1
102
RTVSPropertyOp13
 70
     1
102
RTVSPropertyOp14
 70
     1
102
RTVSPropertyOp15
 70
     1
102
RTVSPropertyOp16
 70
     1
102
RTVSPropertyOp17
 70
     1
102
RTVSPropertyOp18
 70
     1
102
RTVSPropertyOp19
 70
     1
102
RTVSPropertyOp20
 70
     1
102
RTVSPropertyOp21
 70
     1
102
RTVSPropertyOp22
 70
     1
102
RTVSPropertyOp23
 70
     1
102
RTVSPropertyOp24
 70
     1
102
RTVSPropertyOp25
 70
     1
102
RTVSPropertyOp26
 70
     1
102
RTVSPropertyOp27
 70
     1
102
RTVSPropertyOp28
 70
     1
102
RTVSPropertyOp29
 70
     1
102
RTVSPropertyOp30
 70
     1
102
RTVSPropertyOp31
 70
     1
102
RTVSPropertyOp32
 70
     1
102
RTVSPropertyOp33
 70
     1
102
RTVSPropertyOp34
 70
     1
102
RTVSPropertyOp35
 70
     1
102
RTVSPropertyOp36
 70
     1
102
RTVSPropertyOp37
 70
     1
102
RTVSPropertyOp38
 70
     1
102
RTVSPropertyOp39
 70
     1
102
RTVSPropertyOp40
 70
     1
102
RTVSPropertyOp41
 70
     1
102
RTVSPropertyOp42
 70
     1
102
RTVSPropertyOp43
 70
     1
102
RTVSPropertyOp44
 70
     1
102
RTVSPropertyOp45
 70
     1
102
RTVSPropertyOp46
 70
     1
102
RTVSPropertyOp47
 70
     1
102
RTVSPropertyOp48
 70
     1
102
RTVSPropertyOp49
 70
     1
102
RTVSPropertyOp50
 70
     1
102
RTVSPropertyOp51
 70
     0
102
RTVSPropertyOp52
 70
     0
102
RTVSPropertyOp53
 70
     1
102
RTVSPropertyOp54
 70
     1
102
RTVSPropertyOp55
 70
     1
102
RTVSPropertyOp56
 70
     1
102
RTVSPropertyOp57
 70
     1
102
RTVSPost2010Prop28
280
     0
102
RTVSPost2010PropOp28
 70
     1
102
RTVSPost2010Prop29
280
     1
102
RTVSPost2010PropOp29
 70
     1
102
RTVSPost2010Prop30
280
     1
102
RTVSPost2010PropOp30
 70
     1
102
RTVSPost2010Prop31
280
     0
102
RTVSPost2010PropOp31
 70
     1
102
RTVSPost2010Prop32
280
     0
102
RTVSPost2010PropOp32
 70
     1
102
RTVSPost2010Prop33
280
     0
102
RTVSPost2010PropOp33
 70
     1
102
RTVSPost2010Prop34
280
     0
102
RTVSPost2010PropOp34
 70
     1
102
RTVSPost2010Prop35
280
     0
102
RTVSPost2010PropOp35
 70
     1
102
RTVSPost2010Prop36
280
     0
102
RTVSPost2010PropOp36
 70
     1
102
RTVSPost2010Prop37
 90
       50
102
RTVSPost2010PropOp37
 70
     1
102
RTVSPost2010Prop38
140
0.0
102
RTVSPost2010PropOp38
 70
     1
102
RTVSPost2010Prop39
140
1.0
102
RTVSPost2010PropOp39
 70
     1
102
RTVSPost2010Prop40
 90
        0
102
RTVSPost2010PropOp40
 70
     1
102
RTVSPost2010Prop41ColorIndex
 90
       18
102
RTVSPost2010Prop41ColorRGB
 90
        0
102
RTVSPost2010PropOp41
 70
     1
102
RTVSPost2010Prop42
 90
       50
102
RTVSPost2010PropOp42
 70
     1
102
RTVSPost2010Prop43
 90
        3
102
RTVSPost2010PropOp43
 70
     1
102
RTVSPost2010Prop44ColorIndex
 90
        5
102
RTVSPost2010Prop44ColorRGB
 90
      255
102
RTVSPost2010PropOp44
 70
     1
102
RTVSPost2010Prop45
280
     0
102
RTVSPost2010PropOp45
 70
     1
102
RTVSPost2010Prop46
 90
       50
102
RTVSPost2010PropOp46
 70
     1
102
RTVSPost2010Prop47
 90
       50
102
RTVSPost2010PropOp47
 70
     1
102
RTVSPost2010Prop48
 90
       50
102
RTVSPost2010PropOp48
 70
     1
102
RTVSPost2010Prop49
280
     0
102
RTVSPost2010PropOp49
 70
     1
102
RTVSPost2010Prop50
 90
       50
102
RTVSPost2010PropOp50
 70
     1
102
RTVSPost2010Prop51ColorIndex
 90
      256
102
RTVSPost2010Prop51ColorRGB
 90
-16777216
102
RTVSPost2010PropOp51
 70
     0
102
RTVSPost2010Prop52
140
1.0
102
RTVSPost2010PropOp52
 70
     0
102
RTVSPost2010Prop53
 90
        2
102
RTVSPost2010PropOp53
 70
     1
102
RTVSPost2010Prop54
  1
strokes_ogs.tif
102
RTVSPost2010PropOp54
 70
     1
102
RTVSPost2010Prop55
280
     0
102
RTVSPost2010PropOp55
 70
     1
102
RTVSPost2010Prop56
140
1.0
102
RTVSPost2010PropOp56
 70
     1
102
RTVSPost2010Prop57
140
1.0
102
RTVSPost2010PropOp57
 70
     1
  0
XRECORD
  5
38F
102
{ACAD_REACTORS
330
38E
102
}
330
38E
100
AcDbXrecord
280
     1
102
RTVSPropertyOp0
 70
     1
102
RTVSPropertyOp1
 70
     1
102
RTVSPropertyOp2
 70
     1
102
RTVSPropertyOp3
 70
     1
102
RTVSPropertyOp4
 70
     1
102
RTVSPropertyOp5
 70
     1
102
RTVSPropertyOp6
 70
     1
102
RTVSPropertyOp7
 70
     1
102
RTVSPropertyOp8
 70
     1
102
RTVSPropertyOp9
 70
     1
102
RTVSPropertyOp10
 70
     1
102
RTVSPropertyOp11
 70
     1
102
RTVSPropertyOp12
 70
     1
102
RTVSPropertyOp13
 70
     1
102
RTVSPropertyOp14
 70
     1
102
RTVSPropertyOp15
 70
     1
102
RTVSPropertyOp16
 70
     1
102
RTVSPropertyOp17
 70
     1
102
RTVSPropertyOp18
 70
     1
102
RTVSPropertyOp19
 70
     1
102
RTVSPropertyOp20
 70
     1
102
RTVSPropertyOp21
 70
     1
102
RTVSPropertyOp22
 70
     1
102
RTVSPropertyOp23
 70
     1
102
RTVSPropertyOp24
 70
     1
102
RTVSPropertyOp25
 70
     1
102
RTVSPropertyOp26
 70
     1
102
RTVSPropertyOp27
 70
     1
102
RTVSPropertyOp28
 70
     1
102
RTVSPropertyOp29
 70
     1
102
RTVSPropertyOp30
 70
     1
102
RTVSPropertyOp31
 70
     1
102
RTVSPropertyOp32
 70
     1
102
RTVSPropertyOp33
 70
     1
102
RTVSPropertyOp34
 70
     1
102
RTVSPropertyOp35
 70
     1
102
RTVSPropertyOp36
 70
     1
102
RTVSPropertyOp37
 70
     1
102
RTVSPropertyOp38
 70
     1
102
RTVSPropertyOp39
 70
     1
102
RTVSPropertyOp40
 70
     1
102
RTVSPropertyOp41
 70
     1
102
RTVSPropertyOp42
 70
     1
102
RTVSPropertyOp43
 70
     1
102
RTVSPropertyOp44
 70
     1
102
RTVSPropertyOp45
 70
     1
102
RTVSPropertyOp46
 70
     1
102
RTVSPropertyOp47
 70
     1
102
RTVSPropertyOp48
 70
     1
102
RTVSPropertyOp49
 70
     1
102
RTVSPropertyOp50
 70
     1
102
RTVSPropertyOp51
 70
     0
102
RTVSPropertyOp52
 70
     0
102
RTVSPropertyOp53
 70
     1
102
RTVSPropertyOp54
 70
     1
102
RTVSPropertyOp55
 70
     1
102
RTVSPropertyOp56
 70
     1
102
RTVSPropertyOp57
 70
     1
102
RTVSPost2010Prop28
280
     0
102
RTVSPost2010PropOp28
 70
     1
102
RTVSPost2010Prop29
280
     1
102
RTVSPost2010PropOp29
 70
     1
102
RTVSPost2010Prop30
280
     1
102
RTVSPost2010PropOp30
 70
     1
102
RTVSPost2010Prop31
280
     0
102
RTVSPost2010PropOp31
 70
     1
102
RTVSPost2010Prop32
280
     0
102
RTVSPost2010PropOp32
 70
     1
102
RTVSPost2010Prop33
280
     0
102
RTVSPost2010PropOp33
 70
     1
102
RTVSPost2010Prop34
280
     0
102
RTVSPost2010PropOp34
 70
     1
102
RTVSPost2010Prop35
280
     0
102
RTVSPost2010PropOp35
 70
     1
102
RTVSPost2010Prop36
280
     0
102
RTVSPost2010PropOp36
 70
     1
102
RTVSPost2010Prop37
 90
       50
102
RTVSPost2010PropOp37
 70
     1
102
RTVSPost2010Prop38
140
0.0
102
RTVSPost2010PropOp38
 70
     1
102
RTVSPost2010Prop39
140
1.0
102
RTVSPost2010PropOp39
 70
     1
102
RTVSPost2010Prop40
 90
        0
102
RTVSPost2010PropOp40
 70
     1
102
RTVSPost2010Prop41ColorIndex
 90
       18
102
RTVSPost2010Prop41ColorRGB
 90
        0
102
RTVSPost2010PropOp41
 70
     1
102
RTVSPost2010Prop42
 90
       50
102
RTVSPost2010PropOp42
 70
     1
102
RTVSPost2010Prop43
 90
        3
102
RTVSPost2010PropOp43
 70
     1
102
RTVSPost2010Prop44ColorIndex
 90
        5
102
RTVSPost2010Prop44ColorRGB
 90
      255
102
RTVSPost2010PropOp44
 70
     1
102
RTVSPost2010Prop45
280
     0
102
RTVSPost2010PropOp45
 70
     1
102
RTVSPost2010Prop46
 90
       50
102
RTVSPost2010PropOp46
 70
     1
102
RTVSPost2010Prop47
 90
       50
102
RTVSPost2010PropOp47
 70
     1
102
RTVSPost2010Prop48
 90
       50
102
RTVSPost2010PropOp48
 70
     1
102
RTVSPost2010Prop49
280
     0
102
RTVSPost2010PropOp49
 70
     1
102
RTVSPost2010Prop50
 90
       50
102
RTVSPost2010PropOp50
 70
     1
102
RTVSPost2010Prop51ColorIndex
 90
      256
102
RTVSPost2010Prop51ColorRGB
 90
-16777216
102
RTVSPost2010PropOp51
 70
     0
102
RTVSPost2010Prop52
140
1.0
102
RTVSPost2010PropOp52
 70
     0
102
RTVSPost2010Prop53
 90
        2
102
RTVSPost2010PropOp53
 70
     1
102
RTVSPost2010Prop54
  1
strokes_ogs.tif
102
RTVSPost2010PropOp54
 70
     1
102
RTVSPost2010Prop55
280
     0
102
RTVSPost2010PropOp55
 70
     1
102
RTVSPost2010Prop56
140
1.0
102
RTVSPost2010PropOp56
 70
     1
102
RTVSPost2010Prop57
140
1.0
102
RTVSPost2010PropOp57
 70
     1
  0
XRECORD
  5
391
102
{ACAD_REACTORS
330
390
102
}
330
390
100
AcDbXrecord
280
     1
102
RTVSPropertyOp0
 70
     1
102
RTVSPropertyOp1
 70
     1
102
RTVSPropertyOp2
 70
     1
102
RTVSPropertyOp3
 70
     1
102
RTVSPropertyOp4
 70
     1
102
RTVSPropertyOp5
 70
     1
102
RTVSPropertyOp6
 70
     1
102
RTVSPropertyOp7
 70
     1
102
RTVSPropertyOp8
 70
     1
102
RTVSPropertyOp9
 70
     1
102
RTVSPropertyOp10
 70
     1
102
RTVSPropertyOp11
 70
     1
102
RTVSPropertyOp12
 70
     1
102
RTVSPropertyOp13
 70
     1
102
RTVSPropertyOp14
 70
     1
102
RTVSPropertyOp15
 70
     1
102
RTVSPropertyOp16
 70
     1
102
RTVSPropertyOp17
 70
     1
102
RTVSPropertyOp18
 70
     1
102
RTVSPropertyOp19
 70
     1
102
RTVSPropertyOp20
 70
     1
102
RTVSPropertyOp21
 70
     1
102
RTVSPropertyOp22
 70
     1
102
RTVSPropertyOp23
 70
     1
102
RTVSPropertyOp24
 70
     1
102
RTVSPropertyOp25
 70
     1
102
RTVSPropertyOp26
 70
     1
102
RTVSPropertyOp27
 70
     1
102
RTVSPropertyOp28
 70
     1
102
RTVSPropertyOp29
 70
     1
102
RTVSPropertyOp30
 70
     1
102
RTVSPropertyOp31
 70
     1
102
RTVSPropertyOp32
 70
     1
102
RTVSPropertyOp33
 70
     1
102
RTVSPropertyOp34
 70
     1
102
RTVSPropertyOp35
 70
     1
102
RTVSPropertyOp36
 70
     1
102
RTVSPropertyOp37
 70
     1
102
RTVSPropertyOp38
 70
     1
102
RTVSPropertyOp39
 70
     1
102
RTVSPropertyOp40
 70
     1
102
RTVSPropertyOp41
 70
     1
102
RTVSPropertyOp42
 70
     1
102
RTVSPropertyOp43
 70
     1
102
RTVSPropertyOp44
 70
     1
102
RTVSPropertyOp45
 70
     1
102
RTVSPropertyOp46
 70
     1
102
RTVSPropertyOp47
 70
     1
102
RTVSPropertyOp48
 70
     1
102
RTVSPropertyOp49
 70
     1
102
RTVSPropertyOp50
 70
     1
102
RTVSPropertyOp51
 70
     0
102
RTVSPropertyOp52
 70
     0
102
RTVSPropertyOp53
 70
     1
102
RTVSPropertyOp54
 70
     1
102
RTVSPropertyOp55
 70
     1
102
RTVSPropertyOp56
 70
     1
102
RTVSPropertyOp57
 70
     1
102
RTVSPost2010Prop28
280
     0
102
RTVSPost2010PropOp28
 70
     1
102
RTVSPost2010Prop29
280
     1
102
RTVSPost2010PropOp29
 70
     1
102
RTVSPost2010Prop30
280
     1
102
RTVSPost2010PropOp30
 70
     1
102
RTVSPost2010Prop31
280
     0
102
RTVSPost2010PropOp31
 70
     1
102
RTVSPost2010Prop32
280
     0
102
RTVSPost2010PropOp32
 70
     1
102
RTVSPost2010Prop33
280
     0
102
RTVSPost2010PropOp33
 70
     1
102
RTVSPost2010Prop34
280
     0
102
RTVSPost2010PropOp34
 70
     1
102
RTVSPost2010Prop35
280
     0
102
RTVSPost2010PropOp35
 70
     1
102
RTVSPost2010Prop36
280
     0
102
RTVSPost2010PropOp36
 70
     1
102
RTVSPost2010Prop37
 90
       50
102
RTVSPost2010PropOp37
 70
     1
102
RTVSPost2010Prop38
140
0.0
102
RTVSPost2010PropOp38
 70
     1
102
RTVSPost2010Prop39
140
1.0
102
RTVSPost2010PropOp39
 70
     1
102
RTVSPost2010Prop40
 90
        0
102
RTVSPost2010PropOp40
 70
     1
102
RTVSPost2010Prop41ColorIndex
 90
       18
102
RTVSPost2010Prop41ColorRGB
 90
        0
102
RTVSPost2010PropOp41
 70
     1
102
RTVSPost2010Prop42
 90
       50
102
RTVSPost2010PropOp42
 70
     1
102
RTVSPost2010Prop43
 90
        3
102
RTVSPost2010PropOp43
 70
     1
102
RTVSPost2010Prop44ColorIndex
 90
        5
102
RTVSPost2010Prop44ColorRGB
 90
      255
102
RTVSPost2010PropOp44
 70
     1
102
RTVSPost2010Prop45
280
     0
102
RTVSPost2010PropOp45
 70
     1
102
RTVSPost2010Prop46
 90
       50
102
RTVSPost2010PropOp46
 70
     1
102
RTVSPost2010Prop47
 90
       50
102
RTVSPost2010PropOp47
 70
     1
102
RTVSPost2010Prop48
 90
       50
102
RTVSPost2010PropOp48
 70
     1
102
RTVSPost2010Prop49
280
     0
102
RTVSPost2010PropOp49
 70
     1
102
RTVSPost2010Prop50
 90
       50
102
RTVSPost2010PropOp50
 70
     1
102
RTVSPost2010Prop51ColorIndex
 90
      256
102
RTVSPost2010Prop51ColorRGB
 90
-16777216
102
RTVSPost2010PropOp51
 70
     0
102
RTVSPost2010Prop52
140
1.0
102
RTVSPost2010PropOp52
 70
     0
102
RTVSPost2010Prop53
 90
        2
102
RTVSPost2010PropOp53
 70
     1
102
RTVSPost2010Prop54
  1
strokes_ogs.tif
102
RTVSPost2010PropOp54
 70
     1
102
RTVSPost2010Prop55
280
     0
102
RTVSPost2010PropOp55
 70
     1
102
RTVSPost2010Prop56
140
1.0
102
RTVSPost2010PropOp56
 70
     1
102
RTVSPost2010Prop57
140
1.0
102
RTVSPost2010PropOp57
 70
     1
  0
XRECORD
  5
393
102
{ACAD_REACTORS
330
392
102
}
330
392
100
AcDbXrecord
280
     1
102
RTVSPropertyOp0
 70
     1
102
RTVSPropertyOp1
 70
     1
102
RTVSPropertyOp2
 70
     1
102
RTVSPropertyOp3
 70
     1
102
RTVSPropertyOp4
 70
     1
102
RTVSPropertyOp5
 70
     1
102
RTVSPropertyOp6
 70
     1
102
RTVSPropertyOp7
 70
     1
102
RTVSPropertyOp8
 70
     1
102
RTVSPropertyOp9
 70
     1
102
RTVSPropertyOp10
 70
     1
102
RTVSPropertyOp11
 70
     1
102
RTVSPropertyOp12
 70
     1
102
RTVSPropertyOp13
 70
     1
102
RTVSPropertyOp14
 70
     1
102
RTVSPropertyOp15
 70
     1
102
RTVSPropertyOp16
 70
     1
102
RTVSPropertyOp17
 70
     1
102
RTVSPropertyOp18
 70
     1
102
RTVSPropertyOp19
 70
     1
102
RTVSPropertyOp20
 70
     1
102
RTVSPropertyOp21
 70
     1
102
RTVSPropertyOp22
 70
     1
102
RTVSPropertyOp23
 70
     1
102
RTVSPropertyOp24
 70
     1
102
RTVSPropertyOp25
 70
     1
102
RTVSPropertyOp26
 70
     1
102
RTVSPropertyOp27
 70
     1
102
RTVSPropertyOp28
 70
     1
102
RTVSPropertyOp29
 70
     1
102
RTVSPropertyOp30
 70
     1
102
RTVSPropertyOp31
 70
     1
102
RTVSPropertyOp32
 70
     1
102
RTVSPropertyOp33
 70
     1
102
RTVSPropertyOp34
 70
     1
102
RTVSPropertyOp35
 70
     1
102
RTVSPropertyOp36
 70
     1
102
RTVSPropertyOp37
 70
     1
102
RTVSPropertyOp38
 70
     1
102
RTVSPropertyOp39
 70
     1
102
RTVSPropertyOp40
 70
     1
102
RTVSPropertyOp41
 70
     1
102
RTVSPropertyOp42
 70
     1
102
RTVSPropertyOp43
 70
     1
102
RTVSPropertyOp44
 70
     1
102
RTVSPropertyOp45
 70
     1
102
RTVSPropertyOp46
 70
     1
102
RTVSPropertyOp47
 70
     1
102
RTVSPropertyOp48
 70
     1
102
RTVSPropertyOp49
 70
     1
102
RTVSPropertyOp50
 70
     1
102
RTVSPropertyOp51
 70
     0
102
RTVSPropertyOp52
 70
     0
102
RTVSPropertyOp53
 70
     1
102
RTVSPropertyOp54
 70
     1
102
RTVSPropertyOp55
 70
     1
102
RTVSPropertyOp56
 70
     1
102
RTVSPropertyOp57
 70
     1
102
RTVSPost2010Prop28
280
     0
102
RTVSPost2010PropOp28
 70
     1
102
RTVSPost2010Prop29
280
     1
102
RTVSPost2010PropOp29
 70
     1
102
RTVSPost2010Prop30
280
     1
102
RTVSPost2010PropOp30
 70
     1
102
RTVSPost2010Prop31
280
     0
102
RTVSPost2010PropOp31
 70
     1
102
RTVSPost2010Prop32
280
     0
102
RTVSPost2010PropOp32
 70
     1
102
RTVSPost2010Prop33
280
     0
102
RTVSPost2010PropOp33
 70
     1
102
RTVSPost2010Prop34
280
     0
102
RTVSPost2010PropOp34
 70
     1
102
RTVSPost2010Prop35
280
     0
102
RTVSPost2010PropOp35
 70
     1
102
RTVSPost2010Prop36
280
     0
102
RTVSPost2010PropOp36
 70
     1
102
RTVSPost2010Prop37
 90
       50
102
RTVSPost2010PropOp37
 70
     1
102
RTVSPost2010Prop38
140
0.0
102
RTVSPost2010PropOp38
 70
     1
102
RTVSPost2010Prop39
140
1.0
102
RTVSPost2010PropOp39
 70
     1
102
RTVSPost2010Prop40
 90
        0
102
RTVSPost2010PropOp40
 70
     1
102
RTVSPost2010Prop41ColorIndex
 90
       18
102
RTVSPost2010Prop41ColorRGB
 90
        0
102
RTVSPost2010PropOp41
 70
     1
102
RTVSPost2010Prop42
 90
       50
102
RTVSPost2010PropOp42
 70
     1
102
RTVSPost2010Prop43
 90
        3
102
RTVSPost2010PropOp43
 70
     1
102
RTVSPost2010Prop44ColorIndex
 90
        5
102
RTVSPost2010Prop44ColorRGB
 90
      255
102
RTVSPost2010PropOp44
 70
     1
102
RTVSPost2010Prop45
280
     0
102
RTVSPost2010PropOp45
 70
     1
102
RTVSPost2010Prop46
 90
       50
102
RTVSPost2010PropOp46
 70
     1
102
RTVSPost2010Prop47
 90
       50
102
RTVSPost2010PropOp47
 70
     1
102
RTVSPost2010Prop48
 90
       50
102
RTVSPost2010PropOp48
 70
     1
102
RTVSPost2010Prop49
280
     0
102
RTVSPost2010PropOp49
 70
     1
102
RTVSPost2010Prop50
 90
       50
102
RTVSPost2010PropOp50
 70
     1
102
RTVSPost2010Prop51ColorIndex
 90
      256
102
RTVSPost2010Prop51ColorRGB
 90
-16777216
102
RTVSPost2010PropOp51
 70
     0
102
RTVSPost2010Prop52
140
1.0
102
RTVSPost2010PropOp52
 70
     0
102
RTVSPost2010Prop53
 90
        2
102
RTVSPost2010PropOp53
 70
     1
102
RTVSPost2010Prop54
  1
strokes_ogs.tif
102
RTVSPost2010PropOp54
 70
     1
102
RTVSPost2010Prop55
280
     0
102
RTVSPost2010PropOp55
 70
     1
102
RTVSPost2010Prop56
140
1.0
102
RTVSPost2010PropOp56
 70
     1
102
RTVSPost2010Prop57
140
1.0
102
RTVSPost2010PropOp57
 70
     1
  0
XRECORD
  5
395
102
{ACAD_REACTORS
330
394
102
}
330
394
100
AcDbXrecord
280
     1
102
RTVSPropertyOp0
 70
     1
102
RTVSPropertyOp1
 70
     1
102
RTVSPropertyOp2
 70
     1
102
RTVSPropertyOp3
 70
     1
102
RTVSPropertyOp4
 70
     1
102
RTVSPropertyOp5
 70
     1
102
RTVSPropertyOp6
 70
     1
102
RTVSPropertyOp7
 70
     1
102
RTVSPropertyOp8
 70
     1
102
RTVSPropertyOp9
 70
     1
102
RTVSPropertyOp10
 70
     1
102
RTVSPropertyOp11
 70
     1
102
RTVSPropertyOp12
 70
     1
102
RTVSPropertyOp13
 70
     1
102
RTVSPropertyOp14
 70
     1
102
RTVSPropertyOp15
 70
     1
102
RTVSPropertyOp16
 70
     1
102
RTVSPropertyOp17
 70
     1
102
RTVSPropertyOp18
 70
     1
102
RTVSPropertyOp19
 70
     1
102
RTVSPropertyOp20
 70
     1
102
RTVSPropertyOp21
 70
     1
102
RTVSPropertyOp22
 70
     1
102
RTVSPropertyOp23
 70
     1
102
RTVSPropertyOp24
 70
     1
102
RTVSPropertyOp25
 70
     1
102
RTVSPropertyOp26
 70
     1
102
RTVSPropertyOp27
 70
     1
102
RTVSPropertyOp28
 70
     1
102
RTVSPropertyOp29
 70
     1
102
RTVSPropertyOp30
 70
     1
102
RTVSPropertyOp31
 70
     1
102
RTVSPropertyOp32
 70
     1
102
RTVSPropertyOp33
 70
     1
102
RTVSPropertyOp34
 70
     1
102
RTVSPropertyOp35
 70
     1
102
RTVSPropertyOp36
 70
     1
102
RTVSPropertyOp37
 70
     1
102
RTVSPropertyOp38
 70
     1
102
RTVSPropertyOp39
 70
     1
102
RTVSPropertyOp40
 70
     1
102
RTVSPropertyOp41
 70
     1
102
RTVSPropertyOp42
 70
     1
102
RTVSPropertyOp43
 70
     1
102
RTVSPropertyOp44
 70
     1
102
RTVSPropertyOp45
 70
     1
102
RTVSPropertyOp46
 70
     1
102
RTVSPropertyOp47
 70
     1
102
RTVSPropertyOp48
 70
     1
102
RTVSPropertyOp49
 70
     1
102
RTVSPropertyOp50
 70
     1
102
RTVSPropertyOp51
 70
     0
102
RTVSPropertyOp52
 70
     0
102
RTVSPropertyOp53
 70
     1
102
RTVSPropertyOp54
 70
     1
102
RTVSPropertyOp55
 70
     1
102
RTVSPropertyOp56
 70
     1
102
RTVSPropertyOp57
 70
     1
102
RTVSPost2010Prop28
280
     0
102
RTVSPost2010PropOp28
 70
     1
102
RTVSPost2010Prop29
280
     1
102
RTVSPost2010PropOp29
 70
     1
102
RTVSPost2010Prop30
280
     1
102
RTVSPost2010PropOp30
 70
     1
102
RTVSPost2010Prop31
280
     0
102
RTVSPost2010PropOp31
 70
     1
102
RTVSPost2010Prop32
280
     0
102
RTVSPost2010PropOp32
 70
     1
102
RTVSPost2010Prop33
280
     0
102
RTVSPost2010PropOp33
 70
     1
102
RTVSPost2010Prop34
280
     0
102
RTVSPost2010PropOp34
 70
     1
102
RTVSPost2010Prop35
280
     0
102
RTVSPost2010PropOp35
 70
     1
102
RTVSPost2010Prop36
280
     0
102
RTVSPost2010PropOp36
 70
     1
102
RTVSPost2010Prop37
 90
       50
102
RTVSPost2010PropOp37
 70
     1
102
RTVSPost2010Prop38
140
0.0
102
RTVSPost2010PropOp38
 70
     1
102
RTVSPost2010Prop39
140
1.0
102
RTVSPost2010PropOp39
 70
     1
102
RTVSPost2010Prop40
 90
        0
102
RTVSPost2010PropOp40
 70
     1
102
RTVSPost2010Prop41ColorIndex
 90
       18
102
RTVSPost2010Prop41ColorRGB
 90
        0
102
RTVSPost2010PropOp41
 70
     1
102
RTVSPost2010Prop42
 90
       50
102
RTVSPost2010PropOp42
 70
     1
102
RTVSPost2010Prop43
 90
        3
102
RTVSPost2010PropOp43
 70
     1
102
RTVSPost2010Prop44ColorIndex
 90
        5
102
RTVSPost2010Prop44ColorRGB
 90
      255
102
RTVSPost2010PropOp44
 70
     1
102
RTVSPost2010Prop45
280
     0
102
RTVSPost2010PropOp45
 70
     1
102
RTVSPost2010Prop46
 90
       50
102
RTVSPost2010PropOp46
 70
     1
102
RTVSPost2010Prop47
 90
       50
102
RTVSPost2010PropOp47
 70
     1
102
RTVSPost2010Prop48
 90
       50
102
RTVSPost2010PropOp48
 70
     1
102
RTVSPost2010Prop49
280
     0
102
RTVSPost2010PropOp49
 70
     1
102
RTVSPost2010Prop50
 90
       50
102
RTVSPost2010PropOp50
 70
     1
102
RTVSPost2010Prop51ColorIndex
 90
      256
102
RTVSPost2010Prop51ColorRGB
 90
-16777216
102
RTVSPost2010PropOp51
 70
     0
102
RTVSPost2010Prop52
140
1.0
102
RTVSPost2010PropOp52
 70
     0
102
RTVSPost2010Prop53
 90
        2
102
RTVSPost2010PropOp53
 70
     1
102
RTVSPost2010Prop54
  1
strokes_ogs.tif
102
RTVSPost2010PropOp54
 70
     1
102
RTVSPost2010Prop55
280
     0
102
RTVSPost2010PropOp55
 70
     1
102
RTVSPost2010Prop56
140
1.0
102
RTVSPost2010PropOp56
 70
     1
102
RTVSPost2010Prop57
140
1.0
102
RTVSPost2010PropOp57
 70
     1
  0
XRECORD
  5
39B
102
{ACAD_REACTORS
330
39A
102
}
330
39A
100
AcDbXrecord
280
     1
102
RTVSPropertyOp0
 70
     1
102
RTVSPropertyOp1
 70
     1
102
RTVSPropertyOp2
 70
     1
102
RTVSPropertyOp3
 70
     1
102
RTVSPropertyOp4
 70
     1
102
RTVSPropertyOp5
 70
     1
102
RTVSPropertyOp6
 70
     1
102
RTVSPropertyOp7
 70
     1
102
RTVSPropertyOp8
 70
     1
102
RTVSPropertyOp9
 70
     1
102
RTVSPropertyOp10
 70
     1
102
RTVSPropertyOp11
 70
     1
102
RTVSPropertyOp12
 70
     1
102
RTVSPropertyOp13
 70
     1
102
RTVSPropertyOp14
 70
     1
102
RTVSPropertyOp15
 70
     1
102
RTVSPropertyOp16
 70
     1
102
RTVSPropertyOp17
 70
     1
102
RTVSPropertyOp18
 70
     1
102
RTVSPropertyOp19
 70
     1
102
RTVSPropertyOp20
 70
     1
102
RTVSPropertyOp21
 70
     1
102
RTVSPropertyOp22
 70
     1
102
RTVSPropertyOp23
 70
     1
102
RTVSPropertyOp24
 70
     1
102
RTVSPropertyOp25
 70
     1
102
RTVSPropertyOp26
 70
     1
102
RTVSPropertyOp27
 70
     1
102
RTVSPropertyOp28
 70
     1
102
RTVSPropertyOp29
 70
     1
102
RTVSPropertyOp30
 70
     1
102
RTVSPropertyOp31
 70
     1
102
RTVSPropertyOp32
 70
     1
102
RTVSPropertyOp33
 70
     1
102
RTVSPropertyOp34
 70
     1
102
RTVSPropertyOp35
 70
     1
102
RTVSPropertyOp36
 70
     1
102
RTVSPropertyOp37
 70
     1
102
RTVSPropertyOp38
 70
     1
102
RTVSPropertyOp39
 70
     1
102
RTVSPropertyOp40
 70
     1
102
RTVSPropertyOp41
 70
     1
102
RTVSPropertyOp42
 70
     1
102
RTVSPropertyOp43
 70
     1
102
RTVSPropertyOp44
 70
     1
102
RTVSPropertyOp45
 70
     1
102
RTVSPropertyOp46
 70
     1
102
RTVSPropertyOp47
 70
     1
102
RTVSPropertyOp48
 70
     1
102
RTVSPropertyOp49
 70
     1
102
RTVSPropertyOp50
 70
     1
102
RTVSPropertyOp51
 70
     0
102
RTVSPropertyOp52
 70
     0
102
RTVSPropertyOp53
 70
     1
102
RTVSPropertyOp54
 70
     1
102
RTVSPropertyOp55
 70
     1
102
RTVSPropertyOp56
 70
     1
102
RTVSPropertyOp57
 70
     1
102
RTVSPost2010Prop28
280
     0
102
RTVSPost2010PropOp28
 70
     1
102
RTVSPost2010Prop29
280
     1
102
RTVSPost2010PropOp29
 70
     1
102
RTVSPost2010Prop30
280
     1
102
RTVSPost2010PropOp30
 70
     1
102
RTVSPost2010Prop31
280
     0
102
RTVSPost2010PropOp31
 70
     1
102
RTVSPost2010Prop32
280
     0
102
RTVSPost2010PropOp32
 70
     1
102
RTVSPost2010Prop33
280
     0
102
RTVSPost2010PropOp33
 70
     1
102
RTVSPost2010Prop34
280
     0
102
RTVSPost2010PropOp34
 70
     1
102
RTVSPost2010Prop35
280
     0
102
RTVSPost2010PropOp35
 70
     1
102
RTVSPost2010Prop36
280
     0
102
RTVSPost2010PropOp36
 70
     1
102
RTVSPost2010Prop37
 90
       50
102
RTVSPost2010PropOp37
 70
     1
102
RTVSPost2010Prop38
140
0.0
102
RTVSPost2010PropOp38
 70
     1
102
RTVSPost2010Prop39
140
1.0
102
RTVSPost2010PropOp39
 70
     1
102
RTVSPost2010Prop40
 90
        0
102
RTVSPost2010PropOp40
 70
     1
102
RTVSPost2010Prop41ColorIndex
 90
       18
102
RTVSPost2010Prop41ColorRGB
 90
        0
102
RTVSPost2010PropOp41
 70
     1
102
RTVSPost2010Prop42
 90
       50
102
RTVSPost2010PropOp42
 70
     1
102
RTVSPost2010Prop43
 90
        3
102
RTVSPost2010PropOp43
 70
     1
102
RTVSPost2010Prop44ColorIndex
 90
        5
102
RTVSPost2010Prop44ColorRGB
 90
      255
102
RTVSPost2010PropOp44
 70
     1
102
RTVSPost2010Prop45
280
     0
102
RTVSPost2010PropOp45
 70
     1
102
RTVSPost2010Prop46
 90
       50
102
RTVSPost2010PropOp46
 70
     1
102
RTVSPost2010Prop47
 90
       50
102
RTVSPost2010PropOp47
 70
     1
102
RTVSPost2010Prop48
 90
       50
102
RTVSPost2010PropOp48
 70
     1
102
RTVSPost2010Prop49
280
     0
102
RTVSPost2010PropOp49
 70
     1
102
RTVSPost2010Prop50
 90
       50
102
RTVSPost2010PropOp50
 70
     1
102
RTVSPost2010Prop51ColorIndex
 90
      256
102
RTVSPost2010Prop51ColorRGB
 90
-16777216
102
RTVSPost2010PropOp51
 70
     0
102
RTVSPost2010Prop52
140
1.0
102
RTVSPost2010PropOp52
 70
     0
102
RTVSPost2010Prop53
 90
        2
102
RTVSPost2010PropOp53
 70
     1
102
RTVSPost2010Prop54
  1
strokes_ogs.tif
102
RTVSPost2010PropOp54
 70
     1
102
RTVSPost2010Prop55
280
     0
102
RTVSPost2010PropOp55
 70
     1
102
RTVSPost2010Prop56
140
1.0
102
RTVSPost2010PropOp56
 70
     1
102
RTVSPost2010Prop57
140
1.0
102
RTVSPost2010PropOp57
 70
     1
  0
XRECORD
  5
3AF
102
{ACAD_REACTORS
330
3AE
102
}
330
3AE
100
AcDbXrecord
280
     1
102
RTVSPropertyOp0
 70
     0
102
RTVSPropertyOp1
 70
     0
102
RTVSPropertyOp2
 70
     0
102
RTVSPropertyOp3
 70
     0
102
RTVSPropertyOp4
 70
     0
102
RTVSPropertyOp5
 70
     0
102
RTVSPropertyOp6
 70
     0
102
RTVSPropertyOp7
 70
     0
102
RTVSPropertyOp8
 70
     0
102
RTVSPropertyOp9
 70
     0
102
RTVSPropertyOp10
 70
     0
102
RTVSPropertyOp11
 70
     0
102
RTVSPropertyOp12
 70
     0
102
RTVSPropertyOp13
 70
     0
102
RTVSPropertyOp14
 70
     2
102
RTVSPropertyOp15
 70
     0
102
RTVSPropertyOp16
 70
     0
102
RTVSPropertyOp17
 70
     0
102
RTVSPropertyOp18
 70
     0
102
RTVSPropertyOp19
 70
     0
102
RTVSPropertyOp20
 70
     0
102
RTVSPropertyOp21
 70
     0
102
RTVSPropertyOp22
 70
     0
102
RTVSPropertyOp23
 70
     0
102
RTVSPropertyOp24
 70
     0
102
RTVSPropertyOp25
 70
     0
102
RTVSPropertyOp26
 70
     0
102
RTVSPropertyOp27
 70
     0
102
RTVSPropertyOp28
 70
     0
102
RTVSPropertyOp29
 70
     0
102
RTVSPropertyOp30
 70
     0
102
RTVSPropertyOp31
 70
     0
102
RTVSPropertyOp32
 70
     0
102
RTVSPropertyOp33
 70
     0
102
RTVSPropertyOp34
 70
     0
102
RTVSPropertyOp35
 70
     0
102
RTVSPropertyOp36
 70
     0
102
RTVSPropertyOp37
 70
     0
102
RTVSPropertyOp38
 70
     0
102
RTVSPropertyOp39
 70
     0
102
RTVSPropertyOp40
 70
     0
102
RTVSPropertyOp41
 70
     0
102
RTVSPropertyOp42
 70
     0
102
RTVSPropertyOp43
 70
     0
102
RTVSPropertyOp44
 70
     0
102
RTVSPropertyOp45
 70
     0
102
RTVSPropertyOp46
 70
     0
102
RTVSPropertyOp47
 70
     0
102
RTVSPropertyOp48
 70
     0
102
RTVSPropertyOp49
 70
     0
102
RTVSPropertyOp50
 70
     0
102
RTVSPropertyOp51
 70
     0
102
RTVSPropertyOp52
 70
     0
102
RTVSPropertyOp53
 70
     0
102
RTVSPropertyOp54
 70
     0
102
RTVSPropertyOp55
 70
     0
102
RTVSPropertyOp56
 70
     0
102
RTVSPropertyOp57
 70
     0
102
RTVSPost2010Prop28
280
     0
102
RTVSPost2010PropOp28
 70
     0
102
RTVSPost2010Prop29
280
     1
102
RTVSPost2010PropOp29
 70
     0
102
RTVSPost2010Prop30
280
     1
102
RTVSPost2010PropOp30
 70
     0
102
RTVSPost2010Prop31
280
     0
102
RTVSPost2010PropOp31
 70
     0
102
RTVSPost2010Prop32
280
     0
102
RTVSPost2010PropOp32
 70
     0
102
RTVSPost2010Prop33
280
     0
102
RTVSPost2010PropOp33
 70
     0
102
RTVSPost2010Prop34
280
     0
102
RTVSPost2010PropOp34
 70
     0
102
RTVSPost2010Prop35
280
     0
102
RTVSPost2010PropOp35
 70
     0
102
RTVSPost2010Prop36
280
     0
102
RTVSPost2010PropOp36
 70
     0
102
RTVSPost2010Prop37
 90
       50
102
RTVSPost2010PropOp37
 70
     0
102
RTVSPost2010Prop38
140
0.0
102
RTVSPost2010PropOp38
 70
     0
102
RTVSPost2010Prop39
140
1.0
102
RTVSPost2010PropOp39
 70
     0
102
RTVSPost2010Prop40
 90
        0
102
RTVSPost2010PropOp40
 70
     0
102
RTVSPost2010Prop41ColorIndex
 90
       18
102
RTVSPost2010Prop41ColorRGB
 90
        0
102
RTVSPost2010PropOp41
 70
     0
102
RTVSPost2010Prop42
 90
       50
102
RTVSPost2010PropOp42
 70
     0
102
RTVSPost2010Prop43
 90
        3
102
RTVSPost2010PropOp43
 70
     0
102
RTVSPost2010Prop44ColorIndex
 90
        5
102
RTVSPost2010Prop44ColorRGB
 90
      255
102
RTVSPost2010PropOp44
 70
     0
102
RTVSPost2010Prop45
280
     0
102
RTVSPost2010PropOp45
 70
     0
102
RTVSPost2010Prop46
 90
       50
102
RTVSPost2010PropOp46
 70
     0
102
RTVSPost2010Prop47
 90
       50
102
RTVSPost2010PropOp47
 70
     0
102
RTVSPost2010Prop48
 90
       50
102
RTVSPost2010PropOp48
 70
     0
102
RTVSPost2010Prop49
280
     0
102
RTVSPost2010PropOp49
 70
     0
102
RTVSPost2010Prop50
 90
       50
102
RTVSPost2010PropOp50
 70
     0
102
RTVSPost2010Prop51ColorIndex
 90
      256
102
RTVSPost2010Prop51ColorRGB
 90
-16777216
102
RTVSPost2010PropOp51
 70
     0
102
RTVSPost2010Prop52
140
1.0
102
RTVSPost2010PropOp52
 70
     0
102
RTVSPost2010Prop53
 90
        2
102
RTVSPost2010PropOp53
 70
     0
102
RTVSPost2010Prop54
  1
strokes_ogs.tif
102
RTVSPost2010PropOp54
 70
     0
102
RTVSPost2010Prop55
280
     0
102
RTVSPost2010PropOp55
 70
     0
102
RTVSPost2010Prop56
140
1.0
102
RTVSPost2010PropOp56
 70
     0
102
RTVSPost2010Prop57
140
1.0
102
RTVSPost2010PropOp57
 70
     0
  0
XRECORD
  5
3A9
102
{ACAD_REACTORS
330
3A8
102
}
330
3A8
100
AcDbXrecord
280
     1
102
RTVSPropertyOp0
 70
     1
102
RTVSPropertyOp1
 70
     1
102
RTVSPropertyOp2
 70
     1
102
RTVSPropertyOp3
 70
     1
102
RTVSPropertyOp4
 70
     1
102
RTVSPropertyOp5
 70
     1
102
RTVSPropertyOp6
 70
     1
102
RTVSPropertyOp7
 70
     1
102
RTVSPropertyOp8
 70
     1
102
RTVSPropertyOp9
 70
     1
102
RTVSPropertyOp10
 70
     1
102
RTVSPropertyOp11
 70
     1
102
RTVSPropertyOp12
 70
     1
102
RTVSPropertyOp13
 70
     1
102
RTVSPropertyOp14
 70
     1
102
RTVSPropertyOp15
 70
     1
102
RTVSPropertyOp16
 70
     1
102
RTVSPropertyOp17
 70
     1
102
RTVSPropertyOp18
 70
     1
102
RTVSPropertyOp19
 70
     1
102
RTVSPropertyOp20
 70
     1
102
RTVSPropertyOp21
 70
     1
102
RTVSPropertyOp22
 70
     1
102
RTVSPropertyOp23
 70
     1
102
RTVSPropertyOp24
 70
     1
102
RTVSPropertyOp25
 70
     1
102
RTVSPropertyOp26
 70
     1
102
RTVSPropertyOp27
 70
     1
102
RTVSPropertyOp28
 70
     1
102
RTVSPropertyOp29
 70
     1
102
RTVSPropertyOp30
 70
     1
102
RTVSPropertyOp31
 70
     1
102
RTVSPropertyOp32
 70
     1
102
RTVSPropertyOp33
 70
     1
102
RTVSPropertyOp34
 70
     1
102
RTVSPropertyOp35
 70
     1
102
RTVSPropertyOp36
 70
     1
102
RTVSPropertyOp37
 70
     1
102
RTVSPropertyOp38
 70
     1
102
RTVSPropertyOp39
 70
     1
102
RTVSPropertyOp40
 70
     1
102
RTVSPropertyOp41
 70
     1
102
RTVSPropertyOp42
 70
     1
102
RTVSPropertyOp43
 70
     1
102
RTVSPropertyOp44
 70
     1
102
RTVSPropertyOp45
 70
     1
102
RTVSPropertyOp46
 70
     1
102
RTVSPropertyOp47
 70
     1
102
RTVSPropertyOp48
 70
     1
102
RTVSPropertyOp49
 70
     1
102
RTVSPropertyOp50
 70
     1
102
RTVSPropertyOp51
 70
     0
102
RTVSPropertyOp52
 70
     0
102
RTVSPropertyOp53
 70
     1
102
RTVSPropertyOp54
 70
     1
102
RTVSPropertyOp55
 70
     1
102
RTVSPropertyOp56
 70
     1
102
RTVSPropertyOp57
 70
     1
102
RTVSPost2010Prop28
280
     0
102
RTVSPost2010PropOp28
 70
     1
102
RTVSPost2010Prop29
280
     1
102
RTVSPost2010PropOp29
 70
     1
102
RTVSPost2010Prop30
280
     1
102
RTVSPost2010PropOp30
 70
     1
102
RTVSPost2010Prop31
280
     0
102
RTVSPost2010PropOp31
 70
     1
102
RTVSPost2010Prop32
280
     0
102
RTVSPost2010PropOp32
 70
     1
102
RTVSPost2010Prop33
280
     0
102
RTVSPost2010PropOp33
 70
     1
102
RTVSPost2010Prop34
280
     0
102
RTVSPost2010PropOp34
 70
     1
102
RTVSPost2010Prop35
280
     0
102
RTVSPost2010PropOp35
 70
     1
102
RTVSPost2010Prop36
280
     0
102
RTVSPost2010PropOp36
 70
     1
102
RTVSPost2010Prop37
 90
       50
102
RTVSPost2010PropOp37
 70
     1
102
RTVSPost2010Prop38
140
0.0
102
RTVSPost2010PropOp38
 70
     1
102
RTVSPost2010Prop39
140
1.0
102
RTVSPost2010PropOp39
 70
     1
102
RTVSPost2010Prop40
 90
        0
102
RTVSPost2010PropOp40
 70
     1
102
RTVSPost2010Prop41ColorIndex
 90
       18
102
RTVSPost2010Prop41ColorRGB
 90
        0
102
RTVSPost2010PropOp41
 70
     1
102
RTVSPost2010Prop42
 90
       50
102
RTVSPost2010PropOp42
 70
     1
102
RTVSPost2010Prop43
 90
        3
102
RTVSPost2010PropOp43
 70
     1
102
RTVSPost2010Prop44ColorIndex
 90
        5
102
RTVSPost2010Prop44ColorRGB
 90
      255
102
RTVSPost2010PropOp44
 70
     1
102
RTVSPost2010Prop45
280
     0
102
RTVSPost2010PropOp45
 70
     1
102
RTVSPost2010Prop46
 90
       50
102
RTVSPost2010PropOp46
 70
     1
102
RTVSPost2010Prop47
 90
       50
102
RTVSPost2010PropOp47
 70
     1
102
RTVSPost2010Prop48
 90
       50
102
RTVSPost2010PropOp48
 70
     1
102
RTVSPost2010Prop49
280
     0
102
RTVSPost2010PropOp49
 70
     1
102
RTVSPost2010Prop50
 90
       50
102
RTVSPost2010PropOp50
 70
     1
102
RTVSPost2010Prop51ColorIndex
 90
      256
102
RTVSPost2010Prop51ColorRGB
 90
-16777216
102
RTVSPost2010PropOp51
 70
     0
102
RTVSPost2010Prop52
140
1.0
102
RTVSPost2010PropOp52
 70
     0
102
RTVSPost2010Prop53
 90
        2
102
RTVSPost2010PropOp53
 70
     1
102
RTVSPost2010Prop54
  1
strokes_ogs.tif
102
RTVSPost2010PropOp54
 70
     1
102
RTVSPost2010Prop55
280
     0
102
RTVSPost2010PropOp55
 70
     1
102
RTVSPost2010Prop56
140
1.0
102
RTVSPost2010PropOp56
 70
     1
102
RTVSPost2010Prop57
140
1.0
102
RTVSPost2010PropOp57
 70
     1
  0
XRECORD
  5
3B1
102
{ACAD_REACTORS
330
3B0
102
}
330
3B0
100
AcDbXrecord
280
     1
102
RTVSPropertyOp0
 70
     0
102
RTVSPropertyOp1
 70
     0
102
RTVSPropertyOp2
 70
     0
102
RTVSPropertyOp3
 70
     0
102
RTVSPropertyOp4
 70
     0
102
RTVSPropertyOp5
 70
     0
102
RTVSPropertyOp6
 70
     0
102
RTVSPropertyOp7
 70
     0
102
RTVSPropertyOp8
 70
     0
102
RTVSPropertyOp9
 70
     0
102
RTVSPropertyOp10
 70
     0
102
RTVSPropertyOp11
 70
     0
102
RTVSPropertyOp12
 70
     0
102
RTVSPropertyOp13
 70
     0
102
RTVSPropertyOp14
 70
     2
102
RTVSPropertyOp15
 70
     0
102
RTVSPropertyOp16
 70
     0
102
RTVSPropertyOp17
 70
     0
102
RTVSPropertyOp18
 70
     0
102
RTVSPropertyOp19
 70
     0
102
RTVSPropertyOp20
 70
     0
102
RTVSPropertyOp21
 70
     0
102
RTVSPropertyOp22
 70
     0
102
RTVSPropertyOp23
 70
     0
102
RTVSPropertyOp24
 70
     0
102
RTVSPropertyOp25
 70
     0
102
RTVSPropertyOp26
 70
     0
102
RTVSPropertyOp27
 70
     0
102
RTVSPropertyOp28
 70
     0
102
RTVSPropertyOp29
 70
     0
102
RTVSPropertyOp30
 70
     0
102
RTVSPropertyOp31
 70
     0
102
RTVSPropertyOp32
 70
     0
102
RTVSPropertyOp33
 70
     0
102
RTVSPropertyOp34
 70
     0
102
RTVSPropertyOp35
 70
     0
102
RTVSPropertyOp36
 70
     0
102
RTVSPropertyOp37
 70
     0
102
RTVSPropertyOp38
 70
     0
102
RTVSPropertyOp39
 70
     0
102
RTVSPropertyOp40
 70
     0
102
RTVSPropertyOp41
 70
     0
102
RTVSPropertyOp42
 70
     0
102
RTVSPropertyOp43
 70
     0
102
RTVSPropertyOp44
 70
     0
102
RTVSPropertyOp45
 70
     0
102
RTVSPropertyOp46
 70
     0
102
RTVSPropertyOp47
 70
     0
102
RTVSPropertyOp48
 70
     0
102
RTVSPropertyOp49
 70
     0
102
RTVSPropertyOp50
 70
     0
102
RTVSPropertyOp51
 70
     0
102
RTVSPropertyOp52
 70
     0
102
RTVSPropertyOp53
 70
     0
102
RTVSPropertyOp54
 70
     0
102
RTVSPropertyOp55
 70
     0
102
RTVSPropertyOp56
 70
     0
102
RTVSPropertyOp57
 70
     0
102
RTVSPost2010Prop28
280
     0
102
RTVSPost2010PropOp28
 70
     0
102
RTVSPost2010Prop29
280
     1
102
RTVSPost2010PropOp29
 70
     0
102
RTVSPost2010Prop30
280
     1
102
RTVSPost2010PropOp30
 70
     0
102
RTVSPost2010Prop31
280
     0
102
RTVSPost2010PropOp31
 70
     0
102
RTVSPost2010Prop32
280
     0
102
RTVSPost2010PropOp32
 70
     0
102
RTVSPost2010Prop33
280
     0
102
RTVSPost2010PropOp33
 70
     0
102
RTVSPost2010Prop34
280
     0
102
RTVSPost2010PropOp34
 70
     0
102
RTVSPost2010Prop35
280
     0
102
RTVSPost2010PropOp35
 70
     0
102
RTVSPost2010Prop36
280
     0
102
RTVSPost2010PropOp36
 70
     0
102
RTVSPost2010Prop37
 90
       50
102
RTVSPost2010PropOp37
 70
     0
102
RTVSPost2010Prop38
140
0.0
102
RTVSPost2010PropOp38
 70
     0
102
RTVSPost2010Prop39
140
1.0
102
RTVSPost2010PropOp39
 70
     0
102
RTVSPost2010Prop40
 90
        0
102
RTVSPost2010PropOp40
 70
     0
102
RTVSPost2010Prop41ColorIndex
 90
       18
102
RTVSPost2010Prop41ColorRGB
 90
        0
102
RTVSPost2010PropOp41
 70
     0
102
RTVSPost2010Prop42
 90
       50
102
RTVSPost2010PropOp42
 70
     0
102
RTVSPost2010Prop43
 90
        3
102
RTVSPost2010PropOp43
 70
     0
102
RTVSPost2010Prop44ColorIndex
 90
        5
102
RTVSPost2010Prop44ColorRGB
 90
      255
102
RTVSPost2010PropOp44
 70
     0
102
RTVSPost2010Prop45
280
     0
102
RTVSPost2010PropOp45
 70
     0
102
RTVSPost2010Prop46
 90
       50
102
RTVSPost2010PropOp46
 70
     0
102
RTVSPost2010Prop47
 90
       50
102
RTVSPost2010PropOp47
 70
     0
102
RTVSPost2010Prop48
 90
       50
102
RTVSPost2010PropOp48
 70
     0
102
RTVSPost2010Prop49
280
     0
102
RTVSPost2010PropOp49
 70
     0
102
RTVSPost2010Prop50
 90
       50
102
RTVSPost2010PropOp50
 70
     0
102
RTVSPost2010Prop51ColorIndex
 90
      256
102
RTVSPost2010Prop51ColorRGB
 90
-16777216
102
RTVSPost2010PropOp51
 70
     0
102
RTVSPost2010Prop52
140
1.0
102
RTVSPost2010PropOp52
 70
     0
102
RTVSPost2010Prop53
 90
        2
102
RTVSPost2010PropOp53
 70
     0
102
RTVSPost2010Prop54
  1
strokes_ogs.tif
102
RTVSPost2010PropOp54
 70
     0
102
RTVSPost2010Prop55
280
     0
102
RTVSPost2010PropOp55
 70
     0
102
RTVSPost2010Prop56
140
1.0
102
RTVSPost2010PropOp56
 70
     0
102
RTVSPost2010Prop57
140
1.0
102
RTVSPost2010PropOp57
 70
     0
  0
XRECORD
  5
39F
102
{ACAD_REACTORS
330
39E
102
}
330
39E
100
AcDbXrecord
280
     1
102
RTVSPropertyOp0
 70
     1
102
RTVSPropertyOp1
 70
     1
102
RTVSPropertyOp2
 70
     1
102
RTVSPropertyOp3
 70
     1
102
RTVSPropertyOp4
 70
     1
102
RTVSPropertyOp5
 70
     1
102
RTVSPropertyOp6
 70
     1
102
RTVSPropertyOp7
 70
     1
102
RTVSPropertyOp8
 70
     1
102
RTVSPropertyOp9
 70
     1
102
RTVSPropertyOp10
 70
     1
102
RTVSPropertyOp11
 70
     1
102
RTVSPropertyOp12
 70
     1
102
RTVSPropertyOp13
 70
     1
102
RTVSPropertyOp14
 70
     1
102
RTVSPropertyOp15
 70
     1
102
RTVSPropertyOp16
 70
     1
102
RTVSPropertyOp17
 70
     1
102
RTVSPropertyOp18
 70
     1
102
RTVSPropertyOp19
 70
     1
102
RTVSPropertyOp20
 70
     1
102
RTVSPropertyOp21
 70
     1
102
RTVSPropertyOp22
 70
     1
102
RTVSPropertyOp23
 70
     1
102
RTVSPropertyOp24
 70
     1
102
RTVSPropertyOp25
 70
     1
102
RTVSPropertyOp26
 70
     1
102
RTVSPropertyOp27
 70
     1
102
RTVSPropertyOp28
 70
     1
102
RTVSPropertyOp29
 70
     1
102
RTVSPropertyOp30
 70
     1
102
RTVSPropertyOp31
 70
     1
102
RTVSPropertyOp32
 70
     1
102
RTVSPropertyOp33
 70
     1
102
RTVSPropertyOp34
 70
     1
102
RTVSPropertyOp35
 70
     1
102
RTVSPropertyOp36
 70
     1
102
RTVSPropertyOp37
 70
     1
102
RTVSPropertyOp38
 70
     1
102
RTVSPropertyOp39
 70
     1
102
RTVSPropertyOp40
 70
     1
102
RTVSPropertyOp41
 70
     1
102
RTVSPropertyOp42
 70
     1
102
RTVSPropertyOp43
 70
     1
102
RTVSPropertyOp44
 70
     1
102
RTVSPropertyOp45
 70
     1
102
RTVSPropertyOp46
 70
     1
102
RTVSPropertyOp47
 70
     1
102
RTVSPropertyOp48
 70
     1
102
RTVSPropertyOp49
 70
     1
102
RTVSPropertyOp50
 70
     1
102
RTVSPropertyOp51
 70
     0
102
RTVSPropertyOp52
 70
     0
102
RTVSPropertyOp53
 70
     1
102
RTVSPropertyOp54
 70
     1
102
RTVSPropertyOp55
 70
     1
102
RTVSPropertyOp56
 70
     1
102
RTVSPropertyOp57
 70
     1
102
RTVSPost2010Prop28
280
     0
102
RTVSPost2010PropOp28
 70
     1
102
RTVSPost2010Prop29
280
     1
102
RTVSPost2010PropOp29
 70
     1
102
RTVSPost2010Prop30
280
     1
102
RTVSPost2010PropOp30
 70
     1
102
RTVSPost2010Prop31
280
     0
102
RTVSPost2010PropOp31
 70
     1
102
RTVSPost2010Prop32
280
     0
102
RTVSPost2010PropOp32
 70
     1
102
RTVSPost2010Prop33
280
     0
102
RTVSPost2010PropOp33
 70
     1
102
RTVSPost2010Prop34
280
     0
102
RTVSPost2010PropOp34
 70
     1
102
RTVSPost2010Prop35
280
     0
102
RTVSPost2010PropOp35
 70
     1
102
RTVSPost2010Prop36
280
     0
102
RTVSPost2010PropOp36
 70
     1
102
RTVSPost2010Prop37
 90
       50
102
RTVSPost2010PropOp37
 70
     1
102
RTVSPost2010Prop38
140
0.0
102
RTVSPost2010PropOp38
 70
     1
102
RTVSPost2010Prop39
140
1.0
102
RTVSPost2010PropOp39
 70
     1
102
RTVSPost2010Prop40
 90
        0
102
RTVSPost2010PropOp40
 70
     1
102
RTVSPost2010Prop41ColorIndex
 90
       18
102
RTVSPost2010Prop41ColorRGB
 90
        0
102
RTVSPost2010PropOp41
 70
     1
102
RTVSPost2010Prop42
 90
       50
102
RTVSPost2010PropOp42
 70
     1
102
RTVSPost2010Prop43
 90
        3
102
RTVSPost2010PropOp43
 70
     1
102
RTVSPost2010Prop44ColorIndex
 90
        5
102
RTVSPost2010Prop44ColorRGB
 90
      255
102
RTVSPost2010PropOp44
 70
     1
102
RTVSPost2010Prop45
280
     0
102
RTVSPost2010PropOp45
 70
     1
102
RTVSPost2010Prop46
 90
       50
102
RTVSPost2010PropOp46
 70
     1
102
RTVSPost2010Prop47
 90
       50
102
RTVSPost2010PropOp47
 70
     1
102
RTVSPost2010Prop48
 90
       50
102
RTVSPost2010PropOp48
 70
     1
102
RTVSPost2010Prop49
280
     0
102
RTVSPost2010PropOp49
 70
     1
102
RTVSPost2010Prop50
 90
       50
102
RTVSPost2010PropOp50
 70
     1
102
RTVSPost2010Prop51ColorIndex
 90
      256
102
RTVSPost2010Prop51ColorRGB
 90
-16777216
102
RTVSPost2010PropOp51
 70
     0
102
RTVSPost2010Prop52
140
1.0
102
RTVSPost2010PropOp52
 70
     0
102
RTVSPost2010Prop53
 90
        2
102
RTVSPost2010PropOp53
 70
     1
102
RTVSPost2010Prop54
  1
strokes_ogs.tif
102
RTVSPost2010PropOp54
 70
     1
102
RTVSPost2010Prop55
280
     0
102
RTVSPost2010PropOp55
 70
     1
102
RTVSPost2010Prop56
140
1.0
102
RTVSPost2010PropOp56
 70
     1
102
RTVSPost2010Prop57
140
1.0
102
RTVSPost2010PropOp57
 70
     1
  0
XRECORD
  5
3BD
102
{ACAD_REACTORS
330
3BC
102
}
330
3BC
100
AcDbXrecord
280
     1
102
RTVSPropertyOp0
 70
     1
102
RTVSPropertyOp1
 70
     1
102
RTVSPropertyOp2
 70
     1
102
RTVSPropertyOp3
 70
     1
102
RTVSPropertyOp4
 70
     1
102
RTVSPropertyOp5
 70
     1
102
RTVSPropertyOp6
 70
     1
102
RTVSPropertyOp7
 70
     1
102
RTVSPropertyOp8
 70
     1
102
RTVSPropertyOp9
 70
     1
102
RTVSPropertyOp10
 70
     1
102
RTVSPropertyOp11
 70
     1
102
RTVSPropertyOp12
 70
     1
102
RTVSPropertyOp13
 70
     1
102
RTVSPropertyOp14
 70
     1
102
RTVSPropertyOp15
 70
     1
102
RTVSPropertyOp16
 70
     1
102
RTVSPropertyOp17
 70
     1
102
RTVSPropertyOp18
 70
     1
102
RTVSPropertyOp19
 70
     1
102
RTVSPropertyOp20
 70
     1
102
RTVSPropertyOp21
 70
     1
102
RTVSPropertyOp22
 70
     1
102
RTVSPropertyOp23
 70
     1
102
RTVSPropertyOp24
 70
     1
102
RTVSPropertyOp25
 70
     1
102
RTVSPropertyOp26
 70
     1
102
RTVSPropertyOp27
 70
     1
102
RTVSPropertyOp28
 70
     1
102
RTVSPropertyOp29
 70
     1
102
RTVSPropertyOp30
 70
     1
102
RTVSPropertyOp31
 70
     1
102
RTVSPropertyOp32
 70
     1
102
RTVSPropertyOp33
 70
     1
102
RTVSPropertyOp34
 70
     1
102
RTVSPropertyOp35
 70
     1
102
RTVSPropertyOp36
 70
     1
102
RTVSPropertyOp37
 70
     1
102
RTVSPropertyOp38
 70
     1
102
RTVSPropertyOp39
 70
     1
102
RTVSPropertyOp40
 70
     1
102
RTVSPropertyOp41
 70
     1
102
RTVSPropertyOp42
 70
     1
102
RTVSPropertyOp43
 70
     1
102
RTVSPropertyOp44
 70
     1
102
RTVSPropertyOp45
 70
     1
102
RTVSPropertyOp46
 70
     1
102
RTVSPropertyOp47
 70
     1
102
RTVSPropertyOp48
 70
     1
102
RTVSPropertyOp49
 70
     1
102
RTVSPropertyOp50
 70
     1
102
RTVSPropertyOp51
 70
     0
102
RTVSPropertyOp52
 70
     0
102
RTVSPropertyOp53
 70
     1
102
RTVSPropertyOp54
 70
     1
102
RTVSPropertyOp55
 70
     1
102
RTVSPropertyOp56
 70
     1
102
RTVSPropertyOp57
 70
     1
102
RTVSPost2010Prop28
280
     0
102
RTVSPost2010PropOp28
 70
     1
102
RTVSPost2010Prop29
280
     1
102
RTVSPost2010PropOp29
 70
     1
102
RTVSPost2010Prop30
280
     1
102
RTVSPost2010PropOp30
 70
     1
102
RTVSPost2010Prop31
280
     0
102
RTVSPost2010PropOp31
 70
     1
102
RTVSPost2010Prop32
280
     0
102
RTVSPost2010PropOp32
 70
     1
102
RTVSPost2010Prop33
280
     0
102
RTVSPost2010PropOp33
 70
     1
102
RTVSPost2010Prop34
280
     0
102
RTVSPost2010PropOp34
 70
     1
102
RTVSPost2010Prop35
280
     0
102
RTVSPost2010PropOp35
 70
     1
102
RTVSPost2010Prop36
280
     0
102
RTVSPost2010PropOp36
 70
     1
102
RTVSPost2010Prop37
 90
       50
102
RTVSPost2010PropOp37
 70
     1
102
RTVSPost2010Prop38
140
0.0
102
RTVSPost2010PropOp38
 70
     1
102
RTVSPost2010Prop39
140
1.0
102
RTVSPost2010PropOp39
 70
     1
102
RTVSPost2010Prop40
 90
        0
102
RTVSPost2010PropOp40
 70
     1
102
RTVSPost2010Prop41ColorIndex
 90
       18
102
RTVSPost2010Prop41ColorRGB
 90
        0
102
RTVSPost2010PropOp41
 70
     1
102
RTVSPost2010Prop42
 90
       50
102
RTVSPost2010PropOp42
 70
     1
102
RTVSPost2010Prop43
 90
        3
102
RTVSPost2010PropOp43
 70
     1
102
RTVSPost2010Prop44ColorIndex
 90
        5
102
RTVSPost2010Prop44ColorRGB
 90
      255
102
RTVSPost2010PropOp44
 70
     1
102
RTVSPost2010Prop45
280
     0
102
RTVSPost2010PropOp45
 70
     1
102
RTVSPost2010Prop46
 90
       50
102
RTVSPost2010PropOp46
 70
     1
102
RTVSPost2010Prop47
 90
       50
102
RTVSPost2010PropOp47
 70
     1
102
RTVSPost2010Prop48
 90
       50
102
RTVSPost2010PropOp48
 70
     1
102
RTVSPost2010Prop49
280
     0
102
RTVSPost2010PropOp49
 70
     1
102
RTVSPost2010Prop50
 90
       50
102
RTVSPost2010PropOp50
 70
     1
102
RTVSPost2010Prop51ColorIndex
 90
      256
102
RTVSPost2010Prop51ColorRGB
 90
-16777216
102
RTVSPost2010PropOp51
 70
     0
102
RTVSPost2010Prop52
140
1.0
102
RTVSPost2010PropOp52
 70
     0
102
RTVSPost2010Prop53
 90
        2
102
RTVSPost2010PropOp53
 70
     1
102
RTVSPost2010Prop54
  1
strokes_ogs.tif
102
RTVSPost2010PropOp54
 70
     1
102
RTVSPost2010Prop55
280
     0
102
RTVSPost2010PropOp55
 70
     1
102
RTVSPost2010Prop56
140
1.0
102
RTVSPost2010PropOp56
 70
     1
102
RTVSPost2010Prop57
140
1.0
102
RTVSPost2010PropOp57
 70
     1
  0
XRECORD
  5
3BB
102
{ACAD_REACTORS
330
3BA
102
}
330
3BA
100
AcDbXrecord
280
     1
102
RTVSPropertyOp0
 70
     1
102
RTVSPropertyOp1
 70
     1
102
RTVSPropertyOp2
 70
     1
102
RTVSPropertyOp3
 70
     1
102
RTVSPropertyOp4
 70
     1
102
RTVSPropertyOp5
 70
     1
102
RTVSPropertyOp6
 70
     1
102
RTVSPropertyOp7
 70
     1
102
RTVSPropertyOp8
 70
     1
102
RTVSPropertyOp9
 70
     1
102
RTVSPropertyOp10
 70
     1
102
RTVSPropertyOp11
 70
     1
102
RTVSPropertyOp12
 70
     1
102
RTVSPropertyOp13
 70
     1
102
RTVSPropertyOp14
 70
     1
102
RTVSPropertyOp15
 70
     1
102
RTVSPropertyOp16
 70
     1
102
RTVSPropertyOp17
 70
     1
102
RTVSPropertyOp18
 70
     1
102
RTVSPropertyOp19
 70
     1
102
RTVSPropertyOp20
 70
     1
102
RTVSPropertyOp21
 70
     1
102
RTVSPropertyOp22
 70
     1
102
RTVSPropertyOp23
 70
     1
102
RTVSPropertyOp24
 70
     1
102
RTVSPropertyOp25
 70
     1
102
RTVSPropertyOp26
 70
     1
102
RTVSPropertyOp27
 70
     1
102
RTVSPropertyOp28
 70
     1
102
RTVSPropertyOp29
 70
     1
102
RTVSPropertyOp30
 70
     1
102
RTVSPropertyOp31
 70
     1
102
RTVSPropertyOp32
 70
     1
102
RTVSPropertyOp33
 70
     1
102
RTVSPropertyOp34
 70
     1
102
RTVSPropertyOp35
 70
     1
102
RTVSPropertyOp36
 70
     1
102
RTVSPropertyOp37
 70
     1
102
RTVSPropertyOp38
 70
     1
102
RTVSPropertyOp39
 70
     1
102
RTVSPropertyOp40
 70
     1
102
RTVSPropertyOp41
 70
     1
102
RTVSPropertyOp42
 70
     1
102
RTVSPropertyOp43
 70
     1
102
RTVSPropertyOp44
 70
     1
102
RTVSPropertyOp45
 70
     1
102
RTVSPropertyOp46
 70
     1
102
RTVSPropertyOp47
 70
     1
102
RTVSPropertyOp48
 70
     1
102
RTVSPropertyOp49
 70
     1
102
RTVSPropertyOp50
 70
     1
102
RTVSPropertyOp51
 70
     0
102
RTVSPropertyOp52
 70
     0
102
RTVSPropertyOp53
 70
     1
102
RTVSPropertyOp54
 70
     1
102
RTVSPropertyOp55
 70
     1
102
RTVSPropertyOp56
 70
     1
102
RTVSPropertyOp57
 70
     1
102
RTVSPost2010Prop28
280
     0
102
RTVSPost2010PropOp28
 70
     1
102
RTVSPost2010Prop29
280
     1
102
RTVSPost2010PropOp29
 70
     1
102
RTVSPost2010Prop30
280
     1
102
RTVSPost2010PropOp30
 70
     1
102
RTVSPost2010Prop31
280
     0
102
RTVSPost2010PropOp31
 70
     1
102
RTVSPost2010Prop32
280
     0
102
RTVSPost2010PropOp32
 70
     1
102
RTVSPost2010Prop33
280
     0
102
RTVSPost2010PropOp33
 70
     1
102
RTVSPost2010Prop34
280
     0
102
RTVSPost2010PropOp34
 70
     1
102
RTVSPost2010Prop35
280
     0
102
RTVSPost2010PropOp35
 70
     1
102
RTVSPost2010Prop36
280
     0
102
RTVSPost2010PropOp36
 70
     1
102
RTVSPost2010Prop37
 90
       50
102
RTVSPost2010PropOp37
 70
     1
102
RTVSPost2010Prop38
140
0.0
102
RTVSPost2010PropOp38
 70
     1
102
RTVSPost2010Prop39
140
1.0
102
RTVSPost2010PropOp39
 70
     1
102
RTVSPost2010Prop40
 90
        0
102
RTVSPost2010PropOp40
 70
     1
102
RTVSPost2010Prop41ColorIndex
 90
       18
102
RTVSPost2010Prop41ColorRGB
 90
        0
102
RTVSPost2010PropOp41
 70
     1
102
RTVSPost2010Prop42
 90
       50
102
RTVSPost2010PropOp42
 70
     1
102
RTVSPost2010Prop43
 90
        3
102
RTVSPost2010PropOp43
 70
     1
102
RTVSPost2010Prop44ColorIndex
 90
        5
102
RTVSPost2010Prop44ColorRGB
 90
      255
102
RTVSPost2010PropOp44
 70
     1
102
RTVSPost2010Prop45
280
     0
102
RTVSPost2010PropOp45
 70
     1
102
RTVSPost2010Prop46
 90
       50
102
RTVSPost2010PropOp46
 70
     1
102
RTVSPost2010Prop47
 90
       50
102
RTVSPost2010PropOp47
 70
     1
102
RTVSPost2010Prop48
 90
       50
102
RTVSPost2010PropOp48
 70
     1
102
RTVSPost2010Prop49
280
     0
102
RTVSPost2010PropOp49
 70
     1
102
RTVSPost2010Prop50
 90
       50
102
RTVSPost2010PropOp50
 70
     1
102
RTVSPost2010Prop51ColorIndex
 90
      256
102
RTVSPost2010Prop51ColorRGB
 90
-16777216
102
RTVSPost2010PropOp51
 70
     0
102
RTVSPost2010Prop52
140
1.0
102
RTVSPost2010PropOp52
 70
     0
102
RTVSPost2010Prop53
 90
        2
102
RTVSPost2010PropOp53
 70
     1
102
RTVSPost2010Prop54
  1
strokes_ogs.tif
102
RTVSPost2010PropOp54
 70
     1
102
RTVSPost2010Prop55
280
     0
102
RTVSPost2010PropOp55
 70
     1
102
RTVSPost2010Prop56
140
1.0
102
RTVSPost2010PropOp56
 70
     1
102
RTVSPost2010Prop57
140
1.0
102
RTVSPost2010PropOp57
 70
     1
  0
XRECORD
  5
3B5
102
{ACAD_REACTORS
330
3B4
102
}
330
3B4
100
AcDbXrecord
280
     1
102
RTVSPropertyOp0
 70
     1
102
RTVSPropertyOp1
 70
     1
102
RTVSPropertyOp2
 70
     1
102
RTVSPropertyOp3
 70
     1
102
RTVSPropertyOp4
 70
     1
102
RTVSPropertyOp5
 70
     1
102
RTVSPropertyOp6
 70
     1
102
RTVSPropertyOp7
 70
     1
102
RTVSPropertyOp8
 70
     1
102
RTVSPropertyOp9
 70
     1
102
RTVSPropertyOp10
 70
     1
102
RTVSPropertyOp11
 70
     1
102
RTVSPropertyOp12
 70
     1
102
RTVSPropertyOp13
 70
     1
102
RTVSPropertyOp14
 70
     1
102
RTVSPropertyOp15
 70
     1
102
RTVSPropertyOp16
 70
     1
102
RTVSPropertyOp17
 70
     1
102
RTVSPropertyOp18
 70
     1
102
RTVSPropertyOp19
 70
     1
102
RTVSPropertyOp20
 70
     1
102
RTVSPropertyOp21
 70
     1
102
RTVSPropertyOp22
 70
     1
102
RTVSPropertyOp23
 70
     1
102
RTVSPropertyOp24
 70
     1
102
RTVSPropertyOp25
 70
     1
102
RTVSPropertyOp26
 70
     1
102
RTVSPropertyOp27
 70
     1
102
RTVSPropertyOp28
 70
     1
102
RTVSPropertyOp29
 70
     1
102
RTVSPropertyOp30
 70
     1
102
RTVSPropertyOp31
 70
     1
102
RTVSPropertyOp32
 70
     1
102
RTVSPropertyOp33
 70
     1
102
RTVSPropertyOp34
 70
     1
102
RTVSPropertyOp35
 70
     1
102
RTVSPropertyOp36
 70
     1
102
RTVSPropertyOp37
 70
     1
102
RTVSPropertyOp38
 70
     1
102
RTVSPropertyOp39
 70
     1
102
RTVSPropertyOp40
 70
     1
102
RTVSPropertyOp41
 70
     1
102
RTVSPropertyOp42
 70
     1
102
RTVSPropertyOp43
 70
     1
102
RTVSPropertyOp44
 70
     1
102
RTVSPropertyOp45
 70
     1
102
RTVSPropertyOp46
 70
     1
102
RTVSPropertyOp47
 70
     1
102
RTVSPropertyOp48
 70
     1
102
RTVSPropertyOp49
 70
     1
102
RTVSPropertyOp50
 70
     1
102
RTVSPropertyOp51
 70
     0
102
RTVSPropertyOp52
 70
     0
102
RTVSPropertyOp53
 70
     1
102
RTVSPropertyOp54
 70
     1
102
RTVSPropertyOp55
 70
     1
102
RTVSPropertyOp56
 70
     1
102
RTVSPropertyOp57
 70
     1
102
RTVSPost2010Prop28
280
     0
102
RTVSPost2010PropOp28
 70
     1
102
RTVSPost2010Prop29
280
     1
102
RTVSPost2010PropOp29
 70
     1
102
RTVSPost2010Prop30
280
     1
102
RTVSPost2010PropOp30
 70
     1
102
RTVSPost2010Prop31
280
     0
102
RTVSPost2010PropOp31
 70
     1
102
RTVSPost2010Prop32
280
     0
102
RTVSPost2010PropOp32
 70
     1
102
RTVSPost2010Prop33
280
     0
102
RTVSPost2010PropOp33
 70
     1
102
RTVSPost2010Prop34
280
     0
102
RTVSPost2010PropOp34
 70
     1
102
RTVSPost2010Prop35
280
     0
102
RTVSPost2010PropOp35
 70
     1
102
RTVSPost2010Prop36
280
     0
102
RTVSPost2010PropOp36
 70
     1
102
RTVSPost2010Prop37
 90
       50
102
RTVSPost2010PropOp37
 70
     1
102
RTVSPost2010Prop38
140
0.0
102
RTVSPost2010PropOp38
 70
     1
102
RTVSPost2010Prop39
140
1.0
102
RTVSPost2010PropOp39
 70
     1
102
RTVSPost2010Prop40
 90
        0
102
RTVSPost2010PropOp40
 70
     1
102
RTVSPost2010Prop41ColorIndex
 90
       18
102
RTVSPost2010Prop41ColorRGB
 90
        0
102
RTVSPost2010PropOp41
 70
     1
102
RTVSPost2010Prop42
 90
       50
102
RTVSPost2010PropOp42
 70
     1
102
RTVSPost2010Prop43
 90
        3
102
RTVSPost2010PropOp43
 70
     1
102
RTVSPost2010Prop44ColorIndex
 90
        5
102
RTVSPost2010Prop44ColorRGB
 90
      255
102
RTVSPost2010PropOp44
 70
     1
102
RTVSPost2010Prop45
280
     0
102
RTVSPost2010PropOp45
 70
     1
102
RTVSPost2010Prop46
 90
       50
102
RTVSPost2010PropOp46
 70
     1
102
RTVSPost2010Prop47
 90
       50
102
RTVSPost2010PropOp47
 70
     1
102
RTVSPost2010Prop48
 90
       50
102
RTVSPost2010PropOp48
 70
     1
102
RTVSPost2010Prop49
280
     0
102
RTVSPost2010PropOp49
 70
     1
102
RTVSPost2010Prop50
 90
       50
102
RTVSPost2010PropOp50
 70
     1
102
RTVSPost2010Prop51ColorIndex
 90
      256
102
RTVSPost2010Prop51ColorRGB
 90
-16777216
102
RTVSPost2010PropOp51
 70
     0
102
RTVSPost2010Prop52
140
1.0
102
RTVSPost2010PropOp52
 70
     0
102
RTVSPost2010Prop53
 90
        2
102
RTVSPost2010PropOp53
 70
     1
102
RTVSPost2010Prop54
  1
strokes_ogs.tif
102
RTVSPost2010PropOp54
 70
     1
102
RTVSPost2010Prop55
280
     0
102
RTVSPost2010PropOp55
 70
     1
102
RTVSPost2010Prop56
140
1.0
102
RTVSPost2010PropOp56
 70
     1
102
RTVSPost2010Prop57
140
1.0
102
RTVSPost2010PropOp57
 70
     1
  0
XRECORD
  5
3B7
102
{ACAD_REACTORS
330
3B6
102
}
330
3B6
100
AcDbXrecord
280
     1
102
RTVSPropertyOp0
 70
     1
102
RTVSPropertyOp1
 70
     1
102
RTVSPropertyOp2
 70
     1
102
RTVSPropertyOp3
 70
     1
102
RTVSPropertyOp4
 70
     1
102
RTVSPropertyOp5
 70
     1
102
RTVSPropertyOp6
 70
     1
102
RTVSPropertyOp7
 70
     1
102
RTVSPropertyOp8
 70
     1
102
RTVSPropertyOp9
 70
     1
102
RTVSPropertyOp10
 70
     1
102
RTVSPropertyOp11
 70
     1
102
RTVSPropertyOp12
 70
     1
102
RTVSPropertyOp13
 70
     1
102
RTVSPropertyOp14
 70
     1
102
RTVSPropertyOp15
 70
     1
102
RTVSPropertyOp16
 70
     1
102
RTVSPropertyOp17
 70
     1
102
RTVSPropertyOp18
 70
     1
102
RTVSPropertyOp19
 70
     1
102
RTVSPropertyOp20
 70
     1
102
RTVSPropertyOp21
 70
     1
102
RTVSPropertyOp22
 70
     1
102
RTVSPropertyOp23
 70
     1
102
RTVSPropertyOp24
 70
     1
102
RTVSPropertyOp25
 70
     1
102
RTVSPropertyOp26
 70
     1
102
RTVSPropertyOp27
 70
     1
102
RTVSPropertyOp28
 70
     1
102
RTVSPropertyOp29
 70
     1
102
RTVSPropertyOp30
 70
     1
102
RTVSPropertyOp31
 70
     1
102
RTVSPropertyOp32
 70
     1
102
RTVSPropertyOp33
 70
     1
102
RTVSPropertyOp34
 70
     1
102
RTVSPropertyOp35
 70
     1
102
RTVSPropertyOp36
 70
     1
102
RTVSPropertyOp37
 70
     1
102
RTVSPropertyOp38
 70
     1
102
RTVSPropertyOp39
 70
     1
102
RTVSPropertyOp40
 70
     1
102
RTVSPropertyOp41
 70
     1
102
RTVSPropertyOp42
 70
     1
102
RTVSPropertyOp43
 70
     1
102
RTVSPropertyOp44
 70
     1
102
RTVSPropertyOp45
 70
     1
102
RTVSPropertyOp46
 70
     1
102
RTVSPropertyOp47
 70
     1
102
RTVSPropertyOp48
 70
     1
102
RTVSPropertyOp49
 70
     1
102
RTVSPropertyOp50
 70
     1
102
RTVSPropertyOp51
 70
     0
102
RTVSPropertyOp52
 70
     0
102
RTVSPropertyOp53
 70
     1
102
RTVSPropertyOp54
 70
     1
102
RTVSPropertyOp55
 70
     1
102
RTVSPropertyOp56
 70
     1
102
RTVSPropertyOp57
 70
     1
102
RTVSPost2010Prop28
280
     0
102
RTVSPost2010PropOp28
 70
     1
102
RTVSPost2010Prop29
280
     1
102
RTVSPost2010PropOp29
 70
     1
102
RTVSPost2010Prop30
280
     1
102
RTVSPost2010PropOp30
 70
     1
102
RTVSPost2010Prop31
280
     0
102
RTVSPost2010PropOp31
 70
     1
102
RTVSPost2010Prop32
280
     0
102
RTVSPost2010PropOp32
 70
     1
102
RTVSPost2010Prop33
280
     0
102
RTVSPost2010PropOp33
 70
     1
102
RTVSPost2010Prop34
280
     0
102
RTVSPost2010PropOp34
 70
     1
102
RTVSPost2010Prop35
280
     0
102
RTVSPost2010PropOp35
 70
     1
102
RTVSPost2010Prop36
280
     0
102
RTVSPost2010PropOp36
 70
     1
102
RTVSPost2010Prop37
 90
       50
102
RTVSPost2010PropOp37
 70
     1
102
RTVSPost2010Prop38
140
0.0
102
RTVSPost2010PropOp38
 70
     1
102
RTVSPost2010Prop39
140
1.0
102
RTVSPost2010PropOp39
 70
     1
102
RTVSPost2010Prop40
 90
        0
102
RTVSPost2010PropOp40
 70
     1
102
RTVSPost2010Prop41ColorIndex
 90
       18
102
RTVSPost2010Prop41ColorRGB
 90
        0
102
RTVSPost2010PropOp41
 70
     1
102
RTVSPost2010Prop42
 90
       50
102
RTVSPost2010PropOp42
 70
     1
102
RTVSPost2010Prop43
 90
        3
102
RTVSPost2010PropOp43
 70
     1
102
RTVSPost2010Prop44ColorIndex
 90
        5
102
RTVSPost2010Prop44ColorRGB
 90
      255
102
RTVSPost2010PropOp44
 70
     1
102
RTVSPost2010Prop45
280
     0
102
RTVSPost2010PropOp45
 70
     1
102
RTVSPost2010Prop46
 90
       50
102
RTVSPost2010PropOp46
 70
     1
102
RTVSPost2010Prop47
 90
       50
102
RTVSPost2010PropOp47
 70
     1
102
RTVSPost2010Prop48
 90
       50
102
RTVSPost2010PropOp48
 70
     1
102
RTVSPost2010Prop49
280
     0
102
RTVSPost2010PropOp49
 70
     1
102
RTVSPost2010Prop50
 90
       50
102
RTVSPost2010PropOp50
 70
     1
102
RTVSPost2010Prop51ColorIndex
 90
      256
102
RTVSPost2010Prop51ColorRGB
 90
-16777216
102
RTVSPost2010PropOp51
 70
     0
102
RTVSPost2010Prop52
140
1.0
102
RTVSPost2010PropOp52
 70
     0
102
RTVSPost2010Prop53
 90
        2
102
RTVSPost2010PropOp53
 70
     1
102
RTVSPost2010Prop54
  1
strokes_ogs.tif
102
RTVSPost2010PropOp54
 70
     1
102
RTVSPost2010Prop55
280
     0
102
RTVSPost2010PropOp55
 70
     1
102
RTVSPost2010Prop56
140
1.0
102
RTVSPost2010PropOp56
 70
     1
102
RTVSPost2010Prop57
140
1.0
102
RTVSPost2010PropOp57
 70
     1
  0
XRECORD
  5
3A7
102
{ACAD_REACTORS
330
3A6
102
}
330
3A6
100
AcDbXrecord
280
     1
102
RTVSPropertyOp0
 70
     1
102
RTVSPropertyOp1
 70
     1
102
RTVSPropertyOp2
 70
     1
102
RTVSPropertyOp3
 70
     1
102
RTVSPropertyOp4
 70
     1
102
RTVSPropertyOp5
 70
     1
102
RTVSPropertyOp6
 70
     1
102
RTVSPropertyOp7
 70
     1
102
RTVSPropertyOp8
 70
     1
102
RTVSPropertyOp9
 70
     1
102
RTVSPropertyOp10
 70
     1
102
RTVSPropertyOp11
 70
     1
102
RTVSPropertyOp12
 70
     1
102
RTVSPropertyOp13
 70
     1
102
RTVSPropertyOp14
 70
     1
102
RTVSPropertyOp15
 70
     1
102
RTVSPropertyOp16
 70
     1
102
RTVSPropertyOp17
 70
     1
102
RTVSPropertyOp18
 70
     1
102
RTVSPropertyOp19
 70
     1
102
RTVSPropertyOp20
 70
     1
102
RTVSPropertyOp21
 70
     1
102
RTVSPropertyOp22
 70
     1
102
RTVSPropertyOp23
 70
     1
102
RTVSPropertyOp24
 70
     1
102
RTVSPropertyOp25
 70
     1
102
RTVSPropertyOp26
 70
     1
102
RTVSPropertyOp27
 70
     1
102
RTVSPropertyOp28
 70
     1
102
RTVSPropertyOp29
 70
     1
102
RTVSPropertyOp30
 70
     1
102
RTVSPropertyOp31
 70
     1
102
RTVSPropertyOp32
 70
     1
102
RTVSPropertyOp33
 70
     1
102
RTVSPropertyOp34
 70
     1
102
RTVSPropertyOp35
 70
     1
102
RTVSPropertyOp36
 70
     1
102
RTVSPropertyOp37
 70
     1
102
RTVSPropertyOp38
 70
     1
102
RTVSPropertyOp39
 70
     1
102
RTVSPropertyOp40
 70
     1
102
RTVSPropertyOp41
 70
     1
102
RTVSPropertyOp42
 70
     1
102
RTVSPropertyOp43
 70
     1
102
RTVSPropertyOp44
 70
     1
102
RTVSPropertyOp45
 70
     1
102
RTVSPropertyOp46
 70
     1
102
RTVSPropertyOp47
 70
     1
102
RTVSPropertyOp48
 70
     1
102
RTVSPropertyOp49
 70
     1
102
RTVSPropertyOp50
 70
     1
102
RTVSPropertyOp51
 70
     0
102
RTVSPropertyOp52
 70
     0
102
RTVSPropertyOp53
 70
     1
102
RTVSPropertyOp54
 70
     1
102
RTVSPropertyOp55
 70
     1
102
RTVSPropertyOp56
 70
     1
102
RTVSPropertyOp57
 70
     1
102
RTVSPost2010Prop28
280
     0
102
RTVSPost2010PropOp28
 70
     1
102
RTVSPost2010Prop29
280
     1
102
RTVSPost2010PropOp29
 70
     1
102
RTVSPost2010Prop30
280
     1
102
RTVSPost2010PropOp30
 70
     1
102
RTVSPost2010Prop31
280
     0
102
RTVSPost2010PropOp31
 70
     1
102
RTVSPost2010Prop32
280
     0
102
RTVSPost2010PropOp32
 70
     1
102
RTVSPost2010Prop33
280
     0
102
RTVSPost2010PropOp33
 70
     1
102
RTVSPost2010Prop34
280
     0
102
RTVSPost2010PropOp34
 70
     1
102
RTVSPost2010Prop35
280
     0
102
RTVSPost2010PropOp35
 70
     1
102
RTVSPost2010Prop36
280
     0
102
RTVSPost2010PropOp36
 70
     1
102
RTVSPost2010Prop37
 90
       50
102
RTVSPost2010PropOp37
 70
     1
102
RTVSPost2010Prop38
140
0.0
102
RTVSPost2010PropOp38
 70
     1
102
RTVSPost2010Prop39
140
1.0
102
RTVSPost2010PropOp39
 70
     1
102
RTVSPost2010Prop40
 90
        0
102
RTVSPost2010PropOp40
 70
     1
102
RTVSPost2010Prop41ColorIndex
 90
       18
102
RTVSPost2010Prop41ColorRGB
 90
        0
102
RTVSPost2010PropOp41
 70
     1
102
RTVSPost2010Prop42
 90
       50
102
RTVSPost2010PropOp42
 70
     1
102
RTVSPost2010Prop43
 90
        3
102
RTVSPost2010PropOp43
 70
     1
102
RTVSPost2010Prop44ColorIndex
 90
        5
102
RTVSPost2010Prop44ColorRGB
 90
      255
102
RTVSPost2010PropOp44
 70
     1
102
RTVSPost2010Prop45
280
     0
102
RTVSPost2010PropOp45
 70
     1
102
RTVSPost2010Prop46
 90
       50
102
RTVSPost2010PropOp46
 70
     1
102
RTVSPost2010Prop47
 90
       50
102
RTVSPost2010PropOp47
 70
     1
102
RTVSPost2010Prop48
 90
       50
102
RTVSPost2010PropOp48
 70
     1
102
RTVSPost2010Prop49
280
     0
102
RTVSPost2010PropOp49
 70
     1
102
RTVSPost2010Prop50
 90
       50
102
RTVSPost2010PropOp50
 70
     1
102
RTVSPost2010Prop51ColorIndex
 90
      256
102
RTVSPost2010Prop51ColorRGB
 90
-16777216
102
RTVSPost2010PropOp51
 70
     0
102
RTVSPost2010Prop52
140
1.0
102
RTVSPost2010PropOp52
 70
     0
102
RTVSPost2010Prop53
 90
        2
102
RTVSPost2010PropOp53
 70
     1
102
RTVSPost2010Prop54
  1
strokes_ogs.tif
102
RTVSPost2010PropOp54
 70
     1
102
RTVSPost2010Prop55
280
     0
102
RTVSPost2010PropOp55
 70
     1
102
RTVSPost2010Prop56
140
1.0
102
RTVSPost2010PropOp56
 70
     1
102
RTVSPost2010Prop57
140
1.0
102
RTVSPost2010PropOp57
 70
     1
  0
XRECORD
  5
399
102
{ACAD_REACTORS
330
398
102
}
330
398
100
AcDbXrecord
280
     1
102
RTVSPropertyOp0
 70
     1
102
RTVSPropertyOp1
 70
     1
102
RTVSPropertyOp2
 70
     1
102
RTVSPropertyOp3
 70
     1
102
RTVSPropertyOp4
 70
     1
102
RTVSPropertyOp5
 70
     1
102
RTVSPropertyOp6
 70
     1
102
RTVSPropertyOp7
 70
     1
102
RTVSPropertyOp8
 70
     1
102
RTVSPropertyOp9
 70
     1
102
RTVSPropertyOp10
 70
     1
102
RTVSPropertyOp11
 70
     1
102
RTVSPropertyOp12
 70
     1
102
RTVSPropertyOp13
 70
     1
102
RTVSPropertyOp14
 70
     1
102
RTVSPropertyOp15
 70
     1
102
RTVSPropertyOp16
 70
     1
102
RTVSPropertyOp17
 70
     1
102
RTVSPropertyOp18
 70
     1
102
RTVSPropertyOp19
 70
     1
102
RTVSPropertyOp20
 70
     1
102
RTVSPropertyOp21
 70
     1
102
RTVSPropertyOp22
 70
     1
102
RTVSPropertyOp23
 70
     1
102
RTVSPropertyOp24
 70
     1
102
RTVSPropertyOp25
 70
     1
102
RTVSPropertyOp26
 70
     1
102
RTVSPropertyOp27
 70
     1
102
RTVSPropertyOp28
 70
     1
102
RTVSPropertyOp29
 70
     1
102
RTVSPropertyOp30
 70
     1
102
RTVSPropertyOp31
 70
     1
102
RTVSPropertyOp32
 70
     1
102
RTVSPropertyOp33
 70
     1
102
RTVSPropertyOp34
 70
     1
102
RTVSPropertyOp35
 70
     1
102
RTVSPropertyOp36
 70
     1
102
RTVSPropertyOp37
 70
     1
102
RTVSPropertyOp38
 70
     1
102
RTVSPropertyOp39
 70
     1
102
RTVSPropertyOp40
 70
     1
102
RTVSPropertyOp41
 70
     1
102
RTVSPropertyOp42
 70
     1
102
RTVSPropertyOp43
 70
     1
102
RTVSPropertyOp44
 70
     1
102
RTVSPropertyOp45
 70
     1
102
RTVSPropertyOp46
 70
     1
102
RTVSPropertyOp47
 70
     1
102
RTVSPropertyOp48
 70
     1
102
RTVSPropertyOp49
 70
     1
102
RTVSPropertyOp50
 70
     1
102
RTVSPropertyOp51
 70
     0
102
RTVSPropertyOp52
 70
     0
102
RTVSPropertyOp53
 70
     1
102
RTVSPropertyOp54
 70
     1
102
RTVSPropertyOp55
 70
     1
102
RTVSPropertyOp56
 70
     1
102
RTVSPropertyOp57
 70
     1
102
RTVSPost2010Prop28
280
     0
102
RTVSPost2010PropOp28
 70
     1
102
RTVSPost2010Prop29
280
     1
102
RTVSPost2010PropOp29
 70
     1
102
RTVSPost2010Prop30
280
     1
102
RTVSPost2010PropOp30
 70
     1
102
RTVSPost2010Prop31
280
     0
102
RTVSPost2010PropOp31
 70
     1
102
RTVSPost2010Prop32
280
     0
102
RTVSPost2010PropOp32
 70
     1
102
RTVSPost2010Prop33
280
     0
102
RTVSPost2010PropOp33
 70
     1
102
RTVSPost2010Prop34
280
     0
102
RTVSPost2010PropOp34
 70
     1
102
RTVSPost2010Prop35
280
     0
102
RTVSPost2010PropOp35
 70
     1
102
RTVSPost2010Prop36
280
     0
102
RTVSPost2010PropOp36
 70
     1
102
RTVSPost2010Prop37
 90
       50
102
RTVSPost2010PropOp37
 70
     1
102
RTVSPost2010Prop38
140
0.0
102
RTVSPost2010PropOp38
 70
     1
102
RTVSPost2010Prop39
140
1.0
102
RTVSPost2010PropOp39
 70
     1
102
RTVSPost2010Prop40
 90
        0
102
RTVSPost2010PropOp40
 70
     1
102
RTVSPost2010Prop41ColorIndex
 90
       18
102
RTVSPost2010Prop41ColorRGB
 90
        0
102
RTVSPost2010PropOp41
 70
     1
102
RTVSPost2010Prop42
 90
       50
102
RTVSPost2010PropOp42
 70
     1
102
RTVSPost2010Prop43
 90
        3
102
RTVSPost2010PropOp43
 70
     1
102
RTVSPost2010Prop44ColorIndex
 90
        5
102
RTVSPost2010Prop44ColorRGB
 90
      255
102
RTVSPost2010PropOp44
 70
     1
102
RTVSPost2010Prop45
280
     0
102
RTVSPost2010PropOp45
 70
     1
102
RTVSPost2010Prop46
 90
       50
102
RTVSPost2010PropOp46
 70
     1
102
RTVSPost2010Prop47
 90
       50
102
RTVSPost2010PropOp47
 70
     1
102
RTVSPost2010Prop48
 90
       50
102
RTVSPost2010PropOp48
 70
     1
102
RTVSPost2010Prop49
280
     0
102
RTVSPost2010PropOp49
 70
     1
102
RTVSPost2010Prop50
 90
       50
102
RTVSPost2010PropOp50
 70
     1
102
RTVSPost2010Prop51ColorIndex
 90
      256
102
RTVSPost2010Prop51ColorRGB
 90
-16777216
102
RTVSPost2010PropOp51
 70
     0
102
RTVSPost2010Prop52
140
1.0
102
RTVSPost2010PropOp52
 70
     0
102
RTVSPost2010Prop53
 90
        2
102
RTVSPost2010PropOp53
 70
     1
102
RTVSPost2010Prop54
  1
strokes_ogs.tif
102
RTVSPost2010PropOp54
 70
     1
102
RTVSPost2010Prop55
280
     0
102
RTVSPost2010PropOp55
 70
     1
102
RTVSPost2010Prop56
140
1.0
102
RTVSPost2010PropOp56
 70
     1
102
RTVSPost2010Prop57
140
1.0
102
RTVSPost2010PropOp57
 70
     1
  0
XRECORD
  5
3B9
102
{ACAD_REACTORS
330
3B8
102
}
330
3B8
100
AcDbXrecord
280
     1
102
RTVSPropertyOp0
 70
     1
102
RTVSPropertyOp1
 70
     1
102
RTVSPropertyOp2
 70
     1
102
RTVSPropertyOp3
 70
     1
102
RTVSPropertyOp4
 70
     1
102
RTVSPropertyOp5
 70
     1
102
RTVSPropertyOp6
 70
     1
102
RTVSPropertyOp7
 70
     1
102
RTVSPropertyOp8
 70
     1
102
RTVSPropertyOp9
 70
     1
102
RTVSPropertyOp10
 70
     1
102
RTVSPropertyOp11
 70
     1
102
RTVSPropertyOp12
 70
     1
102
RTVSPropertyOp13
 70
     1
102
RTVSPropertyOp14
 70
     1
102
RTVSPropertyOp15
 70
     1
102
RTVSPropertyOp16
 70
     1
102
RTVSPropertyOp17
 70
     1
102
RTVSPropertyOp18
 70
     1
102
RTVSPropertyOp19
 70
     1
102
RTVSPropertyOp20
 70
     1
102
RTVSPropertyOp21
 70
     1
102
RTVSPropertyOp22
 70
     1
102
RTVSPropertyOp23
 70
     1
102
RTVSPropertyOp24
 70
     1
102
RTVSPropertyOp25
 70
     1
102
RTVSPropertyOp26
 70
     1
102
RTVSPropertyOp27
 70
     1
102
RTVSPropertyOp28
 70
     1
102
RTVSPropertyOp29
 70
     1
102
RTVSPropertyOp30
 70
     1
102
RTVSPropertyOp31
 70
     1
102
RTVSPropertyOp32
 70
     1
102
RTVSPropertyOp33
 70
     1
102
RTVSPropertyOp34
 70
     1
102
RTVSPropertyOp35
 70
     1
102
RTVSPropertyOp36
 70
     1
102
RTVSPropertyOp37
 70
     1
102
RTVSPropertyOp38
 70
     1
102
RTVSPropertyOp39
 70
     1
102
RTVSPropertyOp40
 70
     1
102
RTVSPropertyOp41
 70
     1
102
RTVSPropertyOp42
 70
     1
102
RTVSPropertyOp43
 70
     1
102
RTVSPropertyOp44
 70
     1
102
RTVSPropertyOp45
 70
     1
102
RTVSPropertyOp46
 70
     1
102
RTVSPropertyOp47
 70
     1
102
RTVSPropertyOp48
 70
     1
102
RTVSPropertyOp49
 70
     1
102
RTVSPropertyOp50
 70
     1
102
RTVSPropertyOp51
 70
     0
102
RTVSPropertyOp52
 70
     0
102
RTVSPropertyOp53
 70
     1
102
RTVSPropertyOp54
 70
     1
102
RTVSPropertyOp55
 70
     1
102
RTVSPropertyOp56
 70
     1
102
RTVSPropertyOp57
 70
     1
102
RTVSPost2010Prop28
280
     0
102
RTVSPost2010PropOp28
 70
     1
102
RTVSPost2010Prop29
280
     1
102
RTVSPost2010PropOp29
 70
     1
102
RTVSPost2010Prop30
280
     1
102
RTVSPost2010PropOp30
 70
     1
102
RTVSPost2010Prop31
280
     0
102
RTVSPost2010PropOp31
 70
     1
102
RTVSPost2010Prop32
280
     0
102
RTVSPost2010PropOp32
 70
     1
102
RTVSPost2010Prop33
280
     0
102
RTVSPost2010PropOp33
 70
     1
102
RTVSPost2010Prop34
280
     0
102
RTVSPost2010PropOp34
 70
     1
102
RTVSPost2010Prop35
280
     0
102
RTVSPost2010PropOp35
 70
     1
102
RTVSPost2010Prop36
280
     0
102
RTVSPost2010PropOp36
 70
     1
102
RTVSPost2010Prop37
 90
       50
102
RTVSPost2010PropOp37
 70
     1
102
RTVSPost2010Prop38
140
0.0
102
RTVSPost2010PropOp38
 70
     1
102
RTVSPost2010Prop39
140
1.0
102
RTVSPost2010PropOp39
 70
     1
102
RTVSPost2010Prop40
 90
        0
102
RTVSPost2010PropOp40
 70
     1
102
RTVSPost2010Prop41ColorIndex
 90
       18
102
RTVSPost2010Prop41ColorRGB
 90
        0
102
RTVSPost2010PropOp41
 70
     1
102
RTVSPost2010Prop42
 90
       50
102
RTVSPost2010PropOp42
 70
     1
102
RTVSPost2010Prop43
 90
        3
102
RTVSPost2010PropOp43
 70
     1
102
RTVSPost2010Prop44ColorIndex
 90
        5
102
RTVSPost2010Prop44ColorRGB
 90
      255
102
RTVSPost2010PropOp44
 70
     1
102
RTVSPost2010Prop45
280
     0
102
RTVSPost2010PropOp45
 70
     1
102
RTVSPost2010Prop46
 90
       50
102
RTVSPost2010PropOp46
 70
     1
102
RTVSPost2010Prop47
 90
       50
102
RTVSPost2010PropOp47
 70
     1
102
RTVSPost2010Prop48
 90
       50
102
RTVSPost2010PropOp48
 70
     1
102
RTVSPost2010Prop49
280
     0
102
RTVSPost2010PropOp49
 70
     1
102
RTVSPost2010Prop50
 90
       50
102
RTVSPost2010PropOp50
 70
     1
102
RTVSPost2010Prop51ColorIndex
 90
      256
102
RTVSPost2010Prop51ColorRGB
 90
-16777216
102
RTVSPost2010PropOp51
 70
     0
102
RTVSPost2010Prop52
140
1.0
102
RTVSPost2010PropOp52
 70
     0
102
RTVSPost2010Prop53
 90
        2
102
RTVSPost2010PropOp53
 70
     1
102
RTVSPost2010Prop54
  1
strokes_ogs.tif
102
RTVSPost2010PropOp54
 70
     1
102
RTVSPost2010Prop55
280
     0
102
RTVSPost2010PropOp55
 70
     1
102
RTVSPost2010Prop56
140
1.0
102
RTVSPost2010PropOp56
 70
     1
102
RTVSPost2010Prop57
140
1.0
102
RTVSPost2010PropOp57
 70
     1
  0
ENDSEC
  0
EOF
