  0
SECTION
  2
HEADER
  9
$ACADVER
  1
AC1021
  9
$ACADMAINTVER
 70
    25
  9
$DWGCODEPAGE
  3
ANSI_932
  9
$INSBASE
 10
0.0
 20
0.0
 30
0.0
  9
$EXTMIN
 10
-1188.0
 20
-840.0
 30
0.0
  9
$EXTMAX
 10
1188.0
 20
840.0
 30
0.0
  9
$LIMMIN
 10
-1188.0
 20
-840.0
  9
$LIMMAX
 10
1188.0
 20
840.0
  9
$ORTHOMODE
 70
     0
  9
$REGENMODE
 70
     1
  9
$FILLMODE
 70
     1
  9
$QTEXTMODE
 70
     0
  9
$MIRRTEXT
 70
     1
  9
$LTSCALE
 40
4.0
  9
$ATTMODE
 70
     1
  9
$TEXTSIZE
 40
2.5
  9
$TRACEWID
 40
1.0
  9
$TEXTSTYLE
  7
Standard
  9
$CLAYER
  8
0
  9
$CELTYPE
  6
ByLayer
  9
$CECOLOR
 62
   256
  9
$CELTSCALE
 40
1.0
  9
$DISPSILH
 70
     0
  9
$DIMSCALE
 40
1.0
  9
$DIMASZ
 40
2.5
  9
$DIMEXO
 40
0.625
  9
$DIMDLI
 40
3.75
  9
$DIMRND
 40
0.0
  9
$DIMDLE
 40
0.0
  9
$DIMEXE
 40
1.25
  9
$DIMTP
 40
0.0
  9
$DIMTM
 40
0.0
  9
$DIMTXT
 40
2.5
  9
$DIMCEN
 40
2.5
  9
$DIMTSZ
 40
0.0
  9
$DIMTOL
 70
     0
  9
$DIMLIM
 70
     0
  9
$DIMTIH
 70
     0
  9
$DIMTOH
 70
     0
  9
$DIMSE1
 70
     0
  9
$DIMSE2
 70
     0
  9
$DIMTAD
 70
     1
  9
$DIMZIN
 70
     8
  9
$DIMBLK
  1

  9
$DIMASO
 70
     1
  9
$DIMSHO
 70
     1
  9
$DIMPOST
  1

  9
$DIMAPOST
  1

  9
$DIMALT
 70
     0
  9
$DIMALTD
 70
     3
  9
$DIMALTF
 40
0.03937007874016
  9
$DIMLFAC
 40
1.0
  9
$DIMTOFL
 70
     1
  9
$DIMTVP
 40
0.0
  9
$DIMTIX
 70
     0
  9
$DIMSOXD
 70
     0
  9
$DIMSAH
 70
     0
  9
$DIMBLK1
  1

  9
$DIMBLK2
  1

  9
$DIMSTYLE
  2
ISO-25
  9
$DIMCLRD
 70
     0
  9
$DIMCLRE
 70
     0
  9
$DIMCLRT
 70
     0
  9
$DIMTFAC
 40
1.0
  9
$DIMGAP
 40
0.625
  9
$DIMJUST
 70
     0
  9
$DIMSD1
 70
     0
  9
$DIMSD2
 70
     0
  9
$DIMTOLJ
 70
     0
  9
$DIMTZIN
 70
     8
  9
$DIMALTZ
 70
     0
  9
$DIMALTTZ
 70
     0
  9
$DIMUPT
 70
     0
  9
$DIMDEC
 70
     2
  9
$DIMTDEC
 70
     2
  9
$DIMALTU
 70
     2
  9
$DIMALTTD
 70
     3
  9
$DIMTXSTY
  7
Standard
  9
$DIMAUNIT
 70
     0
  9
$DIMADEC
 70
     0
  9
$DIMALTRND
 40
0.0
  9
$DIMAZIN
 70
     0
  9
$DIMDSEP
 70
    44
  9
$DIMATFIT
 70
     3
  9
$DIMFRAC
 70
     0
  9
$DIMLDRBLK
  1

  9
$DIMLUNIT
 70
     2
  9
$DIMLWD
 70
    -2
  9
$DIMLWE
 70
    -2
  9
$DIMTMOVE
 70
     0
  9
$DIMFXL
 40
1.0
  9
$DIMFXLON
 70
     0
  9
$DIMJOGANG
 40
0.7853981633974483
  9
$DIMTFILL
 70
     0
  9
$DIMTFILLCLR
 70
     0
  9
$DIMARCSYM
 70
     0
  9
$DIMLTYPE
  6

  9
$DIMLTEX1
  6

  9
$DIMLTEX2
  6

  9
$LUNITS
 70
     2
  9
$LUPREC
 70
     4
  9
$SKETCHINC
 40
1.0
  9
$FILLETRAD
 40
10.0
  9
$AUNITS
 70
     0
  9
$AUPREC
 70
     0
  9
$MENU
  1
.
  9
$ELEVATION
 40
0.0
  9
$PELEVATION
 40
0.0
  9
$THICKNESS
 40
0.0
  9
$LIMCHECK
 70
     0
  9
$CHAMFERA
 40
10.0
  9
$CHAMFERB
 40
10.0
  9
$CHAMFERC
 40
20.0
  9
$CHAMFERD
 40
0.0
  9
$SKPOLY
 70
     0
  9
$TDCREATE
 40
2457737.439740417
  9
$TDUCREATE
 40
2457737.064740417
  9
$TDUPDATE
 40
2457737.439740428
  9
$TDUUPDATE
 40
2457737.064740428
  9
$TDINDWG
 40
0.0000000116
  9
$TDUSRTIMER
 40
0.0000000116
  9
$USRTIMER
 70
     1
  9
$ANGBASE
 50
0.0
  9
$ANGDIR
 70
     0
  9
$PDMODE
 70
     0
  9
$PDSIZE
 40
0.0
  9
$PLINEWID
 40
0.0
  9
$SPLFRAME
 70
     0
  9
$SPLINETYPE
 70
     6
  9
$SPLINESEGS
 70
     8
  9
$HANDSEED
  5
1FA
  9
$SURFTAB1
 70
     6
  9
$SURFTAB2
 70
     6
  9
$SURFTYPE
 70
     6
  9
$SURFU
 70
     6
  9
$SURFV
 70
     6
  9
$UCSBASE
  2

  9
$UCSNAME
  2

  9
$UCSORG
 10
0.0
 20
0.0
 30
0.0
  9
$UCSXDIR
 10
1.0
 20
0.0
 30
0.0
  9
$UCSYDIR
 10
0.0
 20
1.0
 30
0.0
  9
$UCSORTHOREF
  2

  9
$UCSORTHOVIEW
 70
     0
  9
$UCSORGTOP
 10
0.0
 20
0.0
 30
0.0
  9
$UCSORGBOTTOM
 10
0.0
 20
0.0
 30
0.0
  9
$UCSORGLEFT
 10
0.0
 20
0.0
 30
0.0
  9
$UCSORGRIGHT
 10
0.0
 20
0.0
 30
0.0
  9
$UCSORGFRONT
 10
0.0
 20
0.0
 30
0.0
  9
$UCSORGBACK
 10
0.0
 20
0.0
 30
0.0
  9
$PUCSBASE
  2

  9
$PUCSNAME
  2

  9
$PUCSORG
 10
0.0
 20
0.0
 30
0.0
  9
$PUCSXDIR
 10
1.0
 20
0.0
 30
0.0
  9
$PUCSYDIR
 10
0.0
 20
1.0
 30
0.0
  9
$PUCSORTHOREF
  2

  9
$PUCSORTHOVIEW
 70
     0
  9
$PUCSORGTOP
 10
0.0
 20
0.0
 30
0.0
  9
$PUCSORGBOTTOM
 10
0.0
 20
0.0
 30
0.0
  9
$PUCSORGLEFT
 10
0.0
 20
0.0
 30
0.0
  9
$PUCSORGRIGHT
 10
0.0
 20
0.0
 30
0.0
  9
$PUCSORGFRONT
 10
0.0
 20
0.0
 30
0.0
  9
$PUCSORGBACK
 10
0.0
 20
0.0
 30
0.0
  9
$USERI1
 70
     0
  9
$USERI2
 70
     0
  9
$USERI3
 70
     0
  9
$USERI4
 70
     0
  9
$USERI5
 70
     0
  9
$USERR1
 40
0.0
  9
$USERR2
 40
0.0
  9
$USERR3
 40
0.0
  9
$USERR4
 40
0.0
  9
$USERR5
 40
0.0
  9
$WORLDVIEW
 70
     1
  9
$SHADEDGE
 70
     3
  9
$SHADEDIF
 70
    70
  9
$TILEMODE
 70
     1
  9
$MAXACTVP
 70
    64
  9
$PINSBASE
 10
0.0
 20
0.0
 30
0.0
  9
$PLIMCHECK
 70
     0
  9
$PEXTMIN
 10
1.000000000000000E+20
 20
1.000000000000000E+20
 30
1.000000000000000E+20
  9
$PEXTMAX
 10
-1.000000000000000E+20
 20
-1.000000000000000E+20
 30
-1.000000000000000E+20
  9
$PLIMMIN
 10
0.0
 20
0.0
  9
$PLIMMAX
 10
420.0
 20
297.0
  9
$UNITMODE
 70
     0
  9
$VISRETAIN
 70
     1
  9
$PLINEGEN
 70
     0
  9
$PSLTSCALE
 70
     1
  9
$TREEDEPTH
 70
  3020
  9
$CMLSTYLE
  2
Standard
  9
$CMLJUST
 70
     0
  9
$CMLSCALE
 40
20.0
  9
$PROXYGRAPHICS
 70
     1
  9
$MEASUREMENT
 70
     1
  9
$CELWEIGHT
370
    -1
  9
$ENDCAPS
280
     0
  9
$JOINSTYLE
280
     0
  9
$LWDISPLAY
290
     0
  9
$INSUNITS
 70
     4
  9
$HYPERLINKBASE
  1

  9
$STYLESHEET
  1

  9
$XEDIT
290
     1
  9
$CEPSNTYPE
380
     0
  9
$PSTYLEMODE
290
     1
  9
$FINGERPRINTGUID
  2
{46BC5C0F-F6AF-445B-9EAC-9089748E334D}
  9
$VERSIONGUID
  2
{FAEB1C32-E019-11D5-929B-00C0DF256EC4}
  9
$EXTNAMES
290
     1
  9
$PSVPSCALE
 40
0.0
  9
$OLESTARTUP
290
     0
  9
$SORTENTS
280
   127
  9
$INDEXCTL
280
     0
  9
$HIDETEXT
280
     1
  9
$XCLIPFRAME
290
     0
  9
$HALOGAP
280
     0
  9
$OBSCOLOR
 70
   257
  9
$OBSLTYPE
280
     0
  9
$INTERSECTIONDISPLAY
280
     0
  9
$INTERSECTIONCOLOR
 70
   257
  9
$DIMASSOC
280
     2
  9
$PROJECTNAME
  1

  9
$CAMERADISPLAY
290
     0
  9
$LENSLENGTH
 40
50.0
  9
$CAMERAHEIGHT
 40
0.0
  9
$STEPSPERSEC
 40
2.0
  9
$STEPSIZE
 40
6.0
  9
$3DDWFPREC
 40
2.0
  9
$PSOLWIDTH
 40
5.0
  9
$PSOLHEIGHT
 40
80.0
  9
$LOFTANG1
 40
1.570796326794897
  9
$LOFTANG2
 40
1.570796326794897
  9
$LOFTMAG1
 40
0.0
  9
$LOFTMAG2
 40
0.0
  9
$LOFTPARAM
 70
     7
  9
$LOFTNORMALS
280
     1
  9
$LATITUDE
 40
37.795
  9
$LONGITUDE
 40
-122.394
  9
$NORTHDIRECTION
 40
0.0
  9
$TIMEZONE
 70
 -8000
  9
$LIGHTGLYPHDISPLAY
280
     1
  9
$TILEMODELIGHTSYNCH
280
     1
  9
$SOLIDHIST
280
     1
  9
$SHOWHIST
280
     1
  9
$DWFFRAME
280
     2
  9
$DGNFRAME
280
     2
  9
$REALWORLDSCALE
290
     1
  9
$INTERFERECOLOR
 62
   256
  9
$CSHADOW
280
     0
  9
$SHADOWPLANELOCATION
 40
0.0
  0
ENDSEC
  0
SECTION
  2
CLASSES
  0
CLASS
  1
ACDBDICTIONARYWDFLT
  2
AcDbDictionaryWithDefault
  3
ObjectDBX Classes
 90
        0
 91
        4
280
     0
281
     0
  0
CLASS
  1
VISUALSTYLE
  2
AcDbVisualStyle
  3
ObjectDBX Classes
 90
     4095
 91
        4
280
     0
281
     0
  0
ENDSEC
  0
SECTION
  2
TABLES
  0
TABLE
  2
VPORT
  5
8
330
0
100
AcDbSymbolTable
 70
     1
  0
VPORT
  5
29
330
8
100
AcDbSymbolTableRecord
100
AcDbViewportTableRecord
  2
*Active
 70
     0
 10
0.0
 20
0.0
 11
1.0
 21
1.0
 12
0.0
 22
0.0
 13
0.0
 23
0.0
 14
10.0
 24
10.0
 15
10.0
 25
10.0
 16
0.0
 26
0.0
 36
1.0
 17
0.0
 27
0.0
 37
0.0
 40
1848.0
 41
1.414285714285714
 42
50.0
 43
0.0
 44
0.0
 50
0.0
 51
0.0
 71
     0
 72
 10000
 73
     1
 74
     3
 75
     0
 76
     0
 77
     0
 78
     0
281
     0
 65
     1
110
0.0
120
0.0
130
0.0
111
1.0
121
0.0
131
0.0
112
0.0
122
1.0
132
0.0
 79
     0
146
0.0
 60
     3
 61
     5
292
     1
282
     1
141
0.0
142
0.0
 63
   256
  0
ENDTAB
  0
TABLE
  2
LTYPE
  5
5
330
0
100
AcDbSymbolTable
 70
     6
  0
LTYPE
  5
14
330
5
100
AcDbSymbolTableRecord
100
AcDbLinetypeTableRecord
  2
ByBlock
 70
     0
  3

 72
    65
 73
     0
 40
0.0
  0
LTYPE
  5
15
330
5
100
AcDbSymbolTableRecord
100
AcDbLinetypeTableRecord
  2
ByLayer
 70
     0
  3

 72
    65
 73
     0
 40
0.0
  0
LTYPE
  5
16
330
5
100
AcDbSymbolTableRecord
100
AcDbLinetypeTableRecord
  2
Continuous
 70
     0
  3
Solid line
 72
    65
 73
     0
 40
0.0
  0
LTYPE
  5
3C
330
5
100
AcDbSymbolTableRecord
100
AcDbLinetypeTableRecord
  2
JWW_CENTER2
 70
     0
  3
-------------  --  -------------
 72
    65
 73
     4
 40
13.54666666666667
 49
11.00666666666667
 74
     0
 49
-0.8466666666666667
 74
     0
 49
0.8466666666666667
 74
     0
 49
-0.8466666666666667
 74
     0
  0
LTYPE
  5
3D
330
5
100
AcDbSymbolTableRecord
100
AcDbLinetypeTableRecord
  2
JWW_DASHED1
 70
     0
  3
-  --  --  --  --  --  --  --  -
 72
    65
 73
     2
 40
1.693333333333333
 49
0.8466666666666667
 74
     0
 49
-0.8466666666666667
 74
     0
  0
LTYPE
  5
3E
330
5
100
AcDbSymbolTableRecord
100
AcDbLinetypeTableRecord
  2
JWW_HOJO
 70
     0
  3
  -   -   -   -   -   -   -   - 
 72
    65
 73
     2
 40
1.693333333333333
 49
-1.27
 74
     0
 49
0.4233333333333333
 74
     0
  0
LTYPE
  5
3F
330
5
100
AcDbSymbolTableRecord
100
AcDbLinetypeTableRecord
  2
JWW_DASHED3
 70
     0
  3
---  ------  ------  ------  ---
 72
    65
 73
     2
 40
3.386666666666667
 49
2.54
 74
     0
 49
-0.8466666666666667
 74
     0
  0
LTYPE
  5
40
330
5
100
AcDbSymbolTableRecord
100
AcDbLinetypeTableRecord
  2
JWW_CENTER1
 70
     0
  3
-----  --  ----------  --  -----
 72
    65
 73
     4
 40
6.773333333333333
 49
4.233333333333333
 74
     0
 49
-0.8466666666666667
 74
     0
 49
0.8466666666666667
 74
     0
 49
-0.8466666666666667
 74
     0
  0
ENDTAB
  0
TABLE
  2
LAYER
  5
2
330
0
100
AcDbSymbolTable
 70
    10
  0
LAYER
  5
10
330
2
100
AcDbSymbolTableRecord
100
AcDbLayerTableRecord
  2
0
 70
     0
 62
     7
  6
Continuous
370
    -3
390
F
347
0
  0
LAYER
  5
41
330
2
100
AcDbSymbolTableRecord
100
AcDbLayerTableRecord
  2
その他
 70
     0
 62
     7
  6
Continuous
370
    -3
390
F
347
0
  0
LAYER
  5
42
330
2
100
AcDbSymbolTableRecord
100
AcDbLayerTableRecord
  2
F-4ﾚｲﾔ
 70
     0
 62
     7
  6
Continuous
370
    -3
390
F
347
0
  0
LAYER
  5
43
330
2
100
AcDbSymbolTableRecord
100
AcDbLayerTableRecord
  2
F-Fﾚｲﾔ
 70
     0
 62
     7
  6
Continuous
370
    -3
390
F
347
0
  0
LAYER
  5
44
330
2
100
AcDbSymbolTableRecord
100
AcDbLayerTableRecord
  2
F-5ﾚｲﾔ
 70
     0
 62
     7
  6
Continuous
370
    -3
390
F
347
0
  0
LAYER
  5
45
330
2
100
AcDbSymbolTableRecord
100
AcDbLayerTableRecord
  2
通り芯
 70
     0
 62
     7
  6
Continuous
370
    -3
390
F
347
0
  0
LAYER
  5
46
330
2
100
AcDbSymbolTableRecord
100
AcDbLayerTableRecord
  2
仕上
 70
     0
 62
     7
  6
Continuous
370
    -3
390
F
347
0
  0
LAYER
  5
47
330
2
100
AcDbSymbolTableRecord
100
AcDbLayerTableRecord
  2
躯体
 70
     0
 62
     7
  6
Continuous
370
    -3
390
F
347
0
  0
LAYER
  5
48
330
2
100
AcDbSymbolTableRecord
100
AcDbLayerTableRecord
  2
建具
 70
     0
 62
     7
  6
Continuous
370
    -3
390
F
347
0
  0
LAYER
  5
49
330
2
100
AcDbSymbolTableRecord
100
AcDbLayerTableRecord
  2
寸法
 70
     0
 62
     7
  6
Continuous
370
    -3
390
F
347
0
  0
ENDTAB
  0
TABLE
  2
STYLE
  5
3
330
0
100
AcDbSymbolTable
 70
     2
  0
STYLE
  5
11
330
3
100
AcDbSymbolTableRecord
100
AcDbTextStyleTableRecord
  2
Standard
 70
     0
 40
0.0
 41
1.0
 50
0.0
 71
     0
 42
2.5
  3
txt
  4

1001
ACAD
1000

1071
        0
  0
STYLE
  5
3B
330
3
100
AcDbSymbolTableRecord
100
AcDbTextStyleTableRecord
  2
ＭＳ ゴシック
 70
     0
 40
1.0
 41
1.0
 50
0.0
 71
     0
 42
10.0
  3

  4

1001
ACAD
1000
MS Gothic
1071
    32817
  0
ENDTAB
  0
TABLE
  2
VIEW
  5
6
330
0
100
AcDbSymbolTable
 70
     0
  0
ENDTAB
  0
TABLE
  2
UCS
  5
7
330
0
100
AcDbSymbolTable
 70
     0
  0
ENDTAB
  0
TABLE
  2
APPID
  5
9
330
0
100
AcDbSymbolTable
 70
     1
  0
APPID
  5
12
330
9
100
AcDbSymbolTableRecord
100
AcDbRegAppTableRecord
  2
ACAD
 70
     0
  0
ENDTAB
  0
TABLE
  2
DIMSTYLE
  5
A
330
0
100
AcDbSymbolTable
 70
     1
100
AcDbDimStyleTable
  0
DIMSTYLE
105
27
330
A
100
AcDbSymbolTableRecord
100
AcDbDimStyleTableRecord
  2
ISO-25
 70
     0
 41
2.5
 42
0.625
 43
3.75
 44
1.25
 73
     0
 74
     0
 77
     1
 78
     8
140
2.5
141
2.5
143
0.03937007874016
147
0.625
171
     3
172
     1
271
     2
272
     2
274
     3
278
    44
283
     0
284
     8
340
11
  0
ENDTAB
  0
TABLE
  2
BLOCK_RECORD
  5
1
330
0
100
AcDbSymbolTable
 70
     1
  0
BLOCK_RECORD
  5
1F
330
1
100
AcDbSymbolTableRecord
100
AcDbBlockTableRecord
  2
*Model_Space
340
22
 70
     0
280
     1
281
     0
  0
BLOCK_RECORD
  5
1B
330
1
100
AcDbSymbolTableRecord
100
AcDbBlockTableRecord
  2
*Paper_Space
340
1E
 70
     0
280
     1
281
     0
  0
BLOCK_RECORD
  5
23
330
1
100
AcDbSymbolTableRecord
100
AcDbBlockTableRecord
  2
*Paper_Space0
340
26
 70
     0
280
     1
281
     0
  0
ENDTAB
  0
ENDSEC
  0
SECTION
  2
BLOCKS
  0
BLOCK
  5
20
330
1F
100
AcDbEntity
  8
0
100
AcDbBlockBegin
  2
*Model_Space
 70
     0
 10
0.0
 20
0.0
 30
0.0
  3
*Model_Space
  1

  0
ENDBLK
  5
21
330
1F
100
AcDbEntity
  8
0
100
AcDbBlockEnd
  0
BLOCK
  5
1C
330
1B
100
AcDbEntity
 67
     1
  8
0
100
AcDbBlockBegin
  2
*Paper_Space
 70
     0
 10
0.0
 20
0.0
 30
0.0
  3
*Paper_Space
  1

  0
ENDBLK
  5
1D
330
1B
100
AcDbEntity
 67
     1
  8
0
100
AcDbBlockEnd
  0
BLOCK
  5
24
330
23
100
AcDbEntity
  8
0
100
AcDbBlockBegin
  2
*Paper_Space0
 70
     0
 10
0.0
 20
0.0
 30
0.0
  3
*Paper_Space0
  1

  0
ENDBLK
  5
25
330
23
100
AcDbEntity
  8
0
100
AcDbBlockEnd
  0
ENDSEC
  0
SECTION
  2
ENTITIES
  0
LINE
  5
4A
330
1F
100
AcDbEntity
  8
その他
  6
Continuous
 62
     7
370
     9
100
AcDbLine
 10
-88.48919681955886
 20
111.2241221074814
 30
0.0
 11
-88.48919681955886
 21
-308.7758284045528
 31
0.0
  0
TEXT
  5
4B
330
1F
100
AcDbEntity
  8
F-4ﾚｲﾔ
  6
Continuous
 62
     2
370
     9
100
AcDbText
 10
-174.9031430404105
 20
-759.0108394076666
 30
0.0
 40
12.192
  1
カラー舗装用みぞ蓋　インターロッキングブロック用　充填深さ６５ｍｍ　スチール製
 41
1.121794871794872
  7
ＭＳ ゴシック
100
AcDbText
  0
LINE
  5
4C
330
1F
100
AcDbEntity
  8
F-Fﾚｲﾔ
  6
Continuous
 62
     7
370
     9
100
AcDbLine
 10
1117.126304008243
 20
760.7157068318121
 30
0.0
 11
1117.126304008243
 21
372.7157068318121
 31
0.0
  0
LINE
  5
4D
330
1F
100
AcDbEntity
  8
F-Fﾚｲﾔ
  6
Continuous
 62
     7
370
     9
100
AcDbLine
 10
478.8976130146309
 20
760.7157068318121
 30
0.0
 11
1117.126304008243
 21
760.7157068318121
 31
0.0
  0
TEXT
  5
4E
330
1F
100
AcDbEntity
  8
F-Fﾚｲﾔ
  6
Continuous
 62
     2
370
     9
100
AcDbText
 10
489.5445030730923
 20
738.9717068318121
 30
0.0
 40
12.192
  1
名称
 41
1.0625
  7
ＭＳ ゴシック
100
AcDbText
  0
LINE
  5
4F
330
1F
100
AcDbEntity
  8
F-Fﾚｲﾔ
  6
Continuous
 62
     7
370
     9
100
AcDbLine
 10
478.8976130146309
 20
372.7157068318121
 30
0.0
 11
1117.126304008243
 21
372.7157068318121
 31
0.0
  0
LINE
  5
50
330
1F
100
AcDbEntity
  8
F-Fﾚｲﾔ
  6
Continuous
 62
     7
370
     9
100
AcDbLine
 10
478.8976130146309
 20
760.7157068318121
 30
0.0
 11
478.8976130146309
 21
372.7157068318121
 31
0.0
  0
LINE
  5
51
330
1F
100
AcDbEntity
  8
F-Fﾚｲﾔ
  6
Continuous
 62
     7
370
     9
100
AcDbLine
 10
478.8976130146309
 20
696.7157068318121
 30
0.0
 11
1117.126304008243
 21
696.7157068318121
 31
0.0
  0
LINE
  5
52
330
1F
100
AcDbEntity
  8
F-Fﾚｲﾔ
  6
Continuous
 62
     7
370
     9
100
AcDbLine
 10
478.8976130146309
 20
692.7157068318121
 30
0.0
 11
1117.126304008243
 21
692.7157068318121
 31
0.0
  0
LINE
  5
53
330
1F
100
AcDbEntity
  8
F-Fﾚｲﾔ
  6
Continuous
 62
     7
370
     9
100
AcDbLine
 10
478.8976130146309
 20
660.7157068318121
 30
0.0
 11
1117.126304008243
 21
660.7157068318121
 31
0.0
  0
LINE
  5
54
330
1F
100
AcDbEntity
  8
F-Fﾚｲﾔ
  6
Continuous
 62
     7
370
     9
100
AcDbLine
 10
478.8976130146309
 20
500.715706831812
 30
0.0
 11
1117.126304008243
 21
500.715706831812
 31
0.0
  0
LINE
  5
55
330
1F
100
AcDbEntity
  8
F-Fﾚｲﾔ
  6
Continuous
 62
     7
370
     9
100
AcDbLine
 10
478.8976130146309
 20
436.7157068318121
 30
0.0
 11
1117.126304008243
 21
436.7157068318121
 31
0.0
  0
TEXT
  5
56
330
1F
100
AcDbEntity
  8
F-Fﾚｲﾔ
  6
Continuous
 62
     2
370
     9
100
AcDbText
 10
489.5445030730923
 20
670.9717068318121
 30
0.0
 40
12.192
  1
適用桝
 41
1.083333333333333
  7
ＭＳ ゴシック
100
AcDbText
  0
TEXT
  5
57
330
1F
100
AcDbEntity
  8
F-Fﾚｲﾔ
  6
Continuous
 62
     2
370
     9
100
AcDbText
 10
489.5445030730923
 20
638.9717068318121
 30
0.0
 40
12.192
  1
蓋
  7
ＭＳ ゴシック
100
AcDbText
  0
TEXT
  5
58
330
1F
100
AcDbEntity
  8
F-Fﾚｲﾔ
  6
Continuous
 62
     2
370
     9
100
AcDbText
 10
489.5445030730923
 20
478.9717068318121
 30
0.0
 40
12.192
  1
受枠
 41
1.0625
  7
ＭＳ ゴシック
100
AcDbText
  0
TEXT
  5
59
330
1F
100
AcDbEntity
  8
F-Fﾚｲﾔ
  6
Continuous
 62
     2
370
     9
100
AcDbText
 10
489.5445030730923
 20
414.9717068318121
 30
0.0
 40
12.192
  1
品番
 41
1.0625
  7
ＭＳ ゴシック
100
AcDbText
  0
LINE
  5
5A
330
1F
100
AcDbEntity
  8
F-Fﾚｲﾔ
  6
Continuous
 62
     7
370
     9
100
AcDbLine
 10
631.0930647438574
 20
760.7157068318121
 30
0.0
 11
631.0930647438574
 21
372.7157068318121
 31
0.0
  0
TEXT
  5
5B
330
1F
100
AcDbEntity
  8
F-5ﾚｲﾔ
  6
Continuous
 62
     2
370
     9
100
AcDbText
 10
647.6270255014672
 20
638.9717068318121
 30
0.0
 40
12.192
  1
スチール製 溶融亜鉛めっき
 41
1.115
  7
ＭＳ ゴシック
100
AcDbText
  0
TEXT
  5
5C
330
1F
100
AcDbEntity
  8
F-5ﾚｲﾔ
  6
Continuous
 62
     2
370
     9
100
AcDbText
 10
647.6270255014672
 20
574.971706831812
 30
0.0
 40
12.192
  1
目地すきま 6mm
 41
1.116071428571429
  7
ＭＳ ゴシック
100
AcDbText
  0
TEXT
  5
5D
330
1F
100
AcDbEntity
  8
F-Fﾚｲﾔ
  6
Continuous
 62
     2
370
     9
100
AcDbText
 10
647.6270255014672
 20
414.9717068318121
 30
0.0
 40
12.192
  1
カネソウ　カラー舗装用みぞ蓋
 41
1.116071428571429
  7
ＭＳ ゴシック
100
AcDbText
  0
LINE
  5
5E
330
1F
100
AcDbEntity
  8
F-Fﾚｲﾔ
  6
Continuous
 62
     7
370
     9
100
AcDbLine
 10
631.0930647438574
 20
628.7157068318121
 30
0.0
 11
1117.126304008243
 21
628.7157068318121
 31
0.0
  0
LINE
  5
5F
330
1F
100
AcDbEntity
  8
F-Fﾚｲﾔ
  6
Continuous
 62
     7
370
     9
100
AcDbLine
 10
631.0930647438574
 20
596.7157068318121
 30
0.0
 11
1117.126304008243
 21
596.7157068318121
 31
0.0
  0
LINE
  5
60
330
1F
100
AcDbEntity
  8
F-Fﾚｲﾔ
  6
Continuous
 62
     7
370
     9
100
AcDbLine
 10
631.0930647438574
 20
564.715706831812
 30
0.0
 11
1117.126304008243
 21
564.715706831812
 31
0.0
  0
LINE
  5
61
330
1F
100
AcDbEntity
  8
F-Fﾚｲﾔ
  6
Continuous
 62
     7
370
     9
100
AcDbLine
 10
631.0930647438574
 20
532.715706831812
 30
0.0
 11
1117.126304008243
 21
532.715706831812
 31
0.0
  0
LINE
  5
62
330
1F
100
AcDbEntity
  8
F-Fﾚｲﾔ
  6
Continuous
 62
     7
370
     9
100
AcDbLine
 10
631.0930647438574
 20
468.7157068318121
 30
0.0
 11
1117.126304008243
 21
468.7157068318121
 31
0.0
  0
TEXT
  5
63
330
1F
100
AcDbEntity
  8
F-5ﾚｲﾔ
  6
Continuous
 62
     2
370
     9
100
AcDbText
 10
647.6270255014673
 20
606.9717068318121
 30
0.0
 40
12.192
  1
充填深さ 65mm
 41
1.115384615384615
  7
ＭＳ ゴシック
100
AcDbText
  0
TEXT
  5
64
330
1F
100
AcDbEntity
  8
F-5ﾚｲﾔ
  6
Continuous
 62
     2
370
     9
100
AcDbText
 10
647.6270255014672
 20
738.9717068318121
 30
0.0
 40
12.192
  1
化粧用スリットみぞ蓋　インターロッキングブロック用
 41
1.12
  7
ＭＳ ゴシック
100
AcDbText
  0
TEXT
  5
65
330
1F
100
AcDbEntity
  8
F-5ﾚｲﾔ
  6
Continuous
 62
     2
370
     9
100
AcDbText
 10
647.6270255014672
 20
706.9717068318121
 30
0.0
 40
12.192
  1
集水桝用
 41
1.09375
  7
ＭＳ ゴシック
100
AcDbText
  0
LINE
  5
66
330
1F
100
AcDbEntity
  8
通り芯
  6
JWW_CENTER2
 62
     7
370
     9
100
AcDbLine
 10
-327.453976862917
 20
-98.77587789251817
 30
0.0
 11
-767.1546644628347
 21
-98.77587789251817
 31
0.0
  0
LINE
  5
67
330
1F
100
AcDbEntity
  8
通り芯
  6
JWW_CENTER2
 62
     7
370
     9
100
AcDbLine
 10
-644.6092460585915
 20
-67.25409488598831
 30
0.0
 11
-644.6092460585915
 21
-128.2829025613533
 31
0.0
  0
LINE
  5
68
330
1F
100
AcDbEntity
  8
通り芯
  6
JWW_CENTER2
 62
     7
370
     9
100
AcDbLine
 10
-444.6092460585919
 20
-67.25409488598831
 30
0.0
 11
-444.6092460585919
 21
-128.2829025613533
 31
0.0
  0
LINE
  5
69
330
1F
100
AcDbEntity
  8
通り芯
  6
JWW_CENTER2
 62
     7
370
     9
100
AcDbLine
 10
71.37942995254389
 20
-98.77587789251817
 30
0.0
 11
193.765485928961
 21
-98.77587789251817
 31
0.0
  0
LINE
  5
6A
330
1F
100
AcDbEntity
  8
仕上
  6
Continuous
 62
     7
370
     9
100
AcDbLine
 10
-745.1092460585915
 20
101.724419977897
 30
0.0
 11
-745.1092460585915
 21
-299.2761757629326
 31
0.0
  0
LINE
  5
6B
330
1F
100
AcDbEntity
  8
仕上
  6
Continuous
 62
     7
370
     9
100
AcDbLine
 10
-740.6091612220803
 20
84.22421589895788
 30
0.0
 11
-740.6091612220803
 21
-281.7759716839929
 31
0.0
  0
LINE
  5
6C
330
1F
100
AcDbEntity
  8
仕上
  6
Continuous
 62
     7
370
     9
100
AcDbLine
 10
-745.1092460585915
 20
101.724419977897
 30
0.0
 11
-740.6091612220803
 21
101.724419977897
 31
0.0
  0
LINE
  5
6D
330
1F
100
AcDbEntity
  8
仕上
  6
Continuous
 62
     7
370
     9
100
AcDbLine
 10
-740.6091612220803
 20
101.724419977897
 30
0.0
 11
-740.6091612220803
 21
99.2244199778965
 31
0.0
  0
LINE
  5
6E
330
1F
100
AcDbEntity
  8
仕上
  6
Continuous
 62
     7
370
     9
100
AcDbLine
 10
-740.6091612220803
 20
94.72433514138578
 30
0.0
 11
-740.6091612220803
 21
88.72430073546724
 31
0.0
  0
LINE
  5
6F
330
1F
100
AcDbEntity
  8
仕上
  6
Continuous
 62
     7
370
     9
100
AcDbLine
 10
-730.6091126767433
 20
84.22421589895788
 30
0.0
 11
-740.6091612220803
 21
74.22416735362089
 31
0.0
  0
LINE
  5
70
330
1F
100
AcDbEntity
  8
仕上
  6
JWW_DASHED1
 62
     7
370
     9
100
AcDbLine
 10
-730.6091126767433
 20
84.22421589895788
 30
0.0
 11
-726.1090278402332
 21
88.72430073546724
 31
0.0
  0
LINE
  5
71
330
1F
100
AcDbEntity
  8
仕上
  6
JWW_DASHED1
 62
     7
370
     9
100
AcDbLine
 10
-740.6091612220803
 20
74.22416735362089
 30
0.0
 11
-745.1092460585915
 21
69.72450245783824
 31
0.0
  0
LINE
  5
72
330
1F
100
AcDbEntity
  8
仕上
  6
Continuous
 62
     7
370
     9
100
AcDbLine
 10
-745.1092460585915
 20
-299.2761757629326
 30
0.0
 11
-740.6091612220803
 21
-299.2761757629326
 31
0.0
  0
LINE
  5
73
330
1F
100
AcDbEntity
  8
仕上
  6
Continuous
 62
     7
370
     9
100
AcDbLine
 10
-740.6091612220803
 20
-299.2761757629326
 30
0.0
 11
-740.6091612220803
 21
-296.7761757629328
 31
0.0
  0
LINE
  5
74
330
1F
100
AcDbEntity
  8
仕上
  6
Continuous
 62
     7
370
     9
100
AcDbLine
 10
-740.6091612220803
 20
-292.2760909264214
 30
0.0
 11
-740.6091612220803
 21
-286.2760565205043
 31
0.0
  0
LINE
  5
75
330
1F
100
AcDbEntity
  8
仕上
  6
Continuous
 62
     7
370
     9
100
AcDbLine
 10
-358.6093794404389
 20
-281.7759716839929
 30
0.0
 11
-348.6093308951022
 21
-271.7759231386559
 31
0.0
  0
LINE
  5
76
330
1F
100
AcDbEntity
  8
仕上
  6
JWW_DASHED1
 62
     7
370
     9
100
AcDbLine
 10
-358.6093794404389
 20
-281.7759716839929
 30
0.0
 11
-363.109464276949
 21
-286.2760565205043
 31
0.0
  0
LINE
  5
77
330
1F
100
AcDbEntity
  8
仕上
  6
JWW_DASHED1
 62
     7
370
     9
100
AcDbLine
 10
-348.6093308951022
 20
-271.7759231386559
 30
0.0
 11
-344.1092460585919
 21
-267.2762582428739
 31
0.0
  0
LINE
  5
78
330
1F
100
AcDbEntity
  8
仕上
  6
Continuous
 62
     7
370
     9
100
AcDbLine
 10
-348.6093308951022
 20
-292.2760909264214
 30
0.0
 11
-348.6093308951022
 21
-286.2760565205043
 31
0.0
  0
LINE
  5
79
330
1F
100
AcDbEntity
  8
仕上
  6
Continuous
 62
     7
370
     9
100
AcDbLine
 10
-348.6093308951022
 20
-299.2761757629326
 30
0.0
 11
-348.6093308951022
 21
-296.7761757629328
 31
0.0
  0
LINE
  5
7A
330
1F
100
AcDbEntity
  8
仕上
  6
Continuous
 62
     7
370
     9
100
AcDbLine
 10
-344.1092460585919
 20
-299.2761757629326
 30
0.0
 11
-348.6093308951022
 21
-299.2761757629326
 31
0.0
  0
LINE
  5
7B
330
1F
100
AcDbEntity
  8
仕上
  6
JWW_HOJO
 62
     7
370
     9
100
AcDbLine
 10
-348.6093308951022
 20
102.2244199778965
 30
0.0
 11
-348.6093308951022
 21
105.5671758621319
 31
0.0
  0
LINE
  5
7C
330
1F
100
AcDbEntity
  8
仕上
  6
Continuous
 62
     7
370
     9
100
AcDbLine
 10
-348.6093308951022
 20
94.72433514138578
 30
0.0
 11
-348.6093308951022
 21
88.72430073546724
 31
0.0
  0
LINE
  5
7D
330
1F
100
AcDbEntity
  8
仕上
  6
Continuous
 62
     7
370
     9
100
AcDbLine
 10
-348.6093308951022
 20
101.724419977897
 30
0.0
 11
-348.6093308951022
 21
99.2244199778965
 31
0.0
  0
LINE
  5
7E
330
1F
100
AcDbEntity
  8
仕上
  6
Continuous
 62
     7
370
     9
100
AcDbLine
 10
-344.1092460585919
 20
101.724419977897
 30
0.0
 11
-348.6093308951022
 21
101.724419977897
 31
0.0
  0
LINE
  5
7F
330
1F
100
AcDbEntity
  8
仕上
  6
Continuous
 62
     7
370
     9
100
AcDbLine
 10
-348.6093308951022
 20
84.22421589895788
 30
0.0
 11
-348.6093308951022
 21
-281.7759716839929
 31
0.0
  0
LINE
  5
80
330
1F
100
AcDbEntity
  8
仕上
  6
Continuous
 62
     7
370
     9
100
AcDbLine
 10
-344.1092460585919
 20
101.724419977897
 30
0.0
 11
-344.1092460585919
 21
-299.2761757629326
 31
0.0
  0
LINE
  5
81
330
1F
100
AcDbEntity
  8
仕上
  6
Continuous
 62
     7
370
     9
100
AcDbLine
 10
-344.1092460585919
 20
84.22421589895788
 30
0.0
 11
-745.1092460585915
 21
84.22421589895788
 31
0.0
  0
LINE
  5
82
330
1F
100
AcDbEntity
  8
仕上
  6
Continuous
 62
     7
370
     9
100
AcDbLine
 10
-344.1092460585919
 20
99.2244199778965
 30
0.0
 11
-745.1092460585915
 21
99.2244199778965
 31
0.0
  0
LINE
  5
83
330
1F
100
AcDbEntity
  8
仕上
  6
Continuous
 62
     7
370
     9
100
AcDbLine
 10
-344.1092460585919
 20
94.72433514138578
 30
0.0
 11
-745.1092460585915
 21
94.72433514138578
 31
0.0
  0
LINE
  5
84
330
1F
100
AcDbEntity
  8
仕上
  6
Continuous
 62
     7
370
     9
100
AcDbLine
 10
-344.1092460585919
 20
88.72430073546724
 30
0.0
 11
-745.1092460585915
 21
88.72430073546724
 31
0.0
  0
LINE
  5
85
330
1F
100
AcDbEntity
  8
仕上
  6
Continuous
 62
     2
370
     9
100
AcDbLine
 10
-344.1092460585919
 20
-299.2761757629333
 30
0.0
 11
-745.1092460585915
 21
-299.2761757629333
 31
0.0
  0
LINE
  5
86
330
1F
100
AcDbEntity
  8
仕上
  6
Continuous
 62
     7
370
     9
100
AcDbLine
 10
-344.1092460585919
 20
-281.7759716839929
 30
0.0
 11
-745.1092460585915
 21
-281.7759716839929
 31
0.0
  0
LINE
  5
87
330
1F
100
AcDbEntity
  8
仕上
  6
Continuous
 62
     7
370
     9
100
AcDbLine
 10
-344.1092460585919
 20
-292.2760909264214
 30
0.0
 11
-745.1092460585915
 21
-292.2760909264214
 31
0.0
  0
LINE
  5
88
330
1F
100
AcDbEntity
  8
仕上
  6
Continuous
 62
     7
370
     9
100
AcDbLine
 10
-344.1092460585919
 20
-296.7761757629328
 30
0.0
 11
-745.1092460585915
 21
-296.7761757629328
 31
0.0
  0
LINE
  5
89
330
1F
100
AcDbEntity
  8
仕上
  6
Continuous
 62
     3
370
     9
100
AcDbLine
 10
-629.6092257331777
 20
-123.2304446474116
 30
0.0
 11
-629.6092257331777
 21
-74.32131113762404
 31
0.0
  0
LINE
  5
8A
330
1F
100
AcDbEntity
  8
仕上
  6
Continuous
 62
     3
370
     9
100
AcDbLine
 10
-659.6092663840052
 20
-74.32131113762404
 30
0.0
 11
-659.6092663840052
 21
-123.2304446474116
 31
0.0
  0
LINE
  5
8B
330
1F
100
AcDbEntity
  8
仕上
  6
Continuous
 62
     3
370
     9
100
AcDbLine
 10
-659.6092663840052
 20
-74.82131113762358
 30
0.0
 11
-629.6092257331777
 21
-74.82131113762358
 31
0.0
  0
LINE
  5
8C
330
1F
100
AcDbEntity
  8
仕上
  6
Continuous
 62
     3
370
     9
100
AcDbLine
 10
-659.6092663840052
 20
-74.32131113762404
 30
0.0
 11
-629.6092257331777
 21
-74.32131113762404
 31
0.0
  0
LINE
  5
8D
330
1F
100
AcDbEntity
  8
仕上
  6
Continuous
 62
     3
370
     9
100
AcDbLine
 10
-659.6092663840052
 20
-90.40985248873386
 30
0.0
 11
-629.6092257331777
 21
-90.40985248873386
 31
0.0
  0
LINE
  5
8E
330
1F
100
AcDbEntity
  8
仕上
  6
Continuous
 62
     3
370
     9
100
AcDbLine
 10
-659.6092663840052
 20
-123.2304446474116
 30
0.0
 11
-629.6092257331777
 21
-123.2304446474116
 31
0.0
  0
LINE
  5
8F
330
1F
100
AcDbEntity
  8
仕上
  6
Continuous
 62
     3
370
     9
100
AcDbLine
 10
-659.6092663840052
 20
-122.7304446474121
 30
0.0
 11
-629.6092257331777
 21
-122.7304446474121
 31
0.0
  0
LINE
  5
90
330
1F
100
AcDbEntity
  8
仕上
  6
Continuous
 62
     3
370
     9
100
AcDbLine
 10
-659.6092663840052
 20
-107.1419032963018
 30
0.0
 11
-629.6092257331777
 21
-107.1419032963018
 31
0.0
  0
LINE
  5
91
330
1F
100
AcDbEntity
  8
仕上
  6
Continuous
 62
     3
370
     9
100
AcDbLine
 10
-459.6092663840059
 20
-123.2304446474116
 30
0.0
 11
-459.6092663840059
 21
-74.32131113762404
 31
0.0
  0
LINE
  5
92
330
1F
100
AcDbEntity
  8
仕上
  6
Continuous
 62
     3
370
     9
100
AcDbLine
 10
-429.6092257331782
 20
-74.32131113762404
 30
0.0
 11
-429.6092257331782
 21
-123.2304446474116
 31
0.0
  0
LINE
  5
93
330
1F
100
AcDbEntity
  8
仕上
  6
Continuous
 62
     3
370
     9
100
AcDbLine
 10
-429.6092257331782
 20
-74.82131113762358
 30
0.0
 11
-459.6092663840059
 21
-74.82131113762358
 31
0.0
  0
LINE
  5
94
330
1F
100
AcDbEntity
  8
仕上
  6
Continuous
 62
     3
370
     9
100
AcDbLine
 10
-429.6092257331782
 20
-74.32131113762404
 30
0.0
 11
-459.6092663840059
 21
-74.32131113762404
 31
0.0
  0
LINE
  5
95
330
1F
100
AcDbEntity
  8
仕上
  6
Continuous
 62
     3
370
     9
100
AcDbLine
 10
-429.6092257331782
 20
-90.40985248873386
 30
0.0
 11
-459.6092663840059
 21
-90.40985248873386
 31
0.0
  0
LINE
  5
96
330
1F
100
AcDbEntity
  8
仕上
  6
Continuous
 62
     3
370
     9
100
AcDbLine
 10
-429.6092257331782
 20
-123.2304446474116
 30
0.0
 11
-459.6092663840059
 21
-123.2304446474116
 31
0.0
  0
LINE
  5
97
330
1F
100
AcDbEntity
  8
仕上
  6
Continuous
 62
     3
370
     9
100
AcDbLine
 10
-429.6092257331782
 20
-122.7304446474121
 30
0.0
 11
-459.6092663840059
 21
-122.7304446474121
 31
0.0
  0
LINE
  5
98
330
1F
100
AcDbEntity
  8
仕上
  6
Continuous
 62
     3
370
     9
100
AcDbLine
 10
-429.6092257331782
 20
-107.1419032963018
 30
0.0
 11
-459.6092663840059
 21
-107.1419032963018
 31
0.0
  0
LINE
  5
99
330
1F
100
AcDbEntity
  8
仕上
  6
Continuous
 62
     7
370
     9
100
AcDbLine
 10
-344.1092460585919
 20
101.724419977897
 30
0.0
 11
-745.1092460585915
 21
101.724419977897
 31
0.0
  0
LINE
  5
9A
330
1F
100
AcDbEntity
  8
仕上
  6
Continuous
 62
     7
370
     9
100
AcDbLine
 10
-344.1092460585919
 20
-286.2760565205043
 30
0.0
 11
-745.1092460585915
 21
-286.2760565205043
 31
0.0
  0
LINE
  5
9B
330
1F
100
AcDbEntity
  8
仕上
  6
JWW_DASHED1
 62
     2
370
     9
100
AcDbLine
 10
-740.6091096132038
 20
94.72433514138578
 30
0.0
 11
-740.6091096132038
 21
99.2244199778965
 31
0.0
  0
LINE
  5
9C
330
1F
100
AcDbEntity
  8
仕上
  6
Continuous
 62
     2
370
     9
100
AcDbLine
 10
-740.6091096132038
 20
88.72430073546724
 30
0.0
 11
-740.6091096132038
 21
94.72433514138578
 31
0.0
  0
LINE
  5
9D
330
1F
100
AcDbEntity
  8
仕上
  6
JWW_DASHED1
 62
     2
370
     9
100
AcDbLine
 10
-740.6091096132038
 20
88.72430073546724
 30
0.0
 11
-740.6091096132038
 21
84.22421589895788
 31
0.0
  0
LINE
  5
9E
330
1F
100
AcDbEntity
  8
仕上
  6
JWW_DASHED1
 62
     2
370
     9
100
AcDbLine
 10
-740.6091096132038
 20
-281.7759716839929
 30
0.0
 11
-740.6091096132038
 21
-286.2760565205043
 31
0.0
  0
LINE
  5
9F
330
1F
100
AcDbEntity
  8
仕上
  6
Continuous
 62
     2
370
     9
100
AcDbLine
 10
-740.6091096132038
 20
-286.2760565205043
 30
0.0
 11
-740.6091096132038
 21
-292.2760909264214
 31
0.0
  0
LINE
  5
A0
330
1F
100
AcDbEntity
  8
仕上
  6
Continuous
 62
     2
370
     9
100
AcDbLine
 10
-740.6091096132038
 20
84.22421589895788
 30
0.0
 11
-740.6091096132038
 21
75.72421896249665
 31
0.0
  0
LINE
  5
A1
330
1F
100
AcDbEntity
  8
仕上
  6
Continuous
 62
     2
370
     9
100
AcDbLine
 10
-740.6091096132038
 20
-273.2759747475323
 30
0.0
 11
-740.6091096132038
 21
-281.7759716839929
 31
0.0
  0
LINE
  5
A2
330
1F
100
AcDbEntity
  8
仕上
  6
JWW_DASHED1
 62
     2
370
     9
100
AcDbLine
 10
-740.6091096132038
 20
75.72421896249665
 30
0.0
 11
-740.6091096132038
 21
-273.2759747475323
 31
0.0
  0
LINE
  5
A3
330
1F
100
AcDbEntity
  8
仕上
  6
Continuous
 62
     7
370
     9
100
AcDbLine
 10
-542.3592036403368
 20
99.2244199778965
 30
0.0
 11
-542.3592036403368
 21
101.724419977897
 31
0.0
  0
LINE
  5
A4
330
1F
100
AcDbEntity
  8
仕上
  6
Continuous
 62
     7
370
     9
100
AcDbLine
 10
-546.8592884768468
 20
99.2244199778965
 30
0.0
 11
-546.8592884768468
 21
101.724419977897
 31
0.0
  0
LINE
  5
A5
330
1F
100
AcDbEntity
  8
仕上
  6
Continuous
 62
     7
370
     9
100
AcDbLine
 10
-546.8592884768468
 20
101.724419977897
 30
0.0
 11
-542.3592036403368
 21
101.724419977897
 31
0.0
  0
LINE
  5
A6
330
1F
100
AcDbEntity
  8
仕上
  6
Continuous
 62
     7
370
     9
100
AcDbLine
 10
-542.3592036403368
 20
88.72430073546724
 30
0.0
 11
-542.3592036403368
 21
94.72433514138578
 31
0.0
  0
LINE
  5
A7
330
1F
100
AcDbEntity
  8
仕上
  6
Continuous
 62
     7
370
     9
100
AcDbLine
 10
-546.8592884768468
 20
88.72430073546724
 30
0.0
 11
-546.8592884768468
 21
94.72433514138578
 31
0.0
  0
LINE
  5
A8
330
1F
100
AcDbEntity
  8
仕上
  6
JWW_DASHED1
 62
     2
370
     9
100
AcDbLine
 10
-546.8593400857244
 20
-286.2760565205043
 30
0.0
 11
-546.8593400857244
 21
88.72430073546724
 31
0.0
  0
LINE
  5
A9
330
1F
100
AcDbEntity
  8
仕上
  6
Continuous
 62
     2
370
     9
100
AcDbLine
 10
-546.8593400857244
 20
88.72430073546724
 30
0.0
 11
-546.8593400857244
 21
94.72433514138578
 31
0.0
  0
LINE
  5
AA
330
1F
100
AcDbEntity
  8
仕上
  6
Continuous
 62
     2
370
     9
100
AcDbLine
 10
-546.8593400857244
 20
-286.2760565205043
 30
0.0
 11
-546.8593400857244
 21
-292.2760909264214
 31
0.0
  0
LINE
  5
AB
330
1F
100
AcDbEntity
  8
仕上
  6
JWW_DASHED1
 62
     2
370
     9
100
AcDbLine
 10
-542.359152031459
 20
88.72430073546724
 30
0.0
 11
-542.359152031459
 21
-286.2760565205043
 31
0.0
  0
LINE
  5
AC
330
1F
100
AcDbEntity
  8
仕上
  6
Continuous
 62
     2
370
     9
100
AcDbLine
 10
-542.359152031459
 20
88.72430073546724
 30
0.0
 11
-542.359152031459
 21
94.72433514138578
 31
0.0
  0
LINE
  5
AD
330
1F
100
AcDbEntity
  8
仕上
  6
Continuous
 62
     2
370
     9
100
AcDbLine
 10
-542.359152031459
 20
-286.2760565205043
 30
0.0
 11
-542.359152031459
 21
-292.2760909264214
 31
0.0
  0
LINE
  5
AE
330
1F
100
AcDbEntity
  8
仕上
  6
Continuous
 62
     7
370
     9
100
AcDbLine
 10
-542.3592036403368
 20
-296.7761757629328
 30
0.0
 11
-542.3592036403368
 21
-299.2761757629333
 31
0.0
  0
LINE
  5
AF
330
1F
100
AcDbEntity
  8
仕上
  6
Continuous
 62
     7
370
     9
100
AcDbLine
 10
-546.8592884768468
 20
-296.7761757629328
 30
0.0
 11
-546.8592884768468
 21
-299.2761757629333
 31
0.0
  0
LINE
  5
B0
330
1F
100
AcDbEntity
  8
仕上
  6
Continuous
 62
     7
370
     9
100
AcDbLine
 10
-546.8592884768468
 20
-299.2761757629333
 30
0.0
 11
-542.3592036403368
 21
-299.2761757629333
 31
0.0
  0
LINE
  5
B1
330
1F
100
AcDbEntity
  8
仕上
  6
JWW_DASHED1
 62
     2
370
     9
100
AcDbLine
 10
-348.6093825039798
 20
94.72433514138578
 30
0.0
 11
-348.6093825039798
 21
99.2244199778965
 31
0.0
  0
LINE
  5
B2
330
1F
100
AcDbEntity
  8
仕上
  6
Continuous
 62
     2
370
     9
100
AcDbLine
 10
-348.6093825039798
 20
88.72430073546724
 30
0.0
 11
-348.6093825039798
 21
94.72433514138578
 31
0.0
  0
LINE
  5
B3
330
1F
100
AcDbEntity
  8
仕上
  6
JWW_DASHED1
 62
     2
370
     9
100
AcDbLine
 10
-348.6093825039798
 20
88.72430073546724
 30
0.0
 11
-348.6093825039798
 21
84.22421589895788
 31
0.0
  0
LINE
  5
B4
330
1F
100
AcDbEntity
  8
仕上
  6
JWW_DASHED1
 62
     2
370
     9
100
AcDbLine
 10
-348.6093825039798
 20
-281.7759716839929
 30
0.0
 11
-348.6093825039798
 21
-286.2760565205043
 31
0.0
  0
LINE
  5
B5
330
1F
100
AcDbEntity
  8
仕上
  6
Continuous
 62
     2
370
     9
100
AcDbLine
 10
-348.6093825039798
 20
-286.2760565205043
 30
0.0
 11
-348.6093825039798
 21
-292.2760909264214
 31
0.0
  0
LINE
  5
B6
330
1F
100
AcDbEntity
  8
仕上
  6
Continuous
 62
     2
370
     9
100
AcDbLine
 10
-348.6093825039798
 20
84.22421589895788
 30
0.0
 11
-348.6093825039798
 21
75.72421896249665
 31
0.0
  0
LINE
  5
B7
330
1F
100
AcDbEntity
  8
仕上
  6
Continuous
 62
     2
370
     9
100
AcDbLine
 10
-348.6093825039798
 20
-273.2759747475323
 30
0.0
 11
-348.6093825039798
 21
-281.7759716839929
 31
0.0
  0
LINE
  5
B8
330
1F
100
AcDbEntity
  8
仕上
  6
JWW_DASHED1
 62
     2
370
     9
100
AcDbLine
 10
-348.6093825039798
 20
75.72421896249665
 30
0.0
 11
-348.6093825039798
 21
-273.2759747475323
 31
0.0
  0
LINE
  5
B9
330
1F
100
AcDbEntity
  8
仕上
  6
Continuous
 62
     7
370
     9
100
AcDbLine
 10
156.6584945147174
 20
-299.2761757629326
 30
0.0
 11
90.95828435582871
 21
-299.2761757629326
 31
0.0
  0
LINE
  5
BA
330
1F
100
AcDbEntity
  8
仕上
  6
Continuous
 62
     3
370
     9
100
AcDbLine
 10
153.4584790084882
 20
-106.5438270849491
 30
0.0
 11
144.3245044122723
 21
-122.3643351606379
 31
0.0
  0
LINE
  5
BB
330
1F
100
AcDbEntity
  8
仕上
  6
Continuous
 62
     3
370
     9
100
AcDbLine
 10
153.4584790084882
 20
-106.5438270849491
 30
0.0
 11
153.4584790084882
 21
-91.00792870008723
 31
0.0
  0
LINE
  5
BC
330
1F
100
AcDbEntity
  8
仕上
  6
Continuous
 62
     3
370
     9
100
AcDbLine
 10
153.4584790084882
 20
-91.00792870008723
 30
0.0
 11
144.3245044122723
 21
-75.18742062439838
 31
0.0
  0
LINE
  5
BD
330
1F
100
AcDbEntity
  8
仕上
  6
Continuous
 62
     3
370
     9
100
AcDbLine
 10
143.4584790084882
 20
-75.68742062439793
 30
0.0
 11
144.3245044122723
 21
-75.18742062439838
 31
0.0
  0
LINE
  5
BE
330
1F
100
AcDbEntity
  8
仕上
  6
Continuous
 62
     3
370
     9
100
AcDbLine
 10
143.4584790084882
 20
-121.8643351606384
 30
0.0
 11
144.3245044122723
 21
-122.3643351606379
 31
0.0
  0
LINE
  5
BF
330
1F
100
AcDbEntity
  8
仕上
  6
Continuous
 62
     3
370
     9
100
AcDbLine
 10
152.4584790084891
 20
-106.2758778925182
 30
0.0
 11
143.4584790084882
 21
-121.8643351606384
 31
0.0
  0
LINE
  5
C0
330
1F
100
AcDbEntity
  8
仕上
  6
Continuous
 62
     3
370
     9
100
AcDbLine
 10
152.4584790084891
 20
-106.2758778925182
 30
0.0
 11
152.4584790084891
 21
-91.27587789251817
 31
0.0
  0
LINE
  5
C1
330
1F
100
AcDbEntity
  8
仕上
  6
Continuous
 62
     3
370
     9
100
AcDbLine
 10
152.4584790084891
 20
-91.27587789251817
 30
0.0
 11
143.4584790084882
 21
-75.68742062439793
 31
0.0
  0
LINE
  5
C2
330
1F
100
AcDbEntity
  8
仕上
  6
Continuous
 62
     7
370
     9
100
AcDbLine
 10
78.45827940703157
 20
99.2244199778965
 30
0.0
 11
78.45827940703157
 21
94.72447936345537
 31
0.0
  0
LINE
  5
C3
330
1F
100
AcDbEntity
  8
仕上
  6
Continuous
 62
     7
370
     9
100
AcDbLine
 10
94.45835693817617
 20
94.72447936345537
 30
0.0
 11
78.45827940703157
 21
94.72447936345537
 31
0.0
  0
LINE
  5
C4
330
1F
100
AcDbEntity
  8
仕上
  6
Continuous
 62
     7
370
     9
100
AcDbLine
 10
94.45835693817617
 20
99.2244199778965
 30
0.0
 11
78.45827940703157
 21
99.2244199778965
 31
0.0
  0
LINE
  5
C5
330
1F
100
AcDbEntity
  8
仕上
  6
Continuous
 62
     7
370
     9
100
AcDbLine
 10
94.45835693817526
 20
99.2244199778965
 30
0.0
 11
94.45835693817526
 21
94.72447936345537
 31
0.0
  0
LINE
  5
C6
330
1F
100
AcDbEntity
  8
仕上
  6
Continuous
 62
     7
370
     9
100
AcDbLine
 10
156.6584945147174
 20
88.72430073546724
 30
0.0
 11
78.45827940703157
 21
88.72430073546724
 31
0.0
  0
LINE
  5
C7
330
1F
100
AcDbEntity
  8
仕上
  6
Continuous
 62
     7
370
     9
100
AcDbLine
 10
153.4584790084882
 20
84.22436012102611
 30
0.0
 11
78.45827940703157
 21
84.22436012102611
 31
0.0
  0
LINE
  5
C8
330
1F
100
AcDbEntity
  8
仕上
  6
Continuous
 62
     2
370
     9
100
AcDbLine
 10
194.6585703962633
 20
97.2241814930398
 30
0.0
 11
156.6584945147174
 21
97.2241814930398
 31
0.0
  0
LINE
  5
C9
330
1F
100
AcDbEntity
  8
仕上
  6
Continuous
 62
     2
370
     9
100
AcDbLine
 10
188.6585258570944
 20
101.724419977897
 30
0.0
 11
188.6585258570944
 21
97.2241814930398
 31
0.0
  0
LINE
  5
CA
330
1F
100
AcDbEntity
  8
仕上
  6
Continuous
 62
     2
370
     9
100
AcDbLine
 10
156.6584945147174
 20
101.724419977897
 30
0.0
 11
188.6585258570944
 21
101.724419977897
 31
0.0
  0
LINE
  5
CB
330
1F
100
AcDbEntity
  8
仕上
  6
Continuous
 62
     7
370
     9
100
AcDbLine
 10
100.6584565739454
 20
95.72437331781606
 30
0.0
 11
100.6584565739454
 21
88.72430073546724
 31
0.0
  0
LINE
  5
CC
330
1F
100
AcDbEntity
  8
仕上
  6
Continuous
 62
     7
370
     9
100
AcDbLine
 10
87.45828435582871
 20
94.72447936345264
 30
0.0
 11
87.45828435582871
 21
88.72430073546724
 31
0.0
  0
LINE
  5
CD
330
1F
100
AcDbEntity
  8
仕上
  6
Continuous
 62
     7
370
     9
100
AcDbLine
 10
130.6584565739454
 20
95.72437331781606
 30
0.0
 11
130.6584565739454
 21
88.72430073546724
 31
0.0
  0
LINE
  5
CE
330
1F
100
AcDbEntity
  8
仕上
  6
Continuous
 62
     7
370
     9
100
AcDbLine
 10
130.6584565739454
 20
95.72437331781606
 30
0.0
 11
100.6584565739454
 21
95.72437331781606
 31
0.0
  0
LINE
  5
CF
330
1F
100
AcDbEntity
  8
仕上
  6
Continuous
 62
     7
370
     9
100
AcDbLine
 10
90.95828435582871
 20
101.724419977897
 30
0.0
 11
90.95828435582871
 21
99.2244199778965
 31
0.0
  0
LINE
  5
D0
330
1F
100
AcDbEntity
  8
仕上
  6
Continuous
 62
     7
370
     9
100
AcDbLine
 10
156.6584945147174
 20
101.724419977897
 30
0.0
 11
90.95828435582871
 21
101.724419977897
 31
0.0
  0
LINE
  5
D1
330
1F
100
AcDbEntity
  8
仕上
  6
Continuous
 62
     7
370
     9
100
AcDbLine
 10
156.6584945147174
 20
101.724419977897
 30
0.0
 11
156.6584945147174
 21
97.2244199778956
 31
0.0
  0
LINE
  5
D2
330
1F
100
AcDbEntity
  8
仕上
  6
Continuous
 62
     7
370
     9
100
AcDbLine
 10
78.45827940703157
 20
-296.7761757629328
 30
0.0
 11
78.45827940703157
 21
-292.276235148489
 31
0.0
  0
LINE
  5
D3
330
1F
100
AcDbEntity
  8
仕上
  6
Continuous
 62
     7
370
     9
100
AcDbLine
 10
94.45835693817617
 20
-292.276235148489
 30
0.0
 11
78.45827940703157
 21
-292.276235148489
 31
0.0
  0
LINE
  5
D4
330
1F
100
AcDbEntity
  8
仕上
  6
Continuous
 62
     7
370
     9
100
AcDbLine
 10
94.45835693817617
 20
-296.7761757629328
 30
0.0
 11
78.45827940703157
 21
-296.7761757629328
 31
0.0
  0
LINE
  5
D5
330
1F
100
AcDbEntity
  8
仕上
  6
Continuous
 62
     7
370
     9
100
AcDbLine
 10
94.45835693817617
 20
-296.7761757629328
 30
0.0
 11
94.45835693817617
 21
-292.276235148489
 31
0.0
  0
LINE
  5
D6
330
1F
100
AcDbEntity
  8
仕上
  6
Continuous
 62
     7
370
     9
100
AcDbLine
 10
156.6584945147174
 20
-286.2760565205043
 30
0.0
 11
78.45827940703157
 21
-286.2760565205043
 31
0.0
  0
LINE
  5
D7
330
1F
100
AcDbEntity
  8
仕上
  6
Continuous
 62
     7
370
     9
100
AcDbLine
 10
153.4584790084882
 20
-281.7761159060604
 30
0.0
 11
78.45827940703157
 21
-281.7761159060604
 31
0.0
  0
LINE
  5
D8
330
1F
100
AcDbEntity
  8
仕上
  6
Continuous
 62
     2
370
     9
100
AcDbLine
 10
194.6585703962633
 20
-294.7759372780741
 30
0.0
 11
156.6584945147174
 21
-294.7759372780741
 31
0.0
  0
LINE
  5
D9
330
1F
100
AcDbEntity
  8
仕上
  6
Continuous
 62
     2
370
     9
100
AcDbLine
 10
188.6585258570944
 20
-299.2761757629326
 30
0.0
 11
188.6585258570944
 21
-294.7759372780741
 31
0.0
  0
LINE
  5
DA
330
1F
100
AcDbEntity
  8
仕上
  6
Continuous
 62
     2
370
     9
100
AcDbLine
 10
156.6584945147174
 20
-299.2761757629326
 30
0.0
 11
188.6585258570944
 21
-299.2761757629326
 31
0.0
  0
LINE
  5
DB
330
1F
100
AcDbEntity
  8
仕上
  6
Continuous
 62
     7
370
     9
100
AcDbLine
 10
100.6584565739454
 20
-293.2761291028517
 30
0.0
 11
100.6584565739454
 21
-286.2760565205043
 31
0.0
  0
LINE
  5
DC
330
1F
100
AcDbEntity
  8
仕上
  6
Continuous
 62
     7
370
     9
100
AcDbLine
 10
87.45828435582871
 20
-292.276235148489
 30
0.0
 11
87.45828435582871
 21
-286.2760565205043
 31
0.0
  0
LINE
  5
DD
330
1F
100
AcDbEntity
  8
仕上
  6
Continuous
 62
     7
370
     9
100
AcDbLine
 10
130.6584565739454
 20
-293.2761291028517
 30
0.0
 11
130.6584565739454
 21
-286.2760565205043
 31
0.0
  0
LINE
  5
DE
330
1F
100
AcDbEntity
  8
仕上
  6
Continuous
 62
     7
370
     9
100
AcDbLine
 10
130.6584565739454
 20
-293.2761291028517
 30
0.0
 11
100.6584565739454
 21
-293.2761291028517
 31
0.0
  0
LINE
  5
DF
330
1F
100
AcDbEntity
  8
仕上
  6
Continuous
 62
     7
370
     9
100
AcDbLine
 10
90.95828435582871
 20
-299.2761757629326
 30
0.0
 11
90.95828435582871
 21
-296.7761757629328
 31
0.0
  0
LINE
  5
E0
330
1F
100
AcDbEntity
  8
仕上
  6
Continuous
 62
     7
370
     9
100
AcDbLine
 10
156.6584945147174
 20
-299.2761757629326
 30
0.0
 11
156.6584945147174
 21
-294.7761757629326
 31
0.0
  0
LINE
  5
E1
330
1F
100
AcDbEntity
  8
仕上
  6
Continuous
 62
     7
370
     9
100
AcDbLine
 10
78.45827940703157
 20
-286.2760565205043
 30
0.0
 11
78.45827940703157
 21
88.72430073546724
 31
0.0
  0
LINE
  5
E2
330
1F
100
AcDbEntity
  8
仕上
  6
Continuous
 62
     7
370
     9
100
AcDbLine
 10
153.4584790084882
 20
-286.2760565205043
 30
0.0
 11
153.4584790084882
 21
88.72430073546724
 31
0.0
  0
LINE
  5
E3
330
1F
100
AcDbEntity
  8
仕上
  6
Continuous
 62
     2
370
     9
100
AcDbLine
 10
156.6584945147174
 20
101.724419977897
 30
0.0
 11
156.6584945147174
 21
-299.2761757629326
 31
0.0
  0
LINE
  5
E4
330
1F
100
AcDbEntity
  8
仕上
  6
Continuous
 62
     2
370
     9
100
AcDbLine
 10
194.6585703962633
 20
-294.7759372780741
 30
0.0
 11
194.6585703962633
 21
97.2241814930398
 31
0.0
  0
LINE
  5
E5
330
1F
100
AcDbEntity
  8
仕上
  6
JWW_CENTER2
 62
     7
370
     9
100
AcDbLine
 10
-715.1092513903295
 20
75.72429843781282
 30
0.0
 11
-715.1092513903295
 21
61.72429843781282
 31
0.0
  0
LINE
  5
E6
330
1F
100
AcDbEntity
  8
仕上
  6
JWW_CENTER2
 62
     7
370
     9
100
AcDbLine
 10
-708.1092513903295
 20
68.72429843781276
 30
0.0
 11
-722.1092513903297
 21
68.72429843781276
 31
0.0
  0
CIRCLE
  5
E7
330
1F
100
AcDbEntity
  8
仕上
  6
Continuous
 62
     7
370
     9
100
AcDbCircle
 10
-715.1092513903295
 20
68.72429843781276
 30
0.0
 40
5.0
  0
LINE
  5
E8
330
1F
100
AcDbEntity
  8
仕上
  6
JWW_CENTER2
 62
     7
370
     9
100
AcDbLine
 10
-544.6092460585917
 20
108.0240730487157
 30
0.0
 11
-544.6092460585917
 21
-308.5991156368676
 31
0.0
  0
LINE
  5
E9
330
1F
100
AcDbEntity
  8
躯体
  6
JWW_DASHED3
 62
     2
370
     9
100
AcDbLine
 10
-694.6092460585917
 20
-248.7758778925182
 30
0.0
 11
-694.6092460585917
 21
51.22412210748185
 31
0.0
  0
LINE
  5
EA
330
1F
100
AcDbEntity
  8
躯体
  6
JWW_DASHED3
 62
     2
370
     9
100
AcDbLine
 10
-694.6092460585917
 20
51.22412210748185
 30
0.0
 11
-394.6092460585917
 21
51.22412210748185
 31
0.0
  0
LINE
  5
EB
330
1F
100
AcDbEntity
  8
躯体
  6
JWW_DASHED3
 62
     2
370
     9
100
AcDbLine
 10
-394.6092460585917
 20
51.22412210748185
 30
0.0
 11
-394.6092460585917
 21
-248.7758778925182
 31
0.0
  0
LINE
  5
EC
330
1F
100
AcDbEntity
  8
躯体
  6
JWW_DASHED3
 62
     2
370
     9
100
AcDbLine
 10
-394.6092460585917
 20
-248.7758778925182
 30
0.0
 11
-694.6092460585917
 21
-248.7758778925182
 31
0.0
  0
LINE
  5
ED
330
1F
100
AcDbEntity
  8
建具
  6
Continuous
 62
     4
370
     9
100
AcDbLine
 10
-754.6092460585917
 20
-308.7758778925183
 30
0.0
 11
-754.6092460585917
 21
111.2241221074818
 31
0.0
  0
LINE
  5
EE
330
1F
100
AcDbEntity
  8
建具
  6
Continuous
 62
     4
370
     9
100
AcDbLine
 10
-754.6092460585917
 20
111.2241221074818
 30
0.0
 11
-334.6092460585919
 21
111.2241221074818
 31
0.0
  0
LINE
  5
EF
330
1F
100
AcDbEntity
  8
建具
  6
Continuous
 62
     4
370
     9
100
AcDbLine
 10
-334.6092460585919
 20
111.2241221074818
 30
0.0
 11
-334.6092460585919
 21
-308.7758778925183
 31
0.0
  0
LINE
  5
F0
330
1F
100
AcDbEntity
  8
建具
  6
Continuous
 62
     4
370
     9
100
AcDbLine
 10
-334.6092460585919
 20
-308.7758778925183
 30
0.0
 11
-754.6092460585917
 21
-308.7758778925183
 31
0.0
  0
LINE
  5
F1
330
1F
100
AcDbEntity
  8
建具
  6
Continuous
 62
     4
370
     9
100
AcDbLine
 10
-748.6092757513704
 20
-302.7758580973324
 30
0.0
 11
-748.6092757513704
 21
105.2242012882249
 31
0.0
  0
LINE
  5
F2
330
1F
100
AcDbEntity
  8
建具
  6
Continuous
 62
     4
370
     9
100
AcDbLine
 10
-748.6092757513704
 20
105.2242012882249
 30
0.0
 11
-340.6092658537777
 21
105.2242012882249
 31
0.0
  0
LINE
  5
F3
330
1F
100
AcDbEntity
  8
建具
  6
Continuous
 62
     4
370
     9
100
AcDbLine
 10
-340.6092658537777
 20
105.2242012882249
 30
0.0
 11
-340.6092658537777
 21
-302.7758580973324
 31
0.0
  0
LINE
  5
F4
330
1F
100
AcDbEntity
  8
建具
  6
Continuous
 62
     4
370
     9
100
AcDbLine
 10
-340.6092658537777
 20
-302.7758580973324
 30
0.0
 11
-748.6092757513704
 21
-302.7758580973324
 31
0.0
  0
LINE
  5
F5
330
1F
100
AcDbEntity
  8
建具
  6
Continuous
 62
     4
370
     9
100
AcDbLine
 10
-679.6092460585917
 20
151.2241550994581
 30
0.0
 11
-629.6092790505679
 21
151.2241550994581
 31
0.0
  0
LINE
  5
F6
330
1F
100
AcDbEntity
  8
建具
  6
Continuous
 62
     4
370
     9
100
AcDbLine
 10
-679.6092460585917
 20
111.2241221074818
 30
0.0
 11
-679.6092460585917
 21
151.2241550994581
 31
0.0
  0
LINE
  5
F7
330
1F
100
AcDbEntity
  8
建具
  6
Continuous
 62
     4
370
     9
100
AcDbLine
 10
-629.6092790505679
 20
151.2241550994581
 30
0.0
 11
-629.6092790505679
 21
111.2241221074818
 31
0.0
  0
LINE
  5
F8
330
1F
100
AcDbEntity
  8
建具
  6
JWW_CENTER1
 62
     4
370
     9
100
AcDbLine
 10
-654.60926255458
 20
133.2240957139006
 30
0.0
 11
-654.60926255458
 21
147.0440057117891
 31
0.0
  0
LINE
  5
F9
330
1F
100
AcDbEntity
  8
建具
  6
JWW_CENTER1
 62
     4
370
     9
100
AcDbLine
 10
-654.60926255458
 20
133.2240957139006
 30
0.0
 11
-639.13734532485
 21
133.2240957139006
 31
0.0
  0
LINE
  5
FA
330
1F
100
AcDbEntity
  8
建具
  6
JWW_CENTER1
 62
     4
370
     9
100
AcDbLine
 10
-654.60926255458
 20
133.2240957139006
 30
0.0
 11
-654.60926255458
 21
119.4042846919412
 31
0.0
  0
LINE
  5
FB
330
1F
100
AcDbEntity
  8
建具
  6
JWW_CENTER1
 62
     4
370
     9
100
AcDbLine
 10
-654.60926255458
 20
133.2240957139006
 30
0.0
 11
-670.0811797843096
 21
133.2240957139006
 31
0.0
  0
LINE
  5
FC
330
1F
100
AcDbEntity
  8
建具
  6
Continuous
 62
     4
370
     9
100
AcDbLine
 10
-409.6092460585917
 20
151.2241550994581
 30
0.0
 11
-459.6092130666154
 21
151.2241550994581
 31
0.0
  0
LINE
  5
FD
330
1F
100
AcDbEntity
  8
建具
  6
Continuous
 62
     4
370
     9
100
AcDbLine
 10
-409.6092460585917
 20
111.2241221074818
 30
0.0
 11
-409.6092460585917
 21
151.2241550994581
 31
0.0
  0
LINE
  5
FE
330
1F
100
AcDbEntity
  8
建具
  6
Continuous
 62
     4
370
     9
100
AcDbLine
 10
-459.6092130666154
 20
151.2241550994581
 30
0.0
 11
-459.6092130666154
 21
111.2241221074818
 31
0.0
  0
LINE
  5
FF
330
1F
100
AcDbEntity
  8
建具
  6
JWW_CENTER1
 62
     4
370
     9
100
AcDbLine
 10
-434.6092295626033
 20
133.2240957139006
 30
0.0
 11
-434.6092295626033
 21
147.0440057117891
 31
0.0
  0
LINE
  5
100
330
1F
100
AcDbEntity
  8
建具
  6
JWW_CENTER1
 62
     4
370
     9
100
AcDbLine
 10
-434.6092295626033
 20
133.2240957139006
 30
0.0
 11
-450.0811467923334
 21
133.2240957139006
 31
0.0
  0
LINE
  5
101
330
1F
100
AcDbEntity
  8
建具
  6
JWW_CENTER1
 62
     4
370
     9
100
AcDbLine
 10
-434.6092295626033
 20
133.2240957139006
 30
0.0
 11
-434.6092295626033
 21
119.4042846919412
 31
0.0
  0
LINE
  5
102
330
1F
100
AcDbEntity
  8
建具
  6
JWW_CENTER1
 62
     4
370
     9
100
AcDbLine
 10
-434.6092295626033
 20
133.2240957139006
 30
0.0
 11
-419.1373123328738
 21
133.2240957139006
 31
0.0
  0
LINE
  5
103
330
1F
100
AcDbEntity
  8
建具
  6
Continuous
 62
     4
370
     9
100
AcDbLine
 10
-409.6092460585917
 20
-348.7759108844946
 30
0.0
 11
-459.6092130666154
 21
-348.7759108844946
 31
0.0
  0
LINE
  5
104
330
1F
100
AcDbEntity
  8
建具
  6
Continuous
 62
     4
370
     9
100
AcDbLine
 10
-409.6092460585917
 20
-308.7758778925183
 30
0.0
 11
-409.6092460585917
 21
-348.7759108844946
 31
0.0
  0
LINE
  5
105
330
1F
100
AcDbEntity
  8
建具
  6
Continuous
 62
     4
370
     9
100
AcDbLine
 10
-459.6092130666154
 20
-348.7759108844946
 30
0.0
 11
-459.6092130666154
 21
-308.7758778925183
 31
0.0
  0
LINE
  5
106
330
1F
100
AcDbEntity
  8
建具
  6
JWW_CENTER1
 62
     4
370
     9
100
AcDbLine
 10
-434.6092295626033
 20
-330.7758514989371
 30
0.0
 11
-434.6092295626033
 21
-344.5957614968257
 31
0.0
  0
LINE
  5
107
330
1F
100
AcDbEntity
  8
建具
  6
JWW_CENTER1
 62
     4
370
     9
100
AcDbLine
 10
-434.6092295626033
 20
-330.7758514989371
 30
0.0
 11
-450.0811467923334
 21
-330.7758514989371
 31
0.0
  0
LINE
  5
108
330
1F
100
AcDbEntity
  8
建具
  6
JWW_CENTER1
 62
     4
370
     9
100
AcDbLine
 10
-434.6092295626033
 20
-330.7758514989371
 30
0.0
 11
-434.6092295626033
 21
-316.9560404769778
 31
0.0
  0
LINE
  5
109
330
1F
100
AcDbEntity
  8
建具
  6
JWW_CENTER1
 62
     4
370
     9
100
AcDbLine
 10
-434.6092295626033
 20
-330.7758514989371
 30
0.0
 11
-419.1373123328738
 21
-330.7758514989371
 31
0.0
  0
LINE
  5
10A
330
1F
100
AcDbEntity
  8
建具
  6
Continuous
 62
     4
370
     9
100
AcDbLine
 10
-679.6092460585917
 20
-348.7759108844946
 30
0.0
 11
-629.6092790505679
 21
-348.7759108844946
 31
0.0
  0
LINE
  5
10B
330
1F
100
AcDbEntity
  8
建具
  6
Continuous
 62
     4
370
     9
100
AcDbLine
 10
-679.6092460585917
 20
-308.7758778925183
 30
0.0
 11
-679.6092460585917
 21
-348.7759108844946
 31
0.0
  0
LINE
  5
10C
330
1F
100
AcDbEntity
  8
建具
  6
Continuous
 62
     4
370
     9
100
AcDbLine
 10
-629.6092790505679
 20
-348.7759108844946
 30
0.0
 11
-629.6092790505679
 21
-308.7758778925183
 31
0.0
  0
LINE
  5
10D
330
1F
100
AcDbEntity
  8
建具
  6
JWW_CENTER1
 62
     4
370
     9
100
AcDbLine
 10
-654.60926255458
 20
-330.7758514989371
 30
0.0
 11
-654.60926255458
 21
-344.5957614968257
 31
0.0
  0
LINE
  5
10E
330
1F
100
AcDbEntity
  8
建具
  6
JWW_CENTER1
 62
     4
370
     9
100
AcDbLine
 10
-654.60926255458
 20
-330.7758514989371
 30
0.0
 11
-639.13734532485
 21
-330.7758514989371
 31
0.0
  0
LINE
  5
10F
330
1F
100
AcDbEntity
  8
建具
  6
JWW_CENTER1
 62
     4
370
     9
100
AcDbLine
 10
-654.60926255458
 20
-330.7758514989371
 30
0.0
 11
-654.60926255458
 21
-316.9560404769778
 31
0.0
  0
LINE
  5
110
330
1F
100
AcDbEntity
  8
建具
  6
JWW_CENTER1
 62
     4
370
     9
100
AcDbLine
 10
-654.60926255458
 20
-330.7758514989371
 30
0.0
 11
-670.0811797843096
 21
-330.7758514989371
 31
0.0
  0
CIRCLE
  5
111
330
1F
100
AcDbEntity
  8
建具
  6
Continuous
 62
     4
370
     9
100
AcDbCircle
 10
-654.60926255458
 20
133.2240957139006
 30
0.0
 40
8.000000103099927
  0
CIRCLE
  5
112
330
1F
100
AcDbEntity
  8
建具
  6
Continuous
 62
     4
370
     9
100
AcDbCircle
 10
-434.6092295626033
 20
133.2240957139006
 30
0.0
 40
8.000000103099927
  0
CIRCLE
  5
113
330
1F
100
AcDbEntity
  8
建具
  6
Continuous
 62
     4
370
     9
100
AcDbCircle
 10
-434.6092295626033
 20
-330.7758514989371
 30
0.0
 40
8.000000103099927
  0
CIRCLE
  5
114
330
1F
100
AcDbEntity
  8
建具
  6
Continuous
 62
     4
370
     9
100
AcDbCircle
 10
-654.60926255458
 20
-330.7758514989371
 30
0.0
 40
8.000000103099927
  0
LINE
  5
115
330
1F
100
AcDbEntity
  8
建具
  6
Continuous
 62
     4
370
     9
100
AcDbLine
 10
190.6585571994729
 20
-302.7759075852959
 30
0.0
 11
78.4586522163645
 21
-302.7759075852959
 31
0.0
  0
LINE
  5
116
330
1F
100
AcDbEntity
  8
建具
  6
Continuous
 62
     4
370
     9
100
AcDbLine
 10
194.6585703962633
 20
-298.7758449005409
 30
0.0
 11
194.6585703962633
 21
-248.7758778925173
 31
0.0
  0
LINE
  5
117
330
1F
100
AcDbEntity
  8
建具
  6
Continuous
 62
     4
370
     9
100
AcDbLine
 10
194.6585703962633
 20
-248.7758778925173
 30
0.0
 11
200.6584912155199
 21
-248.7758778925173
 31
0.0
  0
LINE
  5
118
330
1F
100
AcDbEntity
  8
建具
  6
Continuous
 62
     4
370
     9
100
AcDbLine
 10
78.4586522163645
 20
-302.7759075852959
 30
0.0
 11
78.4586522163645
 21
-308.7758284045528
 31
0.0
  0
LINE
  5
119
330
1F
100
AcDbEntity
  8
建具
  6
Continuous
 62
     4
370
     9
100
AcDbLine
 10
78.4586522163645
 20
-308.7758284045528
 30
0.0
 11
190.6585571994729
 21
-308.7758284045528
 31
0.0
  0
LINE
  5
11A
330
1F
100
AcDbEntity
  8
建具
  6
Continuous
 62
     4
370
     9
100
AcDbLine
 10
200.6584912155199
 20
-248.7758778925173
 30
0.0
 11
206.6586099866349
 21
-248.7758778925173
 31
0.0
  0
LINE
  5
11B
330
1F
100
AcDbEntity
  8
建具
  6
Continuous
 62
     4
370
     9
100
AcDbLine
 10
200.6584912155199
 20
-348.775861396529
 30
0.0
 11
206.6586099866349
 21
-348.775861396529
 31
0.0
  0
LINE
  5
11C
330
1F
100
AcDbEntity
  8
建具
  6
JWW_CENTER1
 62
     4
370
     9
100
AcDbLine
 10
191.7314562704187
 20
-330.7758514989361
 30
0.0
 11
217.6696820938982
 21
-330.7758514989361
 31
0.0
  0
LINE
  5
11D
330
1F
100
AcDbEntity
  8
建具
  6
Continuous
 62
     4
370
     9
100
AcDbLine
 10
200.6584912155199
 20
-338.7758284045528
 30
0.0
 11
206.6586099866349
 21
-338.7758284045528
 31
0.0
  0
LINE
  5
11E
330
1F
100
AcDbEntity
  8
建具
  6
Continuous
 62
     4
370
     9
100
AcDbLine
 10
200.6584912155199
 20
-248.7758778925173
 30
0.0
 11
200.6584912155199
 21
-348.775861396529
 31
0.0
  0
LINE
  5
11F
330
1F
100
AcDbEntity
  8
建具
  6
Continuous
 62
     4
370
     9
100
AcDbLine
 10
206.6586099866349
 20
-248.7758778925173
 30
0.0
 11
206.6586099866349
 21
-348.775861396529
 31
0.0
  0
LINE
  5
120
330
1F
100
AcDbEntity
  8
建具
  6
Continuous
 62
     4
370
     9
100
AcDbLine
 10
200.6584912155199
 20
-322.7758251053551
 30
0.0
 11
206.6586099866349
 21
-322.7758251053551
 31
0.0
  0
ARC
  5
121
330
1F
100
AcDbEntity
  8
建具
  6
Continuous
 62
     4
370
     9
100
AcDbCircle
 10
190.6585571994729
 20
-298.7758449005409
 30
0.0
 40
4.000000051549963
100
AcDbArc
 50
270.0
 51
0.0
  0
ARC
  5
122
330
1F
100
AcDbEntity
  8
建具
  6
Continuous
 62
     4
370
     9
100
AcDbCircle
 10
190.6585571994729
 20
-298.7758449005409
 30
0.0
 40
10.00000051549963
100
AcDbArc
 50
270.0
 51
0.0
  0
LINE
  5
123
330
1F
100
AcDbEntity
  8
建具
  6
Continuous
 62
     4
370
     9
100
AcDbLine
 10
190.6585571994729
 20
105.224201288226
 30
0.0
 11
78.4586522163645
 21
105.224201288226
 31
0.0
  0
LINE
  5
124
330
1F
100
AcDbEntity
  8
建具
  6
Continuous
 62
     4
370
     9
100
AcDbLine
 10
194.6585703962633
 20
101.2239901395774
 30
0.0
 11
194.6585703962633
 21
51.22412210748286
 31
0.0
  0
LINE
  5
125
330
1F
100
AcDbEntity
  8
建具
  6
Continuous
 62
     4
370
     9
100
AcDbLine
 10
194.6585703962633
 20
51.22412210748286
 30
0.0
 11
200.6584912155199
 21
51.22412210748286
 31
0.0
  0
LINE
  5
126
330
1F
100
AcDbEntity
  8
建具
  6
Continuous
 62
     4
370
     9
100
AcDbLine
 10
78.4586522163645
 20
105.224201288226
 30
0.0
 11
78.4586522163645
 21
111.2241221074829
 31
0.0
  0
LINE
  5
127
330
1F
100
AcDbEntity
  8
建具
  6
Continuous
 62
     4
370
     9
100
AcDbLine
 10
78.4586522163645
 20
111.2241221074829
 30
0.0
 11
190.6585571994729
 21
111.2241221074829
 31
0.0
  0
LINE
  5
128
330
1F
100
AcDbEntity
  8
建具
  6
Continuous
 62
     4
370
     9
100
AcDbLine
 10
200.6584912155199
 20
51.22412210748286
 30
0.0
 11
206.6586099866349
 21
51.22412210748286
 31
0.0
  0
LINE
  5
129
330
1F
100
AcDbEntity
  8
建具
  6
Continuous
 62
     4
370
     9
100
AcDbLine
 10
200.6584912155199
 20
151.2240561235301
 30
0.0
 11
206.6586099866349
 21
151.2240561235301
 31
0.0
  0
LINE
  5
12A
330
1F
100
AcDbEntity
  8
建具
  6
JWW_CENTER1
 62
     4
370
     9
100
AcDbLine
 10
191.7314562704187
 20
133.2240957139016
 30
0.0
 11
217.6696820938982
 21
133.2240957139016
 31
0.0
  0
LINE
  5
12B
330
1F
100
AcDbEntity
  8
建具
  6
Continuous
 62
     4
370
     9
100
AcDbLine
 10
200.6584912155199
 20
141.2241221074829
 30
0.0
 11
206.6586099866349
 21
141.2241221074829
 31
0.0
  0
LINE
  5
12C
330
1F
100
AcDbEntity
  8
建具
  6
Continuous
 62
     4
370
     9
100
AcDbLine
 10
200.6584912155199
 20
51.22412210748286
 30
0.0
 11
200.6584912155199
 21
151.2240561235301
 31
0.0
  0
LINE
  5
12D
330
1F
100
AcDbEntity
  8
建具
  6
Continuous
 62
     4
370
     9
100
AcDbLine
 10
206.6586099866349
 20
51.22412210748286
 30
0.0
 11
206.6586099866349
 21
151.2240561235301
 31
0.0
  0
LINE
  5
12E
330
1F
100
AcDbEntity
  8
建具
  6
Continuous
 62
     4
370
     9
100
AcDbLine
 10
200.6584912155199
 20
125.2240693203206
 30
0.0
 11
206.6586099866349
 21
125.2240693203206
 31
0.0
  0
ARC
  5
12F
330
1F
100
AcDbEntity
  8
建具
  6
Continuous
 62
     4
370
     9
100
AcDbCircle
 10
190.6585571994729
 20
101.2239901395774
 30
0.0
 40
4.000000051549963
100
AcDbArc
 50
0.0
 51
90.0
  0
ARC
  5
130
330
1F
100
AcDbEntity
  8
建具
  6
Continuous
 62
     4
370
     9
100
AcDbCircle
 10
190.6585571994729
 20
101.2239901395774
 30
0.0
 40
10.00000051549963
100
AcDbArc
 50
0.0
 51
90.0
  0
LINE
  5
131
330
1F
100
AcDbEntity
  8
寸法
  6
Continuous
 62
     7
370
     9
100
AcDbLine
 10
143.4584790084882
 20
-75.68742062439793
 30
0.0
 11
137.3708647184008
 21
-67.75388722148551
 31
0.0
  0
LINE
  5
132
330
1F
100
AcDbEntity
  8
寸法
  6
Continuous
 62
     7
370
     9
100
AcDbLine
 10
143.4584790084882
 20
-75.68742062439793
 30
0.0
 11
139.6316446848373
 21
-66.44862529928497
 31
0.0
  0
LINE
  5
133
330
1F
100
AcDbEntity
  8
寸法
  6
Continuous
 62
     7
370
     9
100
AcDbLine
 10
111.6170516879472
 20
111.2241221074829
 30
0.0
 11
105.5294373978597
 21
119.1576555103953
 31
0.0
  0
LINE
  5
134
330
1F
100
AcDbEntity
  8
寸法
  6
Continuous
 62
     7
370
     9
100
AcDbLine
 10
111.6170516879472
 20
111.2241221074829
 30
0.0
 11
107.7902173642963
 21
120.4629174325958
 31
0.0
  0
LINE
  5
135
330
1F
100
AcDbEntity
  8
寸法
  6
Continuous
 62
     7
370
     9
100
AcDbLine
 10
9.056770370878212
 20
288.863740187203
 30
0.0
 11
111.6170516879472
 21
111.2241221074829
 31
0.0
  0
LINE
  5
136
330
1F
100
AcDbEntity
  8
寸法
  6
Continuous
 62
     7
370
     9
100
AcDbLine
 10
78.4582794070293
 20
-75.44653944423956
 30
0.0
 11
72.37066511694184
 21
-67.51300604132715
 31
0.0
  0
LINE
  5
137
330
1F
100
AcDbEntity
  8
寸法
  6
Continuous
 62
     7
370
     9
100
AcDbLine
 10
78.4582794070293
 20
-75.44653944423956
 30
0.0
 11
74.63144508337837
 21
-66.2077441191266
 31
0.0
  0
LINE
  5
138
330
1F
100
AcDbEntity
  8
寸法
  6
Continuous
 62
     7
370
     9
100
AcDbLine
 10
-55.67855641065989
 20
156.885275358523
 30
0.0
 11
78.4582794070293
 21
-75.44653944423956
 31
0.0
  0
TEXT
  5
139
330
1F
100
AcDbEntity
  8
寸法
  6
Continuous
 62
     7
370
     0
100
AcDbText
 10
-161.0008294974227
 20
161.5879363924297
 30
0.0
 40
9.144
  1
蓋：ＳＳ４００
 41
1.142857142857145
  7
ＭＳ ゴシック
100
AcDbText
  0
TEXT
  5
13A
330
1F
100
AcDbEntity
  8
寸法
  6
Continuous
 62
     7
370
     0
100
AcDbText
 10
-176.5034149025937
 20
144.1579456924482
 30
0.0
 40
9.144
  1
（溶融亜鉛めっき）
 41
1.14814814814815
  7
ＭＳ ゴシック
100
AcDbText
  0
LINE
  5
13B
330
1F
100
AcDbEntity
  8
寸法
  6
Continuous
 62
     7
370
     9
100
AcDbLine
 10
-170.9896889706215
 20
156.885275358523
 30
0.0
 11
-55.67855641065967
 21
156.885275358523
 31
0.0
  0
LINE
  5
13C
330
1F
100
AcDbEntity
  8
寸法
  6
Continuous
 62
     7
370
     9
100
AcDbLine
 10
-30.37893313791933
 20
225.4078094694713
 30
0.0
 11
143.4584790084882
 21
-75.68742062439793
 31
0.0
  0
TEXT
  5
13D
330
1F
100
AcDbEntity
  8
寸法
  6
Continuous
 62
     7
370
     0
100
AcDbText
 10
-188.966859936485
 20
229.8050804612142
 30
0.0
 40
9.144
  1
モルタル止め：ｔ＝１.０
 41
1.152173913043477
  7
ＭＳ ゴシック
100
AcDbText
  0
LINE
  5
13E
330
1F
100
AcDbEntity
  8
寸法
  6
Continuous
 62
     7
370
     9
100
AcDbLine
 10
-192.8721265678123
 20
225.4078094694713
 30
0.0
 11
-30.37893313791933
 21
225.4078094694713
 31
0.0
  0
TEXT
  5
13F
330
1F
100
AcDbEntity
  8
寸法
  6
Continuous
 62
     7
370
     0
100
AcDbText
 10
-153.4330181633991
 20
211.9978176149355
 30
0.0
 40
9.144
  1
ＳＵＳ４３０
 41
1.138888888888886
  7
ＭＳ ゴシック
100
AcDbText
  0
LWPOLYLINE
  5
140
330
1F
100
AcDbEntity
  8
その他
  6
Continuous
 62
     7
370
     9
100
AcDbPolyline
 90
        4
 70
     1
 43
0.4
 10
78.6586522163645
 20
215.6620264923618
 42
0.4142135623731
 10
78.4586522163645
 20
215.8620264923618
 42
0.4142135623731
 10
78.2586522163645
 20
215.6620264923618
 42
0.4142135623731
 10
78.4586522163645
 20
215.4620264923618
 42
0.4142135623731
  0
LINE
  5
141
330
1F
100
AcDbEntity
  8
その他
  6
Continuous
 62
     7
370
     9
100
AcDbLine
 10
78.4586522163645
 20
216.8620264923618
 30
0.0
 11
78.4586522163645
 21
119.2241221074829
 31
0.0
  0
LWPOLYLINE
  5
142
330
1F
100
AcDbEntity
  8
その他
  6
Continuous
 62
     7
370
     9
100
AcDbPolyline
 90
        4
 70
     1
 43
0.4
 10
78.6586522163645
 20
185.2827467336249
 42
0.4142135623731
 10
78.4586522163645
 20
185.4827467336249
 42
0.4142135623731
 10
78.2586522163645
 20
185.2827467336249
 42
0.4142135623731
 10
78.4586522163645
 20
185.082746733625
 42
0.4142135623731
  0
LWPOLYLINE
  5
143
330
1F
100
AcDbEntity
  8
その他
  6
Continuous
 62
     7
370
     9
100
AcDbPolyline
 90
        4
 70
     1
 43
0.4
 10
200.8584912155199
 20
215.6620264923618
 42
0.4142135623731
 10
200.6584912155199
 20
215.8620264923618
 42
0.4142135623731
 10
200.4584912155199
 20
215.6620264923618
 42
0.4142135623731
 10
200.6584912155199
 20
215.4620264923618
 42
0.4142135623731
  0
LINE
  5
144
330
1F
100
AcDbEntity
  8
その他
  6
Continuous
 62
     7
370
     9
100
AcDbLine
 10
200.6584912155199
 20
216.8620264923618
 30
0.0
 11
200.6584912155199
 21
159.2240561235301
 31
0.0
  0
LINE
  5
145
330
1F
100
AcDbEntity
  8
その他
  6
Continuous
 62
     7
370
     9
100
AcDbLine
 10
200.6584912155199
 20
215.6620264923618
 30
0.0
 11
206.6586099866349
 21
215.6620264923618
 31
0.0
  0
LWPOLYLINE
  5
146
330
1F
100
AcDbEntity
  8
その他
  6
Continuous
 62
     7
370
     9
100
AcDbPolyline
 90
        4
 70
     1
 43
0.4
 10
206.8586099866349
 20
215.6620264923618
 42
0.4142135623731
 10
206.6586099866349
 20
215.8620264923618
 42
0.4142135623731
 10
206.4586099866349
 20
215.6620264923618
 42
0.4142135623731
 10
206.6586099866349
 20
215.4620264923618
 42
0.4142135623731
  0
LINE
  5
147
330
1F
100
AcDbEntity
  8
その他
  6
Continuous
 62
     7
370
     9
100
AcDbLine
 10
206.6586099866349
 20
216.8620264923618
 30
0.0
 11
206.6586099866349
 21
158.9740429267397
 31
0.0
  0
TEXT
  5
148
330
1F
100
AcDbEntity
  8
その他
  6
Continuous
 62
     2
370
   211
100
AcDbText
 10
199.6585506010774
 20
220.3180264923619
 30
0.0
 40
12.192
  1
6
  7
ＭＳ ゴシック
100
AcDbText
  0
LWPOLYLINE
  5
149
330
1F
100
AcDbEntity
  8
その他
  6
Continuous
 62
     7
370
     9
100
AcDbPolyline
 90
        4
 70
     1
 43
0.4
 10
194.858570396263
 20
185.2827467336249
 42
0.4142135623731
 10
194.658570396263
 20
185.4827467336249
 42
0.4142135623731
 10
194.458570396263
 20
185.2827467336249
 42
0.4142135623731
 10
194.658570396263
 20
185.082746733625
 42
0.4142135623731
  0
LINE
  5
14A
330
1F
100
AcDbEntity
  8
その他
  6
Continuous
 62
     7
370
     9
100
AcDbLine
 10
194.658570396263
 20
186.482746733625
 30
0.0
 11
194.658570396263
 21
119.2241221074829
 31
0.0
  0
LINE
  5
14B
330
1F
100
AcDbEntity
  8
その他
  6
Continuous
 62
     7
370
     9
100
AcDbLine
 10
78.4586522163645
 20
185.2827467336249
 30
0.0
 11
194.658570396263
 21
185.2827467336249
 31
0.0
  0
TEXT
  5
14C
330
1F
100
AcDbEntity
  8
その他
  6
Continuous
 62
     2
370
   211
100
AcDbText
 10
114.5586113063138
 20
189.938746733625
 30
0.0
 40
12.192
  1
116.2
 41
1.1
  7
ＭＳ ゴシック
100
AcDbText
  0
LINE
  5
14D
330
1F
100
AcDbEntity
  8
寸法
  6
Continuous
 62
     7
370
     9
100
AcDbLine
 10
206.6586099866349
 20
151.2240561235301
 30
0.0
 11
210.4854443102854
 21
160.4628514486431
 31
0.0
  0
LINE
  5
14E
330
1F
100
AcDbEntity
  8
寸法
  6
Continuous
 62
     7
370
     9
100
AcDbLine
 10
206.6586099866349
 20
151.2240561235301
 30
0.0
 11
212.7462242767219
 21
159.1575895264425
 31
0.0
  0
TEXT
  5
14F
330
1F
100
AcDbEntity
  8
寸法
  6
Continuous
 62
     7
370
     0
100
AcDbText
 10
251.0717412826129
 20
228.9920459791231
 30
0.0
 40
9.144
  1
アンカー：ｔ＝６.０
 41
1.149122807017546
  7
ＭＳ ゴシック
100
AcDbText
  0
LINE
  5
150
330
1F
100
AcDbEntity
  8
寸法
  6
Continuous
 62
     7
370
     9
100
AcDbLine
 10
249.679509896727
 20
225.7384405551448
 30
0.0
 11
206.6586099866349
 21
151.2240561235301
 31
0.0
  0
LWPOLYLINE
  5
151
330
1F
100
AcDbEntity
  8
仕上
  6
Continuous
 62
     7
370
     9
100
AcDbPolyline
 90
        4
 70
     1
 43
0.4
 10
-744.9092584305827
 20
230.2647510010277
 42
0.4142135623731
 10
-745.1092584305827
 20
230.4647510010277
 42
0.4142135623731
 10
-745.3092584305828
 20
230.2647510010277
 42
0.4142135623731
 10
-745.1092584305827
 20
230.0647510010277
 42
0.4142135623731
  0
LWPOLYLINE
  5
152
330
1F
100
AcDbEntity
  8
その他
  6
Continuous
 62
     7
370
     9
100
AcDbPolyline
 90
        4
 70
     1
 43
0.4
 10
-740.4091735940729
 20
196.7857402391432
 42
0.4142135623731
 10
-740.6091735940729
 20
196.9857402391432
 42
0.4142135623731
 10
-740.809173594073
 20
196.7857402391432
 42
0.4142135623731
 10
-740.6091735940729
 20
196.5857402391432
 42
0.4142135623731
  0
LINE
  5
153
330
1F
100
AcDbEntity
  8
仕上
  6
Continuous
 62
     7
370
     9
100
AcDbLine
 10
-745.1092584305827
 20
231.4647510010277
 30
0.0
 11
-745.1092584305827
 21
118.1872084167499
 31
0.0
  0
LINE
  5
154
330
1F
100
AcDbEntity
  8
その他
  6
Continuous
 62
     7
370
     9
100
AcDbLine
 10
-740.6091735940729
 20
197.9857402391432
 30
0.0
 11
-740.6091735940729
 21
118.1872084167499
 31
0.0
  0
LWPOLYLINE
  5
155
330
1F
100
AcDbEntity
  8
仕上
  6
Continuous
 62
     7
370
     9
100
AcDbPolyline
 90
        4
 70
     1
 43
0.4
 10
-343.9092460585919
 20
230.2647510010277
 42
0.4142135623731
 10
-344.1092460585919
 20
230.4647510010277
 42
0.4142135623731
 10
-344.3092460585919
 20
230.2647510010277
 42
0.4142135623731
 10
-344.1092460585919
 20
230.0647510010277
 42
0.4142135623731
  0
LWPOLYLINE
  5
156
330
1F
100
AcDbEntity
  8
その他
  6
Continuous
 62
     7
370
     9
100
AcDbPolyline
 90
        4
 70
     1
 43
0.4
 10
-348.4093308951022
 20
196.7857402391432
 42
0.4142135623731
 10
-348.6093308951022
 20
196.9857402391432
 42
0.4142135623731
 10
-348.8093308951022
 20
196.7857402391432
 42
0.4142135623731
 10
-348.6093308951022
 20
196.5857402391432
 42
0.4142135623731
  0
LINE
  5
157
330
1F
100
AcDbEntity
  8
その他
  6
Continuous
 62
     7
370
     9
100
AcDbLine
 10
-348.6093308951022
 20
197.9857402391432
 30
0.0
 11
-348.6093308951022
 21
118.1872084167499
 31
0.0
  0
LINE
  5
158
330
1F
100
AcDbEntity
  8
仕上
  6
Continuous
 62
     7
370
     9
100
AcDbLine
 10
-344.1092460585919
 20
231.4647510010277
 30
0.0
 11
-344.1092460585919
 21
118.1872084167499
 31
0.0
  0
LINE
  5
159
330
1F
100
AcDbEntity
  8
その他
  6
Continuous
 62
     7
370
     9
100
AcDbLine
 10
-754.6092460585917
 20
-404.4329734017835
 30
0.0
 11
-654.609250182589
 21
-404.4329734017835
 31
0.0
  0
LWPOLYLINE
  5
15A
330
1F
100
AcDbEntity
  8
その他
  6
Continuous
 62
     7
370
     9
100
AcDbPolyline
 90
        4
 70
     1
 43
0.4
 10
-754.4092460585916
 20
-404.4329734017835
 42
0.4142135623731
 10
-754.6092460585917
 20
-404.2329734017835
 42
0.4142135623731
 10
-754.8092460585917
 20
-404.4329734017835
 42
0.4142135623731
 10
-754.6092460585917
 20
-404.6329734017835
 42
0.4142135623731
  0
LWPOLYLINE
  5
15B
330
1F
100
AcDbEntity
  8
その他
  6
Continuous
 62
     7
370
     9
100
AcDbPolyline
 90
        4
 70
     1
 43
0.4
 10
-654.409250182589
 20
-404.4329734017835
 42
0.4142135623731
 10
-654.609250182589
 20
-404.2329734017835
 42
0.4142135623731
 10
-654.809250182589
 20
-404.4329734017835
 42
0.4142135623731
 10
-654.609250182589
 20
-404.6329734017835
 42
0.4142135623731
  0
LINE
  5
15C
330
1F
100
AcDbEntity
  8
その他
  6
Continuous
 62
     7
370
     9
100
AcDbLine
 10
-754.6092460585917
 20
-405.6329734017833
 30
0.0
 11
-754.6092460585917
 21
-316.7758778925183
 31
0.0
  0
TEXT
  5
15D
330
1F
100
AcDbEntity
  8
その他
  6
Continuous
 62
     2
370
   211
100
AcDbText
 10
-717.6092481205903
 20
-399.7769734017834
 30
0.0
 40
12.192
  1
100
 41
1.083333333333333
  7
ＭＳ ゴシック
100
AcDbText
  0
LINE
  5
15E
330
1F
100
AcDbEntity
  8
その他
  6
Continuous
 62
     7
370
     9
100
AcDbLine
 10
-654.609250182589
 20
-405.6329734017833
 30
0.0
 11
-654.609250182589
 21
-361.1588914432947
 31
0.0
  0
LWPOLYLINE
  5
15F
330
1F
100
AcDbEntity
  8
その他
  6
Continuous
 62
     7
370
     9
100
AcDbPolyline
 90
        4
 70
     1
 43
0.4
 10
-434.4092295626036
 20
-404.4329734017835
 42
0.4142135623731
 10
-434.6092295626036
 20
-404.2329734017835
 42
0.4142135623731
 10
-434.8092295626035
 20
-404.4329734017835
 42
0.4142135623731
 10
-434.6092295626036
 20
-404.6329734017835
 42
0.4142135623731
  0
LINE
  5
160
330
1F
100
AcDbEntity
  8
その他
  6
Continuous
 62
     7
370
     9
100
AcDbLine
 10
-434.6092295626036
 20
-404.4329734017835
 30
0.0
 11
-334.6092460585919
 21
-404.4329734017835
 31
0.0
  0
LWPOLYLINE
  5
161
330
1F
100
AcDbEntity
  8
その他
  6
Continuous
 62
     7
370
     9
100
AcDbPolyline
 90
        4
 70
     1
 43
0.4
 10
-334.4092460585919
 20
-404.4329734017835
 42
0.4142135623731
 10
-334.6092460585919
 20
-404.2329734017835
 42
0.4142135623731
 10
-334.8092460585919
 20
-404.4329734017835
 42
0.4142135623731
 10
-334.6092460585919
 20
-404.6329734017835
 42
0.4142135623731
  0
LINE
  5
162
330
1F
100
AcDbEntity
  8
その他
  6
Continuous
 62
     7
370
     9
100
AcDbLine
 10
-334.6092460585919
 20
-405.6329734017833
 30
0.0
 11
-334.6092460585919
 21
-316.7758778925183
 31
0.0
  0
TEXT
  5
163
330
1F
100
AcDbEntity
  8
その他
  6
Continuous
 62
     2
370
   211
100
AcDbText
 10
-397.6092378105977
 20
-399.7769734017834
 30
0.0
 40
12.192
  1
100
 41
1.083333333333333
  7
ＭＳ ゴシック
100
AcDbText
  0
LINE
  5
164
330
1F
100
AcDbEntity
  8
その他
  6
Continuous
 62
     7
370
     9
100
AcDbLine
 10
-434.6092295626036
 20
-405.6329734017833
 30
0.0
 11
-434.6092295626036
 21
-361.1588914432947
 31
0.0
  0
LINE
  5
165
330
1F
100
AcDbEntity
  8
その他
  6
Continuous
 62
     7
370
     9
100
AcDbLine
 10
-717.6092513903295
 20
64.39417141889055
 30
0.0
 11
-721.4360857139804
 21
55.15537609377759
 31
0.0
  0
LINE
  5
166
330
1F
100
AcDbEntity
  8
その他
  6
Continuous
 62
     7
370
     9
100
AcDbLine
 10
-765.604946671931
 20
-18.73681135343517
 30
0.0
 11
-717.6092513903295
 21
64.39417141889055
 31
0.0
  0
TEXT
  5
167
330
1F
100
AcDbEntity
  8
その他
  6
Continuous
 62
     2
370
     9
100
AcDbText
 10
-804.9744201901544
 20
-13.47287860292926
 30
0.0
 40
12.192
  1
φ10
 41
1.09375
  7
ＭＳ ゴシック
100
AcDbText
  0
LINE
  5
168
330
1F
100
AcDbEntity
  8
その他
  6
Continuous
 62
     7
370
     9
100
AcDbLine
 10
-806.4215348468674
 20
-18.73681135343517
 30
0.0
 11
-765.604946671931
 21
-18.73681135343517
 31
0.0
  0
LINE
  5
169
330
1F
100
AcDbEntity
  8
その他
  6
Continuous
 62
     7
370
     9
100
AcDbLine
 10
-717.6092513903295
 20
64.39417141889055
 30
0.0
 11
-723.6968656804165
 21
56.46063801597813
 31
0.0
  0
LINE
  5
16A
330
1F
100
AcDbEntity
  8
その他
  6
Continuous
 62
     7
370
     9
100
AcDbLine
 10
-494.6146610630919
 20
166.460147292236
 30
0.0
 11
-453.798072888156
 21
166.460147292236
 31
0.0
  0
LINE
  5
16B
330
1F
100
AcDbEntity
  8
その他
  6
Continuous
 62
     7
370
     9
100
AcDbLine
 10
-453.798072888156
 20
166.460147292236
 30
0.0
 11
-438.6092296141535
 21
140.1522990334632
 31
0.0
  0
LINE
  5
16C
330
1F
100
AcDbEntity
  8
その他
  6
Continuous
 62
     7
370
     9
100
AcDbLine
 10
-438.6092296141535
 20
140.1522990334632
 30
0.0
 11
-444.6968439042405
 21
148.0858324363755
 31
0.0
  0
LINE
  5
16D
330
1F
100
AcDbEntity
  8
その他
  6
Continuous
 62
     7
370
     9
100
AcDbLine
 10
-438.6092296141535
 20
140.1522990334632
 30
0.0
 11
-442.4360639378044
 21
149.3910943585761
 31
0.0
  0
TEXT
  5
16E
330
1F
100
AcDbEntity
  8
その他
  6
Continuous
 62
     2
370
     9
100
AcDbText
 10
-493.167546406379
 20
171.7240800427419
 30
0.0
 40
12.192
  1
φ16
 41
1.09375
  7
ＭＳ ゴシック
100
AcDbText
  0
LWPOLYLINE
  5
16F
330
1F
100
AcDbEntity
  8
その他
  6
Continuous
 62
     7
370
     9
100
AcDbPolyline
 90
        4
 70
     1
 43
0.4
 10
-88.28919681955885
 20
-308.7758284045528
 42
0.4142135623731
 10
-88.48919681955886
 20
-308.5758284045528
 42
0.4142135623731
 10
-88.68919681955886
 20
-308.7758284045528
 42
0.4142135623731
 10
-88.48919681955886
 20
-308.9758284045528
 42
0.4142135623731
  0
LINE
  5
170
330
1F
100
AcDbEntity
  8
その他
  6
Continuous
 62
     7
370
     9
100
AcDbLine
 10
-51.60787696857415
 20
-308.7758284045528
 30
0.0
 11
-51.60787696857415
 21
-302.7759075852961
 31
0.0
  0
LWPOLYLINE
  5
171
330
1F
100
AcDbEntity
  8
その他
  6
Continuous
 62
     7
370
     9
100
AcDbPolyline
 90
        4
 70
     1
 43
0.4
 10
-51.40787696857414
 20
-308.7758284045528
 42
0.4142135623731
 10
-51.60787696857415
 20
-308.5758284045528
 42
0.4142135623731
 10
-51.80787696857415
 20
-308.7758284045528
 42
0.4142135623731
 10
-51.60787696857415
 20
-308.9758284045528
 42
0.4142135623731
  0
LWPOLYLINE
  5
172
330
1F
100
AcDbEntity
  8
その他
  6
Continuous
 62
     7
370
     9
100
AcDbPolyline
 90
        4
 70
     1
 43
0.4
 10
-51.40787696857414
 20
-302.7759075852961
 42
0.4142135623731
 10
-51.60787696857415
 20
-302.5759075852961
 42
0.4142135623731
 10
-51.80787696857415
 20
-302.7759075852961
 42
0.4142135623731
 10
-51.60787696857415
 20
-302.9759075852961
 42
0.4142135623731
  0
LINE
  5
173
330
1F
100
AcDbEntity
  8
その他
  6
Continuous
 62
     7
370
     9
100
AcDbLine
 10
-51.60787696857415
 20
-302.7759075852961
 30
0.0
 11
-51.60787696857415
 21
-299.2761757629325
 31
0.0
  0
LWPOLYLINE
  5
174
330
1F
100
AcDbEntity
  8
その他
  6
Continuous
 62
     7
370
     9
100
AcDbPolyline
 90
        4
 70
     1
 43
0.4
 10
-51.40787696857414
 20
-299.2761757629325
 42
0.4142135623731
 10
-51.60787696857415
 20
-299.0761757629325
 42
0.4142135623731
 10
-51.80787696857415
 20
-299.2761757629325
 42
0.4142135623731
 10
-51.60787696857415
 20
-299.4761757629325
 42
0.4142135623731
  0
LWPOLYLINE
  5
175
330
1F
100
AcDbEntity
  8
その他
  6
Continuous
 62
     7
370
     9
100
AcDbPolyline
 90
        4
 70
     1
 43
0.4
 10
35.68971237169735
 20
-296.7761757629325
 42
0.4142135623731
 10
35.48971237169735
 20
-296.5761757629325
 42
0.4142135623731
 10
35.28971237169735
 20
-296.7761757629325
 42
0.4142135623731
 10
35.48971237169735
 20
-296.9761757629325
 42
0.4142135623731
  0
LINE
  5
176
330
1F
100
AcDbEntity
  8
その他
  6
Continuous
 62
     7
370
     9
100
AcDbLine
 10
35.48971237169735
 20
-296.7761757629325
 30
0.0
 11
35.48971237169735
 21
-292.2762351484882
 31
0.0
  0
LWPOLYLINE
  5
177
330
1F
100
AcDbEntity
  8
その他
  6
Continuous
 62
     7
370
     9
100
AcDbPolyline
 90
        4
 70
     1
 43
0.4
 10
35.68971237169735
 20
-292.2762351484882
 42
0.4142135623731
 10
35.48971237169735
 20
-292.0762351484882
 42
0.4142135623731
 10
35.28971237169735
 20
-292.2762351484882
 42
0.4142135623731
 10
35.48971237169735
 20
-292.4762351484882
 42
0.4142135623731
  0
LINE
  5
178
330
1F
100
AcDbEntity
  8
その他
  6
Continuous
 62
     7
370
     9
100
AcDbLine
 10
35.48971237169735
 20
-292.2762351484882
 30
0.0
 11
35.48971237169735
 21
-286.2760565205037
 31
0.0
  0
LWPOLYLINE
  5
179
330
1F
100
AcDbEntity
  8
その他
  6
Continuous
 62
     7
370
     9
100
AcDbPolyline
 90
        4
 70
     1
 43
0.4
 10
35.68971237169735
 20
-286.2760565205037
 42
0.4142135623731
 10
35.48971237169735
 20
-286.0760565205037
 42
0.4142135623731
 10
35.28971237169735
 20
-286.2760565205037
 42
0.4142135623731
 10
35.48971237169735
 20
-286.4760565205037
 42
0.4142135623731
  0
TEXT
  5
17A
330
1F
100
AcDbEntity
  8
その他
  6
Continuous
 62
     2
370
   211
100
AcDbText
 10
30.83371237169726
 20
-282.3934097019189
 30
0.0
 40
12.192
  1
6
 50
90.0
  7
ＭＳ ゴシック
100
AcDbText
  0
LINE
  5
17B
330
1F
100
AcDbEntity
  8
その他
  6
Continuous
 62
     7
370
     9
100
AcDbLine
 10
35.48971237169735
 20
-286.2760565205037
 30
0.0
 11
35.48971237169735
 21
-271.5075475521455
 31
0.0
  0
LWPOLYLINE
  5
17C
330
1F
100
AcDbEntity
  8
その他
  6
Continuous
 62
     7
370
     9
100
AcDbPolyline
 90
        4
 70
     1
 43
0.4
 10
-20.45185229035706
 20
-281.7761159060603
 42
0.4142135623731
 10
-20.65185229035706
 20
-281.5761159060603
 42
0.4142135623731
 10
-20.85185229035705
 20
-281.7761159060603
 42
0.4142135623731
 10
-20.65185229035706
 20
-281.9761159060603
 42
0.4142135623731
  0
LINE
  5
17D
330
1F
100
AcDbEntity
  8
その他
  6
Continuous
 62
     7
370
     9
100
AcDbLine
 10
-21.85185229035687
 20
-281.7761159060603
 30
0.0
 11
-5.295709637937762
 21
-281.7761159060603
 31
0.0
  0
LINE
  5
17E
330
1F
100
AcDbEntity
  8
その他
  6
Continuous
 62
     7
370
     9
100
AcDbLine
 10
-52.80787696857442
 20
-299.2761757629325
 30
0.0
 11
-5.295709637937762
 21
-299.2761757629325
 31
0.0
  0
LINE
  5
17F
330
1F
100
AcDbEntity
  8
その他
  6
Continuous
 62
     7
370
     9
100
AcDbLine
 10
-52.80787696857442
 20
-302.7759075852961
 30
0.0
 11
-5.295709637937762
 21
-302.7759075852961
 31
0.0
  0
LINE
  5
180
330
1F
100
AcDbEntity
  8
その他
  6
Continuous
 62
     7
370
     9
100
AcDbLine
 10
-89.68919681955867
 20
-308.7758284045528
 30
0.0
 11
-5.295709637937762
 21
-308.7758284045528
 31
0.0
  0
TEXT
  5
181
330
1F
100
AcDbEntity
  8
その他
  6
Continuous
 62
     2
370
   211
100
AcDbText
 10
-56.26387696857424
 20
-321.9810460639621
 30
0.0
 40
12.192
  1
6
 50
90.0
  7
ＭＳ ゴシック
100
AcDbText
  0
TEXT
  5
182
330
1F
100
AcDbEntity
  8
その他
  6
Continuous
 62
     2
370
   211
100
AcDbText
 10
-56.26387696857424
 20
-303.0058819695861
 30
0.0
 40
12.192
  1
3.5
 50
90.0
 41
1.083333333333333
  7
ＭＳ ゴシック
100
AcDbText
  0
LINE
  5
183
330
1F
100
AcDbEntity
  8
その他
  6
Continuous
 62
     7
370
     9
100
AcDbLine
 10
-51.60787696857415
 20
-308.7758284045528
 30
0.0
 11
-51.60787696857415
 21
-329.9287723959357
 31
0.0
  0
LINE
  5
184
330
1F
100
AcDbEntity
  8
その他
  6
Continuous
 62
     7
370
     9
100
AcDbLine
 10
34.28971237169708
 20
-286.2760565205037
 30
0.0
 11
70.4586522163645
 21
-286.2760565205037
 31
0.0
  0
LINE
  5
185
330
1F
100
AcDbEntity
  8
その他
  6
Continuous
 62
     7
370
     9
100
AcDbLine
 10
34.28971237169708
 20
-296.7761757629325
 30
0.0
 11
70.4586522163645
 21
-296.7761757629325
 31
0.0
  0
LINE
  5
186
330
1F
100
AcDbEntity
  8
その他
  6
Continuous
 62
     7
370
     9
100
AcDbLine
 10
34.28971237169708
 20
-292.2762351484882
 30
0.0
 11
70.4586522163645
 21
-292.2762351484882
 31
0.0
  0
LWPOLYLINE
  5
187
330
1F
100
AcDbEntity
  8
その他
  6
Continuous
 62
     7
370
     9
100
AcDbPolyline
 90
        4
 70
     1
 43
0.4
 10
35.68971237169735
 20
-302.7759075852961
 42
0.4142135623731
 10
35.48971237169735
 20
-302.5759075852961
 42
0.4142135623731
 10
35.28971237169735
 20
-302.7759075852961
 42
0.4142135623731
 10
35.48971237169735
 20
-302.9759075852961
 42
0.4142135623731
  0
LINE
  5
188
330
1F
100
AcDbEntity
  8
その他
  6
Continuous
 62
     7
370
     9
100
AcDbLine
 10
34.28971237169708
 20
-302.7759075852961
 30
0.0
 11
70.4586522163645
 21
-302.7759075852961
 31
0.0
  0
LINE
  5
189
330
1F
100
AcDbEntity
  8
その他
  6
Continuous
 62
     7
370
     9
100
AcDbLine
 10
35.48971237169735
 20
-302.7759075852961
 30
0.0
 11
35.48971237169735
 21
-296.7761757629325
 31
0.0
  0
TEXT
  5
18A
330
1F
100
AcDbEntity
  8
その他
  6
Continuous
 62
     2
370
   211
100
AcDbText
 10
30.83371237169726
 20
-314.0558626451255
 30
0.0
 40
12.192
  1
6
 50
90.0
  7
ＭＳ ゴシック
100
AcDbText
  0
LINE
  5
18B
330
1F
100
AcDbEntity
  8
その他
  6
Continuous
 62
     7
370
     9
100
AcDbLine
 10
35.48971237169735
 20
-302.7759075852961
 30
0.0
 11
35.48971237169735
 21
-317.0496536687196
 31
0.0
  0
LINE
  5
18C
330
1F
100
AcDbEntity
  8
その他
  6
Continuous
 62
     7
370
     9
100
AcDbLine
 10
35.48971237169735
 20
-294.5262054557103
 30
0.0
 11
15.27283549047979
 21
-303.9458252578422
 31
0.0
  0
LINE
  5
18D
330
1F
100
AcDbEntity
  8
その他
  6
Continuous
 62
     7
370
     9
100
AcDbLine
 10
15.27283549047979
 20
-303.9458252578422
 30
0.0
 11
15.27283549047979
 21
-327.7765205974962
 31
0.0
  0
TEXT
  5
18E
330
1F
100
AcDbEntity
  8
その他
  6
Continuous
 62
     2
370
   211
100
AcDbText
 10
11.37631660840211
 20
-330.1563194135198
 30
0.0
 40
12.192
  1
4.5
 50
90.0
 41
1.083333333333333
  7
ＭＳ ゴシック
100
AcDbText
  0
LWPOLYLINE
  5
18F
330
1F
100
AcDbEntity
  8
その他
  6
Continuous
 62
     7
370
     9
100
AcDbPolyline
 90
        4
 70
     1
 43
0.4
 10
-88.28919681955885
 20
111.2241221074814
 42
0.4142135623731
 10
-88.48919681955886
 20
111.4241221074814
 42
0.4142135623731
 10
-88.68919681955886
 20
111.2241221074814
 42
0.4142135623731
 10
-88.48919681955886
 20
111.0241221074814
 42
0.4142135623731
  0
LWPOLYLINE
  5
190
330
1F
100
AcDbEntity
  8
その他
  6
Continuous
 62
     7
370
     9
100
AcDbPolyline
 90
        4
 70
     1
 43
0.4
 10
-51.40787696857414
 20
101.7244199778956
 42
0.4142135623731
 10
-51.60787696857415
 20
101.9244199778956
 42
0.4142135623731
 10
-51.80787696857415
 20
101.7244199778956
 42
0.4142135623731
 10
-51.60787696857415
 20
101.5244199778956
 42
0.4142135623731
  0
LINE
  5
191
330
1F
100
AcDbEntity
  8
その他
  6
Continuous
 62
     7
370
     9
100
AcDbLine
 10
-51.60787696857415
 20
101.7244199778956
 30
0.0
 11
-51.60787696857415
 21
105.2242012882247
 31
0.0
  0
LWPOLYLINE
  5
192
330
1F
100
AcDbEntity
  8
その他
  6
Continuous
 62
     7
370
     9
100
AcDbPolyline
 90
        4
 70
     1
 43
0.4
 10
-51.40787696857414
 20
105.2242012882247
 42
0.4142135623731
 10
-51.60787696857415
 20
105.4242012882247
 42
0.4142135623731
 10
-51.80787696857415
 20
105.2242012882247
 42
0.4142135623731
 10
-51.60787696857415
 20
105.0242012882247
 42
0.4142135623731
  0
LINE
  5
193
330
1F
100
AcDbEntity
  8
その他
  6
Continuous
 62
     7
370
     9
100
AcDbLine
 10
-51.60787696857415
 20
105.2242012882247
 30
0.0
 11
-51.60787696857415
 21
111.2241221074814
 31
0.0
  0
LWPOLYLINE
  5
194
330
1F
100
AcDbEntity
  8
その他
  6
Continuous
 62
     7
370
     9
100
AcDbPolyline
 90
        4
 70
     1
 43
0.4
 10
-51.40787696857414
 20
111.2241221074814
 42
0.4142135623731
 10
-51.60787696857415
 20
111.4241221074814
 42
0.4142135623731
 10
-51.80787696857415
 20
111.2241221074814
 42
0.4142135623731
 10
-51.60787696857415
 20
111.0241221074814
 42
0.4142135623731
  0
LWPOLYLINE
  5
195
330
1F
100
AcDbEntity
  8
その他
  6
Continuous
 62
     7
370
     9
100
AcDbPolyline
 90
        4
 70
     1
 43
0.4
 10
-20.45185229035706
 20
84.22436012102611
 42
0.4142135623731
 10
-20.65185229035706
 20
84.42436012102611
 42
0.4142135623731
 10
-20.85185229035705
 20
84.22436012102611
 42
0.4142135623731
 10
-20.65185229035706
 20
84.0243601210261
 42
0.4142135623731
  0
TEXT
  5
196
330
1F
100
AcDbEntity
  8
その他
  6
Continuous
 62
     2
370
   211
100
AcDbText
 10
-56.26387696857424
 20
78.28546685662053
 30
0.0
 40
12.192
  1
3.5
 50
90.0
 41
1.083333333333333
  7
ＭＳ ゴシック
100
AcDbText
  0
TEXT
  5
197
330
1F
100
AcDbEntity
  8
その他
  6
Continuous
 62
     2
370
   211
100
AcDbText
 10
-56.26387696857424
 20
114.4234402739277
 30
0.0
 40
12.192
  1
6
 50
90.0
  7
ＭＳ ゴシック
100
AcDbText
  0
LINE
  5
198
330
1F
100
AcDbEntity
  8
その他
  6
Continuous
 62
     7
370
     9
100
AcDbLine
 10
-51.60787696857415
 20
111.2241221074814
 30
0.0
 11
-51.60787696857415
 21
127.7114617711731
 31
0.0
  0
LINE
  5
199
330
1F
100
AcDbEntity
  8
その他
  6
Continuous
 62
     7
370
     9
100
AcDbLine
 10
-89.68919681955867
 20
111.2241221074814
 30
0.0
 11
70.4586522163645
 21
111.2241221074814
 31
0.0
  0
LINE
  5
19A
330
1F
100
AcDbEntity
  8
その他
  6
Continuous
 62
     7
370
     9
100
AcDbLine
 10
-21.85185229035687
 20
84.22436012102611
 30
0.0
 11
70.4586522163645
 21
84.22436012102611
 31
0.0
  0
LINE
  5
19B
330
1F
100
AcDbEntity
  8
その他
  6
Continuous
 62
     7
370
     9
100
AcDbLine
 10
-52.80787696857442
 20
101.7244199778956
 30
0.0
 11
70.4586522163645
 21
101.7244199778956
 31
0.0
  0
LINE
  5
19C
330
1F
100
AcDbEntity
  8
その他
  6
Continuous
 62
     7
370
     9
100
AcDbLine
 10
-52.80787696857442
 20
105.2242012882247
 30
0.0
 11
70.4586522163645
 21
105.2242012882247
 31
0.0
  0
TEXT
  5
19D
330
1F
100
AcDbEntity
  8
その他
  6
Continuous
 62
     2
370
   211
100
AcDbText
 10
-93.14519681955895
 20
-120.775861396529
 30
0.0
 40
12.192
  1
□420
 50
90.0
 41
1.1
  7
ＭＳ ゴシック
100
AcDbText
  0
LINE
  5
19E
330
1F
100
AcDbEntity
  8
その他
  6
Continuous
 62
     7
370
     9
100
AcDbLine
 10
-51.60787696857415
 20
-299.2761757629325
 30
0.0
 11
-51.60787696857415
 21
101.7244199778956
 31
0.0
  0
TEXT
  5
19F
330
1F
100
AcDbEntity
  8
その他
  6
Continuous
 62
     2
370
   211
100
AcDbText
 10
-56.26387696857424
 20
-111.7758778925185
 30
0.0
 40
12.192
  1
401
 50
90.0
 41
1.083333333333333
  7
ＭＳ ゴシック
100
AcDbText
  0
LINE
  5
1A0
330
1F
100
AcDbEntity
  8
その他
  6
Continuous
 62
     7
370
     9
100
AcDbLine
 10
-20.65185229035706
 20
84.22436012102611
 30
0.0
 11
-20.65185229035706
 21
-281.7761159060603
 31
0.0
  0
TEXT
  5
1A1
330
1F
100
AcDbEntity
  8
その他
  6
Continuous
 62
     2
370
   211
100
AcDbText
 10
-25.30785229035715
 20
-111.7758778925171
 30
0.0
 40
12.192
  1
366
 50
90.0
 41
1.083333333333333
  7
ＭＳ ゴシック
100
AcDbText
  0
LINE
  5
1A2
330
1F
100
AcDbEntity
  8
その他
  6
Continuous
 62
     7
370
     9
100
AcDbLine
 10
78.4586522163645
 20
215.6620264923618
 30
0.0
 11
200.6584912155199
 21
215.6620264923618
 31
0.0
  0
TEXT
  5
1A3
330
1F
100
AcDbEntity
  8
その他
  6
Continuous
 62
     2
370
   211
100
AcDbText
 10
117.5585717159422
 20
220.3180264923619
 30
0.0
 40
12.192
  1
122.2
 41
1.1
  7
ＭＳ ゴシック
100
AcDbText
  0
LINE
  5
1A4
330
1F
100
AcDbEntity
  8
その他
  6
Continuous
 62
     7
370
     9
100
AcDbLine
 10
-654.609250182589
 20
-404.4329734017835
 30
0.0
 11
-434.6092295626036
 21
-404.4329734017835
 31
0.0
  0
TEXT
  5
1A5
330
1F
100
AcDbEntity
  8
その他
  6
Continuous
 62
     2
370
   211
100
AcDbText
 10
-557.6092398725963
 20
-399.7769734017834
 30
0.0
 40
12.192
  1
220
 41
1.083333333333333
  7
ＭＳ ゴシック
100
AcDbText
  0
LINE
  5
1A6
330
1F
100
AcDbEntity
  8
その他
  6
Continuous
 62
     7
370
     9
100
AcDbLine
 10
-740.6091735940729
 20
196.7857402391432
 30
0.0
 11
-348.6093308951022
 21
196.7857402391432
 31
0.0
  0
TEXT
  5
1A7
330
1F
100
AcDbEntity
  8
その他
  6
Continuous
 62
     2
370
   211
100
AcDbText
 10
-557.6092522445875
 20
201.4417402391432
 30
0.0
 40
12.192
  1
392
 41
1.083333333333333
  7
ＭＳ ゴシック
100
AcDbText
  0
LINE
  5
1A8
330
1F
100
AcDbEntity
  8
仕上
  6
Continuous
 62
     7
370
     9
100
AcDbLine
 10
-745.1092584305827
 20
230.2647510010277
 30
0.0
 11
-344.1092460585919
 21
230.2647510010277
 31
0.0
  0
TEXT
  5
1A9
330
1F
100
AcDbEntity
  8
仕上
  6
Continuous
 62
     2
370
   211
100
AcDbText
 10
-557.6092522445873
 20
234.9207510010276
 30
0.0
 40
12.192
  1
401
 41
1.083333333333333
  7
ＭＳ ゴシック
100
AcDbText
  0
LWPOLYLINE
  5
1AA
330
1F
100
AcDbEntity
  8
その他
  6
Continuous
 62
     7
370
     9
100
AcDbPolyline
 90
        4
 70
     1
 43
0.4
 10
296.3963927507879
 20
-248.7758778925173
 42
0.4142135623731
 10
296.1963927507879
 20
-248.5758778925173
 42
0.4142135623731
 10
295.9963927507879
 20
-248.7758778925173
 42
0.4142135623731
 10
296.1963927507879
 20
-248.9758778925172
 42
0.4142135623731
  0
LINE
  5
1AB
330
1F
100
AcDbEntity
  8
その他
  6
Continuous
 62
     7
370
     9
100
AcDbLine
 10
297.3963927507882
 20
-248.7758778925173
 30
0.0
 11
214.6586099866349
 21
-248.7758778925173
 31
0.0
  0
LINE
  5
1AC
330
1F
100
AcDbEntity
  8
その他
  6
Continuous
 62
     7
370
     9
100
AcDbLine
 10
296.1963927507879
 20
-248.7758778925173
 30
0.0
 11
296.1963927507879
 21
-308.7758284045527
 31
0.0
  0
LWPOLYLINE
  5
1AD
330
1F
100
AcDbEntity
  8
その他
  6
Continuous
 62
     7
370
     9
100
AcDbPolyline
 90
        4
 70
     1
 43
0.4
 10
296.3963927507879
 20
-308.7758284045527
 42
0.4142135623731
 10
296.1963927507879
 20
-308.5758284045527
 42
0.4142135623731
 10
295.9963927507879
 20
-308.7758284045527
 42
0.4142135623731
 10
296.1963927507879
 20
-308.9758284045527
 42
0.4142135623731
  0
TEXT
  5
1AE
330
1F
100
AcDbEntity
  8
その他
  6
Continuous
 62
     2
370
   211
100
AcDbText
 10
291.5403927507879
 20
-287.2758531485352
 30
0.0
 40
12.192
  1
60
 50
90.0
 41
1.0625
  7
ＭＳ ゴシック
100
AcDbText
  0
LINE
  5
1AF
330
1F
100
AcDbEntity
  8
その他
  6
Continuous
 62
     7
370
     9
100
AcDbLine
 10
297.3963927507882
 20
-308.7758284045527
 30
0.0
 11
214.6586099866349
 21
-308.7758284045527
 31
0.0
  0
LWPOLYLINE
  5
1B0
330
1F
100
AcDbEntity
  8
その他
  6
Continuous
 62
     7
370
     9
100
AcDbPolyline
 90
        4
 70
     1
 43
0.4
 10
350.2567794813185
 20
-330.775851498936
 42
0.4142135623731
 10
350.0567794813185
 20
-330.575851498936
 42
0.4142135623731
 10
349.8567794813185
 20
-330.775851498936
 42
0.4142135623731
 10
350.0567794813185
 20
-330.975851498936
 42
0.4142135623731
  0
LINE
  5
1B1
330
1F
100
AcDbEntity
  8
その他
  6
Continuous
 62
     7
370
     9
100
AcDbLine
 10
351.2567794813187
 20
-330.775851498936
 30
0.0
 11
225.6696820938982
 21
-330.775851498936
 31
0.0
  0
LINE
  5
1B2
330
1F
100
AcDbEntity
  8
その他
  6
Continuous
 62
     7
370
     9
100
AcDbLine
 10
296.1963927507879
 20
111.2241221074829
 30
0.0
 11
296.1963927507879
 21
51.22412210748286
 31
0.0
  0
LWPOLYLINE
  5
1B3
330
1F
100
AcDbEntity
  8
その他
  6
Continuous
 62
     7
370
     9
100
AcDbPolyline
 90
        4
 70
     1
 43
0.4
 10
296.3963927507879
 20
111.2241221074829
 42
0.4142135623731
 10
296.1963927507879
 20
111.4241221074829
 42
0.4142135623731
 10
295.9963927507879
 20
111.2241221074829
 42
0.4142135623731
 10
296.1963927507879
 20
111.0241221074829
 42
0.4142135623731
  0
LWPOLYLINE
  5
1B4
330
1F
100
AcDbEntity
  8
その他
  6
Continuous
 62
     7
370
     9
100
AcDbPolyline
 90
        4
 70
     1
 43
0.4
 10
296.3963927507879
 20
51.22412210748286
 42
0.4142135623731
 10
296.1963927507879
 20
51.42412210748286
 42
0.4142135623731
 10
295.9963927507879
 20
51.22412210748286
 42
0.4142135623731
 10
296.1963927507879
 20
51.02412210748285
 42
0.4142135623731
  0
LINE
  5
1B5
330
1F
100
AcDbEntity
  8
その他
  6
Continuous
 62
     7
370
     9
100
AcDbLine
 10
297.3963927507882
 20
51.22412210748286
 30
0.0
 11
214.6586099866349
 21
51.22412210748286
 31
0.0
  0
TEXT
  5
1B6
330
1F
100
AcDbEntity
  8
その他
  6
Continuous
 62
     2
370
   211
100
AcDbText
 10
291.5403927507879
 20
72.72412210748286
 30
0.0
 40
12.192
  1
60
 50
90.0
 41
1.0625
  7
ＭＳ ゴシック
100
AcDbText
  0
LINE
  5
1B7
330
1F
100
AcDbEntity
  8
その他
  6
Continuous
 62
     7
370
     9
100
AcDbLine
 10
296.1963927507879
 20
51.22412210748286
 30
0.0
 11
296.1963927507879
 21
-248.7758778925173
 31
0.0
  0
LINE
  5
1B8
330
1F
100
AcDbEntity
  8
その他
  6
Continuous
 62
     7
370
     9
100
AcDbLine
 10
297.3963927507882
 20
111.2241221074829
 30
0.0
 11
214.6586099866349
 21
111.2241221074829
 31
0.0
  0
LWPOLYLINE
  5
1B9
330
1F
100
AcDbEntity
  8
その他
  6
Continuous
 62
     7
370
     9
100
AcDbPolyline
 90
        4
 70
     1
 43
0.4
 10
350.2567794813185
 20
133.2240957139018
 42
0.4142135623731
 10
350.0567794813185
 20
133.4240957139018
 42
0.4142135623731
 10
349.8567794813185
 20
133.2240957139018
 42
0.4142135623731
 10
350.0567794813185
 20
133.0240957139018
 42
0.4142135623731
  0
LINE
  5
1BA
330
1F
100
AcDbEntity
  8
その他
  6
Continuous
 62
     7
370
     9
100
AcDbLine
 10
351.2567794813187
 20
133.2240957139018
 30
0.0
 11
225.6696820938982
 21
133.2240957139018
 31
0.0
  0
LINE
  5
1BB
330
1F
100
AcDbEntity
  8
その他
  6
Continuous
 62
     7
370
     9
100
AcDbLine
 10
78.45827940703111
 20
-193.0476158336143
 30
0.0
 11
153.45847900849
 21
-193.0476158336143
 31
0.0
  0
LWPOLYLINE
  5
1BC
330
1F
100
AcDbEntity
  8
その他
  6
Continuous
 62
     7
370
     9
100
AcDbPolyline
 90
        4
 70
     1
 43
0.4
 10
78.65827940703112
 20
-193.0476158336143
 42
0.4142135623731
 10
78.45827940703111
 20
-192.8476158336143
 42
0.4142135623731
 10
78.25827940703111
 20
-193.0476158336143
 42
0.4142135623731
 10
78.45827940703111
 20
-193.2476158336143
 42
0.4142135623731
  0
LWPOLYLINE
  5
1BD
330
1F
100
AcDbEntity
  8
その他
  6
Continuous
 62
     7
370
     9
100
AcDbPolyline
 90
        4
 70
     1
 43
0.4
 10
153.65847900849
 20
-193.0476158336143
 42
0.4142135623731
 10
153.45847900849
 20
-192.8476158336143
 42
0.4142135623731
 10
153.25847900849
 20
-193.0476158336143
 42
0.4142135623731
 10
153.45847900849
 20
-193.2476158336143
 42
0.4142135623731
  0
TEXT
  5
1BE
330
1F
100
AcDbEntity
  8
その他
  6
Continuous
 62
     2
370
   211
100
AcDbText
 10
102.4583792077597
 20
-155.0878490545948
 30
0.0
 40
12.192
  1
65
 41
1.0625
  7
ＭＳ ゴシック
100
AcDbText
  0
LINE
  5
1BF
330
1F
100
AcDbEntity
  8
その他
  6
Continuous
 62
     7
370
     9
100
AcDbLine
 10
153.45847900849
 20
-193.0476158336143
 30
0.0
 11
156.6584945147165
 21
-193.0476158336143
 31
0.0
  0
LWPOLYLINE
  5
1C0
330
1F
100
AcDbEntity
  8
その他
  6
Continuous
 62
     7
370
     9
100
AcDbPolyline
 90
        4
 70
     1
 43
0.4
 10
156.8584945147165
 20
-193.0476158336143
 42
0.4142135623731
 10
156.6584945147165
 20
-192.8476158336143
 42
0.4142135623731
 10
156.4584945147165
 20
-193.0476158336143
 42
0.4142135623731
 10
156.6584945147165
 20
-193.2476158336143
 42
0.4142135623731
  0
TEXT
  5
1C1
330
1F
100
AcDbEntity
  8
その他
  6
Continuous
 62
     2
370
   211
100
AcDbText
 10
107.4583792077606
 20
-188.3916158336145
 30
0.0
 40
12.192
  1
75
 41
1.0625
  7
ＭＳ ゴシック
100
AcDbText
  0
LINE
  5
1C2
330
1F
100
AcDbEntity
  8
その他
  6
Continuous
 62
     7
370
     9
100
AcDbLine
 10
78.45827940703111
 20
-159.7438490545948
 30
0.0
 11
143.4584790084882
 21
-159.7438490545948
 31
0.0
  0
LWPOLYLINE
  5
1C3
330
1F
100
AcDbEntity
  8
その他
  6
Continuous
 62
     7
370
     9
100
AcDbPolyline
 90
        4
 70
     1
 43
0.4
 10
78.65827940703112
 20
-159.7438490545948
 42
0.4142135623731
 10
78.45827940703111
 20
-159.5438490545948
 42
0.4142135623731
 10
78.25827940703111
 20
-159.7438490545948
 42
0.4142135623731
 10
78.45827940703111
 20
-159.9438490545948
 42
0.4142135623731
  0
LWPOLYLINE
  5
1C4
330
1F
100
AcDbEntity
  8
その他
  6
Continuous
 62
     7
370
     9
100
AcDbPolyline
 90
        4
 70
     1
 43
0.4
 10
143.6584790084882
 20
-159.7438490545948
 42
0.4142135623731
 10
143.4584790084882
 20
-159.5438490545948
 42
0.4142135623731
 10
143.2584790084882
 20
-159.7438490545948
 42
0.4142135623731
 10
143.4584790084882
 20
-159.9438490545948
 42
0.4142135623731
  0
LINE
  5
1C5
330
1F
100
AcDbEntity
  8
その他
  6
Continuous
 62
     7
370
     9
100
AcDbLine
 10
143.4584790084882
 20
-160.9438490545949
 30
0.0
 11
143.4584790084882
 21
-129.8643351606384
 31
0.0
  0
LWPOLYLINE
  5
1C6
330
1F
100
AcDbEntity
  8
その他
  6
Continuous
 62
     7
370
     9
100
AcDbPolyline
 90
        4
 70
     1
 43
0.4
 10
194.8585703962632
 20
-193.0476158336143
 42
0.4142135623731
 10
194.6585703962633
 20
-192.8476158336143
 42
0.4142135623731
 10
194.4585703962633
 20
-193.0476158336143
 42
0.4142135623731
 10
194.6585703962633
 20
-193.2476158336143
 42
0.4142135623731
  0
LINE
  5
1C7
330
1F
100
AcDbEntity
  8
その他
  6
Continuous
 62
     7
370
     9
100
AcDbLine
 10
156.6584945147165
 20
-193.0476158336143
 30
0.0
 11
194.6585703962633
 21
-193.0476158336143
 31
0.0
  0
TEXT
  5
1C8
330
1F
100
AcDbEntity
  8
その他
  6
Continuous
 62
     2
370
   211
100
AcDbText
 10
167.1585324554899
 20
-188.3916158336145
 30
0.0
 40
12.192
  1
38
 41
1.0625
  7
ＭＳ ゴシック
100
AcDbText
  0
TEXT
  5
1C9
330
1F
100
AcDbEntity
  8
その他
  6
Continuous
 62
     2
370
   211
100
AcDbText
 10
162.0328995609503
 20
-158.4043932573236
 30
0.0
 40
12.192
  1
3.2
 41
1.083333333333333
  7
ＭＳ ゴシック
100
AcDbText
  0
LINE
  5
1CA
330
1F
100
AcDbEntity
  8
その他
  6
Continuous
 62
     7
370
     9
100
AcDbLine
 10
155.0584867616035
 20
-193.0476158336143
 30
0.0
 11
159.4587630685947
 21
-164.0385670079179
 31
0.0
  0
LINE
  5
1CB
330
1F
100
AcDbEntity
  8
その他
  6
Continuous
 62
     7
370
     9
100
AcDbLine
 10
159.4587630685947
 20
-164.0385670079179
 30
0.0
 11
191.9669398634488
 21
-164.0385670079179
 31
0.0
  0
TEXT
  5
1CC
330
1F
100
AcDbEntity
  8
その他
  6
Continuous
 62
     2
370
   211
100
AcDbText
 10
291.5403927507879
 20
-120.7758778925171
 30
0.0
 40
12.192
  1
□300
 50
90.0
 41
1.1
  7
ＭＳ ゴシック
100
AcDbText
  0
LINE
  5
1CD
330
1F
100
AcDbEntity
  8
その他
  6
Continuous
 62
     7
370
     9
100
AcDbLine
 10
350.0567794813185
 20
-330.775851498936
 30
0.0
 11
350.0567794813185
 21
133.2240957139018
 31
0.0
  0
TEXT
  5
1CE
330
1F
100
AcDbEntity
  8
その他
  6
Continuous
 62
     2
370
   211
100
AcDbText
 10
345.4007794813184
 20
-111.7758778925171
 30
0.0
 40
12.192
  1
464
 50
90.0
 41
1.083333333333333
  7
ＭＳ ゴシック
100
AcDbText
  0
TEXT
  5
1CF
330
1F
100
AcDbEntity
  8
F-5ﾚｲﾔ
  6
Continuous
 62
     2
370
     9
100
AcDbText
 10
647.6270255014672
 20
670.9717068318121
 30
0.0
 40
12.192
  1
桝内径　300mm
 41
1.115384615384615
  7
ＭＳ ゴシック
100
AcDbText
  0
TEXT
  5
1D0
330
1F
100
AcDbEntity
  8
F-Fﾚｲﾔ
  6
Continuous
 62
     2
370
     9
100
AcDbText
 10
647.6270255014672
 20
542.971706831812
 30
0.0
 40
12.192
  1
寸法 幅401×長さ401×高さ116.2
 41
1.120833333333333
  7
ＭＳ ゴシック
100
AcDbText
  0
TEXT
  5
1D1
330
1F
100
AcDbEntity
  8
F-Fﾚｲﾔ
  6
Continuous
 62
     2
370
     9
100
AcDbText
 10
647.6270255014673
 20
510.971706831812
 30
0.0
 40
12.192
  1
蓋質量　11.1kg
 41
1.116071428571429
  7
ＭＳ ゴシック
100
AcDbText
  0
TEXT
  5
1D2
330
1F
100
AcDbEntity
  8
F-Fﾚｲﾔ
  6
Continuous
 62
     2
370
     9
100
AcDbText
 10
647.6270255014672
 20
446.9717068318121
 30
0.0
 40
12.192
  1
寸法 幅420×長さ420×高さ122.2
 41
1.120833333333333
  7
ＭＳ ゴシック
100
AcDbText
  0
TEXT
  5
1D3
330
1F
100
AcDbEntity
  8
F-Fﾚｲﾔ
  6
Continuous
 62
     2
370
     9
100
AcDbText
 10
489.5445030730914
 20
314.9717282894842
 30
0.0
 40
12.192
  1
強度性能
 41
1.09375
  7
ＭＳ ゴシック
100
AcDbText
  0
TEXT
  5
1D4
330
1F
100
AcDbEntity
  8
F-Fﾚｲﾔ
  6
Continuous
 62
     2
370
     9
100
AcDbText
 10
489.5445030730914
 20
278.9717068318121
 30
0.0
 40
12.192
  1
強度
 41
1.0625
  7
ＭＳ ゴシック
100
AcDbText
  0
TEXT
  5
1D5
330
1F
100
AcDbEntity
  8
F-Fﾚｲﾔ
  6
Continuous
 62
     2
370
     9
100
AcDbText
 10
489.5445030730914
 20
214.9717068318121
 30
0.0
 40
12.192
  1
主な使用場所
 41
1.104166666666667
  7
ＭＳ ゴシック
100
AcDbText
  0
TEXT
  5
1D6
330
1F
100
AcDbEntity
  8
F-Fﾚｲﾔ
  6
Continuous
 62
     2
370
     9
100
AcDbText
 10
647.6270255014672
 20
278.9717068318121
 30
0.0
 40
12.192
  1
T-2：後輪1輪荷重7.8kN(800kgf)
 41
1.120689655172414
  7
ＭＳ ゴシック
100
AcDbText
  0
TEXT
  5
1D7
330
1F
100
AcDbEntity
  8
F-Fﾚｲﾔ
  6
Continuous
 62
     2
370
     9
100
AcDbText
 10
647.6270255014672
 20
246.9717068318121
 30
0.0
 40
12.192
  1
 　　総重量2トンまでの車両が通行可能
 41
1.118055555555556
  7
ＭＳ ゴシック
100
AcDbText
  0
TEXT
  5
1D8
330
1F
100
AcDbEntity
  8
F-Fﾚｲﾔ
  6
Continuous
 62
     2
370
     9
100
AcDbText
 10
647.6270255014672
 20
214.9717068318121
 30
0.0
 40
12.192
  1
建物内、建物敷地内、公園敷地内、
 41
1.1171875
  7
ＭＳ ゴシック
100
AcDbText
  0
TEXT
  5
1D9
330
1F
100
AcDbEntity
  8
F-Fﾚｲﾔ
  6
Continuous
 62
     2
370
     9
100
AcDbText
 10
647.6270255014672
 20
182.9717068318121
 30
0.0
 40
12.192
  1
車道以外で車両の乗り入れる可能性のある場所
 41
1.119047619047619
  7
ＭＳ ゴシック
100
AcDbText
  0
TEXT
  5
1DA
330
1F
100
AcDbEntity
  8
F-Fﾚｲﾔ
  6
Continuous
 62
     2
370
     9
100
AcDbText
 10
489.5445030730914
 20
118.9717068318121
 30
0.0
 40
12.192
  1
衝撃係数
 41
1.09375
  7
ＭＳ ゴシック
100
AcDbText
  0
TEXT
  5
1DB
330
1F
100
AcDbEntity
  8
F-Fﾚｲﾔ
  6
Continuous
 62
     2
370
     9
100
AcDbText
 10
489.5445030730914
 20
150.9717068318121
 30
0.0
 40
12.192
  1
車両進行方向
 41
1.104166666666667
  7
ＭＳ ゴシック
100
AcDbText
  0
TEXT
  5
1DC
330
1F
100
AcDbEntity
  8
F-Fﾚｲﾔ
  6
Continuous
 62
     2
370
     9
100
AcDbText
 10
489.5445030730914
 20
86.97170683181207
 30
0.0
 40
12.192
  1
衝撃を考慮した
 41
1.107142857142857
  7
ＭＳ ゴシック
100
AcDbText
  0
TEXT
  5
1DD
330
1F
100
AcDbEntity
  8
F-Fﾚｲﾔ
  6
Continuous
 62
     2
370
     9
100
AcDbText
 10
489.5445030730914
 20
54.97170683181207
 30
0.0
 40
12.192
  1
後輪1輪荷重
 41
1.102272727272727
  7
ＭＳ ゴシック
100
AcDbText
  0
TEXT
  5
1DE
330
1F
100
AcDbEntity
  8
F-Fﾚｲﾔ
  6
Continuous
 62
     2
370
     9
100
AcDbText
 10
489.5445030730914
 20
22.97170683181207
 30
0.0
 40
12.192
  1
後輪接地面積
 41
1.104166666666667
  7
ＭＳ ゴシック
100
AcDbText
  0
LINE
  5
1DF
330
1F
100
AcDbEntity
  8
F-Fﾚｲﾔ
  6
Continuous
 62
     7
370
     9
100
AcDbLine
 10
631.0930647438574
 20
304.7157068318121
 30
0.0
 11
631.0930647438574
 21
12.71570683181207
 31
0.0
  0
LINE
  5
1E0
330
1F
100
AcDbEntity
  8
F-Fﾚｲﾔ
  6
Continuous
 62
     7
370
     9
100
AcDbLine
 10
478.8976130146309
 20
336.7157068318121
 30
0.0
 11
478.8976130146309
 21
12.71570683181207
 31
0.0
  0
TEXT
  5
1E1
330
1F
100
AcDbEntity
  8
F-Fﾚｲﾔ
  6
Continuous
 62
     2
370
     9
100
AcDbText
 10
647.6270255014672
 20
150.9717068318121
 30
0.0
 40
12.192
  1
横断方向、縦断方向
 41
1.111111111111111
  7
ＭＳ ゴシック
100
AcDbText
  0
TEXT
  5
1E2
330
1F
100
AcDbEntity
  8
F-Fﾚｲﾔ
  6
Continuous
 62
     2
370
     9
100
AcDbText
 10
647.6270255014672
 20
118.9717068318121
 30
0.0
 40
12.192
  1
0.1
 41
1.083333333333333
  7
ＭＳ ゴシック
100
AcDbText
  0
TEXT
  5
1E3
330
1F
100
AcDbEntity
  8
F-Fﾚｲﾔ
  6
Continuous
 62
     2
370
     9
100
AcDbText
 10
647.6270255014672
 20
22.97170683181207
 30
0.0
 40
12.192
  1
200×160 mm
 41
1.113636363636364
  7
ＭＳ ゴシック
100
AcDbText
  0
TEXT
  5
1E4
330
1F
100
AcDbEntity
  8
F-Fﾚｲﾔ
  6
Continuous
 62
     2
370
     9
100
AcDbText
 10
647.6270255014672
 20
70.97170683181207
 30
0.0
 40
12.192
  1
8.6kN
 41
1.1
  7
ＭＳ ゴシック
100
AcDbText
  0
LINE
  5
1E5
330
1F
100
AcDbEntity
  8
F-Fﾚｲﾔ
  6
Continuous
 62
     7
370
     9
100
AcDbLine
 10
478.8976130146309
 20
336.7157068318121
 30
0.0
 11
1117.126304008243
 21
336.7157068318121
 31
0.0
  0
LINE
  5
1E6
330
1F
100
AcDbEntity
  8
F-Fﾚｲﾔ
  6
Continuous
 62
     7
370
     9
100
AcDbLine
 10
478.8976130146309
 20
304.7157068318121
 30
0.0
 11
1117.126304008243
 21
304.7157068318121
 31
0.0
  0
LINE
  5
1E7
330
1F
100
AcDbEntity
  8
F-Fﾚｲﾔ
  6
Continuous
 62
     7
370
     9
100
AcDbLine
 10
478.8976130146309
 20
300.7157068318121
 30
0.0
 11
1117.126304008243
 21
300.7157068318121
 31
0.0
  0
LINE
  5
1E8
330
1F
100
AcDbEntity
  8
F-Fﾚｲﾔ
  6
Continuous
 62
     7
370
     9
100
AcDbLine
 10
478.8976130146309
 20
236.7157068318121
 30
0.0
 11
1117.126304008243
 21
236.7157068318121
 31
0.0
  0
LINE
  5
1E9
330
1F
100
AcDbEntity
  8
F-Fﾚｲﾔ
  6
Continuous
 62
     7
370
     9
100
AcDbLine
 10
478.8976130146309
 20
236.7157068318121
 30
0.0
 11
1117.126304008243
 21
236.7157068318121
 31
0.0
  0
LINE
  5
1EA
330
1F
100
AcDbEntity
  8
F-Fﾚｲﾔ
  6
Continuous
 62
     7
370
     9
100
AcDbLine
 10
478.8976130146309
 20
140.7157068318121
 30
0.0
 11
1117.126304008243
 21
140.7157068318121
 31
0.0
  0
LINE
  5
1EB
330
1F
100
AcDbEntity
  8
F-Fﾚｲﾔ
  6
Continuous
 62
     7
370
     9
100
AcDbLine
 10
478.8976130146309
 20
172.7157068318121
 30
0.0
 11
1117.126304008243
 21
172.7157068318121
 31
0.0
  0
LINE
  5
1EC
330
1F
100
AcDbEntity
  8
F-Fﾚｲﾔ
  6
Continuous
 62
     7
370
     9
100
AcDbLine
 10
478.8976130146309
 20
108.7157068318121
 30
0.0
 11
1117.126304008243
 21
108.7157068318121
 31
0.0
  0
LINE
  5
1ED
330
1F
100
AcDbEntity
  8
F-Fﾚｲﾔ
  6
Continuous
 62
     7
370
     9
100
AcDbLine
 10
478.8976130146309
 20
44.71570683181207
 30
0.0
 11
1117.126304008243
 21
44.71570683181207
 31
0.0
  0
LINE
  5
1EE
330
1F
100
AcDbEntity
  8
F-Fﾚｲﾔ
  6
Continuous
 62
     7
370
     9
100
AcDbLine
 10
478.8976130146309
 20
12.71570683181207
 30
0.0
 11
1117.126304008243
 21
12.71570683181207
 31
0.0
  0
LINE
  5
1EF
330
1F
100
AcDbEntity
  8
F-Fﾚｲﾔ
  6
Continuous
 62
     7
370
     9
100
AcDbLine
 10
1117.126304008243
 20
336.7157068318121
 30
0.0
 11
1117.126304008243
 21
12.71570683181207
 31
0.0
  0
TEXT
  5
1F0
330
1F
100
AcDbEntity
  8
F-Fﾚｲﾔ
  6
Continuous
 62
     2
370
     9
100
AcDbText
 10
647.6270255014672
 20
478.9717068318121
 30
0.0
 40
12.192
  1
スチール製 溶融亜鉛めっき
 41
1.115
  7
ＭＳ ゴシック
100
AcDbText
  0
TEXT
  5
1F1
330
1F
100
AcDbEntity
  8
寸法
  6
Continuous
 62
     7
370
     0
100
AcDbText
 10
251.6622028049531
 20
213.3760060979093
 30
0.0
 40
9.144
  1
ＳＳ４００（溶融亜鉛めっき）
 41
1.154761904761905
  7
ＭＳ ゴシック
100
AcDbText
  0
LINE
  5
1F2
330
1F
100
AcDbEntity
  8
寸法
  6
Continuous
 62
     7
370
     9
100
AcDbLine
 10
249.679509896727
 20
225.7384405551448
 30
0.0
 11
438.7120808940924
 21
225.7384405551448
 31
0.0
  0
LINE
  5
1F3
330
1F
100
AcDbEntity
  8
寸法
  6
Continuous
 62
     7
370
     9
100
AcDbLine
 10
-198.4783340058474
 20
288.863740187203
 30
0.0
 11
9.056770370878212
 21
288.863740187203
 31
0.0
  0
TEXT
  5
1F4
330
1F
100
AcDbEntity
  8
寸法
  6
Continuous
 62
     7
370
     0
100
AcDbText
 10
-185.3372932317187
 20
275.7378142073221
 30
0.0
 40
9.144
  1
ＳＰＨＣ（溶融亜鉛めっき）
 50
0.0000630100335
 41
1.153846153846154
  7
ＭＳ ゴシック
100
AcDbText
  0
TEXT
  5
1F5
330
1F
100
AcDbEntity
  8
寸法
  6
Continuous
 62
     7
370
     0
100
AcDbText
 10
-198.4102745557265
 20
293.5162982721025
 30
0.0
 40
9.144
  1
受枠：Ｌ－１１７Ｚ，ｔ＝６.０
 41
1.155172413793103
  7
ＭＳ ゴシック
100
AcDbText
  0
TEXT
  5
1F6
330
1F
100
AcDbEntity
  8
F-4ﾚｲﾔ
  6
Continuous
 62
     2
370
     9
100
AcDbText
 10
221.3816524747212
 20
-777.8398842462342
 30
0.0
 40
12.192
  1
集水桝用　ＨＩＳＷ－２－３００－Ｚ
 41
1.117647058823529
  7
ＭＳ ゴシック
100
AcDbText
  0
TEXT
  5
1F7
330
1F
100
AcDbEntity
  8
F-Fﾚｲﾔ
  6
Continuous
 62
     2
370
     9
100
AcDbText
 10
647.627025501467
 20
382.9717068318121
 30
0.0
 40
12.192
  1
集水桝用：HISW-2-300-Z
 41
1.119318181818182
  7
ＭＳ ゴシック
100
AcDbText
  0
ENDSEC
  0
SECTION
  2
OBJECTS
  0
DICTIONARY
  5
C
330
0
100
AcDbDictionary
281
     1
  3
ACAD_GROUP
350
D
  3
ACAD_LAYOUT
350
1A
  3
ACAD_MLEADERSTYLE
350
1F9
  3
ACAD_MLINESTYLE
350
17
  3
ACAD_PLOTSETTINGS
350
19
  3
ACAD_PLOTSTYLENAME
350
E
  3
ACAD_TABLESTYLE
350
1F8
  3
ACAD_VISUALSTYLE
350
2A
  0
DICTIONARY
  5
D
102
{ACAD_REACTORS
330
C
102
}
330
C
100
AcDbDictionary
281
     1
  0
DICTIONARY
  5
1A
102
{ACAD_REACTORS
330
C
102
}
330
C
100
AcDbDictionary
281
     1
  3
Layout1
350
1E
  3
Layout2
350
26
  3
Model
350
22
  0
DICTIONARY
  5
1F9
102
{ACAD_REACTORS
330
C
102
}
330
C
100
AcDbDictionary
281
     1
  0
DICTIONARY
  5
17
102
{ACAD_REACTORS
330
C
102
}
330
C
100
AcDbDictionary
281
     1
  3
Standard
350
18
  0
DICTIONARY
  5
19
102
{ACAD_REACTORS
330
C
102
}
330
C
100
AcDbDictionary
281
     1
  0
ACDBDICTIONARYWDFLT
  5
E
102
{ACAD_REACTORS
330
C
102
}
330
C
100
AcDbDictionary
281
     1
  3
Normal
350
F
100
AcDbDictionaryWithDefault
340
F
  0
DICTIONARY
  5
1F8
102
{ACAD_REACTORS
330
C
102
}
330
C
100
AcDbDictionary
281
     1
  0
DICTIONARY
  5
2A
102
{ACAD_REACTORS
330
C
102
}
330
C
100
AcDbDictionary
281
     1
  3
2dWireframe
350
2F
  3
3D Hidden
350
31
  3
3dWireframe
350
30
  3
Basic
350
32
  3
Brighten
350
36
  3
ColorChange
350
3A
  3
Conceptual
350
34
  3
Dim
350
35
  3
Facepattern
350
39
  3
Flat
350
2B
  3
FlatWithEdges
350
2C
  3
Gouraud
350
2D
  3
GouraudWithEdges
350
2E
  3
Linepattern
350
38
  3
Realistic
350
33
  3
Thicken
350
37
  0
LAYOUT
  5
1E
102
{ACAD_REACTORS
330
1A
102
}
330
1A
100
AcDbPlotSettings
  1

  2
none_device
  4

  6

 40
0.0
 41
0.0
 42
0.0
 43
0.0
 44
0.0
 45
0.0
 46
0.0
 47
0.0
 48
0.0
 49
0.0
140
0.0
141
0.0
142
1.0
143
1.0
 70
   688
 72
     0
 73
     0
 74
     5
  7

 75
    16
 76
     0
 77
     5
 78
   300
147
1.0
148
0.0
149
0.0
100
AcDbLayout
  1
Layout1
 70
     1
 71
     1
 10
0.0
 20
0.0
 11
420.0
 21
297.0
 12
0.0
 22
0.0
 32
0.0
 14
1.000000000000000E+20
 24
1.000000000000000E+20
 34
1.000000000000000E+20
 15
-1.000000000000000E+20
 25
-1.000000000000000E+20
 35
-1.000000000000000E+20
146
0.0
 13
0.0
 23
0.0
 33
0.0
 16
1.0
 26
0.0
 36
0.0
 17
0.0
 27
1.0
 37
0.0
 76
     0
330
1B
  0
LAYOUT
  5
26
102
{ACAD_REACTORS
330
1A
102
}
330
1A
100
AcDbPlotSettings
  1

  2
none_device
  4

  6

 40
0.0
 41
0.0
 42
0.0
 43
0.0
 44
0.0
 45
0.0
 46
0.0
 47
0.0
 48
0.0
 49
0.0
140
0.0
141
0.0
142
1.0
143
1.0
 70
   688
 72
     0
 73
     0
 74
     5
  7

 75
    16
 76
     0
 77
     5
 78
   300
147
1.0
148
0.0
149
0.0
100
AcDbLayout
  1
Layout2
 70
     1
 71
     2
 10
0.0
 20
0.0
 11
0.0
 21
0.0
 12
0.0
 22
0.0
 32
0.0
 14
0.0
 24
0.0
 34
0.0
 15
0.0
 25
0.0
 35
0.0
146
0.0
 13
0.0
 23
0.0
 33
0.0
 16
1.0
 26
0.0
 36
0.0
 17
0.0
 27
1.0
 37
0.0
 76
     0
330
23
  0
LAYOUT
  5
22
102
{ACAD_REACTORS
330
1A
102
}
330
1A
100
AcDbPlotSettings
  1

  2
none_device
  4

  6

 40
0.0
 41
0.0
 42
0.0
 43
0.0
 44
0.0
 45
0.0
 46
0.0
 47
0.0
 48
0.0
 49
0.0
140
0.0
141
0.0
142
1.0
143
1.0
 70
  1712
 72
     0
 73
     0
 74
     0
  7

 75
     0
 76
     0
 77
     5
 78
   300
147
1.0
148
0.0
149
0.0
100
AcDbLayout
  1
Model
 70
     1
 71
     0
 10
-1188.0
 20
-840.0
 11
1188.0
 21
840.0
 12
0.0
 22
0.0
 32
0.0
 14
-1188.0
 24
-840.0
 34
0.0
 15
1188.0
 25
840.0
 35
0.0
146
0.0
 13
0.0
 23
0.0
 33
0.0
 16
1.0
 26
0.0
 36
0.0
 17
0.0
 27
1.0
 37
0.0
 76
     0
330
1F
331
29
  0
MLINESTYLE
  5
18
102
{ACAD_REACTORS
330
17
102
}
330
17
100
AcDbMlineStyle
  2
Standard
 70
     0
  3

 62
   256
 51
90.0
 52
90.0
 71
     2
 49
0.5
 62
   256
  6
BYLAYER
 49
-0.5
 62
   256
  6
BYLAYER
  0
ACDBPLACEHOLDER
  5
F
102
{ACAD_REACTORS
330
E
102
}
330
E
  0
VISUALSTYLE
  5
2F
102
{ACAD_REACTORS
330
2A
102
}
330
2A
100
AcDbVisualStyle
  2
2dWireframe
 70
     4
 71
     0
 72
     2
 73
     0
 90
        0
 40
-0.6
 41
-30.0
 62
     5
 63
     7
421
 16777215
 74
     1
 91
        4
 64
     7
 65
   257
 75
     1
175
     1
 42
1.0
 92
        0
 66
   257
 43
1.0
 76
     1
 77
     6
 78
     2
 67
     7
 79
     5
170
     0
171
     0
290
     0
174
     0
 93
        1
 44
0.0
173
     0
291
     0
 45
0.0
  0
VISUALSTYLE
  5
31
102
{ACAD_REACTORS
330
2A
102
}
330
2A
100
AcDbVisualStyle
  2
3D Hidden
 70
     6
 71
     1
 72
     2
 73
     2
 90
        0
 40
-0.6
 41
-30.0
 62
     5
 63
     7
421
 16777215
 74
     2
 91
        2
 64
     7
 65
   257
 75
     2
175
     1
 42
40.0
 92
        0
 66
   257
 43
1.0
 76
     1
 77
     6
 78
     2
 67
     7
 79
     3
170
     0
171
     0
290
     0
174
     0
 93
        1
 44
0.0
173
     0
291
     0
 45
0.0
  0
VISUALSTYLE
  5
30
102
{ACAD_REACTORS
330
2A
102
}
330
2A
100
AcDbVisualStyle
  2
3dWireframe
 70
     5
 71
     0
 72
     2
 73
     0
 90
        0
 40
-0.6
 41
-30.0
 62
     5
 63
     7
421
 16777215
 74
     1
 91
        4
 64
     7
 65
   257
 75
     1
175
     1
 42
1.0
 92
        0
 66
   257
 43
1.0
 76
     1
 77
     6
 78
     2
 67
     7
 79
     5
170
     0
171
     0
290
     0
174
     0
 93
        1
 44
0.0
173
     0
291
     0
 45
0.0
  0
VISUALSTYLE
  5
32
102
{ACAD_REACTORS
330
2A
102
}
330
2A
100
AcDbVisualStyle
  2
Basic
 70
     7
 71
     1
 72
     0
 73
     1
 90
        0
 40
-0.6
 41
-30.0
 62
     5
 63
     7
421
 16777215
 74
     0
 91
        4
 64
     7
 65
   257
 75
     1
175
     1
 42
1.0
 92
        8
 66
     7
 43
1.0
 76
     1
 77
     6
 78
     2
 67
     7
 79
     5
170
     0
171
     0
290
     0
174
     0
 93
        1
 44
0.0
173
     0
291
     1
 45
0.0
  0
VISUALSTYLE
  5
36
102
{ACAD_REACTORS
330
2A
102
}
330
2A
100
AcDbVisualStyle
  2
Brighten
 70
    12
 71
     2
 72
     2
 73
     0
 90
        0
 40
-0.6
 41
-30.0
 62
     5
 63
     7
421
 16777215
 74
     1
 91
        4
 64
     7
 65
   257
 75
     1
175
     1
 42
1.0
 92
        8
 66
     7
 43
1.0
 76
     1
 77
     6
 78
     2
 67
     7
 79
     5
170
     0
171
     0
290
     0
174
     0
 93
        1
 44
50.0
173
     0
291
     1
 45
0.0
  0
VISUALSTYLE
  5
3A
102
{ACAD_REACTORS
330
2A
102
}
330
2A
100
AcDbVisualStyle
  2
ColorChange
 70
    16
 71
     2
 72
     2
 73
     3
 90
        0
 40
-0.6
 41
-30.0
 62
     5
 63
     8
421
  8421504
 74
     1
 91
        4
 64
     7
 65
   257
 75
     1
175
     1
 42
1.0
 92
        8
 66
     8
424
  8421504
 43
1.0
 76
     1
 77
     6
 78
     2
 67
     7
 79
     5
170
     0
171
     0
290
     0
174
     0
 93
        1
 44
0.0
173
     0
291
     1
 45
0.0
  0
VISUALSTYLE
  5
34
102
{ACAD_REACTORS
330
2A
102
}
330
2A
100
AcDbVisualStyle
  2
Conceptual
 70
     9
 71
     3
 72
     2
 73
     0
 90
        0
 40
-0.6
 41
-30.0
 62
     5
 63
     7
421
 16777215
 74
     2
 91
        2
 64
     7
 65
   257
 75
     1
175
     1
 42
40.0
 92
        8
 66
     7
 43
1.0
 76
     1
 77
     6
 78
     2
 67
     7
 79
     3
170
     0
171
     0
290
     0
174
     0
 93
        1
 44
0.0
173
     0
291
     0
 45
0.0
  0
VISUALSTYLE
  5
35
102
{ACAD_REACTORS
330
2A
102
}
330
2A
100
AcDbVisualStyle
  2
Dim
 70
    11
 71
     2
 72
     2
 73
     0
 90
        0
 40
-0.6
 41
-30.0
 62
     5
 63
     7
421
 16777215
 74
     1
 91
        4
 64
     7
 65
   257
 75
     1
175
     1
 42
1.0
 92
        8
 66
     7
 43
1.0
 76
     1
 77
     6
 78
     2
 67
     7
 79
     5
170
     0
171
     0
290
     0
174
     0
 93
        1
 44
-50.0
173
     0
291
     1
 45
0.0
  0
VISUALSTYLE
  5
39
102
{ACAD_REACTORS
330
2A
102
}
330
2A
100
AcDbVisualStyle
  2
Facepattern
 70
    15
 71
     2
 72
     2
 73
     0
 90
        0
 40
-0.6
 41
-30.0
 62
     5
 63
     7
421
 16777215
 74
     1
 91
        4
 64
     7
 65
   257
 75
     1
175
     1
 42
1.0
 92
        8
 66
     7
 43
1.0
 76
     1
 77
     6
 78
     2
 67
     7
 79
     5
170
     0
171
     0
290
     0
174
     0
 93
        1
 44
0.0
173
     0
291
     1
 45
0.0
  0
VISUALSTYLE
  5
2B
102
{ACAD_REACTORS
330
2A
102
}
330
2A
100
AcDbVisualStyle
  2
Flat
 70
     0
 71
     2
 72
     1
 73
     1
 90
        2
 40
-0.6
 41
30.0
 62
     5
 63
     7
421
 16777215
 74
     0
 91
        4
 64
     7
 65
   257
 75
     1
175
     1
 42
1.0
 92
        8
 66
     7
 43
1.0
 76
     1
 77
     6
 78
     2
 67
     7
 79
     5
170
     0
171
     0
290
     0
174
     0
 93
       13
 44
0.0
173
     0
291
     1
 45
0.0
  0
VISUALSTYLE
  5
2C
102
{ACAD_REACTORS
330
2A
102
}
330
2A
100
AcDbVisualStyle
  2
FlatWithEdges
 70
     1
 71
     2
 72
     1
 73
     1
 90
        2
 40
-0.6
 41
30.0
 62
     5
 63
     7
421
 16777215
 74
     1
 91
        4
 64
     7
 65
   257
 75
     1
175
     1
 42
1.0
 92
        0
 66
   257
 43
1.0
 76
     1
 77
     6
 78
     2
 67
     7
 79
     5
170
     0
171
     0
290
     0
174
     0
 93
       13
 44
0.0
173
     0
291
     1
 45
0.0
  0
VISUALSTYLE
  5
2D
102
{ACAD_REACTORS
330
2A
102
}
330
2A
100
AcDbVisualStyle
  2
Gouraud
 70
     2
 71
     2
 72
     2
 73
     1
 90
        2
 40
-0.6
 41
30.0
 62
     5
 63
     7
421
 16777215
 74
     0
 91
        4
 64
     7
 65
   257
 75
     1
175
     1
 42
1.0
 92
        0
 66
     7
 43
1.0
 76
     1
 77
     6
 78
     2
 67
     7
 79
     5
170
     0
171
     0
290
     0
174
     0
 93
       13
 44
0.0
173
     0
291
     1
 45
0.0
  0
VISUALSTYLE
  5
2E
102
{ACAD_REACTORS
330
2A
102
}
330
2A
100
AcDbVisualStyle
  2
GouraudWithEdges
 70
     3
 71
     2
 72
     2
 73
     1
 90
        2
 40
-0.6
 41
30.0
 62
     5
 63
     7
421
 16777215
 74
     1
 91
        4
 64
     7
 65
   257
 75
     1
175
     1
 42
1.0
 92
        0
 66
   257
 43
1.0
 76
     1
 77
     6
 78
     2
 67
     7
 79
     5
170
     0
171
     0
290
     0
174
     0
 93
       13
 44
0.0
173
     0
291
     1
 45
0.0
  0
VISUALSTYLE
  5
38
102
{ACAD_REACTORS
330
2A
102
}
330
2A
100
AcDbVisualStyle
  2
Linepattern
 70
    14
 71
     2
 72
     2
 73
     0
 90
        0
 40
-0.6
 41
-30.0
 62
     5
 63
     7
421
 16777215
 74
     1
 91
        4
 64
     7
 65
   257
 75
     7
175
     7
 42
1.0
 92
        8
 66
     7
 43
1.0
 76
     1
 77
     6
 78
     2
 67
     7
 79
     5
170
     0
171
     0
290
     0
174
     0
 93
        1
 44
0.0
173
     0
291
     1
 45
0.0
  0
VISUALSTYLE
  5
33
102
{ACAD_REACTORS
330
2A
102
}
330
2A
100
AcDbVisualStyle
  2
Realistic
 70
     8
 71
     2
 72
     2
 73
     0
 90
        0
 40
-0.6
 41
-30.0
 62
     5
 63
     7
421
 16777215
 74
     1
 91
        0
 64
     7
 65
   257
 75
     1
175
     1
 42
1.0
 92
        8
 66
     8
424
  7895160
 43
1.0
 76
     1
 77
     6
 78
     2
 67
     7
 79
     5
170
     0
171
     0
290
     0
174
     0
 93
       13
 44
0.0
173
     0
291
     0
 45
0.0
  0
VISUALSTYLE
  5
37
102
{ACAD_REACTORS
330
2A
102
}
330
2A
100
AcDbVisualStyle
  2
Thicken
 70
    13
 71
     2
 72
     2
 73
     0
 90
        0
 40
-0.6
 41
-30.0
 62
     5
 63
     7
421
 16777215
 74
     1
 91
        4
 64
     7
 65
   257
 75
     1
175
     1
 42
1.0
 92
       12
 66
     7
 43
1.0
 76
     1
 77
     6
 78
     2
 67
     7
 79
     5
170
     0
171
     0
290
     0
174
     0
 93
        1
 44
0.0
173
     0
291
     1
 45
0.0
  0
ENDSEC
  0
EOF
