  0
SECTION
  2
HEADER
  9
$ACADVER
  1
AC1021
  9
$ACADMAINTVER
 70
    25
  9
$DWGCODEPAGE
  3
ANSI_932
  9
$INSBASE
 10
0.0
 20
0.0
 30
0.0
  9
$EXTMIN
 10
-1188.0
 20
-840.0
 30
0.0
  9
$EXTMAX
 10
1188.0
 20
840.0
 30
0.0
  9
$LIMMIN
 10
-1188.0
 20
-840.0
  9
$LIMMAX
 10
1188.0
 20
840.0
  9
$ORTHOMODE
 70
     0
  9
$REGENMODE
 70
     1
  9
$FILLMODE
 70
     1
  9
$QTEXTMODE
 70
     0
  9
$MIRRTEXT
 70
     1
  9
$LTSCALE
 40
4.0
  9
$ATTMODE
 70
     1
  9
$TEXTSIZE
 40
2.5
  9
$TRACEWID
 40
1.0
  9
$TEXTSTYLE
  7
Standard
  9
$CLAYER
  8
0
  9
$CELTYPE
  6
ByLayer
  9
$CECOLOR
 62
   256
  9
$CELTSCALE
 40
1.0
  9
$DISPSILH
 70
     0
  9
$DIMSCALE
 40
1.0
  9
$DIMASZ
 40
2.5
  9
$DIMEXO
 40
0.625
  9
$DIMDLI
 40
3.75
  9
$DIMRND
 40
0.0
  9
$DIMDLE
 40
0.0
  9
$DIMEXE
 40
1.25
  9
$DIMTP
 40
0.0
  9
$DIMTM
 40
0.0
  9
$DIMTXT
 40
2.5
  9
$DIMCEN
 40
2.5
  9
$DIMTSZ
 40
0.0
  9
$DIMTOL
 70
     0
  9
$DIMLIM
 70
     0
  9
$DIMTIH
 70
     0
  9
$DIMTOH
 70
     0
  9
$DIMSE1
 70
     0
  9
$DIMSE2
 70
     0
  9
$DIMTAD
 70
     1
  9
$DIMZIN
 70
     8
  9
$DIMBLK
  1

  9
$DIMASO
 70
     1
  9
$DIMSHO
 70
     1
  9
$DIMPOST
  1

  9
$DIMAPOST
  1

  9
$DIMALT
 70
     0
  9
$DIMALTD
 70
     3
  9
$DIMALTF
 40
0.03937007874016
  9
$DIMLFAC
 40
1.0
  9
$DIMTOFL
 70
     1
  9
$DIMTVP
 40
0.0
  9
$DIMTIX
 70
     0
  9
$DIMSOXD
 70
     0
  9
$DIMSAH
 70
     0
  9
$DIMBLK1
  1

  9
$DIMBLK2
  1

  9
$DIMSTYLE
  2
ISO-25
  9
$DIMCLRD
 70
     0
  9
$DIMCLRE
 70
     0
  9
$DIMCLRT
 70
     0
  9
$DIMTFAC
 40
1.0
  9
$DIMGAP
 40
0.625
  9
$DIMJUST
 70
     0
  9
$DIMSD1
 70
     0
  9
$DIMSD2
 70
     0
  9
$DIMTOLJ
 70
     0
  9
$DIMTZIN
 70
     8
  9
$DIMALTZ
 70
     0
  9
$DIMALTTZ
 70
     0
  9
$DIMUPT
 70
     0
  9
$DIMDEC
 70
     2
  9
$DIMTDEC
 70
     2
  9
$DIMALTU
 70
     2
  9
$DIMALTTD
 70
     3
  9
$DIMTXSTY
  7
Standard
  9
$DIMAUNIT
 70
     0
  9
$DIMADEC
 70
     0
  9
$DIMALTRND
 40
0.0
  9
$DIMAZIN
 70
     0
  9
$DIMDSEP
 70
    44
  9
$DIMATFIT
 70
     3
  9
$DIMFRAC
 70
     0
  9
$DIMLDRBLK
  1

  9
$DIMLUNIT
 70
     2
  9
$DIMLWD
 70
    -2
  9
$DIMLWE
 70
    -2
  9
$DIMTMOVE
 70
     0
  9
$DIMFXL
 40
1.0
  9
$DIMFXLON
 70
     0
  9
$DIMJOGANG
 40
0.7853981633974483
  9
$DIMTFILL
 70
     0
  9
$DIMTFILLCLR
 70
     0
  9
$DIMARCSYM
 70
     0
  9
$DIMLTYPE
  6

  9
$DIMLTEX1
  6

  9
$DIMLTEX2
  6

  9
$LUNITS
 70
     2
  9
$LUPREC
 70
     4
  9
$SKETCHINC
 40
1.0
  9
$FILLETRAD
 40
10.0
  9
$AUNITS
 70
     0
  9
$AUPREC
 70
     0
  9
$MENU
  1
.
  9
$ELEVATION
 40
0.0
  9
$PELEVATION
 40
0.0
  9
$THICKNESS
 40
0.0
  9
$LIMCHECK
 70
     0
  9
$CHAMFERA
 40
10.0
  9
$CHAMFERB
 40
10.0
  9
$CHAMFERC
 40
20.0
  9
$CHAMFERD
 40
0.0
  9
$SKPOLY
 70
     0
  9
$TDCREATE
 40
2457737.43973162
  9
$TDUCREATE
 40
2457737.06473162
  9
$TDUPDATE
 40
2457737.439731632
  9
$TDUUPDATE
 40
2457737.064731632
  9
$TDINDWG
 40
0.0000000116
  9
$TDUSRTIMER
 40
0.0000000116
  9
$USRTIMER
 70
     1
  9
$ANGBASE
 50
0.0
  9
$ANGDIR
 70
     0
  9
$PDMODE
 70
     0
  9
$PDSIZE
 40
0.0
  9
$PLINEWID
 40
0.0
  9
$SPLFRAME
 70
     0
  9
$SPLINETYPE
 70
     6
  9
$SPLINESEGS
 70
     8
  9
$HANDSEED
  5
243
  9
$SURFTAB1
 70
     6
  9
$SURFTAB2
 70
     6
  9
$SURFTYPE
 70
     6
  9
$SURFU
 70
     6
  9
$SURFV
 70
     6
  9
$UCSBASE
  2

  9
$UCSNAME
  2

  9
$UCSORG
 10
0.0
 20
0.0
 30
0.0
  9
$UCSXDIR
 10
1.0
 20
0.0
 30
0.0
  9
$UCSYDIR
 10
0.0
 20
1.0
 30
0.0
  9
$UCSORTHOREF
  2

  9
$UCSORTHOVIEW
 70
     0
  9
$UCSORGTOP
 10
0.0
 20
0.0
 30
0.0
  9
$UCSORGBOTTOM
 10
0.0
 20
0.0
 30
0.0
  9
$UCSORGLEFT
 10
0.0
 20
0.0
 30
0.0
  9
$UCSORGRIGHT
 10
0.0
 20
0.0
 30
0.0
  9
$UCSORGFRONT
 10
0.0
 20
0.0
 30
0.0
  9
$UCSORGBACK
 10
0.0
 20
0.0
 30
0.0
  9
$PUCSBASE
  2

  9
$PUCSNAME
  2

  9
$PUCSORG
 10
0.0
 20
0.0
 30
0.0
  9
$PUCSXDIR
 10
1.0
 20
0.0
 30
0.0
  9
$PUCSYDIR
 10
0.0
 20
1.0
 30
0.0
  9
$PUCSORTHOREF
  2

  9
$PUCSORTHOVIEW
 70
     0
  9
$PUCSORGTOP
 10
0.0
 20
0.0
 30
0.0
  9
$PUCSORGBOTTOM
 10
0.0
 20
0.0
 30
0.0
  9
$PUCSORGLEFT
 10
0.0
 20
0.0
 30
0.0
  9
$PUCSORGRIGHT
 10
0.0
 20
0.0
 30
0.0
  9
$PUCSORGFRONT
 10
0.0
 20
0.0
 30
0.0
  9
$PUCSORGBACK
 10
0.0
 20
0.0
 30
0.0
  9
$USERI1
 70
     0
  9
$USERI2
 70
     0
  9
$USERI3
 70
     0
  9
$USERI4
 70
     0
  9
$USERI5
 70
     0
  9
$USERR1
 40
0.0
  9
$USERR2
 40
0.0
  9
$USERR3
 40
0.0
  9
$USERR4
 40
0.0
  9
$USERR5
 40
0.0
  9
$WORLDVIEW
 70
     1
  9
$SHADEDGE
 70
     3
  9
$SHADEDIF
 70
    70
  9
$TILEMODE
 70
     1
  9
$MAXACTVP
 70
    64
  9
$PINSBASE
 10
0.0
 20
0.0
 30
0.0
  9
$PLIMCHECK
 70
     0
  9
$PEXTMIN
 10
1.000000000000000E+20
 20
1.000000000000000E+20
 30
1.000000000000000E+20
  9
$PEXTMAX
 10
-1.000000000000000E+20
 20
-1.000000000000000E+20
 30
-1.000000000000000E+20
  9
$PLIMMIN
 10
0.0
 20
0.0
  9
$PLIMMAX
 10
420.0
 20
297.0
  9
$UNITMODE
 70
     0
  9
$VISRETAIN
 70
     1
  9
$PLINEGEN
 70
     0
  9
$PSLTSCALE
 70
     1
  9
$TREEDEPTH
 70
  3020
  9
$CMLSTYLE
  2
Standard
  9
$CMLJUST
 70
     0
  9
$CMLSCALE
 40
20.0
  9
$PROXYGRAPHICS
 70
     1
  9
$MEASUREMENT
 70
     1
  9
$CELWEIGHT
370
    -1
  9
$ENDCAPS
280
     0
  9
$JOINSTYLE
280
     0
  9
$LWDISPLAY
290
     0
  9
$INSUNITS
 70
     4
  9
$HYPERLINKBASE
  1

  9
$STYLESHEET
  1

  9
$XEDIT
290
     1
  9
$CEPSNTYPE
380
     0
  9
$PSTYLEMODE
290
     1
  9
$FINGERPRINTGUID
  2
{7796AC08-2136-47B4-B15E-30AF3ADD6846}
  9
$VERSIONGUID
  2
{FAEB1C32-E019-11D5-929B-00C0DF256EC4}
  9
$EXTNAMES
290
     1
  9
$PSVPSCALE
 40
0.0
  9
$OLESTARTUP
290
     0
  9
$SORTENTS
280
   127
  9
$INDEXCTL
280
     0
  9
$HIDETEXT
280
     1
  9
$XCLIPFRAME
290
     0
  9
$HALOGAP
280
     0
  9
$OBSCOLOR
 70
   257
  9
$OBSLTYPE
280
     0
  9
$INTERSECTIONDISPLAY
280
     0
  9
$INTERSECTIONCOLOR
 70
   257
  9
$DIMASSOC
280
     2
  9
$PROJECTNAME
  1

  9
$CAMERADISPLAY
290
     0
  9
$LENSLENGTH
 40
50.0
  9
$CAMERAHEIGHT
 40
0.0
  9
$STEPSPERSEC
 40
2.0
  9
$STEPSIZE
 40
6.0
  9
$3DDWFPREC
 40
2.0
  9
$PSOLWIDTH
 40
5.0
  9
$PSOLHEIGHT
 40
80.0
  9
$LOFTANG1
 40
1.570796326794897
  9
$LOFTANG2
 40
1.570796326794897
  9
$LOFTMAG1
 40
0.0
  9
$LOFTMAG2
 40
0.0
  9
$LOFTPARAM
 70
     7
  9
$LOFTNORMALS
280
     1
  9
$LATITUDE
 40
37.795
  9
$LONGITUDE
 40
-122.394
  9
$NORTHDIRECTION
 40
0.0
  9
$TIMEZONE
 70
 -8000
  9
$LIGHTGLYPHDISPLAY
280
     1
  9
$TILEMODELIGHTSYNCH
280
     1
  9
$SOLIDHIST
280
     1
  9
$SHOWHIST
280
     1
  9
$DWFFRAME
280
     2
  9
$DGNFRAME
280
     2
  9
$REALWORLDSCALE
290
     1
  9
$INTERFERECOLOR
 62
   256
  9
$CSHADOW
280
     0
  9
$SHADOWPLANELOCATION
 40
0.0
  0
ENDSEC
  0
SECTION
  2
CLASSES
  0
CLASS
  1
ACDBDICTIONARYWDFLT
  2
AcDbDictionaryWithDefault
  3
ObjectDBX Classes
 90
        0
 91
        4
280
     0
281
     0
  0
CLASS
  1
VISUALSTYLE
  2
AcDbVisualStyle
  3
ObjectDBX Classes
 90
     4095
 91
        4
280
     0
281
     0
  0
ENDSEC
  0
SECTION
  2
TABLES
  0
TABLE
  2
VPORT
  5
8
330
0
100
AcDbSymbolTable
 70
     1
  0
VPORT
  5
29
330
8
100
AcDbSymbolTableRecord
100
AcDbViewportTableRecord
  2
*Active
 70
     0
 10
0.0
 20
0.0
 11
1.0
 21
1.0
 12
0.0
 22
0.0
 13
0.0
 23
0.0
 14
10.0
 24
10.0
 15
10.0
 25
10.0
 16
0.0
 26
0.0
 36
1.0
 17
0.0
 27
0.0
 37
0.0
 40
1848.0
 41
1.414285714285714
 42
50.0
 43
0.0
 44
0.0
 50
0.0
 51
0.0
 71
     0
 72
 10000
 73
     1
 74
     3
 75
     0
 76
     0
 77
     0
 78
     0
281
     0
 65
     1
110
0.0
120
0.0
130
0.0
111
1.0
121
0.0
131
0.0
112
0.0
122
1.0
132
0.0
 79
     0
146
0.0
 60
     3
 61
     5
292
     1
282
     1
141
0.0
142
0.0
 63
   256
  0
ENDTAB
  0
TABLE
  2
LTYPE
  5
5
330
0
100
AcDbSymbolTable
 70
     5
  0
LTYPE
  5
14
330
5
100
AcDbSymbolTableRecord
100
AcDbLinetypeTableRecord
  2
ByBlock
 70
     0
  3

 72
    65
 73
     0
 40
0.0
  0
LTYPE
  5
15
330
5
100
AcDbSymbolTableRecord
100
AcDbLinetypeTableRecord
  2
ByLayer
 70
     0
  3

 72
    65
 73
     0
 40
0.0
  0
LTYPE
  5
16
330
5
100
AcDbSymbolTableRecord
100
AcDbLinetypeTableRecord
  2
Continuous
 70
     0
  3
Solid line
 72
    65
 73
     0
 40
0.0
  0
LTYPE
  5
3C
330
5
100
AcDbSymbolTableRecord
100
AcDbLinetypeTableRecord
  2
JWW_CENTER2
 70
     0
  3
-------------  --  -------------
 72
    65
 73
     4
 40
13.54666666666667
 49
11.00666666666667
 74
     0
 49
-0.8466666666666667
 74
     0
 49
0.8466666666666667
 74
     0
 49
-0.8466666666666667
 74
     0
  0
LTYPE
  5
3D
330
5
100
AcDbSymbolTableRecord
100
AcDbLinetypeTableRecord
  2
JWW_DASHED1
 70
     0
  3
-  --  --  --  --  --  --  --  -
 72
    65
 73
     2
 40
1.693333333333333
 49
0.8466666666666667
 74
     0
 49
-0.8466666666666667
 74
     0
  0
LTYPE
  5
3E
330
5
100
AcDbSymbolTableRecord
100
AcDbLinetypeTableRecord
  2
JWW_CENTER1
 70
     0
  3
-----  --  ----------  --  -----
 72
    65
 73
     4
 40
6.773333333333333
 49
4.233333333333333
 74
     0
 49
-0.8466666666666667
 74
     0
 49
0.8466666666666667
 74
     0
 49
-0.8466666666666667
 74
     0
  0
LTYPE
  5
3F
330
5
100
AcDbSymbolTableRecord
100
AcDbLinetypeTableRecord
  2
JWW_DASHED3
 70
     0
  3
---  ------  ------  ------  ---
 72
    65
 73
     2
 40
3.386666666666667
 49
2.54
 74
     0
 49
-0.8466666666666667
 74
     0
  0
ENDTAB
  0
TABLE
  2
LAYER
  5
2
330
0
100
AcDbSymbolTable
 70
    10
  0
LAYER
  5
10
330
2
100
AcDbSymbolTableRecord
100
AcDbLayerTableRecord
  2
0
 70
     0
 62
     7
  6
Continuous
370
    -3
390
F
347
0
  0
LAYER
  5
40
330
2
100
AcDbSymbolTableRecord
100
AcDbLayerTableRecord
  2
F-4ﾚｲﾔ
 70
     0
 62
     7
  6
Continuous
370
    -3
390
F
347
0
  0
LAYER
  5
41
330
2
100
AcDbSymbolTableRecord
100
AcDbLayerTableRecord
  2
F-Fﾚｲﾔ
 70
     0
 62
     7
  6
Continuous
370
    -3
390
F
347
0
  0
LAYER
  5
42
330
2
100
AcDbSymbolTableRecord
100
AcDbLayerTableRecord
  2
F-5ﾚｲﾔ
 70
     0
 62
     7
  6
Continuous
370
    -3
390
F
347
0
  0
LAYER
  5
43
330
2
100
AcDbSymbolTableRecord
100
AcDbLayerTableRecord
  2
通り芯
 70
     0
 62
     7
  6
Continuous
370
    -3
390
F
347
0
  0
LAYER
  5
44
330
2
100
AcDbSymbolTableRecord
100
AcDbLayerTableRecord
  2
仕上
 70
     0
 62
     7
  6
Continuous
370
    -3
390
F
347
0
  0
LAYER
  5
45
330
2
100
AcDbSymbolTableRecord
100
AcDbLayerTableRecord
  2
建具
 70
     0
 62
     7
  6
Continuous
370
    -3
390
F
347
0
  0
LAYER
  5
46
330
2
100
AcDbSymbolTableRecord
100
AcDbLayerTableRecord
  2
躯体
 70
     0
 62
     7
  6
Continuous
370
    -3
390
F
347
0
  0
LAYER
  5
47
330
2
100
AcDbSymbolTableRecord
100
AcDbLayerTableRecord
  2
その他
 70
     0
 62
     7
  6
Continuous
370
    -3
390
F
347
0
  0
LAYER
  5
48
330
2
100
AcDbSymbolTableRecord
100
AcDbLayerTableRecord
  2
寸法
 70
     0
 62
     7
  6
Continuous
370
    -3
390
F
347
0
  0
ENDTAB
  0
TABLE
  2
STYLE
  5
3
330
0
100
AcDbSymbolTable
 70
     2
  0
STYLE
  5
11
330
3
100
AcDbSymbolTableRecord
100
AcDbTextStyleTableRecord
  2
Standard
 70
     0
 40
0.0
 41
1.0
 50
0.0
 71
     0
 42
2.5
  3
txt
  4

1001
ACAD
1000

1071
        0
  0
STYLE
  5
3B
330
3
100
AcDbSymbolTableRecord
100
AcDbTextStyleTableRecord
  2
ＭＳ ゴシック
 70
     0
 40
1.0
 41
1.0
 50
0.0
 71
     0
 42
10.0
  3

  4

1001
ACAD
1000
MS Gothic
1071
    32817
  0
ENDTAB
  0
TABLE
  2
VIEW
  5
6
330
0
100
AcDbSymbolTable
 70
     0
  0
ENDTAB
  0
TABLE
  2
UCS
  5
7
330
0
100
AcDbSymbolTable
 70
     0
  0
ENDTAB
  0
TABLE
  2
APPID
  5
9
330
0
100
AcDbSymbolTable
 70
     1
  0
APPID
  5
12
330
9
100
AcDbSymbolTableRecord
100
AcDbRegAppTableRecord
  2
ACAD
 70
     0
  0
ENDTAB
  0
TABLE
  2
DIMSTYLE
  5
A
330
0
100
AcDbSymbolTable
 70
     1
100
AcDbDimStyleTable
  0
DIMSTYLE
105
27
330
A
100
AcDbSymbolTableRecord
100
AcDbDimStyleTableRecord
  2
ISO-25
 70
     0
 41
2.5
 42
0.625
 43
3.75
 44
1.25
 73
     0
 74
     0
 77
     1
 78
     8
140
2.5
141
2.5
143
0.03937007874016
147
0.625
171
     3
172
     1
271
     2
272
     2
274
     3
278
    44
283
     0
284
     8
340
11
  0
ENDTAB
  0
TABLE
  2
BLOCK_RECORD
  5
1
330
0
100
AcDbSymbolTable
 70
     1
  0
BLOCK_RECORD
  5
1F
330
1
100
AcDbSymbolTableRecord
100
AcDbBlockTableRecord
  2
*Model_Space
340
22
 70
     0
280
     1
281
     0
  0
BLOCK_RECORD
  5
1B
330
1
100
AcDbSymbolTableRecord
100
AcDbBlockTableRecord
  2
*Paper_Space
340
1E
 70
     0
280
     1
281
     0
  0
BLOCK_RECORD
  5
23
330
1
100
AcDbSymbolTableRecord
100
AcDbBlockTableRecord
  2
*Paper_Space0
340
26
 70
     0
280
     1
281
     0
  0
ENDTAB
  0
ENDSEC
  0
SECTION
  2
BLOCKS
  0
BLOCK
  5
20
330
1F
100
AcDbEntity
  8
0
100
AcDbBlockBegin
  2
*Model_Space
 70
     0
 10
0.0
 20
0.0
 30
0.0
  3
*Model_Space
  1

  0
ENDBLK
  5
21
330
1F
100
AcDbEntity
  8
0
100
AcDbBlockEnd
  0
BLOCK
  5
1C
330
1B
100
AcDbEntity
 67
     1
  8
0
100
AcDbBlockBegin
  2
*Paper_Space
 70
     0
 10
0.0
 20
0.0
 30
0.0
  3
*Paper_Space
  1

  0
ENDBLK
  5
1D
330
1B
100
AcDbEntity
 67
     1
  8
0
100
AcDbBlockEnd
  0
BLOCK
  5
24
330
23
100
AcDbEntity
  8
0
100
AcDbBlockBegin
  2
*Paper_Space0
 70
     0
 10
0.0
 20
0.0
 30
0.0
  3
*Paper_Space0
  1

  0
ENDBLK
  5
25
330
23
100
AcDbEntity
  8
0
100
AcDbBlockEnd
  0
ENDSEC
  0
SECTION
  2
ENTITIES
  0
TEXT
  5
49
330
1F
100
AcDbEntity
  8
F-4ﾚｲﾔ
  6
Continuous
 62
     2
370
     9
100
AcDbText
 10
-174.9031430404105
 20
-759.0108394076666
 30
0.0
 40
12.192
  1
カラー舗装用みぞ蓋　インターロッキングブロック用　充填深さ６５ｍｍ　スチール製
 41
1.121794871794872
  7
ＭＳ ゴシック
100
AcDbText
  0
LINE
  5
4A
330
1F
100
AcDbEntity
  8
F-Fﾚｲﾔ
  6
Continuous
 62
     7
370
     9
100
AcDbLine
 10
1117.126304008243
 20
760.7157068318121
 30
0.0
 11
1117.126304008243
 21
372.7157068318121
 31
0.0
  0
LINE
  5
4B
330
1F
100
AcDbEntity
  8
F-Fﾚｲﾔ
  6
Continuous
 62
     7
370
     9
100
AcDbLine
 10
478.8976130146309
 20
760.7157068318121
 30
0.0
 11
1117.126304008243
 21
760.7157068318121
 31
0.0
  0
TEXT
  5
4C
330
1F
100
AcDbEntity
  8
F-Fﾚｲﾔ
  6
Continuous
 62
     2
370
     9
100
AcDbText
 10
489.5445030730923
 20
738.9717068318121
 30
0.0
 40
12.192
  1
名称
 41
1.0625
  7
ＭＳ ゴシック
100
AcDbText
  0
LINE
  5
4D
330
1F
100
AcDbEntity
  8
F-Fﾚｲﾔ
  6
Continuous
 62
     7
370
     9
100
AcDbLine
 10
478.8976130146309
 20
372.7157068318121
 30
0.0
 11
1117.126304008243
 21
372.7157068318121
 31
0.0
  0
LINE
  5
4E
330
1F
100
AcDbEntity
  8
F-Fﾚｲﾔ
  6
Continuous
 62
     7
370
     9
100
AcDbLine
 10
478.8976130146309
 20
760.7157068318121
 30
0.0
 11
478.8976130146309
 21
372.7157068318121
 31
0.0
  0
LINE
  5
4F
330
1F
100
AcDbEntity
  8
F-Fﾚｲﾔ
  6
Continuous
 62
     7
370
     9
100
AcDbLine
 10
478.8976130146309
 20
696.7157068318121
 30
0.0
 11
1117.126304008243
 21
696.7157068318121
 31
0.0
  0
LINE
  5
50
330
1F
100
AcDbEntity
  8
F-Fﾚｲﾔ
  6
Continuous
 62
     7
370
     9
100
AcDbLine
 10
478.8976130146309
 20
692.7157068318121
 30
0.0
 11
1117.126304008243
 21
692.7157068318121
 31
0.0
  0
LINE
  5
51
330
1F
100
AcDbEntity
  8
F-Fﾚｲﾔ
  6
Continuous
 62
     7
370
     9
100
AcDbLine
 10
478.8976130146309
 20
660.7157068318121
 30
0.0
 11
1117.126304008243
 21
660.7157068318121
 31
0.0
  0
LINE
  5
52
330
1F
100
AcDbEntity
  8
F-Fﾚｲﾔ
  6
Continuous
 62
     7
370
     9
100
AcDbLine
 10
478.8976130146309
 20
500.715706831812
 30
0.0
 11
1117.126304008243
 21
500.715706831812
 31
0.0
  0
LINE
  5
53
330
1F
100
AcDbEntity
  8
F-Fﾚｲﾔ
  6
Continuous
 62
     7
370
     9
100
AcDbLine
 10
478.8976130146309
 20
436.7157068318121
 30
0.0
 11
1117.126304008243
 21
436.7157068318121
 31
0.0
  0
TEXT
  5
54
330
1F
100
AcDbEntity
  8
F-Fﾚｲﾔ
  6
Continuous
 62
     2
370
     9
100
AcDbText
 10
489.5445030730923
 20
670.9717068318121
 30
0.0
 40
12.192
  1
適用桝
 41
1.083333333333333
  7
ＭＳ ゴシック
100
AcDbText
  0
TEXT
  5
55
330
1F
100
AcDbEntity
  8
F-Fﾚｲﾔ
  6
Continuous
 62
     2
370
     9
100
AcDbText
 10
489.5445030730923
 20
638.9717068318121
 30
0.0
 40
12.192
  1
蓋
  7
ＭＳ ゴシック
100
AcDbText
  0
TEXT
  5
56
330
1F
100
AcDbEntity
  8
F-Fﾚｲﾔ
  6
Continuous
 62
     2
370
     9
100
AcDbText
 10
489.5445030730923
 20
478.9717068318121
 30
0.0
 40
12.192
  1
受枠
 41
1.0625
  7
ＭＳ ゴシック
100
AcDbText
  0
TEXT
  5
57
330
1F
100
AcDbEntity
  8
F-Fﾚｲﾔ
  6
Continuous
 62
     2
370
     9
100
AcDbText
 10
489.5445030730923
 20
414.9717068318121
 30
0.0
 40
12.192
  1
品番
 41
1.0625
  7
ＭＳ ゴシック
100
AcDbText
  0
LINE
  5
58
330
1F
100
AcDbEntity
  8
F-Fﾚｲﾔ
  6
Continuous
 62
     7
370
     9
100
AcDbLine
 10
631.0930647438574
 20
760.7157068318121
 30
0.0
 11
631.0930647438574
 21
372.7157068318121
 31
0.0
  0
TEXT
  5
59
330
1F
100
AcDbEntity
  8
F-5ﾚｲﾔ
  6
Continuous
 62
     2
370
     9
100
AcDbText
 10
647.6270255014672
 20
638.9717068318121
 30
0.0
 40
12.192
  1
スチール製 溶融亜鉛めっき
 41
1.115
  7
ＭＳ ゴシック
100
AcDbText
  0
TEXT
  5
5A
330
1F
100
AcDbEntity
  8
F-5ﾚｲﾔ
  6
Continuous
 62
     2
370
     9
100
AcDbText
 10
647.6270255014672
 20
574.971706831812
 30
0.0
 40
12.192
  1
目地すきま 6mm
 41
1.116071428571429
  7
ＭＳ ゴシック
100
AcDbText
  0
TEXT
  5
5B
330
1F
100
AcDbEntity
  8
F-Fﾚｲﾔ
  6
Continuous
 62
     2
370
     9
100
AcDbText
 10
647.6270255014672
 20
414.9717068318121
 30
0.0
 40
12.192
  1
カネソウ　カラー舗装用みぞ蓋
 41
1.116071428571429
  7
ＭＳ ゴシック
100
AcDbText
  0
LINE
  5
5C
330
1F
100
AcDbEntity
  8
F-Fﾚｲﾔ
  6
Continuous
 62
     7
370
     9
100
AcDbLine
 10
631.0930647438574
 20
628.7157068318121
 30
0.0
 11
1117.126304008243
 21
628.7157068318121
 31
0.0
  0
LINE
  5
5D
330
1F
100
AcDbEntity
  8
F-Fﾚｲﾔ
  6
Continuous
 62
     7
370
     9
100
AcDbLine
 10
631.0930647438574
 20
596.7157068318121
 30
0.0
 11
1117.126304008243
 21
596.7157068318121
 31
0.0
  0
LINE
  5
5E
330
1F
100
AcDbEntity
  8
F-Fﾚｲﾔ
  6
Continuous
 62
     7
370
     9
100
AcDbLine
 10
631.0930647438574
 20
564.715706831812
 30
0.0
 11
1117.126304008243
 21
564.715706831812
 31
0.0
  0
LINE
  5
5F
330
1F
100
AcDbEntity
  8
F-Fﾚｲﾔ
  6
Continuous
 62
     7
370
     9
100
AcDbLine
 10
631.0930647438574
 20
532.715706831812
 30
0.0
 11
1117.126304008243
 21
532.715706831812
 31
0.0
  0
LINE
  5
60
330
1F
100
AcDbEntity
  8
F-Fﾚｲﾔ
  6
Continuous
 62
     7
370
     9
100
AcDbLine
 10
631.0930647438574
 20
468.7157068318121
 30
0.0
 11
1117.126304008243
 21
468.7157068318121
 31
0.0
  0
TEXT
  5
61
330
1F
100
AcDbEntity
  8
F-5ﾚｲﾔ
  6
Continuous
 62
     2
370
     9
100
AcDbText
 10
647.6270255014673
 20
606.9717068318121
 30
0.0
 40
12.192
  1
充填深さ 65mm
 41
1.115384615384615
  7
ＭＳ ゴシック
100
AcDbText
  0
TEXT
  5
62
330
1F
100
AcDbEntity
  8
F-5ﾚｲﾔ
  6
Continuous
 62
     2
370
     9
100
AcDbText
 10
647.6270255014672
 20
738.9717068318121
 30
0.0
 40
12.192
  1
化粧用スリットみぞ蓋　インターロッキングブロック用
 41
1.12
  7
ＭＳ ゴシック
100
AcDbText
  0
TEXT
  5
63
330
1F
100
AcDbEntity
  8
F-5ﾚｲﾔ
  6
Continuous
 62
     2
370
     9
100
AcDbText
 10
647.6270255014672
 20
706.9717068318121
 30
0.0
 40
12.192
  1
集水桝用
 41
1.09375
  7
ＭＳ ゴシック
100
AcDbText
  0
TEXT
  5
64
330
1F
100
AcDbEntity
  8
F-Fﾚｲﾔ
  6
Continuous
 62
     2
370
     9
100
AcDbText
 10
489.5445030730914
 20
314.9717282894842
 30
0.0
 40
12.192
  1
強度性能
 41
1.09375
  7
ＭＳ ゴシック
100
AcDbText
  0
TEXT
  5
65
330
1F
100
AcDbEntity
  8
F-Fﾚｲﾔ
  6
Continuous
 62
     2
370
     9
100
AcDbText
 10
489.5445030730914
 20
278.9717068318121
 30
0.0
 40
12.192
  1
強度
 41
1.0625
  7
ＭＳ ゴシック
100
AcDbText
  0
TEXT
  5
66
330
1F
100
AcDbEntity
  8
F-Fﾚｲﾔ
  6
Continuous
 62
     2
370
     9
100
AcDbText
 10
489.5445030730914
 20
214.9717068318121
 30
0.0
 40
12.192
  1
主な使用場所
 41
1.104166666666667
  7
ＭＳ ゴシック
100
AcDbText
  0
TEXT
  5
67
330
1F
100
AcDbEntity
  8
F-Fﾚｲﾔ
  6
Continuous
 62
     2
370
     9
100
AcDbText
 10
647.6270255014672
 20
278.9717068318121
 30
0.0
 40
12.192
  1
T-2：後輪1輪荷重7.8kN(800kgf)
 41
1.120689655172414
  7
ＭＳ ゴシック
100
AcDbText
  0
TEXT
  5
68
330
1F
100
AcDbEntity
  8
F-Fﾚｲﾔ
  6
Continuous
 62
     2
370
     9
100
AcDbText
 10
647.6270255014672
 20
246.9717068318121
 30
0.0
 40
12.192
  1
 　　総重量2トンまでの車両が通行可能
 41
1.118055555555556
  7
ＭＳ ゴシック
100
AcDbText
  0
TEXT
  5
69
330
1F
100
AcDbEntity
  8
F-Fﾚｲﾔ
  6
Continuous
 62
     2
370
     9
100
AcDbText
 10
647.6270255014672
 20
214.9717068318121
 30
0.0
 40
12.192
  1
建物内、建物敷地内、公園敷地内、
 41
1.1171875
  7
ＭＳ ゴシック
100
AcDbText
  0
TEXT
  5
6A
330
1F
100
AcDbEntity
  8
F-Fﾚｲﾔ
  6
Continuous
 62
     2
370
     9
100
AcDbText
 10
647.6270255014672
 20
182.9717068318121
 30
0.0
 40
12.192
  1
車道以外で車両の乗り入れる可能性のある場所
 41
1.119047619047619
  7
ＭＳ ゴシック
100
AcDbText
  0
TEXT
  5
6B
330
1F
100
AcDbEntity
  8
F-Fﾚｲﾔ
  6
Continuous
 62
     2
370
     9
100
AcDbText
 10
489.5445030730914
 20
118.9717068318121
 30
0.0
 40
12.192
  1
衝撃係数
 41
1.09375
  7
ＭＳ ゴシック
100
AcDbText
  0
TEXT
  5
6C
330
1F
100
AcDbEntity
  8
F-Fﾚｲﾔ
  6
Continuous
 62
     2
370
     9
100
AcDbText
 10
489.5445030730914
 20
150.9717068318121
 30
0.0
 40
12.192
  1
車両進行方向
 41
1.104166666666667
  7
ＭＳ ゴシック
100
AcDbText
  0
TEXT
  5
6D
330
1F
100
AcDbEntity
  8
F-Fﾚｲﾔ
  6
Continuous
 62
     2
370
     9
100
AcDbText
 10
489.5445030730914
 20
86.97170683181207
 30
0.0
 40
12.192
  1
衝撃を考慮した
 41
1.107142857142857
  7
ＭＳ ゴシック
100
AcDbText
  0
TEXT
  5
6E
330
1F
100
AcDbEntity
  8
F-Fﾚｲﾔ
  6
Continuous
 62
     2
370
     9
100
AcDbText
 10
489.5445030730914
 20
54.97170683181207
 30
0.0
 40
12.192
  1
後輪1輪荷重
 41
1.102272727272727
  7
ＭＳ ゴシック
100
AcDbText
  0
TEXT
  5
6F
330
1F
100
AcDbEntity
  8
F-Fﾚｲﾔ
  6
Continuous
 62
     2
370
     9
100
AcDbText
 10
489.5445030730914
 20
22.97170683181207
 30
0.0
 40
12.192
  1
後輪接地面積
 41
1.104166666666667
  7
ＭＳ ゴシック
100
AcDbText
  0
LINE
  5
70
330
1F
100
AcDbEntity
  8
F-Fﾚｲﾔ
  6
Continuous
 62
     7
370
     9
100
AcDbLine
 10
631.0930647438574
 20
304.7157068318121
 30
0.0
 11
631.0930647438574
 21
12.71570683181207
 31
0.0
  0
LINE
  5
71
330
1F
100
AcDbEntity
  8
F-Fﾚｲﾔ
  6
Continuous
 62
     7
370
     9
100
AcDbLine
 10
478.8976130146309
 20
336.7157068318121
 30
0.0
 11
478.8976130146309
 21
12.71570683181207
 31
0.0
  0
TEXT
  5
72
330
1F
100
AcDbEntity
  8
F-Fﾚｲﾔ
  6
Continuous
 62
     2
370
     9
100
AcDbText
 10
647.6270255014672
 20
150.9717068318121
 30
0.0
 40
12.192
  1
横断方向、縦断方向
 41
1.111111111111111
  7
ＭＳ ゴシック
100
AcDbText
  0
TEXT
  5
73
330
1F
100
AcDbEntity
  8
F-Fﾚｲﾔ
  6
Continuous
 62
     2
370
     9
100
AcDbText
 10
647.6270255014672
 20
118.9717068318121
 30
0.0
 40
12.192
  1
0.1
 41
1.083333333333333
  7
ＭＳ ゴシック
100
AcDbText
  0
TEXT
  5
74
330
1F
100
AcDbEntity
  8
F-Fﾚｲﾔ
  6
Continuous
 62
     2
370
     9
100
AcDbText
 10
647.6270255014672
 20
22.97170683181207
 30
0.0
 40
12.192
  1
200×160 mm
 41
1.113636363636364
  7
ＭＳ ゴシック
100
AcDbText
  0
TEXT
  5
75
330
1F
100
AcDbEntity
  8
F-Fﾚｲﾔ
  6
Continuous
 62
     2
370
     9
100
AcDbText
 10
647.6270255014672
 20
70.97170683181207
 30
0.0
 40
12.192
  1
8.6kN
 41
1.1
  7
ＭＳ ゴシック
100
AcDbText
  0
LINE
  5
76
330
1F
100
AcDbEntity
  8
F-Fﾚｲﾔ
  6
Continuous
 62
     7
370
     9
100
AcDbLine
 10
478.8976130146309
 20
336.7157068318121
 30
0.0
 11
1117.126304008243
 21
336.7157068318121
 31
0.0
  0
LINE
  5
77
330
1F
100
AcDbEntity
  8
F-Fﾚｲﾔ
  6
Continuous
 62
     7
370
     9
100
AcDbLine
 10
478.8976130146309
 20
304.7157068318121
 30
0.0
 11
1117.126304008243
 21
304.7157068318121
 31
0.0
  0
LINE
  5
78
330
1F
100
AcDbEntity
  8
F-Fﾚｲﾔ
  6
Continuous
 62
     7
370
     9
100
AcDbLine
 10
478.8976130146309
 20
300.7157068318121
 30
0.0
 11
1117.126304008243
 21
300.7157068318121
 31
0.0
  0
LINE
  5
79
330
1F
100
AcDbEntity
  8
F-Fﾚｲﾔ
  6
Continuous
 62
     7
370
     9
100
AcDbLine
 10
478.8976130146309
 20
236.7157068318121
 30
0.0
 11
1117.126304008243
 21
236.7157068318121
 31
0.0
  0
LINE
  5
7A
330
1F
100
AcDbEntity
  8
F-Fﾚｲﾔ
  6
Continuous
 62
     7
370
     9
100
AcDbLine
 10
478.8976130146309
 20
236.7157068318121
 30
0.0
 11
1117.126304008243
 21
236.7157068318121
 31
0.0
  0
LINE
  5
7B
330
1F
100
AcDbEntity
  8
F-Fﾚｲﾔ
  6
Continuous
 62
     7
370
     9
100
AcDbLine
 10
478.8976130146309
 20
140.7157068318121
 30
0.0
 11
1117.126304008243
 21
140.7157068318121
 31
0.0
  0
LINE
  5
7C
330
1F
100
AcDbEntity
  8
F-Fﾚｲﾔ
  6
Continuous
 62
     7
370
     9
100
AcDbLine
 10
478.8976130146309
 20
172.7157068318121
 30
0.0
 11
1117.126304008243
 21
172.7157068318121
 31
0.0
  0
LINE
  5
7D
330
1F
100
AcDbEntity
  8
F-Fﾚｲﾔ
  6
Continuous
 62
     7
370
     9
100
AcDbLine
 10
478.8976130146309
 20
108.7157068318121
 30
0.0
 11
1117.126304008243
 21
108.7157068318121
 31
0.0
  0
LINE
  5
7E
330
1F
100
AcDbEntity
  8
F-Fﾚｲﾔ
  6
Continuous
 62
     7
370
     9
100
AcDbLine
 10
478.8976130146309
 20
44.71570683181207
 30
0.0
 11
1117.126304008243
 21
44.71570683181207
 31
0.0
  0
LINE
  5
7F
330
1F
100
AcDbEntity
  8
F-Fﾚｲﾔ
  6
Continuous
 62
     7
370
     9
100
AcDbLine
 10
478.8976130146309
 20
12.71570683181207
 30
0.0
 11
1117.126304008243
 21
12.71570683181207
 31
0.0
  0
LINE
  5
80
330
1F
100
AcDbEntity
  8
F-Fﾚｲﾔ
  6
Continuous
 62
     7
370
     9
100
AcDbLine
 10
1117.126304008243
 20
336.7157068318121
 30
0.0
 11
1117.126304008243
 21
12.71570683181207
 31
0.0
  0
LINE
  5
81
330
1F
100
AcDbEntity
  8
通り芯
  6
JWW_CENTER2
 62
     7
370
     9
100
AcDbLine
 10
-602.9908921928209
 20
377.9020425662553
 30
0.0
 11
-602.9908921928209
 21
-338.7211461193276
 31
0.0
  0
LINE
  5
82
330
1F
100
AcDbEntity
  8
通り芯
  6
JWW_CENTER2
 62
     7
370
     9
100
AcDbLine
 10
-983.5051233840195
 20
21.1020916250211
 30
0.0
 11
-229.3445009920288
 21
21.1020916250211
 31
0.0
  0
LINE
  5
83
330
1F
100
AcDbEntity
  8
通り芯
  6
JWW_CENTER2
 62
     7
370
     9
100
AcDbLine
 10
-772.9908921928204
 20
202.623874631551
 30
0.0
 11
-772.9908921928204
 21
141.5950669561864
 31
0.0
  0
LINE
  5
84
330
1F
100
AcDbEntity
  8
通り芯
  6
JWW_CENTER2
 62
     7
370
     9
100
AcDbLine
 10
-755.9908718674069
 20
171.1020916250216
 30
0.0
 11
-789.9909125182344
 21
171.1020916250216
 31
0.0
  0
LINE
  5
85
330
1F
100
AcDbEntity
  8
通り芯
  6
JWW_CENTER2
 62
     7
370
     9
100
AcDbLine
 10
-772.9908921928204
 20
-160.4196913815092
 30
0.0
 11
-772.9908921928204
 21
-99.39088370614422
 31
0.0
  0
LINE
  5
86
330
1F
100
AcDbEntity
  8
通り芯
  6
JWW_CENTER2
 62
     7
370
     9
100
AcDbLine
 10
-755.9908718674069
 20
-128.8979083749794
 30
0.0
 11
-789.9909125182344
 21
-128.8979083749794
 31
0.0
  0
LINE
  5
87
330
1F
100
AcDbEntity
  8
通り芯
  6
JWW_CENTER2
 62
     7
370
     9
100
AcDbLine
 10
-415.9908718674073
 20
-128.8979083749794
 30
0.0
 11
-449.9909125182348
 21
-128.8979083749794
 31
0.0
  0
LINE
  5
88
330
1F
100
AcDbEntity
  8
通り芯
  6
JWW_CENTER2
 62
     7
370
     9
100
AcDbLine
 10
-432.9908921928209
 20
-160.4196913815092
 30
0.0
 11
-432.9908921928209
 21
-99.39088370614422
 31
0.0
  0
LINE
  5
89
330
1F
100
AcDbEntity
  8
通り芯
  6
JWW_CENTER2
 62
     7
370
     9
100
AcDbLine
 10
-432.9908921928209
 20
202.623874631551
 30
0.0
 11
-432.9908921928209
 21
141.5950669561864
 31
0.0
  0
LINE
  5
8A
330
1F
100
AcDbEntity
  8
通り芯
  6
JWW_CENTER2
 62
     7
370
     9
100
AcDbLine
 10
-415.9908718674073
 20
171.1020916250216
 30
0.0
 11
-449.9909125182348
 21
171.1020916250216
 31
0.0
  0
LINE
  5
8B
330
1F
100
AcDbEntity
  8
仕上
  6
Continuous
 62
     7
370
     9
100
AcDbLine
 10
-938.9907588109729
 20
354.1021854164979
 30
0.0
 11
-948.9908073563099
 21
344.1021368711605
 31
0.0
  0
LINE
  5
8C
330
1F
100
AcDbEntity
  8
仕上
  6
JWW_DASHED1
 62
     7
370
     9
100
AcDbLine
 10
-938.9907588109729
 20
354.1021854164979
 30
0.0
 11
-934.4906739744629
 21
358.6022702530068
 31
0.0
  0
LINE
  5
8D
330
1F
100
AcDbEntity
  8
仕上
  6
JWW_DASHED1
 62
     7
370
     9
100
AcDbLine
 10
-948.9908073563099
 20
344.1021368711605
 30
0.0
 11
-953.4908921928204
 21
339.6024719753774
 31
0.0
  0
LINE
  5
8E
330
1F
100
AcDbEntity
  8
仕上
  6
Continuous
 62
     2
370
     9
100
AcDbLine
 10
-258.4909385583305
 20
364.6023046589249
 30
0.0
 11
-258.4909385583305
 21
358.6022702530068
 31
0.0
  0
LINE
  5
8F
330
1F
100
AcDbEntity
  8
仕上
  6
Continuous
 62
     2
370
     9
100
AcDbLine
 10
-252.4908921928209
 20
371.6023894954366
 30
0.0
 11
-953.4908921928204
 21
371.6023894954366
 31
0.0
  0
LINE
  5
90
330
1F
100
AcDbEntity
  8
仕上
  6
Continuous
 62
     7
370
     9
100
AcDbLine
 10
-252.4908921928209
 20
354.1021854164979
 30
0.0
 11
-953.4908921928204
 21
354.1021854164979
 31
0.0
  0
LINE
  5
91
330
1F
100
AcDbEntity
  8
仕上
  6
Continuous
 62
     7
370
     9
100
AcDbLine
 10
-252.4908921928209
 20
369.1023894954366
 30
0.0
 11
-953.4908921928204
 21
369.1023894954366
 31
0.0
  0
LINE
  5
92
330
1F
100
AcDbEntity
  8
仕上
  6
Continuous
 62
     7
370
     9
100
AcDbLine
 10
-252.4908921928209
 20
364.6023046589249
 30
0.0
 11
-953.4908921928204
 21
364.6023046589249
 31
0.0
  0
LINE
  5
93
330
1F
100
AcDbEntity
  8
仕上
  6
Continuous
 62
     7
370
     9
100
AcDbLine
 10
-252.4908921928209
 20
358.6022702530068
 30
0.0
 11
-953.4908921928204
 21
358.6022702530068
 31
0.0
  0
LINE
  5
94
330
1F
100
AcDbEntity
  8
仕上
  6
Continuous
 62
     7
370
     9
100
AcDbLine
 10
-948.9908073563099
 20
-322.3981214088819
 30
0.0
 11
-948.9908073563099
 21
-316.3980870029643
 31
0.0
  0
LINE
  5
95
330
1F
100
AcDbEntity
  8
仕上
  6
Continuous
 62
     7
370
     9
100
AcDbLine
 10
-948.9908073563099
 20
-329.3982062453931
 30
0.0
 11
-948.9908073563099
 21
-326.8982062453931
 31
0.0
  0
LINE
  5
96
330
1F
100
AcDbEntity
  8
仕上
  6
Continuous
 62
     7
370
     9
100
AcDbLine
 10
-953.4908921928204
 20
-329.3982062453931
 30
0.0
 11
-948.9908073563099
 21
-329.3982062453931
 31
0.0
  0
LINE
  5
97
330
1F
100
AcDbEntity
  8
仕上
  6
Continuous
 62
     2
370
     9
100
AcDbLine
 10
-258.4909385583305
 20
-303.3979151501151
 30
0.0
 11
-258.4909385583305
 21
-311.8980021664531
 31
0.0
  0
LINE
  5
98
330
1F
100
AcDbEntity
  8
仕上
  6
JWW_DASHED1
 62
     2
370
     9
100
AcDbLine
 10
-258.4909385583305
 20
-311.8980021664531
 30
0.0
 11
-258.4909385583305
 21
-316.3980870029643
 31
0.0
  0
LINE
  5
99
330
1F
100
AcDbEntity
  8
仕上
  6
Continuous
 62
     2
370
     9
100
AcDbLine
 10
-258.4909385583305
 20
-322.3981214088819
 30
0.0
 11
-258.4909385583305
 21
-316.3980870029643
 31
0.0
  0
LINE
  5
9A
330
1F
100
AcDbEntity
  8
仕上
  6
JWW_DASHED1
 62
     7
370
     9
100
AcDbLine
 10
-256.9909770293316
 20
-301.8979536211161
 30
0.0
 11
-252.4908921928209
 21
-297.3982887253344
 31
0.0
  0
LINE
  5
9B
330
1F
100
AcDbEntity
  8
仕上
  6
JWW_DASHED1
 62
     7
370
     9
100
AcDbLine
 10
-266.9910255746681
 20
-311.8980021664531
 30
0.0
 11
-271.4911104111784
 21
-316.3980870029643
 31
0.0
  0
LINE
  5
9C
330
1F
100
AcDbEntity
  8
仕上
  6
Continuous
 62
     7
370
     9
100
AcDbLine
 10
-266.9910255746681
 20
-311.8980021664531
 30
0.0
 11
-256.9909770293316
 21
-301.8979536211161
 31
0.0
  0
LINE
  5
9D
330
1F
100
AcDbEntity
  8
仕上
  6
Continuous
 62
     7
370
     9
100
AcDbLine
 10
-256.9909770293316
 20
-322.3981214088819
 30
0.0
 11
-256.9909770293316
 21
-316.3980870029643
 31
0.0
  0
LINE
  5
9E
330
1F
100
AcDbEntity
  8
仕上
  6
Continuous
 62
     7
370
     9
100
AcDbLine
 10
-256.9909770293316
 20
-329.3982062453931
 30
0.0
 11
-256.9909770293316
 21
-326.8982062453931
 31
0.0
  0
LINE
  5
9F
330
1F
100
AcDbEntity
  8
仕上
  6
Continuous
 62
     7
370
     9
100
AcDbLine
 10
-252.4908921928209
 20
-329.3982062453931
 30
0.0
 11
-256.9909770293316
 21
-329.3982062453931
 31
0.0
  0
LINE
  5
A0
330
1F
100
AcDbEntity
  8
仕上
  6
Continuous
 62
     2
370
     9
100
AcDbLine
 10
-252.4908921928209
 20
-329.3982062453936
 30
0.0
 11
-953.4908921928204
 21
-329.3982062453936
 31
0.0
  0
LINE
  5
A1
330
1F
100
AcDbEntity
  8
仕上
  6
Continuous
 62
     7
370
     9
100
AcDbLine
 10
-252.4908921928209
 20
-311.8980021664531
 30
0.0
 11
-953.4908921928204
 21
-311.8980021664531
 31
0.0
  0
LINE
  5
A2
330
1F
100
AcDbEntity
  8
仕上
  6
Continuous
 62
     7
370
     9
100
AcDbLine
 10
-252.4908921928209
 20
-316.3980870029643
 30
0.0
 11
-953.4908921928204
 21
-316.3980870029643
 31
0.0
  0
LINE
  5
A3
330
1F
100
AcDbEntity
  8
仕上
  6
Continuous
 62
     7
370
     9
100
AcDbLine
 10
-252.4908921928209
 20
-322.3981214088819
 30
0.0
 11
-953.4908921928204
 21
-322.3981214088819
 31
0.0
  0
LINE
  5
A4
330
1F
100
AcDbEntity
  8
仕上
  6
Continuous
 62
     7
370
     9
100
AcDbLine
 10
-252.4908921928209
 20
-326.8982062453931
 30
0.0
 11
-953.4908921928204
 21
-326.8982062453931
 31
0.0
  0
LINE
  5
A5
330
1F
100
AcDbEntity
  8
仕上
  6
Continuous
 62
     7
370
     9
100
AcDbLine
 10
-953.4908921928204
 20
-329.3982062453931
 30
0.0
 11
-953.4908921928204
 21
371.6023894954366
 31
0.0
  0
LINE
  5
A6
330
1F
100
AcDbEntity
  8
仕上
  6
Continuous
 62
     7
370
     9
100
AcDbLine
 10
-948.9908073563099
 20
-311.8980021664531
 30
0.0
 11
-948.9908073563099
 21
354.1021854164979
 31
0.0
  0
LINE
  5
A7
330
1F
100
AcDbEntity
  8
仕上
  6
Continuous
 62
     7
370
     9
100
AcDbLine
 10
-252.4908921928209
 20
-329.3982062453931
 30
0.0
 11
-252.4908921928209
 21
371.6023894954366
 31
0.0
  0
LINE
  5
A8
330
1F
100
AcDbEntity
  8
仕上
  6
Continuous
 62
     7
370
     9
100
AcDbLine
 10
-256.9909770293316
 20
-311.8980021664531
 30
0.0
 11
-256.9909770293316
 21
354.1021854164979
 31
0.0
  0
LINE
  5
A9
330
1F
100
AcDbEntity
  8
仕上
  6
Continuous
 62
     3
370
     9
100
AcDbLine
 10
-757.9908718674069
 20
146.6475248701279
 30
0.0
 11
-757.9908718674069
 21
195.5566583799152
 31
0.0
  0
LINE
  5
AA
330
1F
100
AcDbEntity
  8
仕上
  6
Continuous
 62
     3
370
     9
100
AcDbLine
 10
-787.9909125182344
 20
195.5566583799152
 30
0.0
 11
-787.9909125182344
 21
146.6475248701279
 31
0.0
  0
LINE
  5
AB
330
1F
100
AcDbEntity
  8
仕上
  6
Continuous
 62
     3
370
     9
100
AcDbLine
 10
-787.9909125182344
 20
195.0566583799161
 30
0.0
 11
-757.9908718674069
 21
195.0566583799161
 31
0.0
  0
LINE
  5
AC
330
1F
100
AcDbEntity
  8
仕上
  6
Continuous
 62
     3
370
     9
100
AcDbLine
 10
-787.9909125182344
 20
195.5566583799152
 30
0.0
 11
-757.9908718674069
 21
195.5566583799152
 31
0.0
  0
LINE
  5
AD
330
1F
100
AcDbEntity
  8
仕上
  6
Continuous
 62
     3
370
     9
100
AcDbLine
 10
-787.9909125182344
 20
179.4681170288056
 30
0.0
 11
-757.9908718674069
 21
179.4681170288056
 31
0.0
  0
LINE
  5
AE
330
1F
100
AcDbEntity
  8
仕上
  6
Continuous
 62
     3
370
     9
100
AcDbLine
 10
-787.9909125182344
 20
146.6475248701279
 30
0.0
 11
-757.9908718674069
 21
146.6475248701279
 31
0.0
  0
LINE
  5
AF
330
1F
100
AcDbEntity
  8
仕上
  6
Continuous
 62
     3
370
     9
100
AcDbLine
 10
-787.9909125182344
 20
147.147524870127
 30
0.0
 11
-757.9908718674069
 21
147.147524870127
 31
0.0
  0
LINE
  5
B0
330
1F
100
AcDbEntity
  8
仕上
  6
Continuous
 62
     3
370
     9
100
AcDbLine
 10
-787.9909125182344
 20
162.7360662212375
 30
0.0
 11
-757.9908718674069
 21
162.7360662212375
 31
0.0
  0
LINE
  5
B1
330
1F
100
AcDbEntity
  8
仕上
  6
Continuous
 62
     3
370
     9
100
AcDbLine
 10
-447.9909125182348
 20
146.6475248701279
 30
0.0
 11
-447.9909125182348
 21
195.5566583799152
 31
0.0
  0
LINE
  5
B2
330
1F
100
AcDbEntity
  8
仕上
  6
Continuous
 62
     3
370
     9
100
AcDbLine
 10
-417.9908718674073
 20
195.5566583799152
 30
0.0
 11
-417.9908718674073
 21
146.6475248701279
 31
0.0
  0
LINE
  5
B3
330
1F
100
AcDbEntity
  8
仕上
  6
Continuous
 62
     3
370
     9
100
AcDbLine
 10
-417.9908718674073
 20
195.0566583799161
 30
0.0
 11
-447.9909125182348
 21
195.0566583799161
 31
0.0
  0
LINE
  5
B4
330
1F
100
AcDbEntity
  8
仕上
  6
Continuous
 62
     3
370
     9
100
AcDbLine
 10
-417.9908718674073
 20
195.5566583799152
 30
0.0
 11
-447.9909125182348
 21
195.5566583799152
 31
0.0
  0
LINE
  5
B5
330
1F
100
AcDbEntity
  8
仕上
  6
Continuous
 62
     3
370
     9
100
AcDbLine
 10
-417.9908718674073
 20
179.4681170288056
 30
0.0
 11
-447.9909125182348
 21
179.4681170288056
 31
0.0
  0
LINE
  5
B6
330
1F
100
AcDbEntity
  8
仕上
  6
Continuous
 62
     3
370
     9
100
AcDbLine
 10
-417.9908718674073
 20
146.6475248701279
 30
0.0
 11
-447.9909125182348
 21
146.6475248701279
 31
0.0
  0
LINE
  5
B7
330
1F
100
AcDbEntity
  8
仕上
  6
Continuous
 62
     3
370
     9
100
AcDbLine
 10
-417.9908718674073
 20
147.147524870127
 30
0.0
 11
-447.9909125182348
 21
147.147524870127
 31
0.0
  0
LINE
  5
B8
330
1F
100
AcDbEntity
  8
仕上
  6
Continuous
 62
     3
370
     9
100
AcDbLine
 10
-417.9908718674073
 20
162.7360662212375
 30
0.0
 11
-447.9909125182348
 21
162.7360662212375
 31
0.0
  0
LINE
  5
B9
330
1F
100
AcDbEntity
  8
仕上
  6
Continuous
 62
     3
370
     9
100
AcDbLine
 10
-757.9908718674069
 20
-104.4433416200857
 30
0.0
 11
-757.9908718674069
 21
-153.352475129873
 31
0.0
  0
LINE
  5
BA
330
1F
100
AcDbEntity
  8
仕上
  6
Continuous
 62
     3
370
     9
100
AcDbLine
 10
-787.9909125182344
 20
-153.352475129873
 30
0.0
 11
-787.9909125182344
 21
-104.4433416200857
 31
0.0
  0
LINE
  5
BB
330
1F
100
AcDbEntity
  8
仕上
  6
Continuous
 62
     3
370
     9
100
AcDbLine
 10
-787.9909125182344
 20
-152.8524751298735
 30
0.0
 11
-757.9908718674069
 21
-152.8524751298735
 31
0.0
  0
LINE
  5
BC
330
1F
100
AcDbEntity
  8
仕上
  6
Continuous
 62
     3
370
     9
100
AcDbLine
 10
-787.9909125182344
 20
-153.352475129873
 30
0.0
 11
-757.9908718674069
 21
-153.352475129873
 31
0.0
  0
LINE
  5
BD
330
1F
100
AcDbEntity
  8
仕上
  6
Continuous
 62
     3
370
     9
100
AcDbLine
 10
-787.9909125182344
 20
-137.2639337787634
 30
0.0
 11
-757.9908718674069
 21
-137.2639337787634
 31
0.0
  0
LINE
  5
BE
330
1F
100
AcDbEntity
  8
仕上
  6
Continuous
 62
     3
370
     9
100
AcDbLine
 10
-787.9909125182344
 20
-104.4433416200857
 30
0.0
 11
-757.9908718674069
 21
-104.4433416200857
 31
0.0
  0
LINE
  5
BF
330
1F
100
AcDbEntity
  8
仕上
  6
Continuous
 62
     3
370
     9
100
AcDbLine
 10
-787.9909125182344
 20
-104.9433416200852
 30
0.0
 11
-757.9908718674069
 21
-104.9433416200852
 31
0.0
  0
LINE
  5
C0
330
1F
100
AcDbEntity
  8
仕上
  6
Continuous
 62
     3
370
     9
100
AcDbLine
 10
-787.9909125182344
 20
-120.5318829711953
 30
0.0
 11
-757.9908718674069
 21
-120.5318829711953
 31
0.0
  0
LINE
  5
C1
330
1F
100
AcDbEntity
  8
仕上
  6
Continuous
 62
     3
370
     9
100
AcDbLine
 10
-447.9909125182348
 20
-104.4433416200857
 30
0.0
 11
-447.9909125182348
 21
-153.352475129873
 31
0.0
  0
LINE
  5
C2
330
1F
100
AcDbEntity
  8
仕上
  6
Continuous
 62
     3
370
     9
100
AcDbLine
 10
-417.9908718674073
 20
-153.352475129873
 30
0.0
 11
-417.9908718674073
 21
-104.4433416200857
 31
0.0
  0
LINE
  5
C3
330
1F
100
AcDbEntity
  8
仕上
  6
Continuous
 62
     3
370
     9
100
AcDbLine
 10
-417.9908718674073
 20
-152.8524751298735
 30
0.0
 11
-447.9909125182348
 21
-152.8524751298735
 31
0.0
  0
LINE
  5
C4
330
1F
100
AcDbEntity
  8
仕上
  6
Continuous
 62
     3
370
     9
100
AcDbLine
 10
-417.9908718674073
 20
-153.352475129873
 30
0.0
 11
-447.9909125182348
 21
-153.352475129873
 31
0.0
  0
LINE
  5
C5
330
1F
100
AcDbEntity
  8
仕上
  6
Continuous
 62
     3
370
     9
100
AcDbLine
 10
-417.9908718674073
 20
-137.2639337787634
 30
0.0
 11
-447.9909125182348
 21
-137.2639337787634
 31
0.0
  0
LINE
  5
C6
330
1F
100
AcDbEntity
  8
仕上
  6
Continuous
 62
     3
370
     9
100
AcDbLine
 10
-417.9908718674073
 20
-104.4433416200857
 30
0.0
 11
-447.9909125182348
 21
-104.4433416200857
 31
0.0
  0
LINE
  5
C7
330
1F
100
AcDbEntity
  8
仕上
  6
Continuous
 62
     3
370
     9
100
AcDbLine
 10
-417.9908718674073
 20
-104.9433416200852
 30
0.0
 11
-447.9909125182348
 21
-104.9433416200852
 31
0.0
  0
LINE
  5
C8
330
1F
100
AcDbEntity
  8
仕上
  6
Continuous
 62
     3
370
     9
100
AcDbLine
 10
-417.9908718674073
 20
-120.5318829711953
 30
0.0
 11
-447.9909125182348
 21
-120.5318829711953
 31
0.0
  0
LINE
  5
C9
330
1F
100
AcDbEntity
  8
仕上
  6
Continuous
 62
     2
370
     9
100
AcDbLine
 10
-815.9908821184852
 20
358.6022702530068
 30
0.0
 11
-815.9908821184852
 21
364.6023046589249
 31
0.0
  0
LINE
  5
CA
330
1F
100
AcDbEntity
  8
仕上
  6
Continuous
 62
     2
370
     9
100
AcDbLine
 10
-809.9906940642197
 20
358.6022702530068
 30
0.0
 11
-809.9906940642197
 21
364.6023046589249
 31
0.0
  0
LINE
  5
CB
330
1F
100
AcDbEntity
  8
仕上
  6
Continuous
 62
     2
370
     9
100
AcDbLine
 10
-815.9908821184852
 20
-316.3980870029643
 30
0.0
 11
-815.9908821184852
 21
-322.3981214088819
 31
0.0
  0
LINE
  5
CC
330
1F
100
AcDbEntity
  8
仕上
  6
Continuous
 62
     2
370
     9
100
AcDbLine
 10
-809.9906940642197
 20
-316.3980870029643
 30
0.0
 11
-809.9906940642197
 21
-322.3981214088819
 31
0.0
  0
LINE
  5
CD
330
1F
100
AcDbEntity
  8
仕上
  6
JWW_DASHED1
 62
     2
370
     9
100
AcDbLine
 10
-815.9908821184852
 20
-316.3980870029643
 30
0.0
 11
-815.9908821184852
 21
358.6022702530068
 31
0.0
  0
LINE
  5
CE
330
1F
100
AcDbEntity
  8
仕上
  6
JWW_DASHED1
 62
     2
370
     9
100
AcDbLine
 10
-809.9906940642197
 20
358.6022702530068
 30
0.0
 11
-809.9906940642197
 21
-316.3980870029643
 31
0.0
  0
LINE
  5
CF
330
1F
100
AcDbEntity
  8
仕上
  6
Continuous
 62
     2
370
     9
100
AcDbLine
 10
-675.9908821184852
 20
358.6022702530068
 30
0.0
 11
-675.9908821184852
 21
364.6023046589249
 31
0.0
  0
LINE
  5
D0
330
1F
100
AcDbEntity
  8
仕上
  6
Continuous
 62
     2
370
     9
100
AcDbLine
 10
-669.9906940642197
 20
358.6022702530068
 30
0.0
 11
-669.9906940642197
 21
364.6023046589249
 31
0.0
  0
LINE
  5
D1
330
1F
100
AcDbEntity
  8
仕上
  6
Continuous
 62
     2
370
     9
100
AcDbLine
 10
-675.9908821184852
 20
-316.3980870029643
 30
0.0
 11
-675.9908821184852
 21
-322.3981214088819
 31
0.0
  0
LINE
  5
D2
330
1F
100
AcDbEntity
  8
仕上
  6
Continuous
 62
     2
370
     9
100
AcDbLine
 10
-669.9906940642197
 20
-316.3980870029643
 30
0.0
 11
-669.9906940642197
 21
-322.3981214088819
 31
0.0
  0
LINE
  5
D3
330
1F
100
AcDbEntity
  8
仕上
  6
JWW_DASHED1
 62
     2
370
     9
100
AcDbLine
 10
-675.9908821184852
 20
-316.3980870029643
 30
0.0
 11
-675.9908821184852
 21
358.6022702530068
 31
0.0
  0
LINE
  5
D4
330
1F
100
AcDbEntity
  8
仕上
  6
JWW_DASHED1
 62
     2
370
     9
100
AcDbLine
 10
-669.9906940642197
 20
358.6022702530068
 30
0.0
 11
-669.9906940642197
 21
-316.3980870029643
 31
0.0
  0
LINE
  5
D5
330
1F
100
AcDbEntity
  8
仕上
  6
Continuous
 62
     2
370
     9
100
AcDbLine
 10
-535.9908821184852
 20
358.6022702530068
 30
0.0
 11
-535.9908821184852
 21
364.6023046589249
 31
0.0
  0
LINE
  5
D6
330
1F
100
AcDbEntity
  8
仕上
  6
Continuous
 62
     2
370
     9
100
AcDbLine
 10
-529.9906940642197
 20
358.6022702530068
 30
0.0
 11
-529.9906940642197
 21
364.6023046589249
 31
0.0
  0
LINE
  5
D7
330
1F
100
AcDbEntity
  8
仕上
  6
Continuous
 62
     2
370
     9
100
AcDbLine
 10
-535.9908821184852
 20
-316.3980870029643
 30
0.0
 11
-535.9908821184852
 21
-322.3981214088819
 31
0.0
  0
LINE
  5
D8
330
1F
100
AcDbEntity
  8
仕上
  6
Continuous
 62
     2
370
     9
100
AcDbLine
 10
-529.9906940642197
 20
-316.3980870029643
 30
0.0
 11
-529.9906940642197
 21
-322.3981214088819
 31
0.0
  0
LINE
  5
D9
330
1F
100
AcDbEntity
  8
仕上
  6
JWW_DASHED1
 62
     2
370
     9
100
AcDbLine
 10
-535.9908821184852
 20
-316.3980870029643
 30
0.0
 11
-535.9908821184852
 21
358.6022702530068
 31
0.0
  0
LINE
  5
DA
330
1F
100
AcDbEntity
  8
仕上
  6
JWW_DASHED1
 62
     2
370
     9
100
AcDbLine
 10
-529.9906940642197
 20
358.6022702530068
 30
0.0
 11
-529.9906940642197
 21
-316.3980870029643
 31
0.0
  0
LINE
  5
DB
330
1F
100
AcDbEntity
  8
仕上
  6
Continuous
 62
     2
370
     9
100
AcDbLine
 10
-395.9908821184849
 20
358.6022702530068
 30
0.0
 11
-395.9908821184849
 21
364.6023046589249
 31
0.0
  0
LINE
  5
DC
330
1F
100
AcDbEntity
  8
仕上
  6
Continuous
 62
     2
370
     9
100
AcDbLine
 10
-389.9906940642195
 20
358.6022702530068
 30
0.0
 11
-389.9906940642195
 21
364.6023046589249
 31
0.0
  0
LINE
  5
DD
330
1F
100
AcDbEntity
  8
仕上
  6
Continuous
 62
     2
370
     9
100
AcDbLine
 10
-395.9908821184849
 20
-316.3980870029643
 30
0.0
 11
-395.9908821184849
 21
-322.3981214088819
 31
0.0
  0
LINE
  5
DE
330
1F
100
AcDbEntity
  8
仕上
  6
Continuous
 62
     2
370
     9
100
AcDbLine
 10
-389.9906940642195
 20
-316.3980870029643
 30
0.0
 11
-389.9906940642195
 21
-322.3981214088819
 31
0.0
  0
LINE
  5
DF
330
1F
100
AcDbEntity
  8
仕上
  6
JWW_DASHED1
 62
     2
370
     9
100
AcDbLine
 10
-395.9908821184849
 20
-316.3980870029643
 30
0.0
 11
-395.9908821184849
 21
358.6022702530068
 31
0.0
  0
LINE
  5
E0
330
1F
100
AcDbEntity
  8
仕上
  6
JWW_DASHED1
 62
     2
370
     9
100
AcDbLine
 10
-389.9906940642195
 20
358.6022702530068
 30
0.0
 11
-389.9906940642195
 21
-316.3980870029643
 31
0.0
  0
LINE
  5
E1
330
1F
100
AcDbEntity
  8
仕上
  6
Continuous
 62
     7
370
     9
100
AcDbLine
 10
-810.7407456730971
 20
-326.8982062453931
 30
0.0
 11
-810.7407456730971
 21
-329.3982062453931
 31
0.0
  0
LINE
  5
E2
330
1F
100
AcDbEntity
  8
仕上
  6
Continuous
 62
     7
370
     9
100
AcDbLine
 10
-815.2408305096078
 20
-326.8982062453931
 30
0.0
 11
-815.2408305096078
 21
-329.3982062453931
 31
0.0
  0
LINE
  5
E3
330
1F
100
AcDbEntity
  8
仕上
  6
Continuous
 62
     7
370
     9
100
AcDbLine
 10
-815.2408305096078
 20
-329.3982062453931
 30
0.0
 11
-810.7407456730971
 21
-329.3982062453931
 31
0.0
  0
LINE
  5
E4
330
1F
100
AcDbEntity
  8
仕上
  6
Continuous
 62
     7
370
     9
100
AcDbLine
 10
-810.7407456730971
 20
-316.3980870029643
 30
0.0
 11
-810.7407456730971
 21
-322.3981214088819
 31
0.0
  0
LINE
  5
E5
330
1F
100
AcDbEntity
  8
仕上
  6
Continuous
 62
     7
370
     9
100
AcDbLine
 10
-815.2408305096078
 20
-316.3980870029643
 30
0.0
 11
-815.2408305096078
 21
-322.3981214088819
 31
0.0
  0
LINE
  5
E6
330
1F
100
AcDbEntity
  8
仕上
  6
Continuous
 62
     7
370
     9
100
AcDbLine
 10
-670.7407456730971
 20
-326.8982062453931
 30
0.0
 11
-670.7407456730971
 21
-329.3982062453931
 31
0.0
  0
LINE
  5
E7
330
1F
100
AcDbEntity
  8
仕上
  6
Continuous
 62
     7
370
     9
100
AcDbLine
 10
-675.2408305096078
 20
-326.8982062453931
 30
0.0
 11
-675.2408305096078
 21
-329.3982062453931
 31
0.0
  0
LINE
  5
E8
330
1F
100
AcDbEntity
  8
仕上
  6
Continuous
 62
     7
370
     9
100
AcDbLine
 10
-675.2408305096078
 20
-329.3982062453931
 30
0.0
 11
-670.7407456730971
 21
-329.3982062453931
 31
0.0
  0
LINE
  5
E9
330
1F
100
AcDbEntity
  8
仕上
  6
Continuous
 62
     7
370
     9
100
AcDbLine
 10
-670.7407456730971
 20
-316.3980870029643
 30
0.0
 11
-670.7407456730971
 21
-322.3981214088819
 31
0.0
  0
LINE
  5
EA
330
1F
100
AcDbEntity
  8
仕上
  6
Continuous
 62
     7
370
     9
100
AcDbLine
 10
-675.2408305096078
 20
-316.3980870029643
 30
0.0
 11
-675.2408305096078
 21
-322.3981214088819
 31
0.0
  0
LINE
  5
EB
330
1F
100
AcDbEntity
  8
仕上
  6
Continuous
 62
     7
370
     9
100
AcDbLine
 10
-530.7407456730971
 20
-326.8982062453931
 30
0.0
 11
-530.7407456730971
 21
-329.3982062453931
 31
0.0
  0
LINE
  5
EC
330
1F
100
AcDbEntity
  8
仕上
  6
Continuous
 62
     7
370
     9
100
AcDbLine
 10
-535.2408305096078
 20
-326.8982062453931
 30
0.0
 11
-535.2408305096078
 21
-329.3982062453931
 31
0.0
  0
LINE
  5
ED
330
1F
100
AcDbEntity
  8
仕上
  6
Continuous
 62
     7
370
     9
100
AcDbLine
 10
-535.2408305096078
 20
-329.3982062453931
 30
0.0
 11
-530.7407456730971
 21
-329.3982062453931
 31
0.0
  0
LINE
  5
EE
330
1F
100
AcDbEntity
  8
仕上
  6
Continuous
 62
     7
370
     9
100
AcDbLine
 10
-530.7407456730971
 20
-316.3980870029643
 30
0.0
 11
-530.7407456730971
 21
-322.3981214088819
 31
0.0
  0
LINE
  5
EF
330
1F
100
AcDbEntity
  8
仕上
  6
Continuous
 62
     7
370
     9
100
AcDbLine
 10
-535.2408305096078
 20
-316.3980870029643
 30
0.0
 11
-535.2408305096078
 21
-322.3981214088819
 31
0.0
  0
LINE
  5
F0
330
1F
100
AcDbEntity
  8
仕上
  6
Continuous
 62
     7
370
     9
100
AcDbLine
 10
-390.7407456730971
 20
-326.8982062453931
 30
0.0
 11
-390.7407456730971
 21
-329.3982062453931
 31
0.0
  0
LINE
  5
F1
330
1F
100
AcDbEntity
  8
仕上
  6
Continuous
 62
     7
370
     9
100
AcDbLine
 10
-395.2408305096078
 20
-326.8982062453931
 30
0.0
 11
-395.2408305096078
 21
-329.3982062453931
 31
0.0
  0
LINE
  5
F2
330
1F
100
AcDbEntity
  8
仕上
  6
Continuous
 62
     7
370
     9
100
AcDbLine
 10
-395.2408305096078
 20
-329.3982062453931
 30
0.0
 11
-390.7407456730971
 21
-329.3982062453931
 31
0.0
  0
LINE
  5
F3
330
1F
100
AcDbEntity
  8
仕上
  6
Continuous
 62
     7
370
     9
100
AcDbLine
 10
-390.7407456730971
 20
-316.3980870029643
 30
0.0
 11
-390.7407456730971
 21
-322.3981214088819
 31
0.0
  0
LINE
  5
F4
330
1F
100
AcDbEntity
  8
仕上
  6
Continuous
 62
     7
370
     9
100
AcDbLine
 10
-395.2408305096078
 20
-316.3980870029643
 30
0.0
 11
-395.2408305096078
 21
-322.3981214088819
 31
0.0
  0
LINE
  5
F5
330
1F
100
AcDbEntity
  8
仕上
  6
Continuous
 62
     7
370
     9
100
AcDbLine
 10
-948.9908073563099
 20
364.602304658924
 30
0.0
 11
-948.9908073563099
 21
358.6022702530068
 31
0.0
  0
LINE
  5
F6
330
1F
100
AcDbEntity
  8
仕上
  6
Continuous
 62
     7
370
     9
100
AcDbLine
 10
-948.9908073563099
 20
371.6023894954347
 30
0.0
 11
-948.9908073563099
 21
369.1023894954347
 31
0.0
  0
LINE
  5
F7
330
1F
100
AcDbEntity
  8
仕上
  6
Continuous
 62
     7
370
     9
100
AcDbLine
 10
-953.4908921928204
 20
371.6023894954347
 30
0.0
 11
-948.9908073563099
 21
371.6023894954347
 31
0.0
  0
LINE
  5
F8
330
1F
100
AcDbEntity
  8
仕上
  6
Continuous
 62
     7
370
     9
100
AcDbLine
 10
-256.9909770293316
 20
364.602304658924
 30
0.0
 11
-256.9909770293316
 21
358.6022702530068
 31
0.0
  0
LINE
  5
F9
330
1F
100
AcDbEntity
  8
仕上
  6
Continuous
 62
     7
370
     9
100
AcDbLine
 10
-256.9909770293316
 20
371.6023894954347
 30
0.0
 11
-256.9909770293316
 21
369.1023894954347
 31
0.0
  0
LINE
  5
FA
330
1F
100
AcDbEntity
  8
仕上
  6
Continuous
 62
     7
370
     9
100
AcDbLine
 10
-252.4908921928209
 20
371.6023894954347
 30
0.0
 11
-256.9909770293316
 21
371.6023894954347
 31
0.0
  0
LINE
  5
FB
330
1F
100
AcDbEntity
  8
仕上
  6
Continuous
 62
     7
370
     9
100
AcDbLine
 10
-810.7407456730971
 20
369.1023894954347
 30
0.0
 11
-810.7407456730971
 21
371.6023894954347
 31
0.0
  0
LINE
  5
FC
330
1F
100
AcDbEntity
  8
仕上
  6
Continuous
 62
     7
370
     9
100
AcDbLine
 10
-815.2408305096078
 20
369.1023894954347
 30
0.0
 11
-815.2408305096078
 21
371.6023894954347
 31
0.0
  0
LINE
  5
FD
330
1F
100
AcDbEntity
  8
仕上
  6
Continuous
 62
     7
370
     9
100
AcDbLine
 10
-815.2408305096078
 20
371.6023894954347
 30
0.0
 11
-810.7407456730971
 21
371.6023894954347
 31
0.0
  0
LINE
  5
FE
330
1F
100
AcDbEntity
  8
仕上
  6
Continuous
 62
     7
370
     9
100
AcDbLine
 10
-810.7407456730971
 20
358.6022702530068
 30
0.0
 11
-810.7407456730971
 21
364.602304658924
 31
0.0
  0
LINE
  5
FF
330
1F
100
AcDbEntity
  8
仕上
  6
Continuous
 62
     7
370
     9
100
AcDbLine
 10
-815.2408305096078
 20
358.6022702530068
 30
0.0
 11
-815.2408305096078
 21
364.602304658924
 31
0.0
  0
LINE
  5
100
330
1F
100
AcDbEntity
  8
仕上
  6
Continuous
 62
     7
370
     9
100
AcDbLine
 10
-670.7407456730971
 20
369.1023894954347
 30
0.0
 11
-670.7407456730971
 21
371.6023894954347
 31
0.0
  0
LINE
  5
101
330
1F
100
AcDbEntity
  8
仕上
  6
Continuous
 62
     7
370
     9
100
AcDbLine
 10
-675.2408305096078
 20
369.1023894954347
 30
0.0
 11
-675.2408305096078
 21
371.6023894954347
 31
0.0
  0
LINE
  5
102
330
1F
100
AcDbEntity
  8
仕上
  6
Continuous
 62
     7
370
     9
100
AcDbLine
 10
-675.2408305096078
 20
371.6023894954347
 30
0.0
 11
-670.7407456730971
 21
371.6023894954347
 31
0.0
  0
LINE
  5
103
330
1F
100
AcDbEntity
  8
仕上
  6
Continuous
 62
     7
370
     9
100
AcDbLine
 10
-670.7407456730971
 20
358.6022702530068
 30
0.0
 11
-670.7407456730971
 21
364.602304658924
 31
0.0
  0
LINE
  5
104
330
1F
100
AcDbEntity
  8
仕上
  6
Continuous
 62
     7
370
     9
100
AcDbLine
 10
-675.2408305096078
 20
358.6022702530068
 30
0.0
 11
-675.2408305096078
 21
364.602304658924
 31
0.0
  0
LINE
  5
105
330
1F
100
AcDbEntity
  8
仕上
  6
Continuous
 62
     7
370
     9
100
AcDbLine
 10
-530.7407456730971
 20
369.1023894954347
 30
0.0
 11
-530.7407456730971
 21
371.6023894954347
 31
0.0
  0
LINE
  5
106
330
1F
100
AcDbEntity
  8
仕上
  6
Continuous
 62
     7
370
     9
100
AcDbLine
 10
-535.2408305096078
 20
369.1023894954347
 30
0.0
 11
-535.2408305096078
 21
371.6023894954347
 31
0.0
  0
LINE
  5
107
330
1F
100
AcDbEntity
  8
仕上
  6
Continuous
 62
     7
370
     9
100
AcDbLine
 10
-535.2408305096078
 20
371.6023894954347
 30
0.0
 11
-530.7407456730971
 21
371.6023894954347
 31
0.0
  0
LINE
  5
108
330
1F
100
AcDbEntity
  8
仕上
  6
Continuous
 62
     7
370
     9
100
AcDbLine
 10
-530.7407456730971
 20
358.6022702530068
 30
0.0
 11
-530.7407456730971
 21
364.602304658924
 31
0.0
  0
LINE
  5
109
330
1F
100
AcDbEntity
  8
仕上
  6
Continuous
 62
     7
370
     9
100
AcDbLine
 10
-535.2408305096078
 20
358.6022702530068
 30
0.0
 11
-535.2408305096078
 21
364.602304658924
 31
0.0
  0
LINE
  5
10A
330
1F
100
AcDbEntity
  8
仕上
  6
Continuous
 62
     7
370
     9
100
AcDbLine
 10
-390.7407456730971
 20
369.1023894954347
 30
0.0
 11
-390.7407456730971
 21
371.6023894954347
 31
0.0
  0
LINE
  5
10B
330
1F
100
AcDbEntity
  8
仕上
  6
Continuous
 62
     7
370
     9
100
AcDbLine
 10
-395.2408305096078
 20
369.1023894954347
 30
0.0
 11
-395.2408305096078
 21
371.6023894954347
 31
0.0
  0
LINE
  5
10C
330
1F
100
AcDbEntity
  8
仕上
  6
Continuous
 62
     7
370
     9
100
AcDbLine
 10
-395.2408305096078
 20
371.6023894954347
 30
0.0
 11
-390.7407456730971
 21
371.6023894954347
 31
0.0
  0
LINE
  5
10D
330
1F
100
AcDbEntity
  8
仕上
  6
Continuous
 62
     7
370
     9
100
AcDbLine
 10
-390.7407456730971
 20
358.6022702530068
 30
0.0
 11
-390.7407456730971
 21
364.602304658924
 31
0.0
  0
LINE
  5
10E
330
1F
100
AcDbEntity
  8
仕上
  6
Continuous
 62
     7
370
     9
100
AcDbLine
 10
-395.2408305096078
 20
358.6022702530068
 30
0.0
 11
-395.2408305096078
 21
364.602304658924
 31
0.0
  0
LINE
  5
10F
330
1F
100
AcDbEntity
  8
仕上
  6
JWW_DASHED1
 62
     2
370
     9
100
AcDbLine
 10
-258.4909385583305
 20
358.6022702530068
 30
0.0
 11
-258.4909385583305
 21
-303.3979151501151
 31
0.0
  0
CIRCLE
  5
110
330
1F
100
AcDbEntity
  8
仕上
  6
Continuous
 62
     7
370
     9
100
AcDbCircle
 10
-923.4908975245594
 20
338.6022679553527
 30
0.0
 40
5.0
  0
LINE
  5
111
330
1F
100
AcDbEntity
  8
仕上
  6
JWW_CENTER2
 62
     7
370
     9
100
AcDbLine
 10
-916.4908975245594
 20
338.6022679553527
 30
0.0
 11
-930.4908975245594
 21
338.6022679553527
 31
0.0
  0
LINE
  5
112
330
1F
100
AcDbEntity
  8
仕上
  6
JWW_CENTER2
 62
     7
370
     9
100
AcDbLine
 10
-923.4908975245594
 20
345.6022679553527
 30
0.0
 11
-923.4908975245594
 21
331.6022679553527
 31
0.0
  0
LINE
  5
113
330
1F
100
AcDbEntity
  8
建具
  6
Continuous
 62
     4
370
     9
100
AcDbLine
 10
-887.9908921928209
 20
-378.8979413669553
 30
0.0
 11
-837.9909251847971
 21
-378.8979413669553
 31
0.0
  0
LINE
  5
114
330
1F
100
AcDbEntity
  8
建具
  6
Continuous
 62
     4
370
     9
100
AcDbLine
 10
-887.9908921928209
 20
-338.897908374979
 30
0.0
 11
-887.9908921928209
 21
-378.8979413669553
 31
0.0
  0
LINE
  5
115
330
1F
100
AcDbEntity
  8
建具
  6
Continuous
 62
     4
370
     9
100
AcDbLine
 10
-837.9909251847971
 20
-378.8979413669553
 30
0.0
 11
-837.9909251847971
 21
-338.897908374979
 31
0.0
  0
LINE
  5
116
330
1F
100
AcDbEntity
  8
建具
  6
JWW_CENTER1
 62
     4
370
     9
100
AcDbLine
 10
-862.9909086888092
 20
-360.8978819813979
 30
0.0
 11
-862.9909086888092
 21
-374.7177919792864
 31
0.0
  0
LINE
  5
117
330
1F
100
AcDbEntity
  8
建具
  6
JWW_CENTER1
 62
     4
370
     9
100
AcDbLine
 10
-862.9909086888092
 20
-360.8978819813979
 30
0.0
 11
-847.5189914590792
 21
-360.8978819813979
 31
0.0
  0
LINE
  5
118
330
1F
100
AcDbEntity
  8
建具
  6
JWW_CENTER1
 62
     4
370
     9
100
AcDbLine
 10
-862.9909086888092
 20
-360.8978819813979
 30
0.0
 11
-862.9909086888092
 21
-347.0780709594384
 31
0.0
  0
LINE
  5
119
330
1F
100
AcDbEntity
  8
建具
  6
JWW_CENTER1
 62
     4
370
     9
100
AcDbLine
 10
-862.9909086888092
 20
-360.8978819813979
 30
0.0
 11
-878.4628259185388
 21
-360.8978819813979
 31
0.0
  0
LINE
  5
11A
330
1F
100
AcDbEntity
  8
建具
  6
Continuous
 62
     4
370
     9
100
AcDbLine
 10
-962.9909045648119
 20
-338.897908374979
 30
0.0
 11
-962.9909045648119
 21
381.1020916250211
 31
0.0
  0
LINE
  5
11B
330
1F
100
AcDbEntity
  8
建具
  6
Continuous
 62
     4
370
     9
100
AcDbLine
 10
-956.9909218855996
 20
-332.8979133237754
 30
0.0
 11
-956.9909218855996
 21
375.1021708057643
 31
0.0
  0
LINE
  5
11C
330
1F
100
AcDbEntity
  8
建具
  6
Continuous
 62
     4
370
     9
100
AcDbLine
 10
-887.9908921928209
 20
421.1021246169975
 30
0.0
 11
-837.9909004408146
 21
421.1021246169975
 31
0.0
  0
LINE
  5
11D
330
1F
100
AcDbEntity
  8
建具
  6
Continuous
 62
     4
370
     9
100
AcDbLine
 10
-887.9908921928209
 20
381.1020916250211
 30
0.0
 11
-887.9908921928209
 21
421.1021246169975
 31
0.0
  0
LINE
  5
11E
330
1F
100
AcDbEntity
  8
建具
  6
Continuous
 62
     4
370
     9
100
AcDbLine
 10
-837.9909004408146
 20
421.1021246169975
 30
0.0
 11
-837.9909004408146
 21
381.1020916250211
 31
0.0
  0
LINE
  5
11F
330
1F
100
AcDbEntity
  8
建具
  6
JWW_CENTER1
 62
     4
370
     9
100
AcDbLine
 10
-862.9909086888092
 20
403.10206523144
 30
0.0
 11
-862.9909086888092
 21
416.9219752293285
 31
0.0
  0
LINE
  5
120
330
1F
100
AcDbEntity
  8
建具
  6
JWW_CENTER1
 62
     4
370
     9
100
AcDbLine
 10
-862.9909086888092
 20
403.10206523144
 30
0.0
 11
-847.5189914590792
 21
403.10206523144
 31
0.0
  0
LINE
  5
121
330
1F
100
AcDbEntity
  8
建具
  6
JWW_CENTER1
 62
     4
370
     9
100
AcDbLine
 10
-862.9909086888092
 20
403.10206523144
 30
0.0
 11
-862.9909086888092
 21
389.2822542094806
 31
0.0
  0
LINE
  5
122
330
1F
100
AcDbEntity
  8
建具
  6
JWW_CENTER1
 62
     4
370
     9
100
AcDbLine
 10
-862.9909086888092
 20
403.10206523144
 30
0.0
 11
-878.4628259185388
 21
403.10206523144
 31
0.0
  0
LINE
  5
123
330
1F
100
AcDbEntity
  8
建具
  6
Continuous
 62
     4
370
     9
100
AcDbLine
 10
-317.9908921928204
 20
-378.8979413669553
 30
0.0
 11
-367.9908592008442
 21
-378.8979413669553
 31
0.0
  0
LINE
  5
124
330
1F
100
AcDbEntity
  8
建具
  6
Continuous
 62
     4
370
     9
100
AcDbLine
 10
-317.9908921928204
 20
-338.897908374979
 30
0.0
 11
-317.9908921928204
 21
-378.8979413669553
 31
0.0
  0
LINE
  5
125
330
1F
100
AcDbEntity
  8
建具
  6
Continuous
 62
     4
370
     9
100
AcDbLine
 10
-367.9908592008442
 20
-378.8979413669553
 30
0.0
 11
-367.9908592008442
 21
-338.897908374979
 31
0.0
  0
LINE
  5
126
330
1F
100
AcDbEntity
  8
建具
  6
JWW_CENTER1
 62
     4
370
     9
100
AcDbLine
 10
-342.9908756968325
 20
-360.8978819813979
 30
0.0
 11
-342.9908756968325
 21
-374.7177919792864
 31
0.0
  0
LINE
  5
127
330
1F
100
AcDbEntity
  8
建具
  6
JWW_CENTER1
 62
     4
370
     9
100
AcDbLine
 10
-342.9908756968325
 20
-360.8978819813979
 30
0.0
 11
-358.4627929265621
 21
-360.8978819813979
 31
0.0
  0
LINE
  5
128
330
1F
100
AcDbEntity
  8
建具
  6
JWW_CENTER1
 62
     4
370
     9
100
AcDbLine
 10
-342.9908756968325
 20
-360.8978819813979
 30
0.0
 11
-342.9908756968325
 21
-347.0780709594384
 31
0.0
  0
LINE
  5
129
330
1F
100
AcDbEntity
  8
建具
  6
JWW_CENTER1
 62
     4
370
     9
100
AcDbLine
 10
-342.9908756968325
 20
-360.8978819813979
 30
0.0
 11
-327.5189584671029
 21
-360.8978819813979
 31
0.0
  0
LINE
  5
12A
330
1F
100
AcDbEntity
  8
建具
  6
Continuous
 62
     4
370
     9
100
AcDbLine
 10
-242.9908921928204
 20
381.1020916250211
 30
0.0
 11
-242.9908921928204
 21
-338.897908374979
 31
0.0
  0
LINE
  5
12B
330
1F
100
AcDbEntity
  8
建具
  6
Continuous
 62
     4
370
     9
100
AcDbLine
 10
-248.9909119880072
 20
375.1021708057643
 30
0.0
 11
-248.9909119880072
 21
-332.8979133237754
 31
0.0
  0
LINE
  5
12C
330
1F
100
AcDbEntity
  8
建具
  6
Continuous
 62
     4
370
     9
100
AcDbLine
 10
-317.9908921928204
 20
421.1021246169975
 30
0.0
 11
-367.9908592008442
 21
421.1021246169975
 31
0.0
  0
LINE
  5
12D
330
1F
100
AcDbEntity
  8
建具
  6
Continuous
 62
     4
370
     9
100
AcDbLine
 10
-317.9908921928204
 20
381.1020916250211
 30
0.0
 11
-317.9908921928204
 21
421.1021246169975
 31
0.0
  0
LINE
  5
12E
330
1F
100
AcDbEntity
  8
建具
  6
Continuous
 62
     4
370
     9
100
AcDbLine
 10
-367.9908592008442
 20
421.1021246169975
 30
0.0
 11
-367.9908592008442
 21
381.1020916250211
 31
0.0
  0
LINE
  5
12F
330
1F
100
AcDbEntity
  8
建具
  6
JWW_CENTER1
 62
     4
370
     9
100
AcDbLine
 10
-342.9908756968325
 20
403.10206523144
 30
0.0
 11
-342.9908756968325
 21
416.9219752293285
 31
0.0
  0
LINE
  5
130
330
1F
100
AcDbEntity
  8
建具
  6
JWW_CENTER1
 62
     4
370
     9
100
AcDbLine
 10
-342.9908756968325
 20
403.10206523144
 30
0.0
 11
-358.4627929265621
 21
403.10206523144
 31
0.0
  0
LINE
  5
131
330
1F
100
AcDbEntity
  8
建具
  6
JWW_CENTER1
 62
     4
370
     9
100
AcDbLine
 10
-342.9908756968325
 20
403.10206523144
 30
0.0
 11
-342.9908756968325
 21
389.2822542094806
 31
0.0
  0
LINE
  5
132
330
1F
100
AcDbEntity
  8
建具
  6
JWW_CENTER1
 62
     4
370
     9
100
AcDbLine
 10
-342.9908756968325
 20
403.10206523144
 30
0.0
 11
-327.5189584671029
 21
403.10206523144
 31
0.0
  0
LINE
  5
133
330
1F
100
AcDbEntity
  8
建具
  6
Continuous
 62
     4
370
     9
100
AcDbLine
 10
-962.9909045648119
 20
381.1020916250211
 30
0.0
 11
-242.9908921928204
 21
381.1020916250211
 31
0.0
  0
LINE
  5
134
330
1F
100
AcDbEntity
  8
建具
  6
Continuous
 62
     4
370
     9
100
AcDbLine
 10
-956.9909218855996
 20
375.1021708057643
 30
0.0
 11
-248.9909119880072
 21
375.1021708057643
 31
0.0
  0
CIRCLE
  5
135
330
1F
100
AcDbEntity
  8
建具
  6
Continuous
 62
     4
370
     9
100
AcDbCircle
 10
-862.9909086888092
 20
-360.8978819813979
 30
0.0
 40
8.000000103099927
  0
CIRCLE
  5
136
330
1F
100
AcDbEntity
  8
建具
  6
Continuous
 62
     4
370
     9
100
AcDbCircle
 10
-862.9909086888092
 20
403.10206523144
 30
0.0
 40
8.000000103099927
  0
CIRCLE
  5
137
330
1F
100
AcDbEntity
  8
建具
  6
Continuous
 62
     4
370
     9
100
AcDbCircle
 10
-342.9908756968325
 20
-360.8978819813979
 30
0.0
 40
8.000000103099927
  0
CIRCLE
  5
138
330
1F
100
AcDbEntity
  8
建具
  6
Continuous
 62
     4
370
     9
100
AcDbCircle
 10
-342.9908756968325
 20
403.10206523144
 30
0.0
 40
8.000000103099927
  0
LINE
  5
139
330
1F
100
AcDbEntity
  8
建具
  6
Continuous
 62
     4
370
     9
100
AcDbLine
 10
-242.9908921928204
 20
-338.897908374979
 30
0.0
 11
-962.9909045648119
 21
-338.897908374979
 31
0.0
  0
LINE
  5
13A
330
1F
100
AcDbEntity
  8
建具
  6
Continuous
 62
     4
370
     9
100
AcDbLine
 10
-248.9909119880072
 20
-332.8979133237754
 30
0.0
 11
-956.9909218855996
 21
-332.8979133237754
 31
0.0
  0
LINE
  5
13B
330
1F
100
AcDbEntity
  8
躯体
  6
JWW_DASHED3
 62
     2
370
     9
100
AcDbLine
 10
-902.9908921928213
 20
321.1020916250211
 30
0.0
 11
-302.9908921928209
 21
321.1020916250211
 31
0.0
  0
LINE
  5
13C
330
1F
100
AcDbEntity
  8
躯体
  6
JWW_DASHED3
 62
     2
370
     9
100
AcDbLine
 10
-302.9908921928209
 20
321.1020916250211
 30
0.0
 11
-302.9908921928209
 21
-278.8979083749789
 31
0.0
  0
LINE
  5
13D
330
1F
100
AcDbEntity
  8
躯体
  6
JWW_DASHED3
 62
     2
370
     9
100
AcDbLine
 10
-302.9908921928209
 20
-278.8979083749789
 30
0.0
 11
-902.9908921928213
 21
-278.8979083749789
 31
0.0
  0
LINE
  5
13E
330
1F
100
AcDbEntity
  8
躯体
  6
JWW_DASHED3
 62
     2
370
     9
100
AcDbLine
 10
-902.9908921928213
 20
-278.8979083749789
 30
0.0
 11
-902.9908921928213
 21
321.1020916250211
 31
0.0
  0
LWPOLYLINE
  5
13F
330
1F
100
AcDbEntity
  8
その他
  6
Continuous
 62
     7
370
     9
100
AcDbPolyline
 90
        4
 70
     1
 43
0.4
 10
-948.7908259142969
 20
466.663709756683
 42
0.4142135623731
 10
-948.9908259142969
 20
466.863709756683
 42
0.4142135623731
 10
-949.190825914297
 20
466.663709756683
 42
0.4142135623731
 10
-948.9908259142969
 20
466.463709756683
 42
0.4142135623731
  0
LINE
  5
140
330
1F
100
AcDbEntity
  8
その他
  6
Continuous
 62
     7
370
     9
100
AcDbLine
 10
-948.9908259142969
 20
467.863709756683
 30
0.0
 11
-948.9908259142969
 21
388.0651779342897
 31
0.0
  0
LWPOLYLINE
  5
141
330
1F
100
AcDbEntity
  8
その他
  6
Continuous
 62
     7
370
     9
100
AcDbPolyline
 90
        4
 70
     1
 43
0.4
 10
-953.2909107508067
 20
500.1427205185675
 42
0.4142135623731
 10
-953.4909107508067
 20
500.3427205185675
 42
0.4142135623731
 10
-953.6909107508068
 20
500.1427205185675
 42
0.4142135623731
 10
-953.4909107508067
 20
499.9427205185675
 42
0.4142135623731
  0
LINE
  5
142
330
1F
100
AcDbEntity
  8
その他
  6
Continuous
 62
     7
370
     9
100
AcDbLine
 10
-953.4909107508067
 20
501.3427205185675
 30
0.0
 11
-953.4909107508067
 21
388.0651779342897
 31
0.0
  0
LINE
  5
143
330
1F
100
AcDbEntity
  8
その他
  6
Continuous
 62
     7
370
     9
100
AcDbLine
 10
-925.9908975245594
 20
334.2721409364304
 30
0.0
 11
-929.8177318482103
 21
325.0333456113175
 31
0.0
  0
LINE
  5
144
330
1F
100
AcDbEntity
  8
その他
  6
Continuous
 62
     7
370
     9
100
AcDbLine
 10
-973.9865928061608
 20
251.1411581641047
 30
0.0
 11
-925.9908975245594
 21
334.2721409364304
 31
0.0
  0
TEXT
  5
145
330
1F
100
AcDbEntity
  8
その他
  6
Continuous
 62
     2
370
     9
100
AcDbText
 10
-1013.356066324384
 20
256.4050909146106
 30
0.0
 40
12.192
  1
φ10
 41
1.09375
  7
ＭＳ ゴシック
100
AcDbText
  0
LINE
  5
146
330
1F
100
AcDbEntity
  8
その他
  6
Continuous
 62
     7
370
     9
100
AcDbLine
 10
-1014.803180981097
 20
251.1411581641047
 30
0.0
 11
-973.9865928061608
 21
251.1411581641047
 31
0.0
  0
LINE
  5
147
330
1F
100
AcDbEntity
  8
その他
  6
Continuous
 62
     7
370
     9
100
AcDbLine
 10
-925.9908975245594
 20
334.2721409364304
 30
0.0
 11
-932.0785118146464
 21
326.338607533518
 31
0.0
  0
LWPOLYLINE
  5
148
330
1F
100
AcDbEntity
  8
その他
  6
Continuous
 62
     7
370
     9
100
AcDbPolyline
 90
        4
 70
     1
 43
0.4
 10
-256.7909770293311
 20
466.663709756683
 42
0.4142135623731
 10
-256.9909770293311
 20
466.863709756683
 42
0.4142135623731
 10
-257.1909770293311
 20
466.663709756683
 42
0.4142135623731
 10
-256.9909770293311
 20
466.463709756683
 42
0.4142135623731
  0
LINE
  5
149
330
1F
100
AcDbEntity
  8
その他
  6
Continuous
 62
     7
370
     9
100
AcDbLine
 10
-256.9909770293311
 20
467.863709756683
 30
0.0
 11
-256.9909770293311
 21
388.0651779342897
 31
0.0
  0
LWPOLYLINE
  5
14A
330
1F
100
AcDbEntity
  8
その他
  6
Continuous
 62
     7
370
     9
100
AcDbPolyline
 90
        4
 70
     1
 43
0.4
 10
-252.2908921928209
 20
500.1427205185675
 42
0.4142135623731
 10
-252.4908921928209
 20
500.3427205185675
 42
0.4142135623731
 10
-252.6908921928209
 20
500.1427205185675
 42
0.4142135623731
 10
-252.4908921928209
 20
499.9427205185675
 42
0.4142135623731
  0
LINE
  5
14B
330
1F
100
AcDbEntity
  8
その他
  6
Continuous
 62
     7
370
     9
100
AcDbLine
 10
-252.4908921928209
 20
501.3427205185675
 30
0.0
 11
-252.4908921928209
 21
388.0651779342897
 31
0.0
  0
LINE
  5
14C
330
1F
100
AcDbEntity
  8
その他
  6
Continuous
 62
     7
370
     9
100
AcDbLine
 10
-962.9909045648117
 20
-434.5550038842441
 30
0.0
 11
-862.990908688809
 21
-434.5550038842441
 31
0.0
  0
LWPOLYLINE
  5
14D
330
1F
100
AcDbEntity
  8
その他
  6
Continuous
 62
     7
370
     9
100
AcDbPolyline
 90
        4
 70
     1
 43
0.4
 10
-962.7909045648116
 20
-434.5550038842441
 42
0.4142135623731
 10
-962.9909045648117
 20
-434.3550038842441
 42
0.4142135623731
 10
-963.1909045648117
 20
-434.5550038842441
 42
0.4142135623731
 10
-962.9909045648117
 20
-434.7550038842441
 42
0.4142135623731
  0
LWPOLYLINE
  5
14E
330
1F
100
AcDbEntity
  8
その他
  6
Continuous
 62
     7
370
     9
100
AcDbPolyline
 90
        4
 70
     1
 43
0.4
 10
-862.7909086888089
 20
-434.5550038842441
 42
0.4142135623731
 10
-862.990908688809
 20
-434.3550038842441
 42
0.4142135623731
 10
-863.190908688809
 20
-434.5550038842441
 42
0.4142135623731
 10
-862.990908688809
 20
-434.7550038842441
 42
0.4142135623731
  0
LINE
  5
14F
330
1F
100
AcDbEntity
  8
その他
  6
Continuous
 62
     7
370
     9
100
AcDbLine
 10
-962.9909045648117
 20
-435.7550038842439
 30
0.0
 11
-962.9909045648117
 21
-346.897908374979
 31
0.0
  0
TEXT
  5
150
330
1F
100
AcDbEntity
  8
その他
  6
Continuous
 62
     2
370
   211
100
AcDbText
 10
-925.9909066268103
 20
-429.8990038842441
 30
0.0
 40
12.192
  1
100
 41
1.083333333333333
  7
ＭＳ ゴシック
100
AcDbText
  0
LINE
  5
151
330
1F
100
AcDbEntity
  8
その他
  6
Continuous
 62
     7
370
     9
100
AcDbLine
 10
-862.990908688809
 20
-435.7550038842439
 30
0.0
 11
-862.990908688809
 21
-391.2809219257554
 31
0.0
  0
LWPOLYLINE
  5
152
330
1F
100
AcDbEntity
  8
その他
  6
Continuous
 62
     7
370
     9
100
AcDbPolyline
 90
        4
 70
     1
 43
0.4
 10
-342.7908756968325
 20
-434.5550038842441
 42
0.4142135623731
 10
-342.9908756968325
 20
-434.3550038842441
 42
0.4142135623731
 10
-343.1908756968325
 20
-434.5550038842441
 42
0.4142135623731
 10
-342.9908756968325
 20
-434.7550038842441
 42
0.4142135623731
  0
LINE
  5
153
330
1F
100
AcDbEntity
  8
その他
  6
Continuous
 62
     7
370
     9
100
AcDbLine
 10
-342.9908756968325
 20
-434.5550038842441
 30
0.0
 11
-242.9908921928209
 21
-434.5550038842441
 31
0.0
  0
LWPOLYLINE
  5
154
330
1F
100
AcDbEntity
  8
その他
  6
Continuous
 62
     7
370
     9
100
AcDbPolyline
 90
        4
 70
     1
 43
0.4
 10
-242.7908921928209
 20
-434.5550038842441
 42
0.4142135623731
 10
-242.9908921928209
 20
-434.3550038842441
 42
0.4142135623731
 10
-243.1908921928209
 20
-434.5550038842441
 42
0.4142135623731
 10
-242.9908921928209
 20
-434.7550038842441
 42
0.4142135623731
  0
LINE
  5
155
330
1F
100
AcDbEntity
  8
その他
  6
Continuous
 62
     7
370
     9
100
AcDbLine
 10
-242.9908921928209
 20
-435.7550038842439
 30
0.0
 11
-242.9908921928209
 21
-346.897908374979
 31
0.0
  0
TEXT
  5
156
330
1F
100
AcDbEntity
  8
その他
  6
Continuous
 62
     2
370
   211
100
AcDbText
 10
-305.9908839448271
 20
-429.8990038842441
 30
0.0
 40
12.192
  1
100
 41
1.083333333333333
  7
ＭＳ ゴシック
100
AcDbText
  0
LINE
  5
157
330
1F
100
AcDbEntity
  8
その他
  6
Continuous
 62
     7
370
     9
100
AcDbLine
 10
-342.9908756968325
 20
-435.7550038842439
 30
0.0
 11
-342.9908756968325
 21
-391.2809219257554
 31
0.0
  0
LINE
  5
158
330
1F
100
AcDbEntity
  8
仕上
  6
Continuous
 62
     7
370
     9
100
AcDbLine
 10
103.8959909738187
 20
369.1023894954366
 30
0.0
 11
87.8959134426741
 21
369.1023894954366
 31
0.0
  0
LINE
  5
159
330
1F
100
AcDbEntity
  8
仕上
  6
Continuous
 62
     7
370
     9
100
AcDbLine
 10
103.8959909738187
 20
364.602448880995
 30
0.0
 11
87.8959134426741
 21
364.602448880995
 31
0.0
  0
LINE
  5
15A
330
1F
100
AcDbEntity
  8
仕上
  6
Continuous
 62
     7
370
     9
100
AcDbLine
 10
87.8959134426741
 20
369.1023894954366
 30
0.0
 11
87.8959134426741
 21
364.602448880995
 31
0.0
  0
LINE
  5
15B
330
1F
100
AcDbEntity
  8
仕上
  6
Continuous
 62
     7
370
     9
100
AcDbLine
 10
103.8959909738187
 20
369.1023894954366
 30
0.0
 11
103.8959909738187
 21
364.602448880995
 31
0.0
  0
LINE
  5
15C
330
1F
100
AcDbEntity
  8
仕上
  6
Continuous
 62
     7
370
     9
100
AcDbLine
 10
162.8961130441312
 20
354.1023296385653
 30
0.0
 11
87.8959134426741
 21
354.1023296385653
 31
0.0
  0
LINE
  5
15D
330
1F
100
AcDbEntity
  8
仕上
  6
Continuous
 62
     7
370
     9
100
AcDbLine
 10
166.0961285503604
 20
358.6022702530068
 30
0.0
 11
87.8959134426741
 21
358.6022702530068
 31
0.0
  0
LINE
  5
15E
330
1F
100
AcDbEntity
  8
仕上
  6
Continuous
 62
     7
370
     9
100
AcDbLine
 10
110.0960906095875
 20
365.6023428353552
 30
0.0
 11
110.0960906095875
 21
358.6022702530068
 31
0.0
  0
LINE
  5
15F
330
1F
100
AcDbEntity
  8
仕上
  6
Continuous
 62
     7
370
     9
100
AcDbLine
 10
96.89591839147079
 20
364.6024488809923
 30
0.0
 11
96.89591839147079
 21
358.6022702530068
 31
0.0
  0
LINE
  5
160
330
1F
100
AcDbEntity
  8
仕上
  6
Continuous
 62
     7
370
     9
100
AcDbLine
 10
140.0960906095875
 20
365.6023428353552
 30
0.0
 11
140.0960906095875
 21
358.6022702530068
 31
0.0
  0
LINE
  5
161
330
1F
100
AcDbEntity
  8
仕上
  6
Continuous
 62
     7
370
     9
100
AcDbLine
 10
140.0960906095875
 20
365.6023428353552
 30
0.0
 11
110.0960906095875
 21
365.6023428353552
 31
0.0
  0
LINE
  5
162
330
1F
100
AcDbEntity
  8
仕上
  6
Continuous
 62
     7
370
     9
100
AcDbLine
 10
100.3959183914703
 20
371.6023894954366
 30
0.0
 11
100.3959183914703
 21
369.1023894954366
 31
0.0
  0
LINE
  5
163
330
1F
100
AcDbEntity
  8
仕上
  6
Continuous
 62
     7
370
     9
100
AcDbLine
 10
166.0961285503604
 20
371.6023894954366
 30
0.0
 11
100.3959183914703
 21
371.6023894954366
 31
0.0
  0
LINE
  5
164
330
1F
100
AcDbEntity
  8
仕上
  6
Continuous
 62
     7
370
     9
100
AcDbLine
 10
166.0961285503604
 20
371.6023894954366
 30
0.0
 11
166.0961285503604
 21
367.1023894954357
 31
0.0
  0
LINE
  5
165
330
1F
100
AcDbEntity
  8
仕上
  6
Continuous
 62
     7
370
     9
100
AcDbLine
 10
103.8959909738187
 20
-326.8982062453931
 30
0.0
 11
87.8959134426741
 21
-326.8982062453931
 31
0.0
  0
LINE
  5
166
330
1F
100
AcDbEntity
  8
仕上
  6
Continuous
 62
     7
370
     9
100
AcDbLine
 10
103.8959909738187
 20
-322.3982656309493
 30
0.0
 11
87.8959134426741
 21
-322.3982656309493
 31
0.0
  0
LINE
  5
167
330
1F
100
AcDbEntity
  8
仕上
  6
Continuous
 62
     7
370
     9
100
AcDbLine
 10
87.8959134426741
 20
-326.8982062453931
 30
0.0
 11
87.8959134426741
 21
-322.3982656309493
 31
0.0
  0
LINE
  5
168
330
1F
100
AcDbEntity
  8
仕上
  6
Continuous
 62
     7
370
     9
100
AcDbLine
 10
103.8959909738187
 20
-326.8982062453931
 30
0.0
 11
103.8959909738187
 21
-322.3982656309493
 31
0.0
  0
LINE
  5
169
330
1F
100
AcDbEntity
  8
仕上
  6
Continuous
 62
     7
370
     9
100
AcDbLine
 10
162.8961130441312
 20
-311.8981463885204
 30
0.0
 11
87.8959134426741
 21
-311.8981463885204
 31
0.0
  0
LINE
  5
16A
330
1F
100
AcDbEntity
  8
仕上
  6
Continuous
 62
     7
370
     9
100
AcDbLine
 10
166.0961285503604
 20
-316.3980870029643
 30
0.0
 11
87.8959134426741
 21
-316.3980870029643
 31
0.0
  0
LINE
  5
16B
330
1F
100
AcDbEntity
  8
仕上
  6
Continuous
 62
     7
370
     9
100
AcDbLine
 10
110.0960906095875
 20
-323.3981595853122
 30
0.0
 11
110.0960906095875
 21
-316.3980870029643
 31
0.0
  0
LINE
  5
16C
330
1F
100
AcDbEntity
  8
仕上
  6
Continuous
 62
     7
370
     9
100
AcDbLine
 10
96.89591839147079
 20
-322.3982656309493
 30
0.0
 11
96.89591839147079
 21
-316.3980870029643
 31
0.0
  0
LINE
  5
16D
330
1F
100
AcDbEntity
  8
仕上
  6
Continuous
 62
     7
370
     9
100
AcDbLine
 10
140.0960906095875
 20
-323.3981595853122
 30
0.0
 11
140.0960906095875
 21
-316.3980870029643
 31
0.0
  0
LINE
  5
16E
330
1F
100
AcDbEntity
  8
仕上
  6
Continuous
 62
     7
370
     9
100
AcDbLine
 10
140.0960906095875
 20
-323.3981595853122
 30
0.0
 11
110.0960906095875
 21
-323.3981595853122
 31
0.0
  0
LINE
  5
16F
330
1F
100
AcDbEntity
  8
仕上
  6
Continuous
 62
     7
370
     9
100
AcDbLine
 10
100.3959183914703
 20
-329.3982062453931
 30
0.0
 11
100.3959183914703
 21
-326.8982062453931
 31
0.0
  0
LINE
  5
170
330
1F
100
AcDbEntity
  8
仕上
  6
Continuous
 62
     7
370
     9
100
AcDbLine
 10
166.0961285503604
 20
-329.3982062453931
 30
0.0
 11
100.3959183914703
 21
-329.3982062453931
 31
0.0
  0
LINE
  5
171
330
1F
100
AcDbEntity
  8
仕上
  6
Continuous
 62
     7
370
     9
100
AcDbLine
 10
166.0961285503604
 20
-329.3982062453931
 30
0.0
 11
166.0961285503604
 21
-324.8982062453927
 31
0.0
  0
LINE
  5
172
330
1F
100
AcDbEntity
  8
仕上
  6
Continuous
 62
     7
370
     9
100
AcDbLine
 10
87.8959134426741
 20
358.6022702530068
 30
0.0
 11
87.8959134426741
 21
-316.3980870029643
 31
0.0
  0
LINE
  5
173
330
1F
100
AcDbEntity
  8
仕上
  6
Continuous
 62
     7
370
     9
100
AcDbLine
 10
162.8961130441312
 20
-316.3980870029643
 30
0.0
 11
162.8961130441312
 21
358.6022702530068
 31
0.0
  0
LINE
  5
174
330
1F
100
AcDbEntity
  8
仕上
  6
Continuous
 62
     2
370
     9
100
AcDbLine
 10
166.0961285503604
 20
-329.3982062453931
 30
0.0
 11
166.0961285503604
 21
371.6023894954366
 31
0.0
  0
LINE
  5
175
330
1F
100
AcDbEntity
  8
仕上
  6
Continuous
 62
     3
370
     9
100
AcDbLine
 10
161.8961130441307
 20
-136.3979083749784
 30
0.0
 11
152.8961130441312
 21
-151.9863656430987
 31
0.0
  0
LINE
  5
176
330
1F
100
AcDbEntity
  8
仕上
  6
Continuous
 62
     3
370
     9
100
AcDbLine
 10
161.8961130441307
 20
-121.3979083749784
 30
0.0
 11
161.8961130441307
 21
-136.3979083749784
 31
0.0
  0
LINE
  5
177
330
1F
100
AcDbEntity
  8
仕上
  6
Continuous
 62
     3
370
     9
100
AcDbLine
 10
161.8961130441307
 20
-121.3979083749784
 30
0.0
 11
152.8961130441312
 21
-105.8094511068582
 31
0.0
  0
LINE
  5
178
330
1F
100
AcDbEntity
  8
仕上
  6
Continuous
 62
     3
370
     9
100
AcDbLine
 10
152.8961130441312
 20
-105.8094511068582
 30
0.0
 11
153.7621384479153
 21
-105.3094511068587
 31
0.0
  0
LINE
  5
179
330
1F
100
AcDbEntity
  8
仕上
  6
Continuous
 62
     3
370
     9
100
AcDbLine
 10
152.8961130441312
 20
-151.9863656430987
 30
0.0
 11
153.7621384479153
 21
-152.4863656430982
 31
0.0
  0
LINE
  5
17A
330
1F
100
AcDbEntity
  8
仕上
  6
Continuous
 62
     3
370
     9
100
AcDbLine
 10
162.8961130441312
 20
-136.6658575674098
 30
0.0
 11
153.7621384479153
 21
-152.4863656430982
 31
0.0
  0
LINE
  5
17B
330
1F
100
AcDbEntity
  8
仕上
  6
Continuous
 62
     3
370
     9
100
AcDbLine
 10
162.8961130441312
 20
-121.1299591825475
 30
0.0
 11
162.8961130441312
 21
-136.6658575674098
 31
0.0
  0
LINE
  5
17C
330
1F
100
AcDbEntity
  8
仕上
  6
Continuous
 62
     3
370
     9
100
AcDbLine
 10
162.8961130441312
 20
-121.1299591825475
 30
0.0
 11
153.7621384479153
 21
-105.3094511068587
 31
0.0
  0
LINE
  5
17D
330
1F
100
AcDbEntity
  8
仕上
  6
Continuous
 62
     3
370
     9
100
AcDbLine
 10
161.8961130441307
 20
178.6020916250216
 30
0.0
 11
152.8961130441312
 21
194.1905488931413
 31
0.0
  0
LINE
  5
17E
330
1F
100
AcDbEntity
  8
仕上
  6
Continuous
 62
     3
370
     9
100
AcDbLine
 10
161.8961130441307
 20
163.6020916250216
 30
0.0
 11
161.8961130441307
 21
178.6020916250216
 31
0.0
  0
LINE
  5
17F
330
1F
100
AcDbEntity
  8
仕上
  6
Continuous
 62
     3
370
     9
100
AcDbLine
 10
161.8961130441307
 20
163.6020916250216
 30
0.0
 11
152.8961130441312
 21
148.0136343569018
 31
0.0
  0
LINE
  5
180
330
1F
100
AcDbEntity
  8
仕上
  6
Continuous
 62
     3
370
     9
100
AcDbLine
 10
152.8961130441312
 20
148.0136343569018
 30
0.0
 11
153.7621384479153
 21
147.5136343569018
 31
0.0
  0
LINE
  5
181
330
1F
100
AcDbEntity
  8
仕上
  6
Continuous
 62
     3
370
     9
100
AcDbLine
 10
152.8961130441312
 20
194.1905488931413
 30
0.0
 11
153.7621384479153
 21
194.6905488931413
 31
0.0
  0
LINE
  5
182
330
1F
100
AcDbEntity
  8
仕上
  6
Continuous
 62
     3
370
     9
100
AcDbLine
 10
162.8961130441312
 20
178.8700408174525
 30
0.0
 11
153.7621384479153
 21
194.6905488931413
 31
0.0
  0
LINE
  5
183
330
1F
100
AcDbEntity
  8
仕上
  6
Continuous
 62
     3
370
     9
100
AcDbLine
 10
162.8961130441312
 20
163.3341424325906
 30
0.0
 11
162.8961130441312
 21
178.8700408174525
 31
0.0
  0
LINE
  5
184
330
1F
100
AcDbEntity
  8
仕上
  6
Continuous
 62
     3
370
     9
100
AcDbLine
 10
162.8961130441312
 20
163.3341424325906
 30
0.0
 11
153.7621384479153
 21
147.5136343569018
 31
0.0
  0
LINE
  5
185
330
1F
100
AcDbEntity
  8
仕上
  6
Continuous
 62
     2
370
     9
100
AcDbLine
 10
210.0962044319058
 20
367.102151010579
 30
0.0
 11
166.0961285503604
 21
367.102151010579
 31
0.0
  0
LINE
  5
186
330
1F
100
AcDbEntity
  8
仕上
  6
Continuous
 62
     2
370
     9
100
AcDbLine
 10
204.096159892737
 20
371.6023894954366
 30
0.0
 11
204.096159892737
 21
367.102151010579
 31
0.0
  0
LINE
  5
187
330
1F
100
AcDbEntity
  8
仕上
  6
Continuous
 62
     2
370
     9
100
AcDbLine
 10
166.0961285503604
 20
371.6023894954366
 30
0.0
 11
204.096159892737
 21
371.6023894954366
 31
0.0
  0
LINE
  5
188
330
1F
100
AcDbEntity
  8
仕上
  6
Continuous
 62
     2
370
     9
100
AcDbLine
 10
210.0962044319058
 20
-324.8979677605341
 30
0.0
 11
166.0961285503604
 21
-324.8979677605341
 31
0.0
  0
LINE
  5
189
330
1F
100
AcDbEntity
  8
仕上
  6
Continuous
 62
     2
370
     9
100
AcDbLine
 10
204.096159892737
 20
-329.3982062453931
 30
0.0
 11
204.096159892737
 21
-324.8979677605341
 31
0.0
  0
LINE
  5
18A
330
1F
100
AcDbEntity
  8
仕上
  6
Continuous
 62
     2
370
     9
100
AcDbLine
 10
166.0961285503604
 20
-329.3982062453931
 30
0.0
 11
204.096159892737
 21
-329.3982062453931
 31
0.0
  0
LINE
  5
18B
330
1F
100
AcDbEntity
  8
仕上
  6
Continuous
 62
     2
370
     9
100
AcDbLine
 10
210.0962044319058
 20
-324.8979677605341
 30
0.0
 11
210.0962044319058
 21
367.102151010579
 31
0.0
  0
LINE
  5
18C
330
1F
100
AcDbEntity
  8
建具
  6
Continuous
 62
     4
370
     9
100
AcDbLine
 10
87.89626645682165
 20
-332.8979380677563
 30
0.0
 11
87.89626645682165
 21
-338.8978588870131
 31
0.0
  0
LINE
  5
18D
330
1F
100
AcDbEntity
  8
建具
  6
Continuous
 62
     4
370
     9
100
AcDbLine
 10
206.0961912351158
 20
-332.8979380677563
 30
0.0
 11
87.89626645682165
 21
-332.8979380677563
 31
0.0
  0
LINE
  5
18E
330
1F
100
AcDbEntity
  8
建具
  6
Continuous
 62
     4
370
     9
100
AcDbLine
 10
210.0962044319058
 20
-328.8978753830013
 30
0.0
 11
210.0962044319058
 21
-278.8979083749776
 31
0.0
  0
LINE
  5
18F
330
1F
100
AcDbEntity
  8
建具
  6
Continuous
 62
     4
370
     9
100
AcDbLine
 10
210.0962044319058
 20
-278.8979083749776
 30
0.0
 11
216.0961252511624
 21
-278.8979083749776
 31
0.0
  0
LINE
  5
190
330
1F
100
AcDbEntity
  8
建具
  6
Continuous
 62
     4
370
     9
100
AcDbLine
 10
87.89626645682165
 20
-338.8978588870131
 30
0.0
 11
206.0961912351158
 21
-338.8978588870131
 31
0.0
  0
LINE
  5
191
330
1F
100
AcDbEntity
  8
建具
  6
Continuous
 62
     4
370
     9
100
AcDbLine
 10
216.0961252511624
 20
-278.8979083749776
 30
0.0
 11
222.0962440222775
 21
-278.8979083749776
 31
0.0
  0
LINE
  5
192
330
1F
100
AcDbEntity
  8
建具
  6
Continuous
 62
     4
370
     9
100
AcDbLine
 10
216.0961252511624
 20
-378.8978918789895
 30
0.0
 11
222.0962440222775
 21
-378.8978918789895
 31
0.0
  0
LINE
  5
193
330
1F
100
AcDbEntity
  8
建具
  6
JWW_CENTER1
 62
     4
370
     9
100
AcDbLine
 10
207.1690903060617
 20
-360.8978819813966
 30
0.0
 11
233.1073161295408
 21
-360.8978819813966
 31
0.0
  0
LINE
  5
194
330
1F
100
AcDbEntity
  8
建具
  6
Continuous
 62
     4
370
     9
100
AcDbLine
 10
216.0961252511624
 20
-368.8978588870131
 30
0.0
 11
222.0962440222775
 21
-368.8978588870131
 31
0.0
  0
LINE
  5
195
330
1F
100
AcDbEntity
  8
建具
  6
Continuous
 62
     4
370
     9
100
AcDbLine
 10
216.0961252511624
 20
-278.8979083749776
 30
0.0
 11
216.0961252511624
 21
-378.8978918789895
 31
0.0
  0
LINE
  5
196
330
1F
100
AcDbEntity
  8
建具
  6
Continuous
 62
     4
370
     9
100
AcDbLine
 10
222.0962440222775
 20
-278.8979083749776
 30
0.0
 11
222.0962440222775
 21
-378.8978918789895
 31
0.0
  0
LINE
  5
197
330
1F
100
AcDbEntity
  8
建具
  6
Continuous
 62
     4
370
     9
100
AcDbLine
 10
216.0961252511624
 20
-352.8978555878155
 30
0.0
 11
222.0962440222775
 21
-352.8978555878155
 31
0.0
  0
ARC
  5
198
330
1F
100
AcDbEntity
  8
建具
  6
Continuous
 62
     4
370
     9
100
AcDbCircle
 10
206.0961912351158
 20
-328.8978753830013
 30
0.0
 40
4.000000051549963
100
AcDbArc
 50
270.0
 51
0.0
  0
ARC
  5
199
330
1F
100
AcDbEntity
  8
建具
  6
Continuous
 62
     4
370
     9
100
AcDbCircle
 10
206.0961912351158
 20
-328.8978753830013
 30
0.0
 40
10.00000051549963
100
AcDbArc
 50
270.0
 51
0.0
  0
LINE
  5
19A
330
1F
100
AcDbEntity
  8
建具
  6
Continuous
 62
     4
370
     9
100
AcDbLine
 10
87.89626645682165
 20
375.1021708057656
 30
0.0
 11
87.89626645682165
 21
381.1020916250224
 31
0.0
  0
LINE
  5
19B
330
1F
100
AcDbEntity
  8
建具
  6
Continuous
 62
     4
370
     9
100
AcDbLine
 10
206.0961912351158
 20
375.1021708057656
 30
0.0
 11
87.89626645682165
 21
375.1021708057656
 31
0.0
  0
LINE
  5
19C
330
1F
100
AcDbEntity
  8
建具
  6
Continuous
 62
     4
370
     9
100
AcDbLine
 10
87.89626645682165
 20
381.1020916250224
 30
0.0
 11
206.0961912351158
 21
381.1020916250224
 31
0.0
  0
LINE
  5
19D
330
1F
100
AcDbEntity
  8
建具
  6
Continuous
 62
     4
370
     9
100
AcDbLine
 10
216.0961252511624
 20
421.1020256410697
 30
0.0
 11
222.0962440222775
 21
421.1020256410697
 31
0.0
  0
LINE
  5
19E
330
1F
100
AcDbEntity
  8
建具
  6
JWW_CENTER1
 62
     4
370
     9
100
AcDbLine
 10
207.1690903060617
 20
403.1020652314414
 30
0.0
 11
233.1073161295408
 21
403.1020652314414
 31
0.0
  0
LINE
  5
19F
330
1F
100
AcDbEntity
  8
建具
  6
Continuous
 62
     4
370
     9
100
AcDbLine
 10
216.0961252511624
 20
411.1020916250224
 30
0.0
 11
222.0962440222775
 21
411.1020916250224
 31
0.0
  0
LINE
  5
1A0
330
1F
100
AcDbEntity
  8
建具
  6
Continuous
 62
     4
370
     9
100
AcDbLine
 10
216.0961252511624
 20
395.1020388378601
 30
0.0
 11
222.0962440222775
 21
395.1020388378601
 31
0.0
  0
ARC
  5
1A1
330
1F
100
AcDbEntity
  8
建具
  6
Continuous
 62
     4
370
     9
100
AcDbCircle
 10
206.0961912351158
 20
371.101959657117
 30
0.0
 40
4.000000051549963
100
AcDbArc
 50
0.0
 51
90.0
  0
ARC
  5
1A2
330
1F
100
AcDbEntity
  8
建具
  6
Continuous
 62
     4
370
     9
100
AcDbCircle
 10
206.0961912351158
 20
371.101959657117
 30
0.0
 40
10.00000051549963
100
AcDbArc
 50
0.0
 51
90.0
  0
LINE
  5
1A3
330
1F
100
AcDbEntity
  8
建具
  6
Continuous
 62
     4
370
     9
100
AcDbLine
 10
210.0962044319058
 20
321.1020916250224
 30
0.0
 11
216.0961252511624
 21
321.1020916250224
 31
0.0
  0
LINE
  5
1A4
330
1F
100
AcDbEntity
  8
建具
  6
Continuous
 62
     4
370
     9
100
AcDbLine
 10
216.0961252511624
 20
321.1020916250224
 30
0.0
 11
222.0962440222775
 21
321.1020916250224
 31
0.0
  0
LINE
  5
1A5
330
1F
100
AcDbEntity
  8
建具
  6
Continuous
 62
     4
370
     9
100
AcDbLine
 10
210.0962044319058
 20
371.101959657117
 30
0.0
 11
210.0962044319058
 21
321.1020916250224
 31
0.0
  0
LINE
  5
1A6
330
1F
100
AcDbEntity
  8
建具
  6
Continuous
 62
     4
370
     9
100
AcDbLine
 10
216.0961252511624
 20
321.1020916250224
 30
0.0
 11
216.0961252511624
 21
421.1020256410697
 31
0.0
  0
LINE
  5
1A7
330
1F
100
AcDbEntity
  8
建具
  6
Continuous
 62
     4
370
     9
100
AcDbLine
 10
222.0962440222775
 20
321.1020916250224
 30
0.0
 11
222.0962440222775
 21
421.1020256410697
 31
0.0
  0
LINE
  5
1A8
330
1F
100
AcDbEntity
  8
通り芯
  6
JWW_CENTER2
 62
     7
370
     9
100
AcDbLine
 10
80.81706398818687
 20
21.10209162502156
 30
0.0
 11
226.8464582673696
 21
21.10209162502156
 31
0.0
  0
LINE
  5
1A9
330
1F
100
AcDbEntity
  8
寸法
  6
Continuous
 62
     7
370
     9
100
AcDbLine
 10
152.8961130441312
 20
194.1905488931413
 30
0.0
 11
146.8084987540437
 21
202.1240822960538
 31
0.0
  0
LINE
  5
1AA
330
1F
100
AcDbEntity
  8
寸法
  6
Continuous
 62
     7
370
     9
100
AcDbLine
 10
152.8961130441312
 20
194.1905488931413
 30
0.0
 11
149.0692787204803
 21
203.4293442182543
 31
0.0
  0
LINE
  5
1AB
330
1F
100
AcDbEntity
  8
寸法
  6
Continuous
 62
     7
370
     9
100
AcDbLine
 10
222.0963627933925
 20
421.0656226696367
 30
0.0
 11
225.9231971170429
 21
430.3044179947496
 31
0.0
  0
LINE
  5
1AC
330
1F
100
AcDbEntity
  8
寸法
  6
Continuous
 62
     7
370
     9
100
AcDbLine
 10
222.0963627933925
 20
421.0656226696367
 30
0.0
 11
228.1839770834795
 21
428.9991560725491
 31
0.0
  0
TEXT
  5
1AD
330
1F
100
AcDbEntity
  8
寸法
  6
Continuous
 62
     7
370
     0
100
AcDbText
 10
266.5094940893705
 20
498.8336125252296
 30
0.0
 40
9.144
  1
アンカー：ｔ＝６.０
 41
1.149122807017544
  7
ＭＳ ゴシック
100
AcDbText
  0
LINE
  5
1AE
330
1F
100
AcDbEntity
  8
寸法
  6
Continuous
 62
     7
370
     9
100
AcDbLine
 10
265.1172627034848
 20
495.5800071012513
 30
0.0
 11
222.0963627933925
 21
421.0656226696367
 31
0.0
  0
LINE
  5
1AF
330
1F
100
AcDbEntity
  8
寸法
  6
Continuous
 62
     7
370
     9
100
AcDbLine
 10
121.0546857235904
 20
381.1020916250224
 30
0.0
 11
114.9670714335025
 21
389.0356250279348
 31
0.0
  0
LINE
  5
1B0
330
1F
100
AcDbEntity
  8
寸法
  6
Continuous
 62
     7
370
     9
100
AcDbLine
 10
121.0546857235904
 20
381.1020916250224
 30
0.0
 11
117.227851399939
 21
390.3408869501354
 31
0.0
  0
LINE
  5
1B1
330
1F
100
AcDbEntity
  8
寸法
  6
Continuous
 62
     7
370
     9
100
AcDbLine
 10
18.49440440652143
 20
558.7417097047426
 30
0.0
 11
121.0546857235904
 21
381.1020916250224
 31
0.0
  0
TEXT
  5
1B2
330
1F
100
AcDbEntity
  8
寸法
  6
Continuous
 62
     7
370
     0
100
AcDbText
 10
-153.2827699146437
 20
497.9620111848577
 30
0.0
 40
9.144
  1
ＳＵＳ４３０
 41
1.138888888888889
  7
ＭＳ ゴシック
100
AcDbText
  0
TEXT
  5
1B3
330
1F
100
AcDbEntity
  8
寸法
  6
Continuous
 62
     7
370
     0
100
AcDbText
 10
-188.8166116877296
 20
515.7692740311364
 30
0.0
 40
9.144
  1
モルタル止め：ｔ＝１.０
 41
1.152173913043478
  7
ＭＳ ゴシック
100
AcDbText
  0
LINE
  5
1B4
330
1F
100
AcDbEntity
  8
寸法
  6
Continuous
 62
     7
370
     9
100
AcDbLine
 10
-30.22868488916401
 20
511.3720030393935
 30
0.0
 11
152.8961130441312
 21
194.1905488931413
 31
0.0
  0
LINE
  5
1B5
330
1F
100
AcDbEntity
  8
寸法
  6
Continuous
 62
     7
370
     9
100
AcDbLine
 10
-192.7218783190569
 20
511.3720030393935
 30
0.0
 11
-30.22868488916401
 21
511.3720030393935
 31
0.0
  0
LINE
  5
1B6
330
1F
100
AcDbEntity
  8
寸法
  6
Continuous
 62
     7
370
     9
100
AcDbLine
 10
87.89591344267228
 20
254.4334423392574
 30
0.0
 11
81.80829915258482
 21
262.3669757421698
 31
0.0
  0
LINE
  5
1B7
330
1F
100
AcDbEntity
  8
寸法
  6
Continuous
 62
     7
370
     9
100
AcDbLine
 10
87.89591344267228
 20
254.4334423392574
 30
0.0
 11
84.06907911902135
 21
263.6722376643703
 31
0.0
  0
TEXT
  5
1B8
330
1F
100
AcDbEntity
  8
寸法
  6
Continuous
 62
     7
370
     0
100
AcDbText
 10
-135.021720826147
 20
462.817243674899
 30
0.0
 40
9.144
  1
蓋：ＳＳ４００
 41
1.142857142857148
  7
ＭＳ ゴシック
100
AcDbText
  0
TEXT
  5
1B9
330
1F
100
AcDbEntity
  8
寸法
  6
Continuous
 62
     7
370
     0
100
AcDbText
 10
-150.524306231318
 20
445.3872529749174
 30
0.0
 40
9.144
  1
（溶融亜鉛めっき）
 41
1.148148148148152
  7
ＭＳ ゴシック
100
AcDbText
  0
LINE
  5
1BA
330
1F
100
AcDbEntity
  8
寸法
  6
Continuous
 62
     7
370
     9
100
AcDbLine
 10
-29.69944773938414
 20
458.1145826409923
 30
0.0
 11
87.89591344267228
 21
254.4334423392574
 31
0.0
  0
LINE
  5
1BB
330
1F
100
AcDbEntity
  8
寸法
  6
Continuous
 62
     7
370
     9
100
AcDbLine
 10
-145.0105802993457
 20
458.1145826409923
 30
0.0
 11
-29.69944773938414
 21
458.1145826409923
 31
0.0
  0
LWPOLYLINE
  5
1BC
330
1F
100
AcDbEntity
  8
その他
  6
Continuous
 62
     7
370
     9
100
AcDbPolyline
 90
        4
 70
     1
 43
0.4
 10
-78.8515825791017
 20
-338.8978588870131
 42
0.4142135623731
 10
-79.0515825791017
 20
-338.6978588870131
 42
0.4142135623731
 10
-79.25158257910171
 20
-338.8978588870131
 42
0.4142135623731
 10
-79.0515825791017
 20
-339.0978588870131
 42
0.4142135623731
  0
LINE
  5
1BD
330
1F
100
AcDbEntity
  8
その他
  6
Continuous
 62
     7
370
     9
100
AcDbLine
 10
-42.170262728117
 20
-338.8978588870131
 30
0.0
 11
-42.170262728117
 21
-332.8979380677565
 31
0.0
  0
LWPOLYLINE
  5
1BE
330
1F
100
AcDbEntity
  8
その他
  6
Continuous
 62
     7
370
     9
100
AcDbPolyline
 90
        4
 70
     1
 43
0.4
 10
-41.97026272811699
 20
-338.8978588870131
 42
0.4142135623731
 10
-42.170262728117
 20
-338.6978588870131
 42
0.4142135623731
 10
-42.370262728117
 20
-338.8978588870131
 42
0.4142135623731
 10
-42.170262728117
 20
-339.0978588870131
 42
0.4142135623731
  0
LWPOLYLINE
  5
1BF
330
1F
100
AcDbEntity
  8
その他
  6
Continuous
 62
     7
370
     9
100
AcDbPolyline
 90
        4
 70
     1
 43
0.4
 10
-41.97026272811699
 20
-332.8979380677565
 42
0.4142135623731
 10
-42.170262728117
 20
-332.6979380677565
 42
0.4142135623731
 10
-42.370262728117
 20
-332.8979380677565
 42
0.4142135623731
 10
-42.170262728117
 20
-333.0979380677564
 42
0.4142135623731
  0
LINE
  5
1C0
330
1F
100
AcDbEntity
  8
その他
  6
Continuous
 62
     7
370
     9
100
AcDbLine
 10
-42.170262728117
 20
-332.8979380677565
 30
0.0
 11
-42.170262728117
 21
-329.3982062453928
 31
0.0
  0
LWPOLYLINE
  5
1C1
330
1F
100
AcDbEntity
  8
その他
  6
Continuous
 62
     7
370
     9
100
AcDbPolyline
 90
        4
 70
     1
 43
0.4
 10
-41.97026272811699
 20
-329.3982062453928
 42
0.4142135623731
 10
-42.170262728117
 20
-329.1982062453928
 42
0.4142135623731
 10
-42.370262728117
 20
-329.3982062453928
 42
0.4142135623731
 10
-42.170262728117
 20
-329.5982062453928
 42
0.4142135623731
  0
LWPOLYLINE
  5
1C2
330
1F
100
AcDbEntity
  8
その他
  6
Continuous
 62
     7
370
     9
100
AcDbPolyline
 90
        4
 70
     1
 43
0.4
 10
45.1273266121545
 20
-326.8982062453928
 42
0.4142135623731
 10
44.9273266121545
 20
-326.6982062453928
 42
0.4142135623731
 10
44.7273266121545
 20
-326.8982062453928
 42
0.4142135623731
 10
44.9273266121545
 20
-327.0982062453928
 42
0.4142135623731
  0
LINE
  5
1C3
330
1F
100
AcDbEntity
  8
その他
  6
Continuous
 62
     7
370
     9
100
AcDbLine
 10
44.9273266121545
 20
-326.8982062453928
 30
0.0
 11
44.9273266121545
 21
-322.3982656309485
 31
0.0
  0
LWPOLYLINE
  5
1C4
330
1F
100
AcDbEntity
  8
その他
  6
Continuous
 62
     7
370
     9
100
AcDbPolyline
 90
        4
 70
     1
 43
0.4
 10
45.1273266121545
 20
-322.3982656309485
 42
0.4142135623731
 10
44.9273266121545
 20
-322.1982656309485
 42
0.4142135623731
 10
44.7273266121545
 20
-322.3982656309485
 42
0.4142135623731
 10
44.9273266121545
 20
-322.5982656309485
 42
0.4142135623731
  0
LINE
  5
1C5
330
1F
100
AcDbEntity
  8
その他
  6
Continuous
 62
     7
370
     9
100
AcDbLine
 10
44.9273266121545
 20
-322.3982656309485
 30
0.0
 11
44.9273266121545
 21
-316.398087002964
 31
0.0
  0
LWPOLYLINE
  5
1C6
330
1F
100
AcDbEntity
  8
その他
  6
Continuous
 62
     7
370
     9
100
AcDbPolyline
 90
        4
 70
     1
 43
0.4
 10
45.1273266121545
 20
-316.398087002964
 42
0.4142135623731
 10
44.9273266121545
 20
-316.198087002964
 42
0.4142135623731
 10
44.7273266121545
 20
-316.398087002964
 42
0.4142135623731
 10
44.9273266121545
 20
-316.598087002964
 42
0.4142135623731
  0
TEXT
  5
1C7
330
1F
100
AcDbEntity
  8
その他
  6
Continuous
 62
     2
370
   211
100
AcDbText
 10
40.27132661215441
 20
-312.5154401843792
 30
0.0
 40
12.192
  1
6
 50
90.0
  7
ＭＳ ゴシック
100
AcDbText
  0
LINE
  5
1C8
330
1F
100
AcDbEntity
  8
その他
  6
Continuous
 62
     7
370
     9
100
AcDbLine
 10
44.9273266121545
 20
-316.398087002964
 30
0.0
 11
44.9273266121545
 21
-301.6295780346058
 31
0.0
  0
LWPOLYLINE
  5
1C9
330
1F
100
AcDbEntity
  8
その他
  6
Continuous
 62
     7
370
     9
100
AcDbPolyline
 90
        4
 70
     1
 43
0.4
 10
-11.01423804989991
 20
-311.8981463885206
 42
0.4142135623731
 10
-11.2142380498999
 20
-311.6981463885206
 42
0.4142135623731
 10
-11.4142380498999
 20
-311.8981463885206
 42
0.4142135623731
 10
-11.2142380498999
 20
-312.0981463885206
 42
0.4142135623731
  0
LINE
  5
1CA
330
1F
100
AcDbEntity
  8
その他
  6
Continuous
 62
     7
370
     9
100
AcDbLine
 10
-12.41423804989972
 20
-311.8981463885206
 30
0.0
 11
4.141904602519389
 21
-311.8981463885206
 31
0.0
  0
LINE
  5
1CB
330
1F
100
AcDbEntity
  8
その他
  6
Continuous
 62
     7
370
     9
100
AcDbLine
 10
-43.37026272811727
 20
-329.3982062453928
 30
0.0
 11
4.141904602519389
 21
-329.3982062453928
 31
0.0
  0
LINE
  5
1CC
330
1F
100
AcDbEntity
  8
その他
  6
Continuous
 62
     7
370
     9
100
AcDbLine
 10
-43.37026272811727
 20
-332.8979380677565
 30
0.0
 11
4.141904602519389
 21
-332.8979380677565
 31
0.0
  0
LINE
  5
1CD
330
1F
100
AcDbEntity
  8
その他
  6
Continuous
 62
     7
370
     9
100
AcDbLine
 10
-80.25158257910152
 20
-338.8978588870131
 30
0.0
 11
4.141904602519389
 21
-338.8978588870131
 31
0.0
  0
TEXT
  5
1CE
330
1F
100
AcDbEntity
  8
その他
  6
Continuous
 62
     2
370
   211
100
AcDbText
 10
-46.82626272811709
 20
-352.1030765464224
 30
0.0
 40
12.192
  1
6
 50
90.0
  7
ＭＳ ゴシック
100
AcDbText
  0
TEXT
  5
1CF
330
1F
100
AcDbEntity
  8
その他
  6
Continuous
 62
     2
370
   211
100
AcDbText
 10
-46.82626272811709
 20
-333.1279124520465
 30
0.0
 40
12.192
  1
3.5
 50
90.0
 41
1.083333333333333
  7
ＭＳ ゴシック
100
AcDbText
  0
LINE
  5
1D0
330
1F
100
AcDbEntity
  8
その他
  6
Continuous
 62
     7
370
     9
100
AcDbLine
 10
-42.170262728117
 20
-338.8978588870131
 30
0.0
 11
-42.170262728117
 21
-360.050802878396
 31
0.0
  0
LINE
  5
1D1
330
1F
100
AcDbEntity
  8
その他
  6
Continuous
 62
     7
370
     9
100
AcDbLine
 10
43.72732661215423
 20
-316.398087002964
 30
0.0
 11
79.89626645682165
 21
-316.398087002964
 31
0.0
  0
LINE
  5
1D2
330
1F
100
AcDbEntity
  8
その他
  6
Continuous
 62
     7
370
     9
100
AcDbLine
 10
43.72732661215423
 20
-326.8982062453928
 30
0.0
 11
79.89626645682165
 21
-326.8982062453928
 31
0.0
  0
LINE
  5
1D3
330
1F
100
AcDbEntity
  8
その他
  6
Continuous
 62
     7
370
     9
100
AcDbLine
 10
43.72732661215423
 20
-322.3982656309485
 30
0.0
 11
79.89626645682165
 21
-322.3982656309485
 31
0.0
  0
LWPOLYLINE
  5
1D4
330
1F
100
AcDbEntity
  8
その他
  6
Continuous
 62
     7
370
     9
100
AcDbPolyline
 90
        4
 70
     1
 43
0.4
 10
45.1273266121545
 20
-332.8979380677565
 42
0.4142135623731
 10
44.9273266121545
 20
-332.6979380677565
 42
0.4142135623731
 10
44.7273266121545
 20
-332.8979380677565
 42
0.4142135623731
 10
44.9273266121545
 20
-333.0979380677564
 42
0.4142135623731
  0
LINE
  5
1D5
330
1F
100
AcDbEntity
  8
その他
  6
Continuous
 62
     7
370
     9
100
AcDbLine
 10
43.72732661215423
 20
-332.8979380677565
 30
0.0
 11
79.89626645682165
 21
-332.8979380677565
 31
0.0
  0
LINE
  5
1D6
330
1F
100
AcDbEntity
  8
その他
  6
Continuous
 62
     7
370
     9
100
AcDbLine
 10
44.9273266121545
 20
-332.8979380677565
 30
0.0
 11
44.9273266121545
 21
-326.8982062453928
 31
0.0
  0
TEXT
  5
1D7
330
1F
100
AcDbEntity
  8
その他
  6
Continuous
 62
     2
370
   211
100
AcDbText
 10
40.27132661215441
 20
-344.1778931275858
 30
0.0
 40
12.192
  1
6
 50
90.0
  7
ＭＳ ゴシック
100
AcDbText
  0
LINE
  5
1D8
330
1F
100
AcDbEntity
  8
その他
  6
Continuous
 62
     7
370
     9
100
AcDbLine
 10
44.9273266121545
 20
-332.8979380677565
 30
0.0
 11
44.9273266121545
 21
-347.1716841511799
 31
0.0
  0
LINE
  5
1D9
330
1F
100
AcDbEntity
  8
その他
  6
Continuous
 62
     7
370
     9
100
AcDbLine
 10
44.9273266121545
 20
-324.6482359381707
 30
0.0
 11
24.71044973093694
 21
-334.0678557403025
 31
0.0
  0
LINE
  5
1DA
330
1F
100
AcDbEntity
  8
その他
  6
Continuous
 62
     7
370
     9
100
AcDbLine
 10
24.71044973093694
 20
-334.0678557403025
 30
0.0
 11
24.71044973093694
 21
-357.8985510799566
 31
0.0
  0
TEXT
  5
1DB
330
1F
100
AcDbEntity
  8
その他
  6
Continuous
 62
     2
370
   211
100
AcDbText
 10
20.81393084885926
 20
-360.2783498959802
 30
0.0
 40
12.192
  1
4.5
 50
90.0
 41
1.083333333333333
  7
ＭＳ ゴシック
100
AcDbText
  0
LINE
  5
1DC
330
1F
100
AcDbEntity
  8
その他
  6
Continuous
 62
     7
370
     9
100
AcDbLine
 10
-79.0515825791017
 20
381.1020916250205
 30
0.0
 11
-79.0515825791017
 21
-338.8978588870131
 31
0.0
  0
LWPOLYLINE
  5
1DD
330
1F
100
AcDbEntity
  8
その他
  6
Continuous
 62
     7
370
     9
100
AcDbPolyline
 90
        4
 70
     1
 43
0.4
 10
-78.8515825791017
 20
381.1020916250205
 42
0.4142135623731
 10
-79.0515825791017
 20
381.3020916250205
 42
0.4142135623731
 10
-79.25158257910171
 20
381.1020916250205
 42
0.4142135623731
 10
-79.0515825791017
 20
380.9020916250205
 42
0.4142135623731
  0
LWPOLYLINE
  5
1DE
330
1F
100
AcDbEntity
  8
その他
  6
Continuous
 62
     7
370
     9
100
AcDbPolyline
 90
        4
 70
     1
 43
0.4
 10
-41.97026272811699
 20
371.6023894954347
 42
0.4142135623731
 10
-42.170262728117
 20
371.8023894954347
 42
0.4142135623731
 10
-42.370262728117
 20
371.6023894954347
 42
0.4142135623731
 10
-42.170262728117
 20
371.4023894954348
 42
0.4142135623731
  0
LINE
  5
1DF
330
1F
100
AcDbEntity
  8
その他
  6
Continuous
 62
     7
370
     9
100
AcDbLine
 10
-42.170262728117
 20
371.6023894954347
 30
0.0
 11
-42.170262728117
 21
375.1021708057639
 31
0.0
  0
LWPOLYLINE
  5
1E0
330
1F
100
AcDbEntity
  8
その他
  6
Continuous
 62
     7
370
     9
100
AcDbPolyline
 90
        4
 70
     1
 43
0.4
 10
-41.97026272811699
 20
375.1021708057639
 42
0.4142135623731
 10
-42.170262728117
 20
375.3021708057639
 42
0.4142135623731
 10
-42.370262728117
 20
375.1021708057639
 42
0.4142135623731
 10
-42.170262728117
 20
374.9021708057639
 42
0.4142135623731
  0
LINE
  5
1E1
330
1F
100
AcDbEntity
  8
その他
  6
Continuous
 62
     7
370
     9
100
AcDbLine
 10
-42.170262728117
 20
375.1021708057639
 30
0.0
 11
-42.170262728117
 21
381.1020916250205
 31
0.0
  0
LWPOLYLINE
  5
1E2
330
1F
100
AcDbEntity
  8
その他
  6
Continuous
 62
     7
370
     9
100
AcDbPolyline
 90
        4
 70
     1
 43
0.4
 10
-41.97026272811699
 20
381.1020916250205
 42
0.4142135623731
 10
-42.170262728117
 20
381.3020916250205
 42
0.4142135623731
 10
-42.370262728117
 20
381.1020916250205
 42
0.4142135623731
 10
-42.170262728117
 20
380.9020916250205
 42
0.4142135623731
  0
LWPOLYLINE
  5
1E3
330
1F
100
AcDbEntity
  8
その他
  6
Continuous
 62
     7
370
     9
100
AcDbPolyline
 90
        4
 70
     1
 43
0.4
 10
-11.01423804989991
 20
354.1023296385653
 42
0.4142135623731
 10
-11.2142380498999
 20
354.3023296385653
 42
0.4142135623731
 10
-11.4142380498999
 20
354.1023296385653
 42
0.4142135623731
 10
-11.2142380498999
 20
353.9023296385653
 42
0.4142135623731
  0
TEXT
  5
1E4
330
1F
100
AcDbEntity
  8
その他
  6
Continuous
 62
     2
370
   211
100
AcDbText
 10
-46.82626272811709
 20
348.1634363741597
 30
0.0
 40
12.192
  1
3.5
 50
90.0
 41
1.083333333333333
  7
ＭＳ ゴシック
100
AcDbText
  0
TEXT
  5
1E5
330
1F
100
AcDbEntity
  8
その他
  6
Continuous
 62
     2
370
   211
100
AcDbText
 10
-46.82626272811709
 20
384.3014097914669
 30
0.0
 40
12.192
  1
6
 50
90.0
  7
ＭＳ ゴシック
100
AcDbText
  0
LINE
  5
1E6
330
1F
100
AcDbEntity
  8
その他
  6
Continuous
 62
     7
370
     9
100
AcDbLine
 10
-42.170262728117
 20
381.1020916250205
 30
0.0
 11
-42.170262728117
 21
397.5894312887123
 31
0.0
  0
LINE
  5
1E7
330
1F
100
AcDbEntity
  8
その他
  6
Continuous
 62
     7
370
     9
100
AcDbLine
 10
-80.25158257910152
 20
381.1020916250205
 30
0.0
 11
79.89626645682165
 21
381.1020916250205
 31
0.0
  0
LINE
  5
1E8
330
1F
100
AcDbEntity
  8
その他
  6
Continuous
 62
     7
370
     9
100
AcDbLine
 10
-12.41423804989972
 20
354.1023296385653
 30
0.0
 11
79.89626645682165
 21
354.1023296385653
 31
0.0
  0
LINE
  5
1E9
330
1F
100
AcDbEntity
  8
その他
  6
Continuous
 62
     7
370
     9
100
AcDbLine
 10
-43.37026272811727
 20
371.6023894954347
 30
0.0
 11
79.89626645682165
 21
371.6023894954347
 31
0.0
  0
LINE
  5
1EA
330
1F
100
AcDbEntity
  8
その他
  6
Continuous
 62
     7
370
     9
100
AcDbLine
 10
-43.37026272811727
 20
375.1021708057639
 30
0.0
 11
79.89626645682165
 21
375.1021708057639
 31
0.0
  0
LINE
  5
1EB
330
1F
100
AcDbEntity
  8
その他
  6
Continuous
 62
     7
370
     9
100
AcDbLine
 10
87.8959134426741
 20
76.83035368392586
 30
0.0
 11
162.896113044133
 21
76.83035368392586
 31
0.0
  0
LWPOLYLINE
  5
1EC
330
1F
100
AcDbEntity
  8
その他
  6
Continuous
 62
     7
370
     9
100
AcDbPolyline
 90
        4
 70
     1
 43
0.4
 10
88.0959134426741
 20
76.83035368392586
 42
0.4142135623731
 10
87.8959134426741
 20
77.03035368392587
 42
0.4142135623731
 10
87.6959134426741
 20
76.83035368392586
 42
0.4142135623731
 10
87.8959134426741
 20
76.63035368392586
 42
0.4142135623731
  0
LWPOLYLINE
  5
1ED
330
1F
100
AcDbEntity
  8
その他
  6
Continuous
 62
     7
370
     9
100
AcDbPolyline
 90
        4
 70
     1
 43
0.4
 10
163.096113044133
 20
76.83035368392586
 42
0.4142135623731
 10
162.896113044133
 20
77.03035368392587
 42
0.4142135623731
 10
162.696113044133
 20
76.83035368392586
 42
0.4142135623731
 10
162.896113044133
 20
76.63035368392586
 42
0.4142135623731
  0
TEXT
  5
1EE
330
1F
100
AcDbEntity
  8
その他
  6
Continuous
 62
     2
370
   211
100
AcDbText
 10
111.8960132434026
 20
114.7901204629453
 30
0.0
 40
12.192
  1
65
 41
1.0625
  7
ＭＳ ゴシック
100
AcDbText
  0
LINE
  5
1EF
330
1F
100
AcDbEntity
  8
その他
  6
Continuous
 62
     7
370
     9
100
AcDbLine
 10
162.896113044133
 20
76.83035368392586
 30
0.0
 11
166.0961285503595
 21
76.83035368392586
 31
0.0
  0
LWPOLYLINE
  5
1F0
330
1F
100
AcDbEntity
  8
その他
  6
Continuous
 62
     7
370
     9
100
AcDbPolyline
 90
        4
 70
     1
 43
0.4
 10
166.2961285503595
 20
76.83035368392586
 42
0.4142135623731
 10
166.0961285503595
 20
77.03035368392587
 42
0.4142135623731
 10
165.8961285503595
 20
76.83035368392586
 42
0.4142135623731
 10
166.0961285503595
 20
76.63035368392586
 42
0.4142135623731
  0
TEXT
  5
1F1
330
1F
100
AcDbEntity
  8
その他
  6
Continuous
 62
     2
370
   211
100
AcDbText
 10
116.8960132434036
 20
81.48635368392573
 30
0.0
 40
12.192
  1
75
 41
1.0625
  7
ＭＳ ゴシック
100
AcDbText
  0
LINE
  5
1F2
330
1F
100
AcDbEntity
  8
その他
  6
Continuous
 62
     7
370
     9
100
AcDbLine
 10
87.8959134426741
 20
110.1341204629454
 30
0.0
 11
152.8961130441312
 21
110.1341204629454
 31
0.0
  0
LWPOLYLINE
  5
1F3
330
1F
100
AcDbEntity
  8
その他
  6
Continuous
 62
     7
370
     9
100
AcDbPolyline
 90
        4
 70
     1
 43
0.4
 10
88.0959134426741
 20
110.1341204629454
 42
0.4142135623731
 10
87.8959134426741
 20
110.3341204629454
 42
0.4142135623731
 10
87.6959134426741
 20
110.1341204629454
 42
0.4142135623731
 10
87.8959134426741
 20
109.9341204629454
 42
0.4142135623731
  0
LWPOLYLINE
  5
1F4
330
1F
100
AcDbEntity
  8
その他
  6
Continuous
 62
     7
370
     9
100
AcDbPolyline
 90
        4
 70
     1
 43
0.4
 10
153.0961130441312
 20
110.1341204629454
 42
0.4142135623731
 10
152.8961130441312
 20
110.3341204629454
 42
0.4142135623731
 10
152.6961130441312
 20
110.1341204629454
 42
0.4142135623731
 10
152.8961130441312
 20
109.9341204629454
 42
0.4142135623731
  0
LINE
  5
1F5
330
1F
100
AcDbEntity
  8
その他
  6
Continuous
 62
     7
370
     9
100
AcDbLine
 10
152.8961130441312
 20
108.9341204629453
 30
0.0
 11
152.8961130441312
 21
140.0136343569018
 31
0.0
  0
LWPOLYLINE
  5
1F6
330
1F
100
AcDbEntity
  8
その他
  6
Continuous
 62
     7
370
     9
100
AcDbPolyline
 90
        4
 70
     1
 43
0.4
 10
210.2962044319058
 20
76.83035368392586
 42
0.4142135623731
 10
210.0962044319058
 20
77.03035368392587
 42
0.4142135623731
 10
209.8962044319058
 20
76.83035368392586
 42
0.4142135623731
 10
210.0962044319058
 20
76.63035368392586
 42
0.4142135623731
  0
LINE
  5
1F7
330
1F
100
AcDbEntity
  8
その他
  6
Continuous
 62
     7
370
     9
100
AcDbLine
 10
166.0961285503595
 20
76.83035368392586
 30
0.0
 11
210.0962044319058
 21
76.83035368392586
 31
0.0
  0
TEXT
  5
1F8
330
1F
100
AcDbEntity
  8
その他
  6
Continuous
 62
     2
370
   211
100
AcDbText
 10
179.5961664911329
 20
81.48635368392573
 30
0.0
 40
12.192
  1
44
 41
1.0625
  7
ＭＳ ゴシック
100
AcDbText
  0
LWPOLYLINE
  5
1F9
330
1F
100
AcDbEntity
  8
その他
  6
Continuous
 62
     7
370
     9
100
AcDbPolyline
 90
        4
 70
     1
 43
0.4
 10
311.8340267864307
 20
-278.8979083749776
 42
0.4142135623731
 10
311.6340267864307
 20
-278.6979083749777
 42
0.4142135623731
 10
311.4340267864307
 20
-278.8979083749776
 42
0.4142135623731
 10
311.6340267864307
 20
-279.0979083749776
 42
0.4142135623731
  0
LINE
  5
1FA
330
1F
100
AcDbEntity
  8
その他
  6
Continuous
 62
     7
370
     9
100
AcDbLine
 10
312.8340267864305
 20
-278.8979083749776
 30
0.0
 11
230.0962440222775
 21
-278.8979083749776
 31
0.0
  0
LINE
  5
1FB
330
1F
100
AcDbEntity
  8
その他
  6
Continuous
 62
     7
370
     9
100
AcDbLine
 10
311.6340267864307
 20
-278.8979083749776
 30
0.0
 11
311.6340267864307
 21
-338.8978588870131
 31
0.0
  0
LWPOLYLINE
  5
1FC
330
1F
100
AcDbEntity
  8
その他
  6
Continuous
 62
     7
370
     9
100
AcDbPolyline
 90
        4
 70
     1
 43
0.4
 10
311.8340267864307
 20
-338.8978588870131
 42
0.4142135623731
 10
311.6340267864307
 20
-338.6978588870131
 42
0.4142135623731
 10
311.4340267864307
 20
-338.8978588870131
 42
0.4142135623731
 10
311.6340267864307
 20
-339.097858887013
 42
0.4142135623731
  0
TEXT
  5
1FD
330
1F
100
AcDbEntity
  8
その他
  6
Continuous
 62
     2
370
   211
100
AcDbText
 10
306.9780267864302
 20
-317.3978836309956
 30
0.0
 40
12.192
  1
60
 50
90.0
 41
1.0625
  7
ＭＳ ゴシック
100
AcDbText
  0
LINE
  5
1FE
330
1F
100
AcDbEntity
  8
その他
  6
Continuous
 62
     7
370
     9
100
AcDbLine
 10
312.8340267864305
 20
-338.8978588870131
 30
0.0
 11
230.0962440222775
 21
-338.8978588870131
 31
0.0
  0
LWPOLYLINE
  5
1FF
330
1F
100
AcDbEntity
  8
その他
  6
Continuous
 62
     7
370
     9
100
AcDbPolyline
 90
        4
 70
     1
 43
0.4
 10
365.6944135169608
 20
-360.8978819813964
 42
0.4142135623731
 10
365.4944135169608
 20
-360.6978819813964
 42
0.4142135623731
 10
365.2944135169608
 20
-360.8978819813964
 42
0.4142135623731
 10
365.4944135169608
 20
-361.0978819813964
 42
0.4142135623731
  0
LINE
  5
200
330
1F
100
AcDbEntity
  8
その他
  6
Continuous
 62
     7
370
     9
100
AcDbLine
 10
366.6944135169615
 20
-360.8978819813964
 30
0.0
 11
241.1073161295408
 21
-360.8978819813964
 31
0.0
  0
LINE
  5
201
330
1F
100
AcDbEntity
  8
その他
  6
Continuous
 62
     7
370
     9
100
AcDbLine
 10
311.6340267864307
 20
381.1020916250224
 30
0.0
 11
311.6340267864307
 21
321.1020916250224
 31
0.0
  0
LWPOLYLINE
  5
202
330
1F
100
AcDbEntity
  8
その他
  6
Continuous
 62
     7
370
     9
100
AcDbPolyline
 90
        4
 70
     1
 43
0.4
 10
311.8340267864307
 20
381.1020916250224
 42
0.4142135623731
 10
311.6340267864307
 20
381.3020916250224
 42
0.4142135623731
 10
311.4340267864307
 20
381.1020916250224
 42
0.4142135623731
 10
311.6340267864307
 20
380.9020916250224
 42
0.4142135623731
  0
LWPOLYLINE
  5
203
330
1F
100
AcDbEntity
  8
その他
  6
Continuous
 62
     7
370
     9
100
AcDbPolyline
 90
        4
 70
     1
 43
0.4
 10
311.8340267864307
 20
321.1020916250224
 42
0.4142135623731
 10
311.6340267864307
 20
321.3020916250224
 42
0.4142135623731
 10
311.4340267864307
 20
321.1020916250224
 42
0.4142135623731
 10
311.6340267864307
 20
320.9020916250224
 42
0.4142135623731
  0
LINE
  5
204
330
1F
100
AcDbEntity
  8
その他
  6
Continuous
 62
     7
370
     9
100
AcDbLine
 10
312.8340267864305
 20
321.1020916250224
 30
0.0
 11
230.0962440222775
 21
321.1020916250224
 31
0.0
  0
TEXT
  5
205
330
1F
100
AcDbEntity
  8
その他
  6
Continuous
 62
     2
370
   211
100
AcDbText
 10
306.9780267864302
 20
342.6020916250224
 30
0.0
 40
12.192
  1
60
 50
90.0
 41
1.0625
  7
ＭＳ ゴシック
100
AcDbText
  0
LINE
  5
206
330
1F
100
AcDbEntity
  8
その他
  6
Continuous
 62
     7
370
     9
100
AcDbLine
 10
311.6340267864307
 20
321.1020916250224
 30
0.0
 11
311.6340267864307
 21
-278.8979083749776
 31
0.0
  0
LINE
  5
207
330
1F
100
AcDbEntity
  8
その他
  6
Continuous
 62
     7
370
     9
100
AcDbLine
 10
312.8340267864305
 20
381.1020916250224
 30
0.0
 11
230.0962440222775
 21
381.1020916250224
 31
0.0
  0
LWPOLYLINE
  5
208
330
1F
100
AcDbEntity
  8
その他
  6
Continuous
 62
     7
370
     9
100
AcDbPolyline
 90
        4
 70
     1
 43
0.4
 10
365.6944135169608
 20
403.1020652314414
 42
0.4142135623731
 10
365.4944135169608
 20
403.3020652314414
 42
0.4142135623731
 10
365.2944135169608
 20
403.1020652314414
 42
0.4142135623731
 10
365.4944135169608
 20
402.9020652314414
 42
0.4142135623731
  0
LINE
  5
209
330
1F
100
AcDbEntity
  8
その他
  6
Continuous
 62
     7
370
     9
100
AcDbLine
 10
366.6944135169615
 20
403.1020652314414
 30
0.0
 11
241.1073161295408
 21
403.1020652314414
 31
0.0
  0
LINE
  5
20A
330
1F
100
AcDbEntity
  8
その他
  6
Continuous
 62
     7
370
     9
100
AcDbLine
 10
-402.9963071973211
 20
436.3381168097754
 30
0.0
 11
-362.1797190223851
 21
436.3381168097754
 31
0.0
  0
LINE
  5
20B
330
1F
100
AcDbEntity
  8
その他
  6
Continuous
 62
     7
370
     9
100
AcDbLine
 10
-362.1797190223851
 20
436.3381168097754
 30
0.0
 11
-346.9908757483827
 21
410.0302685510026
 31
0.0
  0
LINE
  5
20C
330
1F
100
AcDbEntity
  8
その他
  6
Continuous
 62
     7
370
     9
100
AcDbLine
 10
-346.9908757483827
 20
410.0302685510026
 30
0.0
 11
-353.0784900384697
 21
417.9638019539149
 31
0.0
  0
LINE
  5
20D
330
1F
100
AcDbEntity
  8
その他
  6
Continuous
 62
     7
370
     9
100
AcDbLine
 10
-346.9908757483827
 20
410.0302685510026
 30
0.0
 11
-350.8177100720336
 21
419.2690638761155
 31
0.0
  0
TEXT
  5
20E
330
1F
100
AcDbEntity
  8
その他
  6
Continuous
 62
     2
370
     9
100
AcDbText
 10
-401.5491925406081
 20
441.6020495602813
 30
0.0
 40
12.192
  1
φ16
 41
1.09375
  7
ＭＳ ゴシック
100
AcDbText
  0
LWPOLYLINE
  5
20F
330
1F
100
AcDbEntity
  8
その他
  6
Continuous
 62
     7
370
     9
100
AcDbPolyline
 90
        4
 70
     1
 43
0.4
 10
88.09626645682165
 20
485.5399960099014
 42
0.4142135623731
 10
87.89626645682165
 20
485.7399960099013
 42
0.4142135623731
 10
87.69626645682165
 20
485.5399960099014
 42
0.4142135623731
 10
87.89626645682165
 20
485.3399960099014
 42
0.4142135623731
  0
LINE
  5
210
330
1F
100
AcDbEntity
  8
その他
  6
Continuous
 62
     7
370
     9
100
AcDbLine
 10
87.89626645682165
 20
486.7399960099014
 30
0.0
 11
87.89626645682165
 21
389.1020916250224
 31
0.0
  0
LWPOLYLINE
  5
211
330
1F
100
AcDbEntity
  8
その他
  6
Continuous
 62
     7
370
     9
100
AcDbPolyline
 90
        4
 70
     1
 43
0.4
 10
88.09626645682165
 20
455.1607162511645
 42
0.4142135623731
 10
87.89626645682165
 20
455.3607162511645
 42
0.4142135623731
 10
87.69626645682165
 20
455.1607162511645
 42
0.4142135623731
 10
87.89626645682165
 20
454.9607162511645
 42
0.4142135623731
  0
LWPOLYLINE
  5
212
330
1F
100
AcDbEntity
  8
その他
  6
Continuous
 62
     7
370
     9
100
AcDbPolyline
 90
        4
 70
     1
 43
0.4
 10
216.2961252511624
 20
485.5399960099014
 42
0.4142135623731
 10
216.0961252511624
 20
485.7399960099013
 42
0.4142135623731
 10
215.8961252511625
 20
485.5399960099014
 42
0.4142135623731
 10
216.0961252511624
 20
485.3399960099014
 42
0.4142135623731
  0
LINE
  5
213
330
1F
100
AcDbEntity
  8
その他
  6
Continuous
 62
     7
370
     9
100
AcDbLine
 10
216.0961252511624
 20
486.7399960099014
 30
0.0
 11
216.0961252511624
 21
429.1020256410697
 31
0.0
  0
LINE
  5
214
330
1F
100
AcDbEntity
  8
その他
  6
Continuous
 62
     7
370
     9
100
AcDbLine
 10
216.0961252511624
 20
485.5399960099014
 30
0.0
 11
222.0962440222775
 21
485.5399960099014
 31
0.0
  0
LWPOLYLINE
  5
215
330
1F
100
AcDbEntity
  8
その他
  6
Continuous
 62
     7
370
     9
100
AcDbPolyline
 90
        4
 70
     1
 43
0.4
 10
222.2962440222774
 20
485.5399960099014
 42
0.4142135623731
 10
222.0962440222775
 20
485.7399960099013
 42
0.4142135623731
 10
221.8962440222775
 20
485.5399960099014
 42
0.4142135623731
 10
222.0962440222775
 20
485.3399960099014
 42
0.4142135623731
  0
LINE
  5
216
330
1F
100
AcDbEntity
  8
その他
  6
Continuous
 62
     7
370
     9
100
AcDbLine
 10
222.0962440222775
 20
486.7399960099014
 30
0.0
 11
222.0962440222775
 21
428.8520124442793
 31
0.0
  0
TEXT
  5
217
330
1F
100
AcDbEntity
  8
その他
  6
Continuous
 62
     2
370
   211
100
AcDbText
 10
215.09618463672
 20
490.1959960099015
 30
0.0
 40
12.192
  1
6
  7
ＭＳ ゴシック
100
AcDbText
  0
LWPOLYLINE
  5
218
330
1F
100
AcDbEntity
  8
その他
  6
Continuous
 62
     7
370
     9
100
AcDbPolyline
 90
        4
 70
     1
 43
0.4
 10
210.2962044319058
 20
455.1607162511645
 42
0.4142135623731
 10
210.0962044319058
 20
455.3607162511645
 42
0.4142135623731
 10
209.8962044319058
 20
455.1607162511645
 42
0.4142135623731
 10
210.0962044319058
 20
454.9607162511645
 42
0.4142135623731
  0
LINE
  5
219
330
1F
100
AcDbEntity
  8
その他
  6
Continuous
 62
     7
370
     9
100
AcDbLine
 10
210.0962044319058
 20
456.3607162511645
 30
0.0
 11
210.0962044319058
 21
389.1020916250224
 31
0.0
  0
LINE
  5
21A
330
1F
100
AcDbEntity
  8
その他
  6
Continuous
 62
     7
370
     9
100
AcDbLine
 10
87.89626645682165
 20
455.1607162511645
 30
0.0
 11
210.0962044319058
 21
455.1607162511645
 31
0.0
  0
TEXT
  5
21B
330
1F
100
AcDbEntity
  8
その他
  6
Continuous
 62
     2
370
   211
100
AcDbText
 10
126.9962354443637
 20
459.8167162511646
 30
0.0
 40
12.192
  1
122.2
 41
1.1
  7
ＭＳ ゴシック
100
AcDbText
  0
LINE
  5
21C
330
1F
100
AcDbEntity
  8
その他
  6
Continuous
 62
     7
370
     9
100
AcDbLine
 10
87.89626645682165
 20
485.5399960099014
 30
0.0
 11
216.0961252511624
 21
485.5399960099014
 31
0.0
  0
TEXT
  5
21D
330
1F
100
AcDbEntity
  8
その他
  6
Continuous
 62
     2
370
   211
100
AcDbText
 10
129.996195853992
 20
490.1959960099015
 30
0.0
 40
12.192
  1
128.2
 41
1.1
  7
ＭＳ ゴシック
100
AcDbText
  0
LINE
  5
21E
330
1F
100
AcDbEntity
  8
その他
  6
Continuous
 62
     7
370
     9
100
AcDbLine
 10
-862.990908688809
 20
-434.5550038842441
 30
0.0
 11
-342.9908756968325
 21
-434.5550038842441
 31
0.0
  0
TEXT
  5
21F
330
1F
100
AcDbEntity
  8
その他
  6
Continuous
 62
     2
370
   211
100
AcDbText
 10
-615.9908921928208
 20
-429.8990038842441
 30
0.0
 40
12.192
  1
520
 41
1.083333333333333
  7
ＭＳ ゴシック
100
AcDbText
  0
TEXT
  5
220
330
1F
100
AcDbEntity
  8
その他
  6
Continuous
 62
     2
370
   211
100
AcDbText
 10
-83.7075825791018
 20
-0.8979010434266569
 30
0.0
 40
12.192
  1
□720
 50
90.0
 41
1.1
  7
ＭＳ ゴシック
100
AcDbText
  0
TEXT
  5
221
330
1F
100
AcDbEntity
  8
その他
  6
Continuous
 62
     2
370
   211
100
AcDbText
 10
306.9780267864302
 20
-0.8979083749775042
 30
0.0
 40
12.192
  1
□600
 50
90.0
 41
1.1
  7
ＭＳ ゴシック
100
AcDbText
  0
TEXT
  5
222
330
1F
100
AcDbEntity
  8
その他
  6
Continuous
 62
     2
370
   211
100
AcDbText
 10
176.207069316276
 20
111.4735762602165
 30
0.0
 40
12.192
  1
3.2
 41
1.083333333333333
  7
ＭＳ ゴシック
100
AcDbText
  0
LINE
  5
223
330
1F
100
AcDbEntity
  8
その他
  6
Continuous
 62
     7
370
     9
100
AcDbLine
 10
164.4961207972465
 20
76.83035368392586
 30
0.0
 11
173.6329328239204
 21
105.8394025096223
 31
0.0
  0
LINE
  5
224
330
1F
100
AcDbEntity
  8
その他
  6
Continuous
 62
     7
370
     9
100
AcDbLine
 10
173.6329328239204
 20
105.8394025096223
 30
0.0
 11
206.1411096187745
 21
105.8394025096223
 31
0.0
  0
LINE
  5
225
330
1F
100
AcDbEntity
  8
その他
  6
Continuous
 62
     7
370
     9
100
AcDbLine
 10
-11.2142380498999
 20
354.1023296385653
 30
0.0
 11
-11.2142380498999
 21
-311.8981463885206
 31
0.0
  0
TEXT
  5
226
330
1F
100
AcDbEntity
  8
その他
  6
Continuous
 62
     2
370
   211
100
AcDbText
 10
-15.8702380499
 20
8.102091625022354
 30
0.0
 40
12.192
  1
666
 50
90.0
 41
1.083333333333333
  7
ＭＳ ゴシック
100
AcDbText
  0
LINE
  5
227
330
1F
100
AcDbEntity
  8
その他
  6
Continuous
 62
     7
370
     9
100
AcDbLine
 10
-42.170262728117
 20
-329.3982062453928
 30
0.0
 11
-42.170262728117
 21
371.6023894954347
 31
0.0
  0
TEXT
  5
228
330
1F
100
AcDbEntity
  8
その他
  6
Continuous
 62
     2
370
   211
100
AcDbText
 10
-46.82626272811709
 20
8.102091625020932
 30
0.0
 40
12.192
  1
701
 50
90.0
 41
1.083333333333333
  7
ＭＳ ゴシック
100
AcDbText
  0
LINE
  5
229
330
1F
100
AcDbEntity
  8
その他
  6
Continuous
 62
     7
370
     9
100
AcDbLine
 10
365.4944135169608
 20
-360.8978819813964
 30
0.0
 11
365.4944135169608
 21
403.1020652314414
 31
0.0
  0
TEXT
  5
22A
330
1F
100
AcDbEntity
  8
その他
  6
Continuous
 62
     2
370
   211
100
AcDbText
 10
360.8384135169612
 20
8.102091625022467
 30
0.0
 40
12.192
  1
764
 50
90.0
 41
1.083333333333333
  7
ＭＳ ゴシック
100
AcDbText
  0
LINE
  5
22B
330
1F
100
AcDbEntity
  8
その他
  6
Continuous
 62
     7
370
     9
100
AcDbLine
 10
-948.9908259142969
 20
466.663709756683
 30
0.0
 11
-256.9909770293311
 21
466.663709756683
 31
0.0
  0
TEXT
  5
22C
330
1F
100
AcDbEntity
  8
その他
  6
Continuous
 62
     2
370
   211
100
AcDbText
 10
-615.990901471814
 20
471.319709756683
 30
0.0
 40
12.192
  1
692
 41
1.083333333333333
  7
ＭＳ ゴシック
100
AcDbText
  0
LINE
  5
22D
330
1F
100
AcDbEntity
  8
その他
  6
Continuous
 62
     7
370
     9
100
AcDbLine
 10
-953.4909107508067
 20
500.1427205185675
 30
0.0
 11
-252.4908921928209
 21
500.1427205185675
 31
0.0
  0
TEXT
  5
22E
330
1F
100
AcDbEntity
  8
その他
  6
Continuous
 62
     2
370
   211
100
AcDbText
 10
-615.9909014718138
 20
504.7987205185675
 30
0.0
 40
12.192
  1
701
 41
1.083333333333333
  7
ＭＳ ゴシック
100
AcDbText
  0
TEXT
  5
22F
330
1F
100
AcDbEntity
  8
F-5ﾚｲﾔ
  6
Continuous
 62
     2
370
     9
100
AcDbText
 10
647.6270255014672
 20
670.9717068318121
 30
0.0
 40
12.192
  1
桝内径　600mm
 41
1.115384615384615
  7
ＭＳ ゴシック
100
AcDbText
  0
TEXT
  5
230
330
1F
100
AcDbEntity
  8
F-Fﾚｲﾔ
  6
Continuous
 62
     2
370
     9
100
AcDbText
 10
647.6270255014672
 20
542.971706831812
 30
0.0
 40
12.192
  1
寸法 幅701×長さ701×高さ122.2
 41
1.120833333333333
  7
ＭＳ ゴシック
100
AcDbText
  0
TEXT
  5
231
330
1F
100
AcDbEntity
  8
F-Fﾚｲﾔ
  6
Continuous
 62
     2
370
     9
100
AcDbText
 10
647.6270255014673
 20
510.971706831812
 30
0.0
 40
12.192
  1
蓋質量　31.0kg
 41
1.116071428571429
  7
ＭＳ ゴシック
100
AcDbText
  0
TEXT
  5
232
330
1F
100
AcDbEntity
  8
F-Fﾚｲﾔ
  6
Continuous
 62
     2
370
     9
100
AcDbText
 10
647.6270255014672
 20
446.9717068318121
 30
0.0
 40
12.192
  1
寸法 幅720×長さ720×高さ128.2
 41
1.120833333333333
  7
ＭＳ ゴシック
100
AcDbText
  0
TEXT
  5
233
330
1F
100
AcDbEntity
  8
F-Fﾚｲﾔ
  6
Continuous
 62
     2
370
     9
100
AcDbText
 10
647.627025501467
 20
382.9717068318121
 30
0.0
 40
12.192
  1
集水桝用：HISW-2-600-Z
 41
1.119318181818182
  7
ＭＳ ゴシック
100
AcDbText
  0
TEXT
  5
234
330
1F
100
AcDbEntity
  8
F-Fﾚｲﾔ
  6
Continuous
 62
     2
370
     9
100
AcDbText
 10
647.6270255014672
 20
478.9717068318121
 30
0.0
 40
12.192
  1
スチール製 溶融亜鉛めっき
 41
1.115
  7
ＭＳ ゴシック
100
AcDbText
  0
TEXT
  5
235
330
1F
100
AcDbEntity
  8
寸法
  6
Continuous
 62
     7
370
     0
100
AcDbText
 10
267.0999556117104
 20
483.2175726440159
 30
0.0
 40
9.144
  1
ＳＳ４００（溶融亜鉛めっき）
 41
1.154761904761905
  7
ＭＳ ゴシック
100
AcDbText
  0
TEXT
  5
236
330
1F
100
AcDbEntity
  8
F-4ﾚｲﾔ
  6
Continuous
 62
     2
370
     9
100
AcDbText
 10
221.3816524747212
 20
-777.8398842462342
 30
0.0
 40
12.192
  1
集水桝用　ＨＩＳＷ－２－６００－Ｚ
 41
1.117647058823529
  7
ＭＳ ゴシック
100
AcDbText
  0
LINE
  5
237
330
1F
100
AcDbEntity
  8
寸法
  6
Continuous
 62
     7
370
     9
100
AcDbLine
 10
265.1172627034848
 20
495.5800071012513
 30
0.0
 11
456.8366152208621
 21
495.5800071012513
 31
0.0
  0
LINE
  5
238
330
1F
100
AcDbEntity
  8
寸法
  6
Continuous
 62
     7
370
     9
100
AcDbLine
 10
-187.9166978414127
 20
558.7417097047426
 30
0.0
 11
18.49440440652143
 21
558.7417097047426
 31
0.0
  0
TEXT
  5
239
330
1F
100
AcDbEntity
  8
寸法
  6
Continuous
 62
     7
370
     0
100
AcDbText
 10
-174.775657067284
 20
545.6157837248617
 30
0.0
 40
9.144
  1
ＳＰＨＣ（溶融亜鉛めっき）
 50
0.0000630100335
 41
1.153846153846154
  7
ＭＳ ゴシック
100
AcDbText
  0
TEXT
  5
23A
330
1F
100
AcDbEntity
  8
寸法
  6
Continuous
 62
     7
370
     0
100
AcDbText
 10
-187.8486383912918
 20
563.3942677896421
 30
0.0
 40
9.144
  1
受枠：Ｌ－１２３Ｚ，ｔ＝６.０
 41
1.155172413793103
  7
ＭＳ ゴシック
100
AcDbText
  0
LINE
  5
23B
330
1F
100
AcDbEntity
  8
仕上
  6
Continuous
 62
     2
370
     9
100
AcDbLine
 10
-947.4908921928205
 20
354.1021854164979
 30
0.0
 11
-947.4908921928205
 21
344.8521884800381
 31
0.0
  0
LINE
  5
23C
330
1F
100
AcDbEntity
  8
仕上
  6
JWW_DASHED1
 62
     2
370
     9
100
AcDbLine
 10
-947.4908921928205
 20
358.6022702530068
 30
0.0
 11
-947.4908921928205
 21
354.1021854164979
 31
0.0
  0
LINE
  5
23D
330
1F
100
AcDbEntity
  8
仕上
  6
JWW_DASHED1
 62
     2
370
     9
100
AcDbLine
 10
-947.4908921928205
 20
364.6023046589249
 30
0.0
 11
-947.4908921928205
 21
369.1023894954366
 31
0.0
  0
LINE
  5
23E
330
1F
100
AcDbEntity
  8
仕上
  6
Continuous
 62
     2
370
     9
100
AcDbLine
 10
-947.4908921928205
 20
358.6022702530068
 30
0.0
 11
-947.4908921928205
 21
364.6023046589249
 31
0.0
  0
LINE
  5
23F
330
1F
100
AcDbEntity
  8
仕上
  6
Continuous
 62
     2
370
     9
100
AcDbLine
 10
-947.4908921928205
 20
-316.3980870029643
 30
0.0
 11
-947.4908921928205
 21
-322.3981214088819
 31
0.0
  0
LINE
  5
240
330
1F
100
AcDbEntity
  8
仕上
  6
JWW_DASHED1
 62
     2
370
     9
100
AcDbLine
 10
-947.4908921928205
 20
344.8521884800381
 30
0.0
 11
-947.4908921928205
 21
-316.3980870029643
 31
0.0
  0
ENDSEC
  0
SECTION
  2
OBJECTS
  0
DICTIONARY
  5
C
330
0
100
AcDbDictionary
281
     1
  3
ACAD_GROUP
350
D
  3
ACAD_LAYOUT
350
1A
  3
ACAD_MLEADERSTYLE
350
242
  3
ACAD_MLINESTYLE
350
17
  3
ACAD_PLOTSETTINGS
350
19
  3
ACAD_PLOTSTYLENAME
350
E
  3
ACAD_TABLESTYLE
350
241
  3
ACAD_VISUALSTYLE
350
2A
  0
DICTIONARY
  5
D
102
{ACAD_REACTORS
330
C
102
}
330
C
100
AcDbDictionary
281
     1
  0
DICTIONARY
  5
1A
102
{ACAD_REACTORS
330
C
102
}
330
C
100
AcDbDictionary
281
     1
  3
Layout1
350
1E
  3
Layout2
350
26
  3
Model
350
22
  0
DICTIONARY
  5
242
102
{ACAD_REACTORS
330
C
102
}
330
C
100
AcDbDictionary
281
     1
  0
DICTIONARY
  5
17
102
{ACAD_REACTORS
330
C
102
}
330
C
100
AcDbDictionary
281
     1
  3
Standard
350
18
  0
DICTIONARY
  5
19
102
{ACAD_REACTORS
330
C
102
}
330
C
100
AcDbDictionary
281
     1
  0
ACDBDICTIONARYWDFLT
  5
E
102
{ACAD_REACTORS
330
C
102
}
330
C
100
AcDbDictionary
281
     1
  3
Normal
350
F
100
AcDbDictionaryWithDefault
340
F
  0
DICTIONARY
  5
241
102
{ACAD_REACTORS
330
C
102
}
330
C
100
AcDbDictionary
281
     1
  0
DICTIONARY
  5
2A
102
{ACAD_REACTORS
330
C
102
}
330
C
100
AcDbDictionary
281
     1
  3
2dWireframe
350
2F
  3
3D Hidden
350
31
  3
3dWireframe
350
30
  3
Basic
350
32
  3
Brighten
350
36
  3
ColorChange
350
3A
  3
Conceptual
350
34
  3
Dim
350
35
  3
Facepattern
350
39
  3
Flat
350
2B
  3
FlatWithEdges
350
2C
  3
Gouraud
350
2D
  3
GouraudWithEdges
350
2E
  3
Linepattern
350
38
  3
Realistic
350
33
  3
Thicken
350
37
  0
LAYOUT
  5
1E
102
{ACAD_REACTORS
330
1A
102
}
330
1A
100
AcDbPlotSettings
  1

  2
none_device
  4

  6

 40
0.0
 41
0.0
 42
0.0
 43
0.0
 44
0.0
 45
0.0
 46
0.0
 47
0.0
 48
0.0
 49
0.0
140
0.0
141
0.0
142
1.0
143
1.0
 70
   688
 72
     0
 73
     0
 74
     5
  7

 75
    16
 76
     0
 77
     5
 78
   300
147
1.0
148
0.0
149
0.0
100
AcDbLayout
  1
Layout1
 70
     1
 71
     1
 10
0.0
 20
0.0
 11
420.0
 21
297.0
 12
0.0
 22
0.0
 32
0.0
 14
1.000000000000000E+20
 24
1.000000000000000E+20
 34
1.000000000000000E+20
 15
-1.000000000000000E+20
 25
-1.000000000000000E+20
 35
-1.000000000000000E+20
146
0.0
 13
0.0
 23
0.0
 33
0.0
 16
1.0
 26
0.0
 36
0.0
 17
0.0
 27
1.0
 37
0.0
 76
     0
330
1B
  0
LAYOUT
  5
26
102
{ACAD_REACTORS
330
1A
102
}
330
1A
100
AcDbPlotSettings
  1

  2
none_device
  4

  6

 40
0.0
 41
0.0
 42
0.0
 43
0.0
 44
0.0
 45
0.0
 46
0.0
 47
0.0
 48
0.0
 49
0.0
140
0.0
141
0.0
142
1.0
143
1.0
 70
   688
 72
     0
 73
     0
 74
     5
  7

 75
    16
 76
     0
 77
     5
 78
   300
147
1.0
148
0.0
149
0.0
100
AcDbLayout
  1
Layout2
 70
     1
 71
     2
 10
0.0
 20
0.0
 11
0.0
 21
0.0
 12
0.0
 22
0.0
 32
0.0
 14
0.0
 24
0.0
 34
0.0
 15
0.0
 25
0.0
 35
0.0
146
0.0
 13
0.0
 23
0.0
 33
0.0
 16
1.0
 26
0.0
 36
0.0
 17
0.0
 27
1.0
 37
0.0
 76
     0
330
23
  0
LAYOUT
  5
22
102
{ACAD_REACTORS
330
1A
102
}
330
1A
100
AcDbPlotSettings
  1

  2
none_device
  4

  6

 40
0.0
 41
0.0
 42
0.0
 43
0.0
 44
0.0
 45
0.0
 46
0.0
 47
0.0
 48
0.0
 49
0.0
140
0.0
141
0.0
142
1.0
143
1.0
 70
  1712
 72
     0
 73
     0
 74
     0
  7

 75
     0
 76
     0
 77
     5
 78
   300
147
1.0
148
0.0
149
0.0
100
AcDbLayout
  1
Model
 70
     1
 71
     0
 10
-1188.0
 20
-840.0
 11
1188.0
 21
840.0
 12
0.0
 22
0.0
 32
0.0
 14
-1188.0
 24
-840.0
 34
0.0
 15
1188.0
 25
840.0
 35
0.0
146
0.0
 13
0.0
 23
0.0
 33
0.0
 16
1.0
 26
0.0
 36
0.0
 17
0.0
 27
1.0
 37
0.0
 76
     0
330
1F
331
29
  0
MLINESTYLE
  5
18
102
{ACAD_REACTORS
330
17
102
}
330
17
100
AcDbMlineStyle
  2
Standard
 70
     0
  3

 62
   256
 51
90.0
 52
90.0
 71
     2
 49
0.5
 62
   256
  6
BYLAYER
 49
-0.5
 62
   256
  6
BYLAYER
  0
ACDBPLACEHOLDER
  5
F
102
{ACAD_REACTORS
330
E
102
}
330
E
  0
VISUALSTYLE
  5
2F
102
{ACAD_REACTORS
330
2A
102
}
330
2A
100
AcDbVisualStyle
  2
2dWireframe
 70
     4
 71
     0
 72
     2
 73
     0
 90
        0
 40
-0.6
 41
-30.0
 62
     5
 63
     7
421
 16777215
 74
     1
 91
        4
 64
     7
 65
   257
 75
     1
175
     1
 42
1.0
 92
        0
 66
   257
 43
1.0
 76
     1
 77
     6
 78
     2
 67
     7
 79
     5
170
     0
171
     0
290
     0
174
     0
 93
        1
 44
0.0
173
     0
291
     0
 45
0.0
  0
VISUALSTYLE
  5
31
102
{ACAD_REACTORS
330
2A
102
}
330
2A
100
AcDbVisualStyle
  2
3D Hidden
 70
     6
 71
     1
 72
     2
 73
     2
 90
        0
 40
-0.6
 41
-30.0
 62
     5
 63
     7
421
 16777215
 74
     2
 91
        2
 64
     7
 65
   257
 75
     2
175
     1
 42
40.0
 92
        0
 66
   257
 43
1.0
 76
     1
 77
     6
 78
     2
 67
     7
 79
     3
170
     0
171
     0
290
     0
174
     0
 93
        1
 44
0.0
173
     0
291
     0
 45
0.0
  0
VISUALSTYLE
  5
30
102
{ACAD_REACTORS
330
2A
102
}
330
2A
100
AcDbVisualStyle
  2
3dWireframe
 70
     5
 71
     0
 72
     2
 73
     0
 90
        0
 40
-0.6
 41
-30.0
 62
     5
 63
     7
421
 16777215
 74
     1
 91
        4
 64
     7
 65
   257
 75
     1
175
     1
 42
1.0
 92
        0
 66
   257
 43
1.0
 76
     1
 77
     6
 78
     2
 67
     7
 79
     5
170
     0
171
     0
290
     0
174
     0
 93
        1
 44
0.0
173
     0
291
     0
 45
0.0
  0
VISUALSTYLE
  5
32
102
{ACAD_REACTORS
330
2A
102
}
330
2A
100
AcDbVisualStyle
  2
Basic
 70
     7
 71
     1
 72
     0
 73
     1
 90
        0
 40
-0.6
 41
-30.0
 62
     5
 63
     7
421
 16777215
 74
     0
 91
        4
 64
     7
 65
   257
 75
     1
175
     1
 42
1.0
 92
        8
 66
     7
 43
1.0
 76
     1
 77
     6
 78
     2
 67
     7
 79
     5
170
     0
171
     0
290
     0
174
     0
 93
        1
 44
0.0
173
     0
291
     1
 45
0.0
  0
VISUALSTYLE
  5
36
102
{ACAD_REACTORS
330
2A
102
}
330
2A
100
AcDbVisualStyle
  2
Brighten
 70
    12
 71
     2
 72
     2
 73
     0
 90
        0
 40
-0.6
 41
-30.0
 62
     5
 63
     7
421
 16777215
 74
     1
 91
        4
 64
     7
 65
   257
 75
     1
175
     1
 42
1.0
 92
        8
 66
     7
 43
1.0
 76
     1
 77
     6
 78
     2
 67
     7
 79
     5
170
     0
171
     0
290
     0
174
     0
 93
        1
 44
50.0
173
     0
291
     1
 45
0.0
  0
VISUALSTYLE
  5
3A
102
{ACAD_REACTORS
330
2A
102
}
330
2A
100
AcDbVisualStyle
  2
ColorChange
 70
    16
 71
     2
 72
     2
 73
     3
 90
        0
 40
-0.6
 41
-30.0
 62
     5
 63
     8
421
  8421504
 74
     1
 91
        4
 64
     7
 65
   257
 75
     1
175
     1
 42
1.0
 92
        8
 66
     8
424
  8421504
 43
1.0
 76
     1
 77
     6
 78
     2
 67
     7
 79
     5
170
     0
171
     0
290
     0
174
     0
 93
        1
 44
0.0
173
     0
291
     1
 45
0.0
  0
VISUALSTYLE
  5
34
102
{ACAD_REACTORS
330
2A
102
}
330
2A
100
AcDbVisualStyle
  2
Conceptual
 70
     9
 71
     3
 72
     2
 73
     0
 90
        0
 40
-0.6
 41
-30.0
 62
     5
 63
     7
421
 16777215
 74
     2
 91
        2
 64
     7
 65
   257
 75
     1
175
     1
 42
40.0
 92
        8
 66
     7
 43
1.0
 76
     1
 77
     6
 78
     2
 67
     7
 79
     3
170
     0
171
     0
290
     0
174
     0
 93
        1
 44
0.0
173
     0
291
     0
 45
0.0
  0
VISUALSTYLE
  5
35
102
{ACAD_REACTORS
330
2A
102
}
330
2A
100
AcDbVisualStyle
  2
Dim
 70
    11
 71
     2
 72
     2
 73
     0
 90
        0
 40
-0.6
 41
-30.0
 62
     5
 63
     7
421
 16777215
 74
     1
 91
        4
 64
     7
 65
   257
 75
     1
175
     1
 42
1.0
 92
        8
 66
     7
 43
1.0
 76
     1
 77
     6
 78
     2
 67
     7
 79
     5
170
     0
171
     0
290
     0
174
     0
 93
        1
 44
-50.0
173
     0
291
     1
 45
0.0
  0
VISUALSTYLE
  5
39
102
{ACAD_REACTORS
330
2A
102
}
330
2A
100
AcDbVisualStyle
  2
Facepattern
 70
    15
 71
     2
 72
     2
 73
     0
 90
        0
 40
-0.6
 41
-30.0
 62
     5
 63
     7
421
 16777215
 74
     1
 91
        4
 64
     7
 65
   257
 75
     1
175
     1
 42
1.0
 92
        8
 66
     7
 43
1.0
 76
     1
 77
     6
 78
     2
 67
     7
 79
     5
170
     0
171
     0
290
     0
174
     0
 93
        1
 44
0.0
173
     0
291
     1
 45
0.0
  0
VISUALSTYLE
  5
2B
102
{ACAD_REACTORS
330
2A
102
}
330
2A
100
AcDbVisualStyle
  2
Flat
 70
     0
 71
     2
 72
     1
 73
     1
 90
        2
 40
-0.6
 41
30.0
 62
     5
 63
     7
421
 16777215
 74
     0
 91
        4
 64
     7
 65
   257
 75
     1
175
     1
 42
1.0
 92
        8
 66
     7
 43
1.0
 76
     1
 77
     6
 78
     2
 67
     7
 79
     5
170
     0
171
     0
290
     0
174
     0
 93
       13
 44
0.0
173
     0
291
     1
 45
0.0
  0
VISUALSTYLE
  5
2C
102
{ACAD_REACTORS
330
2A
102
}
330
2A
100
AcDbVisualStyle
  2
FlatWithEdges
 70
     1
 71
     2
 72
     1
 73
     1
 90
        2
 40
-0.6
 41
30.0
 62
     5
 63
     7
421
 16777215
 74
     1
 91
        4
 64
     7
 65
   257
 75
     1
175
     1
 42
1.0
 92
        0
 66
   257
 43
1.0
 76
     1
 77
     6
 78
     2
 67
     7
 79
     5
170
     0
171
     0
290
     0
174
     0
 93
       13
 44
0.0
173
     0
291
     1
 45
0.0
  0
VISUALSTYLE
  5
2D
102
{ACAD_REACTORS
330
2A
102
}
330
2A
100
AcDbVisualStyle
  2
Gouraud
 70
     2
 71
     2
 72
     2
 73
     1
 90
        2
 40
-0.6
 41
30.0
 62
     5
 63
     7
421
 16777215
 74
     0
 91
        4
 64
     7
 65
   257
 75
     1
175
     1
 42
1.0
 92
        0
 66
     7
 43
1.0
 76
     1
 77
     6
 78
     2
 67
     7
 79
     5
170
     0
171
     0
290
     0
174
     0
 93
       13
 44
0.0
173
     0
291
     1
 45
0.0
  0
VISUALSTYLE
  5
2E
102
{ACAD_REACTORS
330
2A
102
}
330
2A
100
AcDbVisualStyle
  2
GouraudWithEdges
 70
     3
 71
     2
 72
     2
 73
     1
 90
        2
 40
-0.6
 41
30.0
 62
     5
 63
     7
421
 16777215
 74
     1
 91
        4
 64
     7
 65
   257
 75
     1
175
     1
 42
1.0
 92
        0
 66
   257
 43
1.0
 76
     1
 77
     6
 78
     2
 67
     7
 79
     5
170
     0
171
     0
290
     0
174
     0
 93
       13
 44
0.0
173
     0
291
     1
 45
0.0
  0
VISUALSTYLE
  5
38
102
{ACAD_REACTORS
330
2A
102
}
330
2A
100
AcDbVisualStyle
  2
Linepattern
 70
    14
 71
     2
 72
     2
 73
     0
 90
        0
 40
-0.6
 41
-30.0
 62
     5
 63
     7
421
 16777215
 74
     1
 91
        4
 64
     7
 65
   257
 75
     7
175
     7
 42
1.0
 92
        8
 66
     7
 43
1.0
 76
     1
 77
     6
 78
     2
 67
     7
 79
     5
170
     0
171
     0
290
     0
174
     0
 93
        1
 44
0.0
173
     0
291
     1
 45
0.0
  0
VISUALSTYLE
  5
33
102
{ACAD_REACTORS
330
2A
102
}
330
2A
100
AcDbVisualStyle
  2
Realistic
 70
     8
 71
     2
 72
     2
 73
     0
 90
        0
 40
-0.6
 41
-30.0
 62
     5
 63
     7
421
 16777215
 74
     1
 91
        0
 64
     7
 65
   257
 75
     1
175
     1
 42
1.0
 92
        8
 66
     8
424
  7895160
 43
1.0
 76
     1
 77
     6
 78
     2
 67
     7
 79
     5
170
     0
171
     0
290
     0
174
     0
 93
       13
 44
0.0
173
     0
291
     0
 45
0.0
  0
VISUALSTYLE
  5
37
102
{ACAD_REACTORS
330
2A
102
}
330
2A
100
AcDbVisualStyle
  2
Thicken
 70
    13
 71
     2
 72
     2
 73
     0
 90
        0
 40
-0.6
 41
-30.0
 62
     5
 63
     7
421
 16777215
 74
     1
 91
        4
 64
     7
 65
   257
 75
     1
175
     1
 42
1.0
 92
       12
 66
     7
 43
1.0
 76
     1
 77
     6
 78
     2
 67
     7
 79
     5
170
     0
171
     0
290
     0
174
     0
 93
        1
 44
0.0
173
     0
291
     1
 45
0.0
  0
ENDSEC
  0
EOF
