  0
SECTION
  2
HEADER
  9
$ACADVER
  1
AC1018
  9
$ACADMAINTVER
 70
     0
  9
$DWGCODEPAGE
  3
ANSI_932
  9
$INSBASE
 10
0.0
 20
0.0
 30
0.0
  9
$EXTMIN
 10
-630.0
 20
-445.5
 30
0.0
  9
$EXTMAX
 10
630.0
 20
445.5
 30
0.0
  9
$LIMMIN
 10
-630.0
 20
-445.5
  9
$LIMMAX
 10
630.0
 20
445.5
  9
$ORTHOMODE
 70
     0
  9
$REGENMODE
 70
     1
  9
$FILLMODE
 70
     1
  9
$QTEXTMODE
 70
     0
  9
$MIRRTEXT
 70
     1
  9
$LTSCALE
 40
3.0
  9
$ATTMODE
 70
     1
  9
$TEXTSIZE
 40
2.5
  9
$TRACEWID
 40
1.0
  9
$TEXTSTYLE
  7
Standard
  9
$CLAYER
  8
0
  9
$CELTYPE
  6
ByLayer
  9
$CECOLOR
 62
   256
  9
$CELTSCALE
 40
1.0
  9
$DISPSILH
 70
     0
  9
$DIMSCALE
 40
1.0
  9
$DIMASZ
 40
2.5
  9
$DIMEXO
 40
0.625
  9
$DIMDLI
 40
3.75
  9
$DIMRND
 40
0.0
  9
$DIMDLE
 40
0.0
  9
$DIMEXE
 40
1.25
  9
$DIMTP
 40
0.0
  9
$DIMTM
 40
0.0
  9
$DIMTXT
 40
2.5
  9
$DIMCEN
 40
2.5
  9
$DIMTSZ
 40
0.0
  9
$DIMTOL
 70
     0
  9
$DIMLIM
 70
     0
  9
$DIMTIH
 70
     0
  9
$DIMTOH
 70
     0
  9
$DIMSE1
 70
     0
  9
$DIMSE2
 70
     0
  9
$DIMTAD
 70
     1
  9
$DIMZIN
 70
     8
  9
$DIMBLK
  1

  9
$DIMASO
 70
     1
  9
$DIMSHO
 70
     1
  9
$DIMPOST
  1

  9
$DIMAPOST
  1

  9
$DIMALT
 70
     0
  9
$DIMALTD
 70
     3
  9
$DIMALTF
 40
0.03937007874016
  9
$DIMLFAC
 40
1.0
  9
$DIMTOFL
 70
     1
  9
$DIMTVP
 40
0.0
  9
$DIMTIX
 70
     0
  9
$DIMSOXD
 70
     0
  9
$DIMSAH
 70
     0
  9
$DIMBLK1
  1

  9
$DIMBLK2
  1

  9
$DIMSTYLE
  2
ISO-25
  9
$DIMCLRD
 70
     0
  9
$DIMCLRE
 70
     0
  9
$DIMCLRT
 70
     0
  9
$DIMTFAC
 40
1.0
  9
$DIMGAP
 40
0.625
  9
$DIMJUST
 70
     0
  9
$DIMSD1
 70
     0
  9
$DIMSD2
 70
     0
  9
$DIMTOLJ
 70
     0
  9
$DIMTZIN
 70
     8
  9
$DIMALTZ
 70
     0
  9
$DIMALTTZ
 70
     0
  9
$DIMUPT
 70
     0
  9
$DIMDEC
 70
     2
  9
$DIMTDEC
 70
     2
  9
$DIMALTU
 70
     2
  9
$DIMALTTD
 70
     3
  9
$DIMTXSTY
  7
Standard
  9
$DIMAUNIT
 70
     0
  9
$DIMADEC
 70
     0
  9
$DIMALTRND
 40
0.0
  9
$DIMAZIN
 70
     0
  9
$DIMDSEP
 70
    44
  9
$DIMATFIT
 70
     3
  9
$DIMFRAC
 70
     0
  9
$DIMLDRBLK
  1

  9
$DIMLUNIT
 70
     2
  9
$DIMLWD
 70
    -2
  9
$DIMLWE
 70
    -2
  9
$DIMTMOVE
 70
     0
  9
$LUNITS
 70
     2
  9
$LUPREC
 70
     4
  9
$SKETCHINC
 40
1.0
  9
$FILLETRAD
 40
10.0
  9
$AUNITS
 70
     0
  9
$AUPREC
 70
     0
  9
$MENU
  1
.
  9
$ELEVATION
 40
0.0
  9
$PELEVATION
 40
0.0
  9
$THICKNESS
 40
0.0
  9
$LIMCHECK
 70
     0
  9
$CHAMFERA
 40
10.0
  9
$CHAMFERB
 40
10.0
  9
$CHAMFERC
 40
20.0
  9
$CHAMFERD
 40
0.0
  9
$SKPOLY
 70
     0
  9
$TDCREATE
 40
2456498.824127303
  9
$TDUCREATE
 40
2456498.449127303
  9
$TDUPDATE
 40
2456498.824127315
  9
$TDUUPDATE
 40
2456498.449127315
  9
$TDINDWG
 40
0.0000000116
  9
$TDUSRTIMER
 40
0.0000000116
  9
$USRTIMER
 70
     1
  9
$ANGBASE
 50
0.0
  9
$ANGDIR
 70
     0
  9
$PDMODE
 70
     0
  9
$PDSIZE
 40
0.0
  9
$PLINEWID
 40
0.0
  9
$SPLFRAME
 70
     0
  9
$SPLINETYPE
 70
     6
  9
$SPLINESEGS
 70
     8
  9
$HANDSEED
  5
1AD
  9
$SURFTAB1
 70
     6
  9
$SURFTAB2
 70
     6
  9
$SURFTYPE
 70
     6
  9
$SURFU
 70
     6
  9
$SURFV
 70
     6
  9
$UCSBASE
  2

  9
$UCSNAME
  2

  9
$UCSORG
 10
0.0
 20
0.0
 30
0.0
  9
$UCSXDIR
 10
1.0
 20
0.0
 30
0.0
  9
$UCSYDIR
 10
0.0
 20
1.0
 30
0.0
  9
$UCSORTHOREF
  2

  9
$UCSORTHOVIEW
 70
     0
  9
$UCSORGTOP
 10
0.0
 20
0.0
 30
0.0
  9
$UCSORGBOTTOM
 10
0.0
 20
0.0
 30
0.0
  9
$UCSORGLEFT
 10
0.0
 20
0.0
 30
0.0
  9
$UCSORGRIGHT
 10
0.0
 20
0.0
 30
0.0
  9
$UCSORGFRONT
 10
0.0
 20
0.0
 30
0.0
  9
$UCSORGBACK
 10
0.0
 20
0.0
 30
0.0
  9
$PUCSBASE
  2

  9
$PUCSNAME
  2

  9
$PUCSORG
 10
0.0
 20
0.0
 30
0.0
  9
$PUCSXDIR
 10
1.0
 20
0.0
 30
0.0
  9
$PUCSYDIR
 10
0.0
 20
1.0
 30
0.0
  9
$PUCSORTHOREF
  2

  9
$PUCSORTHOVIEW
 70
     0
  9
$PUCSORGTOP
 10
0.0
 20
0.0
 30
0.0
  9
$PUCSORGBOTTOM
 10
0.0
 20
0.0
 30
0.0
  9
$PUCSORGLEFT
 10
0.0
 20
0.0
 30
0.0
  9
$PUCSORGRIGHT
 10
0.0
 20
0.0
 30
0.0
  9
$PUCSORGFRONT
 10
0.0
 20
0.0
 30
0.0
  9
$PUCSORGBACK
 10
0.0
 20
0.0
 30
0.0
  9
$USERI1
 70
     0
  9
$USERI2
 70
     0
  9
$USERI3
 70
     0
  9
$USERI4
 70
     0
  9
$USERI5
 70
     0
  9
$USERR1
 40
0.0
  9
$USERR2
 40
0.0
  9
$USERR3
 40
0.0
  9
$USERR4
 40
0.0
  9
$USERR5
 40
0.0
  9
$WORLDVIEW
 70
     1
  9
$SHADEDGE
 70
     3
  9
$SHADEDIF
 70
    70
  9
$TILEMODE
 70
     1
  9
$MAXACTVP
 70
    64
  9
$PINSBASE
 10
0.0
 20
0.0
 30
0.0
  9
$PLIMCHECK
 70
     0
  9
$PEXTMIN
 10
1.000000000000000E+20
 20
1.000000000000000E+20
 30
1.000000000000000E+20
  9
$PEXTMAX
 10
-1.000000000000000E+20
 20
-1.000000000000000E+20
 30
-1.000000000000000E+20
  9
$PLIMMIN
 10
0.0
 20
0.0
  9
$PLIMMAX
 10
420.0
 20
297.0
  9
$UNITMODE
 70
     0
  9
$VISRETAIN
 70
     1
  9
$PLINEGEN
 70
     0
  9
$PSLTSCALE
 70
     1
  9
$TREEDEPTH
 70
  3020
  9
$CMLSTYLE
  2
Standard
  9
$CMLJUST
 70
     0
  9
$CMLSCALE
 40
20.0
  9
$PROXYGRAPHICS
 70
     1
  9
$MEASUREMENT
 70
     1
  9
$CELWEIGHT
370
    -1
  9
$ENDCAPS
280
     0
  9
$JOINSTYLE
280
     0
  9
$LWDISPLAY
290
     0
  9
$INSUNITS
 70
     4
  9
$HYPERLINKBASE
  1

  9
$STYLESHEET
  1

  9
$XEDIT
290
     1
  9
$CEPSNTYPE
380
     0
  9
$PSTYLEMODE
290
     1
  9
$FINGERPRINTGUID
  2
{EA1F6F33-52A1-4BF3-8A61-93E1F5FD5DE8}
  9
$VERSIONGUID
  2
{FAEB1C32-E019-11D5-929B-00C0DF256EC4}
  9
$EXTNAMES
290
     1
  9
$PSVPSCALE
 40
0.0
  9
$OLESTARTUP
290
     0
  9
$SORTENTS
280
   127
  9
$INDEXCTL
280
     0
  9
$HIDETEXT
280
     1
  9
$XCLIPFRAME
290
     0
  9
$HALOGAP
280
     0
  9
$OBSCOLOR
 70
   257
  9
$OBSLTYPE
280
     0
  9
$INTERSECTIONDISPLAY
280
     0
  9
$INTERSECTIONCOLOR
 70
   257
  9
$DIMASSOC
280
     2
  9
$PROJECTNAME
  1

  0
ENDSEC
  0
SECTION
  2
CLASSES
  0
CLASS
  1
ACDBDICTIONARYWDFLT
  2
AcDbDictionaryWithDefault
  3
ObjectDBX Classes
 90
        0
 91
        4
280
     0
281
     0
  0
CLASS
  1
VISUALSTYLE
  2
AcDbVisualStyle
  3
ObjectDBX Classes
 90
     4095
 91
        4
280
     0
281
     0
  0
ENDSEC
  0
SECTION
  2
TABLES
  0
TABLE
  2
VPORT
  5
8
330
0
100
AcDbSymbolTable
 70
     1
  0
VPORT
  5
29
330
8
100
AcDbSymbolTableRecord
100
AcDbViewportTableRecord
  2
*Active
 70
     0
 10
0.0
 20
0.0
 11
1.0
 21
1.0
 12
0.0
 22
0.0
 13
0.0
 23
0.0
 14
10.0
 24
10.0
 15
10.0
 25
10.0
 16
0.0
 26
0.0
 36
1.0
 17
0.0
 27
0.0
 37
0.0
 40
980.1
 41
1.414141414141414
 42
50.0
 43
0.0
 44
0.0
 50
0.0
 51
0.0
 71
     0
 72
 10000
 73
     1
 74
     3
 75
     0
 76
     0
 77
     0
 78
     0
281
     0
 65
     1
110
0.0
120
0.0
130
0.0
111
1.0
121
0.0
131
0.0
112
0.0
122
1.0
132
0.0
 79
     0
146
0.0
  0
ENDTAB
  0
TABLE
  2
LTYPE
  5
5
330
0
100
AcDbSymbolTable
 70
     3
  0
LTYPE
  5
14
330
5
100
AcDbSymbolTableRecord
100
AcDbLinetypeTableRecord
  2
ByBlock
 70
     0
  3

 72
    65
 73
     0
 40
0.0
  0
LTYPE
  5
15
330
5
100
AcDbSymbolTableRecord
100
AcDbLinetypeTableRecord
  2
ByLayer
 70
     0
  3

 72
    65
 73
     0
 40
0.0
  0
LTYPE
  5
16
330
5
100
AcDbSymbolTableRecord
100
AcDbLinetypeTableRecord
  2
Continuous
 70
     0
  3
Solid line
 72
    65
 73
     0
 40
0.0
  0
LTYPE
  5
3D
330
5
100
AcDbSymbolTableRecord
100
AcDbLinetypeTableRecord
  2
JWW_CENTER1
 70
     0
  3
-----  --  ----------  --  -----
 72
    65
 73
     4
 40
6.773333333333333
 49
4.233333333333333
 74
     0
 49
-0.8466666666666667
 74
     0
 49
0.8466666666666667
 74
     0
 49
-0.8466666666666667
 74
     0
  0
LTYPE
  5
3E
330
5
100
AcDbSymbolTableRecord
100
AcDbLinetypeTableRecord
  2
JWW_DASHED1
 70
     0
  3
-  --  --  --  --  --  --  --  -
 72
    65
 73
     2
 40
1.693333333333333
 49
0.8466666666666667
 74
     0
 49
-0.8466666666666667
 74
     0
  0
ENDTAB
  0
TABLE
  2
LAYER
  5
2
330
0
100
AcDbSymbolTable
 70
     7
  0
LAYER
  5
10
330
2
100
AcDbSymbolTableRecord
100
AcDbLayerTableRecord
  2
0
 70
     0
 62
     7
  6
Continuous
370
    -3
390
F
  0
LAYER
  5
3F
330
2
100
AcDbSymbolTableRecord
100
AcDbLayerTableRecord
  2
0-2
 70
     0
 62
     7
  6
Continuous
370
    -3
390
F
  0
LAYER
  5
40
330
2
100
AcDbSymbolTableRecord
100
AcDbLayerTableRecord
  2
0-1
 70
     0
 62
     7
  6
Continuous
370
    -3
390
F
  0
LAYER
  5
41
330
2
100
AcDbSymbolTableRecord
100
AcDbLayerTableRecord
  2
0-4
 70
     0
 62
     7
  6
Continuous
370
    -3
390
F
  0
LAYER
  5
42
330
2
100
AcDbSymbolTableRecord
100
AcDbLayerTableRecord
  2
0-e
 70
     0
 62
     7
  6
Continuous
370
    -3
390
F
  0
LAYER
  5
43
330
2
100
AcDbSymbolTableRecord
100
AcDbLayerTableRecord
  2
f-4
 70
     0
 62
     7
  6
Continuous
370
    -3
390
F
  0
LAYER
  5
44
330
2
100
AcDbSymbolTableRecord
100
AcDbLayerTableRecord
  2
f-0
 70
     0
 62
     7
  6
Continuous
370
    -3
390
F
  0
ENDTAB
  0
TABLE
  2
STYLE
  5
3
330
0
100
AcDbSymbolTable
 70
     3
  0
STYLE
  5
11
330
3
100
AcDbSymbolTableRecord
100
AcDbTextStyleTableRecord
  2
Standard
 70
     0
 40
0.0
 41
1.0
 50
0.0
 71
     0
 42
2.5
  3
txt
  4

1001
ACAD
1000

1071
        0
  0
STYLE
  5
3B
330
3
100
AcDbSymbolTableRecord
100
AcDbTextStyleTableRecord
  2
ＭＳ ゴシック
 70
     0
 40
1.0
 41
1.0
 50
0.0
 71
     0
 42
10.0
  3

  4

1001
ACAD
1000
MS Gothic
1071
    32817
  0
STYLE
  5
3C
330
3
100
AcDbSymbolTableRecord
100
AcDbTextStyleTableRecord
  2
ＤＦＰ平成丸ゴシック体W4
 70
     0
 40
1.0
 41
1.0
 50
0.0
 71
     0
 42
10.0
  3

  4

1001
ACAD
1000
ＤＦＰ平成丸ゴシック体W4
1071
        0
  0
ENDTAB
  0
TABLE
  2
VIEW
  5
6
330
0
100
AcDbSymbolTable
 70
     0
  0
ENDTAB
  0
TABLE
  2
UCS
  5
7
330
0
100
AcDbSymbolTable
 70
     0
  0
ENDTAB
  0
TABLE
  2
APPID
  5
9
330
0
100
AcDbSymbolTable
 70
     1
  0
APPID
  5
12
330
9
100
AcDbSymbolTableRecord
100
AcDbRegAppTableRecord
  2
ACAD
 70
     0
  0
ENDTAB
  0
TABLE
  2
DIMSTYLE
  5
A
330
0
100
AcDbSymbolTable
 70
     1
100
AcDbDimStyleTable
  0
DIMSTYLE
105
27
330
A
100
AcDbSymbolTableRecord
100
AcDbDimStyleTableRecord
  2
ISO-25
 70
     0
 41
2.5
 42
0.625
 43
3.75
 44
1.25
 73
     0
 74
     0
 77
     1
 78
     8
140
2.5
141
2.5
143
0.03937007874016
147
0.625
171
     3
172
     1
271
     2
272
     2
274
     3
278
    44
283
     0
284
     8
340
11
  0
ENDTAB
  0
TABLE
  2
BLOCK_RECORD
  5
1
330
0
100
AcDbSymbolTable
 70
     1
  0
BLOCK_RECORD
  5
1F
330
1
100
AcDbSymbolTableRecord
100
AcDbBlockTableRecord
  2
*Model_Space
340
22
  0
BLOCK_RECORD
  5
1B
330
1
100
AcDbSymbolTableRecord
100
AcDbBlockTableRecord
  2
*Paper_Space
340
1E
  0
BLOCK_RECORD
  5
23
330
1
100
AcDbSymbolTableRecord
100
AcDbBlockTableRecord
  2
*Paper_Space0
340
26
  0
ENDTAB
  0
ENDSEC
  0
SECTION
  2
BLOCKS
  0
BLOCK
  5
20
330
1F
100
AcDbEntity
  8
0
100
AcDbBlockBegin
  2
*Model_Space
 70
     0
 10
0.0
 20
0.0
 30
0.0
  3
*Model_Space
  1

  0
ENDBLK
  5
21
330
1F
100
AcDbEntity
  8
0
100
AcDbBlockEnd
  0
BLOCK
  5
1C
330
1B
100
AcDbEntity
 67
     1
  8
0
100
AcDbBlockBegin
  2
*Paper_Space
 70
     0
 10
0.0
 20
0.0
 30
0.0
  3
*Paper_Space
  1

  0
ENDBLK
  5
1D
330
1B
100
AcDbEntity
 67
     1
  8
0
100
AcDbBlockEnd
  0
BLOCK
  5
24
330
23
100
AcDbEntity
  8
0
100
AcDbBlockBegin
  2
*Paper_Space0
 70
     0
 10
0.0
 20
0.0
 30
0.0
  3
*Paper_Space0
  1

  0
ENDBLK
  5
25
330
23
100
AcDbEntity
  8
0
100
AcDbBlockEnd
  0
ENDSEC
  0
SECTION
  2
ENTITIES
  0
LINE
  5
45
330
1F
100
AcDbEntity
  8
0-2
  6
Continuous
 62
     3
370
    13
100
AcDbLine
 10
-141.8461336150943
 20
234.1575512722937
 30
0.0
 11
-141.8461336150943
 21
136.1575001347304
 31
0.0
  0
LINE
  5
46
330
1F
100
AcDbEntity
  8
0-2
  6
Continuous
 62
     3
370
    13
100
AcDbLine
 10
-141.8461336150943
 20
136.1575001347304
 30
0.0
 11
-97.84618640225655
 21
136.1575001347304
 31
0.0
  0
LINE
  5
47
330
1F
100
AcDbEntity
  8
0-2
  6
Continuous
 62
     3
370
    13
100
AcDbLine
 10
-97.84618640225655
 20
136.1575001347304
 30
0.0
 11
-97.84618640225655
 21
234.1575512722937
 31
0.0
  0
LINE
  5
48
330
1F
100
AcDbEntity
  8
0-2
  6
Continuous
 62
     3
370
    13
100
AcDbLine
 10
-97.84618640225655
 20
234.1575512722937
 30
0.0
 11
-141.8461336150943
 21
234.1575512722937
 31
0.0
  0
LINE
  5
49
330
1F
100
AcDbEntity
  8
0-2
  6
Continuous
 62
     3
370
    13
100
AcDbLine
 10
-145.8461962998495
 20
250.1498591930074
 30
0.0
 11
-145.8461962998495
 21
238.157539725102
 31
0.0
  0
LINE
  5
4A
330
1F
100
AcDbEntity
  8
0-2
  6
Continuous
 62
     3
370
    13
100
AcDbLine
 10
-145.8461962998495
 20
238.157539725102
 30
0.0
 11
-157.8462358902211
 21
238.157539725102
 31
0.0
  0
LINE
  5
4B
330
1F
100
AcDbEntity
  8
0-2
  6
Continuous
 62
     3
370
    13
100
AcDbLine
 10
-157.8462358902211
 20
238.157539725102
 30
0.0
 11
-157.8462358902211
 21
243.9452561524668
 31
0.0
  0
LINE
  5
4C
330
1F
100
AcDbEntity
  8
0-2
  6
Continuous
 62
     3
370
    13
100
AcDbLine
 10
-157.8462358902211
 20
234.1575512722937
 30
0.0
 11
-157.8462358902211
 21
204.157489412338
 31
0.0
  0
LINE
  5
4D
330
1F
100
AcDbEntity
  8
0-2
  6
Continuous
 62
     3
370
    13
100
AcDbLine
 10
-157.8462358902211
 20
204.157489412338
 30
0.0
 11
-145.8461962998495
 21
204.157489412338
 31
0.0
  0
LINE
  5
4E
330
1F
100
AcDbEntity
  8
0-2
  6
Continuous
 62
     3
370
    13
100
AcDbLine
 10
-145.8461962998495
 20
204.157489412338
 30
0.0
 11
-145.8461962998495
 21
234.1575512722937
 31
0.0
  0
LINE
  5
4F
330
1F
100
AcDbEntity
  8
0-2
  6
Continuous
 62
     3
370
    13
100
AcDbLine
 10
-145.8461962998495
 20
234.1575512722937
 30
0.0
 11
-157.8462358902211
 21
234.1575512722937
 31
0.0
  0
LINE
  5
50
330
1F
100
AcDbEntity
  8
0-2
  6
Continuous
 62
     3
370
    13
100
AcDbLine
 10
-157.8462358902211
 20
200.1575380755032
 30
0.0
 11
-157.8462358902211
 21
170.1574762155474
 31
0.0
  0
LINE
  5
51
330
1F
100
AcDbEntity
  8
0-2
  6
Continuous
 62
     3
370
    13
100
AcDbLine
 10
-157.8462358902211
 20
170.1574762155474
 30
0.0
 11
-145.8461962998495
 21
170.1574762155474
 31
0.0
  0
LINE
  5
52
330
1F
100
AcDbEntity
  8
0-2
  6
Continuous
 62
     3
370
    13
100
AcDbLine
 10
-145.8461962998495
 20
170.1574762155474
 30
0.0
 11
-145.8461962998495
 21
200.1575380755032
 31
0.0
  0
LINE
  5
53
330
1F
100
AcDbEntity
  8
0-2
  6
Continuous
 62
     3
370
    13
100
AcDbLine
 10
-145.8461962998495
 20
200.1575380755032
 30
0.0
 11
-157.8462358902211
 21
200.1575380755032
 31
0.0
  0
LINE
  5
54
330
1F
100
AcDbEntity
  8
0-2
  6
Continuous
 62
     3
370
    13
100
AcDbLine
 10
-157.8462358902211
 20
166.1574877627392
 30
0.0
 11
-157.8462358902211
 21
136.1575001347304
 31
0.0
  0
LINE
  5
55
330
1F
100
AcDbEntity
  8
0-2
  6
Continuous
 62
     3
370
    13
100
AcDbLine
 10
-157.8462358902211
 20
136.1575001347304
 30
0.0
 11
-145.8461962998495
 21
136.1575001347304
 31
0.0
  0
LINE
  5
56
330
1F
100
AcDbEntity
  8
0-2
  6
Continuous
 62
     3
370
    13
100
AcDbLine
 10
-145.8461962998495
 20
136.1575001347304
 30
0.0
 11
-145.8461962998495
 21
166.1574877627392
 31
0.0
  0
LINE
  5
57
330
1F
100
AcDbEntity
  8
0-2
  6
Continuous
 62
     3
370
    13
100
AcDbLine
 10
-145.8461962998495
 20
166.1574877627392
 30
0.0
 11
-157.8462358902211
 21
166.1574877627392
 31
0.0
  0
LINE
  5
58
330
1F
100
AcDbEntity
  8
0-2
  6
Continuous
 62
     3
370
    13
100
AcDbLine
 10
-157.8462358902211
 20
132.1575487978954
 30
0.0
 11
-157.8462358902211
 21
126.3697581385838
 31
0.0
  0
LINE
  5
59
330
1F
100
AcDbEntity
  8
0-2
  6
Continuous
 62
     3
370
    13
100
AcDbLine
 10
-157.8462358902211
 20
132.1575487978954
 30
0.0
 11
-145.8461962998495
 21
132.1575487978954
 31
0.0
  0
LINE
  5
5A
330
1F
100
AcDbEntity
  8
0-2
  6
Continuous
 62
     3
370
    13
100
AcDbLine
 10
-145.8461962998495
 20
132.1575487978954
 30
0.0
 11
-145.8461962998495
 21
120.16522932999
 31
0.0
  0
LINE
  5
5B
330
1F
100
AcDbEntity
  8
0-2
  6
Continuous
 62
     3
370
    13
100
AcDbLine
 10
-173.8461897014542
 20
188.1575356011049
 30
0.0
 11
-173.8461897014542
 21
182.1575529218925
 31
0.0
  0
LINE
  5
5C
330
1F
100
AcDbEntity
  8
0-2
  6
Continuous
 62
     3
370
    13
100
AcDbLine
 10
-173.8461897014542
 20
182.1575529218925
 30
0.0
 11
-161.8461501110826
 21
182.1575529218925
 31
0.0
  0
LINE
  5
5D
330
1F
100
AcDbEntity
  8
0-2
  6
Continuous
 62
     3
370
    13
100
AcDbLine
 10
-161.8461501110826
 20
182.1575529218925
 30
0.0
 11
-161.8461501110826
 21
188.1575356011049
 31
0.0
  0
LINE
  5
5E
330
1F
100
AcDbEntity
  8
0-2
  6
Continuous
 62
     3
370
    13
100
AcDbLine
 10
-161.8461501110826
 20
188.1575356011049
 30
0.0
 11
-173.8461897014542
 21
188.1575356011049
 31
0.0
  0
LINE
  5
5F
330
1F
100
AcDbEntity
  8
0-2
  6
Continuous
 62
     3
370
    13
100
AcDbLine
 10
-173.8461897014542
 20
191.1575454986979
 30
0.0
 11
-161.8461501110826
 21
191.1575454986979
 31
0.0
  0
LINE
  5
60
330
1F
100
AcDbEntity
  8
0-2
  6
Continuous
 62
     3
370
    13
100
AcDbLine
 10
-161.8461501110826
 20
191.1575454986979
 30
0.0
 11
-161.8461501110826
 21
213.1575562210901
 31
0.0
  0
LINE
  5
61
330
1F
100
AcDbEntity
  8
0-2
  6
Continuous
 62
     3
370
    13
100
AcDbLine
 10
-161.8461501110826
 20
213.1575562210901
 30
0.0
 11
-173.8461897014542
 21
213.1575562210901
 31
0.0
  0
LINE
  5
62
330
1F
100
AcDbEntity
  8
0-2
  6
Continuous
 62
     3
370
    13
100
AcDbLine
 10
-173.8461897014542
 20
213.1575562210901
 30
0.0
 11
-173.8461897014542
 21
191.1575454986979
 31
0.0
  0
LINE
  5
63
330
1F
100
AcDbEntity
  8
0-2
  6
Continuous
 62
     3
370
    13
100
AcDbLine
 10
-173.8461897014542
 20
222.1575116819221
 30
0.0
 11
-173.8461897014542
 21
216.1575661186831
 31
0.0
  0
LINE
  5
64
330
1F
100
AcDbEntity
  8
0-2
  6
Continuous
 62
     3
370
    13
100
AcDbLine
 10
-173.8461897014542
 20
216.1575661186831
 30
0.0
 11
-161.8461501110826
 21
216.1575661186831
 31
0.0
  0
LINE
  5
65
330
1F
100
AcDbEntity
  8
0-2
  6
Continuous
 62
     3
370
    13
100
AcDbLine
 10
-161.8461501110826
 20
216.1575661186831
 30
0.0
 11
-161.8461501110826
 21
222.1575116819221
 31
0.0
  0
LINE
  5
66
330
1F
100
AcDbEntity
  8
0-2
  6
Continuous
 62
     3
370
    13
100
AcDbLine
 10
-161.8461501110826
 20
222.1575116819221
 30
0.0
 11
-173.8461897014542
 21
222.1575116819221
 31
0.0
  0
LINE
  5
67
330
1F
100
AcDbEntity
  8
0-2
  6
Continuous
 62
     3
370
    13
100
AcDbLine
 10
-173.8461897014542
 20
229.6997001716813
 30
0.0
 11
-173.8461897014542
 21
225.1575215795149
 31
0.0
  0
LINE
  5
68
330
1F
100
AcDbEntity
  8
0-2
  6
Continuous
 62
     3
370
    13
100
AcDbLine
 10
-173.8461897014542
 20
225.1575215795149
 30
0.0
 11
-161.8461501110826
 21
225.1575215795149
 31
0.0
  0
LINE
  5
69
330
1F
100
AcDbEntity
  8
0-2
  6
Continuous
 62
     3
370
    13
100
AcDbLine
 10
-161.8461501110826
 20
225.1575215795149
 30
0.0
 11
-161.8461501110826
 21
241.1575496226949
 31
0.0
  0
LINE
  5
6A
330
1F
100
AcDbEntity
  8
0-2
  6
Continuous
 62
     3
370
    13
100
AcDbLine
 10
-173.8461897014542
 20
179.1575430242996
 30
0.0
 11
-173.8461897014542
 21
157.1575323019073
 31
0.0
  0
LINE
  5
6B
330
1F
100
AcDbEntity
  8
0-2
  6
Continuous
 62
     3
370
    13
100
AcDbLine
 10
-173.8461897014542
 20
157.1575323019073
 30
0.0
 11
-161.8461501110826
 21
157.1575323019073
 31
0.0
  0
LINE
  5
6C
330
1F
100
AcDbEntity
  8
0-2
  6
Continuous
 62
     3
370
    13
100
AcDbLine
 10
-161.8461501110826
 20
157.1575323019073
 30
0.0
 11
-161.8461501110826
 21
179.1575430242996
 31
0.0
  0
LINE
  5
6D
330
1F
100
AcDbEntity
  8
0-2
  6
Continuous
 62
     3
370
    13
100
AcDbLine
 10
-161.8461501110826
 20
179.1575430242996
 30
0.0
 11
-173.8461897014542
 21
179.1575430242996
 31
0.0
  0
LINE
  5
6E
330
1F
100
AcDbEntity
  8
0-2
  6
Continuous
 62
     3
370
    13
100
AcDbLine
 10
-173.8461897014542
 20
154.1575595202877
 30
0.0
 11
-173.8461897014542
 21
148.157539725102
 31
0.0
  0
LINE
  5
6F
330
1F
100
AcDbEntity
  8
0-2
  6
Continuous
 62
     3
370
    13
100
AcDbLine
 10
-173.8461897014542
 20
148.157539725102
 30
0.0
 11
-161.8461501110826
 21
148.157539725102
 31
0.0
  0
LINE
  5
70
330
1F
100
AcDbEntity
  8
0-2
  6
Continuous
 62
     3
370
    13
100
AcDbLine
 10
-161.8461501110826
 20
148.157539725102
 30
0.0
 11
-161.8461501110826
 21
154.1575595202877
 31
0.0
  0
LINE
  5
71
330
1F
100
AcDbEntity
  8
0-2
  6
Continuous
 62
     3
370
    13
100
AcDbLine
 10
-161.8461501110826
 20
154.1575595202877
 30
0.0
 11
-173.8461897014542
 21
154.1575595202877
 31
0.0
  0
LINE
  5
72
330
1F
100
AcDbEntity
  8
0-2
  6
Continuous
 62
     3
370
    13
100
AcDbLine
 10
-173.8461897014542
 20
145.157529827509
 30
0.0
 11
-173.8461897014542
 21
140.6154254672895
 31
0.0
  0
LINE
  5
73
330
1F
100
AcDbEntity
  8
0-2
  6
Continuous
 62
     3
370
    13
100
AcDbLine
 10
-173.8461897014542
 20
145.157529827509
 30
0.0
 11
-161.8461501110826
 21
145.157529827509
 31
0.0
  0
LINE
  5
74
330
1F
100
AcDbEntity
  8
0-2
  6
Continuous
 62
     3
370
    13
100
AcDbLine
 10
-161.8461501110826
 20
145.157529827509
 30
0.0
 11
-161.8461501110826
 21
129.1575389003025
 31
0.0
  0
LINE
  5
75
330
1F
100
AcDbEntity
  8
0-2
  6
Continuous
 62
     3
370
    13
100
AcDbLine
 10
-177.8462523862093
 20
224.3493583748063
 30
0.0
 11
-177.8462523862093
 21
204.157489412338
 31
0.0
  0
LINE
  5
76
330
1F
100
AcDbEntity
  8
0-2
  6
Continuous
 62
     3
370
    13
100
AcDbLine
 10
-177.8462523862093
 20
204.157489412338
 30
0.0
 11
-187.2183325963022
 21
204.157489412338
 31
0.0
  0
LINE
  5
77
330
1F
100
AcDbEntity
  8
0-2
  6
Continuous
 62
     3
370
    13
100
AcDbLine
 10
-188.2201669501873
 20
200.1575380755032
 30
0.0
 11
-177.8462523862093
 21
200.1575380755032
 31
0.0
  0
LINE
  5
78
330
1F
100
AcDbEntity
  8
0-2
  6
Continuous
 62
     3
370
    13
100
AcDbLine
 10
-177.8462523862093
 20
200.1575380755032
 30
0.0
 11
-177.8462523862093
 21
170.1574762155474
 31
0.0
  0
LINE
  5
79
330
1F
100
AcDbEntity
  8
0-2
  6
Continuous
 62
     3
370
    13
100
AcDbLine
 10
-187.2183325963022
 20
166.1574877627392
 30
0.0
 11
-177.8462523862093
 21
166.1574877627392
 31
0.0
  0
LINE
  5
7A
330
1F
100
AcDbEntity
  8
0-2
  6
Continuous
 62
     3
370
    13
100
AcDbLine
 10
-177.8462523862093
 20
166.1574877627392
 30
0.0
 11
-177.8462523862093
 21
145.9657672641645
 31
0.0
  0
LINE
  5
7B
330
1F
100
AcDbEntity
  8
0-2
  6
Continuous
 62
     3
370
    13
100
AcDbLine
 10
-93.84619794944827
 20
250.1498591930074
 30
0.0
 11
-93.84619794944827
 21
238.157539725102
 31
0.0
  0
LINE
  5
7C
330
1F
100
AcDbEntity
  8
0-2
  6
Continuous
 62
     3
370
    13
100
AcDbLine
 10
-93.84619794944827
 20
238.157539725102
 30
0.0
 11
-81.84619547505007
 21
238.157539725102
 31
0.0
  0
LINE
  5
7D
330
1F
100
AcDbEntity
  8
0-2
  6
Continuous
 62
     3
370
    13
100
AcDbLine
 10
-81.84619547505007
 20
238.157539725102
 30
0.0
 11
-81.84619547505007
 21
243.9452561524668
 31
0.0
  0
LINE
  5
7E
330
1F
100
AcDbEntity
  8
0-2
  6
Continuous
 62
     3
370
    13
100
AcDbLine
 10
-81.84619547505007
 20
234.1575512722937
 30
0.0
 11
-81.84619547505007
 21
204.157489412338
 31
0.0
  0
LINE
  5
7F
330
1F
100
AcDbEntity
  8
0-2
  6
Continuous
 62
     3
370
    13
100
AcDbLine
 10
-81.84619547505007
 20
204.157489412338
 30
0.0
 11
-93.84619794944827
 21
204.157489412338
 31
0.0
  0
LINE
  5
80
330
1F
100
AcDbEntity
  8
0-2
  6
Continuous
 62
     3
370
    13
100
AcDbLine
 10
-93.84619794944827
 20
204.157489412338
 30
0.0
 11
-93.84619794944827
 21
234.1575512722937
 31
0.0
  0
LINE
  5
81
330
1F
100
AcDbEntity
  8
0-2
  6
Continuous
 62
     3
370
    13
100
AcDbLine
 10
-93.84619794944827
 20
234.1575512722937
 30
0.0
 11
-81.84619547505007
 21
234.1575512722937
 31
0.0
  0
LINE
  5
82
330
1F
100
AcDbEntity
  8
0-2
  6
Continuous
 62
     3
370
    13
100
AcDbLine
 10
-81.84619547505007
 20
170.1574762155474
 30
0.0
 11
-93.84619794944827
 21
170.1574762155474
 31
0.0
  0
LINE
  5
83
330
1F
100
AcDbEntity
  8
0-2
  6
Continuous
 62
     3
370
    13
100
AcDbLine
 10
-93.84619794944827
 20
170.1574762155474
 30
0.0
 11
-93.84619794944827
 21
200.1575380755032
 31
0.0
  0
LINE
  5
84
330
1F
100
AcDbEntity
  8
0-2
  6
Continuous
 62
     3
370
    13
100
AcDbLine
 10
-93.84619794944827
 20
200.1575380755032
 30
0.0
 11
-81.84619547505007
 21
200.1575380755032
 31
0.0
  0
LINE
  5
85
330
1F
100
AcDbEntity
  8
0-2
  6
Continuous
 62
     3
370
    13
100
AcDbLine
 10
-81.84619547505007
 20
166.1574877627392
 30
0.0
 11
-81.84619547505007
 21
136.1575001347304
 31
0.0
  0
LINE
  5
86
330
1F
100
AcDbEntity
  8
0-2
  6
Continuous
 62
     3
370
    13
100
AcDbLine
 10
-81.84619547505007
 20
136.1575001347304
 30
0.0
 11
-93.84619794944827
 21
136.1575001347304
 31
0.0
  0
LINE
  5
87
330
1F
100
AcDbEntity
  8
0-2
  6
Continuous
 62
     3
370
    13
100
AcDbLine
 10
-93.84619794944827
 20
136.1575001347304
 30
0.0
 11
-93.84619794944827
 21
166.1574877627392
 31
0.0
  0
LINE
  5
88
330
1F
100
AcDbEntity
  8
0-2
  6
Continuous
 62
     3
370
    13
100
AcDbLine
 10
-93.84619794944827
 20
166.1574877627392
 30
0.0
 11
-81.84619547505007
 21
166.1574877627392
 31
0.0
  0
LINE
  5
89
330
1F
100
AcDbEntity
  8
0-2
  6
Continuous
 62
     3
370
    13
100
AcDbLine
 10
-81.84619547505007
 20
132.1575487978954
 30
0.0
 11
-81.84619547505007
 21
126.3697581385838
 31
0.0
  0
LINE
  5
8A
330
1F
100
AcDbEntity
  8
0-2
  6
Continuous
 62
     3
370
    13
100
AcDbLine
 10
-81.84619547505007
 20
132.1575487978954
 30
0.0
 11
-93.84619794944827
 21
132.1575487978954
 31
0.0
  0
LINE
  5
8B
330
1F
100
AcDbEntity
  8
0-2
  6
Continuous
 62
     3
370
    13
100
AcDbLine
 10
-93.84619794944827
 20
132.1575487978954
 30
0.0
 11
-93.84619794944827
 21
120.16522932999
 31
0.0
  0
LINE
  5
8C
330
1F
100
AcDbEntity
  8
0-2
  6
Continuous
 62
     3
370
    13
100
AcDbLine
 10
-77.84616990626834
 20
213.1575562210901
 30
0.0
 11
-65.84620454784358
 21
213.1575562210901
 31
0.0
  0
LINE
  5
8D
330
1F
100
AcDbEntity
  8
0-2
  6
Continuous
 62
     3
370
    13
100
AcDbLine
 10
-65.84620454784358
 20
222.1575116819221
 30
0.0
 11
-65.84620454784358
 21
216.1575661186831
 31
0.0
  0
LINE
  5
8E
330
1F
100
AcDbEntity
  8
0-2
  6
Continuous
 62
     3
370
    13
100
AcDbLine
 10
-65.84620454784358
 20
216.1575661186831
 30
0.0
 11
-77.84616990626834
 21
216.1575661186831
 31
0.0
  0
LINE
  5
8F
330
1F
100
AcDbEntity
  8
0-2
  6
Continuous
 62
     3
370
    13
100
AcDbLine
 10
-77.84616990626834
 20
216.1575661186831
 30
0.0
 11
-77.84616990626834
 21
222.1575116819221
 31
0.0
  0
LINE
  5
90
330
1F
100
AcDbEntity
  8
0-2
  6
Continuous
 62
     3
370
    13
100
AcDbLine
 10
-77.84616990626834
 20
222.1575116819221
 30
0.0
 11
-65.84620454784358
 21
222.1575116819221
 31
0.0
  0
LINE
  5
91
330
1F
100
AcDbEntity
  8
0-2
  6
Continuous
 62
     3
370
    13
100
AcDbLine
 10
-65.84620454784358
 20
229.6997001716813
 30
0.0
 11
-65.84620454784358
 21
225.1575215795149
 31
0.0
  0
LINE
  5
92
330
1F
100
AcDbEntity
  8
0-2
  6
Continuous
 62
     3
370
    13
100
AcDbLine
 10
-65.84620454784358
 20
225.1575215795149
 30
0.0
 11
-77.84616990626834
 21
225.1575215795149
 31
0.0
  0
LINE
  5
93
330
1F
100
AcDbEntity
  8
0-2
  6
Continuous
 62
     3
370
    13
100
AcDbLine
 10
-77.84616990626834
 20
225.1575215795149
 30
0.0
 11
-77.84616990626834
 21
241.1575496226949
 31
0.0
  0
LINE
  5
94
330
1F
100
AcDbEntity
  8
0-2
  6
Continuous
 62
     3
370
    13
100
AcDbLine
 10
-65.84620454784358
 20
157.1575323019073
 30
0.0
 11
-77.84616990626834
 21
157.1575323019073
 31
0.0
  0
LINE
  5
95
330
1F
100
AcDbEntity
  8
0-2
  6
Continuous
 62
     3
370
    13
100
AcDbLine
 10
-65.84620454784358
 20
154.1575595202877
 30
0.0
 11
-65.84620454784358
 21
148.157539725102
 31
0.0
  0
LINE
  5
96
330
1F
100
AcDbEntity
  8
0-2
  6
Continuous
 62
     3
370
    13
100
AcDbLine
 10
-65.84620454784358
 20
148.157539725102
 30
0.0
 11
-77.84616990626834
 21
148.157539725102
 31
0.0
  0
LINE
  5
97
330
1F
100
AcDbEntity
  8
0-2
  6
Continuous
 62
     3
370
    13
100
AcDbLine
 10
-77.84616990626834
 20
148.157539725102
 30
0.0
 11
-77.84616990626834
 21
154.1575595202877
 31
0.0
  0
LINE
  5
98
330
1F
100
AcDbEntity
  8
0-2
  6
Continuous
 62
     3
370
    13
100
AcDbLine
 10
-77.84616990626834
 20
154.1575595202877
 30
0.0
 11
-65.84620454784358
 21
154.1575595202877
 31
0.0
  0
LINE
  5
99
330
1F
100
AcDbEntity
  8
0-2
  6
Continuous
 62
     3
370
    13
100
AcDbLine
 10
-65.84620454784358
 20
145.157529827509
 30
0.0
 11
-65.84620454784358
 21
140.6154254672895
 31
0.0
  0
LINE
  5
9A
330
1F
100
AcDbEntity
  8
0-2
  6
Continuous
 62
     3
370
    13
100
AcDbLine
 10
-65.84620454784358
 20
145.157529827509
 30
0.0
 11
-77.84616990626834
 21
145.157529827509
 31
0.0
  0
LINE
  5
9B
330
1F
100
AcDbEntity
  8
0-2
  6
Continuous
 62
     3
370
    13
100
AcDbLine
 10
-77.84616990626834
 20
145.157529827509
 30
0.0
 11
-77.84616990626834
 21
129.1575389003025
 31
0.0
  0
LINE
  5
9C
330
1F
100
AcDbEntity
  8
0-2
  6
Continuous
 62
     3
370
    13
100
AcDbLine
 10
-61.84625321100866
 20
224.3493583748063
 30
0.0
 11
-61.84625321100866
 21
204.157489412338
 31
0.0
  0
LINE
  5
9D
330
1F
100
AcDbEntity
  8
0-2
  6
Continuous
 62
     3
370
    13
100
AcDbLine
 10
-61.84625321100866
 20
204.157489412338
 30
0.0
 11
-52.47398742104882
 21
204.157489412338
 31
0.0
  0
LINE
  5
9E
330
1F
100
AcDbEntity
  8
0-2
  6
Continuous
 62
     3
370
    13
100
AcDbLine
 10
-51.47215306716366
 20
200.1575380755032
 30
0.0
 11
-61.84625321100866
 21
200.1575380755032
 31
0.0
  0
LINE
  5
9F
330
1F
100
AcDbEntity
  8
0-2
  6
Continuous
 62
     3
370
    13
100
AcDbLine
 10
-52.47398742104882
 20
166.1574877627392
 30
0.0
 11
-61.84625321100866
 21
166.1574877627392
 31
0.0
  0
LINE
  5
A0
330
1F
100
AcDbEntity
  8
0-2
  6
Continuous
 62
     3
370
    13
100
AcDbLine
 10
-61.84625321100866
 20
166.1574877627392
 30
0.0
 11
-61.84625321100866
 21
145.9657672641645
 31
0.0
  0
LINE
  5
A1
330
1F
100
AcDbEntity
  8
0-2
  6
Continuous
 62
     3
370
    13
100
AcDbLine
 10
-125.8461055719145
 20
254.8998872361873
 30
0.0
 11
-125.8461055719145
 21
238.157539725102
 31
0.0
  0
LINE
  5
A2
330
1F
100
AcDbEntity
  8
0-2
  6
Continuous
 62
     3
370
    13
100
AcDbLine
 10
-125.8461055719145
 20
238.157539725102
 30
0.0
 11
-113.8461402134897
 21
238.157539725102
 31
0.0
  0
LINE
  5
A3
330
1F
100
AcDbEntity
  8
0-2
  6
Continuous
 62
     3
370
    13
100
AcDbLine
 10
-113.8461402134897
 20
238.157539725102
 30
0.0
 11
-113.8461402134897
 21
254.8998872361873
 31
0.0
  0
LINE
  5
A4
330
1F
100
AcDbEntity
  8
0-2
  6
Continuous
 62
     3
370
    13
100
AcDbLine
 10
-125.8461055719145
 20
132.1575487978954
 30
0.0
 11
-125.8461055719145
 21
115.4151641708367
 31
0.0
  0
LINE
  5
A5
330
1F
100
AcDbEntity
  8
0-2
  6
Continuous
 62
     3
370
    13
100
AcDbLine
 10
-125.8461055719145
 20
132.1575487978954
 30
0.0
 11
-113.8461402134897
 21
132.1575487978954
 31
0.0
  0
LINE
  5
A6
330
1F
100
AcDbEntity
  8
0-2
  6
Continuous
 62
     3
370
    13
100
AcDbLine
 10
-113.8461402134897
 20
132.1575487978954
 30
0.0
 11
-113.8461402134897
 21
115.4151641708367
 31
0.0
  0
LINE
  5
A7
330
1F
100
AcDbEntity
  8
0-2
  6
Continuous
 62
     3
370
    13
100
AcDbLine
 10
-141.8461336150943
 20
132.1575487978954
 30
0.0
 11
-141.8461336150943
 21
123.1575562210901
 31
0.0
  0
LINE
  5
A8
330
1F
100
AcDbEntity
  8
0-2
  6
Continuous
 62
     3
370
    13
100
AcDbLine
 10
-141.8461336150943
 20
123.1575562210901
 30
0.0
 11
-129.8461682566696
 21
123.1575562210901
 31
0.0
  0
LINE
  5
A9
330
1F
100
AcDbEntity
  8
0-2
  6
Continuous
 62
     3
370
    13
100
AcDbLine
 10
-129.8461682566696
 20
123.1575562210901
 30
0.0
 11
-129.8461682566696
 21
132.1575487978954
 31
0.0
  0
LINE
  5
AA
330
1F
100
AcDbEntity
  8
0-2
  6
Continuous
 62
     3
370
    13
100
AcDbLine
 10
-129.8461682566696
 20
132.1575487978954
 30
0.0
 11
-141.8461336150943
 21
132.1575487978954
 31
0.0
  0
LINE
  5
AB
330
1F
100
AcDbEntity
  8
0-2
  6
Continuous
 62
     3
370
    13
100
AcDbLine
 10
-141.8461336150943
 20
118.7045301970192
 30
0.0
 11
-141.8461336150943
 21
120.1575463234972
 31
0.0
  0
LINE
  5
AC
330
1F
100
AcDbEntity
  8
0-2
  6
Continuous
 62
     3
370
    13
100
AcDbLine
 10
-141.8461336150943
 20
120.1575463234972
 30
0.0
 11
-129.8461682566696
 21
120.1575463234972
 31
0.0
  0
LINE
  5
AD
330
1F
100
AcDbEntity
  8
0-2
  6
Continuous
 62
     3
370
    13
100
AcDbLine
 10
-129.8461682566696
 20
120.1575463234972
 30
0.0
 11
-129.8461682566696
 21
115.8755135888583
 31
0.0
  0
LINE
  5
AE
330
1F
100
AcDbEntity
  8
0-2
  6
Continuous
 62
     3
370
    13
100
AcDbLine
 10
-109.8462259926282
 20
115.8755135888583
 30
0.0
 11
-109.8462259926282
 21
120.1575463234972
 31
0.0
  0
LINE
  5
AF
330
1F
100
AcDbEntity
  8
0-2
  6
Continuous
 62
     3
370
    13
100
AcDbLine
 10
-109.8462259926282
 20
120.1575463234972
 30
0.0
 11
-97.84618640225655
 21
120.1575463234972
 31
0.0
  0
LINE
  5
B0
330
1F
100
AcDbEntity
  8
0-2
  6
Continuous
 62
     3
370
    13
100
AcDbLine
 10
-97.84618640225655
 20
120.1575463234972
 30
0.0
 11
-97.84618640225655
 21
118.7045301970192
 31
0.0
  0
LINE
  5
B1
330
1F
100
AcDbEntity
  8
0-2
  6
Continuous
 62
     3
370
    13
100
AcDbLine
 10
-109.8462259926282
 20
132.1575487978954
 30
0.0
 11
-109.8462259926282
 21
123.1575562210901
 31
0.0
  0
LINE
  5
B2
330
1F
100
AcDbEntity
  8
0-2
  6
Continuous
 62
     3
370
    13
100
AcDbLine
 10
-109.8462259926282
 20
123.1575562210901
 30
0.0
 11
-97.84618640225655
 21
123.1575562210901
 31
0.0
  0
LINE
  5
B3
330
1F
100
AcDbEntity
  8
0-2
  6
Continuous
 62
     3
370
    13
100
AcDbLine
 10
-97.84618640225655
 20
123.1575562210901
 30
0.0
 11
-97.84618640225655
 21
132.1575487978954
 31
0.0
  0
LINE
  5
B4
330
1F
100
AcDbEntity
  8
0-2
  6
Continuous
 62
     3
370
    13
100
AcDbLine
 10
-97.84618640225655
 20
132.1575487978954
 30
0.0
 11
-109.8462259926282
 21
132.1575487978954
 31
0.0
  0
LINE
  5
B5
330
1F
100
AcDbEntity
  8
0-2
  6
Continuous
 62
     3
370
    13
100
AcDbLine
 10
-141.8461336150943
 20
238.157539725102
 30
0.0
 11
-141.8461336150943
 21
247.1575694178807
 31
0.0
  0
LINE
  5
B6
330
1F
100
AcDbEntity
  8
0-2
  6
Continuous
 62
     3
370
    13
100
AcDbLine
 10
-141.8461336150943
 20
247.1575694178807
 30
0.0
 11
-129.8461682566696
 21
247.1575694178807
 31
0.0
  0
LINE
  5
B7
330
1F
100
AcDbEntity
  8
0-2
  6
Continuous
 62
     3
370
    13
100
AcDbLine
 10
-129.8461682566696
 20
247.1575694178807
 30
0.0
 11
-129.8461682566696
 21
238.157539725102
 31
0.0
  0
LINE
  5
B8
330
1F
100
AcDbEntity
  8
0-2
  6
Continuous
 62
     3
370
    13
100
AcDbLine
 10
-129.8461682566696
 20
238.157539725102
 30
0.0
 11
-141.8461336150943
 21
238.157539725102
 31
0.0
  0
LINE
  5
B9
330
1F
100
AcDbEntity
  8
0-2
  6
Continuous
 62
     3
370
    13
100
AcDbLine
 10
-141.8461336150943
 20
251.6105212100048
 30
0.0
 11
-141.8461336150943
 21
250.1575793154735
 31
0.0
  0
LINE
  5
BA
330
1F
100
AcDbEntity
  8
0-2
  6
Continuous
 62
     3
370
    13
100
AcDbLine
 10
-141.8461336150943
 20
250.1575793154735
 30
0.0
 11
-129.8461682566696
 21
250.1575793154735
 31
0.0
  0
LINE
  5
BB
330
1F
100
AcDbEntity
  8
0-2
  6
Continuous
 62
     3
370
    13
100
AcDbLine
 10
-129.8461682566696
 20
250.1575793154735
 30
0.0
 11
-129.8461682566696
 21
254.4395749341391
 31
0.0
  0
LINE
  5
BC
330
1F
100
AcDbEntity
  8
0-2
  6
Continuous
 62
     3
370
    13
100
AcDbLine
 10
-109.8462259926282
 20
254.4395749341391
 30
0.0
 11
-109.8462259926282
 21
250.1575793154735
 31
0.0
  0
LINE
  5
BD
330
1F
100
AcDbEntity
  8
0-2
  6
Continuous
 62
     3
370
    13
100
AcDbLine
 10
-109.8462259926282
 20
250.1575793154735
 30
0.0
 11
-97.84618640225655
 21
250.1575793154735
 31
0.0
  0
LINE
  5
BE
330
1F
100
AcDbEntity
  8
0-2
  6
Continuous
 62
     3
370
    13
100
AcDbLine
 10
-97.84618640225655
 20
250.1575793154735
 30
0.0
 11
-97.84618640225655
 21
251.6105212100048
 31
0.0
  0
LINE
  5
BF
330
1F
100
AcDbEntity
  8
0-2
  6
Continuous
 62
     3
370
    13
100
AcDbLine
 10
-109.8462259926282
 20
238.157539725102
 30
0.0
 11
-109.8462259926282
 21
247.1575694178807
 31
0.0
  0
LINE
  5
C0
330
1F
100
AcDbEntity
  8
0-2
  6
Continuous
 62
     3
370
    13
100
AcDbLine
 10
-109.8462259926282
 20
247.1575694178807
 30
0.0
 11
-97.84618640225655
 21
247.1575694178807
 31
0.0
  0
LINE
  5
C1
330
1F
100
AcDbEntity
  8
0-2
  6
Continuous
 62
     3
370
    13
100
AcDbLine
 10
-97.84618640225655
 20
247.1575694178807
 30
0.0
 11
-97.84618640225655
 21
238.157539725102
 31
0.0
  0
LINE
  5
C2
330
1F
100
AcDbEntity
  8
0-2
  6
Continuous
 62
     3
370
    13
100
AcDbLine
 10
-97.84618640225655
 20
238.157539725102
 30
0.0
 11
-109.8462259926282
 21
238.157539725102
 31
0.0
  0
LINE
  5
C3
330
1F
100
AcDbEntity
  8
0-2
  6
Continuous
 62
     3
370
    13
100
AcDbLine
 10
-177.8462523862093
 20
170.1574762155474
 30
0.0
 11
-188.2201669501873
 21
170.1574762155474
 31
0.0
  0
LINE
  5
C4
330
1F
100
AcDbEntity
  8
0-2
  6
Continuous
 62
     3
370
    13
100
AcDbLine
 10
-61.84625321100866
 20
170.1574762155474
 30
0.0
 11
-51.47215306716366
 21
170.1574762155474
 31
0.0
  0
LINE
  5
C5
330
1F
100
AcDbEntity
  8
0-2
  6
Continuous
 62
     3
370
    13
100
AcDbLine
 10
-77.84616990626834
 20
197.8066494366201
 30
0.0
 11
-77.84616990626834
 21
213.1575562210901
 31
0.0
  0
LINE
  5
C6
330
1F
100
AcDbEntity
  8
0-2
  6
Continuous
 62
     3
370
    13
100
AcDbLine
 10
-65.84620454784358
 20
213.1575562210901
 30
0.0
 11
-65.84620454784358
 21
197.8066494366201
 31
0.0
  0
LINE
  5
C7
330
1F
100
AcDbEntity
  8
0-2
  6
Continuous
 62
     3
370
    13
100
AcDbLine
 10
-65.84620454784358
 20
172.5084390863773
 30
0.0
 11
-65.84620454784358
 21
157.1575323019073
 31
0.0
  0
LINE
  5
C8
330
1F
100
AcDbEntity
  8
0-2
  6
Continuous
 62
     3
370
    13
100
AcDbLine
 10
-77.84616990626834
 20
157.1575323019073
 30
0.0
 11
-77.84616990626834
 21
172.5084390863773
 31
0.0
  0
LINE
  5
C9
330
1F
100
AcDbEntity
  8
0-2
  6
Continuous
 62
     3
370
    13
100
AcDbLine
 10
-81.84619547505007
 20
200.1575380755032
 30
0.0
 11
-81.84619547505007
 21
194.9554745923422
 31
0.0
  0
LINE
  5
CA
330
1F
100
AcDbEntity
  8
0-2
  6
Continuous
 62
     3
370
    13
100
AcDbLine
 10
-81.84619547505007
 20
175.3595025827349
 30
0.0
 11
-81.84619547505007
 21
170.1574762155474
 31
0.0
  0
LINE
  5
CB
330
1F
100
AcDbEntity
  8
0-2
  6
Continuous
 62
     3
370
    13
100
AcDbLine
 10
-61.84625321100866
 20
200.1575380755032
 30
0.0
 11
-61.84625321100866
 21
194.9554745923422
 31
0.0
  0
LINE
  5
CC
330
1F
100
AcDbEntity
  8
0-2
  6
Continuous
 62
     3
370
    13
100
AcDbLine
 10
-61.84625321100866
 20
175.3595025827349
 30
0.0
 11
-61.84625321100866
 21
170.1574762155474
 31
0.0
  0
LINE
  5
CD
330
1F
100
AcDbEntity
  8
0-2
  6
JWW_CENTER1
 62
     3
370
    13
100
AcDbLine
 10
-228.8462721813951
 20
207.5188975428807
 30
0.0
 11
-228.8462721813951
 21
162.5057584882988
 31
0.0
  0
LINE
  5
CE
330
1F
100
AcDbEntity
  8
0-2
  6
JWW_CENTER1
 62
     3
370
    13
100
AcDbLine
 10
-71.84618722705592
 20
202.5333315325344
 30
0.0
 11
-71.84618722705592
 21
169.6640935812042
 31
0.0
  0
LINE
  5
CF
330
1F
100
AcDbEntity
  8
0-2
  6
Continuous
 62
     3
370
    13
100
AcDbLine
 10
-34.84612701669912
 20
-78.8424173853288
 30
0.0
 11
-35.84617980386131
 21
-88.8424627492963
 31
0.0
  0
LINE
  5
D0
330
1F
100
AcDbEntity
  8
0-1
  6
Continuous
 62
     2
370
    13
100
AcDbLine
 10
-35.70365446602342
 20
-88.8424627492963
 30
0.0
 11
-76.34490301437647
 21
-88.8424627492963
 31
0.0
  0
LINE
  5
D1
330
1F
100
AcDbEntity
  8
0-2
  6
Continuous
 62
     3
370
    13
100
AcDbLine
 10
-42.84614103828904
 20
-83.10919545490228
 30
0.0
 11
-40.84610969591154
 21
-88.8424627492963
 31
0.0
  0
LINE
  5
D2
330
1F
100
AcDbEntity
  8
0-2
  6
Continuous
 62
     3
370
    13
100
AcDbLine
 10
-57.09277338230304
 20
-79.68884715860794
 30
0.0
 11
-51.34614433748671
 21
-79.85779906950322
 31
0.0
  0
LINE
  5
D3
330
1F
100
AcDbEntity
  8
0-2
  6
JWW_CENTER1
 62
     3
370
    13
100
AcDbLine
 10
-71.84618722705592
 20
-76.52957261917595
 30
0.0
 11
-71.84618722705592
 21
-84.09878153756696
 31
0.0
  0
LINE
  5
D4
330
1F
100
AcDbEntity
  8
0-2
  6
Continuous
 62
     3
370
    13
100
AcDbLine
 10
-117.6162323270876
 20
-83.71032576001208
 30
0.0
 11
-118.3462292918258
 21
-91.25626296308431
 31
0.0
  0
LINE
  5
D5
330
1F
100
AcDbEntity
  8
0-2
  6
Continuous
 62
     3
370
    13
100
AcDbLine
 10
-114.5419904827042
 20
-81.00037719450322
 30
0.0
 11
-42.84614103828904
 21
-83.10919545490228
 31
0.0
  0
LINE
  5
D6
330
1F
100
AcDbEntity
  8
0-2
  6
Continuous
 62
     3
370
    13
100
AcDbLine
 10
-196.8462160950353
 20
-83.10919545490228
 30
0.0
 11
-198.846173205466
 21
-88.8424627492963
 31
0.0
  0
LINE
  5
D7
330
1F
100
AcDbEntity
  8
0-2
  6
Continuous
 62
     3
370
    13
100
AcDbLine
 10
-122.0760876902633
 20
-83.71032576001208
 30
0.0
 11
-121.3461649574719
 21
-91.25626296308431
 31
0.0
  0
LINE
  5
D8
330
1F
100
AcDbEntity
  8
0-2
  6
Continuous
 62
     3
370
    13
100
AcDbLine
 10
-125.1503295346468
 20
-81.00037719450322
 30
0.0
 11
-196.8462160950353
 21
-83.10919545490228
 31
0.0
  0
LINE
  5
D9
330
1F
100
AcDbEntity
  8
0-1
  6
Continuous
 62
     2
370
    13
100
AcDbLine
 10
-44.84624661261342
 20
-118.8424503773052
 30
0.0
 11
-19.84607752873459
 21
-143.8424895552771
 31
0.0
  0
LINE
  5
DA
330
1F
100
AcDbEntity
  8
0-1
  6
Continuous
 62
     2
370
    13
100
AcDbLine
 10
-39.96263818118388
 20
-117.3424454285087
 30
0.0
 11
-18.37658191006904
 21
-138.8424297573199
 31
0.0
  0
LINE
  5
DB
330
1F
100
AcDbEntity
  8
0-1
  6
Continuous
 62
     2
370
    13
100
AcDbLine
 10
-15.34613691429201
 20
-87.84244707810751
 30
0.0
 11
-16.3461897014542
 21
-78.8424173853288
 31
0.0
  0
LINE
  5
DC
330
1F
100
AcDbEntity
  8
0-1
  6
Continuous
 62
     2
370
    13
100
AcDbLine
 10
-16.3461897014542
 20
-78.8424173853288
 30
0.0
 11
-33.34619629984943
 21
-78.8424173853288
 31
0.0
  0
LINE
  5
DD
330
1F
100
AcDbEntity
  8
0-1
  6
Continuous
 62
     2
370
    13
100
AcDbLine
 10
-23.34611381990857
 20
-87.84244707810751
 30
0.0
 11
-15.34613691429201
 21
-87.84244707810751
 31
0.0
  0
LINE
  5
DE
330
1F
100
AcDbEntity
  8
0-1
  6
Continuous
 62
     2
370
    13
100
AcDbLine
 10
-30.14368165141193
 20
-92.04145138026122
 30
0.0
 11
-29.70378313473123
 21
-87.64346834473548
 31
0.0
  0
LINE
  5
DF
330
1F
100
AcDbEntity
  8
0-1
  6
Continuous
 62
     2
370
    13
100
AcDbLine
 10
-38.34942951353185
 20
-95.69381162624943
 30
0.0
 11
-39.96263818118388
 21
-117.3424454285087
 31
0.0
  0
LINE
  5
E0
330
1F
100
AcDbEntity
  8
0-1
  6
Continuous
 62
     2
370
    13
100
AcDbLine
 10
-36.35496556716365
 20
-93.84246687329333
 30
0.0
 11
-32.13372879694615
 21
-93.84246687329333
 31
0.0
  0
LINE
  5
E1
330
1F
100
AcDbEntity
  8
0-1
  6
Continuous
 62
     2
370
    13
100
AcDbLine
 10
-34.21118405982623
 20
-87.4917382454956
 30
0.0
 11
-33.34619629984943
 21
-78.8424173853288
 31
0.0
  0
LINE
  5
E2
330
1F
100
AcDbEntity
  8
0-1
  6
Continuous
 62
     2
370
    13
100
AcDbLine
 10
-23.34611381990857
 20
-87.34249491647321
 30
0.0
 11
-23.34611381990857
 21
-87.84244707810751
 31
0.0
  0
LINE
  5
E3
330
1F
100
AcDbEntity
  8
0-1
  6
Continuous
 62
     2
370
    13
100
AcDbLine
 10
-24.84619300065177
 20
-85.84241573572997
 30
0.0
 11
-27.71381022114381
 21
-85.84241573572997
 31
0.0
  0
LINE
  5
E4
330
1F
100
AcDbEntity
  8
0-2
  6
JWW_CENTER1
 62
     3
370
    13
100
AcDbLine
 10
-119.8461600086755
 20
-66.3424627492963
 30
0.0
 11
-119.8461600086755
 21
-151.2562753350754
 31
0.0
  0
LINE
  5
E5
330
1F
100
AcDbEntity
  8
0-1
  6
Continuous
 62
     2
370
    13
100
AcDbLine
 10
-243.0694101142498
 20
-101.8269293020307
 30
0.0
 11
-244.8462259926282
 21
-78.8424173853288
 31
0.0
  0
LINE
  5
E6
330
1F
100
AcDbEntity
  8
0-1
  6
Continuous
 62
     2
370
    13
100
AcDbLine
 10
-250.2071087259474
 20
-85.84241573572997
 30
0.0
 11
-257.8461699062684
 21
-85.84241573572997
 31
0.0
  0
LINE
  5
E7
330
1F
100
AcDbEntity
  8
0-1
  6
Continuous
 62
     2
370
    13
100
AcDbLine
 10
-248.7114834620116
 20
-87.22687865934697
 30
0.0
 11
-247.5561374421637
 21
-102.1737038414627
 31
0.0
  0
LINE
  5
E8
330
1F
100
AcDbEntity
  8
0-1
  6
Continuous
 62
     2
370
    13
100
AcDbLine
 10
-205.2558419990154
 20
-116.9817152830801
 30
0.0
 11
-233.1242592749339
 21
-116.0084973446827
 31
0.0
  0
LINE
  5
E9
330
1F
100
AcDbEntity
  8
0-1
  6
Continuous
 62
     2
370
    13
100
AcDbLine
 10
-232.9671844755251
 20
-111.5112847542847
 30
0.0
 11
-201.9579764149254
 21
-112.5941061621183
 31
0.0
  0
LINE
  5
EA
330
1F
100
AcDbEntity
  8
0-1
  6
Continuous
 62
     2
370
    13
100
AcDbLine
 10
-203.8707852198241
 20
-120.3530148205326
 30
0.0
 11
-221.3155896433884
 21
-138.8424297573199
 31
0.0
  0
LINE
  5
EB
330
1F
100
AcDbEntity
  8
0-1
  6
Continuous
 62
     2
370
    13
100
AcDbLine
 10
-44.84624661261342
 20
-118.8424503773052
 30
0.0
 11
-197.1156780618849
 21
-118.8424503773052
 31
0.0
  0
LINE
  5
EC
330
1F
100
AcDbEntity
  8
0-1
  6
Continuous
 62
     2
370
    13
100
AcDbLine
 10
-198.3213533416568
 20
-121.0284884203531
 30
0.0
 11
-219.8462424886164
 21
-143.8424895552771
 31
0.0
  0
LINE
  5
ED
330
1F
100
AcDbEntity
  8
0-1
  6
Continuous
 62
     2
370
    13
100
AcDbLine
 10
-245.8462787797903
 20
215.1575133315209
 30
0.0
 11
-220.4693454499762
 21
215.1575133315209
 31
0.0
  0
LINE
  5
EE
330
1F
100
AcDbEntity
  8
0-1
  6
Continuous
 62
     2
370
    13
100
AcDbLine
 10
-245.8462787797903
 20
155.1575380755032
 30
0.0
 11
-220.4693454499762
 21
155.1575380755032
 31
0.0
  0
LINE
  5
EF
330
1F
100
AcDbEntity
  8
0-1
  6
Continuous
 62
     2
370
    13
100
AcDbLine
 10
-255.8462127958376
 20
165.1575463234972
 30
0.0
 11
-255.8462127958376
 21
205.1575421995002
 31
0.0
  0
LINE
  5
F0
330
1F
100
AcDbEntity
  8
0-1
  6
Continuous
 62
     2
370
    13
100
AcDbLine
 10
-245.8462787797903
 20
214.1576090082523
 30
0.0
 11
-219.7210874263275
 21
214.1576090082523
 31
0.0
  0
LINE
  5
F1
330
1F
100
AcDbEntity
  8
0-1
  6
Continuous
 62
     2
370
    13
100
AcDbLine
 10
-245.8462787797903
 20
156.1574795147451
 30
0.0
 11
-219.7210874263275
 21
156.1574795147451
 31
0.0
  0
LINE
  5
F2
330
1F
100
AcDbEntity
  8
0-1
  6
Continuous
 62
     2
370
    13
100
AcDbLine
 10
-254.8461600086755
 20
165.1575463234972
 30
0.0
 11
-254.8461600086755
 21
205.1575421995002
 31
0.0
  0
LINE
  5
F3
330
1F
100
AcDbEntity
  8
0-1
  6
Continuous
 62
     2
370
    13
100
AcDbLine
 10
-240.8461633078731
 20
202.1575323019073
 30
0.0
 11
-204.6592769586333
 21
202.1575323019073
 31
0.0
  0
LINE
  5
F4
330
1F
100
AcDbEntity
  8
0-1
  6
Continuous
 62
     2
370
    13
100
AcDbLine
 10
-240.8461633078731
 20
168.1575562210901
 30
0.0
 11
-204.6592769586333
 21
168.1575562210901
 31
0.0
  0
LINE
  5
F5
330
1F
100
AcDbEntity
  8
0-1
  6
Continuous
 62
     2
370
    13
100
AcDbLine
 10
-242.8462688821974
 20
170.1574762155474
 30
0.0
 11
-242.8462688821974
 21
200.1575380755032
 31
0.0
  0
LINE
  5
F6
330
1F
100
AcDbEntity
  8
0-1
  6
Continuous
 62
     2
370
    13
100
AcDbLine
 10
10.15379875135408
 20
-143.8424895552771
 30
0.0
 11
-249.8462672325986
 21
-143.8424895552771
 31
0.0
  0
LINE
  5
F7
330
1F
100
AcDbEntity
  8
0-1
  6
Continuous
 62
     2
370
    13
100
AcDbLine
 10
-249.8462672325986
 20
-143.8424895552771
 30
0.0
 11
-248.3461880518554
 21
-134.8424598624984
 31
0.0
  0
LINE
  5
F8
330
1F
100
AcDbEntity
  8
0-1
  6
Continuous
 62
     2
370
    13
100
AcDbLine
 10
-239.8461847526578
 20
-134.8424598624984
 30
0.0
 11
-237.846227642227
 21
-138.8424297573199
 31
0.0
  0
LINE
  5
F9
330
1F
100
AcDbEntity
  8
0-1
  6
Continuous
 62
     2
370
    13
100
AcDbLine
 10
-221.3157381072818
 20
-138.8424297573199
 30
0.0
 11
-237.846227642227
 21
-138.8424297573199
 31
0.0
  0
LINE
  5
FA
330
1F
100
AcDbEntity
  8
0-1
  6
Continuous
 62
     2
370
    13
100
AcDbLine
 10
10.15379875135408
 20
-143.8424895552771
 30
0.0
 11
8.653868034504475
 21
-134.8424598624984
 31
0.0
  0
LINE
  5
FB
330
1F
100
AcDbEntity
  8
0-1
  6
Continuous
 62
     2
370
    13
100
AcDbLine
 10
0.1538647353068168
 20
-134.8424598624984
 30
0.0
 11
-1.846240839017563
 21
-138.8424297573199
 31
0.0
  0
LINE
  5
FC
330
1F
100
AcDbEntity
  8
0-1
  6
Continuous
 62
     2
370
    13
100
AcDbLine
 10
-18.37658191006904
 20
-138.8424297573199
 30
0.0
 11
-1.846240839017563
 21
-138.8424297573199
 31
0.0
  0
LINE
  5
FD
330
1F
100
AcDbEntity
  8
0-2
  6
Continuous
 62
     3
370
    13
100
AcDbLine
 10
-81.50328099685116
 20
-76.44101390665482
 30
0.0
 11
-83.34620042384647
 21
-81.91803252072786
 31
0.0
  0
LINE
  5
FE
330
1F
100
AcDbEntity
  8
0-2
  6
Continuous
 62
     3
370
    13
100
AcDbLine
 10
-62.12028044258592
 20
-77.21755430203068
 30
0.0
 11
-60.34624826221217
 21
-82.5943969039099
 31
0.0
  0
LINE
  5
FF
330
1F
100
AcDbEntity
  8
0-2
  6
Continuous
 62
     3
370
    13
100
AcDbLine
 10
-57.83765385237272
 20
-77.43145365670759
 30
0.0
 11
-57.09277338230304
 21
-79.68884715860794
 31
0.0
  0
LINE
  5
100
330
1F
100
AcDbEntity
  8
0-2
  6
Continuous
 62
     3
370
    13
100
AcDbLine
 10
-49.33171199743178
 20
-77.90186150351927
 30
0.0
 11
-51.34614433748671
 21
-79.85779906950322
 31
0.0
  0
LINE
  5
101
330
1F
100
AcDbEntity
  8
0-2
  6
Continuous
 62
     3
370
    13
100
AcDbLine
 10
-85.68116631014296
 20
-76.31470824919072
 30
0.0
 11
-86.37152341529499
 21
-78.36621944666747
 31
0.0
  0
LINE
  5
102
330
1F
100
AcDbEntity
  8
0-2
  6
Continuous
 62
     3
370
    13
100
AcDbLine
 10
-190.3606080199191
 20
-77.90186150351927
 30
0.0
 11
-188.3462127958376
 21
-79.85779906950322
 31
0.0
  0
LINE
  5
103
330
1F
100
AcDbEntity
  8
0-2
  6
JWW_DASHED1
 62
     3
370
    13
100
AcDbLine
 10
-204.8461930006519
 20
-78.8424173853288
 30
0.0
 11
-203.8461402134897
 21
-88.8424627492963
 31
0.0
  0
LINE
  5
104
330
1F
100
AcDbEntity
  8
0-2
  6
Continuous
 62
     3
370
    13
100
AcDbLine
 10
-203.4209396222734
 20
200.6575644690843
 30
0.0
 11
-238.6962576649255
 21
200.6575644690843
 31
0.0
  0
LINE
  5
105
330
1F
100
AcDbEntity
  8
0-2
  6
Continuous
 62
     3
370
    13
100
AcDbLine
 10
-238.6962576649255
 20
200.6575644690843
 30
0.0
 11
-238.6962576649255
 21
169.6575611698866
 31
0.0
  0
LINE
  5
106
330
1F
100
AcDbEntity
  8
0-2
  6
Continuous
 62
     3
370
    13
100
AcDbLine
 10
-238.6962576649255
 20
169.6575611698866
 30
0.0
 11
-203.4209396222734
 21
169.6575611698866
 31
0.0
  0
LINE
  5
107
330
1F
100
AcDbEntity
  8
0-1
  6
Continuous
 62
     2
370
    13
100
AcDbLine
 10
-44.84624661261342
 20
-118.8424503773052
 30
0.0
 11
-42.30376531906396
 21
-88.8424627492963
 31
0.0
  0
LINE
  5
108
330
1F
100
AcDbEntity
  8
0-1
  6
Continuous
 62
     2
370
    13
100
AcDbLine
 10
-256.8462655829998
 20
-78.8424173853288
 30
0.0
 11
-204.8461930006519
 21
-78.8424173853288
 31
0.0
  0
LINE
  5
109
330
1F
100
AcDbEntity
  8
0-2
  6
Continuous
 62
     3
370
    13
100
AcDbLine
 10
-198.1485413695285
 20
-86.84243140691876
 30
0.0
 11
-119.8461600086755
 21
-91.3424833692815
 31
0.0
  0
LINE
  5
10A
330
1F
100
AcDbEntity
  8
0-2
  6
Continuous
 62
     3
370
    13
100
AcDbLine
 10
-213.3543618139964
 20
-88.8424627492963
 30
0.0
 11
-163.3473427710276
 21
-88.8424627492963
 31
0.0
  0
LINE
  5
10B
330
1F
100
AcDbEntity
  8
0-2
  6
JWW_CENTER1
 62
     3
370
    13
100
AcDbLine
 10
-119.8461600086755
 20
314.1575430242996
 30
0.0
 11
-119.8461600086755
 21
56.15761973064464
 31
0.0
  0
LINE
  5
10C
330
1F
100
AcDbEntity
  8
0-2
  6
JWW_CENTER1
 62
     3
370
    13
100
AcDbLine
 10
-264.8462053726429
 20
185.1575628194854
 30
0.0
 11
9.153820196138687
 21
185.1575628194854
 31
0.0
  0
LINE
  5
10D
330
1F
100
AcDbEntity
  8
0-4
  6
Continuous
 62
     7
370
    13
100
AcDbLine
 10
-34.84601566877897
 20
-74.34269946672661
 30
0.0
 11
-34.84601566877897
 21
-47.94247875040482
 31
0.0
  0
LINE
  5
10E
330
1F
100
AcDbEntity
  8
0-4
  6
Continuous
 62
     7
370
    13
100
AcDbLine
 10
-34.84601566877897
 20
-48.84246687329333
 30
0.0
 11
-42.28186689476076
 21
-47.86353307499306
 31
0.0
  0
LINE
  5
10F
330
1F
100
AcDbEntity
  8
0-4
  6
Continuous
 62
     7
370
    13
100
AcDbLine
 10
-34.84601566877897
 20
-48.84246687329333
 30
0.0
 11
-42.28186689476076
 21
-49.82140067159357
 31
0.0
  0
LINE
  5
110
330
1F
100
AcDbEntity
  8
0-4
  6
Continuous
 62
     7
370
    13
100
AcDbLine
 10
-15.34613691429201
 20
-83.34243223171818
 30
0.0
 11
-15.34613691429201
 21
-23.94247380160833
 31
0.0
  0
LINE
  5
111
330
1F
100
AcDbEntity
  8
0-4
  6
Continuous
 62
     7
370
    13
100
AcDbLine
 10
-15.34613691429201
 20
-24.84246192449685
 30
0.0
 11
-22.78198814027389
 21
-23.86352812619661
 31
0.0
  0
LINE
  5
112
330
1F
100
AcDbEntity
  8
0-4
  6
Continuous
 62
     7
370
    13
100
AcDbLine
 10
-15.34613691429201
 20
-24.84246192449685
 30
0.0
 11
-22.78198814027389
 21
-25.82139572279716
 31
0.0
  0
LINE
  5
113
330
1F
100
AcDbEntity
  8
0-4
  6
Continuous
 62
     7
370
    13
100
AcDbLine
 10
-196.958120754822
 20
-173.842477183286
 30
0.0
 11
-44.84624661261342
 21
-173.842477183286
 31
0.0
  0
LINE
  5
114
330
1F
100
AcDbEntity
  8
0-4
  6
Continuous
 62
     7
370
    13
100
AcDbLine
 10
-196.958120754822
 20
-122.0971500843364
 30
0.0
 11
-196.958120754822
 21
-174.7424838641612
 31
0.0
  0
LINE
  5
115
330
1F
100
AcDbEntity
  8
0-4
  6
Continuous
 62
     7
370
    13
100
AcDbLine
 10
-44.84624661261342
 20
-123.3424466657078
 30
0.0
 11
-44.84624661261342
 21
-174.7424838641612
 31
0.0
  0
LINE
  5
116
330
1F
100
AcDbEntity
  8
0-4
  6
Continuous
 62
     7
370
    13
100
AcDbLine
 10
-196.958120754822
 20
-173.842477183286
 30
0.0
 11
-189.5222695288401
 21
-172.863524826999
 31
0.0
  0
LINE
  5
117
330
1F
100
AcDbEntity
  8
0-4
  6
Continuous
 62
     7
370
    13
100
AcDbLine
 10
-196.958120754822
 20
-173.842477183286
 30
0.0
 11
-189.5222695288401
 21
-174.8214295395729
 31
0.0
  0
LINE
  5
118
330
1F
100
AcDbEntity
  8
0-4
  6
Continuous
 62
     7
370
    13
100
AcDbLine
 10
-44.84624661261342
 20
-173.842477183286
 30
0.0
 11
-52.28202360664842
 21
-172.863524826999
 31
0.0
  0
LINE
  5
119
330
1F
100
AcDbEntity
  8
0-4
  6
Continuous
 62
     7
370
    13
100
AcDbLine
 10
-44.84624661261342
 20
-173.842477183286
 30
0.0
 11
-52.28202360664842
 21
-174.8214295395729
 31
0.0
  0
LINE
  5
11A
330
1F
100
AcDbEntity
  8
0-4
  6
Continuous
 62
     7
370
    13
100
AcDbLine
 10
-219.8462424886164
 20
-197.8424635740957
 30
0.0
 11
-19.84607752873459
 21
-197.8424635740957
 31
0.0
  0
LINE
  5
11B
330
1F
100
AcDbEntity
  8
0-4
  6
Continuous
 62
     7
370
    13
100
AcDbLine
 10
-219.8462424886164
 20
-148.3424487277063
 30
0.0
 11
-219.8462424886164
 21
-198.7424888129576
 31
0.0
  0
LINE
  5
11C
330
1F
100
AcDbEntity
  8
0-4
  6
Continuous
 62
     7
370
    13
100
AcDbLine
 10
-19.84607752873459
 20
-148.3424487277063
 30
0.0
 11
-19.84607752873459
 21
-198.7424888129576
 31
0.0
  0
LINE
  5
11D
330
1F
100
AcDbEntity
  8
0-4
  6
Continuous
 62
     7
370
    13
100
AcDbLine
 10
-219.8462424886164
 20
-197.8424635740957
 30
0.0
 11
-212.4103912626345
 21
-196.8635483337821
 31
0.0
  0
LINE
  5
11E
330
1F
100
AcDbEntity
  8
0-4
  6
Continuous
 62
     7
370
    13
100
AcDbLine
 10
-219.8462424886164
 20
-197.8424635740957
 30
0.0
 11
-212.4103912626345
 21
-198.8214344883693
 31
0.0
  0
LINE
  5
11F
330
1F
100
AcDbEntity
  8
0-4
  6
Continuous
 62
     7
370
    13
100
AcDbLine
 10
-19.84607752873459
 20
-197.8424635740957
 30
0.0
 11
-27.28192875471647
 21
-196.8635483337821
 31
0.0
  0
LINE
  5
120
330
1F
100
AcDbEntity
  8
0-4
  6
Continuous
 62
     7
370
    13
100
AcDbLine
 10
-19.84607752873459
 20
-197.8424635740957
 30
0.0
 11
-27.28192875471647
 21
-198.8214344883693
 31
0.0
  0
LINE
  5
121
330
1F
100
AcDbEntity
  8
0-4
  6
Continuous
 62
     7
370
    13
100
AcDbLine
 10
-249.8462672325986
 20
-221.8424685228921
 30
0.0
 11
10.15379875135408
 21
-221.8424685228921
 31
0.0
  0
LINE
  5
122
330
1F
100
AcDbEntity
  8
0-4
  6
Continuous
 62
     7
370
    13
100
AcDbLine
 10
-249.8462672325986
 20
-148.3424487277063
 30
0.0
 11
-249.8462672325986
 21
-222.7424937617541
 31
0.0
  0
LINE
  5
123
330
1F
100
AcDbEntity
  8
0-4
  6
Continuous
 62
     7
370
    13
100
AcDbLine
 10
10.15379875135408
 20
-148.3424487277063
 30
0.0
 11
10.15379875135408
 21
-222.7424937617541
 31
0.0
  0
LINE
  5
124
330
1F
100
AcDbEntity
  8
0-4
  6
Continuous
 62
     7
370
    13
100
AcDbLine
 10
-249.8462672325986
 20
-221.8424685228921
 30
0.0
 11
-242.4104160066168
 21
-220.8635347245919
 31
0.0
  0
LINE
  5
125
330
1F
100
AcDbEntity
  8
0-4
  6
Continuous
 62
     7
370
    13
100
AcDbLine
 10
-249.8462672325986
 20
-221.8424685228921
 30
0.0
 11
-242.4104160066168
 21
-222.8214394371658
 31
0.0
  0
LINE
  5
126
330
1F
100
AcDbEntity
  8
0-4
  6
Continuous
 62
     7
370
    13
100
AcDbLine
 10
10.15379875135408
 20
-221.8424685228921
 30
0.0
 11
2.717910409398845
 21
-220.8635347245919
 31
0.0
  0
LINE
  5
127
330
1F
100
AcDbEntity
  8
0-4
  6
Continuous
 62
     7
370
    13
100
AcDbLine
 10
10.15379875135408
 20
-221.8424685228921
 30
0.0
 11
2.717910409398845
 21
-222.8214394371658
 31
0.0
  0
LINE
  5
128
330
1F
100
AcDbEntity
  8
0-4
  6
Continuous
 62
     7
370
    13
100
AcDbLine
 10
30.15374101539549
 20
-143.8424895552771
 30
0.0
 11
30.15374101539549
 21
-78.8424173853288
 31
0.0
  0
LINE
  5
129
330
1F
100
AcDbEntity
  8
0-4
  6
Continuous
 62
     7
370
    13
100
AcDbLine
 10
4.653805349749396
 20
-143.8424895552771
 30
0.0
 11
31.05372913828401
 21
-143.8424895552771
 31
0.0
  0
LINE
  5
12A
330
1F
100
AcDbEntity
  8
0-4
  6
Continuous
 62
     7
370
    13
100
AcDbLine
 10
-11.84617485506483
 20
-78.8424173853288
 30
0.0
 11
31.05372913828401
 21
-78.8424173853288
 31
0.0
  0
LINE
  5
12B
330
1F
100
AcDbEntity
  8
0-4
  6
Continuous
 62
     7
370
    13
100
AcDbLine
 10
30.15374101539549
 20
-143.8424895552771
 30
0.0
 11
29.17477010112182
 21
-136.4066383292952
 31
0.0
  0
LINE
  5
12C
330
1F
100
AcDbEntity
  8
0-4
  6
Continuous
 62
     7
370
    13
100
AcDbLine
 10
30.15374101539549
 20
-143.8424895552771
 30
0.0
 11
31.13278616161596
 21
-136.4066383292952
 31
0.0
  0
LINE
  5
12D
330
1F
100
AcDbEntity
  8
0-4
  6
Continuous
 62
     7
370
    13
100
AcDbLine
 10
30.15374101539549
 20
-78.8424173853288
 30
0.0
 11
29.17477010112182
 21
-86.27830572728404
 31
0.0
  0
LINE
  5
12E
330
1F
100
AcDbEntity
  8
0-4
  6
Continuous
 62
     7
370
    13
100
AcDbLine
 10
30.15374101539549
 20
-78.8424173853288
 30
0.0
 11
31.13278616161596
 21
-86.27830572728404
 31
0.0
  0
LINE
  5
12F
330
1F
100
AcDbEntity
  8
0-4
  6
Continuous
 62
     7
370
    13
100
AcDbLine
 10
-204.8461558846784
 20
-48.84246687329333
 30
0.0
 11
-34.84601566877897
 21
-48.84246687329333
 31
0.0
  0
LINE
  5
130
330
1F
100
AcDbEntity
  8
0-4
  6
Continuous
 62
     7
370
    13
100
AcDbLine
 10
-223.8461567094779
 20
-24.84246192449685
 30
0.0
 11
-15.34613691429201
 21
-24.84246192449685
 31
0.0
  0
LINE
  5
131
330
1F
100
AcDbEntity
  8
0-4
  6
Continuous
 62
     7
370
    13
100
AcDbLine
 10
-89.80475095435749
 20
-76.20458515612692
 30
0.0
 11
-90.59721410231991
 21
-68.74661281000154
 31
0.0
  0
LINE
  5
132
330
1F
100
AcDbEntity
  8
0-4
  6
Continuous
 62
     7
370
    13
100
AcDbLine
 10
-89.80475095435749
 20
-76.20458515612692
 30
0.0
 11
-88.6399032453203
 21
-68.7955687789099
 31
0.0
  0
LINE
  5
133
330
1F
100
AcDbEntity
  8
0-4
  6
Continuous
 62
     7
370
    13
100
AcDbLine
 10
-89.94293372330812
 20
-81.7239159798706
 30
0.0
 11
-89.15043345937225
 21
-89.18192544196943
 31
0.0
  0
LINE
  5
134
330
1F
100
AcDbEntity
  8
0-4
  6
Continuous
 62
     7
370
    13
100
AcDbLine
 10
-89.94293372330812
 20
-81.7239159798706
 30
0.0
 11
-91.10770720039842
 21
-89.13293235708767
 31
0.0
  0
LINE
  5
135
330
1F
100
AcDbEntity
  8
0-2
  6
Continuous
 62
     3
370
    13
100
AcDbLine
 10
-41.54374153184904
 20
-86.84243140691876
 30
0.0
 11
-83.7865072162346
 21
-89.27011299475657
 31
0.0
  0
LINE
  5
136
330
1F
100
AcDbEntity
  8
0-2
  6
Continuous
 62
     3
370
    13
100
AcDbLine
 10
-109.1720514518765
 20
-90.72903056100446
 30
0.0
 11
-119.8461600086755
 21
-91.3424833692815
 31
0.0
  0
LINE
  5
137
330
1F
100
AcDbEntity
  8
0-4
  6
Continuous
 62
     7
370
    13
100
AcDbLine
 10
-90.4581405500078
 20
-102.2982279322038
 30
0.0
 11
-89.2240715505885
 21
-53.01816234415482
 31
0.0
  0
LINE
  5
138
330
1F
100
AcDbEntity
  8
0-2
  6
JWW_CENTER1
 62
     3
370
    13
100
AcDbLine
 10
-236.867034032113
 20
-89.84244130451165
 30
0.0
 11
-220.8255103306772
 21
-89.84244130451165
 31
0.0
  0
LINE
  5
139
330
1F
100
AcDbEntity
  8
0-2
  6
JWW_CENTER1
 62
     3
370
    13
100
AcDbLine
 10
-228.8462721813951
 20
-81.82167945379376
 30
0.0
 11
-228.8462721813951
 21
-97.86316603925619
 31
0.0
  0
LINE
  5
13A
330
1F
100
AcDbEntity
  8
0-1
  6
Continuous
 62
     2
370
    13
100
AcDbLine
 10
-206.4483782242054
 20
268.2241505253554
 30
0.0
 11
-195.8391855048748
 21
257.6149206900513
 31
0.0
  0
LINE
  5
13B
330
1F
100
AcDbEntity
  8
0-1
  6
Continuous
 62
     2
370
    13
100
AcDbLine
 10
-192.3036663431349
 20
261.1504398517911
 30
0.0
 11
-202.9128590624656
 21
271.7596696870952
 31
0.0
  0
LINE
  5
13C
330
1F
100
AcDbEntity
  8
0-1
  6
Continuous
 62
     2
370
    13
100
AcDbLine
 10
-197.2062781529428
 20
256.1535905855327
 30
0.0
 11
-205.9657221061734
 21
265.8261617162337
 31
0.0
  0
LINE
  5
13D
330
1F
100
AcDbEntity
  8
0-1
  6
Continuous
 62
     2
370
    13
100
AcDbLine
 10
-200.5148331373706
 20
271.2770878010099
 30
0.0
 11
-190.8421877747228
 21
262.5174953838857
 31
0.0
  0
LINE
  5
13E
330
1F
100
AcDbEntity
  8
0-1
  6
Continuous
 62
     2
370
    13
100
AcDbLine
 10
-39.17756111192717
 20
271.2770878010099
 30
0.0
 11
-48.85016935860155
 21
262.5174953838857
 31
0.0
  0
LINE
  5
13F
330
1F
100
AcDbEntity
  8
0-1
  6
Continuous
 62
     2
370
    13
100
AcDbLine
 10
-42.4861903283017
 20
256.1535905855327
 30
0.0
 11
-33.726635027151
 21
265.8261617162337
 31
0.0
  0
LINE
  5
140
330
1F
100
AcDbEntity
  8
0-1
  6
Continuous
 62
     2
370
    13
100
AcDbLine
 10
-47.38880213810959
 20
261.1504398517911
 30
0.0
 11
-36.77946095488537
 21
271.759743919042
 31
0.0
  0
LINE
  5
141
330
1F
100
AcDbEntity
  8
0-1
  6
Continuous
 62
     2
370
    13
100
AcDbLine
 10
-33.24394179314545
 20
268.2242247573021
 30
0.0
 11
-43.85328297636975
 21
257.6149206900513
 31
0.0
  0
LINE
  5
142
330
1F
100
AcDbEntity
  8
0-1
  6
Continuous
 62
     2
370
    13
100
AcDbLine
 10
-39.17756111192717
 20
99.03796360601409
 30
0.0
 11
-48.85016935860155
 21
107.7975560231382
 31
0.0
  0
LINE
  5
143
330
1F
100
AcDbEntity
  8
0-1
  6
Continuous
 62
     2
370
    13
100
AcDbLine
 10
-42.4861903283017
 20
114.1614979374647
 30
0.0
 11
-33.726635027151
 21
104.4888896907903
 31
0.0
  0
LINE
  5
144
330
1F
100
AcDbEntity
  8
0-1
  6
Continuous
 62
     2
370
    13
100
AcDbLine
 10
-47.38880213810959
 20
109.1646115552328
 30
0.0
 11
-36.77960941877897
 21
98.55538171992877
 31
0.0
  0
LINE
  5
145
330
1F
100
AcDbEntity
  8
0-1
  6
Continuous
 62
     2
370
    13
100
AcDbLine
 10
-33.24409025703904
 20
102.0909008816687
 30
0.0
 11
-43.85328297636975
 21
112.7001678329461
 31
0.0
  0
LINE
  5
146
330
1F
100
AcDbEntity
  8
0-1
  6
Continuous
 62
     2
370
    13
100
AcDbLine
 10
-197.2062781529428
 20
114.1614979374647
 30
0.0
 11
-205.9657221061734
 21
104.4889639227371
 31
0.0
  0
LINE
  5
147
330
1F
100
AcDbEntity
  8
0-1
  6
Continuous
 62
     2
370
    13
100
AcDbLine
 10
-200.5147589054238
 20
99.03796360601409
 30
0.0
 11
-190.8421877747228
 21
107.7975560231382
 31
0.0
  0
LINE
  5
148
330
1F
100
AcDbEntity
  8
0-1
  6
Continuous
 62
     2
370
    13
100
AcDbLine
 10
-206.4483782242054
 20
102.0909751136155
 30
0.0
 11
-195.8391855048748
 21
112.7001678329461
 31
0.0
  0
LINE
  5
149
330
1F
100
AcDbEntity
  8
0-1
  6
Continuous
 62
     2
370
    13
100
AcDbLine
 10
-192.3036663431349
 20
109.1646115552328
 30
0.0
 11
-202.9128219464922
 21
98.55541883590222
 31
0.0
  0
LINE
  5
14A
330
1F
100
AcDbEntity
  8
0-1
  6
Continuous
 62
     2
370
    13
100
AcDbLine
 10
-248.3461880518554
 20
-134.8424598624984
 30
0.0
 11
-217.5416003525838
 21
-134.8424598624984
 31
0.0
  0
LINE
  5
14B
330
1F
100
AcDbEntity
  8
0-1
  6
Continuous
 62
     2
370
    13
100
AcDbLine
 10
8.653868034504475
 20
-134.8424598624984
 30
0.0
 11
-22.39264157935748
 21
-134.8424598624984
 31
0.0
  0
LINE
  5
14C
330
1F
100
AcDbEntity
  8
0-1
  6
Continuous
 62
     2
370
    13
100
AcDbLine
 10
-256.8462655829998
 20
-78.8424173853288
 30
0.0
 11
-257.8461699062684
 21
-85.84241573572997
 31
0.0
  0
LINE
  5
14D
330
1F
100
AcDbEntity
  8
0-e
  6
Continuous
 62
     7
370
    13
100
AcDbLine
 10
-21.33732310780974
 20
-78.8423802693554
 30
0.0
 11
-4.01685719511975
 21
-48.84239264134654
 31
0.0
  0
LINE
  5
14E
330
1F
100
AcDbEntity
  8
0-e
  6
Continuous
 62
     7
370
    13
100
AcDbLine
 10
-41.44237780850654
 20
-78.39242332388454
 30
0.0
 11
-3.596964188099046
 21
-12.84238521815185
 31
0.0
  0
LINE
  5
14F
330
1F
100
AcDbEntity
  8
0-e
  6
Continuous
 62
     7
370
    13
100
AcDbLine
 10
-3.596964188099046
 20
-12.84238521815185
 30
0.0
 11
69.32133695606275
 21
-12.84238521815185
 31
0.0
  0
LINE
  5
150
330
1F
100
AcDbEntity
  8
0-e
  6
Continuous
 62
     7
370
    13
100
AcDbLine
 10
-4.01685719511975
 20
-48.84239264134654
 30
0.0
 11
68.04922408391322
 21
-48.84239264134654
 31
0.0
  0
LINE
  5
151
330
1F
100
AcDbEntity
  8
0-e
  6
Continuous
 62
     7
370
    13
100
AcDbLine
 10
-252.5176151857764
 20
-48.84239264134654
 30
0.0
 11
-346.6528542456371
 21
-48.84239264134654
 31
0.0
  0
LINE
  5
152
330
1F
100
AcDbEntity
  8
0-4
  6
Continuous
 62
     7
370
    13
100
AcDbLine
 10
-41.44237780850654
 20
-78.39242332388454
 30
0.0
 11
-38.57219958585029
 21
-71.46331648266833
 31
0.0
  0
LINE
  5
153
330
1F
100
AcDbEntity
  8
0-4
  6
Continuous
 62
     7
370
    13
100
AcDbLine
 10
-41.44237780850654
 20
-78.39242332388454
 30
0.0
 11
-36.8766305732342
 21
-72.44232451291536
 31
0.0
  0
LINE
  5
154
330
1F
100
AcDbEntity
  8
0-4
  6
Continuous
 62
     7
370
    13
100
AcDbLine
 10
-21.33732310780974
 20
-78.8423802693554
 30
0.0
 11
-18.46721911710029
 21
-71.91327342813919
 31
0.0
  0
LINE
  5
155
330
1F
100
AcDbEntity
  8
0-4
  6
Continuous
 62
     7
370
    13
100
AcDbLine
 10
-21.33732310780974
 20
-78.8423802693554
 30
0.0
 11
-16.77161298851076
 21
-72.89224434241282
 31
0.0
  0
LINE
  5
156
330
1F
100
AcDbEntity
  8
0-4
  6
Continuous
 62
     7
370
    13
100
AcDbLine
 10
-252.5176151857764
 20
-48.84239264134654
 30
0.0
 11
-230.3462771301915
 21
-87.24436028281615
 31
0.0
  0
LINE
  5
157
330
1F
100
AcDbEntity
  8
0-4
  6
Continuous
 62
     7
370
    13
100
AcDbLine
 10
-230.3462771301915
 20
-87.24436028281615
 30
0.0
 11
-234.9119872494906
 21
-81.29422435587357
 31
0.0
  0
LINE
  5
158
330
1F
100
AcDbEntity
  8
0-4
  6
Continuous
 62
     7
370
    13
100
AcDbLine
 10
-230.3462771301915
 20
-87.24436028281615
 30
0.0
 11
-233.216381120901
 21
-80.31525344159994
 31
0.0
  0
ARC
  5
159
330
1F
100
AcDbEntity
  8
0-2
  6
Continuous
 62
     3
370
    13
100
AcDbCircle
 10
-119.8461600086755
 20
185.1575628194854
 30
0.0
 40
85.0000051549963
100
AcDbArc
 50
190.5068206787109
 51
169.4931335449219
  0
ARC
  5
15A
330
1F
100
AcDbEntity
  8
0-2
  6
Continuous
 62
     3
370
    13
100
AcDbCircle
 10
-119.8461600086755
 20
185.1575628194854
 30
0.0
 40
70.00000206199853
100
AcDbArc
 50
195.749267578125
 51
214.0477142333985
  0
ARC
  5
15B
330
1F
100
AcDbEntity
  8
0-2
  6
Continuous
 62
     3
370
    13
100
AcDbCircle
 10
-119.8461600086755
 20
185.1575628194854
 30
0.0
 40
70.00000206199853
100
AcDbArc
 50
219.5176239013672
 51
233.1300811767579
  0
ARC
  5
15C
330
1F
100
AcDbEntity
  8
0-2
  6
Continuous
 62
     3
370
    13
100
AcDbCircle
 10
-119.8461600086755
 20
185.1575628194854
 30
0.0
 40
70.00000206199853
100
AcDbArc
 50
237.1216278076172
 51
248.1962280273438
  0
ARC
  5
15D
330
1F
100
AcDbEntity
  8
0-2
  6
Continuous
 62
     3
370
    13
100
AcDbCircle
 10
-119.8461600086755
 20
185.1575628194854
 30
0.0
 40
70.00000206199853
100
AcDbArc
 50
251.6822814941406
 51
261.7867736816406
  0
ARC
  5
15E
330
1F
100
AcDbEntity
  8
0-2
  6
Continuous
 62
     3
370
    13
100
AcDbCircle
 10
-119.8461600086755
 20
185.1575628194854
 30
0.0
 40
70.00000206199853
100
AcDbArc
 50
265.0828704833984
 51
274.9170837402344
  0
ARC
  5
15F
330
1F
100
AcDbEntity
  8
0-2
  6
Continuous
 62
     3
370
    13
100
AcDbCircle
 10
-119.8461600086755
 20
185.1575628194854
 30
0.0
 40
70.00000206199853
100
AcDbArc
 50
278.2131805419922
 51
288.3176727294922
  0
ARC
  5
160
330
1F
100
AcDbEntity
  8
0-2
  6
Continuous
 62
     3
370
    13
100
AcDbCircle
 10
-119.8461600086755
 20
185.1575628194854
 30
0.0
 40
70.00000206199853
100
AcDbArc
 50
291.8037261962891
 51
302.8783264160156
  0
ARC
  5
161
330
1F
100
AcDbEntity
  8
0-2
  6
Continuous
 62
     3
370
    13
100
AcDbCircle
 10
-119.8461600086755
 20
185.1575628194854
 30
0.0
 40
70.00000206199853
100
AcDbArc
 50
306.8698730468751
 51
320.4823303222657
  0
ARC
  5
162
330
1F
100
AcDbEntity
  8
0-2
  6
Continuous
 62
     3
370
    13
100
AcDbCircle
 10
-119.8461600086755
 20
185.1575628194854
 30
0.0
 40
70.00000206199853
100
AcDbArc
 50
325.9522399902344
 51
344.2506866455079
  0
ARC
  5
163
330
1F
100
AcDbEntity
  8
0-2
  6
Continuous
 62
     3
370
    13
100
AcDbCircle
 10
-119.8461600086755
 20
185.1575628194854
 30
0.0
 40
70.00000206199853
100
AcDbArc
 50
347.6263580322266
 51
12.3735961914063
  0
ARC
  5
164
330
1F
100
AcDbEntity
  8
0-2
  6
Continuous
 62
     3
370
    13
100
AcDbCircle
 10
-119.8461600086755
 20
185.1575628194854
 30
0.0
 40
70.00000206199853
100
AcDbArc
 50
15.749267578125
 51
34.04771423339844
  0
ARC
  5
165
330
1F
100
AcDbEntity
  8
0-2
  6
Continuous
 62
     3
370
    13
100
AcDbCircle
 10
-119.8461600086755
 20
185.1575628194854
 30
0.0
 40
70.00000206199853
100
AcDbArc
 50
39.51762390136719
 51
53.13008117675781
  0
ARC
  5
166
330
1F
100
AcDbEntity
  8
0-2
  6
Continuous
 62
     3
370
    13
100
AcDbCircle
 10
-119.8461600086755
 20
185.1575628194854
 30
0.0
 40
70.00000206199853
100
AcDbArc
 50
57.12162780761719
 51
68.19622802734375
  0
ARC
  5
167
330
1F
100
AcDbEntity
  8
0-2
  6
Continuous
 62
     3
370
    13
100
AcDbCircle
 10
-119.8461600086755
 20
185.1575628194854
 30
0.0
 40
70.00000206199853
100
AcDbArc
 50
71.68228149414062
 51
81.78677368164062
  0
ARC
  5
168
330
1F
100
AcDbEntity
  8
0-2
  6
Continuous
 62
     3
370
    13
100
AcDbCircle
 10
-119.8461600086755
 20
185.1575628194854
 30
0.0
 40
70.00000206199853
100
AcDbArc
 50
85.08287048339845
 51
94.91709899902345
  0
ARC
  5
169
330
1F
100
AcDbEntity
  8
0-2
  6
Continuous
 62
     3
370
    13
100
AcDbCircle
 10
-119.8461600086755
 20
185.1575628194854
 30
0.0
 40
70.00000206199853
100
AcDbArc
 50
98.21318054199219
 51
108.3176727294922
  0
ARC
  5
16A
330
1F
100
AcDbEntity
  8
0-2
  6
Continuous
 62
     3
370
    13
100
AcDbCircle
 10
-119.8461600086755
 20
185.1575628194854
 30
0.0
 40
70.00000206199853
100
AcDbArc
 50
111.8037261962891
 51
122.8783264160156
  0
ARC
  5
16B
330
1F
100
AcDbEntity
  8
0-2
  6
Continuous
 62
     3
370
    13
100
AcDbCircle
 10
-119.8461600086755
 20
185.1575628194854
 30
0.0
 40
70.00000206199853
100
AcDbArc
 50
126.869873046875
 51
140.4823303222657
  0
ARC
  5
16C
330
1F
100
AcDbEntity
  8
0-2
  6
Continuous
 62
     3
370
    13
100
AcDbCircle
 10
-119.8461600086755
 20
185.1575628194854
 30
0.0
 40
70.00000206199853
100
AcDbArc
 50
145.9522399902344
 51
164.2506866455078
  0
ARC
  5
16D
330
1F
100
AcDbEntity
  8
0-2
  6
Continuous
 62
     3
370
    13
100
AcDbCircle
 10
-119.8461600086755
 20
185.1575628194854
 30
0.0
 40
70.00000206199853
100
AcDbArc
 50
167.6263580322266
 51
192.3735961914063
  0
CIRCLE
  5
16E
330
1F
100
AcDbEntity
  8
0-2
  6
Continuous
 62
     3
370
    13
100
AcDbCircle
 10
-71.84618722705592
 20
185.1575628194854
 30
0.0
 40
10.00000128874908
  0
ARC
  5
16F
330
1F
100
AcDbEntity
  8
0-2
  6
Continuous
 62
     3
370
    13
100
AcDbCircle
 10
-71.84618722705592
 20
185.1575628194854
 30
0.0
 40
14.00000134029904
100
AcDbArc
 50
135.5846710205078
 51
224.415283203125
  0
ARC
  5
170
330
1F
100
AcDbEntity
  8
0-2
  6
Continuous
 62
     3
370
    13
100
AcDbCircle
 10
-71.84618722705592
 20
185.1575628194854
 30
0.0
 40
14.00000134029904
100
AcDbArc
 50
244.623046875
 51
295.3769073486328
  0
ARC
  5
171
330
1F
100
AcDbEntity
  8
0-2
  6
Continuous
 62
     3
370
    13
100
AcDbCircle
 10
-71.84618722705592
 20
185.1575628194854
 30
0.0
 40
14.00000134029904
100
AcDbArc
 50
315.5846710205079
 51
44.41528320312504
  0
ARC
  5
172
330
1F
100
AcDbEntity
  8
0-2
  6
Continuous
 62
     3
370
    13
100
AcDbCircle
 10
-71.84618722705592
 20
185.1575628194854
 30
0.0
 40
14.00000134029904
100
AcDbArc
 50
64.623046875
 51
115.3769073486328
  0
ARC
  5
173
330
1F
100
AcDbEntity
  8
0-2
  6
Continuous
 62
     3
370
    13
100
AcDbCircle
 10
-114.6301780354913
 20
-83.99912514900068
 30
0.0
 40
3.000000038662472
100
AcDbArc
 50
88.31529235839844
 51
174.4750823974609
  0
ARC
  5
174
330
1F
100
AcDbEntity
  8
0-2
  6
Continuous
 62
     3
370
    13
100
AcDbCircle
 10
-125.0621419818596
 20
-83.99912514900068
 30
0.0
 40
3.000000038662472
100
AcDbArc
 50
5.524871826171875
 51
91.68466186523439
  0
CIRCLE
  5
175
330
1F
100
AcDbEntity
  8
0-2
  6
Continuous
 62
     3
370
    13
100
AcDbCircle
 10
-228.8462721813951
 20
-89.84244130451165
 30
0.0
 40
3.000000038662472
  0
ARC
  5
176
330
1F
100
AcDbEntity
  8
0-2
  6
Continuous
 62
     3
370
    13
100
AcDbCircle
 10
-228.8462721813951
 20
-89.84244130451165
 30
0.0
 40
10.99999956182532
100
AcDbArc
 50
90.0
 51
345.5224609375
  0
ARC
  5
177
330
1F
100
AcDbEntity
  8
0-2
  6
Continuous
 62
     3
370
    13
100
AcDbCircle
 10
-213.3543618139964
 20
-93.84246687329333
 30
0.0
 40
5.000000644374539
100
AcDbArc
 50
90.0
 51
165.5224609375
  0
ARC
  5
178
330
1F
100
AcDbEntity
  8
0-1
  6
Continuous
 62
     2
370
    13
100
AcDbCircle
 10
-27.71381022114381
 20
-87.84244707810751
 30
0.0
 40
2.000000025774982
100
AcDbArc
 50
90.0
 51
174.2893829345703
  0
ARC
  5
179
330
1F
100
AcDbEntity
  8
0-1
  6
Continuous
 62
     2
370
    13
100
AcDbCircle
 10
-32.13372879694615
 20
-91.84247264688919
 30
0.0
 40
2.000000025774982
100
AcDbArc
 50
270.0
 51
354.2893829345703
  0
ARC
  5
17A
330
1F
100
AcDbEntity
  8
0-1
  6
Continuous
 62
     2
370
    13
100
AcDbCircle
 10
-36.35496556716365
 20
-95.84249821567087
 30
0.0
 40
2.000000025774982
100
AcDbArc
 50
90.0
 51
175.7378692626953
  0
ARC
  5
17B
330
1F
100
AcDbEntity
  8
0-1
  6
Continuous
 62
     2
370
    13
100
AcDbCircle
 10
-35.70365446602342
 20
-87.34249491647321
 30
0.0
 40
1.500000019331236
100
AcDbArc
 50
270.0
 51
354.2893829345703
  0
ARC
  5
17C
330
1F
100
AcDbEntity
  8
0-1
  6
Continuous
 62
     2
370
    13
100
AcDbCircle
 10
-24.84619300065177
 20
-87.34249491647321
 30
0.0
 40
1.500000019331236
100
AcDbArc
 50
0.0
 51
90.0
  0
ARC
  5
17D
330
1F
100
AcDbEntity
  8
0-1
  6
Continuous
 62
     2
370
    13
100
AcDbCircle
 10
-232.600775586167
 20
-101.0176526181202
 30
0.0
 40
10.49999868547594
100
AcDbArc
 50
184.4201812744141
 51
268.0
  0
ARC
  5
17E
330
1F
100
AcDbEntity
  8
0-1
  6
Continuous
 62
     2
370
    13
100
AcDbCircle
 10
-232.600775586167
 20
-101.0176526181202
 30
0.0
 40
14.99999961337528
100
AcDbArc
 50
184.4201812744141
 51
268.0
  0
ARC
  5
17F
330
1F
100
AcDbEntity
  8
0-1
  6
Continuous
 62
     2
370
    13
100
AcDbCircle
 10
-250.2071087259474
 20
-87.34249491647321
 30
0.0
 40
1.500000019331236
100
AcDbArc
 50
4.420181274414063
 51
90.0
  0
ARC
  5
180
330
1F
100
AcDbEntity
  8
0-1
  6
Continuous
 62
     2
370
    13
100
AcDbCircle
 10
-205.3255829130251
 20
-118.9804475663888
 30
0.0
 40
2.000000025774982
100
AcDbArc
 50
316.6653594970703
 51
88.0
  0
ARC
  5
181
330
1F
100
AcDbEntity
  8
0-1
  6
Continuous
 62
     2
370
    13
100
AcDbCircle
 10
-201.958124878819
 20
-117.5971909119072
 30
0.0
 40
5.000000644374539
100
AcDbArc
 50
316.6653594970703
 51
90.0
  0
ARC
  5
182
330
1F
100
AcDbEntity
  8
0-1
  6
Continuous
 62
     2
370
    13
100
AcDbCircle
 10
-119.8461600086755
 20
185.1575628194854
 30
0.0
 40
105.0000030929978
100
AcDbArc
 50
196.6015319824219
 51
163.3984222412109
  0
ARC
  5
183
330
1F
100
AcDbEntity
  8
0-1
  6
Continuous
 62
     2
370
    13
100
AcDbCircle
 10
-119.8461600086755
 20
185.1575628194854
 30
0.0
 40
103.9999967008024
100
AcDbArc
 50
196.1913299560547
 51
163.8086242675782
  0
ARC
  5
184
330
1F
100
AcDbEntity
  8
0-1
  6
Continuous
 62
     2
370
    13
100
AcDbCircle
 10
-245.8462787797903
 20
205.1575421995002
 30
0.0
 40
10.00000128874908
100
AcDbArc
 50
90.0
 51
180.0
  0
ARC
  5
185
330
1F
100
AcDbEntity
  8
0-1
  6
Continuous
 62
     2
370
    13
100
AcDbCircle
 10
-245.8462787797903
 20
165.1575463234972
 30
0.0
 40
10.00000128874908
100
AcDbArc
 50
180.0
 51
270.0
  0
ARC
  5
186
330
1F
100
AcDbEntity
  8
0-1
  6
Continuous
 62
     2
370
    13
100
AcDbCircle
 10
-245.8462787797903
 20
205.1575421995002
 30
0.0
 40
8.999998956113249
100
AcDbArc
 50
90.0
 51
180.0
  0
ARC
  5
187
330
1F
100
AcDbEntity
  8
0-1
  6
Continuous
 62
     2
370
    13
100
AcDbCircle
 10
-245.8462787797903
 20
165.1575463234972
 30
0.0
 40
8.999998956113249
100
AcDbArc
 50
180.0
 51
270.0
  0
ARC
  5
188
330
1F
100
AcDbEntity
  8
0-1
  6
Continuous
 62
     2
370
    13
100
AcDbCircle
 10
-240.8461633078731
 20
200.1575380755032
 30
0.0
 40
2.000000025774982
100
AcDbArc
 50
90.0
 51
180.0
  0
ARC
  5
189
330
1F
100
AcDbEntity
  8
0-1
  6
Continuous
 62
     2
370
    13
100
AcDbCircle
 10
-240.8461633078731
 20
170.1574762155474
 30
0.0
 40
2.000000025774982
100
AcDbArc
 50
180.0
 51
270.0
  0
ARC
  5
18A
330
1F
100
AcDbEntity
  8
0-1
  6
Continuous
 62
     2
370
    13
100
AcDbCircle
 10
-119.8461600086755
 20
185.1575628194854
 30
0.0
 40
86.50000082479941
100
AcDbArc
 50
191.3341979980469
 51
168.665756225586
  0
ARC
  5
18B
330
1F
100
AcDbEntity
  8
0-2
  6
Continuous
 62
     3
370
    13
100
AcDbCircle
 10
-119.8461600086755
 20
-1276.398503745126
 30
0.0
 40
1198.500019795186
100
AcDbArc
 50
88.39947509765625
 51
93.2764892578125
  0
ARC
  5
18C
330
1F
100
AcDbEntity
  8
0-2
  6
Continuous
 62
     3
370
    13
100
AcDbCircle
 10
-119.8461600086755
 20
-1275.828328161828
 30
0.0
 40
1200.000024743982
100
AcDbArc
 50
85.93812561035156
 51
94.06184387207031
  0
ARC
  5
18D
330
1F
100
AcDbEntity
  8
0-1
  6
Continuous
 62
     2
370
    13
100
AcDbCircle
 10
-119.8461600086755
 20
185.1575628194854
 30
0.0
 40
128.5000187641866
100
AcDbArc
 50
193.0429229736328
 51
166.4989624023438
  0
ARC
  5
18E
330
1F
100
AcDbEntity
  8
0-1
  6
Continuous
 62
     2
370
    13
100
AcDbCircle
 10
-119.8461600086755
 20
185.1575628194854
 30
0.0
 40
130.0000051549963
100
AcDbArc
 50
193.3924865722657
 51
166.6631164550781
  0
ARC
  5
18F
330
1F
100
AcDbEntity
  8
0-1
  6
Continuous
 62
     2
370
    13
100
AcDbCircle
 10
-119.8461600086755
 20
185.1575628194854
 30
0.0
 40
119.9999969070022
100
AcDbArc
 50
193.0429229736328
 51
166.4989624023438
  0
ARC
  5
190
330
1F
100
AcDbEntity
  8
0-1
  6
Continuous
 62
     2
370
    13
100
AcDbCircle
 10
-119.8461600086755
 20
185.1575628194854
 30
0.0
 40
118.0000026805981
100
AcDbArc
 50
136.8718719482422
 51
166.4989624023438
  0
ARC
  5
191
330
1F
100
AcDbEntity
  8
0-1
  6
Continuous
 62
     2
370
    13
100
AcDbCircle
 10
-119.8461600086755
 20
185.1575628194854
 30
0.0
 40
118.0000026805981
100
AcDbArc
 50
46.87182617187501
 51
133.1281433105469
  0
ARC
  5
192
330
1F
100
AcDbEntity
  8
0-1
  6
Continuous
 62
     2
370
    13
100
AcDbCircle
 10
-119.8461600086755
 20
185.1575628194854
 30
0.0
 40
118.0000026805981
100
AcDbArc
 50
316.871826171875
 51
43.12812805175785
  0
ARC
  5
193
330
1F
100
AcDbEntity
  8
0-1
  6
Continuous
 62
     2
370
    13
100
AcDbCircle
 10
-119.8461600086755
 20
185.1575628194854
 30
0.0
 40
118.0000026805981
100
AcDbArc
 50
193.0429229736328
 51
223.1281127929688
  0
ARC
  5
194
330
1F
100
AcDbEntity
  8
0-1
  6
Continuous
 62
     2
370
    13
100
AcDbCircle
 10
-119.8461600086755
 20
185.1575628194854
 30
0.0
 40
118.0000026805981
100
AcDbArc
 50
226.8718566894531
 51
313.1281127929688
  0
TEXT
  5
195
330
1F
100
AcDbEntity
  8
0-4
  6
Continuous
 62
     3
370
    13
100
AcDbText
 10
-136.4961600086754
 20
-44.15045697570044
 30
0.0
 40
9.144
  1
φ１７０
 41
0.6937500000000001
  7
ＭＳ ゴシック
100
AcDbText
  0
TEXT
  5
196
330
1F
100
AcDbEntity
  8
0-4
  6
Continuous
 62
     3
370
    13
100
AcDbText
 10
-136.4961600086754
 20
-20.15045202690396
 30
0.0
 40
9.144
  1
φ２１０
 41
0.6937500000000001
  7
ＭＳ ゴシック
100
AcDbText
  0
TEXT
  5
197
330
1F
100
AcDbEntity
  8
0-4
  6
Continuous
 62
     3
370
    13
100
AcDbText
 10
-137.5521465677443
 20
-169.1504858436797
 30
0.0
 40
9.144
  1
φ１５０
 41
0.6937500000000001
  7
ＭＳ ゴシック
100
AcDbText
  0
TEXT
  5
198
330
1F
100
AcDbEntity
  8
0-4
  6
Continuous
 62
     3
370
    13
100
AcDbText
 10
-136.4961228927021
 20
-193.1505093504629
 30
0.0
 40
9.144
  1
φ２００
 41
0.6937500000000001
  7
ＭＳ ゴシック
100
AcDbText
  0
TEXT
  5
199
330
1F
100
AcDbEntity
  8
0-4
  6
Continuous
 62
     3
370
    13
100
AcDbText
 10
25.4616568858558
 20
-119.5924070753362
 30
0.0
 40
9.144
  1
６５
 50
90.0
 41
0.6875
  7
ＭＳ ゴシック
100
AcDbText
  0
TEXT
  5
19A
330
1F
100
AcDbEntity
  8
0-4
  6
Continuous
 62
     3
370
    13
100
AcDbText
 10
-94.459968054144
 20
-74.67843359342059
 30
0.0
 40
9.144
  1
１.５
 50
88.56548262605796
 41
0.6899999999999998
  7
ＭＳ ゴシック
100
AcDbText
  0
TEXT
  5
19B
330
1F
100
AcDbEntity
  8
0-4
  6
Continuous
 62
     3
370
    13
100
AcDbText
 10
-95.00724337880503
 20
-96.53474312396526
 30
0.0
 40
9.144
  1
３
 50
88.56531858126728
 41
0.6750000000000006
  7
ＭＳ ゴシック
100
AcDbText
  0
TEXT
  5
19C
330
1F
100
AcDbEntity
  8
0-4
  6
Continuous
 62
     3
370
    13
100
AcDbText
 10
-136.4961971246489
 20
-217.1504957412726
 30
0.0
 40
9.144
  1
φ２６０
 41
0.6937500000000001
  7
ＭＳ ゴシック
100
AcDbText
  0
TEXT
  5
19D
330
1F
100
AcDbEntity
  8
0-e
  6
Continuous
 62
     6
370
    13
100
AcDbText
 10
2.084587935924388
 20
-9.650380269355445
 30
0.0
 40
9.144
  1
蓋：ＦＣ２００
 41
0.7928571428571429
  7
ＭＳ ゴシック
100
AcDbText
  0
TEXT
  5
19E
330
1F
100
AcDbEntity
  8
0-e
  6
Continuous
 62
     6
370
    13
100
AcDbText
 10
-343.3742272314769
 20
-45.65038769255009
 30
0.0
 40
9.144
  1
ヒンジ：ＳＳ４００
 41
0.7944444444444443
  7
ＭＳ ゴシック
100
AcDbText
  0
TEXT
  5
19F
330
1F
100
AcDbEntity
  8
0-e
  6
Continuous
 62
     6
370
    13
100
AcDbText
 10
-0.1172058378298306
 20
-45.65038769255009
 30
0.0
 40
9.144
  1
枠：ＦＣ２００
 41
0.7928571428571429
  7
ＭＳ ゴシック
100
AcDbText
  0
TEXT
  5
1A0
330
1F
100
AcDbEntity
  8
0-e
  6
Continuous
 62
     6
370
    13
100
AcDbText
 10
9.360181544058925
 20
-24.65039264134654
 30
0.0
 40
9.144
  1
樹脂系塗装
 41
0.7900000000000001
  7
ＭＳ ゴシック
100
AcDbText
  0
TEXT
  5
1A1
330
1F
100
AcDbEntity
  8
0-e
  6
Continuous
 62
     6
370
    13
100
AcDbText
 10
9.482812720156893
 20
-60.65040006454122
 30
0.0
 40
9.144
  1
樹脂系塗装
 41
0.7900000000000001
  7
ＭＳ ゴシック
100
AcDbText
  0
TEXT
  5
1A2
330
1F
100
AcDbEntity
  8
0-e
  6
Continuous
 62
     6
370
    13
100
AcDbText
 10
-322.3240423526894
 20
-60.65040006454122
 30
0.0
 40
9.144
  1
樹脂系塗装
 41
0.7899999999999998
  7
ＭＳ ゴシック
100
AcDbText
  0
TEXT
  5
1A3
330
1F
100
AcDbEntity
  8
f-4
  6
Continuous
 62
     2
370
    13
100
AcDbText
 10
-114.3938111449191
 20
-351.7435190929935
 30
0.0
 40
9.144
  1
止水弁用筐　　　　ＨＫＢ－１
 41
1.116071428571429
  7
ＭＳ ゴシック
100
AcDbText
  0
TEXT
  5
1A4
330
1F
100
AcDbEntity
  8
f-4
  6
Continuous
 62
     6
370
    13
100
AcDbText
 10
-45.27643206568303
 20
51.91926764818884
 30
0.0
 40
6.858000000000001
  1
鋳出スペース
 41
0.9999999999999998
  7
ＭＳ ゴシック
100
AcDbText
  0
TEXT
  5
1A5
330
1F
100
AcDbEntity
  8
f-4
  6
Continuous
 62
     6
370
    13
100
AcDbText
 10
-27.01487940292416
 20
41.80047892557203
 30
0.0
 40
6.858000000000001
  1
４４×９８
 41
0.9999999999999999
  7
ＭＳ ゴシック
100
AcDbText
  0
LINE
  5
1A6
330
1F
100
AcDbEntity
  8
f-0
  6
Continuous
 62
     7
370
    13
100
AcDbLine
 10
-47.59448953136105
 20
39.98221541677891
 30
0.0
 11
17.5440800123805
 21
39.98221541677891
 31
0.0
  0
LINE
  5
1A7
330
1F
100
AcDbEntity
  8
f-0
  6
Continuous
 62
     7
370
    13
100
AcDbLine
 10
-103.1213160526592
 20
136.1575001347304
 30
0.0
 11
-47.59448953136105
 21
39.98221541677891
 31
0.0
  0
LINE
  5
1A8
330
1F
100
AcDbEntity
  8
f-4
  6
Continuous
 62
     7
370
    13
100
AcDbLine
 10
-103.1213160526592
 20
136.1575001347304
 30
0.0
 11
-98.55560533509384
 21
130.2073500825461
 31
0.0
  0
LINE
  5
1A9
330
1F
100
AcDbEntity
  8
f-4
  6
Continuous
 62
     7
370
    13
100
AcDbLine
 10
-103.1213160526592
 20
136.1575001347304
 30
0.0
 11
-100.2511903099211
 21
129.2284036408957
 31
0.0
  0
TEXT
  5
1AA
330
1F
100
AcDbEntity
  8
0-4
  6
Continuous
 62
     6
370
    13
100
AcDbText
 10
-107.4329082864943
 20
143.2890832712116
 30
0.0
 40
24.0
  1
止水弁
 50
90.0
 41
1.166666666666667
  7
ＤＦＰ平成丸ゴシック体W4
100
AcDbText
  0
ENDSEC
  0
SECTION
  2
OBJECTS
  0
DICTIONARY
  5
C
330
0
100
AcDbDictionary
281
     1
  3
ACAD_GROUP
350
D
  3
ACAD_LAYOUT
350
1A
  3
ACAD_MLEADERSTYLE
350
1AC
  3
ACAD_MLINESTYLE
350
17
  3
ACAD_PLOTSETTINGS
350
19
  3
ACAD_PLOTSTYLENAME
350
E
  3
ACAD_TABLESTYLE
350
1AB
  3
ACAD_VISUALSTYLE
350
2A
  0
DICTIONARY
  5
D
102
{ACAD_REACTORS
330
C
102
}
330
C
100
AcDbDictionary
281
     1
  0
DICTIONARY
  5
1A
102
{ACAD_REACTORS
330
C
102
}
330
C
100
AcDbDictionary
281
     1
  3
Layout1
350
1E
  3
Layout2
350
26
  3
Model
350
22
  0
DICTIONARY
  5
1AC
102
{ACAD_REACTORS
330
C
102
}
330
C
100
AcDbDictionary
281
     1
  0
DICTIONARY
  5
17
102
{ACAD_REACTORS
330
C
102
}
330
C
100
AcDbDictionary
281
     1
  3
Standard
350
18
  0
DICTIONARY
  5
19
102
{ACAD_REACTORS
330
C
102
}
330
C
100
AcDbDictionary
281
     1
  0
ACDBDICTIONARYWDFLT
  5
E
102
{ACAD_REACTORS
330
C
102
}
330
C
100
AcDbDictionary
281
     1
  3
Normal
350
F
100
AcDbDictionaryWithDefault
340
F
  0
DICTIONARY
  5
1AB
102
{ACAD_REACTORS
330
C
102
}
330
C
100
AcDbDictionary
281
     1
  0
DICTIONARY
  5
2A
102
{ACAD_REACTORS
330
C
102
}
330
C
100
AcDbDictionary
281
     1
  3
2dWireframe
350
2F
  3
3D Hidden
350
31
  3
3dWireframe
350
30
  3
Basic
350
32
  3
Brighten
350
36
  3
ColorChange
350
3A
  3
Conceptual
350
34
  3
Dim
350
35
  3
Facepattern
350
39
  3
Flat
350
2B
  3
FlatWithEdges
350
2C
  3
Gouraud
350
2D
  3
GouraudWithEdges
350
2E
  3
Linepattern
350
38
  3
Realistic
350
33
  3
Thicken
350
37
  0
LAYOUT
  5
1E
102
{ACAD_REACTORS
330
1A
102
}
330
1A
100
AcDbPlotSettings
  1

  2
none_device
  4

  6

 40
0.0
 41
0.0
 42
0.0
 43
0.0
 44
0.0
 45
0.0
 46
0.0
 47
0.0
 48
0.0
 49
0.0
140
0.0
141
0.0
142
1.0
143
1.0
 70
   688
 72
     0
 73
     0
 74
     5
  7

 75
    16
 76
     0
 77
     5
 78
   300
147
1.0
148
0.0
149
0.0
100
AcDbLayout
  1
Layout1
 70
     1
 71
     1
 10
0.0
 20
0.0
 11
420.0
 21
297.0
 12
0.0
 22
0.0
 32
0.0
 14
1.000000000000000E+20
 24
1.000000000000000E+20
 34
1.000000000000000E+20
 15
-1.000000000000000E+20
 25
-1.000000000000000E+20
 35
-1.000000000000000E+20
146
0.0
 13
0.0
 23
0.0
 33
0.0
 16
1.0
 26
0.0
 36
0.0
 17
0.0
 27
1.0
 37
0.0
 76
     0
330
1B
  0
LAYOUT
  5
26
102
{ACAD_REACTORS
330
1A
102
}
330
1A
100
AcDbPlotSettings
  1

  2
none_device
  4

  6

 40
0.0
 41
0.0
 42
0.0
 43
0.0
 44
0.0
 45
0.0
 46
0.0
 47
0.0
 48
0.0
 49
0.0
140
0.0
141
0.0
142
1.0
143
1.0
 70
   688
 72
     0
 73
     0
 74
     5
  7

 75
    16
 76
     0
 77
     5
 78
   300
147
1.0
148
0.0
149
0.0
100
AcDbLayout
  1
Layout2
 70
     1
 71
     2
 10
0.0
 20
0.0
 11
0.0
 21
0.0
 12
0.0
 22
0.0
 32
0.0
 14
0.0
 24
0.0
 34
0.0
 15
0.0
 25
0.0
 35
0.0
146
0.0
 13
0.0
 23
0.0
 33
0.0
 16
1.0
 26
0.0
 36
0.0
 17
0.0
 27
1.0
 37
0.0
 76
     0
330
23
  0
LAYOUT
  5
22
102
{ACAD_REACTORS
330
1A
102
}
330
1A
100
AcDbPlotSettings
  1

  2
none_device
  4

  6

 40
0.0
 41
0.0
 42
0.0
 43
0.0
 44
0.0
 45
0.0
 46
0.0
 47
0.0
 48
0.0
 49
0.0
140
0.0
141
0.0
142
1.0
143
1.0
 70
  1712
 72
     0
 73
     0
 74
     0
  7

 75
     0
 76
     0
 77
     5
 78
   300
147
1.0
148
0.0
149
0.0
100
AcDbLayout
  1
Model
 70
     1
 71
     0
 10
-630.0
 20
-445.5
 11
630.0
 21
445.5
 12
0.0
 22
0.0
 32
0.0
 14
-630.0
 24
-445.5
 34
0.0
 15
630.0
 25
445.5
 35
0.0
146
0.0
 13
0.0
 23
0.0
 33
0.0
 16
1.0
 26
0.0
 36
0.0
 17
0.0
 27
1.0
 37
0.0
 76
     0
330
1F
331
29
  0
MLINESTYLE
  5
18
102
{ACAD_REACTORS
330
17
102
}
330
17
100
AcDbMlineStyle
  2
Standard
 70
     0
  3

 62
   256
 51
90.0
 52
90.0
 71
     2
 49
0.5
 62
   256
  6
BYLAYER
 49
-0.5
 62
   256
  6
BYLAYER
  0
ACDBPLACEHOLDER
  5
F
102
{ACAD_REACTORS
330
E
102
}
330
E
  0
VISUALSTYLE
  5
2F
102
{ACAD_REACTORS
330
2A
102
}
330
2A
100
AcDbVisualStyle
  2
2dWireframe
 70
     4
 71
     0
 72
     2
 73
     0
 90
        0
 40
-0.6
 41
-30.0
 62
     5
 63
     7
421
 16777215
 74
     1
 91
        4
 64
     7
 65
   257
 75
     1
175
     1
 42
1.0
 92
        0
 66
   257
 43
1.0
 76
     1
 77
     6
 78
     2
 67
     7
 79
     5
170
     0
171
     0
290
     0
174
     0
 93
        1
 44
0.0
173
     0
291
     0
 45
0.0
1001
ACAD
1000
AcDbSavedByObjectVersion
1070
     0
  0
VISUALSTYLE
  5
31
102
{ACAD_REACTORS
330
2A
102
}
330
2A
100
AcDbVisualStyle
  2
3D Hidden
 70
     6
 71
     1
 72
     2
 73
     2
 90
        0
 40
-0.6
 41
-30.0
 62
     5
 63
     7
421
 16777215
 74
     2
 91
        2
 64
     7
 65
   257
 75
     2
175
     1
 42
40.0
 92
        0
 66
   257
 43
1.0
 76
     1
 77
     6
 78
     2
 67
     7
 79
     3
170
     0
171
     0
290
     0
174
     0
 93
        1
 44
0.0
173
     0
291
     0
 45
0.0
1001
ACAD
1000
AcDbSavedByObjectVersion
1070
     0
  0
VISUALSTYLE
  5
30
102
{ACAD_REACTORS
330
2A
102
}
330
2A
100
AcDbVisualStyle
  2
3dWireframe
 70
     5
 71
     0
 72
     2
 73
     0
 90
        0
 40
-0.6
 41
-30.0
 62
     5
 63
     7
421
 16777215
 74
     1
 91
        4
 64
     7
 65
   257
 75
     1
175
     1
 42
1.0
 92
        0
 66
   257
 43
1.0
 76
     1
 77
     6
 78
     2
 67
     7
 79
     5
170
     0
171
     0
290
     0
174
     0
 93
        1
 44
0.0
173
     0
291
     0
 45
0.0
1001
ACAD
1000
AcDbSavedByObjectVersion
1070
     0
  0
VISUALSTYLE
  5
32
102
{ACAD_REACTORS
330
2A
102
}
330
2A
100
AcDbVisualStyle
  2
Basic
 70
     7
 71
     1
 72
     0
 73
     1
 90
        0
 40
-0.6
 41
-30.0
 62
     5
 63
     7
421
 16777215
 74
     0
 91
        4
 64
     7
 65
   257
 75
     1
175
     1
 42
1.0
 92
        8
 66
     7
 43
1.0
 76
     1
 77
     6
 78
     2
 67
     7
 79
     5
170
     0
171
     0
290
     0
174
     0
 93
        1
 44
0.0
173
     0
291
     1
 45
0.0
1001
ACAD
1000
AcDbSavedByObjectVersion
1070
     0
  0
VISUALSTYLE
  5
36
102
{ACAD_REACTORS
330
2A
102
}
330
2A
100
AcDbVisualStyle
  2
Brighten
 70
    12
 71
     2
 72
     2
 73
     0
 90
        0
 40
-0.6
 41
-30.0
 62
     5
 63
     7
421
 16777215
 74
     1
 91
        4
 64
     7
 65
   257
 75
     1
175
     1
 42
1.0
 92
        8
 66
     7
 43
1.0
 76
     1
 77
     6
 78
     2
 67
     7
 79
     5
170
     0
171
     0
290
     0
174
     0
 93
        1
 44
50.0
173
     0
291
     1
 45
0.0
1001
ACAD
1000
AcDbSavedByObjectVersion
1070
     0
  0
VISUALSTYLE
  5
3A
102
{ACAD_REACTORS
330
2A
102
}
330
2A
100
AcDbVisualStyle
  2
ColorChange
 70
    16
 71
     2
 72
     2
 73
     3
 90
        0
 40
-0.6
 41
-30.0
 62
     5
 63
     8
421
  8421504
 74
     1
 91
        4
 64
     7
 65
   257
 75
     1
175
     1
 42
1.0
 92
        8
 66
     8
424
  8421504
 43
1.0
 76
     1
 77
     6
 78
     2
 67
     7
 79
     5
170
     0
171
     0
290
     0
174
     0
 93
        1
 44
0.0
173
     0
291
     1
 45
0.0
1001
ACAD
1000
AcDbSavedByObjectVersion
1070
     0
  0
VISUALSTYLE
  5
34
102
{ACAD_REACTORS
330
2A
102
}
330
2A
100
AcDbVisualStyle
  2
Conceptual
 70
     9
 71
     3
 72
     2
 73
     0
 90
        0
 40
-0.6
 41
-30.0
 62
     5
 63
     7
421
 16777215
 74
     2
 91
        2
 64
     7
 65
   257
 75
     1
175
     1
 42
40.0
 92
        8
 66
     7
 43
1.0
 76
     1
 77
     6
 78
     2
 67
     7
 79
     3
170
     0
171
     0
290
     0
174
     0
 93
        1
 44
0.0
173
     0
291
     0
 45
0.0
1001
ACAD
1000
AcDbSavedByObjectVersion
1070
     0
  0
VISUALSTYLE
  5
35
102
{ACAD_REACTORS
330
2A
102
}
330
2A
100
AcDbVisualStyle
  2
Dim
 70
    11
 71
     2
 72
     2
 73
     0
 90
        0
 40
-0.6
 41
-30.0
 62
     5
 63
     7
421
 16777215
 74
     1
 91
        4
 64
     7
 65
   257
 75
     1
175
     1
 42
1.0
 92
        8
 66
     7
 43
1.0
 76
     1
 77
     6
 78
     2
 67
     7
 79
     5
170
     0
171
     0
290
     0
174
     0
 93
        1
 44
-50.0
173
     0
291
     1
 45
0.0
1001
ACAD
1000
AcDbSavedByObjectVersion
1070
     0
  0
VISUALSTYLE
  5
39
102
{ACAD_REACTORS
330
2A
102
}
330
2A
100
AcDbVisualStyle
  2
Facepattern
 70
    15
 71
     2
 72
     2
 73
     0
 90
        0
 40
-0.6
 41
-30.0
 62
     5
 63
     7
421
 16777215
 74
     1
 91
        4
 64
     7
 65
   257
 75
     1
175
     1
 42
1.0
 92
        8
 66
     7
 43
1.0
 76
     1
 77
     6
 78
     2
 67
     7
 79
     5
170
     0
171
     0
290
     0
174
     0
 93
        1
 44
0.0
173
     0
291
     1
 45
0.0
1001
ACAD
1000
AcDbSavedByObjectVersion
1070
     0
  0
VISUALSTYLE
  5
2B
102
{ACAD_REACTORS
330
2A
102
}
330
2A
100
AcDbVisualStyle
  2
Flat
 70
     0
 71
     2
 72
     1
 73
     1
 90
        2
 40
-0.6
 41
30.0
 62
     5
 63
     7
421
 16777215
 74
     0
 91
        4
 64
     7
 65
   257
 75
     1
175
     1
 42
1.0
 92
        8
 66
     7
 43
1.0
 76
     1
 77
     6
 78
     2
 67
     7
 79
     5
170
     0
171
     0
290
     0
174
     0
 93
       13
 44
0.0
173
     0
291
     1
 45
0.0
1001
ACAD
1000
AcDbSavedByObjectVersion
1070
     0
  0
VISUALSTYLE
  5
2C
102
{ACAD_REACTORS
330
2A
102
}
330
2A
100
AcDbVisualStyle
  2
FlatWithEdges
 70
     1
 71
     2
 72
     1
 73
     1
 90
        2
 40
-0.6
 41
30.0
 62
     5
 63
     7
421
 16777215
 74
     1
 91
        4
 64
     7
 65
   257
 75
     1
175
     1
 42
1.0
 92
        0
 66
   257
 43
1.0
 76
     1
 77
     6
 78
     2
 67
     7
 79
     5
170
     0
171
     0
290
     0
174
     0
 93
       13
 44
0.0
173
     0
291
     1
 45
0.0
1001
ACAD
1000
AcDbSavedByObjectVersion
1070
     0
  0
VISUALSTYLE
  5
2D
102
{ACAD_REACTORS
330
2A
102
}
330
2A
100
AcDbVisualStyle
  2
Gouraud
 70
     2
 71
     2
 72
     2
 73
     1
 90
        2
 40
-0.6
 41
30.0
 62
     5
 63
     7
421
 16777215
 74
     0
 91
        4
 64
     7
 65
   257
 75
     1
175
     1
 42
1.0
 92
        0
 66
     7
 43
1.0
 76
     1
 77
     6
 78
     2
 67
     7
 79
     5
170
     0
171
     0
290
     0
174
     0
 93
       13
 44
0.0
173
     0
291
     1
 45
0.0
1001
ACAD
1000
AcDbSavedByObjectVersion
1070
     0
  0
VISUALSTYLE
  5
2E
102
{ACAD_REACTORS
330
2A
102
}
330
2A
100
AcDbVisualStyle
  2
GouraudWithEdges
 70
     3
 71
     2
 72
     2
 73
     1
 90
        2
 40
-0.6
 41
30.0
 62
     5
 63
     7
421
 16777215
 74
     1
 91
        4
 64
     7
 65
   257
 75
     1
175
     1
 42
1.0
 92
        0
 66
   257
 43
1.0
 76
     1
 77
     6
 78
     2
 67
     7
 79
     5
170
     0
171
     0
290
     0
174
     0
 93
       13
 44
0.0
173
     0
291
     1
 45
0.0
1001
ACAD
1000
AcDbSavedByObjectVersion
1070
     0
  0
VISUALSTYLE
  5
38
102
{ACAD_REACTORS
330
2A
102
}
330
2A
100
AcDbVisualStyle
  2
Linepattern
 70
    14
 71
     2
 72
     2
 73
     0
 90
        0
 40
-0.6
 41
-30.0
 62
     5
 63
     7
421
 16777215
 74
     1
 91
        4
 64
     7
 65
   257
 75
     7
175
     7
 42
1.0
 92
        8
 66
     7
 43
1.0
 76
     1
 77
     6
 78
     2
 67
     7
 79
     5
170
     0
171
     0
290
     0
174
     0
 93
        1
 44
0.0
173
     0
291
     1
 45
0.0
1001
ACAD
1000
AcDbSavedByObjectVersion
1070
     0
  0
VISUALSTYLE
  5
33
102
{ACAD_REACTORS
330
2A
102
}
330
2A
100
AcDbVisualStyle
  2
Realistic
 70
     8
 71
     2
 72
     2
 73
     0
 90
        0
 40
-0.6
 41
-30.0
 62
     5
 63
     7
421
 16777215
 74
     1
 91
        0
 64
     7
 65
   257
 75
     1
175
     1
 42
1.0
 92
        8
 66
     8
424
  7895160
 43
1.0
 76
     1
 77
     6
 78
     2
 67
     7
 79
     5
170
     0
171
     0
290
     0
174
     0
 93
       13
 44
0.0
173
     0
291
     0
 45
0.0
1001
ACAD
1000
AcDbSavedByObjectVersion
1070
     0
  0
VISUALSTYLE
  5
37
102
{ACAD_REACTORS
330
2A
102
}
330
2A
100
AcDbVisualStyle
  2
Thicken
 70
    13
 71
     2
 72
     2
 73
     0
 90
        0
 40
-0.6
 41
-30.0
 62
     5
 63
     7
421
 16777215
 74
     1
 91
        4
 64
     7
 65
   257
 75
     1
175
     1
 42
1.0
 92
       12
 66
     7
 43
1.0
 76
     1
 77
     6
 78
     2
 67
     7
 79
     5
170
     0
171
     0
290
     0
174
     0
 93
        1
 44
0.0
173
     0
291
     1
 45
0.0
1001
ACAD
1000
AcDbSavedByObjectVersion
1070
     0
  0
ENDSEC
  0
EOF
