  0
SECTION
  2
HEADER
  9
$ACADVER
  1
AC1018
  9
$ACADMAINTVER
 70
     0
  9
$DWGCODEPAGE
  3
ANSI_932
  9
$INSBASE
 10
0.0
 20
0.0
 30
0.0
  9
$EXTMIN
 10
-1260.0
 20
-891.0
 30
0.0
  9
$EXTMAX
 10
1260.0
 20
891.0
 30
0.0
  9
$LIMMIN
 10
-1260.0
 20
-891.0
  9
$LIMMAX
 10
1260.0
 20
891.0
  9
$ORTHOMODE
 70
     0
  9
$REGENMODE
 70
     1
  9
$FILLMODE
 70
     1
  9
$QTEXTMODE
 70
     0
  9
$MIRRTEXT
 70
     1
  9
$LTSCALE
 40
6.0
  9
$ATTMODE
 70
     1
  9
$TEXTSIZE
 40
2.5
  9
$TRACEWID
 40
1.0
  9
$TEXTSTYLE
  7
Standard
  9
$CLAYER
  8
0
  9
$CELTYPE
  6
ByLayer
  9
$CECOLOR
 62
   256
  9
$CELTSCALE
 40
1.0
  9
$DISPSILH
 70
     0
  9
$DIMSCALE
 40
1.0
  9
$DIMASZ
 40
2.5
  9
$DIMEXO
 40
0.625
  9
$DIMDLI
 40
3.75
  9
$DIMRND
 40
0.0
  9
$DIMDLE
 40
0.0
  9
$DIMEXE
 40
1.25
  9
$DIMTP
 40
0.0
  9
$DIMTM
 40
0.0
  9
$DIMTXT
 40
2.5
  9
$DIMCEN
 40
2.5
  9
$DIMTSZ
 40
0.0
  9
$DIMTOL
 70
     0
  9
$DIMLIM
 70
     0
  9
$DIMTIH
 70
     0
  9
$DIMTOH
 70
     0
  9
$DIMSE1
 70
     0
  9
$DIMSE2
 70
     0
  9
$DIMTAD
 70
     1
  9
$DIMZIN
 70
     8
  9
$DIMBLK
  1

  9
$DIMASO
 70
     1
  9
$DIMSHO
 70
     1
  9
$DIMPOST
  1

  9
$DIMAPOST
  1

  9
$DIMALT
 70
     0
  9
$DIMALTD
 70
     3
  9
$DIMALTF
 40
0.03937007874016
  9
$DIMLFAC
 40
1.0
  9
$DIMTOFL
 70
     1
  9
$DIMTVP
 40
0.0
  9
$DIMTIX
 70
     0
  9
$DIMSOXD
 70
     0
  9
$DIMSAH
 70
     0
  9
$DIMBLK1
  1

  9
$DIMBLK2
  1

  9
$DIMSTYLE
  2
ISO-25
  9
$DIMCLRD
 70
     0
  9
$DIMCLRE
 70
     0
  9
$DIMCLRT
 70
     0
  9
$DIMTFAC
 40
1.0
  9
$DIMGAP
 40
0.625
  9
$DIMJUST
 70
     0
  9
$DIMSD1
 70
     0
  9
$DIMSD2
 70
     0
  9
$DIMTOLJ
 70
     0
  9
$DIMTZIN
 70
     8
  9
$DIMALTZ
 70
     0
  9
$DIMALTTZ
 70
     0
  9
$DIMUPT
 70
     0
  9
$DIMDEC
 70
     2
  9
$DIMTDEC
 70
     2
  9
$DIMALTU
 70
     2
  9
$DIMALTTD
 70
     3
  9
$DIMTXSTY
  7
Standard
  9
$DIMAUNIT
 70
     0
  9
$DIMADEC
 70
     0
  9
$DIMALTRND
 40
0.0
  9
$DIMAZIN
 70
     0
  9
$DIMDSEP
 70
    44
  9
$DIMATFIT
 70
     3
  9
$DIMFRAC
 70
     0
  9
$DIMLDRBLK
  1

  9
$DIMLUNIT
 70
     2
  9
$DIMLWD
 70
    -2
  9
$DIMLWE
 70
    -2
  9
$DIMTMOVE
 70
     0
  9
$LUNITS
 70
     2
  9
$LUPREC
 70
     4
  9
$SKETCHINC
 40
1.0
  9
$FILLETRAD
 40
10.0
  9
$AUNITS
 70
     0
  9
$AUPREC
 70
     0
  9
$MENU
  1
.
  9
$ELEVATION
 40
0.0
  9
$PELEVATION
 40
0.0
  9
$THICKNESS
 40
0.0
  9
$LIMCHECK
 70
     0
  9
$CHAMFERA
 40
0.0
  9
$CHAMFERB
 40
0.0
  9
$CHAMFERC
 40
0.0
  9
$CHAMFERD
 40
0.0
  9
$SKPOLY
 70
     0
  9
$TDCREATE
 40
2459474.631420104
  9
$TDUCREATE
 40
2459474.256420104
  9
$TDUPDATE
 40
2459474.631420231
  9
$TDUUPDATE
 40
2459474.256420231
  9
$TDINDWG
 40
0.0000000116
  9
$TDUSRTIMER
 40
0.0000000116
  9
$USRTIMER
 70
     1
  9
$ANGBASE
 50
0.0
  9
$ANGDIR
 70
     0
  9
$PDMODE
 70
     0
  9
$PDSIZE
 40
0.0
  9
$PLINEWID
 40
0.0
  9
$SPLFRAME
 70
     0
  9
$SPLINETYPE
 70
     6
  9
$SPLINESEGS
 70
     8
  9
$HANDSEED
  5
475
  9
$SURFTAB1
 70
     6
  9
$SURFTAB2
 70
     6
  9
$SURFTYPE
 70
     6
  9
$SURFU
 70
     6
  9
$SURFV
 70
     6
  9
$UCSBASE
  2

  9
$UCSNAME
  2

  9
$UCSORG
 10
0.0
 20
0.0
 30
0.0
  9
$UCSXDIR
 10
1.0
 20
0.0
 30
0.0
  9
$UCSYDIR
 10
0.0
 20
1.0
 30
0.0
  9
$UCSORTHOREF
  2

  9
$UCSORTHOVIEW
 70
     0
  9
$UCSORGTOP
 10
0.0
 20
0.0
 30
0.0
  9
$UCSORGBOTTOM
 10
0.0
 20
0.0
 30
0.0
  9
$UCSORGLEFT
 10
0.0
 20
0.0
 30
0.0
  9
$UCSORGRIGHT
 10
0.0
 20
0.0
 30
0.0
  9
$UCSORGFRONT
 10
0.0
 20
0.0
 30
0.0
  9
$UCSORGBACK
 10
0.0
 20
0.0
 30
0.0
  9
$PUCSBASE
  2

  9
$PUCSNAME
  2

  9
$PUCSORG
 10
0.0
 20
0.0
 30
0.0
  9
$PUCSXDIR
 10
1.0
 20
0.0
 30
0.0
  9
$PUCSYDIR
 10
0.0
 20
1.0
 30
0.0
  9
$PUCSORTHOREF
  2

  9
$PUCSORTHOVIEW
 70
     0
  9
$PUCSORGTOP
 10
0.0
 20
0.0
 30
0.0
  9
$PUCSORGBOTTOM
 10
0.0
 20
0.0
 30
0.0
  9
$PUCSORGLEFT
 10
0.0
 20
0.0
 30
0.0
  9
$PUCSORGRIGHT
 10
0.0
 20
0.0
 30
0.0
  9
$PUCSORGFRONT
 10
0.0
 20
0.0
 30
0.0
  9
$PUCSORGBACK
 10
0.0
 20
0.0
 30
0.0
  9
$USERI1
 70
     0
  9
$USERI2
 70
     0
  9
$USERI3
 70
     0
  9
$USERI4
 70
     0
  9
$USERI5
 70
     0
  9
$USERR1
 40
0.0
  9
$USERR2
 40
0.0
  9
$USERR3
 40
0.0
  9
$USERR4
 40
0.0
  9
$USERR5
 40
0.0
  9
$WORLDVIEW
 70
     1
  9
$SHADEDGE
 70
     3
  9
$SHADEDIF
 70
    70
  9
$TILEMODE
 70
     1
  9
$MAXACTVP
 70
    64
  9
$PINSBASE
 10
0.0
 20
0.0
 30
0.0
  9
$PLIMCHECK
 70
     0
  9
$PEXTMIN
 10
1.000000000000000E+20
 20
1.000000000000000E+20
 30
1.000000000000000E+20
  9
$PEXTMAX
 10
-1.000000000000000E+20
 20
-1.000000000000000E+20
 30
-1.000000000000000E+20
  9
$PLIMMIN
 10
0.0
 20
0.0
  9
$PLIMMAX
 10
420.0
 20
297.0
  9
$UNITMODE
 70
     0
  9
$VISRETAIN
 70
     1
  9
$PLINEGEN
 70
     0
  9
$PSLTSCALE
 70
     1
  9
$TREEDEPTH
 70
  3020
  9
$CMLSTYLE
  2
Standard
  9
$CMLJUST
 70
     0
  9
$CMLSCALE
 40
20.0
  9
$PROXYGRAPHICS
 70
     1
  9
$MEASUREMENT
 70
     1
  9
$CELWEIGHT
370
    -1
  9
$ENDCAPS
280
     0
  9
$JOINSTYLE
280
     0
  9
$LWDISPLAY
290
     0
  9
$INSUNITS
 70
     4
  9
$HYPERLINKBASE
  1

  9
$STYLESHEET
  1

  9
$XEDIT
290
     1
  9
$CEPSNTYPE
380
     0
  9
$PSTYLEMODE
290
     1
  9
$FINGERPRINTGUID
  2
{3060BB1E-2E45-4125-B33E-394E1509D3FF}
  9
$VERSIONGUID
  2
{FAEB1C32-E019-11D5-929B-00C0DF256EC4}
  9
$EXTNAMES
290
     1
  9
$PSVPSCALE
 40
0.0
  9
$OLESTARTUP
290
     0
  9
$SORTENTS
280
   127
  9
$INDEXCTL
280
     0
  9
$HIDETEXT
280
     1
  9
$XCLIPFRAME
290
     0
  9
$HALOGAP
280
     0
  9
$OBSCOLOR
 70
   257
  9
$OBSLTYPE
280
     0
  9
$INTERSECTIONDISPLAY
280
     0
  9
$INTERSECTIONCOLOR
 70
   257
  9
$DIMASSOC
280
     2
  9
$PROJECTNAME
  1

  0
ENDSEC
  0
SECTION
  2
CLASSES
  0
CLASS
  1
ACDBDICTIONARYWDFLT
  2
AcDbDictionaryWithDefault
  3
ObjectDBX Classes
 90
        0
 91
        4
280
     0
281
     0
  0
CLASS
  1
VISUALSTYLE
  2
AcDbVisualStyle
  3
ObjectDBX Classes
 90
     4095
 91
        4
280
     0
281
     0
  0
CLASS
  1
MATERIAL
  2
AcDbMaterial
  3
ObjectDBX Classes
 90
     1153
 91
        4
280
     0
281
     0
  0
CLASS
  1
SCALE
  2
AcDbScale
  3
ObjectDBX Classes
 90
     1153
 91
        4
280
     0
281
     0
  0
CLASS
  1
TABLESTYLE
  2
AcDbTableStyle
  3
ObjectDBX Classes
 90
     4095
 91
        4
280
     0
281
     0
  0
CLASS
  1
MLEADERSTYLE
  2
AcDbMLeaderStyle
  3
ACDB_MLEADERSTYLE_CLASS
 90
     4095
 91
        4
280
     0
281
     0
  0
CLASS
  1
SUN
  2
AcDbSun
  3
SCENEOE
 90
     1153
 91
        4
280
     0
281
     0
  0
CLASS
  1
DICTIONARYVAR
  2
AcDbDictionaryVar
  3
ObjectDBX Classes
 90
        0
 91
        4
280
     0
281
     0
  0
CLASS
  1
CELLSTYLEMAP
  2
AcDbCellStyleMap
  3
ObjectDBX Classes
 90
     1152
 91
        4
280
     0
281
     0
  0
ENDSEC
  0
SECTION
  2
TABLES
  0
TABLE
  2
VPORT
  5
8
102
{ACAD_XDICTIONARY
360
42C
102
}
330
0
100
AcDbSymbolTable
 70
     1
  0
VPORT
  5
29
330
8
100
AcDbSymbolTableRecord
100
AcDbViewportTableRecord
  2
*Active
 70
     0
 10
0.0
 20
0.0
 11
1.0
 21
1.0
 12
0.0
 22
0.0
 13
0.0
 23
0.0
 14
10.0
 24
10.0
 15
10.0
 25
10.0
 16
0.0
 26
0.0
 36
1.0
 17
0.0
 27
0.0
 37
0.0
 40
1960.2
 41
1.414141414141414
 42
50.0
 43
0.0
 44
0.0
 50
0.0
 51
0.0
 71
     0
 72
 10000
 73
     1
 74
     3
 75
     0
 76
     0
 77
     0
 78
     0
281
     0
 65
     1
110
0.0
120
0.0
130
0.0
111
1.0
121
0.0
131
0.0
112
0.0
122
1.0
132
0.0
 79
     0
146
0.0
  0
ENDTAB
  0
TABLE
  2
LTYPE
  5
5
330
0
100
AcDbSymbolTable
 70
     5
  0
LTYPE
  5
14
330
5
100
AcDbSymbolTableRecord
100
AcDbLinetypeTableRecord
  2
ByBlock
 70
     0
  3

 72
    65
 73
     0
 40
0.0
  0
LTYPE
  5
15
330
5
100
AcDbSymbolTableRecord
100
AcDbLinetypeTableRecord
  2
ByLayer
 70
     0
  3

 72
    65
 73
     0
 40
0.0
  0
LTYPE
  5
16
330
5
100
AcDbSymbolTableRecord
100
AcDbLinetypeTableRecord
  2
Continuous
 70
     0
  3
Solid line
 72
    65
 73
     0
 40
0.0
  0
LTYPE
  5
6F
330
5
100
AcDbSymbolTableRecord
100
AcDbLinetypeTableRecord
  2
JWW_CENTER1
 70
     0
  3
-----  --  ----------  --  -----
 72
    65
 73
     4
 40
6.773333333333333
 49
4.233333333333333
 74
     0
 49
-0.8466666666666667
 74
     0
 49
0.8466666666666667
 74
     0
 49
-0.8466666666666667
 74
     0
  0
LTYPE
  5
70
330
5
100
AcDbSymbolTableRecord
100
AcDbLinetypeTableRecord
  2
JWW_DASHED3
 70
     0
  3
---  ------  ------  ------  ---
 72
    65
 73
     2
 40
3.386666666666667
 49
2.54
 74
     0
 49
-0.8466666666666667
 74
     0
  0
LTYPE
  5
71
330
5
100
AcDbSymbolTableRecord
100
AcDbLinetypeTableRecord
  2
JWW_PHANTOM1
 70
     0
  3
----  -  -  --------  -  -  ----
 72
    65
 73
     6
 40
6.773333333333333
 49
3.386666666666667
 74
     0
 49
-0.8466666666666667
 74
     0
 49
0.4233333333333333
 74
     0
 49
-0.8466666666666667
 74
     0
 49
0.4233333333333333
 74
     0
 49
-0.8466666666666667
 74
     0
  0
LTYPE
  5
72
330
5
100
AcDbSymbolTableRecord
100
AcDbLinetypeTableRecord
  2
JWW_CENTER2
 70
     0
  3
-------------  --  -------------
 72
    65
 73
     4
 40
13.54666666666667
 49
11.00666666666667
 74
     0
 49
-0.8466666666666667
 74
     0
 49
0.8466666666666667
 74
     0
 49
-0.8466666666666667
 74
     0
  0
ENDTAB
  0
TABLE
  2
LAYER
  5
2
330
0
100
AcDbSymbolTable
 70
     7
  0
LAYER
  5
10
330
2
100
AcDbSymbolTableRecord
100
AcDbLayerTableRecord
  2
0
 70
     0
 62
     7
  6
Continuous
370
    -3
390
F
  0
LAYER
  5
73
330
2
100
AcDbSymbolTableRecord
100
AcDbLayerTableRecord
  2
F-Fﾚｲﾔ
 70
     0
 62
     7
  6
Continuous
370
    -3
390
F
  0
LAYER
  5
74
330
2
100
AcDbSymbolTableRecord
100
AcDbLayerTableRecord
  2
B-2_蓋
 70
     0
 62
     7
  6
Continuous
370
    -3
390
F
  0
LAYER
  5
75
330
2
100
AcDbSymbolTableRecord
100
AcDbLayerTableRecord
  2
B-4_寸法
 70
     0
 62
     7
  6
Continuous
370
    -3
390
F
  0
LAYER
  5
76
330
2
100
AcDbSymbolTableRecord
100
AcDbLayerTableRecord
  2
B-1_ピット
 70
     0
 62
     7
  6
Continuous
370
    -3
390
F
  0
LAYER
  5
77
330
2
100
AcDbSymbolTableRecord
100
AcDbLayerTableRecord
  2
F-4ﾚｲﾔ
 70
     0
 62
     7
  6
Continuous
370
    -3
390
F
  0
LAYER
  5
78
330
2
100
AcDbSymbolTableRecord
100
AcDbLayerTableRecord
  2
F-5ﾚｲﾔ
 70
     0
 62
     7
  6
Continuous
370
    -3
390
F
  0
ENDTAB
  0
TABLE
  2
STYLE
  5
3
330
0
100
AcDbSymbolTable
 70
     2
  0
STYLE
  5
11
330
3
100
AcDbSymbolTableRecord
100
AcDbTextStyleTableRecord
  2
Standard
 70
     0
 40
0.0
 41
1.0
 50
0.0
 71
     0
 42
2.5
  3
txt
  4

  0
STYLE
  5
6E
330
3
100
AcDbSymbolTableRecord
100
AcDbTextStyleTableRecord
  2
ＭＳ ゴシック
 70
     0
 40
1.0
 41
1.0
 50
0.0
 71
     0
 42
2.5
  3

  4

1001
ACAD
1000
MS Gothic
1071
    32817
  0
ENDTAB
  0
TABLE
  2
VIEW
  5
6
330
0
100
AcDbSymbolTable
 70
     0
  0
ENDTAB
  0
TABLE
  2
UCS
  5
7
330
0
100
AcDbSymbolTable
 70
     0
  0
ENDTAB
  0
TABLE
  2
APPID
  5
9
330
0
100
AcDbSymbolTable
 70
     2
  0
APPID
  5
12
330
9
100
AcDbSymbolTableRecord
100
AcDbRegAppTableRecord
  2
ACAD
 70
     0
  0
APPID
  5
46B
330
9
100
AcDbSymbolTableRecord
100
AcDbRegAppTableRecord
  2
ACAD_MLEADERVER
 70
     0
  0
ENDTAB
  0
TABLE
  2
DIMSTYLE
  5
A
330
0
100
AcDbSymbolTable
 70
     1
100
AcDbDimStyleTable
  0
DIMSTYLE
105
27
330
A
100
AcDbSymbolTableRecord
100
AcDbDimStyleTableRecord
  2
ISO-25
 70
     0
 41
2.5
 42
0.625
 43
3.75
 44
1.25
 73
     0
 74
     0
 77
     1
 78
     8
140
2.5
141
2.5
143
0.03937007874016
147
0.625
171
     3
172
     1
178
     0
271
     2
272
     2
274
     3
278
    44
283
     0
284
     8
340
11
  0
ENDTAB
  0
TABLE
  2
BLOCK_RECORD
  5
1
330
0
100
AcDbSymbolTable
 70
     1
  0
BLOCK_RECORD
  5
1F
330
1
100
AcDbSymbolTableRecord
100
AcDbBlockTableRecord
  2
*Model_Space
340
22
  0
BLOCK_RECORD
  5
1B
330
1
100
AcDbSymbolTableRecord
100
AcDbBlockTableRecord
  2
*Paper_Space
340
1E
  0
BLOCK_RECORD
  5
23
330
1
100
AcDbSymbolTableRecord
100
AcDbBlockTableRecord
  2
*Paper_Space0
340
26
  0
ENDTAB
  0
ENDSEC
  0
SECTION
  2
BLOCKS
  0
BLOCK
  5
20
330
1F
100
AcDbEntity
  8
0
100
AcDbBlockBegin
  2
*Model_Space
 70
     0
 10
0.0
 20
0.0
 30
0.0
  3
*Model_Space
  1

  0
ENDBLK
  5
21
330
1F
100
AcDbEntity
  8
0
100
AcDbBlockEnd
  0
BLOCK
  5
1C
330
1B
100
AcDbEntity
 67
     1
  8
0
100
AcDbBlockBegin
  2
*Paper_Space
 70
     0
 10
0.0
 20
0.0
 30
0.0
  3
*Paper_Space
  1

  0
ENDBLK
  5
1D
330
1B
100
AcDbEntity
 67
     1
  8
0
100
AcDbBlockEnd
  0
BLOCK
  5
24
330
23
100
AcDbEntity
  8
0
100
AcDbBlockBegin
  2
*Paper_Space0
 70
     0
 10
0.0
 20
0.0
 30
0.0
  3
*Paper_Space0
  1

  0
ENDBLK
  5
25
330
23
100
AcDbEntity
  8
0
100
AcDbBlockEnd
  0
ENDSEC
  0
SECTION
  2
ENTITIES
  0
TEXT
  5
79
330
1F
100
AcDbEntity
  8
F-Fﾚｲﾔ
  6
Continuous
 62
     2
370
     9
100
AcDbText
 10
-66.94915364269588
 20
-825.7831398884313
 30
0.0
 40
18.288
  1
ＨＳＢ　１７０７５＋Ｌ－７５
 50
0.0000007060387133
 41
0.9214285714285715
  7
ＭＳ ゴシック
100
AcDbText
  0
LINE
  5
7A
330
1F
100
AcDbEntity
  8
B-2_蓋
  6
Continuous
 62
     3
370
     9
100
AcDbLine
 10
79.34727024387672
 20
-113.0842846019848
 30
0.0
 11
-915.6534390836148
 21
-113.0842846019848
 31
0.0
  0
LINE
  5
7B
330
1F
100
AcDbEntity
  8
B-2_蓋
  6
Continuous
 62
     3
370
     9
100
AcDbLine
 10
79.34727024387672
 20
-108.5845666833826
 30
0.0
 11
-915.6534390836148
 21
-108.5845666833826
 31
0.0
  0
LINE
  5
7C
330
1F
100
AcDbEntity
  8
B-2_蓋
  6
Continuous
 62
     3
370
     9
100
AcDbLine
 10
-915.6534390836148
 20
442.4162366712416
 30
0.0
 11
79.34727024387672
 21
442.4162366712416
 31
0.0
  0
LINE
  5
7D
330
1F
100
AcDbEntity
  8
B-2_蓋
  6
Continuous
 62
     3
370
     9
100
AcDbLine
 10
-915.6534390836148
 20
431.4168437236064
 30
0.0
 11
79.34727024387672
 21
431.4168437236064
 31
0.0
  0
LINE
  5
7E
330
1F
100
AcDbEntity
  8
B-2_蓋
  6
Continuous
 62
     3
370
     9
100
AcDbLine
 10
-915.6534390836148
 20
342.4158572635136
 30
0.0
 11
79.34727024387672
 21
342.4158572635136
 31
0.0
  0
LINE
  5
7F
330
1F
100
AcDbEntity
  8
B-2_蓋
  6
Continuous
 62
     3
370
     9
100
AcDbLine
 10
-915.6534390836148
 20
331.4154250686234
 30
0.0
 11
79.34727024387672
 21
331.4154250686234
 31
0.0
  0
LINE
  5
80
330
1F
100
AcDbEntity
  8
B-2_蓋
  6
Continuous
 62
     3
370
     9
100
AcDbLine
 10
-915.6534390836148
 20
582.4162036792653
 30
0.0
 11
79.34727024387672
 21
582.4162036792653
 31
0.0
  0
LINE
  5
81
330
1F
100
AcDbEntity
  8
B-2_蓋
  6
Continuous
 62
     3
370
     9
100
AcDbLine
 10
-915.6534390836148
 20
586.9161442937078
 30
0.0
 11
79.34727024387672
 21
586.9161442937078
 31
0.0
  0
LINE
  5
82
330
1F
100
AcDbEntity
  8
B-2_蓋
  6
Continuous
 62
     3
370
     9
100
AcDbLine
 10
-915.6534390836148
 20
-113.0842846019848
 30
0.0
 11
-915.6534390836148
 21
586.9161442937078
 31
0.0
  0
LINE
  5
83
330
1F
100
AcDbEntity
  8
B-2_蓋
  6
Continuous
 62
     3
370
     9
100
AcDbLine
 10
79.34727024387672
 20
586.9161442937078
 30
0.0
 11
79.34727024387672
 21
-113.0842846019848
 31
0.0
  0
LINE
  5
84
330
1F
100
AcDbEntity
  8
B-2_蓋
  6
Continuous
 62
     3
370
     9
100
AcDbLine
 10
-915.6534390836148
 20
242.4153293918919
 30
0.0
 11
79.34727024387672
 21
242.4153293918919
 31
0.0
  0
LINE
  5
85
330
1F
100
AcDbEntity
  8
B-2_蓋
  6
Continuous
 62
     3
370
     9
100
AcDbLine
 10
-915.6534390836148
 20
231.41586221231
 30
0.0
 11
79.34727024387672
 21
231.41586221231
 31
0.0
  0
LINE
  5
86
330
1F
100
AcDbEntity
  8
B-2_蓋
  6
Continuous
 62
     3
370
     9
100
AcDbLine
 10
-908.6528468776394
 20
242.4153293918919
 30
0.0
 11
-908.6528468776394
 21
331.4154250686234
 31
0.0
  0
LINE
  5
87
330
1F
100
AcDbEntity
  8
B-2_蓋
  6
Continuous
 62
     3
370
     9
100
AcDbLine
 10
-908.6528468776394
 20
342.4158572635136
 30
0.0
 11
-908.6528468776394
 21
431.4168437236064
 31
0.0
  0
LINE
  5
88
330
1F
100
AcDbEntity
  8
B-2_蓋
  6
Continuous
 62
     3
370
     9
100
AcDbLine
 10
72.34630687816735
 20
431.4168437236064
 30
0.0
 11
72.34630687816735
 21
342.4158572635136
 31
0.0
  0
LINE
  5
89
330
1F
100
AcDbEntity
  8
B-2_蓋
  6
Continuous
 62
     3
370
     9
100
AcDbLine
 10
72.34630687816735
 20
331.4154250686234
 30
0.0
 11
72.34630687816735
 21
242.4153293918919
 31
0.0
  0
LINE
  5
8A
330
1F
100
AcDbEntity
  8
B-2_蓋
  6
Continuous
 62
     3
370
     9
100
AcDbLine
 10
37.04604690139359
 20
431.4168437236064
 30
0.0
 11
37.04604690139359
 21
342.4158572635136
 31
0.0
  0
LINE
  5
8B
330
1F
100
AcDbEntity
  8
B-2_蓋
  6
Continuous
 62
     3
370
     9
100
AcDbLine
 10
44.04715873099673
 20
431.4168437236064
 30
0.0
 11
44.04715873099673
 21
342.4158572635136
 31
0.0
  0
LINE
  5
8C
330
1F
100
AcDbEntity
  8
B-2_蓋
  6
Continuous
 62
     3
370
     9
100
AcDbLine
 10
37.04604690139359
 20
331.4154250686234
 30
0.0
 11
37.04604690139359
 21
242.4153293918919
 31
0.0
  0
LINE
  5
8D
330
1F
100
AcDbEntity
  8
B-2_蓋
  6
Continuous
 62
     3
370
     9
100
AcDbLine
 10
44.04715873099673
 20
331.4154250686234
 30
0.0
 11
44.04715873099673
 21
242.4153293918919
 31
0.0
  0
LINE
  5
8E
330
1F
100
AcDbEntity
  8
B-2_蓋
  6
Continuous
 62
     3
370
     9
100
AcDbLine
 10
1.745786924620006
 20
431.4168437236064
 30
0.0
 11
1.745786924620006
 21
342.4158572635136
 31
0.0
  0
LINE
  5
8F
330
1F
100
AcDbEntity
  8
B-2_蓋
  6
Continuous
 62
     3
370
     9
100
AcDbLine
 10
8.746898754222968
 20
431.4168437236064
 30
0.0
 11
8.746898754222968
 21
342.4158572635136
 31
0.0
  0
LINE
  5
90
330
1F
100
AcDbEntity
  8
B-2_蓋
  6
Continuous
 62
     3
370
     9
100
AcDbLine
 10
1.745786924620006
 20
331.4154250686234
 30
0.0
 11
1.745786924620006
 21
242.4153293918919
 31
0.0
  0
LINE
  5
91
330
1F
100
AcDbEntity
  8
B-2_蓋
  6
Continuous
 62
     3
370
     9
100
AcDbLine
 10
8.746898754222968
 20
331.4154250686234
 30
0.0
 11
8.746898754222968
 21
242.4153293918919
 31
0.0
  0
LINE
  5
92
330
1F
100
AcDbEntity
  8
B-2_蓋
  6
Continuous
 62
     3
370
     9
100
AcDbLine
 10
-33.5529884132178
 20
431.4168437236064
 30
0.0
 11
-33.5529884132178
 21
342.4158572635136
 31
0.0
  0
LINE
  5
93
330
1F
100
AcDbEntity
  8
B-2_蓋
  6
Continuous
 62
     3
370
     9
100
AcDbLine
 10
-26.55336122255062
 20
431.4168437236064
 30
0.0
 11
-26.55336122255062
 21
342.4158572635136
 31
0.0
  0
LINE
  5
94
330
1F
100
AcDbEntity
  8
B-2_蓋
  6
Continuous
 62
     3
370
     9
100
AcDbLine
 10
-33.5529884132178
 20
331.4154250686234
 30
0.0
 11
-33.5529884132178
 21
242.4153293918919
 31
0.0
  0
LINE
  5
95
330
1F
100
AcDbEntity
  8
B-2_蓋
  6
Continuous
 62
     3
370
     9
100
AcDbLine
 10
-26.55336122255062
 20
331.4154250686234
 30
0.0
 11
-26.55336122255062
 21
242.4153293918919
 31
0.0
  0
LINE
  5
96
330
1F
100
AcDbEntity
  8
B-2_蓋
  6
Continuous
 62
     3
370
     9
100
AcDbLine
 10
-68.85339685388499
 20
431.4168437236064
 30
0.0
 11
-68.85339685388499
 21
342.4158572635136
 31
0.0
  0
LINE
  5
97
330
1F
100
AcDbEntity
  8
B-2_蓋
  6
Continuous
 62
     3
370
     9
100
AcDbLine
 10
-61.85332427153702
 20
431.4168437236064
 30
0.0
 11
-61.85332427153702
 21
342.4158572635136
 31
0.0
  0
LINE
  5
98
330
1F
100
AcDbEntity
  8
B-2_蓋
  6
Continuous
 62
     3
370
     9
100
AcDbLine
 10
-68.85339685388499
 20
331.4154250686234
 30
0.0
 11
-68.85339685388499
 21
242.4153293918919
 31
0.0
  0
LINE
  5
99
330
1F
100
AcDbEntity
  8
B-2_蓋
  6
Continuous
 62
     3
370
     9
100
AcDbLine
 10
-61.85332427153702
 20
331.4154250686234
 30
0.0
 11
-61.85332427153702
 21
242.4153293918919
 31
0.0
  0
LINE
  5
9A
330
1F
100
AcDbEntity
  8
B-2_蓋
  6
Continuous
 62
     3
370
     9
100
AcDbLine
 10
-104.1535083667652
 20
431.4168437236064
 30
0.0
 11
-104.1535083667652
 21
342.4158572635136
 31
0.0
  0
LINE
  5
9B
330
1F
100
AcDbEntity
  8
B-2_蓋
  6
Continuous
 62
     3
370
     9
100
AcDbLine
 10
-97.15343578441718
 20
431.4168437236064
 30
0.0
 11
-97.15343578441718
 21
342.4158572635136
 31
0.0
  0
LINE
  5
9C
330
1F
100
AcDbEntity
  8
B-2_蓋
  6
Continuous
 62
     3
370
     9
100
AcDbLine
 10
-104.1535083667652
 20
331.4154250686234
 30
0.0
 11
-104.1535083667652
 21
242.4153293918919
 31
0.0
  0
LINE
  5
9D
330
1F
100
AcDbEntity
  8
B-2_蓋
  6
Continuous
 62
     3
370
     9
100
AcDbLine
 10
-97.15343578441718
 20
331.4154250686234
 30
0.0
 11
-97.15343578441718
 21
242.4153293918919
 31
0.0
  0
LINE
  5
9E
330
1F
100
AcDbEntity
  8
B-2_蓋
  6
Continuous
 62
     3
370
     9
100
AcDbLine
 10
-139.4537683435387
 20
431.4168437236064
 30
0.0
 11
-139.4537683435387
 21
342.4158572635136
 31
0.0
  0
LINE
  5
9F
330
1F
100
AcDbEntity
  8
B-2_蓋
  6
Continuous
 62
     3
370
     9
100
AcDbLine
 10
-132.4536957611908
 20
431.4168437236064
 30
0.0
 11
-132.4536957611908
 21
342.4158572635136
 31
0.0
  0
LINE
  5
A0
330
1F
100
AcDbEntity
  8
B-2_蓋
  6
Continuous
 62
     3
370
     9
100
AcDbLine
 10
-139.4537683435387
 20
331.4154250686234
 30
0.0
 11
-139.4537683435387
 21
242.4153293918919
 31
0.0
  0
LINE
  5
A1
330
1F
100
AcDbEntity
  8
B-2_蓋
  6
Continuous
 62
     3
370
     9
100
AcDbLine
 10
-132.4536957611908
 20
331.4154250686234
 30
0.0
 11
-132.4536957611908
 21
242.4153293918919
 31
0.0
  0
LINE
  5
A2
330
1F
100
AcDbEntity
  8
B-2_蓋
  6
Continuous
 62
     3
370
     9
100
AcDbLine
 10
-174.7538798564189
 20
431.4168437236064
 30
0.0
 11
-174.7538798564189
 21
342.4158572635136
 31
0.0
  0
LINE
  5
A3
330
1F
100
AcDbEntity
  8
B-2_蓋
  6
Continuous
 62
     3
370
     9
100
AcDbLine
 10
-167.7538072740709
 20
431.4168437236064
 30
0.0
 11
-167.7538072740709
 21
342.4158572635136
 31
0.0
  0
LINE
  5
A4
330
1F
100
AcDbEntity
  8
B-2_蓋
  6
Continuous
 62
     3
370
     9
100
AcDbLine
 10
-174.7538798564189
 20
331.4154250686234
 30
0.0
 11
-174.7538798564189
 21
242.4153293918919
 31
0.0
  0
LINE
  5
A5
330
1F
100
AcDbEntity
  8
B-2_蓋
  6
Continuous
 62
     3
370
     9
100
AcDbLine
 10
-167.7538072740709
 20
331.4154250686234
 30
0.0
 11
-167.7538072740709
 21
242.4153293918919
 31
0.0
  0
LINE
  5
A6
330
1F
100
AcDbEntity
  8
B-2_蓋
  6
Continuous
 62
     3
370
     9
100
AcDbLine
 10
-210.0534717456714
 20
431.4168437236064
 30
0.0
 11
-210.0534717456714
 21
342.4158572635136
 31
0.0
  0
LINE
  5
A7
330
1F
100
AcDbEntity
  8
B-2_蓋
  6
Continuous
 62
     3
370
     9
100
AcDbLine
 10
-203.053547627217
 20
431.4168437236064
 30
0.0
 11
-203.053547627217
 21
342.4158572635136
 31
0.0
  0
LINE
  5
A8
330
1F
100
AcDbEntity
  8
B-2_蓋
  6
Continuous
 62
     3
370
     9
100
AcDbLine
 10
-210.0534717456714
 20
331.4154250686234
 30
0.0
 11
-210.0534717456714
 21
242.4153293918919
 31
0.0
  0
LINE
  5
A9
330
1F
100
AcDbEntity
  8
B-2_蓋
  6
Continuous
 62
     3
370
     9
100
AcDbLine
 10
-203.053547627217
 20
331.4154250686234
 30
0.0
 11
-203.053547627217
 21
242.4153293918919
 31
0.0
  0
LINE
  5
AA
330
1F
100
AcDbEntity
  8
B-2_蓋
  6
Continuous
 62
     3
370
     9
100
AcDbLine
 10
-245.3531378668708
 20
431.4168437236064
 30
0.0
 11
-245.3531378668708
 21
342.4158572635136
 31
0.0
  0
LINE
  5
AB
330
1F
100
AcDbEntity
  8
B-2_蓋
  6
Continuous
 62
     3
370
     9
100
AcDbLine
 10
-238.3530652845228
 20
431.4168437236064
 30
0.0
 11
-238.3530652845228
 21
342.4158572635136
 31
0.0
  0
LINE
  5
AC
330
1F
100
AcDbEntity
  8
B-2_蓋
  6
Continuous
 62
     3
370
     9
100
AcDbLine
 10
-245.3531378668708
 20
331.4154250686234
 30
0.0
 11
-245.3531378668708
 21
242.4153293918919
 31
0.0
  0
LINE
  5
AD
330
1F
100
AcDbEntity
  8
B-2_蓋
  6
Continuous
 62
     3
370
     9
100
AcDbLine
 10
-238.3530652845228
 20
331.4154250686234
 30
0.0
 11
-238.3530652845228
 21
242.4153293918919
 31
0.0
  0
LINE
  5
AE
330
1F
100
AcDbEntity
  8
B-2_蓋
  6
Continuous
 62
     3
370
     9
100
AcDbLine
 10
-280.6531751478041
 20
431.4168437236064
 30
0.0
 11
-280.6531751478041
 21
342.4158572635136
 31
0.0
  0
LINE
  5
AF
330
1F
100
AcDbEntity
  8
B-2_蓋
  6
Continuous
 62
     3
370
     9
100
AcDbLine
 10
-273.6533252612964
 20
431.4168437236064
 30
0.0
 11
-273.6533252612964
 21
342.4158572635136
 31
0.0
  0
LINE
  5
B0
330
1F
100
AcDbEntity
  8
B-2_蓋
  6
Continuous
 62
     3
370
     9
100
AcDbLine
 10
-280.6531751478041
 20
331.4154250686234
 30
0.0
 11
-280.6531751478041
 21
242.4153293918919
 31
0.0
  0
LINE
  5
B1
330
1F
100
AcDbEntity
  8
B-2_蓋
  6
Continuous
 62
     3
370
     9
100
AcDbLine
 10
-273.6533252612964
 20
331.4154250686234
 30
0.0
 11
-273.6533252612964
 21
242.4153293918919
 31
0.0
  0
LINE
  5
B2
330
1F
100
AcDbEntity
  8
B-2_蓋
  6
Continuous
 62
     3
370
     9
100
AcDbLine
 10
-315.9534351245777
 20
431.4168437236064
 30
0.0
 11
-315.9534351245777
 21
342.4158572635136
 31
0.0
  0
LINE
  5
B3
330
1F
100
AcDbEntity
  8
B-2_蓋
  6
Continuous
 62
     3
370
     9
100
AcDbLine
 10
-308.9534367741764
 20
431.4168437236064
 30
0.0
 11
-308.9534367741764
 21
342.4158572635136
 31
0.0
  0
LINE
  5
B4
330
1F
100
AcDbEntity
  8
B-2_蓋
  6
Continuous
 62
     3
370
     9
100
AcDbLine
 10
-315.9534351245777
 20
331.4154250686234
 30
0.0
 11
-315.9534351245777
 21
242.4153293918919
 31
0.0
  0
LINE
  5
B5
330
1F
100
AcDbEntity
  8
B-2_蓋
  6
Continuous
 62
     3
370
     9
100
AcDbLine
 10
-308.9534367741764
 20
331.4154250686234
 30
0.0
 11
-308.9534367741764
 21
242.4153293918919
 31
0.0
  0
LINE
  5
B6
330
1F
100
AcDbEntity
  8
B-2_蓋
  6
Continuous
 62
     3
370
     9
100
AcDbLine
 10
-351.2531754777237
 20
431.4168437236064
 30
0.0
 11
-351.2531754777237
 21
342.4158572635136
 31
0.0
  0
LINE
  5
B7
330
1F
100
AcDbEntity
  8
B-2_蓋
  6
Continuous
 62
     3
370
     9
100
AcDbLine
 10
-344.2530286634291
 20
431.4168437236064
 30
0.0
 11
-344.2530286634291
 21
342.4158572635136
 31
0.0
  0
LINE
  5
B8
330
1F
100
AcDbEntity
  8
B-2_蓋
  6
Continuous
 62
     3
370
     9
100
AcDbLine
 10
-351.2531754777237
 20
331.4154250686234
 30
0.0
 11
-351.2531754777237
 21
242.4153293918919
 31
0.0
  0
LINE
  5
B9
330
1F
100
AcDbEntity
  8
B-2_蓋
  6
Continuous
 62
     3
370
     9
100
AcDbLine
 10
-344.2530286634291
 20
331.4154250686234
 30
0.0
 11
-344.2530286634291
 21
242.4153293918919
 31
0.0
  0
LINE
  5
BA
330
1F
100
AcDbEntity
  8
B-2_蓋
  6
Continuous
 62
     3
370
     9
100
AcDbLine
 10
-386.5534354544973
 20
431.4168437236064
 30
0.0
 11
-386.5534354544973
 21
342.4158572635136
 31
0.0
  0
LINE
  5
BB
330
1F
100
AcDbEntity
  8
B-2_蓋
  6
Continuous
 62
     3
370
     9
100
AcDbLine
 10
-379.5533628721494
 20
431.4168437236064
 30
0.0
 11
-379.5533628721494
 21
342.4158572635136
 31
0.0
  0
LINE
  5
BC
330
1F
100
AcDbEntity
  8
B-2_蓋
  6
Continuous
 62
     3
370
     9
100
AcDbLine
 10
-386.5534354544973
 20
331.4154250686234
 30
0.0
 11
-386.5534354544973
 21
242.4153293918919
 31
0.0
  0
LINE
  5
BD
330
1F
100
AcDbEntity
  8
B-2_蓋
  6
Continuous
 62
     3
370
     9
100
AcDbLine
 10
-379.5533628721494
 20
331.4154250686234
 30
0.0
 11
-379.5533628721494
 21
242.4153293918919
 31
0.0
  0
LINE
  5
BE
330
1F
100
AcDbEntity
  8
B-2_蓋
  6
Continuous
 62
     3
370
     9
100
AcDbLine
 10
-421.8528788798564
 20
431.4168437236064
 30
0.0
 11
-421.8528788798564
 21
342.4158572635136
 31
0.0
  0
LINE
  5
BF
330
1F
100
AcDbEntity
  8
B-2_蓋
  6
Continuous
 62
     3
370
     9
100
AcDbLine
 10
-414.8530289933487
 20
431.4168437236064
 30
0.0
 11
-414.8530289933487
 21
342.4158572635136
 31
0.0
  0
LINE
  5
C0
330
1F
100
AcDbEntity
  8
B-2_蓋
  6
Continuous
 62
     3
370
     9
100
AcDbLine
 10
-421.8528788798564
 20
331.4154250686234
 30
0.0
 11
-421.8528788798564
 21
242.4153293918919
 31
0.0
  0
LINE
  5
C1
330
1F
100
AcDbEntity
  8
B-2_蓋
  6
Continuous
 62
     3
370
     9
100
AcDbLine
 10
-414.8530289933487
 20
331.4154250686234
 30
0.0
 11
-414.8530289933487
 21
242.4153293918919
 31
0.0
  0
LINE
  5
C2
330
1F
100
AcDbEntity
  8
B-2_蓋
  6
Continuous
 62
     3
370
     9
100
AcDbLine
 10
-457.1529903927364
 20
431.4168437236064
 30
0.0
 11
-457.1529903927364
 21
342.4158572635136
 31
0.0
  0
LINE
  5
C3
330
1F
100
AcDbEntity
  8
B-2_蓋
  6
Continuous
 62
     3
370
     9
100
AcDbLine
 10
-450.1531405062289
 20
431.4168437236064
 30
0.0
 11
-450.1531405062289
 21
342.4158572635136
 31
0.0
  0
LINE
  5
C4
330
1F
100
AcDbEntity
  8
B-2_蓋
  6
Continuous
 62
     3
370
     9
100
AcDbLine
 10
-457.1529903927364
 20
331.4154250686234
 30
0.0
 11
-457.1529903927364
 21
242.4153293918919
 31
0.0
  0
LINE
  5
C5
330
1F
100
AcDbEntity
  8
B-2_蓋
  6
Continuous
 62
     3
370
     9
100
AcDbLine
 10
-450.1531405062289
 20
331.4154250686234
 30
0.0
 11
-450.1531405062289
 21
242.4153293918919
 31
0.0
  0
LINE
  5
C6
330
1F
100
AcDbEntity
  8
B-2_蓋
  6
Continuous
 62
     3
370
     9
100
AcDbLine
 10
-492.4532503695101
 20
431.4168437236064
 30
0.0
 11
-492.4532503695101
 21
342.4158572635136
 31
0.0
  0
LINE
  5
C7
330
1F
100
AcDbEntity
  8
B-2_蓋
  6
Continuous
 62
     3
370
     9
100
AcDbLine
 10
-485.4532520191089
 20
431.4168437236064
 30
0.0
 11
-485.4532520191089
 21
342.4158572635136
 31
0.0
  0
LINE
  5
C8
330
1F
100
AcDbEntity
  8
B-2_蓋
  6
Continuous
 62
     3
370
     9
100
AcDbLine
 10
-492.4532503695101
 20
331.4154250686234
 30
0.0
 11
-492.4532503695101
 21
242.4153293918919
 31
0.0
  0
LINE
  5
C9
330
1F
100
AcDbEntity
  8
B-2_蓋
  6
Continuous
 62
     3
370
     9
100
AcDbLine
 10
-485.4532520191089
 20
331.4154250686234
 30
0.0
 11
-485.4532520191089
 21
242.4153293918919
 31
0.0
  0
LINE
  5
CA
330
1F
100
AcDbEntity
  8
B-2_蓋
  6
Continuous
 62
     3
370
     9
100
AcDbLine
 10
-527.7529907226562
 20
431.4168437236064
 30
0.0
 11
-527.7529907226562
 21
342.4158572635136
 31
0.0
  0
LINE
  5
CB
330
1F
100
AcDbEntity
  8
B-2_蓋
  6
Continuous
 62
     3
370
     9
100
AcDbLine
 10
-520.752992372255
 20
431.4168437236064
 30
0.0
 11
-520.752992372255
 21
342.4158572635136
 31
0.0
  0
LINE
  5
CC
330
1F
100
AcDbEntity
  8
B-2_蓋
  6
Continuous
 62
     3
370
     9
100
AcDbLine
 10
-527.7529907226562
 20
331.4154250686234
 30
0.0
 11
-527.7529907226562
 21
242.4153293918919
 31
0.0
  0
LINE
  5
CD
330
1F
100
AcDbEntity
  8
B-2_蓋
  6
Continuous
 62
     3
370
     9
100
AcDbLine
 10
-520.752992372255
 20
331.4154250686234
 30
0.0
 11
-520.752992372255
 21
242.4153293918919
 31
0.0
  0
LINE
  5
CE
330
1F
100
AcDbEntity
  8
B-2_蓋
  6
Continuous
 62
     3
370
     9
100
AcDbLine
 10
-563.0532506994298
 20
431.4168437236064
 30
0.0
 11
-563.0532506994298
 21
342.4158572635136
 31
0.0
  0
LINE
  5
CF
330
1F
100
AcDbEntity
  8
B-2_蓋
  6
Continuous
 62
     3
370
     9
100
AcDbLine
 10
-556.0531781170819
 20
431.4168437236064
 30
0.0
 11
-556.0531781170819
 21
342.4158572635136
 31
0.0
  0
LINE
  5
D0
330
1F
100
AcDbEntity
  8
B-2_蓋
  6
Continuous
 62
     3
370
     9
100
AcDbLine
 10
-563.0532506994298
 20
331.4154250686234
 30
0.0
 11
-563.0532506994298
 21
242.4153293918919
 31
0.0
  0
LINE
  5
D1
330
1F
100
AcDbEntity
  8
B-2_蓋
  6
Continuous
 62
     3
370
     9
100
AcDbLine
 10
-556.0531781170819
 20
331.4154250686234
 30
0.0
 11
-556.0531781170819
 21
242.4153293918919
 31
0.0
  0
LINE
  5
D2
330
1F
100
AcDbEntity
  8
B-2_蓋
  6
Continuous
 62
     3
370
     9
100
AcDbLine
 10
-598.3528425886824
 20
431.4168437236064
 30
0.0
 11
-598.3528425886824
 21
342.4158572635136
 31
0.0
  0
LINE
  5
D3
330
1F
100
AcDbEntity
  8
B-2_蓋
  6
Continuous
 62
     3
370
     9
100
AcDbLine
 10
-591.3527700063345
 20
431.4168437236064
 30
0.0
 11
-591.3527700063345
 21
342.4158572635136
 31
0.0
  0
LINE
  5
D4
330
1F
100
AcDbEntity
  8
B-2_蓋
  6
Continuous
 62
     3
370
     9
100
AcDbLine
 10
-598.3528425886824
 20
331.4154250686234
 30
0.0
 11
-598.3528425886824
 21
242.4153293918919
 31
0.0
  0
LINE
  5
D5
330
1F
100
AcDbEntity
  8
B-2_蓋
  6
Continuous
 62
     3
370
     9
100
AcDbLine
 10
-591.3527700063345
 20
331.4154250686234
 30
0.0
 11
-591.3527700063345
 21
242.4153293918919
 31
0.0
  0
LINE
  5
D6
330
1F
100
AcDbEntity
  8
B-2_蓋
  6
Continuous
 62
     3
370
     9
100
AcDbLine
 10
-633.6529541015625
 20
431.4168437236064
 30
0.0
 11
-633.6529541015625
 21
342.4158572635136
 31
0.0
  0
LINE
  5
D7
330
1F
100
AcDbEntity
  8
B-2_蓋
  6
Continuous
 62
     3
370
     9
100
AcDbLine
 10
-626.6528815192146
 20
431.4168437236064
 30
0.0
 11
-626.6528815192146
 21
342.4158572635136
 31
0.0
  0
LINE
  5
D8
330
1F
100
AcDbEntity
  8
B-2_蓋
  6
Continuous
 62
     3
370
     9
100
AcDbLine
 10
-633.6529541015625
 20
331.4154250686234
 30
0.0
 11
-633.6529541015625
 21
242.4153293918919
 31
0.0
  0
LINE
  5
D9
330
1F
100
AcDbEntity
  8
B-2_蓋
  6
Continuous
 62
     3
370
     9
100
AcDbLine
 10
-626.6528815192146
 20
331.4154250686234
 30
0.0
 11
-626.6528815192146
 21
242.4153293918919
 31
0.0
  0
LINE
  5
DA
330
1F
100
AcDbEntity
  8
B-2_蓋
  6
Continuous
 62
     3
370
     9
100
AcDbLine
 10
-668.9530656144425
 20
431.4168437236064
 30
0.0
 11
-668.9530656144425
 21
342.4158572635136
 31
0.0
  0
LINE
  5
DB
330
1F
100
AcDbEntity
  8
B-2_蓋
  6
Continuous
 62
     3
370
     9
100
AcDbLine
 10
-661.9532899598817
 20
431.4168437236064
 30
0.0
 11
-661.9532899598817
 21
342.4158572635136
 31
0.0
  0
LINE
  5
DC
330
1F
100
AcDbEntity
  8
B-2_蓋
  6
Continuous
 62
     3
370
     9
100
AcDbLine
 10
-668.9530656144425
 20
331.4154250686234
 30
0.0
 11
-668.9530656144425
 21
242.4153293918919
 31
0.0
  0
LINE
  5
DD
330
1F
100
AcDbEntity
  8
B-2_蓋
  6
Continuous
 62
     3
370
     9
100
AcDbLine
 10
-661.9532899598817
 20
331.4154250686234
 30
0.0
 11
-661.9532899598817
 21
242.4153293918919
 31
0.0
  0
LINE
  5
DE
330
1F
100
AcDbEntity
  8
B-2_蓋
  6
Continuous
 62
     3
370
     9
100
AcDbLine
 10
-704.2527317356419
 20
431.4168437236064
 30
0.0
 11
-704.2527317356419
 21
342.4158572635136
 31
0.0
  0
LINE
  5
DF
330
1F
100
AcDbEntity
  8
B-2_蓋
  6
Continuous
 62
     3
370
     9
100
AcDbLine
 10
-697.2528076171875
 20
431.4168437236064
 30
0.0
 11
-697.2528076171875
 21
342.4158572635136
 31
0.0
  0
LINE
  5
E0
330
1F
100
AcDbEntity
  8
B-2_蓋
  6
Continuous
 62
     3
370
     9
100
AcDbLine
 10
-704.2527317356419
 20
331.4154250686234
 30
0.0
 11
-704.2527317356419
 21
242.4153293918919
 31
0.0
  0
LINE
  5
E1
330
1F
100
AcDbEntity
  8
B-2_蓋
  6
Continuous
 62
     3
370
     9
100
AcDbLine
 10
-697.2528076171875
 20
331.4154250686234
 30
0.0
 11
-697.2528076171875
 21
242.4153293918919
 31
0.0
  0
LINE
  5
E2
330
1F
100
AcDbEntity
  8
B-2_蓋
  6
Continuous
 62
     3
370
     9
100
AcDbLine
 10
-739.5531401763091
 20
431.4168437236064
 30
0.0
 11
-739.5531401763091
 21
342.4158572635136
 31
0.0
  0
LINE
  5
E3
330
1F
100
AcDbEntity
  8
B-2_蓋
  6
Continuous
 62
     3
370
     9
100
AcDbLine
 10
-732.5529191300676
 20
431.4168437236064
 30
0.0
 11
-732.5529191300676
 21
342.4158572635136
 31
0.0
  0
LINE
  5
E4
330
1F
100
AcDbEntity
  8
B-2_蓋
  6
Continuous
 62
     3
370
     9
100
AcDbLine
 10
-739.5531401763091
 20
331.4154250686234
 30
0.0
 11
-739.5531401763091
 21
242.4153293918919
 31
0.0
  0
LINE
  5
E5
330
1F
100
AcDbEntity
  8
B-2_蓋
  6
Continuous
 62
     3
370
     9
100
AcDbLine
 10
-732.5529191300676
 20
331.4154250686234
 30
0.0
 11
-732.5529191300676
 21
242.4153293918919
 31
0.0
  0
LINE
  5
E6
330
1F
100
AcDbEntity
  8
B-2_蓋
  6
Continuous
 62
     3
370
     9
100
AcDbLine
 10
-774.8529547614021
 20
431.4168437236064
 30
0.0
 11
-774.8529547614021
 21
342.4158572635136
 31
0.0
  0
LINE
  5
E7
330
1F
100
AcDbEntity
  8
B-2_蓋
  6
Continuous
 62
     3
370
     9
100
AcDbLine
 10
-767.8533275707348
 20
431.4168437236064
 30
0.0
 11
-767.8533275707348
 21
342.4158572635136
 31
0.0
  0
LINE
  5
E8
330
1F
100
AcDbEntity
  8
B-2_蓋
  6
Continuous
 62
     3
370
     9
100
AcDbLine
 10
-774.8529547614021
 20
331.4154250686234
 30
0.0
 11
-774.8529547614021
 21
242.4153293918919
 31
0.0
  0
LINE
  5
E9
330
1F
100
AcDbEntity
  8
B-2_蓋
  6
Continuous
 62
     3
370
     9
100
AcDbLine
 10
-767.8533275707348
 20
331.4154250686234
 30
0.0
 11
-767.8533275707348
 21
242.4153293918919
 31
0.0
  0
LINE
  5
EA
330
1F
100
AcDbEntity
  8
B-2_蓋
  6
Continuous
 62
     3
370
     9
100
AcDbLine
 10
-810.152769346495
 20
431.4168437236064
 30
0.0
 11
-810.152769346495
 21
342.4158572635136
 31
0.0
  0
LINE
  5
EB
330
1F
100
AcDbEntity
  8
B-2_蓋
  6
Continuous
 62
     3
370
     9
100
AcDbLine
 10
-803.1529194599873
 20
431.4168437236064
 30
0.0
 11
-803.1529194599873
 21
342.4158572635136
 31
0.0
  0
LINE
  5
EC
330
1F
100
AcDbEntity
  8
B-2_蓋
  6
Continuous
 62
     3
370
     9
100
AcDbLine
 10
-810.152769346495
 20
331.4154250686234
 30
0.0
 11
-810.152769346495
 21
242.4153293918919
 31
0.0
  0
LINE
  5
ED
330
1F
100
AcDbEntity
  8
B-2_蓋
  6
Continuous
 62
     3
370
     9
100
AcDbLine
 10
-803.1529194599873
 20
331.4154250686234
 30
0.0
 11
-803.1529194599873
 21
242.4153293918919
 31
0.0
  0
LINE
  5
EE
330
1F
100
AcDbEntity
  8
B-2_蓋
  6
Continuous
 62
     3
370
     9
100
AcDbLine
 10
-845.452880859375
 20
431.4168437236064
 30
0.0
 11
-845.452880859375
 21
342.4158572635136
 31
0.0
  0
LINE
  5
EF
330
1F
100
AcDbEntity
  8
B-2_蓋
  6
Continuous
 62
     3
370
     9
100
AcDbLine
 10
-838.4529567409206
 20
431.4168437236064
 30
0.0
 11
-838.4529567409206
 21
342.4158572635136
 31
0.0
  0
LINE
  5
F0
330
1F
100
AcDbEntity
  8
B-2_蓋
  6
Continuous
 62
     3
370
     9
100
AcDbLine
 10
-845.452880859375
 20
331.4154250686234
 30
0.0
 11
-845.452880859375
 21
242.4153293918919
 31
0.0
  0
LINE
  5
F1
330
1F
100
AcDbEntity
  8
B-2_蓋
  6
Continuous
 62
     3
370
     9
100
AcDbLine
 10
-838.4529567409206
 20
331.4154250686234
 30
0.0
 11
-838.4529567409206
 21
242.4153293918919
 31
0.0
  0
LINE
  5
F2
330
1F
100
AcDbEntity
  8
B-2_蓋
  6
Continuous
 62
     3
370
     9
100
AcDbLine
 10
-880.7531408361485
 20
431.4168437236064
 30
0.0
 11
-880.7531408361485
 21
342.4158572635136
 31
0.0
  0
LINE
  5
F3
330
1F
100
AcDbEntity
  8
B-2_蓋
  6
Continuous
 62
     3
370
     9
100
AcDbLine
 10
-873.7530682538006
 20
431.4168437236064
 30
0.0
 11
-873.7530682538006
 21
342.4158572635136
 31
0.0
  0
LINE
  5
F4
330
1F
100
AcDbEntity
  8
B-2_蓋
  6
Continuous
 62
     3
370
     9
100
AcDbLine
 10
-880.7531408361485
 20
331.4154250686234
 30
0.0
 11
-880.7531408361485
 21
242.4153293918919
 31
0.0
  0
LINE
  5
F5
330
1F
100
AcDbEntity
  8
B-2_蓋
  6
Continuous
 62
     3
370
     9
100
AcDbLine
 10
-873.7530682538006
 20
331.4154250686234
 30
0.0
 11
-873.7530682538006
 21
242.4153293918919
 31
0.0
  0
LINE
  5
F6
330
1F
100
AcDbEntity
  8
B-2_蓋
  6
Continuous
 62
     3
370
     9
100
AcDbLine
 10
-908.6528468776394
 20
431.4168437236064
 30
0.0
 11
-873.7530682538006
 21
442.4162366712416
 31
0.0
  0
LINE
  5
F7
330
1F
100
AcDbEntity
  8
B-2_蓋
  6
Continuous
 62
     3
370
     9
100
AcDbLine
 10
-873.352809596706
 20
431.4168437236064
 30
0.0
 11
-838.4534021326012
 21
442.4162366712416
 31
0.0
  0
LINE
  5
F8
330
1F
100
AcDbEntity
  8
B-2_蓋
  6
Continuous
 62
     3
370
     9
100
AcDbLine
 10
-838.0532177074534
 20
431.4168437236064
 30
0.0
 11
-803.1534390836148
 21
442.4162366712416
 31
0.0
  0
LINE
  5
F9
330
1F
100
AcDbEntity
  8
B-2_蓋
  6
Continuous
 62
     3
370
     9
100
AcDbLine
 10
-802.7529577306798
 20
431.4168437236064
 30
0.0
 11
-767.8533275707348
 21
442.4162366712416
 31
0.0
  0
LINE
  5
FA
330
1F
100
AcDbEntity
  8
B-2_蓋
  6
Continuous
 62
     3
370
     9
100
AcDbLine
 10
-767.4532916094805
 20
431.4168437236064
 30
0.0
 11
-732.5535129856419
 21
442.4162366712416
 31
0.0
  0
LINE
  5
FB
330
1F
100
AcDbEntity
  8
B-2_蓋
  6
Continuous
 62
     3
370
     9
100
AcDbLine
 10
-732.1531800966004
 20
431.4168437236064
 30
0.0
 11
-697.2532530088682
 21
442.4162366712416
 31
0.0
  0
LINE
  5
FC
330
1F
100
AcDbEntity
  8
B-2_蓋
  6
Continuous
 62
     3
370
     9
100
AcDbLine
 10
-696.8529943517735
 20
431.4168437236064
 30
0.0
 11
-661.9532899598817
 21
442.4162366712416
 31
0.0
  0
LINE
  5
FD
330
1F
100
AcDbEntity
  8
B-2_蓋
  6
Continuous
 62
     3
370
     9
100
AcDbLine
 10
-661.5532539986275
 20
431.4168437236064
 30
0.0
 11
-626.6532526789484
 21
442.4162366712416
 31
0.0
  0
LINE
  5
FE
330
1F
100
AcDbEntity
  8
B-2_蓋
  6
Continuous
 62
     3
370
     9
100
AcDbLine
 10
-626.2531424857474
 20
431.4168437236064
 30
0.0
 11
-591.3533638619087
 21
442.4162366712416
 31
0.0
  0
LINE
  5
FF
330
1F
100
AcDbEntity
  8
B-2_蓋
  6
Continuous
 62
     3
370
     9
100
AcDbLine
 10
-590.9528825089737
 20
431.4168437236064
 30
0.0
 11
-556.0531781170819
 21
442.4162366712416
 31
0.0
  0
LINE
  5
100
330
1F
100
AcDbEntity
  8
B-2_蓋
  6
Continuous
 62
     3
370
     9
100
AcDbLine
 10
-555.6532906197212
 20
431.4168437236064
 30
0.0
 11
-520.7534377639358
 21
442.4162366712416
 31
0.0
  0
LINE
  5
101
330
1F
100
AcDbEntity
  8
B-2_蓋
  6
Continuous
 62
     3
370
     9
100
AcDbLine
 10
-520.3531791068411
 20
431.4168437236064
 30
0.0
 11
-485.4532520191089
 21
442.4162366712416
 31
0.0
  0
LINE
  5
102
330
1F
100
AcDbEntity
  8
B-2_蓋
  6
Continuous
 62
     3
370
     9
100
AcDbLine
 10
-485.0529191300675
 20
431.4168437236064
 30
0.0
 11
-450.1531405062289
 21
442.4162366712416
 31
0.0
  0
LINE
  5
103
330
1F
100
AcDbEntity
  8
B-2_蓋
  6
Continuous
 62
     3
370
     9
100
AcDbLine
 10
-449.7532530088681
 20
431.4168437236064
 30
0.0
 11
-414.8535486169762
 21
442.4162366712416
 31
0.0
  0
LINE
  5
104
330
1F
100
AcDbEntity
  8
B-2_蓋
  6
Continuous
 62
     3
370
     9
100
AcDbLine
 10
-414.4530672640414
 20
431.4168437236064
 30
0.0
 11
-379.5533628721494
 21
442.4162366712416
 31
0.0
  0
LINE
  5
105
330
1F
100
AcDbEntity
  8
B-2_蓋
  6
Continuous
 62
     3
370
     9
100
AcDbLine
 10
-379.1534753747887
 20
431.4168437236064
 30
0.0
 11
-344.2536225190033
 21
442.4162366712416
 31
0.0
  0
LINE
  5
106
330
1F
100
AcDbEntity
  8
B-2_蓋
  6
Continuous
 62
     3
370
     9
100
AcDbLine
 10
-343.8533638619087
 20
431.4168437236064
 30
0.0
 11
-308.9534367741764
 21
442.4162366712416
 31
0.0
  0
LINE
  5
107
330
1F
100
AcDbEntity
  8
B-2_蓋
  6
Continuous
 62
     3
370
     9
100
AcDbLine
 10
-308.5531781170819
 20
431.4168437236064
 30
0.0
 11
-273.6533252612964
 21
442.4162366712416
 31
0.0
  0
LINE
  5
108
330
1F
100
AcDbEntity
  8
B-2_蓋
  6
Continuous
 62
     3
370
     9
100
AcDbLine
 10
-273.2535119958825
 20
431.4168437236064
 30
0.0
 11
-238.353659140097
 21
442.4162366712416
 31
0.0
  0
LINE
  5
109
330
1F
100
AcDbEntity
  8
B-2_蓋
  6
Continuous
 62
     3
370
     9
100
AcDbLine
 10
-237.9532520191089
 20
431.4168437236064
 30
0.0
 11
-203.053547627217
 21
442.4162366712416
 31
0.0
  0
LINE
  5
10A
330
1F
100
AcDbEntity
  8
B-2_蓋
  6
Continuous
 62
     3
370
     9
100
AcDbLine
 10
-202.6532147381756
 20
431.4168437236064
 30
0.0
 11
-167.7538072740709
 21
442.4162366712416
 31
0.0
  0
LINE
  5
10B
330
1F
100
AcDbEntity
  8
B-2_蓋
  6
Continuous
 62
     3
370
     9
100
AcDbLine
 10
-167.3534743850295
 20
431.4168437236064
 30
0.0
 11
-132.4536957611908
 21
442.4162366712416
 31
0.0
  0
LINE
  5
10C
330
1F
100
AcDbEntity
  8
B-2_蓋
  6
Continuous
 62
     3
370
     9
100
AcDbLine
 10
-132.0532144082558
 20
431.4168437236064
 30
0.0
 11
-97.15343578441718
 21
442.4162366712416
 31
0.0
  0
LINE
  5
10D
330
1F
100
AcDbEntity
  8
B-2_蓋
  6
Continuous
 62
     3
370
     9
100
AcDbLine
 10
-96.75332559121608
 20
431.4168437236064
 30
0.0
 11
-61.85332427153702
 21
442.4162366712416
 31
0.0
  0
LINE
  5
10E
330
1F
100
AcDbEntity
  8
B-2_蓋
  6
Continuous
 62
     3
370
     9
100
AcDbLine
 10
-61.4529171505489
 20
431.4168437236064
 30
0.0
 11
-26.55336122255062
 21
442.4162366712416
 31
0.0
  0
LINE
  5
10F
330
1F
100
AcDbEntity
  8
B-2_蓋
  6
Continuous
 62
     3
370
     9
100
AcDbLine
 10
-26.15399334881749
 20
431.4168437236064
 30
0.0
 11
8.746898754222968
 21
442.4162366712416
 31
0.0
  0
LINE
  5
110
330
1F
100
AcDbEntity
  8
B-2_蓋
  6
Continuous
 62
     3
370
     9
100
AcDbLine
 10
9.146266627956095
 20
431.4168437236064
 30
0.0
 11
44.04611948374156
 21
442.4162366712416
 31
0.0
  0
LINE
  5
111
330
1F
100
AcDbEntity
  8
B-2_蓋
  6
Continuous
 62
     3
370
     9
100
AcDbLine
 10
44.44652660472985
 20
431.4168437236064
 30
0.0
 11
79.34623099662173
 21
442.4162366712416
 31
0.0
  0
LINE
  5
112
330
1F
100
AcDbEntity
  8
B-2_蓋
  6
Continuous
 62
     3
370
     9
100
AcDbLine
 10
-915.6534390836148
 20
440.3352182749156
 30
0.0
 11
-909.0533282305744
 21
442.4162366712416
 31
0.0
  0
LINE
  5
113
330
1F
100
AcDbEntity
  8
B-2_蓋
  6
Continuous
 62
     3
370
     9
100
AcDbLine
 10
-908.6528468776394
 20
331.4163158519848
 30
0.0
 11
-873.7530682538006
 21
342.4158572635136
 31
0.0
  0
LINE
  5
114
330
1F
100
AcDbEntity
  8
B-2_蓋
  6
Continuous
 62
     3
370
     9
100
AcDbLine
 10
-873.352809596706
 20
331.4163158519848
 30
0.0
 11
-838.4534021326012
 21
342.4158572635136
 31
0.0
  0
LINE
  5
115
330
1F
100
AcDbEntity
  8
B-2_蓋
  6
Continuous
 62
     3
370
     9
100
AcDbLine
 10
-838.0532177074534
 20
331.4163158519848
 30
0.0
 11
-803.1534390836148
 21
342.4158572635136
 31
0.0
  0
LINE
  5
116
330
1F
100
AcDbEntity
  8
B-2_蓋
  6
Continuous
 62
     3
370
     9
100
AcDbLine
 10
-802.7529577306798
 20
331.4163158519848
 30
0.0
 11
-767.8533275707348
 21
342.4158572635136
 31
0.0
  0
LINE
  5
117
330
1F
100
AcDbEntity
  8
B-2_蓋
  6
Continuous
 62
     3
370
     9
100
AcDbLine
 10
-767.4532916094805
 20
331.4163158519848
 30
0.0
 11
-732.5535129856419
 21
342.4158572635136
 31
0.0
  0
LINE
  5
118
330
1F
100
AcDbEntity
  8
B-2_蓋
  6
Continuous
 62
     3
370
     9
100
AcDbLine
 10
-732.1531800966004
 20
331.4163158519848
 30
0.0
 11
-697.2532530088682
 21
342.4158572635136
 31
0.0
  0
LINE
  5
119
330
1F
100
AcDbEntity
  8
B-2_蓋
  6
Continuous
 62
     3
370
     9
100
AcDbLine
 10
-696.8529943517735
 20
331.4163158519848
 30
0.0
 11
-661.9532899598817
 21
342.4158572635136
 31
0.0
  0
LINE
  5
11A
330
1F
100
AcDbEntity
  8
B-2_蓋
  6
Continuous
 62
     3
370
     9
100
AcDbLine
 10
-661.5532539986275
 20
331.4163158519848
 30
0.0
 11
-626.6532526789484
 21
342.4158572635136
 31
0.0
  0
LINE
  5
11B
330
1F
100
AcDbEntity
  8
B-2_蓋
  6
Continuous
 62
     3
370
     9
100
AcDbLine
 10
-626.2531424857474
 20
331.4163158519848
 30
0.0
 11
-591.3533638619087
 21
342.4158572635136
 31
0.0
  0
LINE
  5
11C
330
1F
100
AcDbEntity
  8
B-2_蓋
  6
Continuous
 62
     3
370
     9
100
AcDbLine
 10
-590.9528825089737
 20
331.4163158519848
 30
0.0
 11
-556.0531781170819
 21
342.4158572635136
 31
0.0
  0
LINE
  5
11D
330
1F
100
AcDbEntity
  8
B-2_蓋
  6
Continuous
 62
     3
370
     9
100
AcDbLine
 10
-555.6532906197212
 20
331.4163158519848
 30
0.0
 11
-520.7534377639358
 21
342.4158572635136
 31
0.0
  0
LINE
  5
11E
330
1F
100
AcDbEntity
  8
B-2_蓋
  6
Continuous
 62
     3
370
     9
100
AcDbLine
 10
-520.3531791068411
 20
331.4163158519848
 30
0.0
 11
-485.4532520191089
 21
342.4158572635136
 31
0.0
  0
LINE
  5
11F
330
1F
100
AcDbEntity
  8
B-2_蓋
  6
Continuous
 62
     3
370
     9
100
AcDbLine
 10
-485.0529191300675
 20
331.4163158519848
 30
0.0
 11
-450.1531405062289
 21
342.4158572635136
 31
0.0
  0
LINE
  5
120
330
1F
100
AcDbEntity
  8
B-2_蓋
  6
Continuous
 62
     3
370
     9
100
AcDbLine
 10
-449.7532530088681
 20
331.4163158519848
 30
0.0
 11
-414.8535486169762
 21
342.4158572635136
 31
0.0
  0
LINE
  5
121
330
1F
100
AcDbEntity
  8
B-2_蓋
  6
Continuous
 62
     3
370
     9
100
AcDbLine
 10
-414.4530672640414
 20
331.4163158519848
 30
0.0
 11
-379.5533628721494
 21
342.4158572635136
 31
0.0
  0
LINE
  5
122
330
1F
100
AcDbEntity
  8
B-2_蓋
  6
Continuous
 62
     3
370
     9
100
AcDbLine
 10
-379.1534753747887
 20
331.4163158519848
 30
0.0
 11
-344.2536225190033
 21
342.4158572635136
 31
0.0
  0
LINE
  5
123
330
1F
100
AcDbEntity
  8
B-2_蓋
  6
Continuous
 62
     3
370
     9
100
AcDbLine
 10
-343.8533638619087
 20
331.4163158519848
 30
0.0
 11
-308.9534367741764
 21
342.4158572635136
 31
0.0
  0
LINE
  5
124
330
1F
100
AcDbEntity
  8
B-2_蓋
  6
Continuous
 62
     3
370
     9
100
AcDbLine
 10
-308.5531781170819
 20
331.4163158519848
 30
0.0
 11
-273.6533252612964
 21
342.4158572635136
 31
0.0
  0
LINE
  5
125
330
1F
100
AcDbEntity
  8
B-2_蓋
  6
Continuous
 62
     3
370
     9
100
AcDbLine
 10
-273.2535119958825
 20
331.4163158519848
 30
0.0
 11
-238.353659140097
 21
342.4158572635136
 31
0.0
  0
LINE
  5
126
330
1F
100
AcDbEntity
  8
B-2_蓋
  6
Continuous
 62
     3
370
     9
100
AcDbLine
 10
-237.9532520191089
 20
331.4163158519848
 30
0.0
 11
-203.053547627217
 21
342.4158572635136
 31
0.0
  0
LINE
  5
127
330
1F
100
AcDbEntity
  8
B-2_蓋
  6
Continuous
 62
     3
370
     9
100
AcDbLine
 10
-202.6532147381756
 20
331.4163158519848
 30
0.0
 11
-167.7538072740709
 21
342.4158572635136
 31
0.0
  0
LINE
  5
128
330
1F
100
AcDbEntity
  8
B-2_蓋
  6
Continuous
 62
     3
370
     9
100
AcDbLine
 10
-167.3534743850295
 20
331.4163158519848
 30
0.0
 11
-132.4536957611908
 21
342.4158572635136
 31
0.0
  0
LINE
  5
129
330
1F
100
AcDbEntity
  8
B-2_蓋
  6
Continuous
 62
     3
370
     9
100
AcDbLine
 10
-132.0532144082558
 20
331.4163158519848
 30
0.0
 11
-97.15343578441718
 21
342.4158572635136
 31
0.0
  0
LINE
  5
12A
330
1F
100
AcDbEntity
  8
B-2_蓋
  6
Continuous
 62
     3
370
     9
100
AcDbLine
 10
-96.75332559121608
 20
331.4163158519848
 30
0.0
 11
-61.85332427153702
 21
342.4158572635136
 31
0.0
  0
LINE
  5
12B
330
1F
100
AcDbEntity
  8
B-2_蓋
  6
Continuous
 62
     3
370
     9
100
AcDbLine
 10
-61.4529171505489
 20
331.4163158519848
 30
0.0
 11
-26.55336122255062
 21
342.4158572635136
 31
0.0
  0
LINE
  5
12C
330
1F
100
AcDbEntity
  8
B-2_蓋
  6
Continuous
 62
     3
370
     9
100
AcDbLine
 10
-26.15399334881749
 20
331.4163158519848
 30
0.0
 11
8.746898754222968
 21
342.4158572635136
 31
0.0
  0
LINE
  5
12D
330
1F
100
AcDbEntity
  8
B-2_蓋
  6
Continuous
 62
     3
370
     9
100
AcDbLine
 10
9.146266627956095
 20
331.4163158519848
 30
0.0
 11
44.04611948374156
 21
342.4158572635136
 31
0.0
  0
LINE
  5
12E
330
1F
100
AcDbEntity
  8
B-2_蓋
  6
Continuous
 62
     3
370
     9
100
AcDbLine
 10
44.44652660472985
 20
331.4163158519848
 30
0.0
 11
79.34623099662173
 21
342.4158572635136
 31
0.0
  0
LINE
  5
12F
330
1F
100
AcDbEntity
  8
B-2_蓋
  6
Continuous
 62
     3
370
     9
100
AcDbLine
 10
-915.6534390836148
 20
340.3358781144427
 30
0.0
 11
-909.0533282305744
 21
342.4158572635136
 31
0.0
  0
LINE
  5
130
330
1F
100
AcDbEntity
  8
B-2_蓋
  6
Continuous
 62
     3
370
     9
100
AcDbLine
 10
-908.6528468776394
 20
231.41586221231
 30
0.0
 11
-873.7530682538006
 21
242.4162944072002
 31
0.0
  0
LINE
  5
131
330
1F
100
AcDbEntity
  8
B-2_蓋
  6
Continuous
 62
     3
370
     9
100
AcDbLine
 10
-873.352809596706
 20
231.41586221231
 30
0.0
 11
-838.4534021326012
 21
242.4162944072002
 31
0.0
  0
LINE
  5
132
330
1F
100
AcDbEntity
  8
B-2_蓋
  6
Continuous
 62
     3
370
     9
100
AcDbLine
 10
-838.0532177074534
 20
231.41586221231
 30
0.0
 11
-803.1534390836148
 21
242.4162944072002
 31
0.0
  0
LINE
  5
133
330
1F
100
AcDbEntity
  8
B-2_蓋
  6
Continuous
 62
     3
370
     9
100
AcDbLine
 10
-802.7529577306798
 20
231.41586221231
 30
0.0
 11
-767.8533275707348
 21
242.4162944072002
 31
0.0
  0
LINE
  5
134
330
1F
100
AcDbEntity
  8
B-2_蓋
  6
Continuous
 62
     3
370
     9
100
AcDbLine
 10
-767.4532916094805
 20
231.41586221231
 30
0.0
 11
-732.5535129856419
 21
242.4162944072002
 31
0.0
  0
LINE
  5
135
330
1F
100
AcDbEntity
  8
B-2_蓋
  6
Continuous
 62
     3
370
     9
100
AcDbLine
 10
-732.1531800966004
 20
231.41586221231
 30
0.0
 11
-697.2532530088682
 21
242.4162944072002
 31
0.0
  0
LINE
  5
136
330
1F
100
AcDbEntity
  8
B-2_蓋
  6
Continuous
 62
     3
370
     9
100
AcDbLine
 10
-696.8529943517735
 20
231.41586221231
 30
0.0
 11
-661.9532899598817
 21
242.4162944072002
 31
0.0
  0
LINE
  5
137
330
1F
100
AcDbEntity
  8
B-2_蓋
  6
Continuous
 62
     3
370
     9
100
AcDbLine
 10
-661.5532539986275
 20
231.41586221231
 30
0.0
 11
-626.6532526789484
 21
242.4162944072002
 31
0.0
  0
LINE
  5
138
330
1F
100
AcDbEntity
  8
B-2_蓋
  6
Continuous
 62
     3
370
     9
100
AcDbLine
 10
-626.2531424857474
 20
231.41586221231
 30
0.0
 11
-591.3533638619087
 21
242.4162944072002
 31
0.0
  0
LINE
  5
139
330
1F
100
AcDbEntity
  8
B-2_蓋
  6
Continuous
 62
     3
370
     9
100
AcDbLine
 10
-590.9528825089737
 20
231.41586221231
 30
0.0
 11
-556.0531781170819
 21
242.4162944072002
 31
0.0
  0
LINE
  5
13A
330
1F
100
AcDbEntity
  8
B-2_蓋
  6
Continuous
 62
     3
370
     9
100
AcDbLine
 10
-555.6532906197212
 20
231.41586221231
 30
0.0
 11
-520.7534377639358
 21
242.4162944072002
 31
0.0
  0
LINE
  5
13B
330
1F
100
AcDbEntity
  8
B-2_蓋
  6
Continuous
 62
     3
370
     9
100
AcDbLine
 10
-520.3531791068411
 20
231.41586221231
 30
0.0
 11
-485.4532520191089
 21
242.4162944072002
 31
0.0
  0
LINE
  5
13C
330
1F
100
AcDbEntity
  8
B-2_蓋
  6
Continuous
 62
     3
370
     9
100
AcDbLine
 10
-485.0529191300675
 20
231.41586221231
 30
0.0
 11
-450.1531405062289
 21
242.4162944072002
 31
0.0
  0
LINE
  5
13D
330
1F
100
AcDbEntity
  8
B-2_蓋
  6
Continuous
 62
     3
370
     9
100
AcDbLine
 10
-449.7532530088681
 20
231.41586221231
 30
0.0
 11
-414.8535486169762
 21
242.4162944072002
 31
0.0
  0
LINE
  5
13E
330
1F
100
AcDbEntity
  8
B-2_蓋
  6
Continuous
 62
     3
370
     9
100
AcDbLine
 10
-414.4530672640414
 20
231.41586221231
 30
0.0
 11
-379.5533628721494
 21
242.4162944072002
 31
0.0
  0
LINE
  5
13F
330
1F
100
AcDbEntity
  8
B-2_蓋
  6
Continuous
 62
     3
370
     9
100
AcDbLine
 10
-379.1534753747887
 20
231.41586221231
 30
0.0
 11
-344.2536225190033
 21
242.4162944072002
 31
0.0
  0
LINE
  5
140
330
1F
100
AcDbEntity
  8
B-2_蓋
  6
Continuous
 62
     3
370
     9
100
AcDbLine
 10
-343.8533638619087
 20
231.41586221231
 30
0.0
 11
-308.9534367741764
 21
242.4162944072002
 31
0.0
  0
LINE
  5
141
330
1F
100
AcDbEntity
  8
B-2_蓋
  6
Continuous
 62
     3
370
     9
100
AcDbLine
 10
-308.5531781170819
 20
231.41586221231
 30
0.0
 11
-273.6533252612964
 21
242.4162944072002
 31
0.0
  0
LINE
  5
142
330
1F
100
AcDbEntity
  8
B-2_蓋
  6
Continuous
 62
     3
370
     9
100
AcDbLine
 10
-273.2535119958825
 20
231.41586221231
 30
0.0
 11
-238.353659140097
 21
242.4162944072002
 31
0.0
  0
LINE
  5
143
330
1F
100
AcDbEntity
  8
B-2_蓋
  6
Continuous
 62
     3
370
     9
100
AcDbLine
 10
-237.9532520191089
 20
231.41586221231
 30
0.0
 11
-203.053547627217
 21
242.4162944072002
 31
0.0
  0
LINE
  5
144
330
1F
100
AcDbEntity
  8
B-2_蓋
  6
Continuous
 62
     3
370
     9
100
AcDbLine
 10
-202.6532147381756
 20
231.41586221231
 30
0.0
 11
-167.7538072740709
 21
242.4162944072002
 31
0.0
  0
LINE
  5
145
330
1F
100
AcDbEntity
  8
B-2_蓋
  6
Continuous
 62
     3
370
     9
100
AcDbLine
 10
-167.3534743850295
 20
231.41586221231
 30
0.0
 11
-132.4536957611908
 21
242.4162944072002
 31
0.0
  0
LINE
  5
146
330
1F
100
AcDbEntity
  8
B-2_蓋
  6
Continuous
 62
     3
370
     9
100
AcDbLine
 10
-132.0532144082558
 20
231.41586221231
 30
0.0
 11
-97.15343578441718
 21
242.4162944072002
 31
0.0
  0
LINE
  5
147
330
1F
100
AcDbEntity
  8
B-2_蓋
  6
Continuous
 62
     3
370
     9
100
AcDbLine
 10
-96.75332559121608
 20
231.41586221231
 30
0.0
 11
-61.85332427153702
 21
242.4162944072002
 31
0.0
  0
LINE
  5
148
330
1F
100
AcDbEntity
  8
B-2_蓋
  6
Continuous
 62
     3
370
     9
100
AcDbLine
 10
-61.4529171505489
 20
231.41586221231
 30
0.0
 11
-26.55336122255062
 21
242.4162944072002
 31
0.0
  0
LINE
  5
149
330
1F
100
AcDbEntity
  8
B-2_蓋
  6
Continuous
 62
     3
370
     9
100
AcDbLine
 10
-26.15399334881749
 20
231.41586221231
 30
0.0
 11
8.746898754222968
 21
242.4162944072002
 31
0.0
  0
LINE
  5
14A
330
1F
100
AcDbEntity
  8
B-2_蓋
  6
Continuous
 62
     3
370
     9
100
AcDbLine
 10
9.146266627956095
 20
231.41586221231
 30
0.0
 11
44.04611948374156
 21
242.4162944072002
 31
0.0
  0
LINE
  5
14B
330
1F
100
AcDbEntity
  8
B-2_蓋
  6
Continuous
 62
     3
370
     9
100
AcDbLine
 10
44.44652660472985
 20
231.41586221231
 30
0.0
 11
79.34623099662173
 21
242.4162944072002
 31
0.0
  0
LINE
  5
14C
330
1F
100
AcDbEntity
  8
B-2_蓋
  6
Continuous
 62
     3
370
     9
100
AcDbLine
 10
-915.6534390836148
 20
240.3352017789273
 30
0.0
 11
-909.0533282305744
 21
242.4162944072002
 31
0.0
  0
LINE
  5
14D
330
1F
100
AcDbEntity
  8
B-2_蓋
  6
Continuous
 62
     3
370
     9
100
AcDbLine
 10
-908.6528468776394
 20
142.4159149994722
 30
0.0
 11
-908.6528468776394
 21
231.41586221231
 31
0.0
  0
LINE
  5
14E
330
1F
100
AcDbEntity
  8
B-2_蓋
  6
Continuous
 62
     3
370
     9
100
AcDbLine
 10
-633.6529541015625
 20
231.41586221231
 30
0.0
 11
-633.6529541015625
 21
142.4159149994722
 31
0.0
  0
LINE
  5
14F
330
1F
100
AcDbEntity
  8
B-2_蓋
  6
Continuous
 62
     3
370
     9
100
AcDbLine
 10
-626.6528815192146
 20
231.41586221231
 30
0.0
 11
-626.6528815192146
 21
142.4159149994722
 31
0.0
  0
LINE
  5
150
330
1F
100
AcDbEntity
  8
B-2_蓋
  6
Continuous
 62
     3
370
     9
100
AcDbLine
 10
-668.9530656144425
 20
231.41586221231
 30
0.0
 11
-668.9530656144425
 21
142.4159149994722
 31
0.0
  0
LINE
  5
151
330
1F
100
AcDbEntity
  8
B-2_蓋
  6
Continuous
 62
     3
370
     9
100
AcDbLine
 10
-661.9532899598817
 20
231.41586221231
 30
0.0
 11
-661.9532899598817
 21
142.4159149994722
 31
0.0
  0
LINE
  5
152
330
1F
100
AcDbEntity
  8
B-2_蓋
  6
Continuous
 62
     3
370
     9
100
AcDbLine
 10
-704.2527317356419
 20
231.41586221231
 30
0.0
 11
-704.2527317356419
 21
142.4159149994722
 31
0.0
  0
LINE
  5
153
330
1F
100
AcDbEntity
  8
B-2_蓋
  6
Continuous
 62
     3
370
     9
100
AcDbLine
 10
-697.2528076171875
 20
231.41586221231
 30
0.0
 11
-697.2528076171875
 21
142.4159149994722
 31
0.0
  0
LINE
  5
154
330
1F
100
AcDbEntity
  8
B-2_蓋
  6
Continuous
 62
     3
370
     9
100
AcDbLine
 10
-739.5531401763091
 20
231.41586221231
 30
0.0
 11
-739.5531401763091
 21
142.4159149994722
 31
0.0
  0
LINE
  5
155
330
1F
100
AcDbEntity
  8
B-2_蓋
  6
Continuous
 62
     3
370
     9
100
AcDbLine
 10
-732.5529191300676
 20
231.41586221231
 30
0.0
 11
-732.5529191300676
 21
142.4159149994722
 31
0.0
  0
LINE
  5
156
330
1F
100
AcDbEntity
  8
B-2_蓋
  6
Continuous
 62
     3
370
     9
100
AcDbLine
 10
-774.8529547614021
 20
231.41586221231
 30
0.0
 11
-774.8529547614021
 21
142.4159149994722
 31
0.0
  0
LINE
  5
157
330
1F
100
AcDbEntity
  8
B-2_蓋
  6
Continuous
 62
     3
370
     9
100
AcDbLine
 10
-767.8533275707348
 20
231.41586221231
 30
0.0
 11
-767.8533275707348
 21
142.4159149994722
 31
0.0
  0
LINE
  5
158
330
1F
100
AcDbEntity
  8
B-2_蓋
  6
Continuous
 62
     3
370
     9
100
AcDbLine
 10
-810.152769346495
 20
231.41586221231
 30
0.0
 11
-810.152769346495
 21
142.4159149994722
 31
0.0
  0
LINE
  5
159
330
1F
100
AcDbEntity
  8
B-2_蓋
  6
Continuous
 62
     3
370
     9
100
AcDbLine
 10
-803.1529194599873
 20
231.41586221231
 30
0.0
 11
-803.1529194599873
 21
142.4159149994722
 31
0.0
  0
LINE
  5
15A
330
1F
100
AcDbEntity
  8
B-2_蓋
  6
Continuous
 62
     3
370
     9
100
AcDbLine
 10
-845.452880859375
 20
231.41586221231
 30
0.0
 11
-845.452880859375
 21
142.4159149994722
 31
0.0
  0
LINE
  5
15B
330
1F
100
AcDbEntity
  8
B-2_蓋
  6
Continuous
 62
     3
370
     9
100
AcDbLine
 10
-838.4529567409206
 20
231.41586221231
 30
0.0
 11
-838.4529567409206
 21
142.4159149994722
 31
0.0
  0
LINE
  5
15C
330
1F
100
AcDbEntity
  8
B-2_蓋
  6
Continuous
 62
     3
370
     9
100
AcDbLine
 10
-880.7531408361485
 20
231.41586221231
 30
0.0
 11
-880.7531408361485
 21
142.4159149994722
 31
0.0
  0
LINE
  5
15D
330
1F
100
AcDbEntity
  8
B-2_蓋
  6
Continuous
 62
     3
370
     9
100
AcDbLine
 10
-873.7530682538006
 20
231.41586221231
 30
0.0
 11
-873.7530682538006
 21
142.4159149994722
 31
0.0
  0
LINE
  5
15E
330
1F
100
AcDbEntity
  8
B-2_蓋
  6
Continuous
 62
     3
370
     9
100
AcDbLine
 10
-245.3531378668708
 20
231.41586221231
 30
0.0
 11
-245.3531378668708
 21
142.4159149994722
 31
0.0
  0
LINE
  5
15F
330
1F
100
AcDbEntity
  8
B-2_蓋
  6
Continuous
 62
     3
370
     9
100
AcDbLine
 10
-238.3530652845228
 20
231.41586221231
 30
0.0
 11
-238.3530652845228
 21
142.4159149994722
 31
0.0
  0
LINE
  5
160
330
1F
100
AcDbEntity
  8
B-2_蓋
  6
Continuous
 62
     3
370
     9
100
AcDbLine
 10
-280.6531751478041
 20
231.41586221231
 30
0.0
 11
-280.6531751478041
 21
142.4159149994722
 31
0.0
  0
LINE
  5
161
330
1F
100
AcDbEntity
  8
B-2_蓋
  6
Continuous
 62
     3
370
     9
100
AcDbLine
 10
-273.6533252612964
 20
231.41586221231
 30
0.0
 11
-273.6533252612964
 21
142.4159149994722
 31
0.0
  0
LINE
  5
162
330
1F
100
AcDbEntity
  8
B-2_蓋
  6
Continuous
 62
     3
370
     9
100
AcDbLine
 10
-315.9534351245777
 20
231.41586221231
 30
0.0
 11
-315.9534351245777
 21
142.4159149994722
 31
0.0
  0
LINE
  5
163
330
1F
100
AcDbEntity
  8
B-2_蓋
  6
Continuous
 62
     3
370
     9
100
AcDbLine
 10
-308.9534367741764
 20
231.41586221231
 30
0.0
 11
-308.9534367741764
 21
142.4159149994722
 31
0.0
  0
LINE
  5
164
330
1F
100
AcDbEntity
  8
B-2_蓋
  6
Continuous
 62
     3
370
     9
100
AcDbLine
 10
-351.2531754777237
 20
231.41586221231
 30
0.0
 11
-351.2531754777237
 21
142.4159149994722
 31
0.0
  0
LINE
  5
165
330
1F
100
AcDbEntity
  8
B-2_蓋
  6
Continuous
 62
     3
370
     9
100
AcDbLine
 10
-344.2530286634291
 20
231.41586221231
 30
0.0
 11
-344.2530286634291
 21
142.4159149994722
 31
0.0
  0
LINE
  5
166
330
1F
100
AcDbEntity
  8
B-2_蓋
  6
Continuous
 62
     3
370
     9
100
AcDbLine
 10
-386.5534354544973
 20
231.41586221231
 30
0.0
 11
-386.5534354544973
 21
142.4159149994722
 31
0.0
  0
LINE
  5
167
330
1F
100
AcDbEntity
  8
B-2_蓋
  6
Continuous
 62
     3
370
     9
100
AcDbLine
 10
-379.5533628721494
 20
231.41586221231
 30
0.0
 11
-379.5533628721494
 21
142.4159149994722
 31
0.0
  0
LINE
  5
168
330
1F
100
AcDbEntity
  8
B-2_蓋
  6
Continuous
 62
     3
370
     9
100
AcDbLine
 10
-421.8528788798564
 20
231.41586221231
 30
0.0
 11
-421.8528788798564
 21
142.4159149994722
 31
0.0
  0
LINE
  5
169
330
1F
100
AcDbEntity
  8
B-2_蓋
  6
Continuous
 62
     3
370
     9
100
AcDbLine
 10
-414.8530289933487
 20
231.41586221231
 30
0.0
 11
-414.8530289933487
 21
142.4159149994722
 31
0.0
  0
LINE
  5
16A
330
1F
100
AcDbEntity
  8
B-2_蓋
  6
Continuous
 62
     3
370
     9
100
AcDbLine
 10
-457.1529903927364
 20
231.41586221231
 30
0.0
 11
-457.1529903927364
 21
142.4159149994722
 31
0.0
  0
LINE
  5
16B
330
1F
100
AcDbEntity
  8
B-2_蓋
  6
Continuous
 62
     3
370
     9
100
AcDbLine
 10
-450.1531405062289
 20
231.41586221231
 30
0.0
 11
-450.1531405062289
 21
142.4159149994722
 31
0.0
  0
LINE
  5
16C
330
1F
100
AcDbEntity
  8
B-2_蓋
  6
Continuous
 62
     3
370
     9
100
AcDbLine
 10
-492.4532503695101
 20
231.41586221231
 30
0.0
 11
-492.4532503695101
 21
142.4159149994722
 31
0.0
  0
LINE
  5
16D
330
1F
100
AcDbEntity
  8
B-2_蓋
  6
Continuous
 62
     3
370
     9
100
AcDbLine
 10
-485.4532520191089
 20
231.41586221231
 30
0.0
 11
-485.4532520191089
 21
142.4159149994722
 31
0.0
  0
LINE
  5
16E
330
1F
100
AcDbEntity
  8
B-2_蓋
  6
Continuous
 62
     3
370
     9
100
AcDbLine
 10
-527.7529907226562
 20
231.41586221231
 30
0.0
 11
-527.7529907226562
 21
142.4159149994722
 31
0.0
  0
LINE
  5
16F
330
1F
100
AcDbEntity
  8
B-2_蓋
  6
Continuous
 62
     3
370
     9
100
AcDbLine
 10
-520.752992372255
 20
231.41586221231
 30
0.0
 11
-520.752992372255
 21
142.4159149994722
 31
0.0
  0
LINE
  5
170
330
1F
100
AcDbEntity
  8
B-2_蓋
  6
Continuous
 62
     3
370
     9
100
AcDbLine
 10
-563.0532506994298
 20
231.41586221231
 30
0.0
 11
-563.0532506994298
 21
142.4159149994722
 31
0.0
  0
LINE
  5
171
330
1F
100
AcDbEntity
  8
B-2_蓋
  6
Continuous
 62
     3
370
     9
100
AcDbLine
 10
-556.0531781170819
 20
231.41586221231
 30
0.0
 11
-556.0531781170819
 21
142.4159149994722
 31
0.0
  0
LINE
  5
172
330
1F
100
AcDbEntity
  8
B-2_蓋
  6
Continuous
 62
     3
370
     9
100
AcDbLine
 10
-598.3528425886824
 20
231.41586221231
 30
0.0
 11
-598.3528425886824
 21
142.4159149994722
 31
0.0
  0
LINE
  5
173
330
1F
100
AcDbEntity
  8
B-2_蓋
  6
Continuous
 62
     3
370
     9
100
AcDbLine
 10
-591.3527700063345
 20
231.41586221231
 30
0.0
 11
-591.3527700063345
 21
142.4159149994722
 31
0.0
  0
LINE
  5
174
330
1F
100
AcDbEntity
  8
B-2_蓋
  6
Continuous
 62
     3
370
     9
100
AcDbLine
 10
72.34630687816735
 20
231.41586221231
 30
0.0
 11
72.34630687816735
 21
142.4159149994722
 31
0.0
  0
LINE
  5
175
330
1F
100
AcDbEntity
  8
B-2_蓋
  6
Continuous
 62
     3
370
     9
100
AcDbLine
 10
37.04604690139359
 20
231.41586221231
 30
0.0
 11
37.04604690139359
 21
142.4159149994722
 31
0.0
  0
LINE
  5
176
330
1F
100
AcDbEntity
  8
B-2_蓋
  6
Continuous
 62
     3
370
     9
100
AcDbLine
 10
44.04715873099673
 20
231.41586221231
 30
0.0
 11
44.04715873099673
 21
142.4159149994722
 31
0.0
  0
LINE
  5
177
330
1F
100
AcDbEntity
  8
B-2_蓋
  6
Continuous
 62
     3
370
     9
100
AcDbLine
 10
1.745786924620006
 20
231.41586221231
 30
0.0
 11
1.745786924620006
 21
142.4159149994722
 31
0.0
  0
LINE
  5
178
330
1F
100
AcDbEntity
  8
B-2_蓋
  6
Continuous
 62
     3
370
     9
100
AcDbLine
 10
8.746898754222968
 20
231.41586221231
 30
0.0
 11
8.746898754222968
 21
142.4159149994722
 31
0.0
  0
LINE
  5
179
330
1F
100
AcDbEntity
  8
B-2_蓋
  6
Continuous
 62
     3
370
     9
100
AcDbLine
 10
-33.5529884132178
 20
231.41586221231
 30
0.0
 11
-33.5529884132178
 21
142.4159149994722
 31
0.0
  0
LINE
  5
17A
330
1F
100
AcDbEntity
  8
B-2_蓋
  6
Continuous
 62
     3
370
     9
100
AcDbLine
 10
-26.55336122255062
 20
231.41586221231
 30
0.0
 11
-26.55336122255062
 21
142.4159149994722
 31
0.0
  0
LINE
  5
17B
330
1F
100
AcDbEntity
  8
B-2_蓋
  6
Continuous
 62
     3
370
     9
100
AcDbLine
 10
-68.85339685388499
 20
231.41586221231
 30
0.0
 11
-68.85339685388499
 21
142.4159149994722
 31
0.0
  0
LINE
  5
17C
330
1F
100
AcDbEntity
  8
B-2_蓋
  6
Continuous
 62
     3
370
     9
100
AcDbLine
 10
-61.85332427153702
 20
231.41586221231
 30
0.0
 11
-61.85332427153702
 21
142.4159149994722
 31
0.0
  0
LINE
  5
17D
330
1F
100
AcDbEntity
  8
B-2_蓋
  6
Continuous
 62
     3
370
     9
100
AcDbLine
 10
-104.1535083667652
 20
231.41586221231
 30
0.0
 11
-104.1535083667652
 21
142.4159149994722
 31
0.0
  0
LINE
  5
17E
330
1F
100
AcDbEntity
  8
B-2_蓋
  6
Continuous
 62
     3
370
     9
100
AcDbLine
 10
-97.15343578441718
 20
231.41586221231
 30
0.0
 11
-97.15343578441718
 21
142.4159149994722
 31
0.0
  0
LINE
  5
17F
330
1F
100
AcDbEntity
  8
B-2_蓋
  6
Continuous
 62
     3
370
     9
100
AcDbLine
 10
-139.4537683435387
 20
231.41586221231
 30
0.0
 11
-139.4537683435387
 21
142.4159149994722
 31
0.0
  0
LINE
  5
180
330
1F
100
AcDbEntity
  8
B-2_蓋
  6
Continuous
 62
     3
370
     9
100
AcDbLine
 10
-132.4536957611908
 20
231.41586221231
 30
0.0
 11
-132.4536957611908
 21
142.4159149994722
 31
0.0
  0
LINE
  5
181
330
1F
100
AcDbEntity
  8
B-2_蓋
  6
Continuous
 62
     3
370
     9
100
AcDbLine
 10
-174.7538798564189
 20
231.41586221231
 30
0.0
 11
-174.7538798564189
 21
142.4159149994722
 31
0.0
  0
LINE
  5
182
330
1F
100
AcDbEntity
  8
B-2_蓋
  6
Continuous
 62
     3
370
     9
100
AcDbLine
 10
-167.7538072740709
 20
231.41586221231
 30
0.0
 11
-167.7538072740709
 21
142.4159149994722
 31
0.0
  0
LINE
  5
183
330
1F
100
AcDbEntity
  8
B-2_蓋
  6
Continuous
 62
     3
370
     9
100
AcDbLine
 10
-203.053547627217
 20
231.41586221231
 30
0.0
 11
-203.053547627217
 21
142.4159149994722
 31
0.0
  0
LINE
  5
184
330
1F
100
AcDbEntity
  8
B-2_蓋
  6
Continuous
 62
     3
370
     9
100
AcDbLine
 10
-210.0534717456714
 20
231.41586221231
 30
0.0
 11
-210.0534717456714
 21
142.4159149994722
 31
0.0
  0
LINE
  5
185
330
1F
100
AcDbEntity
  8
B-2_蓋
  6
Continuous
 62
     3
370
     9
100
AcDbLine
 10
-915.6534390836148
 20
142.4159892314189
 30
0.0
 11
79.34727024387672
 21
142.4159892314189
 31
0.0
  0
LINE
  5
186
330
1F
100
AcDbEntity
  8
B-2_蓋
  6
Continuous
 62
     3
370
     9
100
AcDbLine
 10
-915.6534390836148
 20
131.416522051837
 30
0.0
 11
79.34727024387672
 21
131.416522051837
 31
0.0
  0
LINE
  5
187
330
1F
100
AcDbEntity
  8
B-2_蓋
  6
Continuous
 62
     3
370
     9
100
AcDbLine
 10
-908.6528468776394
 20
131.416522051837
 30
0.0
 11
-873.7530682538006
 21
142.4164346230997
 31
0.0
  0
LINE
  5
188
330
1F
100
AcDbEntity
  8
B-2_蓋
  6
Continuous
 62
     3
370
     9
100
AcDbLine
 10
-873.352809596706
 20
131.416522051837
 30
0.0
 11
-838.4534021326012
 21
142.4164346230997
 31
0.0
  0
LINE
  5
189
330
1F
100
AcDbEntity
  8
B-2_蓋
  6
Continuous
 62
     3
370
     9
100
AcDbLine
 10
-838.0532177074534
 20
131.416522051837
 30
0.0
 11
-803.1534390836148
 21
142.4164346230997
 31
0.0
  0
LINE
  5
18A
330
1F
100
AcDbEntity
  8
B-2_蓋
  6
Continuous
 62
     3
370
     9
100
AcDbLine
 10
-802.7529577306798
 20
131.416522051837
 30
0.0
 11
-767.8533275707348
 21
142.4164346230997
 31
0.0
  0
LINE
  5
18B
330
1F
100
AcDbEntity
  8
B-2_蓋
  6
Continuous
 62
     3
370
     9
100
AcDbLine
 10
-767.4532916094805
 20
131.416522051837
 30
0.0
 11
-732.5535129856419
 21
142.4164346230997
 31
0.0
  0
LINE
  5
18C
330
1F
100
AcDbEntity
  8
B-2_蓋
  6
Continuous
 62
     3
370
     9
100
AcDbLine
 10
-732.1531800966004
 20
131.416522051837
 30
0.0
 11
-697.2532530088682
 21
142.4164346230997
 31
0.0
  0
LINE
  5
18D
330
1F
100
AcDbEntity
  8
B-2_蓋
  6
Continuous
 62
     3
370
     9
100
AcDbLine
 10
-696.8529943517735
 20
131.416522051837
 30
0.0
 11
-661.9532899598817
 21
142.4164346230997
 31
0.0
  0
LINE
  5
18E
330
1F
100
AcDbEntity
  8
B-2_蓋
  6
Continuous
 62
     3
370
     9
100
AcDbLine
 10
-661.5532539986275
 20
131.416522051837
 30
0.0
 11
-626.6532526789484
 21
142.4164346230997
 31
0.0
  0
LINE
  5
18F
330
1F
100
AcDbEntity
  8
B-2_蓋
  6
Continuous
 62
     3
370
     9
100
AcDbLine
 10
-626.2531424857474
 20
131.416522051837
 30
0.0
 11
-591.3533638619087
 21
142.4164346230997
 31
0.0
  0
LINE
  5
190
330
1F
100
AcDbEntity
  8
B-2_蓋
  6
Continuous
 62
     3
370
     9
100
AcDbLine
 10
-590.9528825089737
 20
131.416522051837
 30
0.0
 11
-556.0531781170819
 21
142.4164346230997
 31
0.0
  0
LINE
  5
191
330
1F
100
AcDbEntity
  8
B-2_蓋
  6
Continuous
 62
     3
370
     9
100
AcDbLine
 10
-555.6532906197212
 20
131.416522051837
 30
0.0
 11
-520.7534377639358
 21
142.4164346230997
 31
0.0
  0
LINE
  5
192
330
1F
100
AcDbEntity
  8
B-2_蓋
  6
Continuous
 62
     3
370
     9
100
AcDbLine
 10
-520.3531791068411
 20
131.416522051837
 30
0.0
 11
-485.4532520191089
 21
142.4164346230997
 31
0.0
  0
LINE
  5
193
330
1F
100
AcDbEntity
  8
B-2_蓋
  6
Continuous
 62
     3
370
     9
100
AcDbLine
 10
-485.0529191300675
 20
131.416522051837
 30
0.0
 11
-450.1531405062289
 21
142.4164346230997
 31
0.0
  0
LINE
  5
194
330
1F
100
AcDbEntity
  8
B-2_蓋
  6
Continuous
 62
     3
370
     9
100
AcDbLine
 10
-449.7532530088681
 20
131.416522051837
 30
0.0
 11
-414.8535486169762
 21
142.4164346230997
 31
0.0
  0
LINE
  5
195
330
1F
100
AcDbEntity
  8
B-2_蓋
  6
Continuous
 62
     3
370
     9
100
AcDbLine
 10
-414.4530672640414
 20
131.416522051837
 30
0.0
 11
-379.5533628721494
 21
142.4164346230997
 31
0.0
  0
LINE
  5
196
330
1F
100
AcDbEntity
  8
B-2_蓋
  6
Continuous
 62
     3
370
     9
100
AcDbLine
 10
-379.1534753747887
 20
131.416522051837
 30
0.0
 11
-344.2536225190033
 21
142.4164346230997
 31
0.0
  0
LINE
  5
197
330
1F
100
AcDbEntity
  8
B-2_蓋
  6
Continuous
 62
     3
370
     9
100
AcDbLine
 10
-343.8533638619087
 20
131.416522051837
 30
0.0
 11
-308.9534367741764
 21
142.4164346230997
 31
0.0
  0
LINE
  5
198
330
1F
100
AcDbEntity
  8
B-2_蓋
  6
Continuous
 62
     3
370
     9
100
AcDbLine
 10
-308.5531781170819
 20
131.416522051837
 30
0.0
 11
-273.6533252612964
 21
142.4164346230997
 31
0.0
  0
LINE
  5
199
330
1F
100
AcDbEntity
  8
B-2_蓋
  6
Continuous
 62
     3
370
     9
100
AcDbLine
 10
-273.2535119958825
 20
131.416522051837
 30
0.0
 11
-238.353659140097
 21
142.4164346230997
 31
0.0
  0
LINE
  5
19A
330
1F
100
AcDbEntity
  8
B-2_蓋
  6
Continuous
 62
     3
370
     9
100
AcDbLine
 10
-237.9532520191089
 20
131.416522051837
 30
0.0
 11
-203.053547627217
 21
142.4164346230997
 31
0.0
  0
LINE
  5
19B
330
1F
100
AcDbEntity
  8
B-2_蓋
  6
Continuous
 62
     3
370
     9
100
AcDbLine
 10
-202.6532147381756
 20
131.416522051837
 30
0.0
 11
-167.7538072740709
 21
142.4164346230997
 31
0.0
  0
LINE
  5
19C
330
1F
100
AcDbEntity
  8
B-2_蓋
  6
Continuous
 62
     3
370
     9
100
AcDbLine
 10
-167.3534743850295
 20
131.416522051837
 30
0.0
 11
-132.4536957611908
 21
142.4164346230997
 31
0.0
  0
LINE
  5
19D
330
1F
100
AcDbEntity
  8
B-2_蓋
  6
Continuous
 62
     3
370
     9
100
AcDbLine
 10
-132.0532144082558
 20
131.416522051837
 30
0.0
 11
-97.15343578441718
 21
142.4164346230997
 31
0.0
  0
LINE
  5
19E
330
1F
100
AcDbEntity
  8
B-2_蓋
  6
Continuous
 62
     3
370
     9
100
AcDbLine
 10
-96.75332559121608
 20
131.416522051837
 30
0.0
 11
-61.85332427153702
 21
142.4164346230997
 31
0.0
  0
LINE
  5
19F
330
1F
100
AcDbEntity
  8
B-2_蓋
  6
Continuous
 62
     3
370
     9
100
AcDbLine
 10
-61.4529171505489
 20
131.416522051837
 30
0.0
 11
-26.55336122255062
 21
142.4164346230997
 31
0.0
  0
LINE
  5
1A0
330
1F
100
AcDbEntity
  8
B-2_蓋
  6
Continuous
 62
     3
370
     9
100
AcDbLine
 10
-26.15399334881749
 20
131.416522051837
 30
0.0
 11
8.746898754222968
 21
142.4164346230997
 31
0.0
  0
LINE
  5
1A1
330
1F
100
AcDbEntity
  8
B-2_蓋
  6
Continuous
 62
     3
370
     9
100
AcDbLine
 10
9.146266627956095
 20
131.416522051837
 30
0.0
 11
44.04611948374156
 21
142.4164346230997
 31
0.0
  0
LINE
  5
1A2
330
1F
100
AcDbEntity
  8
B-2_蓋
  6
Continuous
 62
     3
370
     9
100
AcDbLine
 10
44.44652660472985
 20
131.416522051837
 30
0.0
 11
79.34623099662173
 21
142.4164346230997
 31
0.0
  0
LINE
  5
1A3
330
1F
100
AcDbEntity
  8
B-2_蓋
  6
Continuous
 62
     3
370
     9
100
AcDbLine
 10
-908.6528468776394
 20
442.4162366712416
 30
0.0
 11
-908.6528468776394
 21
531.4167777396538
 31
0.0
  0
LINE
  5
1A4
330
1F
100
AcDbEntity
  8
B-2_蓋
  6
Continuous
 62
     3
370
     9
100
AcDbLine
 10
-908.6528468776394
 20
542.416170687289
 30
0.0
 11
-908.6528468776394
 21
582.4162036792653
 31
0.0
  0
LINE
  5
1A5
330
1F
100
AcDbEntity
  8
B-2_蓋
  6
Continuous
 62
     3
370
     9
100
AcDbLine
 10
-421.8528788798564
 20
582.4162036792653
 30
0.0
 11
-421.8528788798564
 21
542.416170687289
 31
0.0
  0
LINE
  5
1A6
330
1F
100
AcDbEntity
  8
B-2_蓋
  6
Continuous
 62
     3
370
     9
100
AcDbLine
 10
-421.8528788798564
 20
531.4167777396538
 30
0.0
 11
-421.8528788798564
 21
442.4162366712416
 31
0.0
  0
LINE
  5
1A7
330
1F
100
AcDbEntity
  8
B-2_蓋
  6
Continuous
 62
     3
370
     9
100
AcDbLine
 10
-457.1529903927364
 20
582.4162036792653
 30
0.0
 11
-457.1529903927364
 21
542.416170687289
 31
0.0
  0
LINE
  5
1A8
330
1F
100
AcDbEntity
  8
B-2_蓋
  6
Continuous
 62
     3
370
     9
100
AcDbLine
 10
-457.1529903927364
 20
531.4167777396538
 30
0.0
 11
-457.1529903927364
 21
442.4162366712416
 31
0.0
  0
LINE
  5
1A9
330
1F
100
AcDbEntity
  8
B-2_蓋
  6
Continuous
 62
     3
370
     9
100
AcDbLine
 10
-450.1531405062289
 20
582.4162036792653
 30
0.0
 11
-450.1531405062289
 21
542.416170687289
 31
0.0
  0
LINE
  5
1AA
330
1F
100
AcDbEntity
  8
B-2_蓋
  6
Continuous
 62
     3
370
     9
100
AcDbLine
 10
-450.1531405062289
 20
531.4167777396538
 30
0.0
 11
-450.1531405062289
 21
442.4162366712416
 31
0.0
  0
LINE
  5
1AB
330
1F
100
AcDbEntity
  8
B-2_蓋
  6
Continuous
 62
     3
370
     9
100
AcDbLine
 10
-492.4532503695101
 20
582.4162036792653
 30
0.0
 11
-492.4532503695101
 21
542.416170687289
 31
0.0
  0
LINE
  5
1AC
330
1F
100
AcDbEntity
  8
B-2_蓋
  6
Continuous
 62
     3
370
     9
100
AcDbLine
 10
-492.4532503695101
 20
531.4167777396538
 30
0.0
 11
-492.4532503695101
 21
442.4162366712416
 31
0.0
  0
LINE
  5
1AD
330
1F
100
AcDbEntity
  8
B-2_蓋
  6
Continuous
 62
     3
370
     9
100
AcDbLine
 10
-485.4532520191089
 20
582.4162036792653
 30
0.0
 11
-485.4532520191089
 21
542.416170687289
 31
0.0
  0
LINE
  5
1AE
330
1F
100
AcDbEntity
  8
B-2_蓋
  6
Continuous
 62
     3
370
     9
100
AcDbLine
 10
-485.4532520191089
 20
531.4167777396538
 30
0.0
 11
-485.4532520191089
 21
442.4162366712416
 31
0.0
  0
LINE
  5
1AF
330
1F
100
AcDbEntity
  8
B-2_蓋
  6
Continuous
 62
     3
370
     9
100
AcDbLine
 10
-527.7529907226562
 20
582.4162036792653
 30
0.0
 11
-527.7529907226562
 21
542.416170687289
 31
0.0
  0
LINE
  5
1B0
330
1F
100
AcDbEntity
  8
B-2_蓋
  6
Continuous
 62
     3
370
     9
100
AcDbLine
 10
-527.7529907226562
 20
531.4167777396538
 30
0.0
 11
-527.7529907226562
 21
442.4162366712416
 31
0.0
  0
LINE
  5
1B1
330
1F
100
AcDbEntity
  8
B-2_蓋
  6
Continuous
 62
     3
370
     9
100
AcDbLine
 10
-520.752992372255
 20
582.4162036792653
 30
0.0
 11
-520.752992372255
 21
542.416170687289
 31
0.0
  0
LINE
  5
1B2
330
1F
100
AcDbEntity
  8
B-2_蓋
  6
Continuous
 62
     3
370
     9
100
AcDbLine
 10
-520.752992372255
 20
531.4167777396538
 30
0.0
 11
-520.752992372255
 21
442.4162366712416
 31
0.0
  0
LINE
  5
1B3
330
1F
100
AcDbEntity
  8
B-2_蓋
  6
Continuous
 62
     3
370
     9
100
AcDbLine
 10
-563.0532506994298
 20
582.4162036792653
 30
0.0
 11
-563.0532506994298
 21
542.416170687289
 31
0.0
  0
LINE
  5
1B4
330
1F
100
AcDbEntity
  8
B-2_蓋
  6
Continuous
 62
     3
370
     9
100
AcDbLine
 10
-563.0532506994298
 20
531.4167777396538
 30
0.0
 11
-563.0532506994298
 21
442.4162366712416
 31
0.0
  0
LINE
  5
1B5
330
1F
100
AcDbEntity
  8
B-2_蓋
  6
Continuous
 62
     3
370
     9
100
AcDbLine
 10
-556.0531781170819
 20
582.4162036792653
 30
0.0
 11
-556.0531781170819
 21
542.416170687289
 31
0.0
  0
LINE
  5
1B6
330
1F
100
AcDbEntity
  8
B-2_蓋
  6
Continuous
 62
     3
370
     9
100
AcDbLine
 10
-556.0531781170819
 20
531.4167777396538
 30
0.0
 11
-556.0531781170819
 21
442.4162366712416
 31
0.0
  0
LINE
  5
1B7
330
1F
100
AcDbEntity
  8
B-2_蓋
  6
Continuous
 62
     3
370
     9
100
AcDbLine
 10
-598.3528425886824
 20
582.4162036792653
 30
0.0
 11
-598.3528425886824
 21
542.416170687289
 31
0.0
  0
LINE
  5
1B8
330
1F
100
AcDbEntity
  8
B-2_蓋
  6
Continuous
 62
     3
370
     9
100
AcDbLine
 10
-598.3528425886824
 20
531.4167777396538
 30
0.0
 11
-598.3528425886824
 21
442.4162366712416
 31
0.0
  0
LINE
  5
1B9
330
1F
100
AcDbEntity
  8
B-2_蓋
  6
Continuous
 62
     3
370
     9
100
AcDbLine
 10
-591.3527700063345
 20
582.4162036792653
 30
0.0
 11
-591.3527700063345
 21
542.416170687289
 31
0.0
  0
LINE
  5
1BA
330
1F
100
AcDbEntity
  8
B-2_蓋
  6
Continuous
 62
     3
370
     9
100
AcDbLine
 10
-591.3527700063345
 20
531.4167777396538
 30
0.0
 11
-591.3527700063345
 21
442.4162366712416
 31
0.0
  0
LINE
  5
1BB
330
1F
100
AcDbEntity
  8
B-2_蓋
  6
Continuous
 62
     3
370
     9
100
AcDbLine
 10
-633.6529541015625
 20
582.4162036792653
 30
0.0
 11
-633.6529541015625
 21
542.416170687289
 31
0.0
  0
LINE
  5
1BC
330
1F
100
AcDbEntity
  8
B-2_蓋
  6
Continuous
 62
     3
370
     9
100
AcDbLine
 10
-633.6529541015625
 20
531.4167777396538
 30
0.0
 11
-633.6529541015625
 21
442.4162366712416
 31
0.0
  0
LINE
  5
1BD
330
1F
100
AcDbEntity
  8
B-2_蓋
  6
Continuous
 62
     3
370
     9
100
AcDbLine
 10
-626.6528815192146
 20
582.4162036792653
 30
0.0
 11
-626.6528815192146
 21
542.416170687289
 31
0.0
  0
LINE
  5
1BE
330
1F
100
AcDbEntity
  8
B-2_蓋
  6
Continuous
 62
     3
370
     9
100
AcDbLine
 10
-626.6528815192146
 20
531.4167777396538
 30
0.0
 11
-626.6528815192146
 21
442.4162366712416
 31
0.0
  0
LINE
  5
1BF
330
1F
100
AcDbEntity
  8
B-2_蓋
  6
Continuous
 62
     3
370
     9
100
AcDbLine
 10
-668.9530656144425
 20
582.4162036792653
 30
0.0
 11
-668.9530656144425
 21
542.416170687289
 31
0.0
  0
LINE
  5
1C0
330
1F
100
AcDbEntity
  8
B-2_蓋
  6
Continuous
 62
     3
370
     9
100
AcDbLine
 10
-668.9530656144425
 20
531.4167777396538
 30
0.0
 11
-668.9530656144425
 21
442.4162366712416
 31
0.0
  0
LINE
  5
1C1
330
1F
100
AcDbEntity
  8
B-2_蓋
  6
Continuous
 62
     3
370
     9
100
AcDbLine
 10
-661.9532899598817
 20
582.4162036792653
 30
0.0
 11
-661.9532899598817
 21
542.416170687289
 31
0.0
  0
LINE
  5
1C2
330
1F
100
AcDbEntity
  8
B-2_蓋
  6
Continuous
 62
     3
370
     9
100
AcDbLine
 10
-661.9532899598817
 20
531.4167777396538
 30
0.0
 11
-661.9532899598817
 21
442.4162366712416
 31
0.0
  0
LINE
  5
1C3
330
1F
100
AcDbEntity
  8
B-2_蓋
  6
Continuous
 62
     3
370
     9
100
AcDbLine
 10
-704.2527317356419
 20
582.4162036792653
 30
0.0
 11
-704.2527317356419
 21
542.416170687289
 31
0.0
  0
LINE
  5
1C4
330
1F
100
AcDbEntity
  8
B-2_蓋
  6
Continuous
 62
     3
370
     9
100
AcDbLine
 10
-704.2527317356419
 20
531.4167777396538
 30
0.0
 11
-704.2527317356419
 21
442.4162366712416
 31
0.0
  0
LINE
  5
1C5
330
1F
100
AcDbEntity
  8
B-2_蓋
  6
Continuous
 62
     3
370
     9
100
AcDbLine
 10
-697.2528076171875
 20
582.4162036792653
 30
0.0
 11
-697.2528076171875
 21
542.416170687289
 31
0.0
  0
LINE
  5
1C6
330
1F
100
AcDbEntity
  8
B-2_蓋
  6
Continuous
 62
     3
370
     9
100
AcDbLine
 10
-697.2528076171875
 20
531.4167777396538
 30
0.0
 11
-697.2528076171875
 21
442.4162366712416
 31
0.0
  0
LINE
  5
1C7
330
1F
100
AcDbEntity
  8
B-2_蓋
  6
Continuous
 62
     3
370
     9
100
AcDbLine
 10
-739.5531401763091
 20
582.4162036792653
 30
0.0
 11
-739.5531401763091
 21
542.416170687289
 31
0.0
  0
LINE
  5
1C8
330
1F
100
AcDbEntity
  8
B-2_蓋
  6
Continuous
 62
     3
370
     9
100
AcDbLine
 10
-739.5531401763091
 20
531.4167777396538
 30
0.0
 11
-739.5531401763091
 21
442.4162366712416
 31
0.0
  0
LINE
  5
1C9
330
1F
100
AcDbEntity
  8
B-2_蓋
  6
Continuous
 62
     3
370
     9
100
AcDbLine
 10
-732.5529191300676
 20
582.4162036792653
 30
0.0
 11
-732.5529191300676
 21
542.416170687289
 31
0.0
  0
LINE
  5
1CA
330
1F
100
AcDbEntity
  8
B-2_蓋
  6
Continuous
 62
     3
370
     9
100
AcDbLine
 10
-732.5529191300676
 20
531.4167777396538
 30
0.0
 11
-732.5529191300676
 21
442.4162366712416
 31
0.0
  0
LINE
  5
1CB
330
1F
100
AcDbEntity
  8
B-2_蓋
  6
Continuous
 62
     3
370
     9
100
AcDbLine
 10
-774.8529547614021
 20
582.4162036792653
 30
0.0
 11
-774.8529547614021
 21
542.416170687289
 31
0.0
  0
LINE
  5
1CC
330
1F
100
AcDbEntity
  8
B-2_蓋
  6
Continuous
 62
     3
370
     9
100
AcDbLine
 10
-774.8529547614021
 20
531.4167777396538
 30
0.0
 11
-774.8529547614021
 21
442.4162366712416
 31
0.0
  0
LINE
  5
1CD
330
1F
100
AcDbEntity
  8
B-2_蓋
  6
Continuous
 62
     3
370
     9
100
AcDbLine
 10
-767.8533275707348
 20
582.4162036792653
 30
0.0
 11
-767.8533275707348
 21
542.416170687289
 31
0.0
  0
LINE
  5
1CE
330
1F
100
AcDbEntity
  8
B-2_蓋
  6
Continuous
 62
     3
370
     9
100
AcDbLine
 10
-767.8533275707348
 20
531.4167777396538
 30
0.0
 11
-767.8533275707348
 21
442.4162366712416
 31
0.0
  0
LINE
  5
1CF
330
1F
100
AcDbEntity
  8
B-2_蓋
  6
Continuous
 62
     3
370
     9
100
AcDbLine
 10
-810.152769346495
 20
582.4162036792653
 30
0.0
 11
-810.152769346495
 21
542.416170687289
 31
0.0
  0
LINE
  5
1D0
330
1F
100
AcDbEntity
  8
B-2_蓋
  6
Continuous
 62
     3
370
     9
100
AcDbLine
 10
-810.152769346495
 20
531.4167777396538
 30
0.0
 11
-810.152769346495
 21
442.4162366712416
 31
0.0
  0
LINE
  5
1D1
330
1F
100
AcDbEntity
  8
B-2_蓋
  6
Continuous
 62
     3
370
     9
100
AcDbLine
 10
-803.1529194599873
 20
582.4162036792653
 30
0.0
 11
-803.1529194599873
 21
542.416170687289
 31
0.0
  0
LINE
  5
1D2
330
1F
100
AcDbEntity
  8
B-2_蓋
  6
Continuous
 62
     3
370
     9
100
AcDbLine
 10
-803.1529194599873
 20
531.4167777396538
 30
0.0
 11
-803.1529194599873
 21
442.4162366712416
 31
0.0
  0
LINE
  5
1D3
330
1F
100
AcDbEntity
  8
B-2_蓋
  6
Continuous
 62
     3
370
     9
100
AcDbLine
 10
-845.452880859375
 20
582.4162036792653
 30
0.0
 11
-845.452880859375
 21
542.416170687289
 31
0.0
  0
LINE
  5
1D4
330
1F
100
AcDbEntity
  8
B-2_蓋
  6
Continuous
 62
     3
370
     9
100
AcDbLine
 10
-845.452880859375
 20
531.4167777396538
 30
0.0
 11
-845.452880859375
 21
442.4162366712416
 31
0.0
  0
LINE
  5
1D5
330
1F
100
AcDbEntity
  8
B-2_蓋
  6
Continuous
 62
     3
370
     9
100
AcDbLine
 10
-838.4529567409206
 20
582.4162036792653
 30
0.0
 11
-838.4529567409206
 21
542.416170687289
 31
0.0
  0
LINE
  5
1D6
330
1F
100
AcDbEntity
  8
B-2_蓋
  6
Continuous
 62
     3
370
     9
100
AcDbLine
 10
-838.4529567409206
 20
531.4167777396538
 30
0.0
 11
-838.4529567409206
 21
442.4162366712416
 31
0.0
  0
LINE
  5
1D7
330
1F
100
AcDbEntity
  8
B-2_蓋
  6
Continuous
 62
     3
370
     9
100
AcDbLine
 10
-880.7531408361485
 20
582.4162036792653
 30
0.0
 11
-880.7531408361485
 21
542.416170687289
 31
0.0
  0
LINE
  5
1D8
330
1F
100
AcDbEntity
  8
B-2_蓋
  6
Continuous
 62
     3
370
     9
100
AcDbLine
 10
-880.7531408361485
 20
531.4167777396538
 30
0.0
 11
-880.7531408361485
 21
442.4162366712416
 31
0.0
  0
LINE
  5
1D9
330
1F
100
AcDbEntity
  8
B-2_蓋
  6
Continuous
 62
     3
370
     9
100
AcDbLine
 10
-873.7530682538006
 20
582.4162036792653
 30
0.0
 11
-873.7530682538006
 21
542.416170687289
 31
0.0
  0
LINE
  5
1DA
330
1F
100
AcDbEntity
  8
B-2_蓋
  6
Continuous
 62
     3
370
     9
100
AcDbLine
 10
-873.7530682538006
 20
531.4167777396538
 30
0.0
 11
-873.7530682538006
 21
442.4162366712416
 31
0.0
  0
LINE
  5
1DB
330
1F
100
AcDbEntity
  8
B-2_蓋
  6
Continuous
 62
     3
370
     9
100
AcDbLine
 10
72.34630687816735
 20
582.4162036792653
 30
0.0
 11
72.34630687816735
 21
542.416170687289
 31
0.0
  0
LINE
  5
1DC
330
1F
100
AcDbEntity
  8
B-2_蓋
  6
Continuous
 62
     3
370
     9
100
AcDbLine
 10
72.34630687816735
 20
531.4167777396538
 30
0.0
 11
72.34630687816735
 21
442.4162366712416
 31
0.0
  0
LINE
  5
1DD
330
1F
100
AcDbEntity
  8
B-2_蓋
  6
Continuous
 62
     3
370
     9
100
AcDbLine
 10
37.04604690139359
 20
582.4162036792653
 30
0.0
 11
37.04604690139359
 21
542.416170687289
 31
0.0
  0
LINE
  5
1DE
330
1F
100
AcDbEntity
  8
B-2_蓋
  6
Continuous
 62
     3
370
     9
100
AcDbLine
 10
37.04604690139359
 20
531.4167777396538
 30
0.0
 11
37.04604690139359
 21
442.4162366712416
 31
0.0
  0
LINE
  5
1DF
330
1F
100
AcDbEntity
  8
B-2_蓋
  6
Continuous
 62
     3
370
     9
100
AcDbLine
 10
44.04715873099673
 20
582.4162036792653
 30
0.0
 11
44.04715873099673
 21
542.416170687289
 31
0.0
  0
LINE
  5
1E0
330
1F
100
AcDbEntity
  8
B-2_蓋
  6
Continuous
 62
     3
370
     9
100
AcDbLine
 10
44.04715873099673
 20
531.4167777396538
 30
0.0
 11
44.04715873099673
 21
442.4162366712416
 31
0.0
  0
LINE
  5
1E1
330
1F
100
AcDbEntity
  8
B-2_蓋
  6
Continuous
 62
     3
370
     9
100
AcDbLine
 10
1.745786924620006
 20
582.4162036792653
 30
0.0
 11
1.745786924620006
 21
542.416170687289
 31
0.0
  0
LINE
  5
1E2
330
1F
100
AcDbEntity
  8
B-2_蓋
  6
Continuous
 62
     3
370
     9
100
AcDbLine
 10
1.745786924620006
 20
531.4167777396538
 30
0.0
 11
1.745786924620006
 21
442.4162366712416
 31
0.0
  0
LINE
  5
1E3
330
1F
100
AcDbEntity
  8
B-2_蓋
  6
Continuous
 62
     3
370
     9
100
AcDbLine
 10
8.746898754222968
 20
582.4162036792653
 30
0.0
 11
8.746898754222968
 21
542.416170687289
 31
0.0
  0
LINE
  5
1E4
330
1F
100
AcDbEntity
  8
B-2_蓋
  6
Continuous
 62
     3
370
     9
100
AcDbLine
 10
8.746898754222968
 20
531.4167777396538
 30
0.0
 11
8.746898754222968
 21
442.4162366712416
 31
0.0
  0
LINE
  5
1E5
330
1F
100
AcDbEntity
  8
B-2_蓋
  6
Continuous
 62
     3
370
     9
100
AcDbLine
 10
-33.5529884132178
 20
582.4162036792653
 30
0.0
 11
-33.5529884132178
 21
542.416170687289
 31
0.0
  0
LINE
  5
1E6
330
1F
100
AcDbEntity
  8
B-2_蓋
  6
Continuous
 62
     3
370
     9
100
AcDbLine
 10
-33.5529884132178
 20
531.4167777396538
 30
0.0
 11
-33.5529884132178
 21
442.4162366712416
 31
0.0
  0
LINE
  5
1E7
330
1F
100
AcDbEntity
  8
B-2_蓋
  6
Continuous
 62
     3
370
     9
100
AcDbLine
 10
-26.55336122255062
 20
582.4162036792653
 30
0.0
 11
-26.55336122255062
 21
542.416170687289
 31
0.0
  0
LINE
  5
1E8
330
1F
100
AcDbEntity
  8
B-2_蓋
  6
Continuous
 62
     3
370
     9
100
AcDbLine
 10
-26.55336122255062
 20
531.4167777396538
 30
0.0
 11
-26.55336122255062
 21
442.4162366712416
 31
0.0
  0
LINE
  5
1E9
330
1F
100
AcDbEntity
  8
B-2_蓋
  6
Continuous
 62
     3
370
     9
100
AcDbLine
 10
-68.85339685388499
 20
582.4162036792653
 30
0.0
 11
-68.85339685388499
 21
542.416170687289
 31
0.0
  0
LINE
  5
1EA
330
1F
100
AcDbEntity
  8
B-2_蓋
  6
Continuous
 62
     3
370
     9
100
AcDbLine
 10
-68.85339685388499
 20
531.4167777396538
 30
0.0
 11
-68.85339685388499
 21
442.4162366712416
 31
0.0
  0
LINE
  5
1EB
330
1F
100
AcDbEntity
  8
B-2_蓋
  6
Continuous
 62
     3
370
     9
100
AcDbLine
 10
-61.85332427153702
 20
582.4162036792653
 30
0.0
 11
-61.85332427153702
 21
542.416170687289
 31
0.0
  0
LINE
  5
1EC
330
1F
100
AcDbEntity
  8
B-2_蓋
  6
Continuous
 62
     3
370
     9
100
AcDbLine
 10
-61.85332427153702
 20
531.4167777396538
 30
0.0
 11
-61.85332427153702
 21
442.4162366712416
 31
0.0
  0
LINE
  5
1ED
330
1F
100
AcDbEntity
  8
B-2_蓋
  6
Continuous
 62
     3
370
     9
100
AcDbLine
 10
-104.1535083667652
 20
582.4162036792653
 30
0.0
 11
-104.1535083667652
 21
542.416170687289
 31
0.0
  0
LINE
  5
1EE
330
1F
100
AcDbEntity
  8
B-2_蓋
  6
Continuous
 62
     3
370
     9
100
AcDbLine
 10
-104.1535083667652
 20
531.4167777396538
 30
0.0
 11
-104.1535083667652
 21
442.4162366712416
 31
0.0
  0
LINE
  5
1EF
330
1F
100
AcDbEntity
  8
B-2_蓋
  6
Continuous
 62
     3
370
     9
100
AcDbLine
 10
-97.15343578441718
 20
582.4162036792653
 30
0.0
 11
-97.15343578441718
 21
542.416170687289
 31
0.0
  0
LINE
  5
1F0
330
1F
100
AcDbEntity
  8
B-2_蓋
  6
Continuous
 62
     3
370
     9
100
AcDbLine
 10
-97.15343578441718
 20
531.4167777396538
 30
0.0
 11
-97.15343578441718
 21
442.4162366712416
 31
0.0
  0
LINE
  5
1F1
330
1F
100
AcDbEntity
  8
B-2_蓋
  6
Continuous
 62
     3
370
     9
100
AcDbLine
 10
-139.4537683435387
 20
582.4162036792653
 30
0.0
 11
-139.4537683435387
 21
542.416170687289
 31
0.0
  0
LINE
  5
1F2
330
1F
100
AcDbEntity
  8
B-2_蓋
  6
Continuous
 62
     3
370
     9
100
AcDbLine
 10
-139.4537683435387
 20
531.4167777396538
 30
0.0
 11
-139.4537683435387
 21
442.4162366712416
 31
0.0
  0
LINE
  5
1F3
330
1F
100
AcDbEntity
  8
B-2_蓋
  6
Continuous
 62
     3
370
     9
100
AcDbLine
 10
-132.4536957611908
 20
582.4162036792653
 30
0.0
 11
-132.4536957611908
 21
542.416170687289
 31
0.0
  0
LINE
  5
1F4
330
1F
100
AcDbEntity
  8
B-2_蓋
  6
Continuous
 62
     3
370
     9
100
AcDbLine
 10
-132.4536957611908
 20
531.4167777396538
 30
0.0
 11
-132.4536957611908
 21
442.4162366712416
 31
0.0
  0
LINE
  5
1F5
330
1F
100
AcDbEntity
  8
B-2_蓋
  6
Continuous
 62
     3
370
     9
100
AcDbLine
 10
-174.7538798564189
 20
582.4162036792653
 30
0.0
 11
-174.7538798564189
 21
542.416170687289
 31
0.0
  0
LINE
  5
1F6
330
1F
100
AcDbEntity
  8
B-2_蓋
  6
Continuous
 62
     3
370
     9
100
AcDbLine
 10
-174.7538798564189
 20
531.4167777396538
 30
0.0
 11
-174.7538798564189
 21
442.4162366712416
 31
0.0
  0
LINE
  5
1F7
330
1F
100
AcDbEntity
  8
B-2_蓋
  6
Continuous
 62
     3
370
     9
100
AcDbLine
 10
-167.7538072740709
 20
582.4162036792653
 30
0.0
 11
-167.7538072740709
 21
542.416170687289
 31
0.0
  0
LINE
  5
1F8
330
1F
100
AcDbEntity
  8
B-2_蓋
  6
Continuous
 62
     3
370
     9
100
AcDbLine
 10
-167.7538072740709
 20
531.4167777396538
 30
0.0
 11
-167.7538072740709
 21
442.4162366712416
 31
0.0
  0
LINE
  5
1F9
330
1F
100
AcDbEntity
  8
B-2_蓋
  6
Continuous
 62
     3
370
     9
100
AcDbLine
 10
-210.0534717456714
 20
582.4162036792653
 30
0.0
 11
-210.0534717456714
 21
542.416170687289
 31
0.0
  0
LINE
  5
1FA
330
1F
100
AcDbEntity
  8
B-2_蓋
  6
Continuous
 62
     3
370
     9
100
AcDbLine
 10
-210.0534717456714
 20
531.4167777396538
 30
0.0
 11
-210.0534717456714
 21
442.4162366712416
 31
0.0
  0
LINE
  5
1FB
330
1F
100
AcDbEntity
  8
B-2_蓋
  6
Continuous
 62
     3
370
     9
100
AcDbLine
 10
-203.053547627217
 20
582.4162036792653
 30
0.0
 11
-203.053547627217
 21
542.416170687289
 31
0.0
  0
LINE
  5
1FC
330
1F
100
AcDbEntity
  8
B-2_蓋
  6
Continuous
 62
     3
370
     9
100
AcDbLine
 10
-203.053547627217
 20
531.4167777396538
 30
0.0
 11
-203.053547627217
 21
442.4162366712416
 31
0.0
  0
LINE
  5
1FD
330
1F
100
AcDbEntity
  8
B-2_蓋
  6
Continuous
 62
     3
370
     9
100
AcDbLine
 10
-245.3531378668708
 20
582.4162036792653
 30
0.0
 11
-245.3531378668708
 21
542.416170687289
 31
0.0
  0
LINE
  5
1FE
330
1F
100
AcDbEntity
  8
B-2_蓋
  6
Continuous
 62
     3
370
     9
100
AcDbLine
 10
-245.3531378668708
 20
531.4167777396538
 30
0.0
 11
-245.3531378668708
 21
442.4162366712416
 31
0.0
  0
LINE
  5
1FF
330
1F
100
AcDbEntity
  8
B-2_蓋
  6
Continuous
 62
     3
370
     9
100
AcDbLine
 10
-238.3530652845228
 20
582.4162036792653
 30
0.0
 11
-238.3530652845228
 21
542.416170687289
 31
0.0
  0
LINE
  5
200
330
1F
100
AcDbEntity
  8
B-2_蓋
  6
Continuous
 62
     3
370
     9
100
AcDbLine
 10
-238.3530652845228
 20
531.4167777396538
 30
0.0
 11
-238.3530652845228
 21
442.4162366712416
 31
0.0
  0
LINE
  5
201
330
1F
100
AcDbEntity
  8
B-2_蓋
  6
Continuous
 62
     3
370
     9
100
AcDbLine
 10
-280.6531751478041
 20
582.4162036792653
 30
0.0
 11
-280.6531751478041
 21
542.416170687289
 31
0.0
  0
LINE
  5
202
330
1F
100
AcDbEntity
  8
B-2_蓋
  6
Continuous
 62
     3
370
     9
100
AcDbLine
 10
-280.6531751478041
 20
531.4167777396538
 30
0.0
 11
-280.6531751478041
 21
442.4162366712416
 31
0.0
  0
LINE
  5
203
330
1F
100
AcDbEntity
  8
B-2_蓋
  6
Continuous
 62
     3
370
     9
100
AcDbLine
 10
-273.6533252612964
 20
582.4162036792653
 30
0.0
 11
-273.6533252612964
 21
542.416170687289
 31
0.0
  0
LINE
  5
204
330
1F
100
AcDbEntity
  8
B-2_蓋
  6
Continuous
 62
     3
370
     9
100
AcDbLine
 10
-273.6533252612964
 20
531.4167777396538
 30
0.0
 11
-273.6533252612964
 21
442.4162366712416
 31
0.0
  0
LINE
  5
205
330
1F
100
AcDbEntity
  8
B-2_蓋
  6
Continuous
 62
     3
370
     9
100
AcDbLine
 10
-315.9534351245777
 20
582.4162036792653
 30
0.0
 11
-315.9534351245777
 21
542.416170687289
 31
0.0
  0
LINE
  5
206
330
1F
100
AcDbEntity
  8
B-2_蓋
  6
Continuous
 62
     3
370
     9
100
AcDbLine
 10
-315.9534351245777
 20
531.4167777396538
 30
0.0
 11
-315.9534351245777
 21
442.4162366712416
 31
0.0
  0
LINE
  5
207
330
1F
100
AcDbEntity
  8
B-2_蓋
  6
Continuous
 62
     3
370
     9
100
AcDbLine
 10
-308.9534367741764
 20
582.4162036792653
 30
0.0
 11
-308.9534367741764
 21
542.416170687289
 31
0.0
  0
LINE
  5
208
330
1F
100
AcDbEntity
  8
B-2_蓋
  6
Continuous
 62
     3
370
     9
100
AcDbLine
 10
-308.9534367741764
 20
531.4167777396538
 30
0.0
 11
-308.9534367741764
 21
442.4162366712416
 31
0.0
  0
LINE
  5
209
330
1F
100
AcDbEntity
  8
B-2_蓋
  6
Continuous
 62
     3
370
     9
100
AcDbLine
 10
-351.2531754777237
 20
582.4162036792653
 30
0.0
 11
-351.2531754777237
 21
542.416170687289
 31
0.0
  0
LINE
  5
20A
330
1F
100
AcDbEntity
  8
B-2_蓋
  6
Continuous
 62
     3
370
     9
100
AcDbLine
 10
-351.2531754777237
 20
531.4167777396538
 30
0.0
 11
-351.2531754777237
 21
442.4162366712416
 31
0.0
  0
LINE
  5
20B
330
1F
100
AcDbEntity
  8
B-2_蓋
  6
Continuous
 62
     3
370
     9
100
AcDbLine
 10
-344.2530286634291
 20
582.4162036792653
 30
0.0
 11
-344.2530286634291
 21
542.416170687289
 31
0.0
  0
LINE
  5
20C
330
1F
100
AcDbEntity
  8
B-2_蓋
  6
Continuous
 62
     3
370
     9
100
AcDbLine
 10
-344.2530286634291
 20
531.4167777396538
 30
0.0
 11
-344.2530286634291
 21
442.4162366712416
 31
0.0
  0
LINE
  5
20D
330
1F
100
AcDbEntity
  8
B-2_蓋
  6
Continuous
 62
     3
370
     9
100
AcDbLine
 10
-386.5534354544973
 20
582.4162036792653
 30
0.0
 11
-386.5534354544973
 21
542.416170687289
 31
0.0
  0
LINE
  5
20E
330
1F
100
AcDbEntity
  8
B-2_蓋
  6
Continuous
 62
     3
370
     9
100
AcDbLine
 10
-386.5534354544973
 20
531.4167777396538
 30
0.0
 11
-386.5534354544973
 21
442.4162366712416
 31
0.0
  0
LINE
  5
20F
330
1F
100
AcDbEntity
  8
B-2_蓋
  6
Continuous
 62
     3
370
     9
100
AcDbLine
 10
-379.5533628721494
 20
582.4162036792653
 30
0.0
 11
-379.5533628721494
 21
542.416170687289
 31
0.0
  0
LINE
  5
210
330
1F
100
AcDbEntity
  8
B-2_蓋
  6
Continuous
 62
     3
370
     9
100
AcDbLine
 10
-379.5533628721494
 20
531.4167777396538
 30
0.0
 11
-379.5533628721494
 21
442.4162366712416
 31
0.0
  0
LINE
  5
211
330
1F
100
AcDbEntity
  8
B-2_蓋
  6
Continuous
 62
     3
370
     9
100
AcDbLine
 10
-414.8530289933487
 20
582.4162036792653
 30
0.0
 11
-414.8530289933487
 21
542.416170687289
 31
0.0
  0
LINE
  5
212
330
1F
100
AcDbEntity
  8
B-2_蓋
  6
Continuous
 62
     3
370
     9
100
AcDbLine
 10
-414.8530289933487
 20
531.4167777396538
 30
0.0
 11
-414.8530289933487
 21
442.4162366712416
 31
0.0
  0
LINE
  5
213
330
1F
100
AcDbEntity
  8
B-2_蓋
  6
Continuous
 62
     3
370
     9
100
AcDbLine
 10
-915.6534390836148
 20
542.416170687289
 30
0.0
 11
79.34727024387672
 21
542.416170687289
 31
0.0
  0
LINE
  5
214
330
1F
100
AcDbEntity
  8
B-2_蓋
  6
Continuous
 62
     3
370
     9
100
AcDbLine
 10
-915.6534390836148
 20
531.4167777396538
 30
0.0
 11
79.34727024387672
 21
531.4167777396538
 31
0.0
  0
LINE
  5
215
330
1F
100
AcDbEntity
  8
B-2_蓋
  6
Continuous
 62
     3
370
     9
100
AcDbLine
 10
-908.6528468776394
 20
531.4167777396538
 30
0.0
 11
-873.7530682538006
 21
542.416170687289
 31
0.0
  0
LINE
  5
216
330
1F
100
AcDbEntity
  8
B-2_蓋
  6
Continuous
 62
     3
370
     9
100
AcDbLine
 10
-873.352809596706
 20
531.4167777396538
 30
0.0
 11
-838.4534021326012
 21
542.416170687289
 31
0.0
  0
LINE
  5
217
330
1F
100
AcDbEntity
  8
B-2_蓋
  6
Continuous
 62
     3
370
     9
100
AcDbLine
 10
-838.0532177074534
 20
531.4167777396538
 30
0.0
 11
-803.1534390836148
 21
542.416170687289
 31
0.0
  0
LINE
  5
218
330
1F
100
AcDbEntity
  8
B-2_蓋
  6
Continuous
 62
     3
370
     9
100
AcDbLine
 10
-802.7529577306798
 20
531.4167777396538
 30
0.0
 11
-767.8533275707348
 21
542.416170687289
 31
0.0
  0
LINE
  5
219
330
1F
100
AcDbEntity
  8
B-2_蓋
  6
Continuous
 62
     3
370
     9
100
AcDbLine
 10
-767.4532916094805
 20
531.4167777396538
 30
0.0
 11
-732.5535129856419
 21
542.416170687289
 31
0.0
  0
LINE
  5
21A
330
1F
100
AcDbEntity
  8
B-2_蓋
  6
Continuous
 62
     3
370
     9
100
AcDbLine
 10
-732.1531800966004
 20
531.4167777396538
 30
0.0
 11
-697.2532530088682
 21
542.416170687289
 31
0.0
  0
LINE
  5
21B
330
1F
100
AcDbEntity
  8
B-2_蓋
  6
Continuous
 62
     3
370
     9
100
AcDbLine
 10
-696.8529943517735
 20
531.4167777396538
 30
0.0
 11
-661.9532899598817
 21
542.416170687289
 31
0.0
  0
LINE
  5
21C
330
1F
100
AcDbEntity
  8
B-2_蓋
  6
Continuous
 62
     3
370
     9
100
AcDbLine
 10
-661.5532539986275
 20
531.4167777396538
 30
0.0
 11
-626.6532526789484
 21
542.416170687289
 31
0.0
  0
LINE
  5
21D
330
1F
100
AcDbEntity
  8
B-2_蓋
  6
Continuous
 62
     3
370
     9
100
AcDbLine
 10
-626.2531424857474
 20
531.4167777396538
 30
0.0
 11
-591.3533638619087
 21
542.416170687289
 31
0.0
  0
LINE
  5
21E
330
1F
100
AcDbEntity
  8
B-2_蓋
  6
Continuous
 62
     3
370
     9
100
AcDbLine
 10
-590.9528825089737
 20
531.4167777396538
 30
0.0
 11
-556.0531781170819
 21
542.416170687289
 31
0.0
  0
LINE
  5
21F
330
1F
100
AcDbEntity
  8
B-2_蓋
  6
Continuous
 62
     3
370
     9
100
AcDbLine
 10
-555.6532906197212
 20
531.4167777396538
 30
0.0
 11
-520.7534377639358
 21
542.416170687289
 31
0.0
  0
LINE
  5
220
330
1F
100
AcDbEntity
  8
B-2_蓋
  6
Continuous
 62
     3
370
     9
100
AcDbLine
 10
-520.3531791068411
 20
531.4167777396538
 30
0.0
 11
-485.4532520191089
 21
542.416170687289
 31
0.0
  0
LINE
  5
221
330
1F
100
AcDbEntity
  8
B-2_蓋
  6
Continuous
 62
     3
370
     9
100
AcDbLine
 10
-485.0529191300675
 20
531.4167777396538
 30
0.0
 11
-450.1531405062289
 21
542.416170687289
 31
0.0
  0
LINE
  5
222
330
1F
100
AcDbEntity
  8
B-2_蓋
  6
Continuous
 62
     3
370
     9
100
AcDbLine
 10
-449.7532530088681
 20
531.4167777396538
 30
0.0
 11
-414.8535486169762
 21
542.416170687289
 31
0.0
  0
LINE
  5
223
330
1F
100
AcDbEntity
  8
B-2_蓋
  6
Continuous
 62
     3
370
     9
100
AcDbLine
 10
-414.4530672640414
 20
531.4167777396538
 30
0.0
 11
-379.5533628721494
 21
542.416170687289
 31
0.0
  0
LINE
  5
224
330
1F
100
AcDbEntity
  8
B-2_蓋
  6
Continuous
 62
     3
370
     9
100
AcDbLine
 10
-379.1534753747887
 20
531.4167777396538
 30
0.0
 11
-344.2536225190033
 21
542.416170687289
 31
0.0
  0
LINE
  5
225
330
1F
100
AcDbEntity
  8
B-2_蓋
  6
Continuous
 62
     3
370
     9
100
AcDbLine
 10
-343.8533638619087
 20
531.4167777396538
 30
0.0
 11
-308.9534367741764
 21
542.416170687289
 31
0.0
  0
LINE
  5
226
330
1F
100
AcDbEntity
  8
B-2_蓋
  6
Continuous
 62
     3
370
     9
100
AcDbLine
 10
-308.5531781170819
 20
531.4167777396538
 30
0.0
 11
-273.6533252612964
 21
542.416170687289
 31
0.0
  0
LINE
  5
227
330
1F
100
AcDbEntity
  8
B-2_蓋
  6
Continuous
 62
     3
370
     9
100
AcDbLine
 10
-273.2535119958825
 20
531.4167777396538
 30
0.0
 11
-238.353659140097
 21
542.416170687289
 31
0.0
  0
LINE
  5
228
330
1F
100
AcDbEntity
  8
B-2_蓋
  6
Continuous
 62
     3
370
     9
100
AcDbLine
 10
-237.9532520191089
 20
531.4167777396538
 30
0.0
 11
-203.053547627217
 21
542.416170687289
 31
0.0
  0
LINE
  5
229
330
1F
100
AcDbEntity
  8
B-2_蓋
  6
Continuous
 62
     3
370
     9
100
AcDbLine
 10
-202.6532147381756
 20
531.4167777396538
 30
0.0
 11
-167.7538072740709
 21
542.416170687289
 31
0.0
  0
LINE
  5
22A
330
1F
100
AcDbEntity
  8
B-2_蓋
  6
Continuous
 62
     3
370
     9
100
AcDbLine
 10
-167.3534743850295
 20
531.4167777396538
 30
0.0
 11
-132.4536957611908
 21
542.416170687289
 31
0.0
  0
LINE
  5
22B
330
1F
100
AcDbEntity
  8
B-2_蓋
  6
Continuous
 62
     3
370
     9
100
AcDbLine
 10
-132.0532144082558
 20
531.4167777396538
 30
0.0
 11
-97.15343578441718
 21
542.416170687289
 31
0.0
  0
LINE
  5
22C
330
1F
100
AcDbEntity
  8
B-2_蓋
  6
Continuous
 62
     3
370
     9
100
AcDbLine
 10
-96.75332559121608
 20
531.4167777396538
 30
0.0
 11
-61.85332427153702
 21
542.416170687289
 31
0.0
  0
LINE
  5
22D
330
1F
100
AcDbEntity
  8
B-2_蓋
  6
Continuous
 62
     3
370
     9
100
AcDbLine
 10
-61.4529171505489
 20
531.4167777396538
 30
0.0
 11
-26.55336122255062
 21
542.416170687289
 31
0.0
  0
LINE
  5
22E
330
1F
100
AcDbEntity
  8
B-2_蓋
  6
Continuous
 62
     3
370
     9
100
AcDbLine
 10
-26.15399334881749
 20
531.4167777396538
 30
0.0
 11
8.746898754222968
 21
542.416170687289
 31
0.0
  0
LINE
  5
22F
330
1F
100
AcDbEntity
  8
B-2_蓋
  6
Continuous
 62
     3
370
     9
100
AcDbLine
 10
9.146266627956095
 20
531.4167777396538
 30
0.0
 11
44.04611948374156
 21
542.416170687289
 31
0.0
  0
LINE
  5
230
330
1F
100
AcDbEntity
  8
B-2_蓋
  6
Continuous
 62
     3
370
     9
100
AcDbLine
 10
44.44652660472985
 20
531.4167777396538
 30
0.0
 11
79.34623099662173
 21
542.416170687289
 31
0.0
  0
LINE
  5
231
330
1F
100
AcDbEntity
  8
B-2_蓋
  6
Continuous
 62
     3
370
     9
100
AcDbLine
 10
-915.6534390836148
 20
540.3351522909629
 30
0.0
 11
-909.0533282305744
 21
542.416170687289
 31
0.0
  0
LINE
  5
232
330
1F
100
AcDbEntity
  8
B-4_寸法
  6
Continuous
 62
     7
370
     9
100
AcDbLine
 10
-364.0750369510134
 20
586.9162927576015
 30
0.0
 11
-307.6450987119931
 21
797.5160373997044
 31
0.0
  0
LINE
  5
233
330
1F
100
AcDbEntity
  8
B-4_寸法
  6
Continuous
 62
     7
370
     9
100
AcDbLine
 10
-307.6450987119931
 20
797.5160373997044
 30
0.0
 11
-21.1376953125
 21
797.5160373997044
 31
0.0
  0
LINE
  5
234
330
1F
100
AcDbEntity
  8
B-4_寸法
  6
Continuous
 62
     7
370
     9
100
AcDbLine
 10
-270.2246258709881
 20
757.5160044077281
 30
0.0
 11
-35.30025997677359
 21
757.5160044077281
 31
0.0
  0
LINE
  5
235
330
1F
100
AcDbEntity
  8
B-4_寸法
  6
Continuous
 62
     7
370
     9
100
AcDbLine
 10
-229.8512804186022
 20
717.5159714157519
 30
0.0
 11
47.49642037056594
 21
717.5159714157519
 31
0.0
  0
LINE
  5
236
330
1F
100
AcDbEntity
  8
B-4_寸法
  6
Continuous
 62
     7
370
     9
100
AcDbLine
 10
-364.0750369510134
 20
586.9162927576015
 30
0.0
 11
-362.4434187605573
 21
599.3093162742822
 31
0.0
  0
LINE
  5
237
330
1F
100
AcDbEntity
  8
B-4_寸法
  6
Continuous
 62
     7
370
     9
100
AcDbLine
 10
-364.0750369510134
 20
586.9162927576015
 30
0.0
 11
-359.2915302998311
 21
598.4647051836994
 31
0.0
  0
LINE
  5
238
330
1F
100
AcDbEntity
  8
B-4_寸法
  6
Continuous
 62
     7
370
     9
100
AcDbLine
 10
-327.8604620856208
 20
542.416170687289
 30
0.0
 11
-326.2289181271114
 21
554.8091942039697
 31
0.0
  0
LINE
  5
239
330
1F
100
AcDbEntity
  8
B-4_寸法
  6
Continuous
 62
     7
370
     9
100
AcDbLine
 10
-327.8604620856208
 20
542.416170687289
 30
0.0
 11
-323.0768812024916
 21
553.9647315772804
 31
0.0
  0
LINE
  5
23A
330
1F
100
AcDbEntity
  8
B-4_寸法
  6
Continuous
 62
     7
370
     9
100
AcDbLine
 10
-273.6533252612964
 20
554.0451990076015
 30
0.0
 11
-272.0217070708403
 21
566.4380740603885
 31
0.0
  0
LINE
  5
23B
330
1F
100
AcDbEntity
  8
B-4_寸法
  6
Continuous
 62
     7
370
     9
100
AcDbLine
 10
-273.6533252612964
 20
554.0451990076015
 30
0.0
 11
-268.8697443781672
 21
565.5936114336994
 31
0.0
  0
LINE
  5
23C
330
1F
100
AcDbEntity
  8
B-4_寸法
  6
Continuous
 62
     7
370
     9
100
AcDbLine
 10
-273.6533252612964
 20
554.0451990076015
 30
0.0
 11
-229.8512804186022
 21
717.5159714157519
 31
0.0
  0
LINE
  5
23D
330
1F
100
AcDbEntity
  8
B-2_蓋
  6
Continuous
 62
     3
370
     9
100
AcDbLine
 10
721.7566247888516
 20
586.9161442937078
 30
0.0
 11
721.7566247888516
 21
582.4162036792653
 31
0.0
  0
LINE
  5
23E
330
1F
100
AcDbEntity
  8
B-2_蓋
  6
Continuous
 62
     3
370
     9
100
AcDbLine
 10
668.0704477671031
 20
536.9160288217906
 30
0.0
 11
662.4135280299831
 21
531.2592575485642
 31
0.0
  0
LINE
  5
23F
330
1F
100
AcDbEntity
  8
B-2_蓋
  6
Continuous
 62
     3
370
     9
100
AcDbLine
 10
662.4135280299831
 20
531.2592575485642
 30
0.0
 11
656.7567567567569
 21
536.9160288217906
 31
0.0
  0
LINE
  5
240
330
1F
100
AcDbEntity
  8
B-2_蓋
  6
Continuous
 62
     3
370
     9
100
AcDbLine
 10
656.7567567567569
 20
536.9160288217906
 30
0.0
 11
662.4135280299831
 21
542.5728000950171
 31
0.0
  0
LINE
  5
241
330
1F
100
AcDbEntity
  8
B-2_蓋
  6
Continuous
 62
     3
370
     9
100
AcDbLine
 10
662.4135280299831
 20
542.5728000950171
 30
0.0
 11
668.0704477671031
 21
536.9160288217906
 31
0.0
  0
LINE
  5
242
330
1F
100
AcDbEntity
  8
B-2_蓋
  6
Continuous
 62
     3
370
     9
100
AcDbLine
 10
656.7567567567569
 20
586.9161442937078
 30
0.0
 11
721.7566247888516
 21
586.9161442937078
 31
0.0
  0
LINE
  5
243
330
1F
100
AcDbEntity
  8
B-2_蓋
  6
Continuous
 62
     3
370
     9
100
AcDbLine
 10
656.7567567567569
 20
582.4162036792653
 30
0.0
 11
731.7567072687922
 21
582.4162036792653
 31
0.0
  0
LINE
  5
244
330
1F
100
AcDbEntity
  8
B-2_蓋
  6
Continuous
 62
     3
370
     9
100
AcDbLine
 10
668.0704477671031
 20
436.9159463418497
 30
0.0
 11
662.4135280299831
 21
431.2591750686234
 31
0.0
  0
LINE
  5
245
330
1F
100
AcDbEntity
  8
B-2_蓋
  6
Continuous
 62
     3
370
     9
100
AcDbLine
 10
662.4135280299831
 20
431.2591750686234
 30
0.0
 11
656.7567567567569
 21
436.9159463418497
 31
0.0
  0
LINE
  5
246
330
1F
100
AcDbEntity
  8
B-2_蓋
  6
Continuous
 62
     3
370
     9
100
AcDbLine
 10
656.7567567567569
 20
436.9159463418497
 30
0.0
 11
662.4135280299831
 21
442.5728660789697
 31
0.0
  0
LINE
  5
247
330
1F
100
AcDbEntity
  8
B-2_蓋
  6
Continuous
 62
     3
370
     9
100
AcDbLine
 10
662.4135280299831
 20
442.5728660789697
 30
0.0
 11
668.0704477671031
 21
436.9159463418497
 31
0.0
  0
LINE
  5
248
330
1F
100
AcDbEntity
  8
B-2_蓋
  6
Continuous
 62
     3
370
     9
100
AcDbLine
 10
668.0704477671031
 20
336.9160123258025
 30
0.0
 11
662.4135280299831
 21
331.2592410525761
 31
0.0
  0
LINE
  5
249
330
1F
100
AcDbEntity
  8
B-2_蓋
  6
Continuous
 62
     3
370
     9
100
AcDbLine
 10
662.4135280299831
 20
331.2592410525761
 30
0.0
 11
656.7567567567569
 21
336.9160123258025
 31
0.0
  0
LINE
  5
24A
330
1F
100
AcDbEntity
  8
B-2_蓋
  6
Continuous
 62
     3
370
     9
100
AcDbLine
 10
656.7567567567569
 20
336.9160123258025
 30
0.0
 11
662.4135280299831
 21
342.5730805268159
 31
0.0
  0
LINE
  5
24B
330
1F
100
AcDbEntity
  8
B-2_蓋
  6
Continuous
 62
     3
370
     9
100
AcDbLine
 10
662.4135280299831
 20
342.5730805268159
 30
0.0
 11
668.0704477671031
 21
336.9160123258025
 31
0.0
  0
LINE
  5
24C
330
1F
100
AcDbEntity
  8
B-2_蓋
  6
Continuous
 62
     3
370
     9
100
AcDbLine
 10
668.0704477671031
 20
236.9159298458616
 30
0.0
 11
662.4135280299831
 21
231.2591585726352
 31
0.0
  0
LINE
  5
24D
330
1F
100
AcDbEntity
  8
B-2_蓋
  6
Continuous
 62
     3
370
     9
100
AcDbLine
 10
662.4135280299831
 20
231.2591585726352
 30
0.0
 11
656.7567567567569
 21
236.9159298458616
 31
0.0
  0
LINE
  5
24E
330
1F
100
AcDbEntity
  8
B-2_蓋
  6
Continuous
 62
     3
370
     9
100
AcDbLine
 10
656.7567567567569
 20
236.9159298458616
 30
0.0
 11
662.4135280299831
 21
242.5728495829814
 31
0.0
  0
LINE
  5
24F
330
1F
100
AcDbEntity
  8
B-2_蓋
  6
Continuous
 62
     3
370
     9
100
AcDbLine
 10
662.4135280299831
 20
242.5728495829814
 30
0.0
 11
668.0704477671031
 21
236.9159298458616
 31
0.0
  0
LINE
  5
250
330
1F
100
AcDbEntity
  8
B-2_蓋
  6
Continuous
 62
     3
370
     9
100
AcDbLine
 10
668.0704477671031
 20
136.9159958298142
 30
0.0
 11
662.4135280299831
 21
131.2592245565878
 31
0.0
  0
LINE
  5
251
330
1F
100
AcDbEntity
  8
B-2_蓋
  6
Continuous
 62
     3
370
     9
100
AcDbLine
 10
662.4135280299831
 20
131.2592245565878
 30
0.0
 11
656.7567567567569
 21
136.9159958298142
 31
0.0
  0
LINE
  5
252
330
1F
100
AcDbEntity
  8
B-2_蓋
  6
Continuous
 62
     3
370
     9
100
AcDbLine
 10
656.7567567567569
 20
136.9159958298142
 30
0.0
 11
662.4135280299831
 21
142.5729155669342
 31
0.0
  0
LINE
  5
253
330
1F
100
AcDbEntity
  8
B-2_蓋
  6
Continuous
 62
     3
370
     9
100
AcDbLine
 10
662.4135280299831
 20
142.5729155669342
 30
0.0
 11
668.0704477671031
 21
136.9159958298142
 31
0.0
  0
LINE
  5
254
330
1F
100
AcDbEntity
  8
B-2_蓋
  6
Continuous
 62
     3
370
     9
100
AcDbLine
 10
721.7566247888516
 20
-113.0842846019848
 30
0.0
 11
721.7566247888516
 21
-108.5843439875422
 31
0.0
  0
LINE
  5
255
330
1F
100
AcDbEntity
  8
B-2_蓋
  6
Continuous
 62
     3
370
     9
100
AcDbLine
 10
656.7567567567569
 20
-113.0842846019848
 30
0.0
 11
721.7566247888516
 21
-113.0842846019848
 31
0.0
  0
LINE
  5
256
330
1F
100
AcDbEntity
  8
B-2_蓋
  6
Continuous
 62
     3
370
     9
100
AcDbLine
 10
656.7567567567569
 20
-108.5843439875422
 30
0.0
 11
731.7567072687922
 21
-108.5843439875422
 31
0.0
  0
LINE
  5
257
330
1F
100
AcDbEntity
  8
B-2_蓋
  6
Continuous
 62
     3
370
     9
100
AcDbLine
 10
656.7567567567569
 20
-113.0842846019848
 30
0.0
 11
656.7567567567569
 21
586.9161442937078
 31
0.0
  0
LINE
  5
258
330
1F
100
AcDbEntity
  8
B-2_蓋
  6
Continuous
 62
     3
370
     9
100
AcDbLine
 10
668.7564994193413
 20
582.4162036792653
 30
0.0
 11
668.7564994193413
 21
-108.5843439875422
 31
0.0
  0
LINE
  5
259
330
1F
100
AcDbEntity
  8
B-2_蓋
  6
Continuous
 62
     3
370
     9
100
AcDbLine
 10
670.2568755278719
 20
-108.5843439875422
 30
0.0
 11
670.2568755278719
 21
582.4162036792653
 31
0.0
  0
LINE
  5
25A
330
1F
100
AcDbEntity
  8
B-2_蓋
  6
Continuous
 62
     3
370
     9
100
AcDbLine
 10
718.2567369615709
 20
582.4162036792653
 30
0.0
 11
718.2567369615709
 21
-108.5843439875422
 31
0.0
  0
LINE
  5
25B
330
1F
100
AcDbEntity
  8
B-2_蓋
  6
Continuous
 62
     3
370
     9
100
AcDbLine
 10
719.7566676784206
 20
582.4162036792653
 30
0.0
 11
719.7566676784206
 21
-108.5843439875422
 31
0.0
  0
LINE
  5
25C
330
1F
100
AcDbEntity
  8
B-2_蓋
  6
Continuous
 62
     3
370
     9
100
AcDbLine
 10
731.7567072687922
 20
582.4162036792653
 30
0.0
 11
731.7567072687922
 21
-108.5843439875422
 31
0.0
  0
LINE
  5
25D
330
1F
100
AcDbEntity
  8
B-2_蓋
  6
JWW_CENTER1
 62
     3
370
     9
100
AcDbLine
 10
639.2403927364866
 20
236.9159298458616
 30
0.0
 11
756.5391911687078
 21
236.9159298458616
 31
0.0
  0
LINE
  5
25E
330
1F
100
AcDbEntity
  8
B-4_寸法
  6
Continuous
 62
     7
370
     9
100
AcDbLine
 10
-30.05324904983109
 20
606.9448143211572
 30
0.0
 11
5.246862463049069
 21
606.9448143211572
 31
0.0
  0
LINE
  5
25F
330
1F
100
AcDbEntity
  8
B-4_寸法
  6
Continuous
 62
     7
370
     9
100
AcDbLine
 10
-30.05324904983109
 20
555.369051546664
 30
0.0
 11
-30.05324904983109
 21
608.7447905669342
 31
0.0
  0
LINE
  5
260
330
1F
100
AcDbEntity
  8
B-4_寸法
  6
Continuous
 62
     7
370
     9
100
AcDbLine
 10
5.246862463049069
 20
555.369051546664
 30
0.0
 11
5.246862463049069
 21
608.7447905669342
 31
0.0
  0
LINE
  5
261
330
1F
100
AcDbEntity
  8
B-4_寸法
  6
Continuous
 62
     7
370
     9
100
AcDbLine
 10
656.7567567567569
 20
-203.6840787320523
 30
0.0
 11
731.7567072687922
 21
-203.6840787320523
 31
0.0
  0
LINE
  5
262
330
1F
100
AcDbEntity
  8
B-4_寸法
  6
Continuous
 62
     7
370
     9
100
AcDbLine
 10
656.7567567567569
 20
-138.084119642103
 30
0.0
 11
656.7567567567569
 21
-253.4841391073691
 31
0.0
  0
LINE
  5
263
330
1F
100
AcDbEntity
  8
B-4_寸法
  6
Continuous
 62
     7
370
     9
100
AcDbLine
 10
731.7567072687922
 20
-126.0843769795185
 30
0.0
 11
731.7567072687922
 21
-205.4840549778294
 31
0.0
  0
LINE
  5
264
330
1F
100
AcDbEntity
  8
B-4_寸法
  6
Continuous
 62
     7
370
     9
100
AcDbLine
 10
656.7567567567569
 20
-251.6840886296452
 30
0.0
 11
737.7567270639781
 21
-251.6840886296452
 31
0.0
  0
LINE
  5
265
330
1F
100
AcDbEntity
  8
B-4_寸法
  6
Continuous
 62
     7
370
     9
100
AcDbLine
 10
737.7567270639781
 20
-126.0843769795185
 30
0.0
 11
737.7567270639781
 21
-253.4841391073691
 31
0.0
  0
LINE
  5
266
330
1F
100
AcDbEntity
  8
B-4_寸法
  6
Continuous
 62
     7
370
     9
100
AcDbLine
 10
641.7567072687922
 20
-123.0842186180321
 30
0.0
 11
546.9567211254225
 21
-123.0842186180321
 31
0.0
  0
LINE
  5
267
330
1F
100
AcDbEntity
  8
B-4_寸法
  6
Continuous
 62
     7
370
     9
100
AcDbLine
 10
641.7567072687922
 20
-117.0843472867399
 30
0.0
 11
594.9567310230153
 21
-117.0843472867399
 31
0.0
  0
LINE
  5
268
330
1F
100
AcDbEntity
  8
B-4_寸法
  6
Continuous
 62
     7
370
     9
100
AcDbLine
 10
641.7567072687922
 20
-113.0842846019848
 30
0.0
 11
594.9567310230153
 21
-113.0842846019848
 31
0.0
  0
LINE
  5
269
330
1F
100
AcDbEntity
  8
B-4_寸法
  6
Continuous
 62
     7
370
     9
100
AcDbLine
 10
641.7567072687922
 20
586.9161442937078
 30
0.0
 11
594.9567310230153
 21
586.9161442937078
 31
0.0
  0
LINE
  5
26A
330
1F
100
AcDbEntity
  8
B-4_寸法
  6
Continuous
 62
     7
370
     9
100
AcDbLine
 10
641.7567072687922
 20
590.9163554423566
 30
0.0
 11
594.9567310230153
 21
590.9163554423566
 31
0.0
  0
LINE
  5
26B
330
1F
100
AcDbEntity
  8
B-4_寸法
  6
Continuous
 62
     7
370
     9
100
AcDbLine
 10
641.7567072687922
 20
596.9162267736488
 30
0.0
 11
546.9567211254225
 21
596.9162267736488
 31
0.0
  0
LINE
  5
26C
330
1F
100
AcDbEntity
  8
B-4_寸法
  6
Continuous
 62
     7
370
     9
100
AcDbLine
 10
548.7566973711994
 20
-123.0842186180321
 30
0.0
 11
548.7566973711994
 21
596.9162267736488
 31
0.0
  0
LINE
  5
26D
330
1F
100
AcDbEntity
  8
B-4_寸法
  6
Continuous
 62
     7
370
     9
100
AcDbLine
 10
847.7565950960728
 20
-123.0842186180321
 30
0.0
 11
847.7565950960728
 21
596.9162267736488
 31
0.0
  0
LINE
  5
26E
330
1F
100
AcDbEntity
  8
B-4_寸法
  6
Continuous
 62
     7
370
     9
100
AcDbLine
 10
740.7565884976775
 20
-123.0842186180321
 30
0.0
 11
849.5565713418497
 21
-123.0842186180321
 31
0.0
  0
LINE
  5
26F
330
1F
100
AcDbEntity
  8
B-4_寸法
  6
Continuous
 62
     7
370
     9
100
AcDbLine
 10
752.7567765519428
 20
-63.08424336201431
 30
0.0
 11
849.5565713418497
 21
-63.08424336201431
 31
0.0
  0
LINE
  5
270
330
1F
100
AcDbEntity
  8
B-4_寸法
  6
Continuous
 62
     7
370
     9
100
AcDbLine
 10
752.7567765519428
 20
536.9161772856842
 30
0.0
 11
849.5565713418497
 21
536.9161772856842
 31
0.0
  0
LINE
  5
271
330
1F
100
AcDbEntity
  8
B-4_寸法
  6
Continuous
 62
     7
370
     9
100
AcDbLine
 10
740.7565884976775
 20
596.9162267736488
 30
0.0
 11
849.5565713418497
 21
596.9162267736488
 31
0.0
  0
LINE
  5
272
330
1F
100
AcDbEntity
  8
B-4_寸法
  6
Continuous
 62
     7
370
     9
100
AcDbLine
 10
596.7567072687922
 20
-151.9282292546453
 30
0.0
 11
596.7567072687922
 21
625.9124129011825
 31
0.0
  0
LINE
  5
273
330
1F
100
AcDbEntity
  8
B-4_寸法
  6
Continuous
 62
     7
370
     9
100
AcDbLine
 10
656.7567567567569
 20
596.9162267736488
 30
0.0
 11
647.6253365181587
 21
608.816498627534
 31
0.0
  0
LINE
  5
274
330
1F
100
AcDbEntity
  8
B-4_寸法
  6
Continuous
 62
     7
370
     9
100
AcDbLine
 10
656.7567567567569
 20
596.9162267736488
 30
0.0
 11
651.0165487753378
 21
610.774440456081
 31
0.0
  0
LINE
  5
275
330
1F
100
AcDbEntity
  8
B-4_寸法
  6
Continuous
 62
     7
370
     9
100
AcDbLine
 10
785.5065753008869
 20
621.3657061602619
 30
0.0
 11
791.246783282306
 21
635.2239198426944
 31
0.0
  0
LINE
  5
276
330
1F
100
AcDbEntity
  8
B-4_寸法
  6
Continuous
 62
     7
370
     9
100
AcDbLine
 10
785.5065753008869
 20
621.3657061602619
 30
0.0
 11
794.637995539485
 21
633.2659780141471
 31
0.0
  0
LINE
  5
277
330
1F
100
AcDbEntity
  8
B-4_寸法
  6
Continuous
 62
     7
370
     9
100
AcDbLine
 10
785.5065753008869
 20
621.3657061602619
 30
0.0
 11
817.9250026393581
 21
677.5159384237754
 31
0.0
  0
LINE
  5
278
330
1F
100
AcDbEntity
  8
B-4_寸法
  6
Continuous
 62
     7
370
     9
100
AcDbLine
 10
817.9250026393581
 20
677.5159384237754
 30
0.0
 11
969.9676183752113
 21
677.5159384237754
 31
0.0
  0
LINE
  5
279
330
1F
100
AcDbEntity
  8
B-1_ピット
  6
Continuous
 62
     2
370
     9
100
AcDbLine
 10
-723.1532246357685
 20
-133.6846148516681
 30
0.0
 11
-723.1532246357685
 21
-127.5842334644214
 31
0.0
  0
LINE
  5
27A
330
1F
100
AcDbEntity
  8
B-1_ピット
  6
Continuous
 62
     2
370
     9
100
AcDbLine
 10
-623.1532906197212
 20
-143.6844004038217
 30
0.0
 11
-713.1531421558277
 21
-143.6844004038217
 31
0.0
  0
LINE
  5
27B
330
1F
100
AcDbEntity
  8
B-1_ピット
  6
Continuous
 62
     2
370
     9
100
AcDbLine
 10
-613.1532081397804
 20
-133.6846148516681
 30
0.0
 11
-613.1532081397804
 21
-127.5842334644214
 31
0.0
  0
LINE
  5
27C
330
1F
100
AcDbEntity
  8
B-1_ピット
  6
Continuous
 62
     2
370
     9
100
AcDbLine
 10
-622.1532378325591
 20
-133.6846148516681
 30
0.0
 11
-622.1532378325591
 21
-127.5842334644214
 31
0.0
  0
LINE
  5
27D
330
1F
100
AcDbEntity
  8
B-1_ピット
  6
Continuous
 62
     2
370
     9
100
AcDbLine
 10
-713.1531421558277
 20
-134.6845191749367
 30
0.0
 11
-623.1531421558277
 21
-134.6845191749367
 31
0.0
  0
LINE
  5
27E
330
1F
100
AcDbEntity
  8
B-1_ピット
  6
Continuous
 62
     2
370
     9
100
AcDbLine
 10
-714.1533434068834
 20
-133.6846148516681
 30
0.0
 11
-714.1533434068834
 21
-127.5842334644214
 31
0.0
  0
LINE
  5
27F
330
1F
100
AcDbEntity
  8
B-1_ピット
  6
JWW_CENTER1
 62
     2
370
     9
100
AcDbLine
 10
-718.653284021326
 20
-119.4771398595861
 30
0.0
 11
-718.653284021326
 21
-135.074236895587
 31
0.0
  0
LINE
  5
280
330
1F
100
AcDbEntity
  8
B-1_ピット
  6
JWW_CENTER1
 62
     2
370
     9
100
AcDbLine
 10
-710.4901452966639
 20
-127.5842334644214
 30
0.0
 11
-726.8973355679898
 21
-127.5842334644214
 31
0.0
  0
LINE
  5
281
330
1F
100
AcDbEntity
  8
B-1_ピット
  6
JWW_CENTER1
 62
     2
370
     9
100
AcDbLine
 10
-617.6530002903294
 20
-119.4771398595861
 30
0.0
 11
-617.6530002903294
 21
-135.074236895587
 31
0.0
  0
LINE
  5
282
330
1F
100
AcDbEntity
  8
B-1_ピット
  6
JWW_CENTER1
 62
     2
370
     9
100
AcDbLine
 10
-609.4904554212414
 20
-127.5842334644214
 30
0.0
 11
-625.8972003008868
 21
-127.5842334644214
 31
0.0
  0
LINE
  5
283
330
1F
100
AcDbEntity
  8
B-1_ピット
  6
Continuous
 62
     2
370
     9
100
AcDbLine
 10
-223.1532576277448
 20
-133.6846148516681
 30
0.0
 11
-223.1532576277448
 21
-127.5842334644214
 31
0.0
  0
LINE
  5
284
330
1F
100
AcDbEntity
  8
B-1_ピット
  6
Continuous
 62
     2
370
     9
100
AcDbLine
 10
-123.1531751478041
 20
-143.6844004038217
 30
0.0
 11
-213.1531751478041
 21
-143.6844004038217
 31
0.0
  0
LINE
  5
285
330
1F
100
AcDbEntity
  8
B-1_ピット
  6
Continuous
 62
     2
370
     9
100
AcDbLine
 10
-113.1533895956503
 20
-133.6846148516681
 30
0.0
 11
-113.1533895956503
 21
-127.5842334644214
 31
0.0
  0
LINE
  5
286
330
1F
100
AcDbEntity
  8
B-1_ピット
  6
Continuous
 62
     2
370
     9
100
AcDbLine
 10
-122.1531223606419
 20
-133.6846148516681
 30
0.0
 11
-122.1531223606419
 21
-127.5842334644214
 31
0.0
  0
LINE
  5
287
330
1F
100
AcDbEntity
  8
B-1_ピット
  6
Continuous
 62
     2
370
     9
100
AcDbLine
 10
-213.153546307538
 20
-134.6845191749367
 30
0.0
 11
-123.1531751478041
 21
-134.6845191749367
 31
0.0
  0
LINE
  5
288
330
1F
100
AcDbEntity
  8
B-1_ピット
  6
Continuous
 62
     2
370
     9
100
AcDbLine
 10
-214.1531537030194
 20
-133.6846148516681
 30
0.0
 11
-214.1531537030194
 21
-127.5842334644214
 31
0.0
  0
LINE
  5
289
330
1F
100
AcDbEntity
  8
B-1_ピット
  6
JWW_CENTER1
 62
     2
370
     9
100
AcDbLine
 10
-218.6530943174619
 20
-119.4771398595861
 30
0.0
 11
-218.6530943174619
 21
-135.074236895587
 31
0.0
  0
LINE
  5
28A
330
1F
100
AcDbEntity
  8
B-1_ピット
  6
JWW_CENTER1
 62
     2
370
     9
100
AcDbLine
 10
-210.4903267525337
 20
-127.5842334644214
 30
0.0
 11
-226.897442791913
 21
-127.5842334644214
 31
0.0
  0
LINE
  5
28B
330
1F
100
AcDbEntity
  8
B-1_ピット
  6
JWW_CENTER1
 62
     2
370
     9
100
AcDbLine
 10
-117.6535529059333
 20
-119.4771398595861
 30
0.0
 11
-117.6535529059333
 21
-135.074236895587
 31
0.0
  0
LINE
  5
28C
330
1F
100
AcDbEntity
  8
B-1_ピット
  6
JWW_CENTER1
 62
     2
370
     9
100
AcDbLine
 10
-109.4901914854306
 20
-127.5842334644214
 30
0.0
 11
-125.8976786845439
 21
-127.5842334644214
 31
0.0
  0
LINE
  5
28D
330
1F
100
AcDbEntity
  8
B-1_ピット
  6
Continuous
 62
     2
370
     9
100
AcDbLine
 10
-723.1532246357685
 20
607.5161033836572
 30
0.0
 11
-723.1532246357685
 21
601.4163158519848
 31
0.0
  0
LINE
  5
28E
330
1F
100
AcDbEntity
  8
B-1_ピット
  6
Continuous
 62
     2
370
     9
100
AcDbLine
 10
-623.1532906197212
 20
617.5160373997046
 30
0.0
 11
-713.1531421558277
 21
617.5160373997046
 31
0.0
  0
LINE
  5
28F
330
1F
100
AcDbEntity
  8
B-1_ピット
  6
Continuous
 62
     2
370
     9
100
AcDbLine
 10
-613.1532081397804
 20
607.5161033836572
 30
0.0
 11
-613.1532081397804
 21
601.4163158519848
 31
0.0
  0
LINE
  5
290
330
1F
100
AcDbEntity
  8
B-1_ピット
  6
Continuous
 62
     2
370
     9
100
AcDbLine
 10
-622.1532378325591
 20
607.5161033836572
 30
0.0
 11
-622.1532378325591
 21
601.4163158519848
 31
0.0
  0
LINE
  5
291
330
1F
100
AcDbEntity
  8
B-1_ピット
  6
Continuous
 62
     2
370
     9
100
AcDbLine
 10
-713.1531421558277
 20
608.5161561708194
 30
0.0
 11
-623.1531421558277
 21
608.5161561708194
 31
0.0
  0
LINE
  5
292
330
1F
100
AcDbEntity
  8
B-1_ピット
  6
Continuous
 62
     2
370
     9
100
AcDbLine
 10
-714.1533434068834
 20
607.5161033836572
 30
0.0
 11
-714.1533434068834
 21
601.4163158519848
 31
0.0
  0
LINE
  5
293
330
1F
100
AcDbEntity
  8
B-1_ピット
  6
JWW_CENTER1
 62
     2
370
     9
100
AcDbLine
 10
-718.653284021326
 20
593.3087026235221
 30
0.0
 11
-718.653284021326
 21
608.9063192831504
 31
0.0
  0
LINE
  5
294
330
1F
100
AcDbEntity
  8
B-1_ピット
  6
JWW_CENTER1
 62
     2
370
     9
100
AcDbLine
 10
-710.4902195286106
 20
601.4163158519848
 30
0.0
 11
-726.8973355679898
 21
601.4163158519848
 31
0.0
  0
LINE
  5
295
330
1F
100
AcDbEntity
  8
B-1_ピット
  6
JWW_CENTER1
 62
     2
370
     9
100
AcDbLine
 10
-617.6530002903294
 20
593.3087026235221
 30
0.0
 11
-617.6530002903294
 21
608.9063192831504
 31
0.0
  0
LINE
  5
296
330
1F
100
AcDbEntity
  8
B-1_ピット
  6
JWW_CENTER1
 62
     2
370
     9
100
AcDbLine
 10
-609.4903811892948
 20
601.4163158519848
 30
0.0
 11
-625.8972003008868
 21
601.4163158519848
 31
0.0
  0
LINE
  5
297
330
1F
100
AcDbEntity
  8
B-1_ピット
  6
Continuous
 62
     2
370
     9
100
AcDbLine
 10
-123.1531751478041
 20
617.5160373997046
 30
0.0
 11
-213.1531751478041
 21
617.5160373997046
 31
0.0
  0
LINE
  5
298
330
1F
100
AcDbEntity
  8
B-1_ピット
  6
Continuous
 62
     2
370
     9
100
AcDbLine
 10
-113.1533895956503
 20
607.5161033836572
 30
0.0
 11
-113.1533895956503
 21
601.4163158519848
 31
0.0
  0
LINE
  5
299
330
1F
100
AcDbEntity
  8
B-1_ピット
  6
Continuous
 62
     2
370
     9
100
AcDbLine
 10
-122.1531223606419
 20
607.5161033836572
 30
0.0
 11
-122.1531223606419
 21
601.4163158519848
 31
0.0
  0
LINE
  5
29A
330
1F
100
AcDbEntity
  8
B-1_ピット
  6
Continuous
 62
     2
370
     9
100
AcDbLine
 10
-213.153546307538
 20
608.5161561708194
 30
0.0
 11
-123.1531751478041
 21
608.5161561708194
 31
0.0
  0
LINE
  5
29B
330
1F
100
AcDbEntity
  8
B-1_ピット
  6
Continuous
 62
     2
370
     9
100
AcDbLine
 10
-214.1531537030194
 20
607.5161033836572
 30
0.0
 11
-214.1531537030194
 21
601.4163158519848
 31
0.0
  0
LINE
  5
29C
330
1F
100
AcDbEntity
  8
B-1_ピット
  6
JWW_CENTER1
 62
     2
370
     9
100
AcDbLine
 10
-218.6530943174619
 20
593.3087026235221
 30
0.0
 11
-218.6530943174619
 21
608.9063192831504
 31
0.0
  0
LINE
  5
29D
330
1F
100
AcDbEntity
  8
B-1_ピット
  6
JWW_CENTER1
 62
     2
370
     9
100
AcDbLine
 10
-210.4903267525337
 20
601.4163158519848
 30
0.0
 11
-226.897442791913
 21
601.4163158519848
 31
0.0
  0
LINE
  5
29E
330
1F
100
AcDbEntity
  8
B-1_ピット
  6
JWW_CENTER1
 62
     2
370
     9
100
AcDbLine
 10
-117.6535529059333
 20
593.3087026235221
 30
0.0
 11
-117.6535529059333
 21
608.9063192831504
 31
0.0
  0
LINE
  5
29F
330
1F
100
AcDbEntity
  8
B-1_ピット
  6
JWW_CENTER1
 62
     2
370
     9
100
AcDbLine
 10
-109.4901914854306
 20
601.4163158519848
 30
0.0
 11
-125.8976786845439
 21
601.4163158519848
 31
0.0
  0
LINE
  5
2A0
330
1F
100
AcDbEntity
  8
B-1_ピット
  6
Continuous
 62
     2
370
     9
100
AcDbLine
 10
-918.1532741237331
 20
536.9164742134715
 30
0.0
 11
-918.1532741237331
 21
596.9160783097552
 31
0.0
  0
LINE
  5
2A1
330
1F
100
AcDbEntity
  8
B-1_ピット
  6
Continuous
 62
     2
370
     9
100
AcDbLine
 10
-918.1532741237331
 20
-63.08409489812072
 30
0.0
 11
-918.1532741237331
 21
-123.0838474582982
 31
0.0
  0
LINE
  5
2A2
330
1F
100
AcDbEntity
  8
B-1_ピット
  6
Continuous
 62
     2
370
     9
100
AcDbLine
 10
226.4412874788852
 20
596.9160783097552
 30
0.0
 11
-918.1532741237331
 21
596.9160783097552
 31
0.0
  0
LINE
  5
2A3
330
1F
100
AcDbEntity
  8
B-4_寸法
  6
Continuous
 62
     7
370
     9
100
AcDbLine
 10
-918.1532741237331
 20
609.4161442937078
 30
0.0
 11
-918.1532741237331
 21
669.0159351245778
 31
0.0
  0
LINE
  5
2A4
330
1F
100
AcDbEntity
  8
B-4_寸法
  6
Continuous
 62
     7
370
     9
100
AcDbLine
 10
-668.1532163877745
 20
630.0159549197635
 30
0.0
 11
-668.1532163877745
 21
669.0159351245778
 31
0.0
  0
LINE
  5
2A5
330
1F
100
AcDbEntity
  8
B-4_寸法
  6
Continuous
 62
     7
370
     9
100
AcDbLine
 10
-168.1531009158572
 20
630.0159549197635
 30
0.0
 11
-168.1531009158572
 21
669.0159351245778
 31
0.0
  0
LINE
  5
2A6
330
1F
100
AcDbEntity
  8
B-4_寸法
  6
Continuous
 62
     7
370
     9
100
AcDbLine
 10
-918.1532741237331
 20
-135.5839134422508
 30
0.0
 11
-918.1532741237331
 21
-253.1840193464949
 31
0.0
  0
LINE
  5
2A7
330
1F
100
AcDbEntity
  8
B-4_寸法
  6
Continuous
 62
     7
370
     9
100
AcDbLine
 10
-915.6534390836148
 20
-125.5838309623099
 30
0.0
 11
-915.6534390836148
 21
-205.184009448902
 31
0.0
  0
LINE
  5
2A8
330
1F
100
AcDbEntity
  8
B-4_寸法
  6
Continuous
 62
     7
370
     9
100
AcDbLine
 10
79.34712177998313
 20
-125.5838309623099
 30
0.0
 11
79.34712177998313
 21
-205.184009448902
 31
0.0
  0
LINE
  5
2A9
330
1F
100
AcDbEntity
  8
B-4_寸法
  6
Continuous
 62
     7
370
     9
100
AcDbLine
 10
84.34708878800689
 20
-125.5838309623099
 30
0.0
 11
84.34708878800689
 21
-205.184009448902
 31
0.0
  0
LINE
  5
2AA
330
1F
100
AcDbEntity
  8
B-4_寸法
  6
Continuous
 62
     7
370
     9
100
AcDbLine
 10
-918.1532741237331
 20
-251.6840886296452
 30
0.0
 11
228.3894306904561
 21
-251.6840886296452
 31
0.0
  0
LINE
  5
2AB
330
1F
100
AcDbEntity
  8
B-4_寸法
  6
Continuous
 62
     7
370
     9
100
AcDbLine
 10
-918.1532741237331
 20
667.5160044077281
 30
0.0
 11
226.4412874788852
 21
667.5160044077281
 31
0.0
  0
LINE
  5
2AC
330
1F
100
AcDbEntity
  8
B-4_寸法
  6
Continuous
 62
     7
370
     9
100
AcDbLine
 10
-970.6198202597128
 20
-203.6840787320523
 30
0.0
 11
228.3894306904561
 21
-203.6840787320523
 31
0.0
  0
LINE
  5
2AD
330
1F
100
AcDbEntity
  8
B-1_ピット
  6
Continuous
 62
     2
370
     9
100
AcDbLine
 10
226.4412874788852
 20
590.9159100506758
 30
0.0
 11
-918.1532741237331
 21
590.9159100506758
 31
0.0
  0
LINE
  5
2AE
330
1F
100
AcDbEntity
  8
B-1_ピット
  6
JWW_DASHED3
 62
     2
370
     9
100
AcDbLine
 10
226.4412874788852
 20
536.9164742134715
 30
0.0
 11
-918.1532741237331
 21
536.9164742134715
 31
0.0
  0
LINE
  5
2AF
330
1F
100
AcDbEntity
  8
B-1_ピット
  6
Continuous
 62
     2
370
     9
100
AcDbLine
 10
226.4412874788852
 20
-117.0838276631123
 30
0.0
 11
-918.1532741237331
 21
-117.0838276631123
 31
0.0
  0
LINE
  5
2B0
330
1F
100
AcDbEntity
  8
B-1_ピット
  6
Continuous
 62
     2
370
     9
100
AcDbLine
 10
226.4412874788852
 20
-123.0838474582982
 30
0.0
 11
-918.1532741237331
 21
-123.0838474582982
 31
0.0
  0
LINE
  5
2B1
330
1F
100
AcDbEntity
  8
B-1_ピット
  6
JWW_DASHED3
 62
     2
370
     9
100
AcDbLine
 10
226.4412874788852
 20
-63.08409489812072
 30
0.0
 11
-918.1532741237331
 21
-63.08409489812072
 31
0.0
  0
LINE
  5
2B2
330
1F
100
AcDbEntity
  8
B-1_ピット
  6
Continuous
 62
     2
370
     9
100
AcDbLine
 10
-223.1531091638512
 20
601.4163158519848
 30
0.0
 11
-223.1531091638512
 21
607.5161033836572
 31
0.0
  0
LINE
  5
2B3
330
1F
100
AcDbEntity
  8
B-2_蓋
  6
JWW_PHANTOM1
 62
     3
370
     9
100
AcDbLine
 10
84.34723725190048
 20
586.9161442937078
 30
0.0
 11
84.34723725190048
 21
-113.0842846019848
 31
0.0
  0
LINE
  5
2B4
330
1F
100
AcDbEntity
  8
B-2_蓋
  6
JWW_PHANTOM1
 62
     3
370
     9
100
AcDbLine
 10
84.34723725190048
 20
586.9161442937078
 30
0.0
 11
226.4412874788852
 21
586.9161442937078
 31
0.0
  0
LINE
  5
2B5
330
1F
100
AcDbEntity
  8
B-2_蓋
  6
JWW_PHANTOM1
 62
     3
370
     9
100
AcDbLine
 10
84.34723725190048
 20
-113.0842846019848
 30
0.0
 11
226.4412874788852
 21
-113.0842846019848
 31
0.0
  0
LINE
  5
2B6
330
1F
100
AcDbEntity
  8
B-2_蓋
  6
Continuous
 62
     3
370
     9
100
AcDbLine
 10
226.4412874788852
 20
618.8268251161319
 30
0.0
 11
226.4412874788852
 21
254.9159149994722
 31
0.0
  0
LINE
  5
2B7
330
1F
100
AcDbEntity
  8
B-2_蓋
  6
Continuous
 62
     3
370
     9
100
AcDbLine
 10
226.4412874788852
 20
218.9159446922509
 30
0.0
 11
226.4412874788852
 21
-144.9950396563556
 31
0.0
  0
LINE
  5
2B8
330
1F
100
AcDbEntity
  8
B-2_蓋
  6
Continuous
 62
     3
370
     9
100
AcDbLine
 10
226.4412874788852
 20
254.9159149994722
 30
0.0
 11
238.4413270692569
 21
242.9159496410473
 31
0.0
  0
LINE
  5
2B9
330
1F
100
AcDbEntity
  8
B-2_蓋
  6
Continuous
 62
     3
370
     9
100
AcDbLine
 10
238.4413270692569
 20
242.9159496410473
 30
0.0
 11
214.4412478885136
 21
230.9159100506758
 31
0.0
  0
LINE
  5
2BA
330
1F
100
AcDbEntity
  8
B-2_蓋
  6
Continuous
 62
     3
370
     9
100
AcDbLine
 10
214.4412478885136
 20
230.9159100506758
 30
0.0
 11
226.4412874788852
 21
218.9159446922509
 31
0.0
  0
LINE
  5
2BB
330
1F
100
AcDbEntity
  8
B-2_蓋
  6
Continuous
 62
     3
370
     9
100
AcDbLine
 10
-915.6534390836148
 20
-57.58402726456924
 30
0.0
 11
79.34727024387672
 21
-57.58402726456924
 31
0.0
  0
LINE
  5
2BC
330
1F
100
AcDbEntity
  8
B-2_蓋
  6
Continuous
 62
     3
370
     9
100
AcDbLine
 10
-915.6534390836148
 20
-68.5834944441512
 30
0.0
 11
79.34727024387672
 21
-68.5834944441512
 31
0.0
  0
LINE
  5
2BD
330
1F
100
AcDbEntity
  8
B-2_蓋
  6
Continuous
 62
     3
370
     9
100
AcDbLine
 10
-908.6528468776394
 20
-68.5834944441512
 30
0.0
 11
-873.7530682538006
 21
-57.58358187288845
 31
0.0
  0
LINE
  5
2BE
330
1F
100
AcDbEntity
  8
B-2_蓋
  6
Continuous
 62
     3
370
     9
100
AcDbLine
 10
-873.352809596706
 20
-68.5834944441512
 30
0.0
 11
-838.4534021326012
 21
-57.58358187288845
 31
0.0
  0
LINE
  5
2BF
330
1F
100
AcDbEntity
  8
B-2_蓋
  6
Continuous
 62
     3
370
     9
100
AcDbLine
 10
-838.0532177074534
 20
-68.5834944441512
 30
0.0
 11
-803.1534390836148
 21
-57.58358187288845
 31
0.0
  0
LINE
  5
2C0
330
1F
100
AcDbEntity
  8
B-2_蓋
  6
Continuous
 62
     3
370
     9
100
AcDbLine
 10
-802.7529577306798
 20
-68.5834944441512
 30
0.0
 11
-767.8533275707348
 21
-57.58358187288845
 31
0.0
  0
LINE
  5
2C1
330
1F
100
AcDbEntity
  8
B-2_蓋
  6
Continuous
 62
     3
370
     9
100
AcDbLine
 10
-767.4532916094805
 20
-68.5834944441512
 30
0.0
 11
-732.5535129856419
 21
-57.58358187288845
 31
0.0
  0
LINE
  5
2C2
330
1F
100
AcDbEntity
  8
B-2_蓋
  6
Continuous
 62
     3
370
     9
100
AcDbLine
 10
-732.1531800966004
 20
-68.5834944441512
 30
0.0
 11
-697.2532530088682
 21
-57.58358187288845
 31
0.0
  0
LINE
  5
2C3
330
1F
100
AcDbEntity
  8
B-2_蓋
  6
Continuous
 62
     3
370
     9
100
AcDbLine
 10
-696.8529943517735
 20
-68.5834944441512
 30
0.0
 11
-661.9532899598817
 21
-57.58358187288845
 31
0.0
  0
LINE
  5
2C4
330
1F
100
AcDbEntity
  8
B-2_蓋
  6
Continuous
 62
     3
370
     9
100
AcDbLine
 10
-661.5532539986275
 20
-68.5834944441512
 30
0.0
 11
-626.6532526789484
 21
-57.58358187288845
 31
0.0
  0
LINE
  5
2C5
330
1F
100
AcDbEntity
  8
B-2_蓋
  6
Continuous
 62
     3
370
     9
100
AcDbLine
 10
-626.2531424857474
 20
-68.5834944441512
 30
0.0
 11
-591.3533638619087
 21
-57.58358187288845
 31
0.0
  0
LINE
  5
2C6
330
1F
100
AcDbEntity
  8
B-2_蓋
  6
Continuous
 62
     3
370
     9
100
AcDbLine
 10
-590.9528825089737
 20
-68.5834944441512
 30
0.0
 11
-556.0531781170819
 21
-57.58358187288845
 31
0.0
  0
LINE
  5
2C7
330
1F
100
AcDbEntity
  8
B-2_蓋
  6
Continuous
 62
     3
370
     9
100
AcDbLine
 10
-555.6532906197212
 20
-68.5834944441512
 30
0.0
 11
-520.7534377639358
 21
-57.58358187288845
 31
0.0
  0
LINE
  5
2C8
330
1F
100
AcDbEntity
  8
B-2_蓋
  6
Continuous
 62
     3
370
     9
100
AcDbLine
 10
-520.3531791068411
 20
-68.5834944441512
 30
0.0
 11
-485.4532520191089
 21
-57.58358187288845
 31
0.0
  0
LINE
  5
2C9
330
1F
100
AcDbEntity
  8
B-2_蓋
  6
Continuous
 62
     3
370
     9
100
AcDbLine
 10
-485.0529191300675
 20
-68.5834944441512
 30
0.0
 11
-450.1531405062289
 21
-57.58358187288845
 31
0.0
  0
LINE
  5
2CA
330
1F
100
AcDbEntity
  8
B-2_蓋
  6
Continuous
 62
     3
370
     9
100
AcDbLine
 10
-449.7532530088681
 20
-68.5834944441512
 30
0.0
 11
-414.8535486169762
 21
-57.58358187288845
 31
0.0
  0
LINE
  5
2CB
330
1F
100
AcDbEntity
  8
B-2_蓋
  6
Continuous
 62
     3
370
     9
100
AcDbLine
 10
-414.4530672640414
 20
-68.5834944441512
 30
0.0
 11
-379.5533628721494
 21
-57.58358187288845
 31
0.0
  0
LINE
  5
2CC
330
1F
100
AcDbEntity
  8
B-2_蓋
  6
Continuous
 62
     3
370
     9
100
AcDbLine
 10
-379.1534753747887
 20
-68.5834944441512
 30
0.0
 11
-344.2536225190033
 21
-57.58358187288845
 31
0.0
  0
LINE
  5
2CD
330
1F
100
AcDbEntity
  8
B-2_蓋
  6
Continuous
 62
     3
370
     9
100
AcDbLine
 10
-343.8533638619087
 20
-68.5834944441512
 30
0.0
 11
-308.9534367741764
 21
-57.58358187288845
 31
0.0
  0
LINE
  5
2CE
330
1F
100
AcDbEntity
  8
B-2_蓋
  6
Continuous
 62
     3
370
     9
100
AcDbLine
 10
-308.5531781170819
 20
-68.5834944441512
 30
0.0
 11
-273.6533252612964
 21
-57.58358187288845
 31
0.0
  0
LINE
  5
2CF
330
1F
100
AcDbEntity
  8
B-2_蓋
  6
Continuous
 62
     3
370
     9
100
AcDbLine
 10
-273.2535119958825
 20
-68.5834944441512
 30
0.0
 11
-238.353659140097
 21
-57.58358187288845
 31
0.0
  0
LINE
  5
2D0
330
1F
100
AcDbEntity
  8
B-2_蓋
  6
Continuous
 62
     3
370
     9
100
AcDbLine
 10
-237.9532520191089
 20
-68.5834944441512
 30
0.0
 11
-203.053547627217
 21
-57.58358187288845
 31
0.0
  0
LINE
  5
2D1
330
1F
100
AcDbEntity
  8
B-2_蓋
  6
Continuous
 62
     3
370
     9
100
AcDbLine
 10
-202.6532147381756
 20
-68.5834944441512
 30
0.0
 11
-167.7538072740709
 21
-57.58358187288845
 31
0.0
  0
LINE
  5
2D2
330
1F
100
AcDbEntity
  8
B-2_蓋
  6
Continuous
 62
     3
370
     9
100
AcDbLine
 10
-167.3534743850295
 20
-68.5834944441512
 30
0.0
 11
-132.4536957611908
 21
-57.58358187288845
 31
0.0
  0
LINE
  5
2D3
330
1F
100
AcDbEntity
  8
B-2_蓋
  6
Continuous
 62
     3
370
     9
100
AcDbLine
 10
-132.0532144082558
 20
-68.5834944441512
 30
0.0
 11
-97.15343578441718
 21
-57.58358187288845
 31
0.0
  0
LINE
  5
2D4
330
1F
100
AcDbEntity
  8
B-2_蓋
  6
Continuous
 62
     3
370
     9
100
AcDbLine
 10
-96.75332559121608
 20
-68.5834944441512
 30
0.0
 11
-61.85332427153702
 21
-57.58358187288845
 31
0.0
  0
LINE
  5
2D5
330
1F
100
AcDbEntity
  8
B-2_蓋
  6
Continuous
 62
     3
370
     9
100
AcDbLine
 10
-61.4529171505489
 20
-68.5834944441512
 30
0.0
 11
-26.55336122255062
 21
-57.58358187288845
 31
0.0
  0
LINE
  5
2D6
330
1F
100
AcDbEntity
  8
B-2_蓋
  6
Continuous
 62
     3
370
     9
100
AcDbLine
 10
-26.15399334881749
 20
-68.5834944441512
 30
0.0
 11
8.746898754222968
 21
-57.58358187288845
 31
0.0
  0
LINE
  5
2D7
330
1F
100
AcDbEntity
  8
B-2_蓋
  6
Continuous
 62
     3
370
     9
100
AcDbLine
 10
9.146266627956095
 20
-68.5834944441512
 30
0.0
 11
44.04611948374156
 21
-57.58358187288845
 31
0.0
  0
LINE
  5
2D8
330
1F
100
AcDbEntity
  8
B-2_蓋
  6
Continuous
 62
     3
370
     9
100
AcDbLine
 10
44.44652660472985
 20
-68.5834944441512
 30
0.0
 11
79.34623099662173
 21
-57.58358187288845
 31
0.0
  0
LINE
  5
2D9
330
1F
100
AcDbEntity
  8
B-2_蓋
  6
Continuous
 62
     3
370
     9
100
AcDbLine
 10
668.0704477671031
 20
-63.08402066617401
 30
0.0
 11
662.4135280299831
 21
-68.74079193940034
 31
0.0
  0
LINE
  5
2DA
330
1F
100
AcDbEntity
  8
B-2_蓋
  6
Continuous
 62
     3
370
     9
100
AcDbLine
 10
662.4135280299831
 20
-68.74079193940034
 30
0.0
 11
656.7567567567569
 21
-63.08402066617401
 31
0.0
  0
LINE
  5
2DB
330
1F
100
AcDbEntity
  8
B-2_蓋
  6
Continuous
 62
     3
370
     9
100
AcDbLine
 10
656.7567567567569
 20
-63.08402066617401
 30
0.0
 11
662.4135280299831
 21
-57.42710092905408
 31
0.0
  0
LINE
  5
2DC
330
1F
100
AcDbEntity
  8
B-2_蓋
  6
Continuous
 62
     3
370
     9
100
AcDbLine
 10
662.4135280299831
 20
-57.42710092905408
 30
0.0
 11
668.0704477671031
 21
-63.08402066617401
 31
0.0
  0
LINE
  5
2DD
330
1F
100
AcDbEntity
  8
B-2_蓋
  6
Continuous
 62
     3
370
     9
100
AcDbLine
 10
-908.6528468776394
 20
-108.5845666833826
 30
0.0
 11
-908.6528468776394
 21
-68.5834944441512
 31
0.0
  0
LINE
  5
2DE
330
1F
100
AcDbEntity
  8
B-2_蓋
  6
Continuous
 62
     3
370
     9
100
AcDbLine
 10
-450.1531405062289
 20
-68.5834944441512
 30
0.0
 11
-450.1531405062289
 21
-108.5845666833826
 31
0.0
  0
LINE
  5
2DF
330
1F
100
AcDbEntity
  8
B-2_蓋
  6
Continuous
 62
     3
370
     9
100
AcDbLine
 10
-485.4532520191089
 20
-68.5834944441512
 30
0.0
 11
-485.4532520191089
 21
-108.5845666833826
 31
0.0
  0
LINE
  5
2E0
330
1F
100
AcDbEntity
  8
B-2_蓋
  6
Continuous
 62
     3
370
     9
100
AcDbLine
 10
-520.752992372255
 20
-68.5834944441512
 30
0.0
 11
-520.752992372255
 21
-108.5845666833826
 31
0.0
  0
LINE
  5
2E1
330
1F
100
AcDbEntity
  8
B-2_蓋
  6
Continuous
 62
     3
370
     9
100
AcDbLine
 10
-598.3528425886824
 20
-68.5834944441512
 30
0.0
 11
-598.3528425886824
 21
-108.5845666833826
 31
0.0
  0
LINE
  5
2E2
330
1F
100
AcDbEntity
  8
B-2_蓋
  6
Continuous
 62
     3
370
     9
100
AcDbLine
 10
-591.3527700063345
 20
-68.5834944441512
 30
0.0
 11
-591.3527700063345
 21
-108.5845666833826
 31
0.0
  0
LINE
  5
2E3
330
1F
100
AcDbEntity
  8
B-2_蓋
  6
Continuous
 62
     3
370
     9
100
AcDbLine
 10
-563.0532506994298
 20
-68.5834944441512
 30
0.0
 11
-563.0532506994298
 21
-108.5845666833826
 31
0.0
  0
LINE
  5
2E4
330
1F
100
AcDbEntity
  8
B-2_蓋
  6
Continuous
 62
     3
370
     9
100
AcDbLine
 10
-556.0531781170819
 20
-68.5834944441512
 30
0.0
 11
-556.0531781170819
 21
-108.5845666833826
 31
0.0
  0
LINE
  5
2E5
330
1F
100
AcDbEntity
  8
B-2_蓋
  6
Continuous
 62
     3
370
     9
100
AcDbLine
 10
-527.7529907226562
 20
-68.5834944441512
 30
0.0
 11
-527.7529907226562
 21
-108.5845666833826
 31
0.0
  0
LINE
  5
2E6
330
1F
100
AcDbEntity
  8
B-2_蓋
  6
Continuous
 62
     3
370
     9
100
AcDbLine
 10
-492.4532503695101
 20
-68.5834944441512
 30
0.0
 11
-492.4532503695101
 21
-108.5845666833826
 31
0.0
  0
LINE
  5
2E7
330
1F
100
AcDbEntity
  8
B-2_蓋
  6
Continuous
 62
     3
370
     9
100
AcDbLine
 10
-457.1529903927364
 20
-68.5834944441512
 30
0.0
 11
-457.1529903927364
 21
-108.5845666833826
 31
0.0
  0
LINE
  5
2E8
330
1F
100
AcDbEntity
  8
B-2_蓋
  6
Continuous
 62
     3
370
     9
100
AcDbLine
 10
-626.6528815192146
 20
-68.5834944441512
 30
0.0
 11
-626.6528815192146
 21
-108.5845666833826
 31
0.0
  0
LINE
  5
2E9
330
1F
100
AcDbEntity
  8
B-2_蓋
  6
Continuous
 62
     3
370
     9
100
AcDbLine
 10
-633.6529541015625
 20
-68.5834944441512
 30
0.0
 11
-633.6529541015625
 21
-108.5845666833826
 31
0.0
  0
LINE
  5
2EA
330
1F
100
AcDbEntity
  8
B-2_蓋
  6
Continuous
 62
     3
370
     9
100
AcDbLine
 10
-668.9530656144425
 20
-68.5834944441512
 30
0.0
 11
-668.9530656144425
 21
-108.5845666833826
 31
0.0
  0
LINE
  5
2EB
330
1F
100
AcDbEntity
  8
B-2_蓋
  6
Continuous
 62
     3
370
     9
100
AcDbLine
 10
-661.9532899598817
 20
-68.5834944441512
 30
0.0
 11
-661.9532899598817
 21
-108.5845666833826
 31
0.0
  0
LINE
  5
2EC
330
1F
100
AcDbEntity
  8
B-2_蓋
  6
Continuous
 62
     3
370
     9
100
AcDbLine
 10
-697.2528076171875
 20
-68.5834944441512
 30
0.0
 11
-697.2528076171875
 21
-108.5845666833826
 31
0.0
  0
LINE
  5
2ED
330
1F
100
AcDbEntity
  8
B-2_蓋
  6
Continuous
 62
     3
370
     9
100
AcDbLine
 10
-704.2527317356419
 20
-68.5834944441512
 30
0.0
 11
-704.2527317356419
 21
-108.5845666833826
 31
0.0
  0
LINE
  5
2EE
330
1F
100
AcDbEntity
  8
B-2_蓋
  6
Continuous
 62
     3
370
     9
100
AcDbLine
 10
-732.5529191300676
 20
-68.5834944441512
 30
0.0
 11
-732.5529191300676
 21
-108.5845666833826
 31
0.0
  0
LINE
  5
2EF
330
1F
100
AcDbEntity
  8
B-2_蓋
  6
Continuous
 62
     3
370
     9
100
AcDbLine
 10
-739.5531401763091
 20
-68.5834944441512
 30
0.0
 11
-739.5531401763091
 21
-108.5845666833826
 31
0.0
  0
LINE
  5
2F0
330
1F
100
AcDbEntity
  8
B-2_蓋
  6
Continuous
 62
     3
370
     9
100
AcDbLine
 10
-767.8533275707348
 20
-68.5834944441512
 30
0.0
 11
-767.8533275707348
 21
-108.5845666833826
 31
0.0
  0
LINE
  5
2F1
330
1F
100
AcDbEntity
  8
B-2_蓋
  6
Continuous
 62
     3
370
     9
100
AcDbLine
 10
-774.8529547614021
 20
-68.5834944441512
 30
0.0
 11
-774.8529547614021
 21
-108.5845666833826
 31
0.0
  0
LINE
  5
2F2
330
1F
100
AcDbEntity
  8
B-2_蓋
  6
Continuous
 62
     3
370
     9
100
AcDbLine
 10
-803.1529194599873
 20
-68.5834944441512
 30
0.0
 11
-803.1529194599873
 21
-108.5845666833826
 31
0.0
  0
LINE
  5
2F3
330
1F
100
AcDbEntity
  8
B-2_蓋
  6
Continuous
 62
     3
370
     9
100
AcDbLine
 10
-810.152769346495
 20
-68.5834944441512
 30
0.0
 11
-810.152769346495
 21
-108.5845666833826
 31
0.0
  0
LINE
  5
2F4
330
1F
100
AcDbEntity
  8
B-2_蓋
  6
Continuous
 62
     3
370
     9
100
AcDbLine
 10
-838.4529567409206
 20
-68.5834944441512
 30
0.0
 11
-838.4529567409206
 21
-108.5845666833826
 31
0.0
  0
LINE
  5
2F5
330
1F
100
AcDbEntity
  8
B-2_蓋
  6
Continuous
 62
     3
370
     9
100
AcDbLine
 10
-845.452880859375
 20
-68.5834944441512
 30
0.0
 11
-845.452880859375
 21
-108.5845666833826
 31
0.0
  0
LINE
  5
2F6
330
1F
100
AcDbEntity
  8
B-2_蓋
  6
Continuous
 62
     3
370
     9
100
AcDbLine
 10
-880.7531408361485
 20
-68.5834944441512
 30
0.0
 11
-880.7531408361485
 21
-108.5845666833826
 31
0.0
  0
LINE
  5
2F7
330
1F
100
AcDbEntity
  8
B-2_蓋
  6
Continuous
 62
     3
370
     9
100
AcDbLine
 10
-873.7530682538006
 20
-68.5834944441512
 30
0.0
 11
-873.7530682538006
 21
-108.5845666833826
 31
0.0
  0
LINE
  5
2F8
330
1F
100
AcDbEntity
  8
B-2_蓋
  6
Continuous
 62
     3
370
     9
100
AcDbLine
 10
-245.3531378668708
 20
-68.5834944441512
 30
0.0
 11
-245.3531378668708
 21
-108.5845666833826
 31
0.0
  0
LINE
  5
2F9
330
1F
100
AcDbEntity
  8
B-2_蓋
  6
Continuous
 62
     3
370
     9
100
AcDbLine
 10
-238.3530652845228
 20
-68.5834944441512
 30
0.0
 11
-238.3530652845228
 21
-108.5845666833826
 31
0.0
  0
LINE
  5
2FA
330
1F
100
AcDbEntity
  8
B-2_蓋
  6
Continuous
 62
     3
370
     9
100
AcDbLine
 10
-280.6531751478041
 20
-68.5834944441512
 30
0.0
 11
-280.6531751478041
 21
-108.5845666833826
 31
0.0
  0
LINE
  5
2FB
330
1F
100
AcDbEntity
  8
B-2_蓋
  6
Continuous
 62
     3
370
     9
100
AcDbLine
 10
-273.6533252612964
 20
-68.5834944441512
 30
0.0
 11
-273.6533252612964
 21
-108.5845666833826
 31
0.0
  0
LINE
  5
2FC
330
1F
100
AcDbEntity
  8
B-2_蓋
  6
Continuous
 62
     3
370
     9
100
AcDbLine
 10
-315.9534351245777
 20
-68.5834944441512
 30
0.0
 11
-315.9534351245777
 21
-108.5845666833826
 31
0.0
  0
LINE
  5
2FD
330
1F
100
AcDbEntity
  8
B-2_蓋
  6
Continuous
 62
     3
370
     9
100
AcDbLine
 10
-308.9534367741764
 20
-68.5834944441512
 30
0.0
 11
-308.9534367741764
 21
-108.5845666833826
 31
0.0
  0
LINE
  5
2FE
330
1F
100
AcDbEntity
  8
B-2_蓋
  6
Continuous
 62
     3
370
     9
100
AcDbLine
 10
-351.2531754777237
 20
-68.5834944441512
 30
0.0
 11
-351.2531754777237
 21
-108.5845666833826
 31
0.0
  0
LINE
  5
2FF
330
1F
100
AcDbEntity
  8
B-2_蓋
  6
Continuous
 62
     3
370
     9
100
AcDbLine
 10
-344.2530286634291
 20
-68.5834944441512
 30
0.0
 11
-344.2530286634291
 21
-108.5845666833826
 31
0.0
  0
LINE
  5
300
330
1F
100
AcDbEntity
  8
B-2_蓋
  6
Continuous
 62
     3
370
     9
100
AcDbLine
 10
-386.5534354544973
 20
-68.5834944441512
 30
0.0
 11
-386.5534354544973
 21
-108.5845666833826
 31
0.0
  0
LINE
  5
301
330
1F
100
AcDbEntity
  8
B-2_蓋
  6
Continuous
 62
     3
370
     9
100
AcDbLine
 10
-379.5533628721494
 20
-68.5834944441512
 30
0.0
 11
-379.5533628721494
 21
-108.5845666833826
 31
0.0
  0
LINE
  5
302
330
1F
100
AcDbEntity
  8
B-2_蓋
  6
Continuous
 62
     3
370
     9
100
AcDbLine
 10
-421.8528788798564
 20
-68.5834944441512
 30
0.0
 11
-421.8528788798564
 21
-108.5845666833826
 31
0.0
  0
LINE
  5
303
330
1F
100
AcDbEntity
  8
B-2_蓋
  6
Continuous
 62
     3
370
     9
100
AcDbLine
 10
-414.8530289933487
 20
-68.5834944441512
 30
0.0
 11
-414.8530289933487
 21
-108.5845666833826
 31
0.0
  0
LINE
  5
304
330
1F
100
AcDbEntity
  8
B-2_蓋
  6
Continuous
 62
     3
370
     9
100
AcDbLine
 10
72.34630687816735
 20
-68.5834944441512
 30
0.0
 11
72.34630687816735
 21
-108.5845666833826
 31
0.0
  0
LINE
  5
305
330
1F
100
AcDbEntity
  8
B-2_蓋
  6
Continuous
 62
     3
370
     9
100
AcDbLine
 10
37.04604690139359
 20
-68.5834944441512
 30
0.0
 11
37.04604690139359
 21
-108.5845666833826
 31
0.0
  0
LINE
  5
306
330
1F
100
AcDbEntity
  8
B-2_蓋
  6
Continuous
 62
     3
370
     9
100
AcDbLine
 10
44.04715873099673
 20
-68.5834944441512
 30
0.0
 11
44.04715873099673
 21
-108.5845666833826
 31
0.0
  0
LINE
  5
307
330
1F
100
AcDbEntity
  8
B-2_蓋
  6
Continuous
 62
     3
370
     9
100
AcDbLine
 10
1.745786924620006
 20
-68.5834944441512
 30
0.0
 11
1.745786924620006
 21
-108.5845666833826
 31
0.0
  0
LINE
  5
308
330
1F
100
AcDbEntity
  8
B-2_蓋
  6
Continuous
 62
     3
370
     9
100
AcDbLine
 10
8.746898754222968
 20
-68.5834944441512
 30
0.0
 11
8.746898754222968
 21
-108.5845666833826
 31
0.0
  0
LINE
  5
309
330
1F
100
AcDbEntity
  8
B-2_蓋
  6
Continuous
 62
     3
370
     9
100
AcDbLine
 10
-33.5529884132178
 20
-68.5834944441512
 30
0.0
 11
-33.5529884132178
 21
-108.5845666833826
 31
0.0
  0
LINE
  5
30A
330
1F
100
AcDbEntity
  8
B-2_蓋
  6
Continuous
 62
     3
370
     9
100
AcDbLine
 10
-26.55336122255062
 20
-68.5834944441512
 30
0.0
 11
-26.55336122255062
 21
-108.5845666833826
 31
0.0
  0
LINE
  5
30B
330
1F
100
AcDbEntity
  8
B-2_蓋
  6
Continuous
 62
     3
370
     9
100
AcDbLine
 10
-68.85339685388499
 20
-68.5834944441512
 30
0.0
 11
-68.85339685388499
 21
-108.5845666833826
 31
0.0
  0
LINE
  5
30C
330
1F
100
AcDbEntity
  8
B-2_蓋
  6
Continuous
 62
     3
370
     9
100
AcDbLine
 10
-61.85332427153702
 20
-68.5834944441512
 30
0.0
 11
-61.85332427153702
 21
-108.5845666833826
 31
0.0
  0
LINE
  5
30D
330
1F
100
AcDbEntity
  8
B-2_蓋
  6
Continuous
 62
     3
370
     9
100
AcDbLine
 10
-104.1535083667652
 20
-68.5834944441512
 30
0.0
 11
-104.1535083667652
 21
-108.5845666833826
 31
0.0
  0
LINE
  5
30E
330
1F
100
AcDbEntity
  8
B-2_蓋
  6
Continuous
 62
     3
370
     9
100
AcDbLine
 10
-97.15343578441718
 20
-68.5834944441512
 30
0.0
 11
-97.15343578441718
 21
-108.5845666833826
 31
0.0
  0
LINE
  5
30F
330
1F
100
AcDbEntity
  8
B-2_蓋
  6
Continuous
 62
     3
370
     9
100
AcDbLine
 10
-139.4537683435387
 20
-68.5834944441512
 30
0.0
 11
-139.4537683435387
 21
-108.5845666833826
 31
0.0
  0
LINE
  5
310
330
1F
100
AcDbEntity
  8
B-2_蓋
  6
Continuous
 62
     3
370
     9
100
AcDbLine
 10
-132.4536957611908
 20
-68.5834944441512
 30
0.0
 11
-132.4536957611908
 21
-108.5845666833826
 31
0.0
  0
LINE
  5
311
330
1F
100
AcDbEntity
  8
B-2_蓋
  6
Continuous
 62
     3
370
     9
100
AcDbLine
 10
-174.7538798564189
 20
-68.5834944441512
 30
0.0
 11
-174.7538798564189
 21
-108.5845666833826
 31
0.0
  0
LINE
  5
312
330
1F
100
AcDbEntity
  8
B-2_蓋
  6
Continuous
 62
     3
370
     9
100
AcDbLine
 10
-167.7538072740709
 20
-68.5834944441512
 30
0.0
 11
-167.7538072740709
 21
-108.5845666833826
 31
0.0
  0
LINE
  5
313
330
1F
100
AcDbEntity
  8
B-2_蓋
  6
Continuous
 62
     3
370
     9
100
AcDbLine
 10
-203.053547627217
 20
-68.5834944441512
 30
0.0
 11
-203.053547627217
 21
-108.5845666833826
 31
0.0
  0
LINE
  5
314
330
1F
100
AcDbEntity
  8
B-2_蓋
  6
Continuous
 62
     3
370
     9
100
AcDbLine
 10
-210.0534717456714
 20
-68.5834944441512
 30
0.0
 11
-210.0534717456714
 21
-108.5845666833826
 31
0.0
  0
LINE
  5
315
330
1F
100
AcDbEntity
  8
B-4_寸法
  6
Continuous
 62
     7
370
     9
100
AcDbLine
 10
-327.8604620856208
 20
542.416170687289
 30
0.0
 11
-270.2246258709881
 21
757.5160044077281
 31
0.0
  0
LINE
  5
316
330
1F
100
AcDbEntity
  8
B-2_蓋
  6
Continuous
 62
     3
370
     9
100
AcDbLine
 10
-915.6534390836148
 20
42.41598098342482
 30
0.0
 11
79.34727024387672
 21
42.41598098342482
 31
0.0
  0
LINE
  5
317
330
1F
100
AcDbEntity
  8
B-2_蓋
  6
Continuous
 62
     3
370
     9
100
AcDbLine
 10
-915.6534390836148
 20
31.41651380384295
 30
0.0
 11
79.34727024387672
 21
31.41651380384295
 31
0.0
  0
LINE
  5
318
330
1F
100
AcDbEntity
  8
B-2_蓋
  6
Continuous
 62
     3
370
     9
100
AcDbLine
 10
-908.6528468776394
 20
31.41651380384295
 30
0.0
 11
-873.7530682538006
 21
42.41642637510561
 31
0.0
  0
LINE
  5
319
330
1F
100
AcDbEntity
  8
B-2_蓋
  6
Continuous
 62
     3
370
     9
100
AcDbLine
 10
-873.352809596706
 20
31.41651380384295
 30
0.0
 11
-838.4534021326012
 21
42.41642637510561
 31
0.0
  0
LINE
  5
31A
330
1F
100
AcDbEntity
  8
B-2_蓋
  6
Continuous
 62
     3
370
     9
100
AcDbLine
 10
-838.0532177074534
 20
31.41651380384295
 30
0.0
 11
-803.1534390836148
 21
42.41642637510561
 31
0.0
  0
LINE
  5
31B
330
1F
100
AcDbEntity
  8
B-2_蓋
  6
Continuous
 62
     3
370
     9
100
AcDbLine
 10
-802.7529577306798
 20
31.41651380384295
 30
0.0
 11
-767.8533275707348
 21
42.41642637510561
 31
0.0
  0
LINE
  5
31C
330
1F
100
AcDbEntity
  8
B-2_蓋
  6
Continuous
 62
     3
370
     9
100
AcDbLine
 10
-767.4532916094805
 20
31.41651380384295
 30
0.0
 11
-732.5535129856419
 21
42.41642637510561
 31
0.0
  0
LINE
  5
31D
330
1F
100
AcDbEntity
  8
B-2_蓋
  6
Continuous
 62
     3
370
     9
100
AcDbLine
 10
-732.1531800966004
 20
31.41651380384295
 30
0.0
 11
-697.2532530088682
 21
42.41642637510561
 31
0.0
  0
LINE
  5
31E
330
1F
100
AcDbEntity
  8
B-2_蓋
  6
Continuous
 62
     3
370
     9
100
AcDbLine
 10
-696.8529943517735
 20
31.41651380384295
 30
0.0
 11
-661.9532899598817
 21
42.41642637510561
 31
0.0
  0
LINE
  5
31F
330
1F
100
AcDbEntity
  8
B-2_蓋
  6
Continuous
 62
     3
370
     9
100
AcDbLine
 10
-661.5532539986275
 20
31.41651380384295
 30
0.0
 11
-626.6532526789484
 21
42.41642637510561
 31
0.0
  0
LINE
  5
320
330
1F
100
AcDbEntity
  8
B-2_蓋
  6
Continuous
 62
     3
370
     9
100
AcDbLine
 10
-626.2531424857474
 20
31.41651380384295
 30
0.0
 11
-591.3533638619087
 21
42.41642637510561
 31
0.0
  0
LINE
  5
321
330
1F
100
AcDbEntity
  8
B-2_蓋
  6
Continuous
 62
     3
370
     9
100
AcDbLine
 10
-590.9528825089737
 20
31.41651380384295
 30
0.0
 11
-556.0531781170819
 21
42.41642637510561
 31
0.0
  0
LINE
  5
322
330
1F
100
AcDbEntity
  8
B-2_蓋
  6
Continuous
 62
     3
370
     9
100
AcDbLine
 10
-555.6532906197212
 20
31.41651380384295
 30
0.0
 11
-520.7534377639358
 21
42.41642637510561
 31
0.0
  0
LINE
  5
323
330
1F
100
AcDbEntity
  8
B-2_蓋
  6
Continuous
 62
     3
370
     9
100
AcDbLine
 10
-520.3531791068411
 20
31.41651380384295
 30
0.0
 11
-485.4532520191089
 21
42.41642637510561
 31
0.0
  0
LINE
  5
324
330
1F
100
AcDbEntity
  8
B-2_蓋
  6
Continuous
 62
     3
370
     9
100
AcDbLine
 10
-485.0529191300675
 20
31.41651380384295
 30
0.0
 11
-450.1531405062289
 21
42.41642637510561
 31
0.0
  0
LINE
  5
325
330
1F
100
AcDbEntity
  8
B-2_蓋
  6
Continuous
 62
     3
370
     9
100
AcDbLine
 10
-449.7532530088681
 20
31.41651380384295
 30
0.0
 11
-414.8535486169762
 21
42.41642637510561
 31
0.0
  0
LINE
  5
326
330
1F
100
AcDbEntity
  8
B-2_蓋
  6
Continuous
 62
     3
370
     9
100
AcDbLine
 10
-414.4530672640414
 20
31.41651380384295
 30
0.0
 11
-379.5533628721494
 21
42.41642637510561
 31
0.0
  0
LINE
  5
327
330
1F
100
AcDbEntity
  8
B-2_蓋
  6
Continuous
 62
     3
370
     9
100
AcDbLine
 10
-379.1534753747887
 20
31.41651380384295
 30
0.0
 11
-344.2536225190033
 21
42.41642637510561
 31
0.0
  0
LINE
  5
328
330
1F
100
AcDbEntity
  8
B-2_蓋
  6
Continuous
 62
     3
370
     9
100
AcDbLine
 10
-343.8533638619087
 20
31.41651380384295
 30
0.0
 11
-308.9534367741764
 21
42.41642637510561
 31
0.0
  0
LINE
  5
329
330
1F
100
AcDbEntity
  8
B-2_蓋
  6
Continuous
 62
     3
370
     9
100
AcDbLine
 10
-308.5531781170819
 20
31.41651380384295
 30
0.0
 11
-273.6533252612964
 21
42.41642637510561
 31
0.0
  0
LINE
  5
32A
330
1F
100
AcDbEntity
  8
B-2_蓋
  6
Continuous
 62
     3
370
     9
100
AcDbLine
 10
-273.2535119958825
 20
31.41651380384295
 30
0.0
 11
-238.353659140097
 21
42.41642637510561
 31
0.0
  0
LINE
  5
32B
330
1F
100
AcDbEntity
  8
B-2_蓋
  6
Continuous
 62
     3
370
     9
100
AcDbLine
 10
-237.9532520191089
 20
31.41651380384295
 30
0.0
 11
-203.053547627217
 21
42.41642637510561
 31
0.0
  0
LINE
  5
32C
330
1F
100
AcDbEntity
  8
B-2_蓋
  6
Continuous
 62
     3
370
     9
100
AcDbLine
 10
-202.6532147381756
 20
31.41651380384295
 30
0.0
 11
-167.7538072740709
 21
42.41642637510561
 31
0.0
  0
LINE
  5
32D
330
1F
100
AcDbEntity
  8
B-2_蓋
  6
Continuous
 62
     3
370
     9
100
AcDbLine
 10
-167.3534743850295
 20
31.41651380384295
 30
0.0
 11
-132.4536957611908
 21
42.41642637510561
 31
0.0
  0
LINE
  5
32E
330
1F
100
AcDbEntity
  8
B-2_蓋
  6
Continuous
 62
     3
370
     9
100
AcDbLine
 10
-132.0532144082558
 20
31.41651380384295
 30
0.0
 11
-97.15343578441718
 21
42.41642637510561
 31
0.0
  0
LINE
  5
32F
330
1F
100
AcDbEntity
  8
B-2_蓋
  6
Continuous
 62
     3
370
     9
100
AcDbLine
 10
-96.75332559121608
 20
31.41651380384295
 30
0.0
 11
-61.85332427153702
 21
42.41642637510561
 31
0.0
  0
LINE
  5
330
330
1F
100
AcDbEntity
  8
B-2_蓋
  6
Continuous
 62
     3
370
     9
100
AcDbLine
 10
-61.4529171505489
 20
31.41651380384295
 30
0.0
 11
-26.55336122255062
 21
42.41642637510561
 31
0.0
  0
LINE
  5
331
330
1F
100
AcDbEntity
  8
B-2_蓋
  6
Continuous
 62
     3
370
     9
100
AcDbLine
 10
-26.15399334881749
 20
31.41651380384295
 30
0.0
 11
8.746898754222968
 21
42.41642637510561
 31
0.0
  0
LINE
  5
332
330
1F
100
AcDbEntity
  8
B-2_蓋
  6
Continuous
 62
     3
370
     9
100
AcDbLine
 10
9.146266627956095
 20
31.41651380384295
 30
0.0
 11
44.04611948374156
 21
42.41642637510561
 31
0.0
  0
LINE
  5
333
330
1F
100
AcDbEntity
  8
B-2_蓋
  6
Continuous
 62
     3
370
     9
100
AcDbLine
 10
44.44652660472985
 20
31.41651380384295
 30
0.0
 11
79.34623099662173
 21
42.41642637510561
 31
0.0
  0
LINE
  5
334
330
1F
100
AcDbEntity
  8
B-2_蓋
  6
Continuous
 62
     3
370
     9
100
AcDbLine
 10
668.0704477671031
 20
36.91598758182014
 30
0.0
 11
662.4135280299831
 21
31.25921630859373
 31
0.0
  0
LINE
  5
335
330
1F
100
AcDbEntity
  8
B-2_蓋
  6
Continuous
 62
     3
370
     9
100
AcDbLine
 10
662.4135280299831
 20
31.25921630859373
 30
0.0
 11
656.7567567567569
 21
36.91598758182014
 31
0.0
  0
LINE
  5
336
330
1F
100
AcDbEntity
  8
B-2_蓋
  6
Continuous
 62
     3
370
     9
100
AcDbLine
 10
656.7567567567569
 20
36.91598758182014
 30
0.0
 11
662.4135280299831
 21
42.57290731894015
 31
0.0
  0
LINE
  5
337
330
1F
100
AcDbEntity
  8
B-2_蓋
  6
Continuous
 62
     3
370
     9
100
AcDbLine
 10
662.4135280299831
 20
42.57290731894015
 30
0.0
 11
668.0704477671031
 21
36.91598758182014
 31
0.0
  0
LINE
  5
338
330
1F
100
AcDbEntity
  8
B-2_蓋
  6
Continuous
 62
     3
370
     9
100
AcDbLine
 10
-908.6528468776394
 20
-57.58402726456924
 30
0.0
 11
-908.6528468776394
 21
31.41651380384295
 31
0.0
  0
LINE
  5
339
330
1F
100
AcDbEntity
  8
B-2_蓋
  6
Continuous
 62
     3
370
     9
100
AcDbLine
 10
-908.6528468776394
 20
42.41598098342482
 30
0.0
 11
-908.6528468776394
 21
131.416522051837
 31
0.0
  0
LINE
  5
33A
330
1F
100
AcDbEntity
  8
B-2_蓋
  6
Continuous
 62
     3
370
     9
100
AcDbLine
 10
-450.1531405062289
 20
131.416522051837
 30
0.0
 11
-450.1531405062289
 21
42.41598098342482
 31
0.0
  0
LINE
  5
33B
330
1F
100
AcDbEntity
  8
B-2_蓋
  6
Continuous
 62
     3
370
     9
100
AcDbLine
 10
-450.1531405062289
 20
31.41651380384295
 30
0.0
 11
-450.1531405062289
 21
-57.58402726456924
 31
0.0
  0
LINE
  5
33C
330
1F
100
AcDbEntity
  8
B-2_蓋
  6
Continuous
 62
     3
370
     9
100
AcDbLine
 10
-485.4532520191089
 20
131.416522051837
 30
0.0
 11
-485.4532520191089
 21
42.41598098342482
 31
0.0
  0
LINE
  5
33D
330
1F
100
AcDbEntity
  8
B-2_蓋
  6
Continuous
 62
     3
370
     9
100
AcDbLine
 10
-485.4532520191089
 20
31.41651380384295
 30
0.0
 11
-485.4532520191089
 21
-57.58402726456924
 31
0.0
  0
LINE
  5
33E
330
1F
100
AcDbEntity
  8
B-2_蓋
  6
Continuous
 62
     3
370
     9
100
AcDbLine
 10
-520.752992372255
 20
131.416522051837
 30
0.0
 11
-520.752992372255
 21
42.41598098342482
 31
0.0
  0
LINE
  5
33F
330
1F
100
AcDbEntity
  8
B-2_蓋
  6
Continuous
 62
     3
370
     9
100
AcDbLine
 10
-520.752992372255
 20
31.41651380384295
 30
0.0
 11
-520.752992372255
 21
-57.58402726456924
 31
0.0
  0
LINE
  5
340
330
1F
100
AcDbEntity
  8
B-2_蓋
  6
Continuous
 62
     3
370
     9
100
AcDbLine
 10
-598.3528425886824
 20
131.416522051837
 30
0.0
 11
-598.3528425886824
 21
42.41598098342482
 31
0.0
  0
LINE
  5
341
330
1F
100
AcDbEntity
  8
B-2_蓋
  6
Continuous
 62
     3
370
     9
100
AcDbLine
 10
-598.3528425886824
 20
31.41651380384295
 30
0.0
 11
-598.3528425886824
 21
-57.58402726456924
 31
0.0
  0
LINE
  5
342
330
1F
100
AcDbEntity
  8
B-2_蓋
  6
Continuous
 62
     3
370
     9
100
AcDbLine
 10
-591.3527700063345
 20
131.416522051837
 30
0.0
 11
-591.3527700063345
 21
42.41598098342482
 31
0.0
  0
LINE
  5
343
330
1F
100
AcDbEntity
  8
B-2_蓋
  6
Continuous
 62
     3
370
     9
100
AcDbLine
 10
-591.3527700063345
 20
31.41651380384295
 30
0.0
 11
-591.3527700063345
 21
-57.58402726456924
 31
0.0
  0
LINE
  5
344
330
1F
100
AcDbEntity
  8
B-2_蓋
  6
Continuous
 62
     3
370
     9
100
AcDbLine
 10
-563.0532506994298
 20
131.416522051837
 30
0.0
 11
-563.0532506994298
 21
42.41598098342482
 31
0.0
  0
LINE
  5
345
330
1F
100
AcDbEntity
  8
B-2_蓋
  6
Continuous
 62
     3
370
     9
100
AcDbLine
 10
-563.0532506994298
 20
31.41651380384295
 30
0.0
 11
-563.0532506994298
 21
-57.58402726456924
 31
0.0
  0
LINE
  5
346
330
1F
100
AcDbEntity
  8
B-2_蓋
  6
Continuous
 62
     3
370
     9
100
AcDbLine
 10
-556.0531781170819
 20
131.416522051837
 30
0.0
 11
-556.0531781170819
 21
42.41598098342482
 31
0.0
  0
LINE
  5
347
330
1F
100
AcDbEntity
  8
B-2_蓋
  6
Continuous
 62
     3
370
     9
100
AcDbLine
 10
-556.0531781170819
 20
31.41651380384295
 30
0.0
 11
-556.0531781170819
 21
-57.58402726456924
 31
0.0
  0
LINE
  5
348
330
1F
100
AcDbEntity
  8
B-2_蓋
  6
Continuous
 62
     3
370
     9
100
AcDbLine
 10
-527.7529907226562
 20
131.416522051837
 30
0.0
 11
-527.7529907226562
 21
42.41598098342482
 31
0.0
  0
LINE
  5
349
330
1F
100
AcDbEntity
  8
B-2_蓋
  6
Continuous
 62
     3
370
     9
100
AcDbLine
 10
-527.7529907226562
 20
31.41651380384295
 30
0.0
 11
-527.7529907226562
 21
-57.58402726456924
 31
0.0
  0
LINE
  5
34A
330
1F
100
AcDbEntity
  8
B-2_蓋
  6
Continuous
 62
     3
370
     9
100
AcDbLine
 10
-492.4532503695101
 20
131.416522051837
 30
0.0
 11
-492.4532503695101
 21
42.41598098342482
 31
0.0
  0
LINE
  5
34B
330
1F
100
AcDbEntity
  8
B-2_蓋
  6
Continuous
 62
     3
370
     9
100
AcDbLine
 10
-492.4532503695101
 20
31.41651380384295
 30
0.0
 11
-492.4532503695101
 21
-57.58402726456924
 31
0.0
  0
LINE
  5
34C
330
1F
100
AcDbEntity
  8
B-2_蓋
  6
Continuous
 62
     3
370
     9
100
AcDbLine
 10
-457.1529903927364
 20
131.416522051837
 30
0.0
 11
-457.1529903927364
 21
42.41598098342482
 31
0.0
  0
LINE
  5
34D
330
1F
100
AcDbEntity
  8
B-2_蓋
  6
Continuous
 62
     3
370
     9
100
AcDbLine
 10
-457.1529903927364
 20
31.41651380384295
 30
0.0
 11
-457.1529903927364
 21
-57.58402726456924
 31
0.0
  0
LINE
  5
34E
330
1F
100
AcDbEntity
  8
B-2_蓋
  6
Continuous
 62
     3
370
     9
100
AcDbLine
 10
-626.6528815192146
 20
131.416522051837
 30
0.0
 11
-626.6528815192146
 21
42.41598098342482
 31
0.0
  0
LINE
  5
34F
330
1F
100
AcDbEntity
  8
B-2_蓋
  6
Continuous
 62
     3
370
     9
100
AcDbLine
 10
-626.6528815192146
 20
31.41651380384295
 30
0.0
 11
-626.6528815192146
 21
-57.58402726456924
 31
0.0
  0
LINE
  5
350
330
1F
100
AcDbEntity
  8
B-2_蓋
  6
Continuous
 62
     3
370
     9
100
AcDbLine
 10
-633.6529541015625
 20
131.416522051837
 30
0.0
 11
-633.6529541015625
 21
42.41598098342482
 31
0.0
  0
LINE
  5
351
330
1F
100
AcDbEntity
  8
B-2_蓋
  6
Continuous
 62
     3
370
     9
100
AcDbLine
 10
-633.6529541015625
 20
31.41651380384295
 30
0.0
 11
-633.6529541015625
 21
-57.58402726456924
 31
0.0
  0
LINE
  5
352
330
1F
100
AcDbEntity
  8
B-2_蓋
  6
Continuous
 62
     3
370
     9
100
AcDbLine
 10
-668.9530656144425
 20
131.416522051837
 30
0.0
 11
-668.9530656144425
 21
42.41598098342482
 31
0.0
  0
LINE
  5
353
330
1F
100
AcDbEntity
  8
B-2_蓋
  6
Continuous
 62
     3
370
     9
100
AcDbLine
 10
-668.9530656144425
 20
31.41651380384295
 30
0.0
 11
-668.9530656144425
 21
-57.58402726456924
 31
0.0
  0
LINE
  5
354
330
1F
100
AcDbEntity
  8
B-2_蓋
  6
Continuous
 62
     3
370
     9
100
AcDbLine
 10
-661.9532899598817
 20
131.416522051837
 30
0.0
 11
-661.9532899598817
 21
42.41598098342482
 31
0.0
  0
LINE
  5
355
330
1F
100
AcDbEntity
  8
B-2_蓋
  6
Continuous
 62
     3
370
     9
100
AcDbLine
 10
-661.9532899598817
 20
31.41651380384295
 30
0.0
 11
-661.9532899598817
 21
-57.58402726456924
 31
0.0
  0
LINE
  5
356
330
1F
100
AcDbEntity
  8
B-2_蓋
  6
Continuous
 62
     3
370
     9
100
AcDbLine
 10
-697.2528076171875
 20
131.416522051837
 30
0.0
 11
-697.2528076171875
 21
42.41598098342482
 31
0.0
  0
LINE
  5
357
330
1F
100
AcDbEntity
  8
B-2_蓋
  6
Continuous
 62
     3
370
     9
100
AcDbLine
 10
-697.2528076171875
 20
31.41651380384295
 30
0.0
 11
-697.2528076171875
 21
-57.58402726456924
 31
0.0
  0
LINE
  5
358
330
1F
100
AcDbEntity
  8
B-2_蓋
  6
Continuous
 62
     3
370
     9
100
AcDbLine
 10
-704.2527317356419
 20
131.416522051837
 30
0.0
 11
-704.2527317356419
 21
42.41598098342482
 31
0.0
  0
LINE
  5
359
330
1F
100
AcDbEntity
  8
B-2_蓋
  6
Continuous
 62
     3
370
     9
100
AcDbLine
 10
-704.2527317356419
 20
31.41651380384295
 30
0.0
 11
-704.2527317356419
 21
-57.58402726456924
 31
0.0
  0
LINE
  5
35A
330
1F
100
AcDbEntity
  8
B-2_蓋
  6
Continuous
 62
     3
370
     9
100
AcDbLine
 10
-732.5529191300676
 20
131.416522051837
 30
0.0
 11
-732.5529191300676
 21
42.41598098342482
 31
0.0
  0
LINE
  5
35B
330
1F
100
AcDbEntity
  8
B-2_蓋
  6
Continuous
 62
     3
370
     9
100
AcDbLine
 10
-732.5529191300676
 20
31.41651380384295
 30
0.0
 11
-732.5529191300676
 21
-57.58402726456924
 31
0.0
  0
LINE
  5
35C
330
1F
100
AcDbEntity
  8
B-2_蓋
  6
Continuous
 62
     3
370
     9
100
AcDbLine
 10
-739.5531401763091
 20
131.416522051837
 30
0.0
 11
-739.5531401763091
 21
42.41598098342482
 31
0.0
  0
LINE
  5
35D
330
1F
100
AcDbEntity
  8
B-2_蓋
  6
Continuous
 62
     3
370
     9
100
AcDbLine
 10
-739.5531401763091
 20
31.41651380384295
 30
0.0
 11
-739.5531401763091
 21
-57.58402726456924
 31
0.0
  0
LINE
  5
35E
330
1F
100
AcDbEntity
  8
B-2_蓋
  6
Continuous
 62
     3
370
     9
100
AcDbLine
 10
-767.8533275707348
 20
131.416522051837
 30
0.0
 11
-767.8533275707348
 21
42.41598098342482
 31
0.0
  0
LINE
  5
35F
330
1F
100
AcDbEntity
  8
B-2_蓋
  6
Continuous
 62
     3
370
     9
100
AcDbLine
 10
-767.8533275707348
 20
31.41651380384295
 30
0.0
 11
-767.8533275707348
 21
-57.58402726456924
 31
0.0
  0
LINE
  5
360
330
1F
100
AcDbEntity
  8
B-2_蓋
  6
Continuous
 62
     3
370
     9
100
AcDbLine
 10
-774.8529547614021
 20
131.416522051837
 30
0.0
 11
-774.8529547614021
 21
42.41598098342482
 31
0.0
  0
LINE
  5
361
330
1F
100
AcDbEntity
  8
B-2_蓋
  6
Continuous
 62
     3
370
     9
100
AcDbLine
 10
-774.8529547614021
 20
31.41651380384295
 30
0.0
 11
-774.8529547614021
 21
-57.58402726456924
 31
0.0
  0
LINE
  5
362
330
1F
100
AcDbEntity
  8
B-2_蓋
  6
Continuous
 62
     3
370
     9
100
AcDbLine
 10
-803.1529194599873
 20
131.416522051837
 30
0.0
 11
-803.1529194599873
 21
42.41598098342482
 31
0.0
  0
LINE
  5
363
330
1F
100
AcDbEntity
  8
B-2_蓋
  6
Continuous
 62
     3
370
     9
100
AcDbLine
 10
-803.1529194599873
 20
31.41651380384295
 30
0.0
 11
-803.1529194599873
 21
-57.58402726456924
 31
0.0
  0
LINE
  5
364
330
1F
100
AcDbEntity
  8
B-2_蓋
  6
Continuous
 62
     3
370
     9
100
AcDbLine
 10
-810.152769346495
 20
131.416522051837
 30
0.0
 11
-810.152769346495
 21
42.41598098342482
 31
0.0
  0
LINE
  5
365
330
1F
100
AcDbEntity
  8
B-2_蓋
  6
Continuous
 62
     3
370
     9
100
AcDbLine
 10
-810.152769346495
 20
31.41651380384295
 30
0.0
 11
-810.152769346495
 21
-57.58402726456924
 31
0.0
  0
LINE
  5
366
330
1F
100
AcDbEntity
  8
B-2_蓋
  6
Continuous
 62
     3
370
     9
100
AcDbLine
 10
-838.4529567409206
 20
131.416522051837
 30
0.0
 11
-838.4529567409206
 21
42.41598098342482
 31
0.0
  0
LINE
  5
367
330
1F
100
AcDbEntity
  8
B-2_蓋
  6
Continuous
 62
     3
370
     9
100
AcDbLine
 10
-838.4529567409206
 20
31.41651380384295
 30
0.0
 11
-838.4529567409206
 21
-57.58402726456924
 31
0.0
  0
LINE
  5
368
330
1F
100
AcDbEntity
  8
B-2_蓋
  6
Continuous
 62
     3
370
     9
100
AcDbLine
 10
-845.452880859375
 20
131.416522051837
 30
0.0
 11
-845.452880859375
 21
42.41598098342482
 31
0.0
  0
LINE
  5
369
330
1F
100
AcDbEntity
  8
B-2_蓋
  6
Continuous
 62
     3
370
     9
100
AcDbLine
 10
-845.452880859375
 20
31.41651380384295
 30
0.0
 11
-845.452880859375
 21
-57.58402726456924
 31
0.0
  0
LINE
  5
36A
330
1F
100
AcDbEntity
  8
B-2_蓋
  6
Continuous
 62
     3
370
     9
100
AcDbLine
 10
-880.7531408361485
 20
131.416522051837
 30
0.0
 11
-880.7531408361485
 21
42.41598098342482
 31
0.0
  0
LINE
  5
36B
330
1F
100
AcDbEntity
  8
B-2_蓋
  6
Continuous
 62
     3
370
     9
100
AcDbLine
 10
-880.7531408361485
 20
31.41651380384295
 30
0.0
 11
-880.7531408361485
 21
-57.58402726456924
 31
0.0
  0
LINE
  5
36C
330
1F
100
AcDbEntity
  8
B-2_蓋
  6
Continuous
 62
     3
370
     9
100
AcDbLine
 10
-873.7530682538006
 20
131.416522051837
 30
0.0
 11
-873.7530682538006
 21
42.41598098342482
 31
0.0
  0
LINE
  5
36D
330
1F
100
AcDbEntity
  8
B-2_蓋
  6
Continuous
 62
     3
370
     9
100
AcDbLine
 10
-873.7530682538006
 20
31.41651380384295
 30
0.0
 11
-873.7530682538006
 21
-57.58402726456924
 31
0.0
  0
LINE
  5
36E
330
1F
100
AcDbEntity
  8
B-2_蓋
  6
Continuous
 62
     3
370
     9
100
AcDbLine
 10
-245.3531378668708
 20
131.416522051837
 30
0.0
 11
-245.3531378668708
 21
42.41598098342482
 31
0.0
  0
LINE
  5
36F
330
1F
100
AcDbEntity
  8
B-2_蓋
  6
Continuous
 62
     3
370
     9
100
AcDbLine
 10
-245.3531378668708
 20
31.41651380384295
 30
0.0
 11
-245.3531378668708
 21
-57.58402726456924
 31
0.0
  0
LINE
  5
370
330
1F
100
AcDbEntity
  8
B-2_蓋
  6
Continuous
 62
     3
370
     9
100
AcDbLine
 10
-238.3530652845228
 20
131.416522051837
 30
0.0
 11
-238.3530652845228
 21
42.41598098342482
 31
0.0
  0
LINE
  5
371
330
1F
100
AcDbEntity
  8
B-2_蓋
  6
Continuous
 62
     3
370
     9
100
AcDbLine
 10
-238.3530652845228
 20
31.41651380384295
 30
0.0
 11
-238.3530652845228
 21
-57.58402726456924
 31
0.0
  0
LINE
  5
372
330
1F
100
AcDbEntity
  8
B-2_蓋
  6
Continuous
 62
     3
370
     9
100
AcDbLine
 10
-280.6531751478041
 20
131.416522051837
 30
0.0
 11
-280.6531751478041
 21
42.41598098342482
 31
0.0
  0
LINE
  5
373
330
1F
100
AcDbEntity
  8
B-2_蓋
  6
Continuous
 62
     3
370
     9
100
AcDbLine
 10
-280.6531751478041
 20
31.41651380384295
 30
0.0
 11
-280.6531751478041
 21
-57.58402726456924
 31
0.0
  0
LINE
  5
374
330
1F
100
AcDbEntity
  8
B-2_蓋
  6
Continuous
 62
     3
370
     9
100
AcDbLine
 10
-273.6533252612964
 20
131.416522051837
 30
0.0
 11
-273.6533252612964
 21
42.41598098342482
 31
0.0
  0
LINE
  5
375
330
1F
100
AcDbEntity
  8
B-2_蓋
  6
Continuous
 62
     3
370
     9
100
AcDbLine
 10
-273.6533252612964
 20
31.41651380384295
 30
0.0
 11
-273.6533252612964
 21
-57.58402726456924
 31
0.0
  0
LINE
  5
376
330
1F
100
AcDbEntity
  8
B-2_蓋
  6
Continuous
 62
     3
370
     9
100
AcDbLine
 10
-315.9534351245777
 20
131.416522051837
 30
0.0
 11
-315.9534351245777
 21
42.41598098342482
 31
0.0
  0
LINE
  5
377
330
1F
100
AcDbEntity
  8
B-2_蓋
  6
Continuous
 62
     3
370
     9
100
AcDbLine
 10
-315.9534351245777
 20
31.41651380384295
 30
0.0
 11
-315.9534351245777
 21
-57.58402726456924
 31
0.0
  0
LINE
  5
378
330
1F
100
AcDbEntity
  8
B-2_蓋
  6
Continuous
 62
     3
370
     9
100
AcDbLine
 10
-308.9534367741764
 20
131.416522051837
 30
0.0
 11
-308.9534367741764
 21
42.41598098342482
 31
0.0
  0
LINE
  5
379
330
1F
100
AcDbEntity
  8
B-2_蓋
  6
Continuous
 62
     3
370
     9
100
AcDbLine
 10
-308.9534367741764
 20
31.41651380384295
 30
0.0
 11
-308.9534367741764
 21
-57.58402726456924
 31
0.0
  0
LINE
  5
37A
330
1F
100
AcDbEntity
  8
B-2_蓋
  6
Continuous
 62
     3
370
     9
100
AcDbLine
 10
-351.2531754777237
 20
131.416522051837
 30
0.0
 11
-351.2531754777237
 21
42.41598098342482
 31
0.0
  0
LINE
  5
37B
330
1F
100
AcDbEntity
  8
B-2_蓋
  6
Continuous
 62
     3
370
     9
100
AcDbLine
 10
-351.2531754777237
 20
31.41651380384295
 30
0.0
 11
-351.2531754777237
 21
-57.58402726456924
 31
0.0
  0
LINE
  5
37C
330
1F
100
AcDbEntity
  8
B-2_蓋
  6
Continuous
 62
     3
370
     9
100
AcDbLine
 10
-344.2530286634291
 20
131.416522051837
 30
0.0
 11
-344.2530286634291
 21
42.41598098342482
 31
0.0
  0
LINE
  5
37D
330
1F
100
AcDbEntity
  8
B-2_蓋
  6
Continuous
 62
     3
370
     9
100
AcDbLine
 10
-344.2530286634291
 20
31.41651380384295
 30
0.0
 11
-344.2530286634291
 21
-57.58402726456924
 31
0.0
  0
LINE
  5
37E
330
1F
100
AcDbEntity
  8
B-2_蓋
  6
Continuous
 62
     3
370
     9
100
AcDbLine
 10
-386.5534354544973
 20
131.416522051837
 30
0.0
 11
-386.5534354544973
 21
42.41598098342482
 31
0.0
  0
LINE
  5
37F
330
1F
100
AcDbEntity
  8
B-2_蓋
  6
Continuous
 62
     3
370
     9
100
AcDbLine
 10
-386.5534354544973
 20
31.41651380384295
 30
0.0
 11
-386.5534354544973
 21
-57.58402726456924
 31
0.0
  0
LINE
  5
380
330
1F
100
AcDbEntity
  8
B-2_蓋
  6
Continuous
 62
     3
370
     9
100
AcDbLine
 10
-379.5533628721494
 20
131.416522051837
 30
0.0
 11
-379.5533628721494
 21
42.41598098342482
 31
0.0
  0
LINE
  5
381
330
1F
100
AcDbEntity
  8
B-2_蓋
  6
Continuous
 62
     3
370
     9
100
AcDbLine
 10
-379.5533628721494
 20
31.41651380384295
 30
0.0
 11
-379.5533628721494
 21
-57.58402726456924
 31
0.0
  0
LINE
  5
382
330
1F
100
AcDbEntity
  8
B-2_蓋
  6
Continuous
 62
     3
370
     9
100
AcDbLine
 10
-421.8528788798564
 20
131.416522051837
 30
0.0
 11
-421.8528788798564
 21
42.41598098342482
 31
0.0
  0
LINE
  5
383
330
1F
100
AcDbEntity
  8
B-2_蓋
  6
Continuous
 62
     3
370
     9
100
AcDbLine
 10
-421.8528788798564
 20
31.41651380384295
 30
0.0
 11
-421.8528788798564
 21
-57.58402726456924
 31
0.0
  0
LINE
  5
384
330
1F
100
AcDbEntity
  8
B-2_蓋
  6
Continuous
 62
     3
370
     9
100
AcDbLine
 10
-414.8530289933487
 20
131.416522051837
 30
0.0
 11
-414.8530289933487
 21
42.41598098342482
 31
0.0
  0
LINE
  5
385
330
1F
100
AcDbEntity
  8
B-2_蓋
  6
Continuous
 62
     3
370
     9
100
AcDbLine
 10
-414.8530289933487
 20
31.41651380384295
 30
0.0
 11
-414.8530289933487
 21
-57.58402726456924
 31
0.0
  0
LINE
  5
386
330
1F
100
AcDbEntity
  8
B-2_蓋
  6
Continuous
 62
     3
370
     9
100
AcDbLine
 10
72.34630687816735
 20
131.416522051837
 30
0.0
 11
72.34630687816735
 21
42.41598098342482
 31
0.0
  0
LINE
  5
387
330
1F
100
AcDbEntity
  8
B-2_蓋
  6
Continuous
 62
     3
370
     9
100
AcDbLine
 10
72.34630687816735
 20
31.41651380384295
 30
0.0
 11
72.34630687816735
 21
-57.58402726456924
 31
0.0
  0
LINE
  5
388
330
1F
100
AcDbEntity
  8
B-2_蓋
  6
Continuous
 62
     3
370
     9
100
AcDbLine
 10
37.04604690139359
 20
131.416522051837
 30
0.0
 11
37.04604690139359
 21
42.41598098342482
 31
0.0
  0
LINE
  5
389
330
1F
100
AcDbEntity
  8
B-2_蓋
  6
Continuous
 62
     3
370
     9
100
AcDbLine
 10
37.04604690139359
 20
31.41651380384295
 30
0.0
 11
37.04604690139359
 21
-57.58402726456924
 31
0.0
  0
LINE
  5
38A
330
1F
100
AcDbEntity
  8
B-2_蓋
  6
Continuous
 62
     3
370
     9
100
AcDbLine
 10
44.04715873099673
 20
131.416522051837
 30
0.0
 11
44.04715873099673
 21
42.41598098342482
 31
0.0
  0
LINE
  5
38B
330
1F
100
AcDbEntity
  8
B-2_蓋
  6
Continuous
 62
     3
370
     9
100
AcDbLine
 10
44.04715873099673
 20
31.41651380384295
 30
0.0
 11
44.04715873099673
 21
-57.58402726456924
 31
0.0
  0
LINE
  5
38C
330
1F
100
AcDbEntity
  8
B-2_蓋
  6
Continuous
 62
     3
370
     9
100
AcDbLine
 10
1.745786924620006
 20
131.416522051837
 30
0.0
 11
1.745786924620006
 21
42.41598098342482
 31
0.0
  0
LINE
  5
38D
330
1F
100
AcDbEntity
  8
B-2_蓋
  6
Continuous
 62
     3
370
     9
100
AcDbLine
 10
1.745786924620006
 20
31.41651380384295
 30
0.0
 11
1.745786924620006
 21
-57.58402726456924
 31
0.0
  0
LINE
  5
38E
330
1F
100
AcDbEntity
  8
B-2_蓋
  6
Continuous
 62
     3
370
     9
100
AcDbLine
 10
8.746898754222968
 20
131.416522051837
 30
0.0
 11
8.746898754222968
 21
42.41598098342482
 31
0.0
  0
LINE
  5
38F
330
1F
100
AcDbEntity
  8
B-2_蓋
  6
Continuous
 62
     3
370
     9
100
AcDbLine
 10
8.746898754222968
 20
31.41651380384295
 30
0.0
 11
8.746898754222968
 21
-57.58402726456924
 31
0.0
  0
LINE
  5
390
330
1F
100
AcDbEntity
  8
B-2_蓋
  6
Continuous
 62
     3
370
     9
100
AcDbLine
 10
-33.5529884132178
 20
131.416522051837
 30
0.0
 11
-33.5529884132178
 21
42.41598098342482
 31
0.0
  0
LINE
  5
391
330
1F
100
AcDbEntity
  8
B-2_蓋
  6
Continuous
 62
     3
370
     9
100
AcDbLine
 10
-33.5529884132178
 20
31.41651380384295
 30
0.0
 11
-33.5529884132178
 21
-57.58402726456924
 31
0.0
  0
LINE
  5
392
330
1F
100
AcDbEntity
  8
B-2_蓋
  6
Continuous
 62
     3
370
     9
100
AcDbLine
 10
-26.55336122255062
 20
131.416522051837
 30
0.0
 11
-26.55336122255062
 21
42.41598098342482
 31
0.0
  0
LINE
  5
393
330
1F
100
AcDbEntity
  8
B-2_蓋
  6
Continuous
 62
     3
370
     9
100
AcDbLine
 10
-26.55336122255062
 20
31.41651380384295
 30
0.0
 11
-26.55336122255062
 21
-57.58402726456924
 31
0.0
  0
LINE
  5
394
330
1F
100
AcDbEntity
  8
B-2_蓋
  6
Continuous
 62
     3
370
     9
100
AcDbLine
 10
-68.85339685388499
 20
131.416522051837
 30
0.0
 11
-68.85339685388499
 21
42.41598098342482
 31
0.0
  0
LINE
  5
395
330
1F
100
AcDbEntity
  8
B-2_蓋
  6
Continuous
 62
     3
370
     9
100
AcDbLine
 10
-68.85339685388499
 20
31.41651380384295
 30
0.0
 11
-68.85339685388499
 21
-57.58402726456924
 31
0.0
  0
LINE
  5
396
330
1F
100
AcDbEntity
  8
B-2_蓋
  6
Continuous
 62
     3
370
     9
100
AcDbLine
 10
-61.85332427153702
 20
131.416522051837
 30
0.0
 11
-61.85332427153702
 21
42.41598098342482
 31
0.0
  0
LINE
  5
397
330
1F
100
AcDbEntity
  8
B-2_蓋
  6
Continuous
 62
     3
370
     9
100
AcDbLine
 10
-61.85332427153702
 20
31.41651380384295
 30
0.0
 11
-61.85332427153702
 21
-57.58402726456924
 31
0.0
  0
LINE
  5
398
330
1F
100
AcDbEntity
  8
B-2_蓋
  6
Continuous
 62
     3
370
     9
100
AcDbLine
 10
-104.1535083667652
 20
131.416522051837
 30
0.0
 11
-104.1535083667652
 21
42.41598098342482
 31
0.0
  0
LINE
  5
399
330
1F
100
AcDbEntity
  8
B-2_蓋
  6
Continuous
 62
     3
370
     9
100
AcDbLine
 10
-104.1535083667652
 20
31.41651380384295
 30
0.0
 11
-104.1535083667652
 21
-57.58402726456924
 31
0.0
  0
LINE
  5
39A
330
1F
100
AcDbEntity
  8
B-2_蓋
  6
Continuous
 62
     3
370
     9
100
AcDbLine
 10
-97.15343578441718
 20
131.416522051837
 30
0.0
 11
-97.15343578441718
 21
42.41598098342482
 31
0.0
  0
LINE
  5
39B
330
1F
100
AcDbEntity
  8
B-2_蓋
  6
Continuous
 62
     3
370
     9
100
AcDbLine
 10
-97.15343578441718
 20
31.41651380384295
 30
0.0
 11
-97.15343578441718
 21
-57.58402726456924
 31
0.0
  0
LINE
  5
39C
330
1F
100
AcDbEntity
  8
B-2_蓋
  6
Continuous
 62
     3
370
     9
100
AcDbLine
 10
-139.4537683435387
 20
131.416522051837
 30
0.0
 11
-139.4537683435387
 21
42.41598098342482
 31
0.0
  0
LINE
  5
39D
330
1F
100
AcDbEntity
  8
B-2_蓋
  6
Continuous
 62
     3
370
     9
100
AcDbLine
 10
-139.4537683435387
 20
31.41651380384295
 30
0.0
 11
-139.4537683435387
 21
-57.58402726456924
 31
0.0
  0
LINE
  5
39E
330
1F
100
AcDbEntity
  8
B-2_蓋
  6
Continuous
 62
     3
370
     9
100
AcDbLine
 10
-132.4536957611908
 20
131.416522051837
 30
0.0
 11
-132.4536957611908
 21
42.41598098342482
 31
0.0
  0
LINE
  5
39F
330
1F
100
AcDbEntity
  8
B-2_蓋
  6
Continuous
 62
     3
370
     9
100
AcDbLine
 10
-132.4536957611908
 20
31.41651380384295
 30
0.0
 11
-132.4536957611908
 21
-57.58402726456924
 31
0.0
  0
LINE
  5
3A0
330
1F
100
AcDbEntity
  8
B-2_蓋
  6
Continuous
 62
     3
370
     9
100
AcDbLine
 10
-174.7538798564189
 20
131.416522051837
 30
0.0
 11
-174.7538798564189
 21
42.41598098342482
 31
0.0
  0
LINE
  5
3A1
330
1F
100
AcDbEntity
  8
B-2_蓋
  6
Continuous
 62
     3
370
     9
100
AcDbLine
 10
-174.7538798564189
 20
31.41651380384295
 30
0.0
 11
-174.7538798564189
 21
-57.58402726456924
 31
0.0
  0
LINE
  5
3A2
330
1F
100
AcDbEntity
  8
B-2_蓋
  6
Continuous
 62
     3
370
     9
100
AcDbLine
 10
-167.7538072740709
 20
131.416522051837
 30
0.0
 11
-167.7538072740709
 21
42.41598098342482
 31
0.0
  0
LINE
  5
3A3
330
1F
100
AcDbEntity
  8
B-2_蓋
  6
Continuous
 62
     3
370
     9
100
AcDbLine
 10
-167.7538072740709
 20
31.41651380384295
 30
0.0
 11
-167.7538072740709
 21
-57.58402726456924
 31
0.0
  0
LINE
  5
3A4
330
1F
100
AcDbEntity
  8
B-2_蓋
  6
Continuous
 62
     3
370
     9
100
AcDbLine
 10
-203.053547627217
 20
131.416522051837
 30
0.0
 11
-203.053547627217
 21
42.41598098342482
 31
0.0
  0
LINE
  5
3A5
330
1F
100
AcDbEntity
  8
B-2_蓋
  6
Continuous
 62
     3
370
     9
100
AcDbLine
 10
-203.053547627217
 20
31.41651380384295
 30
0.0
 11
-203.053547627217
 21
-57.58402726456924
 31
0.0
  0
LINE
  5
3A6
330
1F
100
AcDbEntity
  8
B-2_蓋
  6
Continuous
 62
     3
370
     9
100
AcDbLine
 10
-210.0534717456714
 20
131.416522051837
 30
0.0
 11
-210.0534717456714
 21
42.41598098342482
 31
0.0
  0
LINE
  5
3A7
330
1F
100
AcDbEntity
  8
B-2_蓋
  6
Continuous
 62
     3
370
     9
100
AcDbLine
 10
-210.0534717456714
 20
31.41651380384295
 30
0.0
 11
-210.0534717456714
 21
-57.58402726456924
 31
0.0
  0
LINE
  5
3A8
330
1F
100
AcDbEntity
  8
B-4_寸法
  6
Continuous
 62
     7
370
     9
100
AcDbLine
 10
434.9767901446369
 20
714.9093908361488
 30
0.0
 11
588.63335686761
 21
714.9093908361488
 31
0.0
  0
LINE
  5
3A9
330
1F
100
AcDbEntity
  8
B-4_寸法
  6
Continuous
 62
     7
370
     9
100
AcDbLine
 10
656.7567567567569
 20
596.9162267736488
 30
0.0
 11
588.63335686761
 21
714.9093908361488
 31
0.0
  0
LINE
  5
3AA
330
1F
100
AcDbEntity
  8
B-1_ピット
  6
Continuous
 62
     2
370
     9
100
AcDbLine
 10
737.7570239917653
 20
596.9163752375423
 30
0.0
 11
656.7569052206503
 21
596.9163752375423
 31
0.0
  0
LINE
  5
3AB
330
1F
100
AcDbEntity
  8
B-1_ピット
  6
Continuous
 62
     2
370
     9
100
AcDbLine
 10
707.7569250158363
 20
596.9163752375423
 30
0.0
 11
707.7569250158363
 21
605.9165533942146
 31
0.0
  0
LINE
  5
3AC
330
1F
100
AcDbEntity
  8
B-1_ピット
  6
Continuous
 62
     2
370
     9
100
AcDbLine
 10
721.5720841691303
 20
605.9165533942146
 30
0.0
 11
707.7569250158363
 21
605.9165533942146
 31
0.0
  0
LINE
  5
3AD
330
1F
100
AcDbEntity
  8
B-1_ピット
  6
Continuous
 62
     2
370
     9
100
AcDbLine
 10
726.2308811497044
 20
597.5298280458194
 30
0.0
 11
784.4216011665962
 21
613.1219515413852
 31
0.0
  0
LINE
  5
3AE
330
1F
100
AcDbEntity
  8
B-1_ピット
  6
Continuous
 62
     2
370
     9
100
AcDbLine
 10
723.9014826594172
 20
606.2231313344596
 30
0.0
 11
782.0922026763094
 21
621.8152548300254
 31
0.0
  0
LINE
  5
3AF
330
1F
100
AcDbEntity
  8
B-1_ピット
  6
JWW_CENTER2
 62
     2
370
     9
100
AcDbLine
 10
721.5720841691303
 20
601.4164643158784
 30
0.0
 11
703.9520923511403
 21
601.4164643158784
 31
0.0
  0
LINE
  5
3B0
330
1F
100
AcDbEntity
  8
B-1_ピット
  6
JWW_CENTER2
 62
     2
370
     9
100
AcDbLine
 10
725.0660334406672
 20
601.8764054581927
 30
0.0
 11
790.2326264252534
 21
619.3376893739444
 31
0.0
  0
LINE
  5
3B1
330
1F
100
AcDbEntity
  8
B-1_ピット
  6
Continuous
 62
     2
370
     9
100
AcDbLine
 10
737.7570239917653
 20
596.9163752375423
 30
0.0
 11
737.7570239917653
 21
536.9164742134715
 31
0.0
  0
LINE
  5
3B2
330
1F
100
AcDbEntity
  8
B-1_ピット
  6
Continuous
 62
     2
370
     9
100
AcDbLine
 10
659.7570635821369
 20
590.91650390625
 30
0.0
 11
726.7567402607688
 21
590.91650390625
 31
0.0
  0
LINE
  5
3B3
330
1F
100
AcDbEntity
  8
B-1_ピット
  6
Continuous
 62
     2
370
     9
100
AcDbLine
 10
656.7569052206503
 20
593.9163653399494
 30
0.0
 11
656.7569052206503
 21
596.9163752375423
 31
0.0
  0
LINE
  5
3B4
330
1F
100
AcDbEntity
  8
B-1_ピット
  6
Continuous
 62
     2
370
     9
100
AcDbLine
 10
734.7568656302788
 20
536.9164742134715
 30
0.0
 11
737.7570239917653
 21
536.9164742134715
 31
0.0
  0
LINE
  5
3B5
330
1F
100
AcDbEntity
  8
B-1_ピット
  6
Continuous
 62
     2
370
     9
100
AcDbLine
 10
731.7570041965794
 20
539.9164841110642
 30
0.0
 11
731.7570041965794
 21
585.9165368982265
 31
0.0
  0
LINE
  5
3B6
330
1F
100
AcDbEntity
  8
B-1_ピット
  6
Continuous
 62
     2
370
     9
100
AcDbLine
 10
737.7570239917653
 20
-123.0845155458192
 30
0.0
 11
656.7569052206503
 21
-123.0845155458192
 31
0.0
  0
LINE
  5
3B7
330
1F
100
AcDbEntity
  8
B-1_ピット
  6
Continuous
 62
     2
370
     9
100
AcDbLine
 10
707.7569250158363
 20
-123.0845155458192
 30
0.0
 11
707.7569250158363
 21
-132.0846937024915
 31
0.0
  0
LINE
  5
3B8
330
1F
100
AcDbEntity
  8
B-1_ピット
  6
Continuous
 62
     2
370
     9
100
AcDbLine
 10
721.5720841691303
 20
-132.0846937024915
 30
0.0
 11
707.7569250158363
 21
-132.0846937024915
 31
0.0
  0
LINE
  5
3B9
330
1F
100
AcDbEntity
  8
B-1_ピット
  6
Continuous
 62
     2
370
     9
100
AcDbLine
 10
726.2308811497044
 20
-123.6979683540963
 30
0.0
 11
784.4216011665962
 21
-139.2900918496621
 31
0.0
  0
LINE
  5
3BA
330
1F
100
AcDbEntity
  8
B-1_ピット
  6
Continuous
 62
     2
370
     9
100
AcDbLine
 10
723.9014826594172
 20
-132.3912716427365
 30
0.0
 11
782.0922026763094
 21
-147.9833951383024
 31
0.0
  0
LINE
  5
3BB
330
1F
100
AcDbEntity
  8
B-1_ピット
  6
JWW_CENTER2
 62
     2
370
     9
100
AcDbLine
 10
721.5720841691303
 20
-127.5846046241554
 30
0.0
 11
703.9520923511403
 21
-127.5846046241554
 31
0.0
  0
LINE
  5
3BC
330
1F
100
AcDbEntity
  8
B-1_ピット
  6
JWW_CENTER2
 62
     2
370
     9
100
AcDbLine
 10
725.0660334406672
 20
-128.0445457664696
 30
0.0
 11
790.2326264252534
 21
-145.5058296822213
 31
0.0
  0
LINE
  5
3BD
330
1F
100
AcDbEntity
  8
B-1_ピット
  6
Continuous
 62
     2
370
     9
100
AcDbLine
 10
737.7570239917653
 20
-123.0845155458192
 30
0.0
 11
737.7570239917653
 21
-63.0846145217483
 31
0.0
  0
LINE
  5
3BE
330
1F
100
AcDbEntity
  8
B-1_ピット
  6
Continuous
 62
     2
370
     9
100
AcDbLine
 10
659.7570635821369
 20
-117.084644214527
 30
0.0
 11
726.7567402607688
 21
-117.084644214527
 31
0.0
  0
LINE
  5
3BF
330
1F
100
AcDbEntity
  8
B-1_ピット
  6
Continuous
 62
     2
370
     9
100
AcDbLine
 10
656.7569052206503
 20
-120.0845056482264
 30
0.0
 11
656.7569052206503
 21
-123.0845155458192
 31
0.0
  0
LINE
  5
3C0
330
1F
100
AcDbEntity
  8
B-1_ピット
  6
Continuous
 62
     2
370
     9
100
AcDbLine
 10
734.7568656302788
 20
-63.0846145217483
 30
0.0
 11
737.7570239917653
 21
-63.0846145217483
 31
0.0
  0
LINE
  5
3C1
330
1F
100
AcDbEntity
  8
B-1_ピット
  6
Continuous
 62
     2
370
     9
100
AcDbLine
 10
731.7570041965794
 20
-66.0846244193412
 30
0.0
 11
731.7570041965794
 21
-112.0846772065034
 31
0.0
  0
CIRCLE
  5
3C2
330
1F
100
AcDbEntity
  8
B-1_ピット
  6
Continuous
 62
     2
370
     9
100
AcDbCircle
 10
-718.653284021326
 20
-127.5842334644214
 30
0.0
 40
4.500000057993709
  0
CIRCLE
  5
3C3
330
1F
100
AcDbEntity
  8
B-1_ピット
  6
Continuous
 62
     2
370
     9
100
AcDbCircle
 10
-617.6532972181164
 20
-127.5842334644214
 30
0.0
 40
4.500000057993709
  0
ARC
  5
3C4
330
1F
100
AcDbEntity
  8
B-1_ピット
  6
Continuous
 62
     2
370
     9
100
AcDbCircle
 10
-713.1531421558277
 20
-133.6846148516681
 30
0.0
 40
9.999998969000739
100
AcDbArc
 50
180.0
 51
270.0
  0
ARC
  5
3C5
330
1F
100
AcDbEntity
  8
B-1_ピット
  6
Continuous
 62
     2
370
     9
100
AcDbCircle
 10
-623.1532906197212
 20
-133.6846148516681
 30
0.0
 40
9.999998969000739
100
AcDbArc
 50
270.0
 51
0.0
  0
ARC
  5
3C6
330
1F
100
AcDbEntity
  8
B-1_ピット
  6
Continuous
 62
     2
370
     9
100
AcDbCircle
 10
-623.1531421558277
 20
-133.6846148516681
 30
0.0
 40
0.9999999403953552
100
AcDbArc
 50
270.0
 51
0.0
  0
ARC
  5
3C7
330
1F
100
AcDbEntity
  8
B-1_ピット
  6
Continuous
 62
     2
370
     9
100
AcDbCircle
 10
-713.1531421558277
 20
-133.6846148516681
 30
0.0
 40
0.9999999403953552
100
AcDbArc
 50
180.0
 51
270.0
  0
CIRCLE
  5
3C8
330
1F
100
AcDbEntity
  8
B-1_ピット
  6
Continuous
 62
     2
370
     9
100
AcDbCircle
 10
-218.6530943174619
 20
-127.5842334644214
 30
0.0
 40
4.500000057993709
  0
CIRCLE
  5
3C9
330
1F
100
AcDbEntity
  8
B-1_ピット
  6
Continuous
 62
     2
370
     9
100
AcDbCircle
 10
-117.6535529059333
 20
-127.5842334644214
 30
0.0
 40
4.500000057993709
  0
ARC
  5
3CA
330
1F
100
AcDbEntity
  8
B-1_ピット
  6
Continuous
 62
     2
370
     9
100
AcDbCircle
 10
-213.1531751478041
 20
-133.6846148516681
 30
0.0
 40
9.999998969000739
100
AcDbArc
 50
180.0
 51
270.0
  0
ARC
  5
3CB
330
1F
100
AcDbEntity
  8
B-1_ピット
  6
Continuous
 62
     2
370
     9
100
AcDbCircle
 10
-123.1531751478041
 20
-133.6846148516681
 30
0.0
 40
9.999998969000739
100
AcDbArc
 50
270.0
 51
0.0
  0
ARC
  5
3CC
330
1F
100
AcDbEntity
  8
B-1_ピット
  6
Continuous
 62
     2
370
     9
100
AcDbCircle
 10
-123.1531751478041
 20
-133.6846148516681
 30
0.0
 40
0.9999999403953552
100
AcDbArc
 50
270.0
 51
0.0
  0
ARC
  5
3CD
330
1F
100
AcDbEntity
  8
B-1_ピット
  6
Continuous
 62
     2
370
     9
100
AcDbCircle
 10
-213.153546307538
 20
-133.6846148516681
 30
0.0
 40
0.9999999403953552
100
AcDbArc
 50
180.0
 51
270.0
  0
CIRCLE
  5
3CE
330
1F
100
AcDbEntity
  8
B-1_ピット
  6
Continuous
 62
     2
370
     9
100
AcDbCircle
 10
-718.653284021326
 20
601.4163158519848
 30
0.0
 40
4.500000057993709
  0
CIRCLE
  5
3CF
330
1F
100
AcDbEntity
  8
B-1_ピット
  6
Continuous
 62
     2
370
     9
100
AcDbCircle
 10
-617.6532972181164
 20
601.4163158519848
 30
0.0
 40
4.500000057993709
  0
ARC
  5
3D0
330
1F
100
AcDbEntity
  8
B-1_ピット
  6
Continuous
 62
     2
370
     9
100
AcDbCircle
 10
-713.1531421558277
 20
607.5161033836572
 30
0.0
 40
9.999998969000739
100
AcDbArc
 50
90.0
 51
180.0
  0
ARC
  5
3D1
330
1F
100
AcDbEntity
  8
B-1_ピット
  6
Continuous
 62
     2
370
     9
100
AcDbCircle
 10
-623.1532906197212
 20
607.5161033836572
 30
0.0
 40
9.999998969000739
100
AcDbArc
 50
0.0
 51
90.0
  0
ARC
  5
3D2
330
1F
100
AcDbEntity
  8
B-1_ピット
  6
Continuous
 62
     2
370
     9
100
AcDbCircle
 10
-623.1531421558277
 20
607.5161033836572
 30
0.0
 40
0.9999999403953552
100
AcDbArc
 50
0.0
 51
90.0
  0
ARC
  5
3D3
330
1F
100
AcDbEntity
  8
B-1_ピット
  6
Continuous
 62
     2
370
     9
100
AcDbCircle
 10
-713.1531421558277
 20
607.5161033836572
 30
0.0
 40
0.9999999403953552
100
AcDbArc
 50
90.0
 51
180.0
  0
CIRCLE
  5
3D4
330
1F
100
AcDbEntity
  8
B-1_ピット
  6
Continuous
 62
     2
370
     9
100
AcDbCircle
 10
-218.6530943174619
 20
601.4163158519848
 30
0.0
 40
4.500000057993709
  0
CIRCLE
  5
3D5
330
1F
100
AcDbEntity
  8
B-1_ピット
  6
Continuous
 62
     2
370
     9
100
AcDbCircle
 10
-117.6535529059333
 20
601.4163158519848
 30
0.0
 40
4.500000057993709
  0
ARC
  5
3D6
330
1F
100
AcDbEntity
  8
B-1_ピット
  6
Continuous
 62
     2
370
     9
100
AcDbCircle
 10
-213.1531751478041
 20
607.5161033836572
 30
0.0
 40
9.999998969000739
100
AcDbArc
 50
90.0
 51
180.0
  0
ARC
  5
3D7
330
1F
100
AcDbEntity
  8
B-1_ピット
  6
Continuous
 62
     2
370
     9
100
AcDbCircle
 10
-123.1531751478041
 20
607.5161033836572
 30
0.0
 40
9.999998969000739
100
AcDbArc
 50
0.0
 51
90.0
  0
ARC
  5
3D8
330
1F
100
AcDbEntity
  8
B-1_ピット
  6
Continuous
 62
     2
370
     9
100
AcDbCircle
 10
-123.1531751478041
 20
607.5161033836572
 30
0.0
 40
0.9999999403953552
100
AcDbArc
 50
0.0
 51
90.0
  0
ARC
  5
3D9
330
1F
100
AcDbEntity
  8
B-1_ピット
  6
Continuous
 62
     2
370
     9
100
AcDbCircle
 10
-213.153546307538
 20
607.5161033836572
 30
0.0
 40
0.9999999403953552
100
AcDbArc
 50
90.0
 51
180.0
  0
ARC
  5
3DA
330
1F
100
AcDbEntity
  8
B-1_ピット
  6
Continuous
 62
     2
370
     9
100
AcDbCircle
 10
721.5720841691303
 20
614.9165830869933
 30
0.0
 40
18.00000023197483
100
AcDbArc
 50
270.0
 51
285.0
  0
ARC
  5
3DB
330
1F
100
AcDbEntity
  8
B-1_ピット
  6
Continuous
 62
     2
370
     9
100
AcDbCircle
 10
783.2569019214528
 20
617.4686774176521
 30
0.0
 40
4.500000057993709
100
AcDbArc
 50
285.0001373291016
 51
104.9999084472656
  0
ARC
  5
3DC
330
1F
100
AcDbEntity
  8
B-1_ピット
  6
JWW_CENTER2
 62
     2
370
     9
100
AcDbCircle
 10
721.5720841691303
 20
614.9164346230997
 30
0.0
 40
13.50000162382384
100
AcDbArc
 50
270.0
 51
284.9999542236328
  0
ARC
  5
3DD
330
1F
100
AcDbEntity
  8
B-1_ピット
  6
Continuous
 62
     2
370
     9
100
AcDbCircle
 10
721.5720841691303
 20
614.9165830869933
 30
0.0
 40
9.000000115987417
100
AcDbArc
 50
270.0
 51
285.0000152587891
  0
ARC
  5
3DE
330
1F
100
AcDbEntity
  8
B-1_ピット
  6
Continuous
 62
     2
370
     9
100
AcDbCircle
 10
726.7567402607688
 20
585.9165368982265
 30
0.0
 40
5.000000064437454
100
AcDbArc
 50
0.0
 51
90.0
  0
ARC
  5
3DF
330
1F
100
AcDbEntity
  8
B-1_ピット
  6
Continuous
 62
     2
370
     9
100
AcDbCircle
 10
659.7570635821369
 20
593.9163653399494
 30
0.0
 40
3.000000038662472
100
AcDbArc
 50
180.0
 51
270.0
  0
ARC
  5
3E0
330
1F
100
AcDbEntity
  8
B-1_ピット
  6
Continuous
 62
     2
370
     9
100
AcDbCircle
 10
734.7568656302788
 20
539.9164841110642
 30
0.0
 40
3.000000038662472
100
AcDbArc
 50
180.0
 51
270.0
  0
ARC
  5
3E1
330
1F
100
AcDbEntity
  8
B-1_ピット
  6
Continuous
 62
     2
370
     9
100
AcDbCircle
 10
721.5720841691303
 20
-141.0847233952703
 30
0.0
 40
18.00000023197483
100
AcDbArc
 50
75.0
 51
89.99999999999999
  0
ARC
  5
3E2
330
1F
100
AcDbEntity
  8
B-1_ピット
  6
Continuous
 62
     2
370
     9
100
AcDbCircle
 10
783.2569019214528
 20
-143.636817725929
 30
0.0
 40
4.500000057993709
100
AcDbArc
 50
255.0000915527343
 51
74.99986267089841
  0
ARC
  5
3E3
330
1F
100
AcDbEntity
  8
B-1_ピット
  6
JWW_CENTER2
 62
     2
370
     9
100
AcDbCircle
 10
721.5720841691303
 20
-141.0845749313767
 30
0.0
 40
13.50000162382384
100
AcDbArc
 50
75.00004577636717
 51
90.0
  0
ARC
  5
3E4
330
1F
100
AcDbEntity
  8
B-1_ピット
  6
Continuous
 62
     2
370
     9
100
AcDbCircle
 10
721.5720841691303
 20
-141.0847233952703
 30
0.0
 40
9.000000115987417
100
AcDbArc
 50
74.99998474121094
 51
90.0
  0
ARC
  5
3E5
330
1F
100
AcDbEntity
  8
B-1_ピット
  6
Continuous
 62
     2
370
     9
100
AcDbCircle
 10
726.7567402607688
 20
-112.0846772065034
 30
0.0
 40
5.000000064437454
100
AcDbArc
 50
270.0
 51
0.0
  0
ARC
  5
3E6
330
1F
100
AcDbEntity
  8
B-1_ピット
  6
Continuous
 62
     2
370
     9
100
AcDbCircle
 10
659.7570635821369
 20
-120.0845056482264
 30
0.0
 40
3.000000038662472
100
AcDbArc
 50
90.0
 51
180.0
  0
ARC
  5
3E7
330
1F
100
AcDbEntity
  8
B-1_ピット
  6
Continuous
 62
     2
370
     9
100
AcDbCircle
 10
734.7568656302788
 20
-66.0846244193412
 30
0.0
 40
3.000000038662472
100
AcDbArc
 50
90.0
 51
180.0
  0
TEXT
  5
3E8
330
1F
100
AcDbEntity
  8
B-4_寸法
  6
Continuous
 62
     7
370
     9
100
AcDbText
 10
-270.2246184477934
 20
764.5432556218328
 30
0.0
 40
13.716
  1
クロスバー  □８ ＠100
 41
1.159090909090909
  7
ＭＳ ゴシック
100
AcDbText
  0
TEXT
  5
3E9
330
1F
100
AcDbEntity
  8
B-4_寸法
  6
Continuous
 62
     7
370
     9
100
AcDbText
 10
-229.8512779442039
 20
725.7895770164697
 30
0.0
 40
13.716
  1
メインバー Ⅰ－７５ ＠35.3
 41
1.16025641025641
  7
ＭＳ ゴシック
100
AcDbText
  0
TEXT
  5
3EA
330
1F
100
AcDbEntity
  8
B-4_寸法
  6
Continuous
 62
     2
370
     9
100
AcDbText
 10
-38.65319329339101
 20
613.9287668127113
 30
0.0
 40
18.288
  1
35.3
 41
1.09375
  7
ＭＳ ゴシック
100
AcDbText
  0
TEXT
  5
3EB
330
1F
100
AcDbEntity
  8
B-4_寸法
  6
Continuous
 62
     2
370
     9
100
AcDbText
 10
681.5067320127746
 20
-194.3000589368665
 30
0.0
 40
18.288
  1
75
 41
1.0625
  7
ＭＳ ゴシック
100
AcDbText
  0
TEXT
  5
3EC
330
1F
100
AcDbEntity
  8
B-4_寸法
  6
Continuous
 62
     2
370
     9
100
AcDbText
 10
684.5067419103675
 20
-242.3001430664062
 30
0.0
 40
18.288
  1
81
 41
1.0625
  7
ＭＳ ゴシック
100
AcDbText
  0
TEXT
  5
3ED
330
1F
100
AcDbEntity
  8
B-4_寸法
  6
Continuous
 62
     2
370
     9
100
AcDbText
 10
587.3726877358749
 20
-148.7338233571148
 30
0.0
 40
18.288
  1
6
 50
90.00000250447816
 41
1.000000000000001
  7
ＭＳ ゴシック
100
AcDbText
  0
TEXT
  5
3EE
330
1F
100
AcDbEntity
  8
B-4_寸法
  6
Continuous
 62
     2
370
     9
100
AcDbText
 10
587.3726877358749
 20
-100.2543493152019
 30
0.0
 40
18.288
  1
4
 50
90.00000250447816
 41
0.9999999999999991
  7
ＭＳ ゴシック
100
AcDbText
  0
TEXT
  5
3EF
330
1F
100
AcDbEntity
  8
B-4_寸法
  6
Continuous
 62
     2
370
     9
100
AcDbText
 10
587.3726877358749
 20
565.2619627427058
 30
0.0
 40
18.288
  1
4
 50
90.00000250447816
 41
1.000000000000001
  7
ＭＳ ゴシック
100
AcDbText
  0
TEXT
  5
3F0
330
1F
100
AcDbEntity
  8
B-4_寸法
  6
Continuous
 62
     2
370
     9
100
AcDbText
 10
587.3726877358749
 20
612.6943951751382
 30
0.0
 40
18.288
  1
6
 50
90.00000250447816
 41
1.000000000000001
  7
ＭＳ ゴシック
100
AcDbText
  0
TEXT
  5
3F1
330
1F
100
AcDbEntity
  8
B-4_寸法
  6
Continuous
 62
     2
370
     9
100
AcDbText
 10
838.372575858207
 20
-105.8341940219691
 30
0.0
 40
18.288
  1
60
 50
90.00000250447816
 41
1.0625
  7
ＭＳ ゴシック
100
AcDbText
  0
TEXT
  5
3F2
330
1F
100
AcDbEntity
  8
B-4_寸法
  6
Continuous
 62
     2
370
     9
100
AcDbText
 10
838.372575858207
 20
554.1662018817472
 30
0.0
 40
18.288
  1
60
 50
90.00000250447816
 41
1.062500000000001
  7
ＭＳ ゴシック
100
AcDbText
  0
TEXT
  5
3F3
330
1F
100
AcDbEntity
  8
B-4_寸法
  6
Continuous
 62
     7
370
     9
100
AcDbText
 10
442.0077580632391
 20
725.9341808488175
 30
0.0
 40
13.716
  1
受枠：Ｌ－７５
 41
1.142857142857143
  7
ＭＳ ゴシック
100
AcDbText
  0
TEXT
  5
3F4
330
1F
100
AcDbEntity
  8
B-4_寸法
  6
Continuous
 62
     7
370
     9
100
AcDbText
 10
820.7158417572847
 20
687.9014429106842
 30
0.0
 40
13.716
  1
アンカ－：φ９
 41
1.142857142857143
  7
ＭＳ ゴシック
100
AcDbText
  0
TEXT
  5
3F5
330
1F
100
AcDbEntity
  8
B-4_寸法
  6
Continuous
 62
     2
370
     9
100
AcDbText
 10
-962.2768830995303
 20
-196.7000520085515
 30
0.0
 40
18.288
  1
2.5
 41
1.083333333333333
  7
ＭＳ ゴシック
100
AcDbText
  0
TEXT
  5
3F6
330
1F
100
AcDbEntity
  8
B-4_寸法
  6
Continuous
 62
     2
370
     9
100
AcDbText
 10
-437.6531586518158
 20
-196.7000520085515
 30
0.0
 40
18.288
  1
995
 41
1.083333333333333
  7
ＭＳ ゴシック
100
AcDbText
  0
TEXT
  5
3F7
330
1F
100
AcDbEntity
  8
B-4_寸法
  6
Continuous
 62
     2
370
     9
100
AcDbText
 10
61.81043800147813
 20
-196.7000520085515
 30
0.0
 40
18.288
  1
5
  7
ＭＳ ゴシック
100
AcDbText
  0
TEXT
  5
3F8
330
1F
100
AcDbEntity
  8
B-4_寸法
  6
Continuous
 62
     2
370
     9
100
AcDbText
 10
26.04069065403306
 20
-244.7000619061444
 30
0.0
 40
18.288
  1
2000
 41
1.09375
  7
ＭＳ ゴシック
100
AcDbText
  0
TEXT
  5
3F9
330
1F
100
AcDbEntity
  8
B-4_寸法
  6
Continuous
 62
     2
370
     9
100
AcDbText
 10
169.5564459723396
 20
-196.7000520085515
 30
0.0
 40
18.288
  1
995
 41
1.083333333333333
  7
ＭＳ ゴシック
100
AcDbText
  0
TEXT
  5
3FA
330
1F
100
AcDbEntity
  8
B-4_寸法
  6
Continuous
 62
     2
370
     9
100
AcDbText
 10
-437.6531586518158
 20
674.4999568992822
 30
0.0
 40
18.288
  1
500
 41
1.083333333333333
  7
ＭＳ ゴシック
100
AcDbText
  0
TEXT
  5
3FB
330
1F
100
AcDbEntity
  8
B-4_寸法
  6
Continuous
 62
     2
370
     9
100
AcDbText
 10
-812.6533380456872
 20
674.4999568992822
 30
0.0
 40
18.288
  1
250
 41
1.083333333333333
  7
ＭＳ ゴシック
100
AcDbText
  0
TEXT
  5
3FC
330
1F
100
AcDbEntity
  8
B-4_寸法
  6
Continuous
 62
     2
370
     9
100
AcDbText
 10
102.5554331186655
 20
674.4999568992822
 30
0.0
 40
18.288
  1
500
 41
1.083333333333333
  7
ＭＳ ゴシック
100
AcDbText
  0
TEXT
  5
3FD
330
1F
100
AcDbEntity
  8
B-4_寸法
  6
Continuous
 62
     2
370
     9
100
AcDbText
 10
840.7726434568908
 20
217.4159296979421
 30
0.0
 40
18.288
  1
600
 50
90.00000250447816
 41
1.083333333333334
  7
ＭＳ ゴシック
100
AcDbText
  0
TEXT
  5
3FE
330
1F
100
AcDbEntity
  8
B-4_寸法
  6
Continuous
 62
     2
370
     9
100
AcDbText
 10
541.7727457320175
 20
217.416003929889
 30
0.0
 40
18.288
  1
720
 50
90.00000250447816
 41
1.083333333333334
  7
ＭＳ ゴシック
100
AcDbText
  0
TEXT
  5
3FF
330
1F
100
AcDbEntity
  8
B-4_寸法
  6
Continuous
 62
     2
370
     9
100
AcDbText
 10
589.7727556296102
 20
217.4159296979421
 30
0.0
 40
18.288
  1
700
 50
90.00000250447816
 41
1.083333333333334
  7
ＭＳ ゴシック
100
AcDbText
  0
LWPOLYLINE
  5
400
330
1F
100
AcDbEntity
  8
B-4_寸法
  6
Continuous
 62
     7
370
     9
100
AcDbPolyline
 90
        4
 70
     1
 43
1.2
 10
-29.4532490498311
 20
606.9448143211572
 42
0.4142135623731
 10
-30.05324904983109
 20
607.5448143211572
 42
0.4142135623731
 10
-30.65324904983109
 20
606.9448143211572
 42
0.4142135623731
 10
-30.05324904983109
 20
606.3448143211572
 42
0.4142135623731
  0
LWPOLYLINE
  5
401
330
1F
100
AcDbEntity
  8
B-4_寸法
  6
Continuous
 62
     7
370
     9
100
AcDbPolyline
 90
        4
 70
     1
 43
1.2
 10
5.846862463049069
 20
606.9448143211572
 42
0.4142135623731
 10
5.246862463049069
 20
607.5448143211572
 42
0.4142135623731
 10
4.64686246304907
 20
606.9448143211572
 42
0.4142135623731
 10
5.246862463049069
 20
606.3448143211572
 42
0.4142135623731
  0
LWPOLYLINE
  5
402
330
1F
100
AcDbEntity
  8
B-4_寸法
  6
Continuous
 62
     7
370
     9
100
AcDbPolyline
 90
        4
 70
     1
 43
1.2
 10
657.3567567567568
 20
-203.6840787320523
 42
0.4142135623731
 10
656.7567567567569
 20
-203.0840787320523
 42
0.4142135623731
 10
656.156756756757
 20
-203.6840787320523
 42
0.4142135623731
 10
656.7567567567569
 20
-204.2840787320524
 42
0.4142135623731
  0
LWPOLYLINE
  5
403
330
1F
100
AcDbEntity
  8
B-4_寸法
  6
Continuous
 62
     7
370
     9
100
AcDbPolyline
 90
        4
 70
     1
 43
1.2
 10
732.3567072687922
 20
-203.6840787320523
 42
0.4142135623731
 10
731.7567072687922
 20
-203.0840787320523
 42
0.4142135623731
 10
731.1567072687922
 20
-203.6840787320523
 42
0.4142135623731
 10
731.7567072687922
 20
-204.2840787320524
 42
0.4142135623731
  0
LWPOLYLINE
  5
404
330
1F
100
AcDbEntity
  8
B-4_寸法
  6
Continuous
 62
     7
370
     9
100
AcDbPolyline
 90
        4
 70
     1
 43
1.2
 10
657.3567567567568
 20
-251.6840886296452
 42
0.4142135623731
 10
656.7567567567569
 20
-251.0840886296452
 42
0.4142135623731
 10
656.156756756757
 20
-251.6840886296452
 42
0.4142135623731
 10
656.7567567567569
 20
-252.2840886296452
 42
0.4142135623731
  0
LWPOLYLINE
  5
405
330
1F
100
AcDbEntity
  8
B-4_寸法
  6
Continuous
 62
     7
370
     9
100
AcDbPolyline
 90
        4
 70
     1
 43
1.2
 10
738.356727063978
 20
-251.6840886296452
 42
0.4142135623731
 10
737.7567270639781
 20
-251.0840886296452
 42
0.4142135623731
 10
737.1567270639782
 20
-251.6840886296452
 42
0.4142135623731
 10
737.7567270639781
 20
-252.2840886296452
 42
0.4142135623731
  0
LWPOLYLINE
  5
406
330
1F
100
AcDbEntity
  8
B-4_寸法
  6
Continuous
 62
     7
370
     9
100
AcDbPolyline
 90
        4
 70
     1
 43
1.2
 10
597.3567072687922
 20
-123.0842186180321
 42
0.4142135623731
 10
596.7567072687922
 20
-122.484218618032
 42
0.4142135623731
 10
596.1567072687922
 20
-123.0842186180321
 42
0.4142135623731
 10
596.7567072687922
 20
-123.684218618032
 42
0.4142135623731
  0
LWPOLYLINE
  5
407
330
1F
100
AcDbEntity
  8
B-4_寸法
  6
Continuous
 62
     7
370
     9
100
AcDbPolyline
 90
        4
 70
     1
 43
1.2
 10
597.3567072687922
 20
-117.0843472867399
 42
0.4142135623731
 10
596.7567072687922
 20
-116.4843472867398
 42
0.4142135623731
 10
596.1567072687922
 20
-117.0843472867399
 42
0.4142135623731
 10
596.7567072687922
 20
-117.6843472867399
 42
0.4142135623731
  0
LWPOLYLINE
  5
408
330
1F
100
AcDbEntity
  8
B-4_寸法
  6
Continuous
 62
     7
370
     9
100
AcDbPolyline
 90
        4
 70
     1
 43
1.2
 10
597.3567072687922
 20
-113.0842846019848
 42
0.4142135623731
 10
596.7567072687922
 20
-112.4842846019848
 42
0.4142135623731
 10
596.1567072687922
 20
-113.0842846019848
 42
0.4142135623731
 10
596.7567072687922
 20
-113.6842846019848
 42
0.4142135623731
  0
LWPOLYLINE
  5
409
330
1F
100
AcDbEntity
  8
B-4_寸法
  6
Continuous
 62
     7
370
     9
100
AcDbPolyline
 90
        4
 70
     1
 43
1.2
 10
597.3567072687922
 20
586.9161442937078
 42
0.4142135623731
 10
596.7567072687922
 20
587.5161442937078
 42
0.4142135623731
 10
596.1567072687922
 20
586.9161442937078
 42
0.4142135623731
 10
596.7567072687922
 20
586.3161442937078
 42
0.4142135623731
  0
LWPOLYLINE
  5
40A
330
1F
100
AcDbEntity
  8
B-4_寸法
  6
Continuous
 62
     7
370
     9
100
AcDbPolyline
 90
        4
 70
     1
 43
1.2
 10
597.3567072687922
 20
590.9163554423566
 42
0.4142135623731
 10
596.7567072687922
 20
591.5163554423566
 42
0.4142135623731
 10
596.1567072687922
 20
590.9163554423566
 42
0.4142135623731
 10
596.7567072687922
 20
590.3163554423566
 42
0.4142135623731
  0
LWPOLYLINE
  5
40B
330
1F
100
AcDbEntity
  8
B-4_寸法
  6
Continuous
 62
     7
370
     9
100
AcDbPolyline
 90
        4
 70
     1
 43
1.2
 10
597.3567072687922
 20
596.9162267736488
 42
0.4142135623731
 10
596.7567072687922
 20
597.5162267736487
 42
0.4142135623731
 10
596.1567072687922
 20
596.9162267736488
 42
0.4142135623731
 10
596.7567072687922
 20
596.3162267736489
 42
0.4142135623731
  0
LWPOLYLINE
  5
40C
330
1F
100
AcDbEntity
  8
B-4_寸法
  6
Continuous
 62
     7
370
     9
100
AcDbPolyline
 90
        4
 70
     1
 43
1.2
 10
549.3566973711993
 20
-123.0842186180321
 42
0.4142135623731
 10
548.7566973711994
 20
-122.484218618032
 42
0.4142135623731
 10
548.1566973711995
 20
-123.0842186180321
 42
0.4142135623731
 10
548.7566973711994
 20
-123.684218618032
 42
0.4142135623731
  0
LWPOLYLINE
  5
40D
330
1F
100
AcDbEntity
  8
B-4_寸法
  6
Continuous
 62
     7
370
     9
100
AcDbPolyline
 90
        4
 70
     1
 43
1.2
 10
549.3566973711993
 20
596.9162267736488
 42
0.4142135623731
 10
548.7566973711994
 20
597.5162267736487
 42
0.4142135623731
 10
548.1566973711995
 20
596.9162267736488
 42
0.4142135623731
 10
548.7566973711994
 20
596.3162267736489
 42
0.4142135623731
  0
LWPOLYLINE
  5
40E
330
1F
100
AcDbEntity
  8
B-4_寸法
  6
Continuous
 62
     7
370
     9
100
AcDbPolyline
 90
        4
 70
     1
 43
1.2
 10
848.3565950960729
 20
-123.0842186180321
 42
0.4142135623731
 10
847.7565950960728
 20
-122.484218618032
 42
0.4142135623731
 10
847.1565950960728
 20
-123.0842186180321
 42
0.4142135623731
 10
847.7565950960728
 20
-123.684218618032
 42
0.4142135623731
  0
LWPOLYLINE
  5
40F
330
1F
100
AcDbEntity
  8
B-4_寸法
  6
Continuous
 62
     7
370
     9
100
AcDbPolyline
 90
        4
 70
     1
 43
1.2
 10
848.3565950960729
 20
-63.08424336201431
 42
0.4142135623731
 10
847.7565950960728
 20
-62.48424336201431
 42
0.4142135623731
 10
847.1565950960728
 20
-63.08424336201431
 42
0.4142135623731
 10
847.7565950960728
 20
-63.68424336201431
 42
0.4142135623731
  0
LWPOLYLINE
  5
410
330
1F
100
AcDbEntity
  8
B-4_寸法
  6
Continuous
 62
     7
370
     9
100
AcDbPolyline
 90
        4
 70
     1
 43
1.2
 10
848.3565950960729
 20
536.9161772856842
 42
0.4142135623731
 10
847.7565950960728
 20
537.5161772856842
 42
0.4142135623731
 10
847.1565950960728
 20
536.9161772856842
 42
0.4142135623731
 10
847.7565950960728
 20
536.3161772856843
 42
0.4142135623731
  0
LWPOLYLINE
  5
411
330
1F
100
AcDbEntity
  8
B-4_寸法
  6
Continuous
 62
     7
370
     9
100
AcDbPolyline
 90
        4
 70
     1
 43
1.2
 10
848.3565950960729
 20
596.9162267736488
 42
0.4142135623731
 10
847.7565950960728
 20
597.5162267736487
 42
0.4142135623731
 10
847.1565950960728
 20
596.9162267736488
 42
0.4142135623731
 10
847.7565950960728
 20
596.3162267736489
 42
0.4142135623731
  0
LWPOLYLINE
  5
412
330
1F
100
AcDbEntity
  8
B-4_寸法
  6
Continuous
 62
     7
370
     9
100
AcDbPolyline
 90
        4
 70
     1
 43
1.2
 10
-917.5532741237332
 20
667.5160044077281
 42
0.4142135623731
 10
-918.1532741237331
 20
668.116004407728
 42
0.4142135623731
 10
-918.753274123733
 20
667.5160044077281
 42
0.4142135623731
 10
-918.1532741237331
 20
666.9160044077282
 42
0.4142135623731
  0
LWPOLYLINE
  5
413
330
1F
100
AcDbEntity
  8
B-4_寸法
  6
Continuous
 62
     7
370
     9
100
AcDbPolyline
 90
        4
 70
     1
 43
1.2
 10
-667.5532163877745
 20
667.5160044077281
 42
0.4142135623731
 10
-668.1532163877745
 20
668.116004407728
 42
0.4142135623731
 10
-668.7532163877744
 20
667.5160044077281
 42
0.4142135623731
 10
-668.1532163877745
 20
666.9160044077282
 42
0.4142135623731
  0
LWPOLYLINE
  5
414
330
1F
100
AcDbEntity
  8
B-4_寸法
  6
Continuous
 62
     7
370
     9
100
AcDbPolyline
 90
        4
 70
     1
 43
1.2
 10
-167.5531009158572
 20
667.5160044077281
 42
0.4142135623731
 10
-168.1531009158572
 20
668.116004407728
 42
0.4142135623731
 10
-168.7531009158572
 20
667.5160044077281
 42
0.4142135623731
 10
-168.1531009158572
 20
666.9160044077282
 42
0.4142135623731
  0
LWPOLYLINE
  5
415
330
1F
100
AcDbEntity
  8
B-4_寸法
  6
Continuous
 62
     7
370
     9
100
AcDbPolyline
 90
        4
 70
     1
 43
1.2
 10
-917.5532741237332
 20
-203.6840787320523
 42
0.4142135623731
 10
-918.1532741237331
 20
-203.0840787320523
 42
0.4142135623731
 10
-918.753274123733
 20
-203.6840787320523
 42
0.4142135623731
 10
-918.1532741237331
 20
-204.2840787320524
 42
0.4142135623731
  0
LWPOLYLINE
  5
416
330
1F
100
AcDbEntity
  8
B-4_寸法
  6
Continuous
 62
     7
370
     9
100
AcDbPolyline
 90
        4
 70
     1
 43
1.2
 10
-915.0534390836149
 20
-203.6840787320523
 42
0.4142135623731
 10
-915.6534390836148
 20
-203.0840787320523
 42
0.4142135623731
 10
-916.2534390836148
 20
-203.6840787320523
 42
0.4142135623731
 10
-915.6534390836148
 20
-204.2840787320524
 42
0.4142135623731
  0
LWPOLYLINE
  5
417
330
1F
100
AcDbEntity
  8
B-4_寸法
  6
Continuous
 62
     7
370
     9
100
AcDbPolyline
 90
        4
 70
     1
 43
1.2
 10
79.94712177998312
 20
-203.6840787320523
 42
0.4142135623731
 10
79.34712177998313
 20
-203.0840787320523
 42
0.4142135623731
 10
78.74712177998313
 20
-203.6840787320523
 42
0.4142135623731
 10
79.34712177998313
 20
-204.2840787320524
 42
0.4142135623731
  0
LWPOLYLINE
  5
418
330
1F
100
AcDbEntity
  8
B-4_寸法
  6
Continuous
 62
     7
370
     9
100
AcDbPolyline
 90
        4
 70
     1
 43
1.2
 10
84.94708878800688
 20
-203.6840787320523
 42
0.4142135623731
 10
84.34708878800689
 20
-203.0840787320523
 42
0.4142135623731
 10
83.74708878800689
 20
-203.6840787320523
 42
0.4142135623731
 10
84.34708878800689
 20
-204.2840787320524
 42
0.4142135623731
  0
LWPOLYLINE
  5
419
330
1F
100
AcDbEntity
  8
B-4_寸法
  6
Continuous
 62
     7
370
     9
100
AcDbPolyline
 90
        4
 70
     1
 43
1.2
 10
-917.5532741237332
 20
-251.6840886296452
 42
0.4142135623731
 10
-918.1532741237331
 20
-251.0840886296452
 42
0.4142135623731
 10
-918.753274123733
 20
-251.6840886296452
 42
0.4142135623731
 10
-918.1532741237331
 20
-252.2840886296452
 42
0.4142135623731
  0
TEXT
  5
41A
330
1F
100
AcDbEntity
  8
B-4_寸法
  6
Continuous
 62
     7
370
     9
100
AcDbText
 10
-307.6451173689364
 20
805.2671985589011
 30
0.0
 40
13.716
  1
エンドプレート  ＦＢ4.5×65
 50
0.00003016438141
 41
1.160493827160494
  7
ＭＳ ゴシック
100
AcDbText
  0
LINE
  5
41B
330
1F
100
AcDbEntity
  8
F-4ﾚｲﾔ
  6
Continuous
 62
     2
370
     9
100
AcDbLine
 10
207.3512836017377
 20
-366.4323789217192
 30
0.0
 11
207.3512836017377
 21
-336.4325768735772
 31
0.0
  0
LINE
  5
41C
330
1F
100
AcDbEntity
  8
F-4ﾚｲﾔ
  6
Continuous
 62
     2
370
     9
100
AcDbLine
 10
207.3512836017377
 20
-336.4325768735772
 30
0.0
 11
342.3512836017377
 21
-336.4325768735772
 31
0.0
  0
LINE
  5
41D
330
1F
100
AcDbEntity
  8
F-4ﾚｲﾔ
  6
Continuous
 62
     2
370
     9
100
AcDbLine
 10
342.3512836017377
 20
-336.4325768735772
 30
0.0
 11
342.3512836017377
 21
-366.4323789217192
 31
0.0
  0
LINE
  5
41E
330
1F
100
AcDbEntity
  8
F-4ﾚｲﾔ
  6
Continuous
 62
     2
370
     9
100
AcDbLine
 10
342.3512836017377
 20
-366.4323789217192
 30
0.0
 11
207.3512836017377
 21
-366.4323789217192
 31
0.0
  0
TEXT
  5
41F
330
1F
100
AcDbEntity
  8
F-4ﾚｲﾔ
  6
Continuous
 62
     2
370
     9
100
AcDbText
 10
235.8512836017375
 20
-360.048814415807
 30
0.0
 40
18.288
  1
仕　様
 41
1.083333333333333
  7
ＭＳ ゴシック
100
AcDbText
  0
TEXT
  5
420
330
1F
100
AcDbEntity
  8
F-4ﾚｲﾔ
  6
Continuous
 62
     2
370
     9
100
AcDbText
 10
304.432397674795
 20
-463.800505254595
 30
0.0
 40
18.288
  1
材質：ＳＳ４００
 41
1.109375
  7
ＭＳ ゴシック
100
AcDbText
  0
TEXT
  5
421
330
1F
100
AcDbEntity
  8
F-4ﾚｲﾔ
  6
Continuous
 62
     2
370
     9
100
AcDbText
 10
304.4324125211844
 20
-496.8008368239573
 30
0.0
 40
18.288
  1
処理：溶融亜鉛めっき
 41
1.1125
  7
ＭＳ ゴシック
100
AcDbText
  0
TEXT
  5
422
330
1F
100
AcDbEntity
  8
F-4ﾚｲﾔ
  6
Continuous
 62
     2
370
     9
100
AcDbText
 10
304.4324570603524
 20
-529.8011683933196
 30
0.0
 40
18.288
  1
定尺：９９５
 41
1.104166666666667
  7
ＭＳ ゴシック
100
AcDbText
  0
TEXT
  5
423
330
1F
100
AcDbEntity
  8
F-4ﾚｲﾔ
  6
Continuous
 62
     2
370
     9
100
AcDbText
 10
304.4325461386886
 20
-601.801183239709
 30
0.0
 40
18.288
  1
材質：ＳＳ４００
 41
1.109375
  7
ＭＳ ゴシック
100
AcDbText
  0
TEXT
  5
424
330
1F
100
AcDbEntity
  8
F-4ﾚｲﾔ
  6
Continuous
 62
     2
370
     9
100
AcDbText
 10
304.432560985078
 20
-634.8011436493373
 30
0.0
 40
18.288
  1
処理：樹脂系塗装
 41
1.109375
  7
ＭＳ ゴシック
100
AcDbText
  0
TEXT
  5
425
330
1F
100
AcDbEntity
  8
F-4ﾚｲﾔ
  6
Continuous
 62
     2
370
     9
100
AcDbText
 10
304.4325758314674
 20
-667.8011782909125
 30
0.0
 40
18.288
  1
定尺：２０００
 41
1.107142857142857
  7
ＭＳ ゴシック
100
AcDbText
  0
TEXT
  5
426
330
1F
100
AcDbEntity
  8
F-4ﾚｲﾔ
  6
Continuous
 62
     2
370
     9
100
AcDbText
 10
268.6048384871895
 20
-430.8008417727537
 30
0.0
 40
18.288
  1
ＨＳＢ　１７０７５
 41
1.111111111111111
  7
ＭＳ ゴシック
100
AcDbText
  0
TEXT
  5
427
330
1F
100
AcDbEntity
  8
F-4ﾚｲﾔ
  6
Continuous
 62
     2
370
     9
100
AcDbText
 10
268.6054174963744
 20
-568.8011485981338
 30
0.0
 40
18.288
  1
スチール製受枠　Ｌ－７５
 41
1.114583333333333
  7
ＭＳ ゴシック
100
AcDbText
  0
TEXT
  5
428
330
1F
100
AcDbEntity
  8
F-4ﾚｲﾔ
  6
Continuous
 62
     2
370
     9
100
AcDbText
 10
268.6048384871894
 20
-397.8005102033915
 30
0.0
 40
18.288
  1
スチール製グレーチング　プレーンタイプ　横断溝・側溝用
 41
1.12037037037037
  7
ＭＳ ゴシック
100
AcDbText
  0
TEXT
  5
429
330
1F
100
AcDbEntity
  8
F-4ﾚｲﾔ
  6
Continuous
 62
     2
370
     9
100
AcDbText
 10
-507.1264368468044
 20
-794.0127120766474
 30
0.0
 40
18.288
  1
スチール製グレーチング　プレーンタイプ　横断溝・側溝用
 50
0.0000007060387133
 41
0.9231481481481483
  7
ＭＳ ゴシック
100
AcDbText
  0
TEXT
  5
42A
330
1F
100
AcDbEntity
  8
F-5ﾚｲﾔ
  6
Continuous
 62
     3
370
     9
100
AcDbText
 10
372.3512836017376
 20
-362.2023789217192
 30
0.0
 40
22.86
  1
※適用荷重：Ｔ－１４（側溝用）
 41
1.093333333333333
  7
ＭＳ ゴシック
100
AcDbText
  0
TEXT
  5
42B
330
1F
100
AcDbEntity
  8
F-5ﾚｲﾔ
  6
Continuous
 62
     3
370
     9
100
AcDbText
 10
372.3512836017376
 20
-322.9637217562856
 30
0.0
 40
22.86
  1
※適用荷重：Ｔ－２０（横断溝用）
 41
1.09375
  7
ＭＳ ゴシック
100
AcDbText
  0
ENDSEC
  0
SECTION
  2
OBJECTS
  0
DICTIONARY
  5
C
330
0
100
AcDbDictionary
281
     1
  3
ACAD_DETAILVIEWSTYLE
350
471
  3
ACAD_GROUP
350
D
  3
ACAD_LAYOUT
350
1A
  3
ACAD_MATERIAL
350
43
  3
ACAD_MLEADERSTYLE
350
6B
  3
ACAD_MLINESTYLE
350
17
  3
ACAD_PLOTSETTINGS
350
19
  3
ACAD_PLOTSTYLENAME
350
E
  3
ACAD_SCALELIST
350
47
  3
ACAD_SECTIONVIEWSTYLE
350
472
  3
ACAD_TABLESTYLE
350
69
  3
ACAD_VISUALSTYLE
350
2A
  3
ACDB_RECOMPOSE_DATA
350
46E
  3
AcDbVariableDictionary
350
42E
  0
DICTIONARY
  5
42C
330
8
100
AcDbDictionary
280
     1
281
     1
  3
ACAD_XREC_ROUNDTRIP
360
42D
  0
DICTIONARY
  5
471
102
{ACAD_REACTORS
330
C
102
}
330
C
100
AcDbDictionary
281
     1
  0
DICTIONARY
  5
D
102
{ACAD_REACTORS
330
C
102
}
330
C
100
AcDbDictionary
281
     1
  0
DICTIONARY
  5
1A
102
{ACAD_REACTORS
330
C
102
}
330
C
100
AcDbDictionary
281
     1
  3
Layout1
350
1E
  3
Layout2
350
26
  3
Model
350
22
  0
DICTIONARY
  5
43
102
{ACAD_REACTORS
330
C
102
}
330
C
100
AcDbDictionary
281
     1
  3
ByBlock
350
45
  3
ByLayer
350
44
  3
Global
350
46
  0
DICTIONARY
  5
6B
102
{ACAD_REACTORS
330
C
102
}
330
C
100
AcDbDictionary
281
     1
  3
Standard
350
6C
  0
DICTIONARY
  5
17
102
{ACAD_REACTORS
330
C
102
}
330
C
100
AcDbDictionary
281
     1
  3
Standard
350
18
  0
DICTIONARY
  5
19
102
{ACAD_REACTORS
330
C
102
}
330
C
100
AcDbDictionary
281
     1
  0
ACDBDICTIONARYWDFLT
  5
E
102
{ACAD_REACTORS
330
C
102
}
330
C
100
AcDbDictionary
281
     1
  3
Normal
350
F
100
AcDbDictionaryWithDefault
340
F
  0
DICTIONARY
  5
47
102
{ACAD_REACTORS
330
C
102
}
330
C
100
AcDbDictionary
281
     1
  3
A0
350
48
  3
A1
350
49
  3
A2
350
4A
  3
A3
350
4B
  3
A4
350
4C
  3
A5
350
4D
  3
A6
350
4E
  3
A7
350
4F
  3
A8
350
50
  3
A9
350
51
  3
B0
350
52
  3
B1
350
53
  3
B2
350
54
  3
B3
350
55
  3
B4
350
56
  3
B5
350
57
  3
B6
350
58
  3
B7
350
59
  3
B8
350
5A
  3
B9
350
5B
  3
C0
350
5C
  3
C1
350
5D
  3
C2
350
5E
  3
C3
350
5F
  3
C4
350
60
  3
C5
350
61
  3
C6
350
62
  3
C7
350
63
  3
C8
350
64
  3
C9
350
65
  3
D0
350
66
  3
D1
350
67
  3
D2
350
68
  0
DICTIONARY
  5
472
102
{ACAD_REACTORS
330
C
102
}
330
C
100
AcDbDictionary
281
     1
  0
DICTIONARY
  5
69
102
{ACAD_REACTORS
330
C
102
}
330
C
100
AcDbDictionary
281
     1
  3
Standard
350
6A
  0
DICTIONARY
  5
2A
102
{ACAD_REACTORS
330
C
102
}
330
C
100
AcDbDictionary
281
     1
  3
2dWireframe
350
2F
  3
Basic
350
32
  3
Brighten
350
36
  3
ColorChange
350
3A
  3
Conceptual
350
34
  3
Dim
350
35
  3
EdgeColorOff
350
3D
  3
Facepattern
350
39
  3
Flat
350
2B
  3
FlatWithEdges
350
2C
  3
Gouraud
350
2D
  3
GouraudWithEdges
350
2E
  3
Hidden
350
31
  3
JitterOff
350
3B
  3
Linepattern
350
38
  3
OverhangOff
350
3C
  3
Realistic
350
33
  3
Shaded
350
42
  3
Shaded with edges
350
41
  3
Shades of Gray
350
3E
  3
Sketchy
350
3F
  3
Thicken
350
37
  3
Wireframe
350
30
  3
X-Ray
350
40
  0
XRECORD
  5
46E
102
{ACAD_REACTORS
330
C
102
}
330
C
100
AcDbXrecord
280
     1
 90
        1
330
6A
  0
DICTIONARY
  5
42E
102
{ACAD_REACTORS
330
C
102
}
330
C
100
AcDbDictionary
281
     1
  3
CANNOSCALE
350
42F
  3
CENTEREXE
350
473
  3
CENTERLTYPEFILE
350
474
  3
CMLEADERSTYLE
350
470
  3
CTABLESTYLE
350
46F
  3
MSLTSCALE
350
430
  3
XCLIPFRAME
350
431
  0
XRECORD
  5
42D
102
{ACAD_REACTORS
330
42C
102
}
330
42C
100
AcDbXrecord
280
     1
102
VTR_0.000_0.000_1.000_1.000_VISUALSTYLE
340
2F
102
VTR_0.000_0.000_1.000_1.000_GRIDDISPLAY
 70
     3
102
VTR_0.000_0.000_1.000_1.000_GRIDMAJOR
 70
     5
102
VTR_0.000_0.000_1.000_1.000_DEFAULTLIGHTING
280
     1
102
VTR_0.000_0.000_1.000_1.000_DEFAULTLIGHTINGTYPE
 70
     1
102
VTR_0.000_0.000_1.000_1.000_BRIGHTNESS
141
0.0
102
VTR_0.000_0.000_1.000_1.000_CONTRAST
142
0.0
  0
LAYOUT
  5
1E
102
{ACAD_REACTORS
330
1A
102
}
330
1A
100
AcDbPlotSettings
  1

  2
none_device
  4

  6

 40
0.0
 41
0.0
 42
0.0
 43
0.0
 44
0.0
 45
0.0
 46
0.0
 47
0.0
 48
0.0
 49
0.0
140
0.0
141
0.0
142
1.0
143
1.0
 70
   688
 72
     1
 73
     0
 74
     5
  7

 75
    16
 76
     0
 77
     5
 78
   300
147
1.0
148
0.0
149
0.0
100
AcDbLayout
  1
Layout1
 70
     1
 71
     1
 10
0.0
 20
0.0
 11
420.0
 21
297.0
 12
0.0
 22
0.0
 32
0.0
 14
1.000000000000000E+20
 24
1.000000000000000E+20
 34
1.000000000000000E+20
 15
-1.000000000000000E+20
 25
-1.000000000000000E+20
 35
-1.000000000000000E+20
146
0.0
 13
0.0
 23
0.0
 33
0.0
 16
1.0
 26
0.0
 36
0.0
 17
0.0
 27
1.0
 37
0.0
 76
     0
330
1B
  0
LAYOUT
  5
26
102
{ACAD_REACTORS
330
1A
102
}
330
1A
100
AcDbPlotSettings
  1

  2
none_device
  4

  6

 40
0.0
 41
0.0
 42
0.0
 43
0.0
 44
0.0
 45
0.0
 46
0.0
 47
0.0
 48
0.0
 49
0.0
140
0.0
141
0.0
142
1.0
143
1.0
 70
   688
 72
     1
 73
     0
 74
     5
  7

 75
    16
 76
     0
 77
     5
 78
   300
147
1.0
148
0.0
149
0.0
100
AcDbLayout
  1
Layout2
 70
     1
 71
     2
 10
0.0
 20
0.0
 11
0.0
 21
0.0
 12
0.0
 22
0.0
 32
0.0
 14
0.0
 24
0.0
 34
0.0
 15
0.0
 25
0.0
 35
0.0
146
0.0
 13
0.0
 23
0.0
 33
0.0
 16
1.0
 26
0.0
 36
0.0
 17
0.0
 27
1.0
 37
0.0
 76
     0
330
23
  0
LAYOUT
  5
22
102
{ACAD_REACTORS
330
1A
102
}
330
1A
100
AcDbPlotSettings
  1

  2
none_device
  4
Letter_(8.50_x_11.00_Inches)
  6

 40
6.35
 41
6.35
 42
6.35000508
 43
6.35000508
 44
215.9
 45
279.4
 46
0.0
 47
0.0
 48
0.0
 49
0.0
140
0.0
141
0.0
142
1.0
143
1.0
 70
  1712
 72
     1
 73
     0
 74
     0
  7

 75
     0
 76
     0
 77
     5
 78
   300
147
1.0
148
0.0
149
0.0
100
AcDbLayout
  1
Model
 70
     1
 71
     0
 10
-1260.0
 20
-891.0
 11
1260.0
 21
891.0
 12
0.0
 22
0.0
 32
0.0
 14
-1260.0
 24
-891.0
 34
0.0
 15
1260.0
 25
891.0
 35
0.0
146
0.0
 13
0.0
 23
0.0
 33
0.0
 16
1.0
 26
0.0
 36
0.0
 17
0.0
 27
1.0
 37
0.0
 76
     0
330
1F
331
29
  0
MATERIAL
  5
45
102
{ACAD_REACTORS
330
43
102
}
102
{ACAD_XDICTIONARY
360
464
102
}
330
43
100
AcDbMaterial
  1
ByBlock
  0
MATERIAL
  5
44
102
{ACAD_REACTORS
330
43
102
}
102
{ACAD_XDICTIONARY
360
462
102
}
330
43
100
AcDbMaterial
  1
ByLayer
  0
MATERIAL
  5
46
102
{ACAD_REACTORS
330
43
102
}
102
{ACAD_XDICTIONARY
360
466
102
}
330
43
100
AcDbMaterial
  1
Global
  0
MLEADERSTYLE
  5
6C
102
{ACAD_REACTORS
330
6B
102
}
102
{ACAD_XDICTIONARY
360
46C
102
}
330
6B
100
AcDbMLeaderStyle
170
     2
171
     1
172
     0
 90
        2
 40
0.0
 41
0.0
173
     1
 91
-1056964608
340
14
 92
       -2
290
     1
 42
2.0
291
     1
 43
8.0
  3
Standard
341
0
 44
4.0
300

342
11
174
     1
178
     6
175
     1
176
     0
 93
-1056964608
 45
4.0
292
     0
297
     0
 46
4.0
343
0
 94
-1056964608
 47
1.0
 49
1.0
140
1.0
293
     1
141
0.0
294
     1
177
     0
142
1.0
295
     0
296
     0
143
3.75
1001
ACAD_MLEADERVER
1070
     2
  0
MLINESTYLE
  5
18
102
{ACAD_REACTORS
330
17
102
}
330
17
100
AcDbMlineStyle
  2
Standard
 70
     0
  3

 62
   256
 51
90.0
 52
90.0
 71
     2
 49
0.5
 62
   256
  6
BYLAYER
 49
-0.5
 62
   256
  6
BYLAYER
  0
ACDBPLACEHOLDER
  5
F
102
{ACAD_REACTORS
330
E
102
}
330
E
  0
SCALE
  5
48
102
{ACAD_REACTORS
330
47
102
}
330
47
100
AcDbScale
 70
     0
300
1:1
140
1.0
141
1.0
290
     1
  0
SCALE
  5
49
102
{ACAD_REACTORS
330
47
102
}
330
47
100
AcDbScale
 70
     0
300
1:2
140
1.0
141
2.0
290
     0
  0
SCALE
  5
4A
102
{ACAD_REACTORS
330
47
102
}
330
47
100
AcDbScale
 70
     0
300
1:4
140
1.0
141
4.0
290
     0
  0
SCALE
  5
4B
102
{ACAD_REACTORS
330
47
102
}
330
47
100
AcDbScale
 70
     0
300
1:5
140
1.0
141
5.0
290
     0
  0
SCALE
  5
4C
102
{ACAD_REACTORS
330
47
102
}
330
47
100
AcDbScale
 70
     0
300
1:8
140
1.0
141
8.0
290
     0
  0
SCALE
  5
4D
102
{ACAD_REACTORS
330
47
102
}
330
47
100
AcDbScale
 70
     0
300
1:10
140
1.0
141
10.0
290
     0
  0
SCALE
  5
4E
102
{ACAD_REACTORS
330
47
102
}
330
47
100
AcDbScale
 70
     0
300
1:16
140
1.0
141
16.0
290
     0
  0
SCALE
  5
4F
102
{ACAD_REACTORS
330
47
102
}
330
47
100
AcDbScale
 70
     0
300
1:20
140
1.0
141
20.0
290
     0
  0
SCALE
  5
50
102
{ACAD_REACTORS
330
47
102
}
330
47
100
AcDbScale
 70
     0
300
1:30
140
1.0
141
30.0
290
     0
  0
SCALE
  5
51
102
{ACAD_REACTORS
330
47
102
}
330
47
100
AcDbScale
 70
     0
300
1:40
140
1.0
141
40.0
290
     0
  0
SCALE
  5
52
102
{ACAD_REACTORS
330
47
102
}
330
47
100
AcDbScale
 70
     0
300
1:50
140
1.0
141
50.0
290
     0
  0
SCALE
  5
53
102
{ACAD_REACTORS
330
47
102
}
330
47
100
AcDbScale
 70
     0
300
1:100
140
1.0
141
100.0
290
     0
  0
SCALE
  5
54
102
{ACAD_REACTORS
330
47
102
}
330
47
100
AcDbScale
 70
     0
300
2:1
140
2.0
141
1.0
290
     0
  0
SCALE
  5
55
102
{ACAD_REACTORS
330
47
102
}
330
47
100
AcDbScale
 70
     0
300
4:1
140
4.0
141
1.0
290
     0
  0
SCALE
  5
56
102
{ACAD_REACTORS
330
47
102
}
330
47
100
AcDbScale
 70
     0
300
8:1
140
8.0
141
1.0
290
     0
  0
SCALE
  5
57
102
{ACAD_REACTORS
330
47
102
}
330
47
100
AcDbScale
 70
     0
300
10:1
140
10.0
141
1.0
290
     0
  0
SCALE
  5
58
102
{ACAD_REACTORS
330
47
102
}
330
47
100
AcDbScale
 70
     0
300
100:1
140
100.0
141
1.0
290
     0
  0
SCALE
  5
59
102
{ACAD_REACTORS
330
47
102
}
330
47
100
AcDbScale
 70
     0
300
1/128" = 1'-0"
140
0.0078125
141
12.0
290
     0
  0
SCALE
  5
5A
102
{ACAD_REACTORS
330
47
102
}
330
47
100
AcDbScale
 70
     0
300
1/64" = 1'-0"
140
0.015625
141
12.0
290
     0
  0
SCALE
  5
5B
102
{ACAD_REACTORS
330
47
102
}
330
47
100
AcDbScale
 70
     0
300
1/32" = 1'-0"
140
0.03125
141
12.0
290
     0
  0
SCALE
  5
5C
102
{ACAD_REACTORS
330
47
102
}
330
47
100
AcDbScale
 70
     0
300
1/16" = 1'-0"
140
0.0625
141
12.0
290
     0
  0
SCALE
  5
5D
102
{ACAD_REACTORS
330
47
102
}
330
47
100
AcDbScale
 70
     0
300
3/32" = 1'-0"
140
0.09375
141
12.0
290
     0
  0
SCALE
  5
5E
102
{ACAD_REACTORS
330
47
102
}
330
47
100
AcDbScale
 70
     0
300
1/8" = 1'-0"
140
0.125
141
12.0
290
     0
  0
SCALE
  5
5F
102
{ACAD_REACTORS
330
47
102
}
330
47
100
AcDbScale
 70
     0
300
3/16" = 1'-0"
140
0.1875
141
12.0
290
     0
  0
SCALE
  5
60
102
{ACAD_REACTORS
330
47
102
}
330
47
100
AcDbScale
 70
     0
300
1/4" = 1'-0"
140
0.25
141
12.0
290
     0
  0
SCALE
  5
61
102
{ACAD_REACTORS
330
47
102
}
330
47
100
AcDbScale
 70
     0
300
3/8" = 1'-0"
140
0.375
141
12.0
290
     0
  0
SCALE
  5
62
102
{ACAD_REACTORS
330
47
102
}
330
47
100
AcDbScale
 70
     0
300
1/2" = 1'-0"
140
0.5
141
12.0
290
     0
  0
SCALE
  5
63
102
{ACAD_REACTORS
330
47
102
}
330
47
100
AcDbScale
 70
     0
300
3/4" = 1'-0"
140
0.75
141
12.0
290
     0
  0
SCALE
  5
64
102
{ACAD_REACTORS
330
47
102
}
330
47
100
AcDbScale
 70
     0
300
1" = 1'-0"
140
1.0
141
12.0
290
     0
  0
SCALE
  5
65
102
{ACAD_REACTORS
330
47
102
}
330
47
100
AcDbScale
 70
     0
300
1-1/2" = 1'-0"
140
1.5
141
12.0
290
     0
  0
SCALE
  5
66
102
{ACAD_REACTORS
330
47
102
}
330
47
100
AcDbScale
 70
     0
300
3" = 1'-0"
140
3.0
141
12.0
290
     0
  0
SCALE
  5
67
102
{ACAD_REACTORS
330
47
102
}
330
47
100
AcDbScale
 70
     0
300
6" = 1'-0"
140
6.0
141
12.0
290
     0
  0
SCALE
  5
68
102
{ACAD_REACTORS
330
47
102
}
330
47
100
AcDbScale
 70
     0
300
1'-0" = 1'-0"
140
12.0
141
12.0
290
     0
  0
TABLESTYLE
  5
6A
102
{ACAD_REACTORS
330
69
102
}
102
{ACAD_XDICTIONARY
360
468
102
}
330
69
100
AcDbTableStyle
  3
Standard
 70
     0
 71
     0
 40
0.06
 41
0.06
280
     0
281
     0
  7
Standard
140
4.5
170
     2
 62
     0
 63
   257
283
     0
274
    -2
284
     1
 64
     0
275
    -2
285
     1
 65
     0
276
    -2
286
     1
 66
     0
277
    -2
287
     1
 67
     0
278
    -2
288
     1
 68
     0
279
    -2
289
     1
 69
     0
  7
Standard
140
6.0
170
     5
 62
     0
 63
   257
283
     0
274
    -2
284
     1
 64
     0
275
    -2
285
     1
 65
     0
276
    -2
286
     1
 66
     0
277
    -2
287
     1
 67
     0
278
    -2
288
     1
 68
     0
279
    -2
289
     1
 69
     0
  7
Standard
140
4.5
170
     5
 62
     0
 63
   257
283
     0
274
    -2
284
     1
 64
     0
275
    -2
285
     1
 65
     0
276
    -2
286
     1
 66
     0
277
    -2
287
     1
 67
     0
278
    -2
288
     1
 68
     0
279
    -2
289
     1
 69
     0
  0
VISUALSTYLE
  5
2F
102
{ACAD_REACTORS
330
2A
102
}
102
{ACAD_XDICTIONARY
360
43A
102
}
330
2A
100
AcDbVisualStyle
  2
2dWireframe
 70
     4
 71
     0
 72
     2
 73
     0
 90
        0
 40
0.6
 41
30.0
 62
     5
 63
     7
421
 16777215
 74
     1
 91
        4
 64
     7
 65
   257
 75
     1
175
     1
 42
1.0
 92
        0
 66
   257
 43
1.0
 76
     1
 77
     6
 78
     2
 67
     7
 79
     5
170
     0
171
     0
290
     0
174
     0
 93
        1
 44
0.0
173
     0
291
     0
 45
0.0
1001
ACAD
1000
AcDbSavedByObjectVersion
1070
     0
  0
VISUALSTYLE
  5
32
102
{ACAD_REACTORS
330
2A
102
}
102
{ACAD_XDICTIONARY
360
440
102
}
330
2A
100
AcDbVisualStyle
  2
Basic
 70
     7
 71
     1
 72
     0
 73
     1
 90
        0
 40
0.6
 41
30.0
 62
     5
 63
     7
421
 16777215
 74
     0
 91
        4
 64
     7
 65
   257
 75
     1
175
     1
 42
1.0
 92
        8
 66
     7
 43
1.0
 76
     1
 77
     6
 78
     2
 67
     7
 79
     5
170
     0
171
     0
290
     0
174
     0
 93
        1
 44
0.0
173
     0
291
     1
 45
0.0
1001
ACAD
1000
AcDbSavedByObjectVersion
1070
     0
  0
VISUALSTYLE
  5
36
102
{ACAD_REACTORS
330
2A
102
}
102
{ACAD_XDICTIONARY
360
448
102
}
330
2A
100
AcDbVisualStyle
  2
Brighten
 70
    12
 71
     2
 72
     2
 73
     0
 90
        0
 40
0.6
 41
30.0
 62
     5
 63
     7
421
 16777215
 74
     1
 91
        4
 64
     7
 65
   257
 75
     1
175
     1
 42
1.0
 92
        8
 66
     7
 43
1.0
 76
     1
 77
     6
 78
     2
 67
     7
 79
     5
170
     0
171
     0
290
     0
174
     0
 93
        1
 44
50.0
173
     0
291
     1
 45
0.0
1001
ACAD
1000
AcDbSavedByObjectVersion
1070
     0
  0
VISUALSTYLE
  5
3A
102
{ACAD_REACTORS
330
2A
102
}
102
{ACAD_XDICTIONARY
360
450
102
}
330
2A
100
AcDbVisualStyle
  2
ColorChange
 70
    16
 71
     2
 72
     2
 73
     3
 90
        0
 40
0.6
 41
30.0
 62
     5
 63
     8
421
  8421504
 74
     1
 91
        4
 64
     7
 65
   257
 75
     1
175
     1
 42
1.0
 92
        8
 66
     8
424
  8421504
 43
1.0
 76
     1
 77
     6
 78
     2
 67
     7
 79
     5
170
     0
171
     0
290
     0
174
     0
 93
        1
 44
0.0
173
     0
291
     1
 45
0.0
1001
ACAD
1000
AcDbSavedByObjectVersion
1070
     0
  0
VISUALSTYLE
  5
34
102
{ACAD_REACTORS
330
2A
102
}
102
{ACAD_XDICTIONARY
360
444
102
}
330
2A
100
AcDbVisualStyle
  2
Conceptual
 70
     9
 71
     3
 72
     2
 73
     0
 90
        0
 40
0.6
 41
30.0
 62
     5
 63
     7
421
 16777215
 74
     2
 91
        2
 64
     7
 65
   257
 75
     1
175
     1
 42
179.0
 92
        8
 66
     7
 43
1.0
 76
     1
 77
     6
 78
     2
 67
     7
 79
     3
170
     0
171
     0
290
     0
174
     0
 93
        1
 44
0.0
173
     0
291
     0
 45
0.0
1001
ACAD
1000
AcDbSavedByObjectVersion
1070
     0
  0
VISUALSTYLE
  5
35
102
{ACAD_REACTORS
330
2A
102
}
102
{ACAD_XDICTIONARY
360
446
102
}
330
2A
100
AcDbVisualStyle
  2
Dim
 70
    11
 71
     2
 72
     2
 73
     0
 90
        0
 40
0.6
 41
30.0
 62
     5
 63
     7
421
 16777215
 74
     1
 91
        4
 64
     7
 65
   257
 75
     1
175
     1
 42
1.0
 92
        8
 66
     7
 43
1.0
 76
     1
 77
     6
 78
     2
 67
     7
 79
     5
170
     0
171
     0
290
     0
174
     0
 93
        1
 44
-50.0
173
     0
291
     1
 45
0.0
1001
ACAD
1000
AcDbSavedByObjectVersion
1070
     0
  0
VISUALSTYLE
  5
3D
102
{ACAD_REACTORS
330
2A
102
}
102
{ACAD_XDICTIONARY
360
456
102
}
330
2A
100
AcDbVisualStyle
  2
EdgeColorOff
 70
    22
 71
     2
 72
     2
 73
     0
 90
        0
 40
0.6
 41
30.0
 62
     5
 63
     7
421
 16777215
 74
     1
 91
        4
 64
     7
 65
   257
 75
     1
175
     1
 42
1.0
 92
        8
 66
     7
 43
1.0
 76
     1
 77
     6
 78
     2
 67
     7
 79
     5
170
     0
171
     0
290
     0
174
     0
 93
        1
 44
0.0
173
     0
291
     1
 45
0.0
1001
ACAD
1000
AcDbSavedByObjectVersion
1070
     0
  0
VISUALSTYLE
  5
39
102
{ACAD_REACTORS
330
2A
102
}
102
{ACAD_XDICTIONARY
360
44E
102
}
330
2A
100
AcDbVisualStyle
  2
Facepattern
 70
    15
 71
     2
 72
     2
 73
     0
 90
        0
 40
0.6
 41
30.0
 62
     5
 63
     7
421
 16777215
 74
     1
 91
        4
 64
     7
 65
   257
 75
     1
175
     1
 42
1.0
 92
        8
 66
     7
 43
1.0
 76
     1
 77
     6
 78
     2
 67
     7
 79
     5
170
     0
171
     0
290
     0
174
     0
 93
        1
 44
0.0
173
     0
291
     1
 45
0.0
1001
ACAD
1000
AcDbSavedByObjectVersion
1070
     0
  0
VISUALSTYLE
  5
2B
102
{ACAD_REACTORS
330
2A
102
}
102
{ACAD_XDICTIONARY
360
432
102
}
330
2A
100
AcDbVisualStyle
  2
Flat
 70
     0
 71
     2
 72
     1
 73
     1
 90
        2
 40
0.6
 41
30.0
 62
     5
 63
     7
421
 16777215
 74
     0
 91
        0
 64
     7
 65
   257
 75
     1
175
     1
 42
1.0
 92
        8
 66
     7
 43
1.0
 76
     1
 77
     6
 78
     2
 67
     7
 79
     5
170
     0
171
     0
290
     0
174
     0
 93
       13
 44
0.0
173
     0
291
     1
 45
0.0
1001
ACAD
1000
AcDbSavedByObjectVersion
1070
     0
  0
VISUALSTYLE
  5
2C
102
{ACAD_REACTORS
330
2A
102
}
102
{ACAD_XDICTIONARY
360
434
102
}
330
2A
100
AcDbVisualStyle
  2
FlatWithEdges
 70
     1
 71
     2
 72
     1
 73
     1
 90
        2
 40
0.6
 41
30.0
 62
     5
 63
     7
421
 16777215
 74
     1
 91
        0
 64
     7
 65
   257
 75
     1
175
     1
 42
1.0
 92
        0
 66
   257
 43
1.0
 76
     1
 77
     6
 78
     2
 67
     7
 79
     5
170
     0
171
     0
290
     0
174
     0
 93
       13
 44
0.0
173
     0
291
     1
 45
0.0
1001
ACAD
1000
AcDbSavedByObjectVersion
1070
     0
  0
VISUALSTYLE
  5
2D
102
{ACAD_REACTORS
330
2A
102
}
102
{ACAD_XDICTIONARY
360
436
102
}
330
2A
100
AcDbVisualStyle
  2
Gouraud
 70
     2
 71
     2
 72
     2
 73
     1
 90
        2
 40
0.6
 41
30.0
 62
     5
 63
     7
421
 16777215
 74
     0
 91
        0
 64
     7
 65
   257
 75
     1
175
     1
 42
1.0
 92
        0
 66
     7
 43
1.0
 76
     1
 77
     6
 78
     2
 67
     7
 79
     5
170
     0
171
     0
290
     0
174
     0
 93
       13
 44
0.0
173
     0
291
     1
 45
0.0
1001
ACAD
1000
AcDbSavedByObjectVersion
1070
     0
  0
VISUALSTYLE
  5
2E
102
{ACAD_REACTORS
330
2A
102
}
102
{ACAD_XDICTIONARY
360
438
102
}
330
2A
100
AcDbVisualStyle
  2
GouraudWithEdges
 70
     3
 71
     2
 72
     2
 73
     1
 90
        2
 40
0.6
 41
30.0
 62
     5
 63
     7
421
 16777215
 74
     1
 91
        0
 64
     7
 65
   257
 75
     1
175
     1
 42
1.0
 92
        0
 66
   257
 43
1.0
 76
     1
 77
     6
 78
     2
 67
     7
 79
     5
170
     0
171
     0
290
     0
174
     0
 93
       13
 44
0.0
173
     0
291
     1
 45
0.0
1001
ACAD
1000
AcDbSavedByObjectVersion
1070
     0
  0
VISUALSTYLE
  5
31
102
{ACAD_REACTORS
330
2A
102
}
102
{ACAD_XDICTIONARY
360
43E
102
}
330
2A
100
AcDbVisualStyle
  2
Hidden
 70
     6
 71
     1
 72
     2
 73
     2
 90
        0
 40
0.6
 41
30.0
 62
     5
 63
     7
421
 16777215
 74
     2
 91
        2
 64
     7
 65
   257
 75
     2
175
     1
 42
40.0
 92
        0
 66
   257
 43
1.0
 76
     1
 77
     6
 78
     2
 67
     7
 79
     3
170
     0
171
     0
290
     0
174
     0
 93
        1
 44
0.0
173
     0
291
     0
 45
0.0
1001
ACAD
1000
AcDbSavedByObjectVersion
1070
     0
  0
VISUALSTYLE
  5
3B
102
{ACAD_REACTORS
330
2A
102
}
102
{ACAD_XDICTIONARY
360
452
102
}
330
2A
100
AcDbVisualStyle
  2
JitterOff
 70
    20
 71
     2
 72
     2
 73
     0
 90
        0
 40
0.6
 41
30.0
 62
     5
 63
     7
421
 16777215
 74
     1
 91
        4
 64
     7
 65
   257
 75
     1
175
     1
 42
1.0
 92
       10
 66
     7
 43
1.0
 76
     1
 77
     6
 78
     2
 67
     7
 79
     5
170
     0
171
     0
290
     0
174
     0
 93
        1
 44
0.0
173
     0
291
     1
 45
0.0
1001
ACAD
1000
AcDbSavedByObjectVersion
1070
     0
  0
VISUALSTYLE
  5
38
102
{ACAD_REACTORS
330
2A
102
}
102
{ACAD_XDICTIONARY
360
44C
102
}
330
2A
100
AcDbVisualStyle
  2
Linepattern
 70
    14
 71
     2
 72
     2
 73
     0
 90
        0
 40
0.6
 41
30.0
 62
     5
 63
     7
421
 16777215
 74
     1
 91
        4
 64
     7
 65
   257
 75
     7
175
     7
 42
1.0
 92
        8
 66
     7
 43
1.0
 76
     1
 77
     6
 78
     2
 67
     7
 79
     5
170
     0
171
     0
290
     0
174
     0
 93
        1
 44
0.0
173
     0
291
     1
 45
0.0
1001
ACAD
1000
AcDbSavedByObjectVersion
1070
     0
  0
VISUALSTYLE
  5
3C
102
{ACAD_REACTORS
330
2A
102
}
102
{ACAD_XDICTIONARY
360
454
102
}
330
2A
100
AcDbVisualStyle
  2
OverhangOff
 70
    21
 71
     2
 72
     2
 73
     0
 90
        0
 40
0.6
 41
30.0
 62
     5
 63
     7
421
 16777215
 74
     1
 91
        4
 64
     7
 65
   257
 75
     1
175
     1
 42
1.0
 92
        9
 66
     7
 43
1.0
 76
     1
 77
     6
 78
     2
 67
     7
 79
     5
170
     0
171
     0
290
     0
174
     0
 93
        1
 44
0.0
173
     0
291
     1
 45
0.0
1001
ACAD
1000
AcDbSavedByObjectVersion
1070
     0
  0
VISUALSTYLE
  5
33
102
{ACAD_REACTORS
330
2A
102
}
102
{ACAD_XDICTIONARY
360
442
102
}
330
2A
100
AcDbVisualStyle
  2
Realistic
 70
     8
 71
     2
 72
     3
 73
     0
 90
        2
 40
0.6
 41
30.0
 62
     5
 63
     7
421
 16777215
 74
     0
 91
        0
 64
     7
 65
   257
 75
     1
175
     1
 42
1.0
 92
        8
 66
   257
 43
1.0
 76
     1
 77
     6
 78
     2
 67
     7
 79
     3
170
     0
171
     0
290
     0
174
     0
 93
       13
 44
0.0
173
     0
291
     0
 45
0.0
1001
ACAD
1000
AcDbSavedByObjectVersion
1070
     0
  0
VISUALSTYLE
  5
42
102
{ACAD_REACTORS
330
2A
102
}
102
{ACAD_XDICTIONARY
360
460
102
}
330
2A
100
AcDbVisualStyle
  2
Shaded
 70
    27
 71
     2
 72
     2
 73
     1
 90
        2
 40
0.6
 41
30.0
 62
     5
 63
     7
421
 16777215
 74
     0
 91
        4
 64
     7
 65
   257
 75
     1
175
     1
 42
1.0
 92
        8
 66
   257
 43
1.0
 76
     1
 77
     6
 78
     2
 67
     8
425
  7895160
 79
     3
170
     0
171
     0
290
     0
174
     0
 93
        5
 44
0.0
173
     0
291
     0
 45
0.0
1001
ACAD
1000
AcDbSavedByObjectVersion
1070
     0
  0
VISUALSTYLE
  5
41
102
{ACAD_REACTORS
330
2A
102
}
102
{ACAD_XDICTIONARY
360
45E
102
}
330
2A
100
AcDbVisualStyle
  2
Shaded with edges
 70
    26
 71
     2
 72
     2
 73
     1
 90
        2
 40
0.6
 41
30.0
 62
     5
 63
     7
421
 16777215
 74
     1
 91
       10
 64
     7
 65
   257
 75
     2
175
     1
 42
1.0
 92
        8
 66
   257
 43
1.0
 76
     1
 77
     6
 78
     2
 67
     7
 79
     3
170
     0
171
     0
290
     0
174
     0
 93
        5
 44
0.0
173
     0
291
     0
 45
0.0
1001
ACAD
1000
AcDbSavedByObjectVersion
1070
     0
  0
VISUALSTYLE
  5
3E
102
{ACAD_REACTORS
330
2A
102
}
102
{ACAD_XDICTIONARY
360
458
102
}
330
2A
100
AcDbVisualStyle
  2
Shades of Gray
 70
    23
 71
     2
 72
     2
 73
     3
 90
        0
 40
0.6
 41
30.0
 62
     5
 63
     7
421
 16777215
 74
     2
 91
        2
 64
     7
 65
     7
 75
     1
175
     1
 42
40.0
 92
        8
 66
     7
 43
1.0
 76
     1
 77
     6
 78
     2
 67
     7
 79
     3
170
     0
171
     0
290
     0
174
     0
 93
        1
 44
0.0
173
     0
291
     0
 45
0.0
1001
ACAD
1000
AcDbSavedByObjectVersion
1070
     0
  0
VISUALSTYLE
  5
3F
102
{ACAD_REACTORS
330
2A
102
}
102
{ACAD_XDICTIONARY
360
45A
102
}
330
2A
100
AcDbVisualStyle
  2
Sketchy
 70
    24
 71
     1
 72
     2
 73
     2
 90
        0
 40
0.6
 41
30.0
 62
     5
 63
     7
421
 16777215
 74
     2
 91
        2
 64
     7
 65
     7
 75
     1
175
     1
 42
40.0
 92
       11
 66
     7
 43
1.0
 76
     1
 77
     6
 78
     2
 67
     7
 79
     6
170
     0
171
     0
290
     0
174
     0
 93
        1
 44
0.0
173
     0
291
     0
 45
0.0
1001
ACAD
1000
AcDbSavedByObjectVersion
1070
     0
  0
VISUALSTYLE
  5
37
102
{ACAD_REACTORS
330
2A
102
}
102
{ACAD_XDICTIONARY
360
44A
102
}
330
2A
100
AcDbVisualStyle
  2
Thicken
 70
    13
 71
     2
 72
     2
 73
     0
 90
        0
 40
0.6
 41
30.0
 62
     5
 63
     7
421
 16777215
 74
     1
 91
        4
 64
     7
 65
   257
 75
     1
175
     1
 42
1.0
 92
       12
 66
     7
 43
1.0
 76
     1
 77
     6
 78
     2
 67
     7
 79
     5
170
     0
171
     0
290
     0
174
     0
 93
        1
 44
0.0
173
     0
291
     1
 45
0.0
1001
ACAD
1000
AcDbSavedByObjectVersion
1070
     0
  0
VISUALSTYLE
  5
30
102
{ACAD_REACTORS
330
2A
102
}
102
{ACAD_XDICTIONARY
360
43C
102
}
330
2A
100
AcDbVisualStyle
  2
Wireframe
 70
     5
 71
     0
 72
     2
 73
     0
 90
        0
 40
0.6
 41
30.0
 62
     5
 63
     7
421
 16777215
 74
     1
 91
        4
 64
     7
 65
   257
 75
     1
175
     1
 42
1.0
 92
        0
 66
   257
 43
1.0
 76
     1
 77
     6
 78
     2
 67
     7
 79
     3
170
     0
171
     0
290
     0
174
     0
 93
        1
 44
0.0
173
     0
291
     0
 45
0.0
1001
ACAD
1000
AcDbSavedByObjectVersion
1070
     0
  0
VISUALSTYLE
  5
40
102
{ACAD_REACTORS
330
2A
102
}
102
{ACAD_XDICTIONARY
360
45C
102
}
330
2A
100
AcDbVisualStyle
  2
X-Ray
 70
    25
 71
     2
 72
     2
 73
     1
 90
        1
 40
0.5
 41
30.0
 62
     5
 63
     7
421
 16777215
 74
     1
 91
        0
 64
     7
 65
   257
 75
     1
175
     1
 42
1.0
 92
        8
 66
     7
 43
1.0
 76
     1
 77
     6
 78
     2
 67
     7
 79
     3
170
     0
171
     0
290
     0
174
     0
 93
       13
 44
0.0
173
     0
291
     0
 45
0.0
1001
ACAD
1000
AcDbSavedByObjectVersion
1070
     0
  0
DICTIONARYVAR
  5
42F
102
{ACAD_REACTORS
330
42E
102
}
330
42E
100
DictionaryVariables
280
     0
  1
1:1
  0
DICTIONARYVAR
  5
473
102
{ACAD_REACTORS
330
42E
102
}
330
42E
100
DictionaryVariables
280
     0
  1
3.500000
  0
DICTIONARYVAR
  5
474
102
{ACAD_REACTORS
330
42E
102
}
330
42E
100
DictionaryVariables
280
     0
  1
acadiso.lin
  0
DICTIONARYVAR
  5
470
102
{ACAD_REACTORS
330
42E
102
}
330
42E
100
DictionaryVariables
280
     0
  1
Standard
  0
DICTIONARYVAR
  5
46F
102
{ACAD_REACTORS
330
42E
102
}
330
42E
100
DictionaryVariables
280
     0
  1
Standard
  0
DICTIONARYVAR
  5
430
102
{ACAD_REACTORS
330
42E
102
}
330
42E
100
DictionaryVariables
280
     0
  1
1
  0
DICTIONARYVAR
  5
431
102
{ACAD_REACTORS
330
42E
102
}
330
42E
100
DictionaryVariables
280
     0
  1
2
  0
DICTIONARY
  5
464
330
45
100
AcDbDictionary
280
     1
281
     1
  3
ACAD_XREC_ROUNDTRIP
360
465
  0
DICTIONARY
  5
462
330
44
100
AcDbDictionary
280
     1
281
     1
  3
ACAD_XREC_ROUNDTRIP
360
463
  0
DICTIONARY
  5
466
330
46
100
AcDbDictionary
280
     1
281
     1
  3
ACAD_XREC_ROUNDTRIP
360
467
  0
DICTIONARY
  5
46C
330
6C
100
AcDbDictionary
280
     1
281
     1
  3
ACAD_XREC_ROUNDTRIP
360
46D
  0
DICTIONARY
  5
468
330
6A
100
AcDbDictionary
280
     1
281
     1
  3
ACAD_ROUNDTRIP_2008_TABLESTYLE_CELLSTYLEMAP
360
46A
  3
ACAD_XREC_ROUNDTRIP
360
469
  0
DICTIONARY
  5
43A
330
2F
100
AcDbDictionary
280
     1
281
     1
  3
ACAD_XREC_ROUNDTRIP
360
43B
  0
DICTIONARY
  5
440
330
32
100
AcDbDictionary
280
     1
281
     1
  3
ACAD_XREC_ROUNDTRIP
360
441
  0
DICTIONARY
  5
448
330
36
100
AcDbDictionary
280
     1
281
     1
  3
ACAD_XREC_ROUNDTRIP
360
449
  0
DICTIONARY
  5
450
330
3A
100
AcDbDictionary
280
     1
281
     1
  3
ACAD_XREC_ROUNDTRIP
360
451
  0
DICTIONARY
  5
444
330
34
100
AcDbDictionary
280
     1
281
     1
  3
ACAD_XREC_ROUNDTRIP
360
445
  0
DICTIONARY
  5
446
330
35
100
AcDbDictionary
280
     1
281
     1
  3
ACAD_XREC_ROUNDTRIP
360
447
  0
DICTIONARY
  5
456
330
3D
100
AcDbDictionary
280
     1
281
     1
  3
ACAD_XREC_ROUNDTRIP
360
457
  0
DICTIONARY
  5
44E
330
39
100
AcDbDictionary
280
     1
281
     1
  3
ACAD_XREC_ROUNDTRIP
360
44F
  0
DICTIONARY
  5
432
330
2B
100
AcDbDictionary
280
     1
281
     1
  3
ACAD_XREC_ROUNDTRIP
360
433
  0
DICTIONARY
  5
434
330
2C
100
AcDbDictionary
280
     1
281
     1
  3
ACAD_XREC_ROUNDTRIP
360
435
  0
DICTIONARY
  5
436
330
2D
100
AcDbDictionary
280
     1
281
     1
  3
ACAD_XREC_ROUNDTRIP
360
437
  0
DICTIONARY
  5
438
330
2E
100
AcDbDictionary
280
     1
281
     1
  3
ACAD_XREC_ROUNDTRIP
360
439
  0
DICTIONARY
  5
43E
330
31
100
AcDbDictionary
280
     1
281
     1
  3
ACAD_XREC_ROUNDTRIP
360
43F
  0
DICTIONARY
  5
452
330
3B
100
AcDbDictionary
280
     1
281
     1
  3
ACAD_XREC_ROUNDTRIP
360
453
  0
DICTIONARY
  5
44C
330
38
100
AcDbDictionary
280
     1
281
     1
  3
ACAD_XREC_ROUNDTRIP
360
44D
  0
DICTIONARY
  5
454
330
3C
100
AcDbDictionary
280
     1
281
     1
  3
ACAD_XREC_ROUNDTRIP
360
455
  0
DICTIONARY
  5
442
330
33
100
AcDbDictionary
280
     1
281
     1
  3
ACAD_XREC_ROUNDTRIP
360
443
  0
DICTIONARY
  5
460
330
42
100
AcDbDictionary
280
     1
281
     1
  3
ACAD_XREC_ROUNDTRIP
360
461
  0
DICTIONARY
  5
45E
330
41
100
AcDbDictionary
280
     1
281
     1
  3
ACAD_XREC_ROUNDTRIP
360
45F
  0
DICTIONARY
  5
458
330
3E
100
AcDbDictionary
280
     1
281
     1
  3
ACAD_XREC_ROUNDTRIP
360
459
  0
DICTIONARY
  5
45A
330
3F
100
AcDbDictionary
280
     1
281
     1
  3
ACAD_XREC_ROUNDTRIP
360
45B
  0
DICTIONARY
  5
44A
330
37
100
AcDbDictionary
280
     1
281
     1
  3
ACAD_XREC_ROUNDTRIP
360
44B
  0
DICTIONARY
  5
43C
330
30
100
AcDbDictionary
280
     1
281
     1
  3
ACAD_XREC_ROUNDTRIP
360
43D
  0
DICTIONARY
  5
45C
330
40
100
AcDbDictionary
280
     1
281
     1
  3
ACAD_XREC_ROUNDTRIP
360
45D
  0
XRECORD
  5
465
102
{ACAD_REACTORS
330
464
102
}
330
464
100
AcDbXrecord
280
     1
102
MATERIAL
148
0.0
149
0.0
149
0.0
 93
        0
 94
      127
282
     0
 72
     1
 77
     1
171
     1
175
     1
179
     1
273
     0
  0
XRECORD
  5
463
102
{ACAD_REACTORS
330
462
102
}
330
462
100
AcDbXrecord
280
     1
102
MATERIAL
148
0.0
149
0.0
149
0.0
 93
        0
 94
      127
282
     0
 72
     1
 77
     1
171
     1
175
     1
179
     1
273
     0
  0
XRECORD
  5
467
102
{ACAD_REACTORS
330
466
102
}
330
466
100
AcDbXrecord
280
     1
102
MATERIAL
148
0.0
149
0.0
149
0.0
 93
        0
 94
      127
282
     0
 72
     1
 77
     1
171
     1
175
     1
179
     1
273
     0
  0
XRECORD
  5
46D
102
{ACAD_REACTORS
330
46C
102
}
330
46C
100
AcDbXrecord
280
     1
102
ACAD_ROUNDTRIP_2010_MLEADER_STYLE
  0
CELLSTYLEMAP
  5
46A
102
{ACAD_REACTORS
330
468
102
}
330
468
100
AcDbCellStyleMap
 90
        3
300
CELLSTYLE
  1
TABLEFORMAT_BEGIN
 90
        5
170
     1
 91
        0
 92
    32768
 62
   257
 93
        1
300
CONTENTFORMAT
  1
CONTENTFORMAT_BEGIN
 90
        0
 91
        0
 92
        4
 93
        0
300

 40
0.0
140
1.0
 94
        5
 62
     0
340
11
144
6.0
309
CONTENTFORMAT_END
171
     1
301
MARGIN
  1
CELLMARGIN_BEGIN
 40
1.5
 40
1.5
 40
1.5
 40
1.5
 40
1.5
 40
1.5
309
CELLMARGIN_END
 94
        6
 95
        1
302
GRIDFORMAT
  1
GRIDFORMAT_BEGIN
 90
        0
 91
        1
 62
     0
 92
       -2
340
14
 93
        0
 40
0.045
309
GRIDFORMAT_END
 95
        2
302
GRIDFORMAT
  1
GRIDFORMAT_BEGIN
 90
        0
 91
        1
 62
     0
 92
       -2
340
14
 93
        0
 40
0.045
309
GRIDFORMAT_END
 95
        4
302
GRIDFORMAT
  1
GRIDFORMAT_BEGIN
 90
        0
 91
        1
 62
     0
 92
       -2
340
14
 93
        0
 40
0.045
309
GRIDFORMAT_END
 95
        8
302
GRIDFORMAT
  1
GRIDFORMAT_BEGIN
 90
        0
 91
        1
 62
     0
 92
       -2
340
14
 93
        0
 40
0.045
309
GRIDFORMAT_END
 95
       16
302
GRIDFORMAT
  1
GRIDFORMAT_BEGIN
 90
        0
 91
        1
 62
     0
 92
       -2
340
14
 93
        0
 40
0.045
309
GRIDFORMAT_END
 95
       32
302
GRIDFORMAT
  1
GRIDFORMAT_BEGIN
 90
        0
 91
        1
 62
     0
 92
       -2
340
14
 93
        0
 40
0.045
309
GRIDFORMAT_END
309
TABLEFORMAT_END
  1
CELLSTYLE_BEGIN
 90
        1
 91
        1
300
_TITLE
309
CELLSTYLE_END
300
CELLSTYLE
  1
TABLEFORMAT_BEGIN
 90
        5
170
     1
 91
        0
 92
        0
 62
   257
 93
        1
300
CONTENTFORMAT
  1
CONTENTFORMAT_BEGIN
 90
        0
 91
        0
 92
        4
 93
        0
300

 40
0.0
140
1.0
 94
        5
 62
     0
340
11
144
4.5
309
CONTENTFORMAT_END
171
     1
301
MARGIN
  1
CELLMARGIN_BEGIN
 40
1.5
 40
1.5
 40
1.5
 40
1.5
 40
1.5
 40
1.5
309
CELLMARGIN_END
 94
        6
 95
        1
302
GRIDFORMAT
  1
GRIDFORMAT_BEGIN
 90
        0
 91
        1
 62
     0
 92
       -2
340
14
 93
        0
 40
0.045
309
GRIDFORMAT_END
 95
        2
302
GRIDFORMAT
  1
GRIDFORMAT_BEGIN
 90
        0
 91
        1
 62
     0
 92
       -2
340
14
 93
        0
 40
0.045
309
GRIDFORMAT_END
 95
        4
302
GRIDFORMAT
  1
GRIDFORMAT_BEGIN
 90
        0
 91
        1
 62
     0
 92
       -2
340
14
 93
        0
 40
0.045
309
GRIDFORMAT_END
 95
        8
302
GRIDFORMAT
  1
GRIDFORMAT_BEGIN
 90
        0
 91
        1
 62
     0
 92
       -2
340
14
 93
        0
 40
0.045
309
GRIDFORMAT_END
 95
       16
302
GRIDFORMAT
  1
GRIDFORMAT_BEGIN
 90
        0
 91
        1
 62
     0
 92
       -2
340
14
 93
        0
 40
0.045
309
GRIDFORMAT_END
 95
       32
302
GRIDFORMAT
  1
GRIDFORMAT_BEGIN
 90
        0
 91
        1
 62
     0
 92
       -2
340
14
 93
        0
 40
0.045
309
GRIDFORMAT_END
309
TABLEFORMAT_END
  1
CELLSTYLE_BEGIN
 90
        2
 91
        1
300
_HEADER
309
CELLSTYLE_END
300
CELLSTYLE
  1
TABLEFORMAT_BEGIN
 90
        5
170
     1
 91
        0
 92
        0
 62
   257
 93
        1
300
CONTENTFORMAT
  1
CONTENTFORMAT_BEGIN
 90
        0
 91
        0
 92
        4
 93
        0
300

 40
0.0
140
1.0
 94
        2
 62
     0
340
11
144
4.5
309
CONTENTFORMAT_END
171
     1
301
MARGIN
  1
CELLMARGIN_BEGIN
 40
1.5
 40
1.5
 40
1.5
 40
1.5
 40
1.5
 40
1.5
309
CELLMARGIN_END
 94
        6
 95
        1
302
GRIDFORMAT
  1
GRIDFORMAT_BEGIN
 90
        0
 91
        1
 62
     0
 92
       -2
340
14
 93
        0
 40
0.045
309
GRIDFORMAT_END
 95
        2
302
GRIDFORMAT
  1
GRIDFORMAT_BEGIN
 90
        0
 91
        1
 62
     0
 92
       -2
340
14
 93
        0
 40
0.045
309
GRIDFORMAT_END
 95
        4
302
GRIDFORMAT
  1
GRIDFORMAT_BEGIN
 90
        0
 91
        1
 62
     0
 92
       -2
340
14
 93
        0
 40
0.045
309
GRIDFORMAT_END
 95
        8
302
GRIDFORMAT
  1
GRIDFORMAT_BEGIN
 90
        0
 91
        1
 62
     0
 92
       -2
340
14
 93
        0
 40
0.045
309
GRIDFORMAT_END
 95
       16
302
GRIDFORMAT
  1
GRIDFORMAT_BEGIN
 90
        0
 91
        1
 62
     0
 92
       -2
340
14
 93
        0
 40
0.045
309
GRIDFORMAT_END
 95
       32
302
GRIDFORMAT
  1
GRIDFORMAT_BEGIN
 90
        0
 91
        1
 62
     0
 92
       -2
340
14
 93
        0
 40
0.045
309
GRIDFORMAT_END
309
TABLEFORMAT_END
  1
CELLSTYLE_BEGIN
 90
        3
 91
        2
300
_DATA
309
CELLSTYLE_END
  0
XRECORD
  5
469
102
{ACAD_REACTORS
330
468
102
}
330
468
100
AcDbXrecord
280
     1
102
ACAD_ROUNDTRIP_PRE2007_TABLESTYLE
 90
        4
 91
        0
  1

 92
        4
 93
        0
  2

 94
        4
 95
        0
  3

  0
XRECORD
  5
43B
102
{ACAD_REACTORS
330
43A
102
}
330
43A
100
AcDbXrecord
280
     1
102
RTVSPropertyOp0
 70
     1
102
RTVSPropertyOp1
 70
     1
102
RTVSPropertyOp2
 70
     1
102
RTVSPropertyOp3
 70
     1
102
RTVSPropertyOp4
 70
     1
102
RTVSPropertyOp5
 70
     1
102
RTVSPropertyOp6
 70
     1
102
RTVSPropertyOp7
 70
     1
102
RTVSPropertyOp8
 70
     1
102
RTVSPropertyOp9
 70
     1
102
RTVSPropertyOp10
 70
     1
102
RTVSPropertyOp11
 70
     1
102
RTVSPropertyOp12
 70
     1
102
RTVSPropertyOp13
 70
     1
102
RTVSPropertyOp14
 70
     1
102
RTVSPropertyOp15
 70
     1
102
RTVSPropertyOp16
 70
     1
102
RTVSPropertyOp17
 70
     1
102
RTVSPropertyOp18
 70
     1
102
RTVSPropertyOp19
 70
     1
102
RTVSPropertyOp20
 70
     1
102
RTVSPropertyOp21
 70
     1
102
RTVSPropertyOp22
 70
     1
102
RTVSPropertyOp23
 70
     1
102
RTVSPropertyOp24
 70
     1
102
RTVSPropertyOp25
 70
     1
102
RTVSPropertyOp26
 70
     1
102
RTVSPropertyOp27
 70
     1
102
RTVSPropertyOp28
 70
     1
102
RTVSPropertyOp29
 70
     1
102
RTVSPropertyOp30
 70
     1
102
RTVSPropertyOp31
 70
     1
102
RTVSPropertyOp32
 70
     1
102
RTVSPropertyOp33
 70
     1
102
RTVSPropertyOp34
 70
     1
102
RTVSPropertyOp35
 70
     1
102
RTVSPropertyOp36
 70
     1
102
RTVSPropertyOp37
 70
     1
102
RTVSPropertyOp38
 70
     1
102
RTVSPropertyOp39
 70
     1
102
RTVSPropertyOp40
 70
     1
102
RTVSPropertyOp41
 70
     1
102
RTVSPropertyOp42
 70
     1
102
RTVSPropertyOp43
 70
     1
102
RTVSPropertyOp44
 70
     1
102
RTVSPropertyOp45
 70
     1
102
RTVSPropertyOp46
 70
     1
102
RTVSPropertyOp47
 70
     1
102
RTVSPropertyOp48
 70
     1
102
RTVSPropertyOp49
 70
     1
102
RTVSPropertyOp50
 70
     1
102
RTVSPropertyOp51
 70
     0
102
RTVSPropertyOp52
 70
     0
102
RTVSPropertyOp53
 70
     1
102
RTVSPropertyOp54
 70
     1
102
RTVSPropertyOp55
 70
     1
102
RTVSPropertyOp56
 70
     1
102
RTVSPropertyOp57
 70
     1
102
RTVSPost2010Prop28
280
     1
102
RTVSPost2010PropOp28
 70
     1
102
RTVSPost2010Prop29
280
     1
102
RTVSPost2010PropOp29
 70
     1
102
RTVSPost2010Prop30
280
     0
102
RTVSPost2010PropOp30
 70
     1
102
RTVSPost2010Prop31
280
     0
102
RTVSPost2010PropOp31
 70
     1
102
RTVSPost2010Prop32
280
     0
102
RTVSPost2010PropOp32
 70
     1
102
RTVSPost2010Prop33
280
     0
102
RTVSPost2010PropOp33
 70
     1
102
RTVSPost2010Prop34
280
     0
102
RTVSPost2010PropOp34
 70
     1
102
RTVSPost2010Prop35
280
     0
102
RTVSPost2010PropOp35
 70
     1
102
RTVSPost2010Prop36
280
     0
102
RTVSPost2010PropOp36
 70
     1
102
RTVSPost2010Prop37
 90
       50
102
RTVSPost2010PropOp37
 70
     1
102
RTVSPost2010Prop38
140
0.0
102
RTVSPost2010PropOp38
 70
     1
102
RTVSPost2010Prop39
140
1.0
102
RTVSPost2010PropOp39
 70
     1
102
RTVSPost2010Prop40
 90
        0
102
RTVSPost2010PropOp40
 70
     1
102
RTVSPost2010Prop41ColorIndex
 90
       18
102
RTVSPost2010Prop41ColorRGB
 90
        0
102
RTVSPost2010PropOp41
 70
     1
102
RTVSPost2010Prop42
 90
       50
102
RTVSPost2010PropOp42
 70
     1
102
RTVSPost2010Prop43
 90
        3
102
RTVSPost2010PropOp43
 70
     1
102
RTVSPost2010Prop44ColorIndex
 90
        5
102
RTVSPost2010Prop44ColorRGB
 90
      255
102
RTVSPost2010PropOp44
 70
     1
102
RTVSPost2010Prop45
280
     0
102
RTVSPost2010PropOp45
 70
     1
102
RTVSPost2010Prop46
 90
       50
102
RTVSPost2010PropOp46
 70
     1
102
RTVSPost2010Prop47
 90
       50
102
RTVSPost2010PropOp47
 70
     1
102
RTVSPost2010Prop48
 90
       50
102
RTVSPost2010PropOp48
 70
     1
102
RTVSPost2010Prop49
280
     0
102
RTVSPost2010PropOp49
 70
     1
102
RTVSPost2010Prop50
 90
       50
102
RTVSPost2010PropOp50
 70
     1
102
RTVSPost2010Prop51ColorIndex
 90
      256
102
RTVSPost2010Prop51ColorRGB
 90
-16777216
102
RTVSPost2010PropOp51
 70
     0
102
RTVSPost2010Prop52
140
1.0
102
RTVSPost2010PropOp52
 70
     0
102
RTVSPost2010Prop53
 90
        2
102
RTVSPost2010PropOp53
 70
     1
102
RTVSPost2010Prop54
  1
strokes_ogs.tif
102
RTVSPost2010PropOp54
 70
     1
102
RTVSPost2010Prop55
280
     0
102
RTVSPost2010PropOp55
 70
     1
102
RTVSPost2010Prop56
140
1.0
102
RTVSPost2010PropOp56
 70
     1
102
RTVSPost2010Prop57
140
1.0
102
RTVSPost2010PropOp57
 70
     1
  0
XRECORD
  5
441
102
{ACAD_REACTORS
330
440
102
}
330
440
100
AcDbXrecord
280
     1
102
RTVSPropertyOp0
 70
     1
102
RTVSPropertyOp1
 70
     1
102
RTVSPropertyOp2
 70
     1
102
RTVSPropertyOp3
 70
     1
102
RTVSPropertyOp4
 70
     1
102
RTVSPropertyOp5
 70
     1
102
RTVSPropertyOp6
 70
     1
102
RTVSPropertyOp7
 70
     1
102
RTVSPropertyOp8
 70
     1
102
RTVSPropertyOp9
 70
     1
102
RTVSPropertyOp10
 70
     1
102
RTVSPropertyOp11
 70
     1
102
RTVSPropertyOp12
 70
     1
102
RTVSPropertyOp13
 70
     1
102
RTVSPropertyOp14
 70
     1
102
RTVSPropertyOp15
 70
     1
102
RTVSPropertyOp16
 70
     1
102
RTVSPropertyOp17
 70
     1
102
RTVSPropertyOp18
 70
     1
102
RTVSPropertyOp19
 70
     1
102
RTVSPropertyOp20
 70
     1
102
RTVSPropertyOp21
 70
     1
102
RTVSPropertyOp22
 70
     1
102
RTVSPropertyOp23
 70
     1
102
RTVSPropertyOp24
 70
     1
102
RTVSPropertyOp25
 70
     1
102
RTVSPropertyOp26
 70
     1
102
RTVSPropertyOp27
 70
     1
102
RTVSPropertyOp28
 70
     1
102
RTVSPropertyOp29
 70
     1
102
RTVSPropertyOp30
 70
     1
102
RTVSPropertyOp31
 70
     1
102
RTVSPropertyOp32
 70
     1
102
RTVSPropertyOp33
 70
     1
102
RTVSPropertyOp34
 70
     1
102
RTVSPropertyOp35
 70
     1
102
RTVSPropertyOp36
 70
     1
102
RTVSPropertyOp37
 70
     1
102
RTVSPropertyOp38
 70
     1
102
RTVSPropertyOp39
 70
     1
102
RTVSPropertyOp40
 70
     1
102
RTVSPropertyOp41
 70
     1
102
RTVSPropertyOp42
 70
     1
102
RTVSPropertyOp43
 70
     1
102
RTVSPropertyOp44
 70
     1
102
RTVSPropertyOp45
 70
     1
102
RTVSPropertyOp46
 70
     1
102
RTVSPropertyOp47
 70
     1
102
RTVSPropertyOp48
 70
     1
102
RTVSPropertyOp49
 70
     1
102
RTVSPropertyOp50
 70
     1
102
RTVSPropertyOp51
 70
     0
102
RTVSPropertyOp52
 70
     0
102
RTVSPropertyOp53
 70
     1
102
RTVSPropertyOp54
 70
     1
102
RTVSPropertyOp55
 70
     1
102
RTVSPropertyOp56
 70
     1
102
RTVSPropertyOp57
 70
     1
102
RTVSPost2010Prop28
280
     0
102
RTVSPost2010PropOp28
 70
     1
102
RTVSPost2010Prop29
280
     1
102
RTVSPost2010PropOp29
 70
     1
102
RTVSPost2010Prop30
280
     1
102
RTVSPost2010PropOp30
 70
     1
102
RTVSPost2010Prop31
280
     0
102
RTVSPost2010PropOp31
 70
     1
102
RTVSPost2010Prop32
280
     0
102
RTVSPost2010PropOp32
 70
     1
102
RTVSPost2010Prop33
280
     0
102
RTVSPost2010PropOp33
 70
     1
102
RTVSPost2010Prop34
280
     0
102
RTVSPost2010PropOp34
 70
     1
102
RTVSPost2010Prop35
280
     0
102
RTVSPost2010PropOp35
 70
     1
102
RTVSPost2010Prop36
280
     0
102
RTVSPost2010PropOp36
 70
     1
102
RTVSPost2010Prop37
 90
       50
102
RTVSPost2010PropOp37
 70
     1
102
RTVSPost2010Prop38
140
0.0
102
RTVSPost2010PropOp38
 70
     1
102
RTVSPost2010Prop39
140
1.0
102
RTVSPost2010PropOp39
 70
     1
102
RTVSPost2010Prop40
 90
        0
102
RTVSPost2010PropOp40
 70
     1
102
RTVSPost2010Prop41ColorIndex
 90
       18
102
RTVSPost2010Prop41ColorRGB
 90
        0
102
RTVSPost2010PropOp41
 70
     1
102
RTVSPost2010Prop42
 90
       50
102
RTVSPost2010PropOp42
 70
     1
102
RTVSPost2010Prop43
 90
        3
102
RTVSPost2010PropOp43
 70
     1
102
RTVSPost2010Prop44ColorIndex
 90
        5
102
RTVSPost2010Prop44ColorRGB
 90
      255
102
RTVSPost2010PropOp44
 70
     1
102
RTVSPost2010Prop45
280
     0
102
RTVSPost2010PropOp45
 70
     1
102
RTVSPost2010Prop46
 90
       50
102
RTVSPost2010PropOp46
 70
     1
102
RTVSPost2010Prop47
 90
       50
102
RTVSPost2010PropOp47
 70
     1
102
RTVSPost2010Prop48
 90
       50
102
RTVSPost2010PropOp48
 70
     1
102
RTVSPost2010Prop49
280
     0
102
RTVSPost2010PropOp49
 70
     1
102
RTVSPost2010Prop50
 90
       50
102
RTVSPost2010PropOp50
 70
     1
102
RTVSPost2010Prop51ColorIndex
 90
      256
102
RTVSPost2010Prop51ColorRGB
 90
-16777216
102
RTVSPost2010PropOp51
 70
     0
102
RTVSPost2010Prop52
140
1.0
102
RTVSPost2010PropOp52
 70
     0
102
RTVSPost2010Prop53
 90
        2
102
RTVSPost2010PropOp53
 70
     1
102
RTVSPost2010Prop54
  1
strokes_ogs.tif
102
RTVSPost2010PropOp54
 70
     1
102
RTVSPost2010Prop55
280
     0
102
RTVSPost2010PropOp55
 70
     1
102
RTVSPost2010Prop56
140
1.0
102
RTVSPost2010PropOp56
 70
     1
102
RTVSPost2010Prop57
140
1.0
102
RTVSPost2010PropOp57
 70
     1
  0
XRECORD
  5
449
102
{ACAD_REACTORS
330
448
102
}
330
448
100
AcDbXrecord
280
     1
102
RTVSPropertyOp0
 70
     1
102
RTVSPropertyOp1
 70
     1
102
RTVSPropertyOp2
 70
     1
102
RTVSPropertyOp3
 70
     1
102
RTVSPropertyOp4
 70
     1
102
RTVSPropertyOp5
 70
     1
102
RTVSPropertyOp6
 70
     1
102
RTVSPropertyOp7
 70
     1
102
RTVSPropertyOp8
 70
     1
102
RTVSPropertyOp9
 70
     1
102
RTVSPropertyOp10
 70
     1
102
RTVSPropertyOp11
 70
     1
102
RTVSPropertyOp12
 70
     1
102
RTVSPropertyOp13
 70
     1
102
RTVSPropertyOp14
 70
     1
102
RTVSPropertyOp15
 70
     1
102
RTVSPropertyOp16
 70
     1
102
RTVSPropertyOp17
 70
     1
102
RTVSPropertyOp18
 70
     1
102
RTVSPropertyOp19
 70
     1
102
RTVSPropertyOp20
 70
     1
102
RTVSPropertyOp21
 70
     1
102
RTVSPropertyOp22
 70
     1
102
RTVSPropertyOp23
 70
     1
102
RTVSPropertyOp24
 70
     1
102
RTVSPropertyOp25
 70
     1
102
RTVSPropertyOp26
 70
     1
102
RTVSPropertyOp27
 70
     1
102
RTVSPropertyOp28
 70
     1
102
RTVSPropertyOp29
 70
     1
102
RTVSPropertyOp30
 70
     1
102
RTVSPropertyOp31
 70
     1
102
RTVSPropertyOp32
 70
     1
102
RTVSPropertyOp33
 70
     1
102
RTVSPropertyOp34
 70
     1
102
RTVSPropertyOp35
 70
     1
102
RTVSPropertyOp36
 70
     1
102
RTVSPropertyOp37
 70
     1
102
RTVSPropertyOp38
 70
     1
102
RTVSPropertyOp39
 70
     1
102
RTVSPropertyOp40
 70
     1
102
RTVSPropertyOp41
 70
     1
102
RTVSPropertyOp42
 70
     1
102
RTVSPropertyOp43
 70
     1
102
RTVSPropertyOp44
 70
     1
102
RTVSPropertyOp45
 70
     1
102
RTVSPropertyOp46
 70
     1
102
RTVSPropertyOp47
 70
     1
102
RTVSPropertyOp48
 70
     1
102
RTVSPropertyOp49
 70
     1
102
RTVSPropertyOp50
 70
     1
102
RTVSPropertyOp51
 70
     0
102
RTVSPropertyOp52
 70
     0
102
RTVSPropertyOp53
 70
     1
102
RTVSPropertyOp54
 70
     1
102
RTVSPropertyOp55
 70
     1
102
RTVSPropertyOp56
 70
     1
102
RTVSPropertyOp57
 70
     1
102
RTVSPost2010Prop28
280
     0
102
RTVSPost2010PropOp28
 70
     1
102
RTVSPost2010Prop29
280
     1
102
RTVSPost2010PropOp29
 70
     1
102
RTVSPost2010Prop30
280
     1
102
RTVSPost2010PropOp30
 70
     1
102
RTVSPost2010Prop31
280
     0
102
RTVSPost2010PropOp31
 70
     1
102
RTVSPost2010Prop32
280
     0
102
RTVSPost2010PropOp32
 70
     1
102
RTVSPost2010Prop33
280
     0
102
RTVSPost2010PropOp33
 70
     1
102
RTVSPost2010Prop34
280
     0
102
RTVSPost2010PropOp34
 70
     1
102
RTVSPost2010Prop35
280
     0
102
RTVSPost2010PropOp35
 70
     1
102
RTVSPost2010Prop36
280
     0
102
RTVSPost2010PropOp36
 70
     1
102
RTVSPost2010Prop37
 90
       50
102
RTVSPost2010PropOp37
 70
     1
102
RTVSPost2010Prop38
140
0.0
102
RTVSPost2010PropOp38
 70
     1
102
RTVSPost2010Prop39
140
1.0
102
RTVSPost2010PropOp39
 70
     1
102
RTVSPost2010Prop40
 90
        0
102
RTVSPost2010PropOp40
 70
     1
102
RTVSPost2010Prop41ColorIndex
 90
       18
102
RTVSPost2010Prop41ColorRGB
 90
        0
102
RTVSPost2010PropOp41
 70
     1
102
RTVSPost2010Prop42
 90
       50
102
RTVSPost2010PropOp42
 70
     1
102
RTVSPost2010Prop43
 90
        3
102
RTVSPost2010PropOp43
 70
     1
102
RTVSPost2010Prop44ColorIndex
 90
        5
102
RTVSPost2010Prop44ColorRGB
 90
      255
102
RTVSPost2010PropOp44
 70
     1
102
RTVSPost2010Prop45
280
     0
102
RTVSPost2010PropOp45
 70
     1
102
RTVSPost2010Prop46
 90
       50
102
RTVSPost2010PropOp46
 70
     1
102
RTVSPost2010Prop47
 90
       50
102
RTVSPost2010PropOp47
 70
     1
102
RTVSPost2010Prop48
 90
       50
102
RTVSPost2010PropOp48
 70
     1
102
RTVSPost2010Prop49
280
     0
102
RTVSPost2010PropOp49
 70
     1
102
RTVSPost2010Prop50
 90
       50
102
RTVSPost2010PropOp50
 70
     1
102
RTVSPost2010Prop51ColorIndex
 90
      256
102
RTVSPost2010Prop51ColorRGB
 90
-16777216
102
RTVSPost2010PropOp51
 70
     0
102
RTVSPost2010Prop52
140
1.0
102
RTVSPost2010PropOp52
 70
     0
102
RTVSPost2010Prop53
 90
        2
102
RTVSPost2010PropOp53
 70
     1
102
RTVSPost2010Prop54
  1
strokes_ogs.tif
102
RTVSPost2010PropOp54
 70
     1
102
RTVSPost2010Prop55
280
     0
102
RTVSPost2010PropOp55
 70
     1
102
RTVSPost2010Prop56
140
1.0
102
RTVSPost2010PropOp56
 70
     1
102
RTVSPost2010Prop57
140
1.0
102
RTVSPost2010PropOp57
 70
     1
  0
XRECORD
  5
451
102
{ACAD_REACTORS
330
450
102
}
330
450
100
AcDbXrecord
280
     1
102
RTVSPropertyOp0
 70
     1
102
RTVSPropertyOp1
 70
     1
102
RTVSPropertyOp2
 70
     1
102
RTVSPropertyOp3
 70
     1
102
RTVSPropertyOp4
 70
     1
102
RTVSPropertyOp5
 70
     1
102
RTVSPropertyOp6
 70
     1
102
RTVSPropertyOp7
 70
     1
102
RTVSPropertyOp8
 70
     1
102
RTVSPropertyOp9
 70
     1
102
RTVSPropertyOp10
 70
     1
102
RTVSPropertyOp11
 70
     1
102
RTVSPropertyOp12
 70
     1
102
RTVSPropertyOp13
 70
     1
102
RTVSPropertyOp14
 70
     1
102
RTVSPropertyOp15
 70
     1
102
RTVSPropertyOp16
 70
     1
102
RTVSPropertyOp17
 70
     1
102
RTVSPropertyOp18
 70
     1
102
RTVSPropertyOp19
 70
     1
102
RTVSPropertyOp20
 70
     1
102
RTVSPropertyOp21
 70
     1
102
RTVSPropertyOp22
 70
     1
102
RTVSPropertyOp23
 70
     1
102
RTVSPropertyOp24
 70
     1
102
RTVSPropertyOp25
 70
     1
102
RTVSPropertyOp26
 70
     1
102
RTVSPropertyOp27
 70
     1
102
RTVSPropertyOp28
 70
     1
102
RTVSPropertyOp29
 70
     1
102
RTVSPropertyOp30
 70
     1
102
RTVSPropertyOp31
 70
     1
102
RTVSPropertyOp32
 70
     1
102
RTVSPropertyOp33
 70
     1
102
RTVSPropertyOp34
 70
     1
102
RTVSPropertyOp35
 70
     1
102
RTVSPropertyOp36
 70
     1
102
RTVSPropertyOp37
 70
     1
102
RTVSPropertyOp38
 70
     1
102
RTVSPropertyOp39
 70
     1
102
RTVSPropertyOp40
 70
     1
102
RTVSPropertyOp41
 70
     1
102
RTVSPropertyOp42
 70
     1
102
RTVSPropertyOp43
 70
     1
102
RTVSPropertyOp44
 70
     1
102
RTVSPropertyOp45
 70
     1
102
RTVSPropertyOp46
 70
     1
102
RTVSPropertyOp47
 70
     1
102
RTVSPropertyOp48
 70
     1
102
RTVSPropertyOp49
 70
     1
102
RTVSPropertyOp50
 70
     1
102
RTVSPropertyOp51
 70
     0
102
RTVSPropertyOp52
 70
     0
102
RTVSPropertyOp53
 70
     1
102
RTVSPropertyOp54
 70
     1
102
RTVSPropertyOp55
 70
     1
102
RTVSPropertyOp56
 70
     1
102
RTVSPropertyOp57
 70
     1
102
RTVSPost2010Prop28
280
     0
102
RTVSPost2010PropOp28
 70
     1
102
RTVSPost2010Prop29
280
     1
102
RTVSPost2010PropOp29
 70
     1
102
RTVSPost2010Prop30
280
     1
102
RTVSPost2010PropOp30
 70
     1
102
RTVSPost2010Prop31
280
     0
102
RTVSPost2010PropOp31
 70
     1
102
RTVSPost2010Prop32
280
     0
102
RTVSPost2010PropOp32
 70
     1
102
RTVSPost2010Prop33
280
     0
102
RTVSPost2010PropOp33
 70
     1
102
RTVSPost2010Prop34
280
     0
102
RTVSPost2010PropOp34
 70
     1
102
RTVSPost2010Prop35
280
     0
102
RTVSPost2010PropOp35
 70
     1
102
RTVSPost2010Prop36
280
     0
102
RTVSPost2010PropOp36
 70
     1
102
RTVSPost2010Prop37
 90
       50
102
RTVSPost2010PropOp37
 70
     1
102
RTVSPost2010Prop38
140
0.0
102
RTVSPost2010PropOp38
 70
     1
102
RTVSPost2010Prop39
140
1.0
102
RTVSPost2010PropOp39
 70
     1
102
RTVSPost2010Prop40
 90
        0
102
RTVSPost2010PropOp40
 70
     1
102
RTVSPost2010Prop41ColorIndex
 90
       18
102
RTVSPost2010Prop41ColorRGB
 90
        0
102
RTVSPost2010PropOp41
 70
     1
102
RTVSPost2010Prop42
 90
       50
102
RTVSPost2010PropOp42
 70
     1
102
RTVSPost2010Prop43
 90
        3
102
RTVSPost2010PropOp43
 70
     1
102
RTVSPost2010Prop44ColorIndex
 90
        5
102
RTVSPost2010Prop44ColorRGB
 90
      255
102
RTVSPost2010PropOp44
 70
     1
102
RTVSPost2010Prop45
280
     0
102
RTVSPost2010PropOp45
 70
     1
102
RTVSPost2010Prop46
 90
       50
102
RTVSPost2010PropOp46
 70
     1
102
RTVSPost2010Prop47
 90
       50
102
RTVSPost2010PropOp47
 70
     1
102
RTVSPost2010Prop48
 90
       50
102
RTVSPost2010PropOp48
 70
     1
102
RTVSPost2010Prop49
280
     0
102
RTVSPost2010PropOp49
 70
     1
102
RTVSPost2010Prop50
 90
       50
102
RTVSPost2010PropOp50
 70
     1
102
RTVSPost2010Prop51ColorIndex
 90
      256
102
RTVSPost2010Prop51ColorRGB
 90
-16777216
102
RTVSPost2010PropOp51
 70
     0
102
RTVSPost2010Prop52
140
1.0
102
RTVSPost2010PropOp52
 70
     0
102
RTVSPost2010Prop53
 90
        2
102
RTVSPost2010PropOp53
 70
     1
102
RTVSPost2010Prop54
  1
strokes_ogs.tif
102
RTVSPost2010PropOp54
 70
     1
102
RTVSPost2010Prop55
280
     0
102
RTVSPost2010PropOp55
 70
     1
102
RTVSPost2010Prop56
140
1.0
102
RTVSPost2010PropOp56
 70
     1
102
RTVSPost2010Prop57
140
1.0
102
RTVSPost2010PropOp57
 70
     1
  0
XRECORD
  5
445
102
{ACAD_REACTORS
330
444
102
}
330
444
100
AcDbXrecord
280
     1
102
RTVSPropertyOp0
 70
     1
102
RTVSPropertyOp1
 70
     1
102
RTVSPropertyOp2
 70
     1
102
RTVSPropertyOp3
 70
     1
102
RTVSPropertyOp4
 70
     1
102
RTVSPropertyOp5
 70
     1
102
RTVSPropertyOp6
 70
     1
102
RTVSPropertyOp7
 70
     1
102
RTVSPropertyOp8
 70
     1
102
RTVSPropertyOp9
 70
     1
102
RTVSPropertyOp10
 70
     1
102
RTVSPropertyOp11
 70
     1
102
RTVSPropertyOp12
 70
     1
102
RTVSPropertyOp13
 70
     1
102
RTVSPropertyOp14
 70
     1
102
RTVSPropertyOp15
 70
     1
102
RTVSPropertyOp16
 70
     1
102
RTVSPropertyOp17
 70
     1
102
RTVSPropertyOp18
 70
     1
102
RTVSPropertyOp19
 70
     1
102
RTVSPropertyOp20
 70
     1
102
RTVSPropertyOp21
 70
     1
102
RTVSPropertyOp22
 70
     1
102
RTVSPropertyOp23
 70
     1
102
RTVSPropertyOp24
 70
     1
102
RTVSPropertyOp25
 70
     1
102
RTVSPropertyOp26
 70
     1
102
RTVSPropertyOp27
 70
     1
102
RTVSPropertyOp28
 70
     1
102
RTVSPropertyOp29
 70
     1
102
RTVSPropertyOp30
 70
     1
102
RTVSPropertyOp31
 70
     1
102
RTVSPropertyOp32
 70
     1
102
RTVSPropertyOp33
 70
     1
102
RTVSPropertyOp34
 70
     1
102
RTVSPropertyOp35
 70
     1
102
RTVSPropertyOp36
 70
     1
102
RTVSPropertyOp37
 70
     1
102
RTVSPropertyOp38
 70
     1
102
RTVSPropertyOp39
 70
     1
102
RTVSPropertyOp40
 70
     1
102
RTVSPropertyOp41
 70
     1
102
RTVSPropertyOp42
 70
     1
102
RTVSPropertyOp43
 70
     1
102
RTVSPropertyOp44
 70
     1
102
RTVSPropertyOp45
 70
     1
102
RTVSPropertyOp46
 70
     1
102
RTVSPropertyOp47
 70
     1
102
RTVSPropertyOp48
 70
     1
102
RTVSPropertyOp49
 70
     1
102
RTVSPropertyOp50
 70
     1
102
RTVSPropertyOp51
 70
     0
102
RTVSPropertyOp52
 70
     0
102
RTVSPropertyOp53
 70
     1
102
RTVSPropertyOp54
 70
     1
102
RTVSPropertyOp55
 70
     1
102
RTVSPropertyOp56
 70
     1
102
RTVSPropertyOp57
 70
     1
102
RTVSPost2010Prop28
280
     0
102
RTVSPost2010PropOp28
 70
     1
102
RTVSPost2010Prop29
280
     1
102
RTVSPost2010PropOp29
 70
     1
102
RTVSPost2010Prop30
280
     1
102
RTVSPost2010PropOp30
 70
     1
102
RTVSPost2010Prop31
280
     0
102
RTVSPost2010PropOp31
 70
     1
102
RTVSPost2010Prop32
280
     0
102
RTVSPost2010PropOp32
 70
     1
102
RTVSPost2010Prop33
280
     0
102
RTVSPost2010PropOp33
 70
     1
102
RTVSPost2010Prop34
280
     0
102
RTVSPost2010PropOp34
 70
     1
102
RTVSPost2010Prop35
280
     0
102
RTVSPost2010PropOp35
 70
     1
102
RTVSPost2010Prop36
280
     0
102
RTVSPost2010PropOp36
 70
     1
102
RTVSPost2010Prop37
 90
       50
102
RTVSPost2010PropOp37
 70
     1
102
RTVSPost2010Prop38
140
0.0
102
RTVSPost2010PropOp38
 70
     1
102
RTVSPost2010Prop39
140
1.0
102
RTVSPost2010PropOp39
 70
     1
102
RTVSPost2010Prop40
 90
        0
102
RTVSPost2010PropOp40
 70
     1
102
RTVSPost2010Prop41ColorIndex
 90
       18
102
RTVSPost2010Prop41ColorRGB
 90
        0
102
RTVSPost2010PropOp41
 70
     1
102
RTVSPost2010Prop42
 90
       50
102
RTVSPost2010PropOp42
 70
     1
102
RTVSPost2010Prop43
 90
        3
102
RTVSPost2010PropOp43
 70
     1
102
RTVSPost2010Prop44ColorIndex
 90
        5
102
RTVSPost2010Prop44ColorRGB
 90
      255
102
RTVSPost2010PropOp44
 70
     1
102
RTVSPost2010Prop45
280
     0
102
RTVSPost2010PropOp45
 70
     1
102
RTVSPost2010Prop46
 90
       50
102
RTVSPost2010PropOp46
 70
     1
102
RTVSPost2010Prop47
 90
       50
102
RTVSPost2010PropOp47
 70
     1
102
RTVSPost2010Prop48
 90
       50
102
RTVSPost2010PropOp48
 70
     1
102
RTVSPost2010Prop49
280
     0
102
RTVSPost2010PropOp49
 70
     1
102
RTVSPost2010Prop50
 90
       50
102
RTVSPost2010PropOp50
 70
     1
102
RTVSPost2010Prop51ColorIndex
 90
      256
102
RTVSPost2010Prop51ColorRGB
 90
-16777216
102
RTVSPost2010PropOp51
 70
     0
102
RTVSPost2010Prop52
140
1.0
102
RTVSPost2010PropOp52
 70
     0
102
RTVSPost2010Prop53
 90
        2
102
RTVSPost2010PropOp53
 70
     1
102
RTVSPost2010Prop54
  1
strokes_ogs.tif
102
RTVSPost2010PropOp54
 70
     1
102
RTVSPost2010Prop55
280
     0
102
RTVSPost2010PropOp55
 70
     1
102
RTVSPost2010Prop56
140
1.0
102
RTVSPost2010PropOp56
 70
     1
102
RTVSPost2010Prop57
140
1.0
102
RTVSPost2010PropOp57
 70
     1
  0
XRECORD
  5
447
102
{ACAD_REACTORS
330
446
102
}
330
446
100
AcDbXrecord
280
     1
102
RTVSPropertyOp0
 70
     1
102
RTVSPropertyOp1
 70
     1
102
RTVSPropertyOp2
 70
     1
102
RTVSPropertyOp3
 70
     1
102
RTVSPropertyOp4
 70
     1
102
RTVSPropertyOp5
 70
     1
102
RTVSPropertyOp6
 70
     1
102
RTVSPropertyOp7
 70
     1
102
RTVSPropertyOp8
 70
     1
102
RTVSPropertyOp9
 70
     1
102
RTVSPropertyOp10
 70
     1
102
RTVSPropertyOp11
 70
     1
102
RTVSPropertyOp12
 70
     1
102
RTVSPropertyOp13
 70
     1
102
RTVSPropertyOp14
 70
     1
102
RTVSPropertyOp15
 70
     1
102
RTVSPropertyOp16
 70
     1
102
RTVSPropertyOp17
 70
     1
102
RTVSPropertyOp18
 70
     1
102
RTVSPropertyOp19
 70
     1
102
RTVSPropertyOp20
 70
     1
102
RTVSPropertyOp21
 70
     1
102
RTVSPropertyOp22
 70
     1
102
RTVSPropertyOp23
 70
     1
102
RTVSPropertyOp24
 70
     1
102
RTVSPropertyOp25
 70
     1
102
RTVSPropertyOp26
 70
     1
102
RTVSPropertyOp27
 70
     1
102
RTVSPropertyOp28
 70
     1
102
RTVSPropertyOp29
 70
     1
102
RTVSPropertyOp30
 70
     1
102
RTVSPropertyOp31
 70
     1
102
RTVSPropertyOp32
 70
     1
102
RTVSPropertyOp33
 70
     1
102
RTVSPropertyOp34
 70
     1
102
RTVSPropertyOp35
 70
     1
102
RTVSPropertyOp36
 70
     1
102
RTVSPropertyOp37
 70
     1
102
RTVSPropertyOp38
 70
     1
102
RTVSPropertyOp39
 70
     1
102
RTVSPropertyOp40
 70
     1
102
RTVSPropertyOp41
 70
     1
102
RTVSPropertyOp42
 70
     1
102
RTVSPropertyOp43
 70
     1
102
RTVSPropertyOp44
 70
     1
102
RTVSPropertyOp45
 70
     1
102
RTVSPropertyOp46
 70
     1
102
RTVSPropertyOp47
 70
     1
102
RTVSPropertyOp48
 70
     1
102
RTVSPropertyOp49
 70
     1
102
RTVSPropertyOp50
 70
     1
102
RTVSPropertyOp51
 70
     0
102
RTVSPropertyOp52
 70
     0
102
RTVSPropertyOp53
 70
     1
102
RTVSPropertyOp54
 70
     1
102
RTVSPropertyOp55
 70
     1
102
RTVSPropertyOp56
 70
     1
102
RTVSPropertyOp57
 70
     1
102
RTVSPost2010Prop28
280
     0
102
RTVSPost2010PropOp28
 70
     1
102
RTVSPost2010Prop29
280
     1
102
RTVSPost2010PropOp29
 70
     1
102
RTVSPost2010Prop30
280
     1
102
RTVSPost2010PropOp30
 70
     1
102
RTVSPost2010Prop31
280
     0
102
RTVSPost2010PropOp31
 70
     1
102
RTVSPost2010Prop32
280
     0
102
RTVSPost2010PropOp32
 70
     1
102
RTVSPost2010Prop33
280
     0
102
RTVSPost2010PropOp33
 70
     1
102
RTVSPost2010Prop34
280
     0
102
RTVSPost2010PropOp34
 70
     1
102
RTVSPost2010Prop35
280
     0
102
RTVSPost2010PropOp35
 70
     1
102
RTVSPost2010Prop36
280
     0
102
RTVSPost2010PropOp36
 70
     1
102
RTVSPost2010Prop37
 90
       50
102
RTVSPost2010PropOp37
 70
     1
102
RTVSPost2010Prop38
140
0.0
102
RTVSPost2010PropOp38
 70
     1
102
RTVSPost2010Prop39
140
1.0
102
RTVSPost2010PropOp39
 70
     1
102
RTVSPost2010Prop40
 90
        0
102
RTVSPost2010PropOp40
 70
     1
102
RTVSPost2010Prop41ColorIndex
 90
       18
102
RTVSPost2010Prop41ColorRGB
 90
        0
102
RTVSPost2010PropOp41
 70
     1
102
RTVSPost2010Prop42
 90
       50
102
RTVSPost2010PropOp42
 70
     1
102
RTVSPost2010Prop43
 90
        3
102
RTVSPost2010PropOp43
 70
     1
102
RTVSPost2010Prop44ColorIndex
 90
        5
102
RTVSPost2010Prop44ColorRGB
 90
      255
102
RTVSPost2010PropOp44
 70
     1
102
RTVSPost2010Prop45
280
     0
102
RTVSPost2010PropOp45
 70
     1
102
RTVSPost2010Prop46
 90
       50
102
RTVSPost2010PropOp46
 70
     1
102
RTVSPost2010Prop47
 90
       50
102
RTVSPost2010PropOp47
 70
     1
102
RTVSPost2010Prop48
 90
       50
102
RTVSPost2010PropOp48
 70
     1
102
RTVSPost2010Prop49
280
     0
102
RTVSPost2010PropOp49
 70
     1
102
RTVSPost2010Prop50
 90
       50
102
RTVSPost2010PropOp50
 70
     1
102
RTVSPost2010Prop51ColorIndex
 90
      256
102
RTVSPost2010Prop51ColorRGB
 90
-16777216
102
RTVSPost2010PropOp51
 70
     0
102
RTVSPost2010Prop52
140
1.0
102
RTVSPost2010PropOp52
 70
     0
102
RTVSPost2010Prop53
 90
        2
102
RTVSPost2010PropOp53
 70
     1
102
RTVSPost2010Prop54
  1
strokes_ogs.tif
102
RTVSPost2010PropOp54
 70
     1
102
RTVSPost2010Prop55
280
     0
102
RTVSPost2010PropOp55
 70
     1
102
RTVSPost2010Prop56
140
1.0
102
RTVSPost2010PropOp56
 70
     1
102
RTVSPost2010Prop57
140
1.0
102
RTVSPost2010PropOp57
 70
     1
  0
XRECORD
  5
457
102
{ACAD_REACTORS
330
456
102
}
330
456
100
AcDbXrecord
280
     1
102
RTVSPropertyOp0
 70
     0
102
RTVSPropertyOp1
 70
     0
102
RTVSPropertyOp2
 70
     0
102
RTVSPropertyOp3
 70
     0
102
RTVSPropertyOp4
 70
     0
102
RTVSPropertyOp5
 70
     0
102
RTVSPropertyOp6
 70
     0
102
RTVSPropertyOp7
 70
     0
102
RTVSPropertyOp8
 70
     0
102
RTVSPropertyOp9
 70
     0
102
RTVSPropertyOp10
 70
     0
102
RTVSPropertyOp11
 70
     0
102
RTVSPropertyOp12
 70
     0
102
RTVSPropertyOp13
 70
     0
102
RTVSPropertyOp14
 70
     2
102
RTVSPropertyOp15
 70
     0
102
RTVSPropertyOp16
 70
     0
102
RTVSPropertyOp17
 70
     0
102
RTVSPropertyOp18
 70
     0
102
RTVSPropertyOp19
 70
     0
102
RTVSPropertyOp20
 70
     0
102
RTVSPropertyOp21
 70
     0
102
RTVSPropertyOp22
 70
     0
102
RTVSPropertyOp23
 70
     0
102
RTVSPropertyOp24
 70
     0
102
RTVSPropertyOp25
 70
     0
102
RTVSPropertyOp26
 70
     0
102
RTVSPropertyOp27
 70
     0
102
RTVSPropertyOp28
 70
     0
102
RTVSPropertyOp29
 70
     0
102
RTVSPropertyOp30
 70
     0
102
RTVSPropertyOp31
 70
     0
102
RTVSPropertyOp32
 70
     0
102
RTVSPropertyOp33
 70
     0
102
RTVSPropertyOp34
 70
     0
102
RTVSPropertyOp35
 70
     0
102
RTVSPropertyOp36
 70
     0
102
RTVSPropertyOp37
 70
     0
102
RTVSPropertyOp38
 70
     0
102
RTVSPropertyOp39
 70
     0
102
RTVSPropertyOp40
 70
     0
102
RTVSPropertyOp41
 70
     0
102
RTVSPropertyOp42
 70
     0
102
RTVSPropertyOp43
 70
     0
102
RTVSPropertyOp44
 70
     0
102
RTVSPropertyOp45
 70
     0
102
RTVSPropertyOp46
 70
     0
102
RTVSPropertyOp47
 70
     0
102
RTVSPropertyOp48
 70
     0
102
RTVSPropertyOp49
 70
     0
102
RTVSPropertyOp50
 70
     0
102
RTVSPropertyOp51
 70
     0
102
RTVSPropertyOp52
 70
     0
102
RTVSPropertyOp53
 70
     0
102
RTVSPropertyOp54
 70
     0
102
RTVSPropertyOp55
 70
     0
102
RTVSPropertyOp56
 70
     0
102
RTVSPropertyOp57
 70
     0
102
RTVSPost2010Prop28
280
     0
102
RTVSPost2010PropOp28
 70
     0
102
RTVSPost2010Prop29
280
     1
102
RTVSPost2010PropOp29
 70
     0
102
RTVSPost2010Prop30
280
     1
102
RTVSPost2010PropOp30
 70
     0
102
RTVSPost2010Prop31
280
     0
102
RTVSPost2010PropOp31
 70
     0
102
RTVSPost2010Prop32
280
     0
102
RTVSPost2010PropOp32
 70
     0
102
RTVSPost2010Prop33
280
     0
102
RTVSPost2010PropOp33
 70
     0
102
RTVSPost2010Prop34
280
     0
102
RTVSPost2010PropOp34
 70
     0
102
RTVSPost2010Prop35
280
     0
102
RTVSPost2010PropOp35
 70
     0
102
RTVSPost2010Prop36
280
     0
102
RTVSPost2010PropOp36
 70
     0
102
RTVSPost2010Prop37
 90
       50
102
RTVSPost2010PropOp37
 70
     0
102
RTVSPost2010Prop38
140
0.0
102
RTVSPost2010PropOp38
 70
     0
102
RTVSPost2010Prop39
140
1.0
102
RTVSPost2010PropOp39
 70
     0
102
RTVSPost2010Prop40
 90
        0
102
RTVSPost2010PropOp40
 70
     0
102
RTVSPost2010Prop41ColorIndex
 90
       18
102
RTVSPost2010Prop41ColorRGB
 90
        0
102
RTVSPost2010PropOp41
 70
     0
102
RTVSPost2010Prop42
 90
       50
102
RTVSPost2010PropOp42
 70
     0
102
RTVSPost2010Prop43
 90
        3
102
RTVSPost2010PropOp43
 70
     0
102
RTVSPost2010Prop44ColorIndex
 90
        5
102
RTVSPost2010Prop44ColorRGB
 90
      255
102
RTVSPost2010PropOp44
 70
     0
102
RTVSPost2010Prop45
280
     0
102
RTVSPost2010PropOp45
 70
     0
102
RTVSPost2010Prop46
 90
       50
102
RTVSPost2010PropOp46
 70
     0
102
RTVSPost2010Prop47
 90
       50
102
RTVSPost2010PropOp47
 70
     0
102
RTVSPost2010Prop48
 90
       50
102
RTVSPost2010PropOp48
 70
     0
102
RTVSPost2010Prop49
280
     0
102
RTVSPost2010PropOp49
 70
     0
102
RTVSPost2010Prop50
 90
       50
102
RTVSPost2010PropOp50
 70
     0
102
RTVSPost2010Prop51ColorIndex
 90
      256
102
RTVSPost2010Prop51ColorRGB
 90
-16777216
102
RTVSPost2010PropOp51
 70
     0
102
RTVSPost2010Prop52
140
1.0
102
RTVSPost2010PropOp52
 70
     0
102
RTVSPost2010Prop53
 90
        2
102
RTVSPost2010PropOp53
 70
     0
102
RTVSPost2010Prop54
  1
strokes_ogs.tif
102
RTVSPost2010PropOp54
 70
     0
102
RTVSPost2010Prop55
280
     0
102
RTVSPost2010PropOp55
 70
     0
102
RTVSPost2010Prop56
140
1.0
102
RTVSPost2010PropOp56
 70
     0
102
RTVSPost2010Prop57
140
1.0
102
RTVSPost2010PropOp57
 70
     0
  0
XRECORD
  5
44F
102
{ACAD_REACTORS
330
44E
102
}
330
44E
100
AcDbXrecord
280
     1
102
RTVSPropertyOp0
 70
     1
102
RTVSPropertyOp1
 70
     1
102
RTVSPropertyOp2
 70
     1
102
RTVSPropertyOp3
 70
     1
102
RTVSPropertyOp4
 70
     1
102
RTVSPropertyOp5
 70
     1
102
RTVSPropertyOp6
 70
     1
102
RTVSPropertyOp7
 70
     1
102
RTVSPropertyOp8
 70
     1
102
RTVSPropertyOp9
 70
     1
102
RTVSPropertyOp10
 70
     1
102
RTVSPropertyOp11
 70
     1
102
RTVSPropertyOp12
 70
     1
102
RTVSPropertyOp13
 70
     1
102
RTVSPropertyOp14
 70
     1
102
RTVSPropertyOp15
 70
     1
102
RTVSPropertyOp16
 70
     1
102
RTVSPropertyOp17
 70
     1
102
RTVSPropertyOp18
 70
     1
102
RTVSPropertyOp19
 70
     1
102
RTVSPropertyOp20
 70
     1
102
RTVSPropertyOp21
 70
     1
102
RTVSPropertyOp22
 70
     1
102
RTVSPropertyOp23
 70
     1
102
RTVSPropertyOp24
 70
     1
102
RTVSPropertyOp25
 70
     1
102
RTVSPropertyOp26
 70
     1
102
RTVSPropertyOp27
 70
     1
102
RTVSPropertyOp28
 70
     1
102
RTVSPropertyOp29
 70
     1
102
RTVSPropertyOp30
 70
     1
102
RTVSPropertyOp31
 70
     1
102
RTVSPropertyOp32
 70
     1
102
RTVSPropertyOp33
 70
     1
102
RTVSPropertyOp34
 70
     1
102
RTVSPropertyOp35
 70
     1
102
RTVSPropertyOp36
 70
     1
102
RTVSPropertyOp37
 70
     1
102
RTVSPropertyOp38
 70
     1
102
RTVSPropertyOp39
 70
     1
102
RTVSPropertyOp40
 70
     1
102
RTVSPropertyOp41
 70
     1
102
RTVSPropertyOp42
 70
     1
102
RTVSPropertyOp43
 70
     1
102
RTVSPropertyOp44
 70
     1
102
RTVSPropertyOp45
 70
     1
102
RTVSPropertyOp46
 70
     1
102
RTVSPropertyOp47
 70
     1
102
RTVSPropertyOp48
 70
     1
102
RTVSPropertyOp49
 70
     1
102
RTVSPropertyOp50
 70
     1
102
RTVSPropertyOp51
 70
     0
102
RTVSPropertyOp52
 70
     0
102
RTVSPropertyOp53
 70
     1
102
RTVSPropertyOp54
 70
     1
102
RTVSPropertyOp55
 70
     1
102
RTVSPropertyOp56
 70
     1
102
RTVSPropertyOp57
 70
     1
102
RTVSPost2010Prop28
280
     0
102
RTVSPost2010PropOp28
 70
     1
102
RTVSPost2010Prop29
280
     1
102
RTVSPost2010PropOp29
 70
     1
102
RTVSPost2010Prop30
280
     1
102
RTVSPost2010PropOp30
 70
     1
102
RTVSPost2010Prop31
280
     0
102
RTVSPost2010PropOp31
 70
     1
102
RTVSPost2010Prop32
280
     0
102
RTVSPost2010PropOp32
 70
     1
102
RTVSPost2010Prop33
280
     0
102
RTVSPost2010PropOp33
 70
     1
102
RTVSPost2010Prop34
280
     0
102
RTVSPost2010PropOp34
 70
     1
102
RTVSPost2010Prop35
280
     0
102
RTVSPost2010PropOp35
 70
     1
102
RTVSPost2010Prop36
280
     0
102
RTVSPost2010PropOp36
 70
     1
102
RTVSPost2010Prop37
 90
       50
102
RTVSPost2010PropOp37
 70
     1
102
RTVSPost2010Prop38
140
0.0
102
RTVSPost2010PropOp38
 70
     1
102
RTVSPost2010Prop39
140
1.0
102
RTVSPost2010PropOp39
 70
     1
102
RTVSPost2010Prop40
 90
        0
102
RTVSPost2010PropOp40
 70
     1
102
RTVSPost2010Prop41ColorIndex
 90
       18
102
RTVSPost2010Prop41ColorRGB
 90
        0
102
RTVSPost2010PropOp41
 70
     1
102
RTVSPost2010Prop42
 90
       50
102
RTVSPost2010PropOp42
 70
     1
102
RTVSPost2010Prop43
 90
        3
102
RTVSPost2010PropOp43
 70
     1
102
RTVSPost2010Prop44ColorIndex
 90
        5
102
RTVSPost2010Prop44ColorRGB
 90
      255
102
RTVSPost2010PropOp44
 70
     1
102
RTVSPost2010Prop45
280
     0
102
RTVSPost2010PropOp45
 70
     1
102
RTVSPost2010Prop46
 90
       50
102
RTVSPost2010PropOp46
 70
     1
102
RTVSPost2010Prop47
 90
       50
102
RTVSPost2010PropOp47
 70
     1
102
RTVSPost2010Prop48
 90
       50
102
RTVSPost2010PropOp48
 70
     1
102
RTVSPost2010Prop49
280
     0
102
RTVSPost2010PropOp49
 70
     1
102
RTVSPost2010Prop50
 90
       50
102
RTVSPost2010PropOp50
 70
     1
102
RTVSPost2010Prop51ColorIndex
 90
      256
102
RTVSPost2010Prop51ColorRGB
 90
-16777216
102
RTVSPost2010PropOp51
 70
     0
102
RTVSPost2010Prop52
140
1.0
102
RTVSPost2010PropOp52
 70
     0
102
RTVSPost2010Prop53
 90
        2
102
RTVSPost2010PropOp53
 70
     1
102
RTVSPost2010Prop54
  1
strokes_ogs.tif
102
RTVSPost2010PropOp54
 70
     1
102
RTVSPost2010Prop55
280
     0
102
RTVSPost2010PropOp55
 70
     1
102
RTVSPost2010Prop56
140
1.0
102
RTVSPost2010PropOp56
 70
     1
102
RTVSPost2010Prop57
140
1.0
102
RTVSPost2010PropOp57
 70
     1
  0
XRECORD
  5
433
102
{ACAD_REACTORS
330
432
102
}
330
432
100
AcDbXrecord
280
     1
102
RTVSPropertyOp0
 70
     1
102
RTVSPropertyOp1
 70
     1
102
RTVSPropertyOp2
 70
     1
102
RTVSPropertyOp3
 70
     1
102
RTVSPropertyOp4
 70
     1
102
RTVSPropertyOp5
 70
     1
102
RTVSPropertyOp6
 70
     1
102
RTVSPropertyOp7
 70
     1
102
RTVSPropertyOp8
 70
     1
102
RTVSPropertyOp9
 70
     1
102
RTVSPropertyOp10
 70
     1
102
RTVSPropertyOp11
 70
     1
102
RTVSPropertyOp12
 70
     1
102
RTVSPropertyOp13
 70
     1
102
RTVSPropertyOp14
 70
     1
102
RTVSPropertyOp15
 70
     1
102
RTVSPropertyOp16
 70
     1
102
RTVSPropertyOp17
 70
     1
102
RTVSPropertyOp18
 70
     1
102
RTVSPropertyOp19
 70
     1
102
RTVSPropertyOp20
 70
     1
102
RTVSPropertyOp21
 70
     1
102
RTVSPropertyOp22
 70
     1
102
RTVSPropertyOp23
 70
     1
102
RTVSPropertyOp24
 70
     1
102
RTVSPropertyOp25
 70
     1
102
RTVSPropertyOp26
 70
     1
102
RTVSPropertyOp27
 70
     1
102
RTVSPropertyOp28
 70
     1
102
RTVSPropertyOp29
 70
     1
102
RTVSPropertyOp30
 70
     1
102
RTVSPropertyOp31
 70
     1
102
RTVSPropertyOp32
 70
     1
102
RTVSPropertyOp33
 70
     1
102
RTVSPropertyOp34
 70
     1
102
RTVSPropertyOp35
 70
     1
102
RTVSPropertyOp36
 70
     1
102
RTVSPropertyOp37
 70
     1
102
RTVSPropertyOp38
 70
     1
102
RTVSPropertyOp39
 70
     1
102
RTVSPropertyOp40
 70
     1
102
RTVSPropertyOp41
 70
     1
102
RTVSPropertyOp42
 70
     1
102
RTVSPropertyOp43
 70
     1
102
RTVSPropertyOp44
 70
     1
102
RTVSPropertyOp45
 70
     1
102
RTVSPropertyOp46
 70
     1
102
RTVSPropertyOp47
 70
     1
102
RTVSPropertyOp48
 70
     1
102
RTVSPropertyOp49
 70
     1
102
RTVSPropertyOp50
 70
     1
102
RTVSPropertyOp51
 70
     0
102
RTVSPropertyOp52
 70
     0
102
RTVSPropertyOp53
 70
     1
102
RTVSPropertyOp54
 70
     1
102
RTVSPropertyOp55
 70
     1
102
RTVSPropertyOp56
 70
     1
102
RTVSPropertyOp57
 70
     1
102
RTVSPost2010Prop28
280
     0
102
RTVSPost2010PropOp28
 70
     1
102
RTVSPost2010Prop29
280
     1
102
RTVSPost2010PropOp29
 70
     1
102
RTVSPost2010Prop30
280
     1
102
RTVSPost2010PropOp30
 70
     1
102
RTVSPost2010Prop31
280
     0
102
RTVSPost2010PropOp31
 70
     1
102
RTVSPost2010Prop32
280
     0
102
RTVSPost2010PropOp32
 70
     1
102
RTVSPost2010Prop33
280
     0
102
RTVSPost2010PropOp33
 70
     1
102
RTVSPost2010Prop34
280
     0
102
RTVSPost2010PropOp34
 70
     1
102
RTVSPost2010Prop35
280
     0
102
RTVSPost2010PropOp35
 70
     1
102
RTVSPost2010Prop36
280
     0
102
RTVSPost2010PropOp36
 70
     1
102
RTVSPost2010Prop37
 90
       50
102
RTVSPost2010PropOp37
 70
     1
102
RTVSPost2010Prop38
140
0.0
102
RTVSPost2010PropOp38
 70
     1
102
RTVSPost2010Prop39
140
1.0
102
RTVSPost2010PropOp39
 70
     1
102
RTVSPost2010Prop40
 90
        0
102
RTVSPost2010PropOp40
 70
     1
102
RTVSPost2010Prop41ColorIndex
 90
       18
102
RTVSPost2010Prop41ColorRGB
 90
        0
102
RTVSPost2010PropOp41
 70
     1
102
RTVSPost2010Prop42
 90
       50
102
RTVSPost2010PropOp42
 70
     1
102
RTVSPost2010Prop43
 90
        3
102
RTVSPost2010PropOp43
 70
     1
102
RTVSPost2010Prop44ColorIndex
 90
        5
102
RTVSPost2010Prop44ColorRGB
 90
      255
102
RTVSPost2010PropOp44
 70
     1
102
RTVSPost2010Prop45
280
     0
102
RTVSPost2010PropOp45
 70
     1
102
RTVSPost2010Prop46
 90
       50
102
RTVSPost2010PropOp46
 70
     1
102
RTVSPost2010Prop47
 90
       50
102
RTVSPost2010PropOp47
 70
     1
102
RTVSPost2010Prop48
 90
       50
102
RTVSPost2010PropOp48
 70
     1
102
RTVSPost2010Prop49
280
     0
102
RTVSPost2010PropOp49
 70
     1
102
RTVSPost2010Prop50
 90
       50
102
RTVSPost2010PropOp50
 70
     1
102
RTVSPost2010Prop51ColorIndex
 90
      256
102
RTVSPost2010Prop51ColorRGB
 90
-16777216
102
RTVSPost2010PropOp51
 70
     0
102
RTVSPost2010Prop52
140
1.0
102
RTVSPost2010PropOp52
 70
     0
102
RTVSPost2010Prop53
 90
        2
102
RTVSPost2010PropOp53
 70
     1
102
RTVSPost2010Prop54
  1
strokes_ogs.tif
102
RTVSPost2010PropOp54
 70
     1
102
RTVSPost2010Prop55
280
     0
102
RTVSPost2010PropOp55
 70
     1
102
RTVSPost2010Prop56
140
1.0
102
RTVSPost2010PropOp56
 70
     1
102
RTVSPost2010Prop57
140
1.0
102
RTVSPost2010PropOp57
 70
     1
  0
XRECORD
  5
435
102
{ACAD_REACTORS
330
434
102
}
330
434
100
AcDbXrecord
280
     1
102
RTVSPropertyOp0
 70
     1
102
RTVSPropertyOp1
 70
     1
102
RTVSPropertyOp2
 70
     1
102
RTVSPropertyOp3
 70
     1
102
RTVSPropertyOp4
 70
     1
102
RTVSPropertyOp5
 70
     1
102
RTVSPropertyOp6
 70
     1
102
RTVSPropertyOp7
 70
     1
102
RTVSPropertyOp8
 70
     1
102
RTVSPropertyOp9
 70
     1
102
RTVSPropertyOp10
 70
     1
102
RTVSPropertyOp11
 70
     1
102
RTVSPropertyOp12
 70
     1
102
RTVSPropertyOp13
 70
     1
102
RTVSPropertyOp14
 70
     1
102
RTVSPropertyOp15
 70
     1
102
RTVSPropertyOp16
 70
     1
102
RTVSPropertyOp17
 70
     1
102
RTVSPropertyOp18
 70
     1
102
RTVSPropertyOp19
 70
     1
102
RTVSPropertyOp20
 70
     1
102
RTVSPropertyOp21
 70
     1
102
RTVSPropertyOp22
 70
     1
102
RTVSPropertyOp23
 70
     1
102
RTVSPropertyOp24
 70
     1
102
RTVSPropertyOp25
 70
     1
102
RTVSPropertyOp26
 70
     1
102
RTVSPropertyOp27
 70
     1
102
RTVSPropertyOp28
 70
     1
102
RTVSPropertyOp29
 70
     1
102
RTVSPropertyOp30
 70
     1
102
RTVSPropertyOp31
 70
     1
102
RTVSPropertyOp32
 70
     1
102
RTVSPropertyOp33
 70
     1
102
RTVSPropertyOp34
 70
     1
102
RTVSPropertyOp35
 70
     1
102
RTVSPropertyOp36
 70
     1
102
RTVSPropertyOp37
 70
     1
102
RTVSPropertyOp38
 70
     1
102
RTVSPropertyOp39
 70
     1
102
RTVSPropertyOp40
 70
     1
102
RTVSPropertyOp41
 70
     1
102
RTVSPropertyOp42
 70
     1
102
RTVSPropertyOp43
 70
     1
102
RTVSPropertyOp44
 70
     1
102
RTVSPropertyOp45
 70
     1
102
RTVSPropertyOp46
 70
     1
102
RTVSPropertyOp47
 70
     1
102
RTVSPropertyOp48
 70
     1
102
RTVSPropertyOp49
 70
     1
102
RTVSPropertyOp50
 70
     1
102
RTVSPropertyOp51
 70
     0
102
RTVSPropertyOp52
 70
     0
102
RTVSPropertyOp53
 70
     1
102
RTVSPropertyOp54
 70
     1
102
RTVSPropertyOp55
 70
     1
102
RTVSPropertyOp56
 70
     1
102
RTVSPropertyOp57
 70
     1
102
RTVSPost2010Prop28
280
     0
102
RTVSPost2010PropOp28
 70
     1
102
RTVSPost2010Prop29
280
     1
102
RTVSPost2010PropOp29
 70
     1
102
RTVSPost2010Prop30
280
     1
102
RTVSPost2010PropOp30
 70
     1
102
RTVSPost2010Prop31
280
     0
102
RTVSPost2010PropOp31
 70
     1
102
RTVSPost2010Prop32
280
     0
102
RTVSPost2010PropOp32
 70
     1
102
RTVSPost2010Prop33
280
     0
102
RTVSPost2010PropOp33
 70
     1
102
RTVSPost2010Prop34
280
     0
102
RTVSPost2010PropOp34
 70
     1
102
RTVSPost2010Prop35
280
     0
102
RTVSPost2010PropOp35
 70
     1
102
RTVSPost2010Prop36
280
     0
102
RTVSPost2010PropOp36
 70
     1
102
RTVSPost2010Prop37
 90
       50
102
RTVSPost2010PropOp37
 70
     1
102
RTVSPost2010Prop38
140
0.0
102
RTVSPost2010PropOp38
 70
     1
102
RTVSPost2010Prop39
140
1.0
102
RTVSPost2010PropOp39
 70
     1
102
RTVSPost2010Prop40
 90
        0
102
RTVSPost2010PropOp40
 70
     1
102
RTVSPost2010Prop41ColorIndex
 90
       18
102
RTVSPost2010Prop41ColorRGB
 90
        0
102
RTVSPost2010PropOp41
 70
     1
102
RTVSPost2010Prop42
 90
       50
102
RTVSPost2010PropOp42
 70
     1
102
RTVSPost2010Prop43
 90
        3
102
RTVSPost2010PropOp43
 70
     1
102
RTVSPost2010Prop44ColorIndex
 90
        5
102
RTVSPost2010Prop44ColorRGB
 90
      255
102
RTVSPost2010PropOp44
 70
     1
102
RTVSPost2010Prop45
280
     0
102
RTVSPost2010PropOp45
 70
     1
102
RTVSPost2010Prop46
 90
       50
102
RTVSPost2010PropOp46
 70
     1
102
RTVSPost2010Prop47
 90
       50
102
RTVSPost2010PropOp47
 70
     1
102
RTVSPost2010Prop48
 90
       50
102
RTVSPost2010PropOp48
 70
     1
102
RTVSPost2010Prop49
280
     0
102
RTVSPost2010PropOp49
 70
     1
102
RTVSPost2010Prop50
 90
       50
102
RTVSPost2010PropOp50
 70
     1
102
RTVSPost2010Prop51ColorIndex
 90
      256
102
RTVSPost2010Prop51ColorRGB
 90
-16777216
102
RTVSPost2010PropOp51
 70
     0
102
RTVSPost2010Prop52
140
1.0
102
RTVSPost2010PropOp52
 70
     0
102
RTVSPost2010Prop53
 90
        2
102
RTVSPost2010PropOp53
 70
     1
102
RTVSPost2010Prop54
  1
strokes_ogs.tif
102
RTVSPost2010PropOp54
 70
     1
102
RTVSPost2010Prop55
280
     0
102
RTVSPost2010PropOp55
 70
     1
102
RTVSPost2010Prop56
140
1.0
102
RTVSPost2010PropOp56
 70
     1
102
RTVSPost2010Prop57
140
1.0
102
RTVSPost2010PropOp57
 70
     1
  0
XRECORD
  5
437
102
{ACAD_REACTORS
330
436
102
}
330
436
100
AcDbXrecord
280
     1
102
RTVSPropertyOp0
 70
     1
102
RTVSPropertyOp1
 70
     1
102
RTVSPropertyOp2
 70
     1
102
RTVSPropertyOp3
 70
     1
102
RTVSPropertyOp4
 70
     1
102
RTVSPropertyOp5
 70
     1
102
RTVSPropertyOp6
 70
     1
102
RTVSPropertyOp7
 70
     1
102
RTVSPropertyOp8
 70
     1
102
RTVSPropertyOp9
 70
     1
102
RTVSPropertyOp10
 70
     1
102
RTVSPropertyOp11
 70
     1
102
RTVSPropertyOp12
 70
     1
102
RTVSPropertyOp13
 70
     1
102
RTVSPropertyOp14
 70
     1
102
RTVSPropertyOp15
 70
     1
102
RTVSPropertyOp16
 70
     1
102
RTVSPropertyOp17
 70
     1
102
RTVSPropertyOp18
 70
     1
102
RTVSPropertyOp19
 70
     1
102
RTVSPropertyOp20
 70
     1
102
RTVSPropertyOp21
 70
     1
102
RTVSPropertyOp22
 70
     1
102
RTVSPropertyOp23
 70
     1
102
RTVSPropertyOp24
 70
     1
102
RTVSPropertyOp25
 70
     1
102
RTVSPropertyOp26
 70
     1
102
RTVSPropertyOp27
 70
     1
102
RTVSPropertyOp28
 70
     1
102
RTVSPropertyOp29
 70
     1
102
RTVSPropertyOp30
 70
     1
102
RTVSPropertyOp31
 70
     1
102
RTVSPropertyOp32
 70
     1
102
RTVSPropertyOp33
 70
     1
102
RTVSPropertyOp34
 70
     1
102
RTVSPropertyOp35
 70
     1
102
RTVSPropertyOp36
 70
     1
102
RTVSPropertyOp37
 70
     1
102
RTVSPropertyOp38
 70
     1
102
RTVSPropertyOp39
 70
     1
102
RTVSPropertyOp40
 70
     1
102
RTVSPropertyOp41
 70
     1
102
RTVSPropertyOp42
 70
     1
102
RTVSPropertyOp43
 70
     1
102
RTVSPropertyOp44
 70
     1
102
RTVSPropertyOp45
 70
     1
102
RTVSPropertyOp46
 70
     1
102
RTVSPropertyOp47
 70
     1
102
RTVSPropertyOp48
 70
     1
102
RTVSPropertyOp49
 70
     1
102
RTVSPropertyOp50
 70
     1
102
RTVSPropertyOp51
 70
     0
102
RTVSPropertyOp52
 70
     0
102
RTVSPropertyOp53
 70
     1
102
RTVSPropertyOp54
 70
     1
102
RTVSPropertyOp55
 70
     1
102
RTVSPropertyOp56
 70
     1
102
RTVSPropertyOp57
 70
     1
102
RTVSPost2010Prop28
280
     0
102
RTVSPost2010PropOp28
 70
     1
102
RTVSPost2010Prop29
280
     1
102
RTVSPost2010PropOp29
 70
     1
102
RTVSPost2010Prop30
280
     1
102
RTVSPost2010PropOp30
 70
     1
102
RTVSPost2010Prop31
280
     0
102
RTVSPost2010PropOp31
 70
     1
102
RTVSPost2010Prop32
280
     0
102
RTVSPost2010PropOp32
 70
     1
102
RTVSPost2010Prop33
280
     0
102
RTVSPost2010PropOp33
 70
     1
102
RTVSPost2010Prop34
280
     0
102
RTVSPost2010PropOp34
 70
     1
102
RTVSPost2010Prop35
280
     0
102
RTVSPost2010PropOp35
 70
     1
102
RTVSPost2010Prop36
280
     0
102
RTVSPost2010PropOp36
 70
     1
102
RTVSPost2010Prop37
 90
       50
102
RTVSPost2010PropOp37
 70
     1
102
RTVSPost2010Prop38
140
0.0
102
RTVSPost2010PropOp38
 70
     1
102
RTVSPost2010Prop39
140
1.0
102
RTVSPost2010PropOp39
 70
     1
102
RTVSPost2010Prop40
 90
        0
102
RTVSPost2010PropOp40
 70
     1
102
RTVSPost2010Prop41ColorIndex
 90
       18
102
RTVSPost2010Prop41ColorRGB
 90
        0
102
RTVSPost2010PropOp41
 70
     1
102
RTVSPost2010Prop42
 90
       50
102
RTVSPost2010PropOp42
 70
     1
102
RTVSPost2010Prop43
 90
        3
102
RTVSPost2010PropOp43
 70
     1
102
RTVSPost2010Prop44ColorIndex
 90
        5
102
RTVSPost2010Prop44ColorRGB
 90
      255
102
RTVSPost2010PropOp44
 70
     1
102
RTVSPost2010Prop45
280
     0
102
RTVSPost2010PropOp45
 70
     1
102
RTVSPost2010Prop46
 90
       50
102
RTVSPost2010PropOp46
 70
     1
102
RTVSPost2010Prop47
 90
       50
102
RTVSPost2010PropOp47
 70
     1
102
RTVSPost2010Prop48
 90
       50
102
RTVSPost2010PropOp48
 70
     1
102
RTVSPost2010Prop49
280
     0
102
RTVSPost2010PropOp49
 70
     1
102
RTVSPost2010Prop50
 90
       50
102
RTVSPost2010PropOp50
 70
     1
102
RTVSPost2010Prop51ColorIndex
 90
      256
102
RTVSPost2010Prop51ColorRGB
 90
-16777216
102
RTVSPost2010PropOp51
 70
     0
102
RTVSPost2010Prop52
140
1.0
102
RTVSPost2010PropOp52
 70
     0
102
RTVSPost2010Prop53
 90
        2
102
RTVSPost2010PropOp53
 70
     1
102
RTVSPost2010Prop54
  1
strokes_ogs.tif
102
RTVSPost2010PropOp54
 70
     1
102
RTVSPost2010Prop55
280
     0
102
RTVSPost2010PropOp55
 70
     1
102
RTVSPost2010Prop56
140
1.0
102
RTVSPost2010PropOp56
 70
     1
102
RTVSPost2010Prop57
140
1.0
102
RTVSPost2010PropOp57
 70
     1
  0
XRECORD
  5
439
102
{ACAD_REACTORS
330
438
102
}
330
438
100
AcDbXrecord
280
     1
102
RTVSPropertyOp0
 70
     1
102
RTVSPropertyOp1
 70
     1
102
RTVSPropertyOp2
 70
     1
102
RTVSPropertyOp3
 70
     1
102
RTVSPropertyOp4
 70
     1
102
RTVSPropertyOp5
 70
     1
102
RTVSPropertyOp6
 70
     1
102
RTVSPropertyOp7
 70
     1
102
RTVSPropertyOp8
 70
     1
102
RTVSPropertyOp9
 70
     1
102
RTVSPropertyOp10
 70
     1
102
RTVSPropertyOp11
 70
     1
102
RTVSPropertyOp12
 70
     1
102
RTVSPropertyOp13
 70
     1
102
RTVSPropertyOp14
 70
     1
102
RTVSPropertyOp15
 70
     1
102
RTVSPropertyOp16
 70
     1
102
RTVSPropertyOp17
 70
     1
102
RTVSPropertyOp18
 70
     1
102
RTVSPropertyOp19
 70
     1
102
RTVSPropertyOp20
 70
     1
102
RTVSPropertyOp21
 70
     1
102
RTVSPropertyOp22
 70
     1
102
RTVSPropertyOp23
 70
     1
102
RTVSPropertyOp24
 70
     1
102
RTVSPropertyOp25
 70
     1
102
RTVSPropertyOp26
 70
     1
102
RTVSPropertyOp27
 70
     1
102
RTVSPropertyOp28
 70
     1
102
RTVSPropertyOp29
 70
     1
102
RTVSPropertyOp30
 70
     1
102
RTVSPropertyOp31
 70
     1
102
RTVSPropertyOp32
 70
     1
102
RTVSPropertyOp33
 70
     1
102
RTVSPropertyOp34
 70
     1
102
RTVSPropertyOp35
 70
     1
102
RTVSPropertyOp36
 70
     1
102
RTVSPropertyOp37
 70
     1
102
RTVSPropertyOp38
 70
     1
102
RTVSPropertyOp39
 70
     1
102
RTVSPropertyOp40
 70
     1
102
RTVSPropertyOp41
 70
     1
102
RTVSPropertyOp42
 70
     1
102
RTVSPropertyOp43
 70
     1
102
RTVSPropertyOp44
 70
     1
102
RTVSPropertyOp45
 70
     1
102
RTVSPropertyOp46
 70
     1
102
RTVSPropertyOp47
 70
     1
102
RTVSPropertyOp48
 70
     1
102
RTVSPropertyOp49
 70
     1
102
RTVSPropertyOp50
 70
     1
102
RTVSPropertyOp51
 70
     0
102
RTVSPropertyOp52
 70
     0
102
RTVSPropertyOp53
 70
     1
102
RTVSPropertyOp54
 70
     1
102
RTVSPropertyOp55
 70
     1
102
RTVSPropertyOp56
 70
     1
102
RTVSPropertyOp57
 70
     1
102
RTVSPost2010Prop28
280
     0
102
RTVSPost2010PropOp28
 70
     1
102
RTVSPost2010Prop29
280
     1
102
RTVSPost2010PropOp29
 70
     1
102
RTVSPost2010Prop30
280
     1
102
RTVSPost2010PropOp30
 70
     1
102
RTVSPost2010Prop31
280
     0
102
RTVSPost2010PropOp31
 70
     1
102
RTVSPost2010Prop32
280
     0
102
RTVSPost2010PropOp32
 70
     1
102
RTVSPost2010Prop33
280
     0
102
RTVSPost2010PropOp33
 70
     1
102
RTVSPost2010Prop34
280
     0
102
RTVSPost2010PropOp34
 70
     1
102
RTVSPost2010Prop35
280
     0
102
RTVSPost2010PropOp35
 70
     1
102
RTVSPost2010Prop36
280
     0
102
RTVSPost2010PropOp36
 70
     1
102
RTVSPost2010Prop37
 90
       50
102
RTVSPost2010PropOp37
 70
     1
102
RTVSPost2010Prop38
140
0.0
102
RTVSPost2010PropOp38
 70
     1
102
RTVSPost2010Prop39
140
1.0
102
RTVSPost2010PropOp39
 70
     1
102
RTVSPost2010Prop40
 90
        0
102
RTVSPost2010PropOp40
 70
     1
102
RTVSPost2010Prop41ColorIndex
 90
       18
102
RTVSPost2010Prop41ColorRGB
 90
        0
102
RTVSPost2010PropOp41
 70
     1
102
RTVSPost2010Prop42
 90
       50
102
RTVSPost2010PropOp42
 70
     1
102
RTVSPost2010Prop43
 90
        3
102
RTVSPost2010PropOp43
 70
     1
102
RTVSPost2010Prop44ColorIndex
 90
        5
102
RTVSPost2010Prop44ColorRGB
 90
      255
102
RTVSPost2010PropOp44
 70
     1
102
RTVSPost2010Prop45
280
     0
102
RTVSPost2010PropOp45
 70
     1
102
RTVSPost2010Prop46
 90
       50
102
RTVSPost2010PropOp46
 70
     1
102
RTVSPost2010Prop47
 90
       50
102
RTVSPost2010PropOp47
 70
     1
102
RTVSPost2010Prop48
 90
       50
102
RTVSPost2010PropOp48
 70
     1
102
RTVSPost2010Prop49
280
     0
102
RTVSPost2010PropOp49
 70
     1
102
RTVSPost2010Prop50
 90
       50
102
RTVSPost2010PropOp50
 70
     1
102
RTVSPost2010Prop51ColorIndex
 90
      256
102
RTVSPost2010Prop51ColorRGB
 90
-16777216
102
RTVSPost2010PropOp51
 70
     0
102
RTVSPost2010Prop52
140
1.0
102
RTVSPost2010PropOp52
 70
     0
102
RTVSPost2010Prop53
 90
        2
102
RTVSPost2010PropOp53
 70
     1
102
RTVSPost2010Prop54
  1
strokes_ogs.tif
102
RTVSPost2010PropOp54
 70
     1
102
RTVSPost2010Prop55
280
     0
102
RTVSPost2010PropOp55
 70
     1
102
RTVSPost2010Prop56
140
1.0
102
RTVSPost2010PropOp56
 70
     1
102
RTVSPost2010Prop57
140
1.0
102
RTVSPost2010PropOp57
 70
     1
  0
XRECORD
  5
43F
102
{ACAD_REACTORS
330
43E
102
}
330
43E
100
AcDbXrecord
280
     1
102
RTVSPropertyOp0
 70
     1
102
RTVSPropertyOp1
 70
     1
102
RTVSPropertyOp2
 70
     1
102
RTVSPropertyOp3
 70
     1
102
RTVSPropertyOp4
 70
     1
102
RTVSPropertyOp5
 70
     1
102
RTVSPropertyOp6
 70
     1
102
RTVSPropertyOp7
 70
     1
102
RTVSPropertyOp8
 70
     1
102
RTVSPropertyOp9
 70
     1
102
RTVSPropertyOp10
 70
     1
102
RTVSPropertyOp11
 70
     1
102
RTVSPropertyOp12
 70
     1
102
RTVSPropertyOp13
 70
     1
102
RTVSPropertyOp14
 70
     1
102
RTVSPropertyOp15
 70
     1
102
RTVSPropertyOp16
 70
     1
102
RTVSPropertyOp17
 70
     1
102
RTVSPropertyOp18
 70
     1
102
RTVSPropertyOp19
 70
     1
102
RTVSPropertyOp20
 70
     1
102
RTVSPropertyOp21
 70
     1
102
RTVSPropertyOp22
 70
     1
102
RTVSPropertyOp23
 70
     1
102
RTVSPropertyOp24
 70
     1
102
RTVSPropertyOp25
 70
     1
102
RTVSPropertyOp26
 70
     1
102
RTVSPropertyOp27
 70
     1
102
RTVSPropertyOp28
 70
     1
102
RTVSPropertyOp29
 70
     1
102
RTVSPropertyOp30
 70
     1
102
RTVSPropertyOp31
 70
     1
102
RTVSPropertyOp32
 70
     1
102
RTVSPropertyOp33
 70
     1
102
RTVSPropertyOp34
 70
     1
102
RTVSPropertyOp35
 70
     1
102
RTVSPropertyOp36
 70
     1
102
RTVSPropertyOp37
 70
     1
102
RTVSPropertyOp38
 70
     1
102
RTVSPropertyOp39
 70
     1
102
RTVSPropertyOp40
 70
     1
102
RTVSPropertyOp41
 70
     1
102
RTVSPropertyOp42
 70
     1
102
RTVSPropertyOp43
 70
     1
102
RTVSPropertyOp44
 70
     1
102
RTVSPropertyOp45
 70
     1
102
RTVSPropertyOp46
 70
     1
102
RTVSPropertyOp47
 70
     1
102
RTVSPropertyOp48
 70
     1
102
RTVSPropertyOp49
 70
     1
102
RTVSPropertyOp50
 70
     1
102
RTVSPropertyOp51
 70
     0
102
RTVSPropertyOp52
 70
     0
102
RTVSPropertyOp53
 70
     1
102
RTVSPropertyOp54
 70
     1
102
RTVSPropertyOp55
 70
     1
102
RTVSPropertyOp56
 70
     1
102
RTVSPropertyOp57
 70
     1
102
RTVSPost2010Prop28
280
     0
102
RTVSPost2010PropOp28
 70
     1
102
RTVSPost2010Prop29
280
     1
102
RTVSPost2010PropOp29
 70
     1
102
RTVSPost2010Prop30
280
     1
102
RTVSPost2010PropOp30
 70
     1
102
RTVSPost2010Prop31
280
     0
102
RTVSPost2010PropOp31
 70
     1
102
RTVSPost2010Prop32
280
     0
102
RTVSPost2010PropOp32
 70
     1
102
RTVSPost2010Prop33
280
     0
102
RTVSPost2010PropOp33
 70
     1
102
RTVSPost2010Prop34
280
     0
102
RTVSPost2010PropOp34
 70
     1
102
RTVSPost2010Prop35
280
     0
102
RTVSPost2010PropOp35
 70
     1
102
RTVSPost2010Prop36
280
     0
102
RTVSPost2010PropOp36
 70
     1
102
RTVSPost2010Prop37
 90
       50
102
RTVSPost2010PropOp37
 70
     1
102
RTVSPost2010Prop38
140
0.0
102
RTVSPost2010PropOp38
 70
     1
102
RTVSPost2010Prop39
140
1.0
102
RTVSPost2010PropOp39
 70
     1
102
RTVSPost2010Prop40
 90
        0
102
RTVSPost2010PropOp40
 70
     1
102
RTVSPost2010Prop41ColorIndex
 90
       18
102
RTVSPost2010Prop41ColorRGB
 90
        0
102
RTVSPost2010PropOp41
 70
     1
102
RTVSPost2010Prop42
 90
       50
102
RTVSPost2010PropOp42
 70
     1
102
RTVSPost2010Prop43
 90
        3
102
RTVSPost2010PropOp43
 70
     1
102
RTVSPost2010Prop44ColorIndex
 90
        5
102
RTVSPost2010Prop44ColorRGB
 90
      255
102
RTVSPost2010PropOp44
 70
     1
102
RTVSPost2010Prop45
280
     0
102
RTVSPost2010PropOp45
 70
     1
102
RTVSPost2010Prop46
 90
       50
102
RTVSPost2010PropOp46
 70
     1
102
RTVSPost2010Prop47
 90
       50
102
RTVSPost2010PropOp47
 70
     1
102
RTVSPost2010Prop48
 90
       50
102
RTVSPost2010PropOp48
 70
     1
102
RTVSPost2010Prop49
280
     0
102
RTVSPost2010PropOp49
 70
     1
102
RTVSPost2010Prop50
 90
       50
102
RTVSPost2010PropOp50
 70
     1
102
RTVSPost2010Prop51ColorIndex
 90
      256
102
RTVSPost2010Prop51ColorRGB
 90
-16777216
102
RTVSPost2010PropOp51
 70
     0
102
RTVSPost2010Prop52
140
1.0
102
RTVSPost2010PropOp52
 70
     0
102
RTVSPost2010Prop53
 90
        2
102
RTVSPost2010PropOp53
 70
     1
102
RTVSPost2010Prop54
  1
strokes_ogs.tif
102
RTVSPost2010PropOp54
 70
     1
102
RTVSPost2010Prop55
280
     0
102
RTVSPost2010PropOp55
 70
     1
102
RTVSPost2010Prop56
140
1.0
102
RTVSPost2010PropOp56
 70
     1
102
RTVSPost2010Prop57
140
1.0
102
RTVSPost2010PropOp57
 70
     1
  0
XRECORD
  5
453
102
{ACAD_REACTORS
330
452
102
}
330
452
100
AcDbXrecord
280
     1
102
RTVSPropertyOp0
 70
     0
102
RTVSPropertyOp1
 70
     0
102
RTVSPropertyOp2
 70
     0
102
RTVSPropertyOp3
 70
     0
102
RTVSPropertyOp4
 70
     0
102
RTVSPropertyOp5
 70
     0
102
RTVSPropertyOp6
 70
     0
102
RTVSPropertyOp7
 70
     0
102
RTVSPropertyOp8
 70
     0
102
RTVSPropertyOp9
 70
     0
102
RTVSPropertyOp10
 70
     0
102
RTVSPropertyOp11
 70
     0
102
RTVSPropertyOp12
 70
     0
102
RTVSPropertyOp13
 70
     0
102
RTVSPropertyOp14
 70
     2
102
RTVSPropertyOp15
 70
     0
102
RTVSPropertyOp16
 70
     0
102
RTVSPropertyOp17
 70
     0
102
RTVSPropertyOp18
 70
     0
102
RTVSPropertyOp19
 70
     0
102
RTVSPropertyOp20
 70
     0
102
RTVSPropertyOp21
 70
     0
102
RTVSPropertyOp22
 70
     0
102
RTVSPropertyOp23
 70
     0
102
RTVSPropertyOp24
 70
     0
102
RTVSPropertyOp25
 70
     0
102
RTVSPropertyOp26
 70
     0
102
RTVSPropertyOp27
 70
     0
102
RTVSPropertyOp28
 70
     0
102
RTVSPropertyOp29
 70
     0
102
RTVSPropertyOp30
 70
     0
102
RTVSPropertyOp31
 70
     0
102
RTVSPropertyOp32
 70
     0
102
RTVSPropertyOp33
 70
     0
102
RTVSPropertyOp34
 70
     0
102
RTVSPropertyOp35
 70
     0
102
RTVSPropertyOp36
 70
     0
102
RTVSPropertyOp37
 70
     0
102
RTVSPropertyOp38
 70
     0
102
RTVSPropertyOp39
 70
     0
102
RTVSPropertyOp40
 70
     0
102
RTVSPropertyOp41
 70
     0
102
RTVSPropertyOp42
 70
     0
102
RTVSPropertyOp43
 70
     0
102
RTVSPropertyOp44
 70
     0
102
RTVSPropertyOp45
 70
     0
102
RTVSPropertyOp46
 70
     0
102
RTVSPropertyOp47
 70
     0
102
RTVSPropertyOp48
 70
     0
102
RTVSPropertyOp49
 70
     0
102
RTVSPropertyOp50
 70
     0
102
RTVSPropertyOp51
 70
     0
102
RTVSPropertyOp52
 70
     0
102
RTVSPropertyOp53
 70
     0
102
RTVSPropertyOp54
 70
     0
102
RTVSPropertyOp55
 70
     0
102
RTVSPropertyOp56
 70
     0
102
RTVSPropertyOp57
 70
     0
102
RTVSPost2010Prop28
280
     0
102
RTVSPost2010PropOp28
 70
     0
102
RTVSPost2010Prop29
280
     1
102
RTVSPost2010PropOp29
 70
     0
102
RTVSPost2010Prop30
280
     1
102
RTVSPost2010PropOp30
 70
     0
102
RTVSPost2010Prop31
280
     0
102
RTVSPost2010PropOp31
 70
     0
102
RTVSPost2010Prop32
280
     0
102
RTVSPost2010PropOp32
 70
     0
102
RTVSPost2010Prop33
280
     0
102
RTVSPost2010PropOp33
 70
     0
102
RTVSPost2010Prop34
280
     0
102
RTVSPost2010PropOp34
 70
     0
102
RTVSPost2010Prop35
280
     0
102
RTVSPost2010PropOp35
 70
     0
102
RTVSPost2010Prop36
280
     0
102
RTVSPost2010PropOp36
 70
     0
102
RTVSPost2010Prop37
 90
       50
102
RTVSPost2010PropOp37
 70
     0
102
RTVSPost2010Prop38
140
0.0
102
RTVSPost2010PropOp38
 70
     0
102
RTVSPost2010Prop39
140
1.0
102
RTVSPost2010PropOp39
 70
     0
102
RTVSPost2010Prop40
 90
        0
102
RTVSPost2010PropOp40
 70
     0
102
RTVSPost2010Prop41ColorIndex
 90
       18
102
RTVSPost2010Prop41ColorRGB
 90
        0
102
RTVSPost2010PropOp41
 70
     0
102
RTVSPost2010Prop42
 90
       50
102
RTVSPost2010PropOp42
 70
     0
102
RTVSPost2010Prop43
 90
        3
102
RTVSPost2010PropOp43
 70
     0
102
RTVSPost2010Prop44ColorIndex
 90
        5
102
RTVSPost2010Prop44ColorRGB
 90
      255
102
RTVSPost2010PropOp44
 70
     0
102
RTVSPost2010Prop45
280
     0
102
RTVSPost2010PropOp45
 70
     0
102
RTVSPost2010Prop46
 90
       50
102
RTVSPost2010PropOp46
 70
     0
102
RTVSPost2010Prop47
 90
       50
102
RTVSPost2010PropOp47
 70
     0
102
RTVSPost2010Prop48
 90
       50
102
RTVSPost2010PropOp48
 70
     0
102
RTVSPost2010Prop49
280
     0
102
RTVSPost2010PropOp49
 70
     0
102
RTVSPost2010Prop50
 90
       50
102
RTVSPost2010PropOp50
 70
     0
102
RTVSPost2010Prop51ColorIndex
 90
      256
102
RTVSPost2010Prop51ColorRGB
 90
-16777216
102
RTVSPost2010PropOp51
 70
     0
102
RTVSPost2010Prop52
140
1.0
102
RTVSPost2010PropOp52
 70
     0
102
RTVSPost2010Prop53
 90
        2
102
RTVSPost2010PropOp53
 70
     0
102
RTVSPost2010Prop54
  1
strokes_ogs.tif
102
RTVSPost2010PropOp54
 70
     0
102
RTVSPost2010Prop55
280
     0
102
RTVSPost2010PropOp55
 70
     0
102
RTVSPost2010Prop56
140
1.0
102
RTVSPost2010PropOp56
 70
     0
102
RTVSPost2010Prop57
140
1.0
102
RTVSPost2010PropOp57
 70
     0
  0
XRECORD
  5
44D
102
{ACAD_REACTORS
330
44C
102
}
330
44C
100
AcDbXrecord
280
     1
102
RTVSPropertyOp0
 70
     1
102
RTVSPropertyOp1
 70
     1
102
RTVSPropertyOp2
 70
     1
102
RTVSPropertyOp3
 70
     1
102
RTVSPropertyOp4
 70
     1
102
RTVSPropertyOp5
 70
     1
102
RTVSPropertyOp6
 70
     1
102
RTVSPropertyOp7
 70
     1
102
RTVSPropertyOp8
 70
     1
102
RTVSPropertyOp9
 70
     1
102
RTVSPropertyOp10
 70
     1
102
RTVSPropertyOp11
 70
     1
102
RTVSPropertyOp12
 70
     1
102
RTVSPropertyOp13
 70
     1
102
RTVSPropertyOp14
 70
     1
102
RTVSPropertyOp15
 70
     1
102
RTVSPropertyOp16
 70
     1
102
RTVSPropertyOp17
 70
     1
102
RTVSPropertyOp18
 70
     1
102
RTVSPropertyOp19
 70
     1
102
RTVSPropertyOp20
 70
     1
102
RTVSPropertyOp21
 70
     1
102
RTVSPropertyOp22
 70
     1
102
RTVSPropertyOp23
 70
     1
102
RTVSPropertyOp24
 70
     1
102
RTVSPropertyOp25
 70
     1
102
RTVSPropertyOp26
 70
     1
102
RTVSPropertyOp27
 70
     1
102
RTVSPropertyOp28
 70
     1
102
RTVSPropertyOp29
 70
     1
102
RTVSPropertyOp30
 70
     1
102
RTVSPropertyOp31
 70
     1
102
RTVSPropertyOp32
 70
     1
102
RTVSPropertyOp33
 70
     1
102
RTVSPropertyOp34
 70
     1
102
RTVSPropertyOp35
 70
     1
102
RTVSPropertyOp36
 70
     1
102
RTVSPropertyOp37
 70
     1
102
RTVSPropertyOp38
 70
     1
102
RTVSPropertyOp39
 70
     1
102
RTVSPropertyOp40
 70
     1
102
RTVSPropertyOp41
 70
     1
102
RTVSPropertyOp42
 70
     1
102
RTVSPropertyOp43
 70
     1
102
RTVSPropertyOp44
 70
     1
102
RTVSPropertyOp45
 70
     1
102
RTVSPropertyOp46
 70
     1
102
RTVSPropertyOp47
 70
     1
102
RTVSPropertyOp48
 70
     1
102
RTVSPropertyOp49
 70
     1
102
RTVSPropertyOp50
 70
     1
102
RTVSPropertyOp51
 70
     0
102
RTVSPropertyOp52
 70
     0
102
RTVSPropertyOp53
 70
     1
102
RTVSPropertyOp54
 70
     1
102
RTVSPropertyOp55
 70
     1
102
RTVSPropertyOp56
 70
     1
102
RTVSPropertyOp57
 70
     1
102
RTVSPost2010Prop28
280
     0
102
RTVSPost2010PropOp28
 70
     1
102
RTVSPost2010Prop29
280
     1
102
RTVSPost2010PropOp29
 70
     1
102
RTVSPost2010Prop30
280
     1
102
RTVSPost2010PropOp30
 70
     1
102
RTVSPost2010Prop31
280
     0
102
RTVSPost2010PropOp31
 70
     1
102
RTVSPost2010Prop32
280
     0
102
RTVSPost2010PropOp32
 70
     1
102
RTVSPost2010Prop33
280
     0
102
RTVSPost2010PropOp33
 70
     1
102
RTVSPost2010Prop34
280
     0
102
RTVSPost2010PropOp34
 70
     1
102
RTVSPost2010Prop35
280
     0
102
RTVSPost2010PropOp35
 70
     1
102
RTVSPost2010Prop36
280
     0
102
RTVSPost2010PropOp36
 70
     1
102
RTVSPost2010Prop37
 90
       50
102
RTVSPost2010PropOp37
 70
     1
102
RTVSPost2010Prop38
140
0.0
102
RTVSPost2010PropOp38
 70
     1
102
RTVSPost2010Prop39
140
1.0
102
RTVSPost2010PropOp39
 70
     1
102
RTVSPost2010Prop40
 90
        0
102
RTVSPost2010PropOp40
 70
     1
102
RTVSPost2010Prop41ColorIndex
 90
       18
102
RTVSPost2010Prop41ColorRGB
 90
        0
102
RTVSPost2010PropOp41
 70
     1
102
RTVSPost2010Prop42
 90
       50
102
RTVSPost2010PropOp42
 70
     1
102
RTVSPost2010Prop43
 90
        3
102
RTVSPost2010PropOp43
 70
     1
102
RTVSPost2010Prop44ColorIndex
 90
        5
102
RTVSPost2010Prop44ColorRGB
 90
      255
102
RTVSPost2010PropOp44
 70
     1
102
RTVSPost2010Prop45
280
     0
102
RTVSPost2010PropOp45
 70
     1
102
RTVSPost2010Prop46
 90
       50
102
RTVSPost2010PropOp46
 70
     1
102
RTVSPost2010Prop47
 90
       50
102
RTVSPost2010PropOp47
 70
     1
102
RTVSPost2010Prop48
 90
       50
102
RTVSPost2010PropOp48
 70
     1
102
RTVSPost2010Prop49
280
     0
102
RTVSPost2010PropOp49
 70
     1
102
RTVSPost2010Prop50
 90
       50
102
RTVSPost2010PropOp50
 70
     1
102
RTVSPost2010Prop51ColorIndex
 90
      256
102
RTVSPost2010Prop51ColorRGB
 90
-16777216
102
RTVSPost2010PropOp51
 70
     0
102
RTVSPost2010Prop52
140
1.0
102
RTVSPost2010PropOp52
 70
     0
102
RTVSPost2010Prop53
 90
        2
102
RTVSPost2010PropOp53
 70
     1
102
RTVSPost2010Prop54
  1
strokes_ogs.tif
102
RTVSPost2010PropOp54
 70
     1
102
RTVSPost2010Prop55
280
     0
102
RTVSPost2010PropOp55
 70
     1
102
RTVSPost2010Prop56
140
1.0
102
RTVSPost2010PropOp56
 70
     1
102
RTVSPost2010Prop57
140
1.0
102
RTVSPost2010PropOp57
 70
     1
  0
XRECORD
  5
455
102
{ACAD_REACTORS
330
454
102
}
330
454
100
AcDbXrecord
280
     1
102
RTVSPropertyOp0
 70
     0
102
RTVSPropertyOp1
 70
     0
102
RTVSPropertyOp2
 70
     0
102
RTVSPropertyOp3
 70
     0
102
RTVSPropertyOp4
 70
     0
102
RTVSPropertyOp5
 70
     0
102
RTVSPropertyOp6
 70
     0
102
RTVSPropertyOp7
 70
     0
102
RTVSPropertyOp8
 70
     0
102
RTVSPropertyOp9
 70
     0
102
RTVSPropertyOp10
 70
     0
102
RTVSPropertyOp11
 70
     0
102
RTVSPropertyOp12
 70
     0
102
RTVSPropertyOp13
 70
     0
102
RTVSPropertyOp14
 70
     2
102
RTVSPropertyOp15
 70
     0
102
RTVSPropertyOp16
 70
     0
102
RTVSPropertyOp17
 70
     0
102
RTVSPropertyOp18
 70
     0
102
RTVSPropertyOp19
 70
     0
102
RTVSPropertyOp20
 70
     0
102
RTVSPropertyOp21
 70
     0
102
RTVSPropertyOp22
 70
     0
102
RTVSPropertyOp23
 70
     0
102
RTVSPropertyOp24
 70
     0
102
RTVSPropertyOp25
 70
     0
102
RTVSPropertyOp26
 70
     0
102
RTVSPropertyOp27
 70
     0
102
RTVSPropertyOp28
 70
     0
102
RTVSPropertyOp29
 70
     0
102
RTVSPropertyOp30
 70
     0
102
RTVSPropertyOp31
 70
     0
102
RTVSPropertyOp32
 70
     0
102
RTVSPropertyOp33
 70
     0
102
RTVSPropertyOp34
 70
     0
102
RTVSPropertyOp35
 70
     0
102
RTVSPropertyOp36
 70
     0
102
RTVSPropertyOp37
 70
     0
102
RTVSPropertyOp38
 70
     0
102
RTVSPropertyOp39
 70
     0
102
RTVSPropertyOp40
 70
     0
102
RTVSPropertyOp41
 70
     0
102
RTVSPropertyOp42
 70
     0
102
RTVSPropertyOp43
 70
     0
102
RTVSPropertyOp44
 70
     0
102
RTVSPropertyOp45
 70
     0
102
RTVSPropertyOp46
 70
     0
102
RTVSPropertyOp47
 70
     0
102
RTVSPropertyOp48
 70
     0
102
RTVSPropertyOp49
 70
     0
102
RTVSPropertyOp50
 70
     0
102
RTVSPropertyOp51
 70
     0
102
RTVSPropertyOp52
 70
     0
102
RTVSPropertyOp53
 70
     0
102
RTVSPropertyOp54
 70
     0
102
RTVSPropertyOp55
 70
     0
102
RTVSPropertyOp56
 70
     0
102
RTVSPropertyOp57
 70
     0
102
RTVSPost2010Prop28
280
     0
102
RTVSPost2010PropOp28
 70
     0
102
RTVSPost2010Prop29
280
     1
102
RTVSPost2010PropOp29
 70
     0
102
RTVSPost2010Prop30
280
     1
102
RTVSPost2010PropOp30
 70
     0
102
RTVSPost2010Prop31
280
     0
102
RTVSPost2010PropOp31
 70
     0
102
RTVSPost2010Prop32
280
     0
102
RTVSPost2010PropOp32
 70
     0
102
RTVSPost2010Prop33
280
     0
102
RTVSPost2010PropOp33
 70
     0
102
RTVSPost2010Prop34
280
     0
102
RTVSPost2010PropOp34
 70
     0
102
RTVSPost2010Prop35
280
     0
102
RTVSPost2010PropOp35
 70
     0
102
RTVSPost2010Prop36
280
     0
102
RTVSPost2010PropOp36
 70
     0
102
RTVSPost2010Prop37
 90
       50
102
RTVSPost2010PropOp37
 70
     0
102
RTVSPost2010Prop38
140
0.0
102
RTVSPost2010PropOp38
 70
     0
102
RTVSPost2010Prop39
140
1.0
102
RTVSPost2010PropOp39
 70
     0
102
RTVSPost2010Prop40
 90
        0
102
RTVSPost2010PropOp40
 70
     0
102
RTVSPost2010Prop41ColorIndex
 90
       18
102
RTVSPost2010Prop41ColorRGB
 90
        0
102
RTVSPost2010PropOp41
 70
     0
102
RTVSPost2010Prop42
 90
       50
102
RTVSPost2010PropOp42
 70
     0
102
RTVSPost2010Prop43
 90
        3
102
RTVSPost2010PropOp43
 70
     0
102
RTVSPost2010Prop44ColorIndex
 90
        5
102
RTVSPost2010Prop44ColorRGB
 90
      255
102
RTVSPost2010PropOp44
 70
     0
102
RTVSPost2010Prop45
280
     0
102
RTVSPost2010PropOp45
 70
     0
102
RTVSPost2010Prop46
 90
       50
102
RTVSPost2010PropOp46
 70
     0
102
RTVSPost2010Prop47
 90
       50
102
RTVSPost2010PropOp47
 70
     0
102
RTVSPost2010Prop48
 90
       50
102
RTVSPost2010PropOp48
 70
     0
102
RTVSPost2010Prop49
280
     0
102
RTVSPost2010PropOp49
 70
     0
102
RTVSPost2010Prop50
 90
       50
102
RTVSPost2010PropOp50
 70
     0
102
RTVSPost2010Prop51ColorIndex
 90
      256
102
RTVSPost2010Prop51ColorRGB
 90
-16777216
102
RTVSPost2010PropOp51
 70
     0
102
RTVSPost2010Prop52
140
1.0
102
RTVSPost2010PropOp52
 70
     0
102
RTVSPost2010Prop53
 90
        2
102
RTVSPost2010PropOp53
 70
     0
102
RTVSPost2010Prop54
  1
strokes_ogs.tif
102
RTVSPost2010PropOp54
 70
     0
102
RTVSPost2010Prop55
280
     0
102
RTVSPost2010PropOp55
 70
     0
102
RTVSPost2010Prop56
140
1.0
102
RTVSPost2010PropOp56
 70
     0
102
RTVSPost2010Prop57
140
1.0
102
RTVSPost2010PropOp57
 70
     0
  0
XRECORD
  5
443
102
{ACAD_REACTORS
330
442
102
}
330
442
100
AcDbXrecord
280
     1
102
RTVSPropertyOp0
 70
     1
102
RTVSPropertyOp1
 70
     1
102
RTVSPropertyOp2
 70
     1
102
RTVSPropertyOp3
 70
     1
102
RTVSPropertyOp4
 70
     1
102
RTVSPropertyOp5
 70
     1
102
RTVSPropertyOp6
 70
     1
102
RTVSPropertyOp7
 70
     1
102
RTVSPropertyOp8
 70
     1
102
RTVSPropertyOp9
 70
     1
102
RTVSPropertyOp10
 70
     1
102
RTVSPropertyOp11
 70
     1
102
RTVSPropertyOp12
 70
     1
102
RTVSPropertyOp13
 70
     1
102
RTVSPropertyOp14
 70
     1
102
RTVSPropertyOp15
 70
     1
102
RTVSPropertyOp16
 70
     1
102
RTVSPropertyOp17
 70
     1
102
RTVSPropertyOp18
 70
     1
102
RTVSPropertyOp19
 70
     1
102
RTVSPropertyOp20
 70
     1
102
RTVSPropertyOp21
 70
     1
102
RTVSPropertyOp22
 70
     1
102
RTVSPropertyOp23
 70
     1
102
RTVSPropertyOp24
 70
     1
102
RTVSPropertyOp25
 70
     1
102
RTVSPropertyOp26
 70
     1
102
RTVSPropertyOp27
 70
     1
102
RTVSPropertyOp28
 70
     1
102
RTVSPropertyOp29
 70
     1
102
RTVSPropertyOp30
 70
     1
102
RTVSPropertyOp31
 70
     1
102
RTVSPropertyOp32
 70
     1
102
RTVSPropertyOp33
 70
     1
102
RTVSPropertyOp34
 70
     1
102
RTVSPropertyOp35
 70
     1
102
RTVSPropertyOp36
 70
     1
102
RTVSPropertyOp37
 70
     1
102
RTVSPropertyOp38
 70
     1
102
RTVSPropertyOp39
 70
     1
102
RTVSPropertyOp40
 70
     1
102
RTVSPropertyOp41
 70
     1
102
RTVSPropertyOp42
 70
     1
102
RTVSPropertyOp43
 70
     1
102
RTVSPropertyOp44
 70
     1
102
RTVSPropertyOp45
 70
     1
102
RTVSPropertyOp46
 70
     1
102
RTVSPropertyOp47
 70
     1
102
RTVSPropertyOp48
 70
     1
102
RTVSPropertyOp49
 70
     1
102
RTVSPropertyOp50
 70
     1
102
RTVSPropertyOp51
 70
     0
102
RTVSPropertyOp52
 70
     0
102
RTVSPropertyOp53
 70
     1
102
RTVSPropertyOp54
 70
     1
102
RTVSPropertyOp55
 70
     1
102
RTVSPropertyOp56
 70
     1
102
RTVSPropertyOp57
 70
     1
102
RTVSPost2010Prop28
280
     0
102
RTVSPost2010PropOp28
 70
     1
102
RTVSPost2010Prop29
280
     1
102
RTVSPost2010PropOp29
 70
     1
102
RTVSPost2010Prop30
280
     1
102
RTVSPost2010PropOp30
 70
     1
102
RTVSPost2010Prop31
280
     0
102
RTVSPost2010PropOp31
 70
     1
102
RTVSPost2010Prop32
280
     0
102
RTVSPost2010PropOp32
 70
     1
102
RTVSPost2010Prop33
280
     0
102
RTVSPost2010PropOp33
 70
     1
102
RTVSPost2010Prop34
280
     0
102
RTVSPost2010PropOp34
 70
     1
102
RTVSPost2010Prop35
280
     0
102
RTVSPost2010PropOp35
 70
     1
102
RTVSPost2010Prop36
280
     0
102
RTVSPost2010PropOp36
 70
     1
102
RTVSPost2010Prop37
 90
       50
102
RTVSPost2010PropOp37
 70
     1
102
RTVSPost2010Prop38
140
0.0
102
RTVSPost2010PropOp38
 70
     1
102
RTVSPost2010Prop39
140
1.0
102
RTVSPost2010PropOp39
 70
     1
102
RTVSPost2010Prop40
 90
        0
102
RTVSPost2010PropOp40
 70
     1
102
RTVSPost2010Prop41ColorIndex
 90
       18
102
RTVSPost2010Prop41ColorRGB
 90
        0
102
RTVSPost2010PropOp41
 70
     1
102
RTVSPost2010Prop42
 90
       50
102
RTVSPost2010PropOp42
 70
     1
102
RTVSPost2010Prop43
 90
        3
102
RTVSPost2010PropOp43
 70
     1
102
RTVSPost2010Prop44ColorIndex
 90
        5
102
RTVSPost2010Prop44ColorRGB
 90
      255
102
RTVSPost2010PropOp44
 70
     1
102
RTVSPost2010Prop45
280
     0
102
RTVSPost2010PropOp45
 70
     1
102
RTVSPost2010Prop46
 90
       50
102
RTVSPost2010PropOp46
 70
     1
102
RTVSPost2010Prop47
 90
       50
102
RTVSPost2010PropOp47
 70
     1
102
RTVSPost2010Prop48
 90
       50
102
RTVSPost2010PropOp48
 70
     1
102
RTVSPost2010Prop49
280
     0
102
RTVSPost2010PropOp49
 70
     1
102
RTVSPost2010Prop50
 90
       50
102
RTVSPost2010PropOp50
 70
     1
102
RTVSPost2010Prop51ColorIndex
 90
      256
102
RTVSPost2010Prop51ColorRGB
 90
-16777216
102
RTVSPost2010PropOp51
 70
     0
102
RTVSPost2010Prop52
140
1.0
102
RTVSPost2010PropOp52
 70
     0
102
RTVSPost2010Prop53
 90
        2
102
RTVSPost2010PropOp53
 70
     1
102
RTVSPost2010Prop54
  1
strokes_ogs.tif
102
RTVSPost2010PropOp54
 70
     1
102
RTVSPost2010Prop55
280
     0
102
RTVSPost2010PropOp55
 70
     1
102
RTVSPost2010Prop56
140
1.0
102
RTVSPost2010PropOp56
 70
     1
102
RTVSPost2010Prop57
140
1.0
102
RTVSPost2010PropOp57
 70
     1
  0
XRECORD
  5
461
102
{ACAD_REACTORS
330
460
102
}
330
460
100
AcDbXrecord
280
     1
102
RTVSPropertyOp0
 70
     1
102
RTVSPropertyOp1
 70
     1
102
RTVSPropertyOp2
 70
     1
102
RTVSPropertyOp3
 70
     1
102
RTVSPropertyOp4
 70
     1
102
RTVSPropertyOp5
 70
     1
102
RTVSPropertyOp6
 70
     1
102
RTVSPropertyOp7
 70
     1
102
RTVSPropertyOp8
 70
     1
102
RTVSPropertyOp9
 70
     1
102
RTVSPropertyOp10
 70
     1
102
RTVSPropertyOp11
 70
     1
102
RTVSPropertyOp12
 70
     1
102
RTVSPropertyOp13
 70
     1
102
RTVSPropertyOp14
 70
     1
102
RTVSPropertyOp15
 70
     1
102
RTVSPropertyOp16
 70
     1
102
RTVSPropertyOp17
 70
     1
102
RTVSPropertyOp18
 70
     1
102
RTVSPropertyOp19
 70
     1
102
RTVSPropertyOp20
 70
     1
102
RTVSPropertyOp21
 70
     1
102
RTVSPropertyOp22
 70
     1
102
RTVSPropertyOp23
 70
     1
102
RTVSPropertyOp24
 70
     1
102
RTVSPropertyOp25
 70
     1
102
RTVSPropertyOp26
 70
     1
102
RTVSPropertyOp27
 70
     1
102
RTVSPropertyOp28
 70
     1
102
RTVSPropertyOp29
 70
     1
102
RTVSPropertyOp30
 70
     1
102
RTVSPropertyOp31
 70
     1
102
RTVSPropertyOp32
 70
     1
102
RTVSPropertyOp33
 70
     1
102
RTVSPropertyOp34
 70
     1
102
RTVSPropertyOp35
 70
     1
102
RTVSPropertyOp36
 70
     1
102
RTVSPropertyOp37
 70
     1
102
RTVSPropertyOp38
 70
     1
102
RTVSPropertyOp39
 70
     1
102
RTVSPropertyOp40
 70
     1
102
RTVSPropertyOp41
 70
     1
102
RTVSPropertyOp42
 70
     1
102
RTVSPropertyOp43
 70
     1
102
RTVSPropertyOp44
 70
     1
102
RTVSPropertyOp45
 70
     1
102
RTVSPropertyOp46
 70
     1
102
RTVSPropertyOp47
 70
     1
102
RTVSPropertyOp48
 70
     1
102
RTVSPropertyOp49
 70
     1
102
RTVSPropertyOp50
 70
     1
102
RTVSPropertyOp51
 70
     0
102
RTVSPropertyOp52
 70
     0
102
RTVSPropertyOp53
 70
     1
102
RTVSPropertyOp54
 70
     1
102
RTVSPropertyOp55
 70
     1
102
RTVSPropertyOp56
 70
     1
102
RTVSPropertyOp57
 70
     1
102
RTVSPost2010Prop28
280
     0
102
RTVSPost2010PropOp28
 70
     1
102
RTVSPost2010Prop29
280
     1
102
RTVSPost2010PropOp29
 70
     1
102
RTVSPost2010Prop30
280
     1
102
RTVSPost2010PropOp30
 70
     1
102
RTVSPost2010Prop31
280
     0
102
RTVSPost2010PropOp31
 70
     1
102
RTVSPost2010Prop32
280
     0
102
RTVSPost2010PropOp32
 70
     1
102
RTVSPost2010Prop33
280
     0
102
RTVSPost2010PropOp33
 70
     1
102
RTVSPost2010Prop34
280
     0
102
RTVSPost2010PropOp34
 70
     1
102
RTVSPost2010Prop35
280
     0
102
RTVSPost2010PropOp35
 70
     1
102
RTVSPost2010Prop36
280
     0
102
RTVSPost2010PropOp36
 70
     1
102
RTVSPost2010Prop37
 90
       50
102
RTVSPost2010PropOp37
 70
     1
102
RTVSPost2010Prop38
140
0.0
102
RTVSPost2010PropOp38
 70
     1
102
RTVSPost2010Prop39
140
1.0
102
RTVSPost2010PropOp39
 70
     1
102
RTVSPost2010Prop40
 90
        0
102
RTVSPost2010PropOp40
 70
     1
102
RTVSPost2010Prop41ColorIndex
 90
       18
102
RTVSPost2010Prop41ColorRGB
 90
        0
102
RTVSPost2010PropOp41
 70
     1
102
RTVSPost2010Prop42
 90
       50
102
RTVSPost2010PropOp42
 70
     1
102
RTVSPost2010Prop43
 90
        3
102
RTVSPost2010PropOp43
 70
     1
102
RTVSPost2010Prop44ColorIndex
 90
        5
102
RTVSPost2010Prop44ColorRGB
 90
      255
102
RTVSPost2010PropOp44
 70
     1
102
RTVSPost2010Prop45
280
     0
102
RTVSPost2010PropOp45
 70
     1
102
RTVSPost2010Prop46
 90
       50
102
RTVSPost2010PropOp46
 70
     1
102
RTVSPost2010Prop47
 90
       50
102
RTVSPost2010PropOp47
 70
     1
102
RTVSPost2010Prop48
 90
       50
102
RTVSPost2010PropOp48
 70
     1
102
RTVSPost2010Prop49
280
     0
102
RTVSPost2010PropOp49
 70
     1
102
RTVSPost2010Prop50
 90
       50
102
RTVSPost2010PropOp50
 70
     1
102
RTVSPost2010Prop51ColorIndex
 90
      256
102
RTVSPost2010Prop51ColorRGB
 90
-16777216
102
RTVSPost2010PropOp51
 70
     0
102
RTVSPost2010Prop52
140
1.0
102
RTVSPost2010PropOp52
 70
     0
102
RTVSPost2010Prop53
 90
        2
102
RTVSPost2010PropOp53
 70
     1
102
RTVSPost2010Prop54
  1
strokes_ogs.tif
102
RTVSPost2010PropOp54
 70
     1
102
RTVSPost2010Prop55
280
     0
102
RTVSPost2010PropOp55
 70
     1
102
RTVSPost2010Prop56
140
1.0
102
RTVSPost2010PropOp56
 70
     1
102
RTVSPost2010Prop57
140
1.0
102
RTVSPost2010PropOp57
 70
     1
  0
XRECORD
  5
45F
102
{ACAD_REACTORS
330
45E
102
}
330
45E
100
AcDbXrecord
280
     1
102
RTVSPropertyOp0
 70
     1
102
RTVSPropertyOp1
 70
     1
102
RTVSPropertyOp2
 70
     1
102
RTVSPropertyOp3
 70
     1
102
RTVSPropertyOp4
 70
     1
102
RTVSPropertyOp5
 70
     1
102
RTVSPropertyOp6
 70
     1
102
RTVSPropertyOp7
 70
     1
102
RTVSPropertyOp8
 70
     1
102
RTVSPropertyOp9
 70
     1
102
RTVSPropertyOp10
 70
     1
102
RTVSPropertyOp11
 70
     1
102
RTVSPropertyOp12
 70
     1
102
RTVSPropertyOp13
 70
     1
102
RTVSPropertyOp14
 70
     1
102
RTVSPropertyOp15
 70
     1
102
RTVSPropertyOp16
 70
     1
102
RTVSPropertyOp17
 70
     1
102
RTVSPropertyOp18
 70
     1
102
RTVSPropertyOp19
 70
     1
102
RTVSPropertyOp20
 70
     1
102
RTVSPropertyOp21
 70
     1
102
RTVSPropertyOp22
 70
     1
102
RTVSPropertyOp23
 70
     1
102
RTVSPropertyOp24
 70
     1
102
RTVSPropertyOp25
 70
     1
102
RTVSPropertyOp26
 70
     1
102
RTVSPropertyOp27
 70
     1
102
RTVSPropertyOp28
 70
     1
102
RTVSPropertyOp29
 70
     1
102
RTVSPropertyOp30
 70
     1
102
RTVSPropertyOp31
 70
     1
102
RTVSPropertyOp32
 70
     1
102
RTVSPropertyOp33
 70
     1
102
RTVSPropertyOp34
 70
     1
102
RTVSPropertyOp35
 70
     1
102
RTVSPropertyOp36
 70
     1
102
RTVSPropertyOp37
 70
     1
102
RTVSPropertyOp38
 70
     1
102
RTVSPropertyOp39
 70
     1
102
RTVSPropertyOp40
 70
     1
102
RTVSPropertyOp41
 70
     1
102
RTVSPropertyOp42
 70
     1
102
RTVSPropertyOp43
 70
     1
102
RTVSPropertyOp44
 70
     1
102
RTVSPropertyOp45
 70
     1
102
RTVSPropertyOp46
 70
     1
102
RTVSPropertyOp47
 70
     1
102
RTVSPropertyOp48
 70
     1
102
RTVSPropertyOp49
 70
     1
102
RTVSPropertyOp50
 70
     1
102
RTVSPropertyOp51
 70
     0
102
RTVSPropertyOp52
 70
     0
102
RTVSPropertyOp53
 70
     1
102
RTVSPropertyOp54
 70
     1
102
RTVSPropertyOp55
 70
     1
102
RTVSPropertyOp56
 70
     1
102
RTVSPropertyOp57
 70
     1
102
RTVSPost2010Prop28
280
     0
102
RTVSPost2010PropOp28
 70
     1
102
RTVSPost2010Prop29
280
     1
102
RTVSPost2010PropOp29
 70
     1
102
RTVSPost2010Prop30
280
     1
102
RTVSPost2010PropOp30
 70
     1
102
RTVSPost2010Prop31
280
     0
102
RTVSPost2010PropOp31
 70
     1
102
RTVSPost2010Prop32
280
     0
102
RTVSPost2010PropOp32
 70
     1
102
RTVSPost2010Prop33
280
     0
102
RTVSPost2010PropOp33
 70
     1
102
RTVSPost2010Prop34
280
     0
102
RTVSPost2010PropOp34
 70
     1
102
RTVSPost2010Prop35
280
     0
102
RTVSPost2010PropOp35
 70
     1
102
RTVSPost2010Prop36
280
     0
102
RTVSPost2010PropOp36
 70
     1
102
RTVSPost2010Prop37
 90
       50
102
RTVSPost2010PropOp37
 70
     1
102
RTVSPost2010Prop38
140
0.0
102
RTVSPost2010PropOp38
 70
     1
102
RTVSPost2010Prop39
140
1.0
102
RTVSPost2010PropOp39
 70
     1
102
RTVSPost2010Prop40
 90
        0
102
RTVSPost2010PropOp40
 70
     1
102
RTVSPost2010Prop41ColorIndex
 90
       18
102
RTVSPost2010Prop41ColorRGB
 90
        0
102
RTVSPost2010PropOp41
 70
     1
102
RTVSPost2010Prop42
 90
       50
102
RTVSPost2010PropOp42
 70
     1
102
RTVSPost2010Prop43
 90
        3
102
RTVSPost2010PropOp43
 70
     1
102
RTVSPost2010Prop44ColorIndex
 90
        5
102
RTVSPost2010Prop44ColorRGB
 90
      255
102
RTVSPost2010PropOp44
 70
     1
102
RTVSPost2010Prop45
280
     0
102
RTVSPost2010PropOp45
 70
     1
102
RTVSPost2010Prop46
 90
       50
102
RTVSPost2010PropOp46
 70
     1
102
RTVSPost2010Prop47
 90
       50
102
RTVSPost2010PropOp47
 70
     1
102
RTVSPost2010Prop48
 90
       50
102
RTVSPost2010PropOp48
 70
     1
102
RTVSPost2010Prop49
280
     0
102
RTVSPost2010PropOp49
 70
     1
102
RTVSPost2010Prop50
 90
       50
102
RTVSPost2010PropOp50
 70
     1
102
RTVSPost2010Prop51ColorIndex
 90
      256
102
RTVSPost2010Prop51ColorRGB
 90
-16777216
102
RTVSPost2010PropOp51
 70
     0
102
RTVSPost2010Prop52
140
1.0
102
RTVSPost2010PropOp52
 70
     0
102
RTVSPost2010Prop53
 90
        2
102
RTVSPost2010PropOp53
 70
     1
102
RTVSPost2010Prop54
  1
strokes_ogs.tif
102
RTVSPost2010PropOp54
 70
     1
102
RTVSPost2010Prop55
280
     0
102
RTVSPost2010PropOp55
 70
     1
102
RTVSPost2010Prop56
140
1.0
102
RTVSPost2010PropOp56
 70
     1
102
RTVSPost2010Prop57
140
1.0
102
RTVSPost2010PropOp57
 70
     1
  0
XRECORD
  5
459
102
{ACAD_REACTORS
330
458
102
}
330
458
100
AcDbXrecord
280
     1
102
RTVSPropertyOp0
 70
     1
102
RTVSPropertyOp1
 70
     1
102
RTVSPropertyOp2
 70
     1
102
RTVSPropertyOp3
 70
     1
102
RTVSPropertyOp4
 70
     1
102
RTVSPropertyOp5
 70
     1
102
RTVSPropertyOp6
 70
     1
102
RTVSPropertyOp7
 70
     1
102
RTVSPropertyOp8
 70
     1
102
RTVSPropertyOp9
 70
     1
102
RTVSPropertyOp10
 70
     1
102
RTVSPropertyOp11
 70
     1
102
RTVSPropertyOp12
 70
     1
102
RTVSPropertyOp13
 70
     1
102
RTVSPropertyOp14
 70
     1
102
RTVSPropertyOp15
 70
     1
102
RTVSPropertyOp16
 70
     1
102
RTVSPropertyOp17
 70
     1
102
RTVSPropertyOp18
 70
     1
102
RTVSPropertyOp19
 70
     1
102
RTVSPropertyOp20
 70
     1
102
RTVSPropertyOp21
 70
     1
102
RTVSPropertyOp22
 70
     1
102
RTVSPropertyOp23
 70
     1
102
RTVSPropertyOp24
 70
     1
102
RTVSPropertyOp25
 70
     1
102
RTVSPropertyOp26
 70
     1
102
RTVSPropertyOp27
 70
     1
102
RTVSPropertyOp28
 70
     1
102
RTVSPropertyOp29
 70
     1
102
RTVSPropertyOp30
 70
     1
102
RTVSPropertyOp31
 70
     1
102
RTVSPropertyOp32
 70
     1
102
RTVSPropertyOp33
 70
     1
102
RTVSPropertyOp34
 70
     1
102
RTVSPropertyOp35
 70
     1
102
RTVSPropertyOp36
 70
     1
102
RTVSPropertyOp37
 70
     1
102
RTVSPropertyOp38
 70
     1
102
RTVSPropertyOp39
 70
     1
102
RTVSPropertyOp40
 70
     1
102
RTVSPropertyOp41
 70
     1
102
RTVSPropertyOp42
 70
     1
102
RTVSPropertyOp43
 70
     1
102
RTVSPropertyOp44
 70
     1
102
RTVSPropertyOp45
 70
     1
102
RTVSPropertyOp46
 70
     1
102
RTVSPropertyOp47
 70
     1
102
RTVSPropertyOp48
 70
     1
102
RTVSPropertyOp49
 70
     1
102
RTVSPropertyOp50
 70
     1
102
RTVSPropertyOp51
 70
     0
102
RTVSPropertyOp52
 70
     0
102
RTVSPropertyOp53
 70
     1
102
RTVSPropertyOp54
 70
     1
102
RTVSPropertyOp55
 70
     1
102
RTVSPropertyOp56
 70
     1
102
RTVSPropertyOp57
 70
     1
102
RTVSPost2010Prop28
280
     0
102
RTVSPost2010PropOp28
 70
     1
102
RTVSPost2010Prop29
280
     1
102
RTVSPost2010PropOp29
 70
     1
102
RTVSPost2010Prop30
280
     1
102
RTVSPost2010PropOp30
 70
     1
102
RTVSPost2010Prop31
280
     0
102
RTVSPost2010PropOp31
 70
     1
102
RTVSPost2010Prop32
280
     0
102
RTVSPost2010PropOp32
 70
     1
102
RTVSPost2010Prop33
280
     0
102
RTVSPost2010PropOp33
 70
     1
102
RTVSPost2010Prop34
280
     0
102
RTVSPost2010PropOp34
 70
     1
102
RTVSPost2010Prop35
280
     0
102
RTVSPost2010PropOp35
 70
     1
102
RTVSPost2010Prop36
280
     0
102
RTVSPost2010PropOp36
 70
     1
102
RTVSPost2010Prop37
 90
       50
102
RTVSPost2010PropOp37
 70
     1
102
RTVSPost2010Prop38
140
0.0
102
RTVSPost2010PropOp38
 70
     1
102
RTVSPost2010Prop39
140
1.0
102
RTVSPost2010PropOp39
 70
     1
102
RTVSPost2010Prop40
 90
        0
102
RTVSPost2010PropOp40
 70
     1
102
RTVSPost2010Prop41ColorIndex
 90
       18
102
RTVSPost2010Prop41ColorRGB
 90
        0
102
RTVSPost2010PropOp41
 70
     1
102
RTVSPost2010Prop42
 90
       50
102
RTVSPost2010PropOp42
 70
     1
102
RTVSPost2010Prop43
 90
        3
102
RTVSPost2010PropOp43
 70
     1
102
RTVSPost2010Prop44ColorIndex
 90
        5
102
RTVSPost2010Prop44ColorRGB
 90
      255
102
RTVSPost2010PropOp44
 70
     1
102
RTVSPost2010Prop45
280
     0
102
RTVSPost2010PropOp45
 70
     1
102
RTVSPost2010Prop46
 90
       50
102
RTVSPost2010PropOp46
 70
     1
102
RTVSPost2010Prop47
 90
       50
102
RTVSPost2010PropOp47
 70
     1
102
RTVSPost2010Prop48
 90
       50
102
RTVSPost2010PropOp48
 70
     1
102
RTVSPost2010Prop49
280
     0
102
RTVSPost2010PropOp49
 70
     1
102
RTVSPost2010Prop50
 90
       50
102
RTVSPost2010PropOp50
 70
     1
102
RTVSPost2010Prop51ColorIndex
 90
      256
102
RTVSPost2010Prop51ColorRGB
 90
-16777216
102
RTVSPost2010PropOp51
 70
     0
102
RTVSPost2010Prop52
140
1.0
102
RTVSPost2010PropOp52
 70
     0
102
RTVSPost2010Prop53
 90
        2
102
RTVSPost2010PropOp53
 70
     1
102
RTVSPost2010Prop54
  1
strokes_ogs.tif
102
RTVSPost2010PropOp54
 70
     1
102
RTVSPost2010Prop55
280
     0
102
RTVSPost2010PropOp55
 70
     1
102
RTVSPost2010Prop56
140
1.0
102
RTVSPost2010PropOp56
 70
     1
102
RTVSPost2010Prop57
140
1.0
102
RTVSPost2010PropOp57
 70
     1
  0
XRECORD
  5
45B
102
{ACAD_REACTORS
330
45A
102
}
330
45A
100
AcDbXrecord
280
     1
102
RTVSPropertyOp0
 70
     1
102
RTVSPropertyOp1
 70
     1
102
RTVSPropertyOp2
 70
     1
102
RTVSPropertyOp3
 70
     1
102
RTVSPropertyOp4
 70
     1
102
RTVSPropertyOp5
 70
     1
102
RTVSPropertyOp6
 70
     1
102
RTVSPropertyOp7
 70
     1
102
RTVSPropertyOp8
 70
     1
102
RTVSPropertyOp9
 70
     1
102
RTVSPropertyOp10
 70
     1
102
RTVSPropertyOp11
 70
     1
102
RTVSPropertyOp12
 70
     1
102
RTVSPropertyOp13
 70
     1
102
RTVSPropertyOp14
 70
     1
102
RTVSPropertyOp15
 70
     1
102
RTVSPropertyOp16
 70
     1
102
RTVSPropertyOp17
 70
     1
102
RTVSPropertyOp18
 70
     1
102
RTVSPropertyOp19
 70
     1
102
RTVSPropertyOp20
 70
     1
102
RTVSPropertyOp21
 70
     1
102
RTVSPropertyOp22
 70
     1
102
RTVSPropertyOp23
 70
     1
102
RTVSPropertyOp24
 70
     1
102
RTVSPropertyOp25
 70
     1
102
RTVSPropertyOp26
 70
     1
102
RTVSPropertyOp27
 70
     1
102
RTVSPropertyOp28
 70
     1
102
RTVSPropertyOp29
 70
     1
102
RTVSPropertyOp30
 70
     1
102
RTVSPropertyOp31
 70
     1
102
RTVSPropertyOp32
 70
     1
102
RTVSPropertyOp33
 70
     1
102
RTVSPropertyOp34
 70
     1
102
RTVSPropertyOp35
 70
     1
102
RTVSPropertyOp36
 70
     1
102
RTVSPropertyOp37
 70
     1
102
RTVSPropertyOp38
 70
     1
102
RTVSPropertyOp39
 70
     1
102
RTVSPropertyOp40
 70
     1
102
RTVSPropertyOp41
 70
     1
102
RTVSPropertyOp42
 70
     1
102
RTVSPropertyOp43
 70
     1
102
RTVSPropertyOp44
 70
     1
102
RTVSPropertyOp45
 70
     1
102
RTVSPropertyOp46
 70
     1
102
RTVSPropertyOp47
 70
     1
102
RTVSPropertyOp48
 70
     1
102
RTVSPropertyOp49
 70
     1
102
RTVSPropertyOp50
 70
     1
102
RTVSPropertyOp51
 70
     0
102
RTVSPropertyOp52
 70
     0
102
RTVSPropertyOp53
 70
     1
102
RTVSPropertyOp54
 70
     1
102
RTVSPropertyOp55
 70
     1
102
RTVSPropertyOp56
 70
     1
102
RTVSPropertyOp57
 70
     1
102
RTVSPost2010Prop28
280
     0
102
RTVSPost2010PropOp28
 70
     1
102
RTVSPost2010Prop29
280
     1
102
RTVSPost2010PropOp29
 70
     1
102
RTVSPost2010Prop30
280
     1
102
RTVSPost2010PropOp30
 70
     1
102
RTVSPost2010Prop31
280
     0
102
RTVSPost2010PropOp31
 70
     1
102
RTVSPost2010Prop32
280
     0
102
RTVSPost2010PropOp32
 70
     1
102
RTVSPost2010Prop33
280
     0
102
RTVSPost2010PropOp33
 70
     1
102
RTVSPost2010Prop34
280
     0
102
RTVSPost2010PropOp34
 70
     1
102
RTVSPost2010Prop35
280
     0
102
RTVSPost2010PropOp35
 70
     1
102
RTVSPost2010Prop36
280
     0
102
RTVSPost2010PropOp36
 70
     1
102
RTVSPost2010Prop37
 90
       50
102
RTVSPost2010PropOp37
 70
     1
102
RTVSPost2010Prop38
140
0.0
102
RTVSPost2010PropOp38
 70
     1
102
RTVSPost2010Prop39
140
1.0
102
RTVSPost2010PropOp39
 70
     1
102
RTVSPost2010Prop40
 90
        0
102
RTVSPost2010PropOp40
 70
     1
102
RTVSPost2010Prop41ColorIndex
 90
       18
102
RTVSPost2010Prop41ColorRGB
 90
        0
102
RTVSPost2010PropOp41
 70
     1
102
RTVSPost2010Prop42
 90
       50
102
RTVSPost2010PropOp42
 70
     1
102
RTVSPost2010Prop43
 90
        3
102
RTVSPost2010PropOp43
 70
     1
102
RTVSPost2010Prop44ColorIndex
 90
        5
102
RTVSPost2010Prop44ColorRGB
 90
      255
102
RTVSPost2010PropOp44
 70
     1
102
RTVSPost2010Prop45
280
     0
102
RTVSPost2010PropOp45
 70
     1
102
RTVSPost2010Prop46
 90
       50
102
RTVSPost2010PropOp46
 70
     1
102
RTVSPost2010Prop47
 90
       50
102
RTVSPost2010PropOp47
 70
     1
102
RTVSPost2010Prop48
 90
       50
102
RTVSPost2010PropOp48
 70
     1
102
RTVSPost2010Prop49
280
     0
102
RTVSPost2010PropOp49
 70
     1
102
RTVSPost2010Prop50
 90
       50
102
RTVSPost2010PropOp50
 70
     1
102
RTVSPost2010Prop51ColorIndex
 90
      256
102
RTVSPost2010Prop51ColorRGB
 90
-16777216
102
RTVSPost2010PropOp51
 70
     0
102
RTVSPost2010Prop52
140
1.0
102
RTVSPost2010PropOp52
 70
     0
102
RTVSPost2010Prop53
 90
        2
102
RTVSPost2010PropOp53
 70
     1
102
RTVSPost2010Prop54
  1
strokes_ogs.tif
102
RTVSPost2010PropOp54
 70
     1
102
RTVSPost2010Prop55
280
     0
102
RTVSPost2010PropOp55
 70
     1
102
RTVSPost2010Prop56
140
1.0
102
RTVSPost2010PropOp56
 70
     1
102
RTVSPost2010Prop57
140
1.0
102
RTVSPost2010PropOp57
 70
     1
  0
XRECORD
  5
44B
102
{ACAD_REACTORS
330
44A
102
}
330
44A
100
AcDbXrecord
280
     1
102
RTVSPropertyOp0
 70
     1
102
RTVSPropertyOp1
 70
     1
102
RTVSPropertyOp2
 70
     1
102
RTVSPropertyOp3
 70
     1
102
RTVSPropertyOp4
 70
     1
102
RTVSPropertyOp5
 70
     1
102
RTVSPropertyOp6
 70
     1
102
RTVSPropertyOp7
 70
     1
102
RTVSPropertyOp8
 70
     1
102
RTVSPropertyOp9
 70
     1
102
RTVSPropertyOp10
 70
     1
102
RTVSPropertyOp11
 70
     1
102
RTVSPropertyOp12
 70
     1
102
RTVSPropertyOp13
 70
     1
102
RTVSPropertyOp14
 70
     1
102
RTVSPropertyOp15
 70
     1
102
RTVSPropertyOp16
 70
     1
102
RTVSPropertyOp17
 70
     1
102
RTVSPropertyOp18
 70
     1
102
RTVSPropertyOp19
 70
     1
102
RTVSPropertyOp20
 70
     1
102
RTVSPropertyOp21
 70
     1
102
RTVSPropertyOp22
 70
     1
102
RTVSPropertyOp23
 70
     1
102
RTVSPropertyOp24
 70
     1
102
RTVSPropertyOp25
 70
     1
102
RTVSPropertyOp26
 70
     1
102
RTVSPropertyOp27
 70
     1
102
RTVSPropertyOp28
 70
     1
102
RTVSPropertyOp29
 70
     1
102
RTVSPropertyOp30
 70
     1
102
RTVSPropertyOp31
 70
     1
102
RTVSPropertyOp32
 70
     1
102
RTVSPropertyOp33
 70
     1
102
RTVSPropertyOp34
 70
     1
102
RTVSPropertyOp35
 70
     1
102
RTVSPropertyOp36
 70
     1
102
RTVSPropertyOp37
 70
     1
102
RTVSPropertyOp38
 70
     1
102
RTVSPropertyOp39
 70
     1
102
RTVSPropertyOp40
 70
     1
102
RTVSPropertyOp41
 70
     1
102
RTVSPropertyOp42
 70
     1
102
RTVSPropertyOp43
 70
     1
102
RTVSPropertyOp44
 70
     1
102
RTVSPropertyOp45
 70
     1
102
RTVSPropertyOp46
 70
     1
102
RTVSPropertyOp47
 70
     1
102
RTVSPropertyOp48
 70
     1
102
RTVSPropertyOp49
 70
     1
102
RTVSPropertyOp50
 70
     1
102
RTVSPropertyOp51
 70
     0
102
RTVSPropertyOp52
 70
     0
102
RTVSPropertyOp53
 70
     1
102
RTVSPropertyOp54
 70
     1
102
RTVSPropertyOp55
 70
     1
102
RTVSPropertyOp56
 70
     1
102
RTVSPropertyOp57
 70
     1
102
RTVSPost2010Prop28
280
     0
102
RTVSPost2010PropOp28
 70
     1
102
RTVSPost2010Prop29
280
     1
102
RTVSPost2010PropOp29
 70
     1
102
RTVSPost2010Prop30
280
     1
102
RTVSPost2010PropOp30
 70
     1
102
RTVSPost2010Prop31
280
     0
102
RTVSPost2010PropOp31
 70
     1
102
RTVSPost2010Prop32
280
     0
102
RTVSPost2010PropOp32
 70
     1
102
RTVSPost2010Prop33
280
     0
102
RTVSPost2010PropOp33
 70
     1
102
RTVSPost2010Prop34
280
     0
102
RTVSPost2010PropOp34
 70
     1
102
RTVSPost2010Prop35
280
     0
102
RTVSPost2010PropOp35
 70
     1
102
RTVSPost2010Prop36
280
     0
102
RTVSPost2010PropOp36
 70
     1
102
RTVSPost2010Prop37
 90
       50
102
RTVSPost2010PropOp37
 70
     1
102
RTVSPost2010Prop38
140
0.0
102
RTVSPost2010PropOp38
 70
     1
102
RTVSPost2010Prop39
140
1.0
102
RTVSPost2010PropOp39
 70
     1
102
RTVSPost2010Prop40
 90
        0
102
RTVSPost2010PropOp40
 70
     1
102
RTVSPost2010Prop41ColorIndex
 90
       18
102
RTVSPost2010Prop41ColorRGB
 90
        0
102
RTVSPost2010PropOp41
 70
     1
102
RTVSPost2010Prop42
 90
       50
102
RTVSPost2010PropOp42
 70
     1
102
RTVSPost2010Prop43
 90
        3
102
RTVSPost2010PropOp43
 70
     1
102
RTVSPost2010Prop44ColorIndex
 90
        5
102
RTVSPost2010Prop44ColorRGB
 90
      255
102
RTVSPost2010PropOp44
 70
     1
102
RTVSPost2010Prop45
280
     0
102
RTVSPost2010PropOp45
 70
     1
102
RTVSPost2010Prop46
 90
       50
102
RTVSPost2010PropOp46
 70
     1
102
RTVSPost2010Prop47
 90
       50
102
RTVSPost2010PropOp47
 70
     1
102
RTVSPost2010Prop48
 90
       50
102
RTVSPost2010PropOp48
 70
     1
102
RTVSPost2010Prop49
280
     0
102
RTVSPost2010PropOp49
 70
     1
102
RTVSPost2010Prop50
 90
       50
102
RTVSPost2010PropOp50
 70
     1
102
RTVSPost2010Prop51ColorIndex
 90
      256
102
RTVSPost2010Prop51ColorRGB
 90
-16777216
102
RTVSPost2010PropOp51
 70
     0
102
RTVSPost2010Prop52
140
1.0
102
RTVSPost2010PropOp52
 70
     0
102
RTVSPost2010Prop53
 90
        2
102
RTVSPost2010PropOp53
 70
     1
102
RTVSPost2010Prop54
  1
strokes_ogs.tif
102
RTVSPost2010PropOp54
 70
     1
102
RTVSPost2010Prop55
280
     0
102
RTVSPost2010PropOp55
 70
     1
102
RTVSPost2010Prop56
140
1.0
102
RTVSPost2010PropOp56
 70
     1
102
RTVSPost2010Prop57
140
1.0
102
RTVSPost2010PropOp57
 70
     1
  0
XRECORD
  5
43D
102
{ACAD_REACTORS
330
43C
102
}
330
43C
100
AcDbXrecord
280
     1
102
RTVSPropertyOp0
 70
     1
102
RTVSPropertyOp1
 70
     1
102
RTVSPropertyOp2
 70
     1
102
RTVSPropertyOp3
 70
     1
102
RTVSPropertyOp4
 70
     1
102
RTVSPropertyOp5
 70
     1
102
RTVSPropertyOp6
 70
     1
102
RTVSPropertyOp7
 70
     1
102
RTVSPropertyOp8
 70
     1
102
RTVSPropertyOp9
 70
     1
102
RTVSPropertyOp10
 70
     1
102
RTVSPropertyOp11
 70
     1
102
RTVSPropertyOp12
 70
     1
102
RTVSPropertyOp13
 70
     1
102
RTVSPropertyOp14
 70
     1
102
RTVSPropertyOp15
 70
     1
102
RTVSPropertyOp16
 70
     1
102
RTVSPropertyOp17
 70
     1
102
RTVSPropertyOp18
 70
     1
102
RTVSPropertyOp19
 70
     1
102
RTVSPropertyOp20
 70
     1
102
RTVSPropertyOp21
 70
     1
102
RTVSPropertyOp22
 70
     1
102
RTVSPropertyOp23
 70
     1
102
RTVSPropertyOp24
 70
     1
102
RTVSPropertyOp25
 70
     1
102
RTVSPropertyOp26
 70
     1
102
RTVSPropertyOp27
 70
     1
102
RTVSPropertyOp28
 70
     1
102
RTVSPropertyOp29
 70
     1
102
RTVSPropertyOp30
 70
     1
102
RTVSPropertyOp31
 70
     1
102
RTVSPropertyOp32
 70
     1
102
RTVSPropertyOp33
 70
     1
102
RTVSPropertyOp34
 70
     1
102
RTVSPropertyOp35
 70
     1
102
RTVSPropertyOp36
 70
     1
102
RTVSPropertyOp37
 70
     1
102
RTVSPropertyOp38
 70
     1
102
RTVSPropertyOp39
 70
     1
102
RTVSPropertyOp40
 70
     1
102
RTVSPropertyOp41
 70
     1
102
RTVSPropertyOp42
 70
     1
102
RTVSPropertyOp43
 70
     1
102
RTVSPropertyOp44
 70
     1
102
RTVSPropertyOp45
 70
     1
102
RTVSPropertyOp46
 70
     1
102
RTVSPropertyOp47
 70
     1
102
RTVSPropertyOp48
 70
     1
102
RTVSPropertyOp49
 70
     1
102
RTVSPropertyOp50
 70
     1
102
RTVSPropertyOp51
 70
     0
102
RTVSPropertyOp52
 70
     0
102
RTVSPropertyOp53
 70
     1
102
RTVSPropertyOp54
 70
     1
102
RTVSPropertyOp55
 70
     1
102
RTVSPropertyOp56
 70
     1
102
RTVSPropertyOp57
 70
     1
102
RTVSPost2010Prop28
280
     0
102
RTVSPost2010PropOp28
 70
     1
102
RTVSPost2010Prop29
280
     1
102
RTVSPost2010PropOp29
 70
     1
102
RTVSPost2010Prop30
280
     1
102
RTVSPost2010PropOp30
 70
     1
102
RTVSPost2010Prop31
280
     0
102
RTVSPost2010PropOp31
 70
     1
102
RTVSPost2010Prop32
280
     0
102
RTVSPost2010PropOp32
 70
     1
102
RTVSPost2010Prop33
280
     0
102
RTVSPost2010PropOp33
 70
     1
102
RTVSPost2010Prop34
280
     0
102
RTVSPost2010PropOp34
 70
     1
102
RTVSPost2010Prop35
280
     0
102
RTVSPost2010PropOp35
 70
     1
102
RTVSPost2010Prop36
280
     0
102
RTVSPost2010PropOp36
 70
     1
102
RTVSPost2010Prop37
 90
       50
102
RTVSPost2010PropOp37
 70
     1
102
RTVSPost2010Prop38
140
0.0
102
RTVSPost2010PropOp38
 70
     1
102
RTVSPost2010Prop39
140
1.0
102
RTVSPost2010PropOp39
 70
     1
102
RTVSPost2010Prop40
 90
        0
102
RTVSPost2010PropOp40
 70
     1
102
RTVSPost2010Prop41ColorIndex
 90
       18
102
RTVSPost2010Prop41ColorRGB
 90
        0
102
RTVSPost2010PropOp41
 70
     1
102
RTVSPost2010Prop42
 90
       50
102
RTVSPost2010PropOp42
 70
     1
102
RTVSPost2010Prop43
 90
        3
102
RTVSPost2010PropOp43
 70
     1
102
RTVSPost2010Prop44ColorIndex
 90
        5
102
RTVSPost2010Prop44ColorRGB
 90
      255
102
RTVSPost2010PropOp44
 70
     1
102
RTVSPost2010Prop45
280
     0
102
RTVSPost2010PropOp45
 70
     1
102
RTVSPost2010Prop46
 90
       50
102
RTVSPost2010PropOp46
 70
     1
102
RTVSPost2010Prop47
 90
       50
102
RTVSPost2010PropOp47
 70
     1
102
RTVSPost2010Prop48
 90
       50
102
RTVSPost2010PropOp48
 70
     1
102
RTVSPost2010Prop49
280
     0
102
RTVSPost2010PropOp49
 70
     1
102
RTVSPost2010Prop50
 90
       50
102
RTVSPost2010PropOp50
 70
     1
102
RTVSPost2010Prop51ColorIndex
 90
      256
102
RTVSPost2010Prop51ColorRGB
 90
-16777216
102
RTVSPost2010PropOp51
 70
     0
102
RTVSPost2010Prop52
140
1.0
102
RTVSPost2010PropOp52
 70
     0
102
RTVSPost2010Prop53
 90
        2
102
RTVSPost2010PropOp53
 70
     1
102
RTVSPost2010Prop54
  1
strokes_ogs.tif
102
RTVSPost2010PropOp54
 70
     1
102
RTVSPost2010Prop55
280
     0
102
RTVSPost2010PropOp55
 70
     1
102
RTVSPost2010Prop56
140
1.0
102
RTVSPost2010PropOp56
 70
     1
102
RTVSPost2010Prop57
140
1.0
102
RTVSPost2010PropOp57
 70
     1
  0
XRECORD
  5
45D
102
{ACAD_REACTORS
330
45C
102
}
330
45C
100
AcDbXrecord
280
     1
102
RTVSPropertyOp0
 70
     1
102
RTVSPropertyOp1
 70
     1
102
RTVSPropertyOp2
 70
     1
102
RTVSPropertyOp3
 70
     1
102
RTVSPropertyOp4
 70
     1
102
RTVSPropertyOp5
 70
     1
102
RTVSPropertyOp6
 70
     1
102
RTVSPropertyOp7
 70
     1
102
RTVSPropertyOp8
 70
     1
102
RTVSPropertyOp9
 70
     1
102
RTVSPropertyOp10
 70
     1
102
RTVSPropertyOp11
 70
     1
102
RTVSPropertyOp12
 70
     1
102
RTVSPropertyOp13
 70
     1
102
RTVSPropertyOp14
 70
     1
102
RTVSPropertyOp15
 70
     1
102
RTVSPropertyOp16
 70
     1
102
RTVSPropertyOp17
 70
     1
102
RTVSPropertyOp18
 70
     1
102
RTVSPropertyOp19
 70
     1
102
RTVSPropertyOp20
 70
     1
102
RTVSPropertyOp21
 70
     1
102
RTVSPropertyOp22
 70
     1
102
RTVSPropertyOp23
 70
     1
102
RTVSPropertyOp24
 70
     1
102
RTVSPropertyOp25
 70
     1
102
RTVSPropertyOp26
 70
     1
102
RTVSPropertyOp27
 70
     1
102
RTVSPropertyOp28
 70
     1
102
RTVSPropertyOp29
 70
     1
102
RTVSPropertyOp30
 70
     1
102
RTVSPropertyOp31
 70
     1
102
RTVSPropertyOp32
 70
     1
102
RTVSPropertyOp33
 70
     1
102
RTVSPropertyOp34
 70
     1
102
RTVSPropertyOp35
 70
     1
102
RTVSPropertyOp36
 70
     1
102
RTVSPropertyOp37
 70
     1
102
RTVSPropertyOp38
 70
     1
102
RTVSPropertyOp39
 70
     1
102
RTVSPropertyOp40
 70
     1
102
RTVSPropertyOp41
 70
     1
102
RTVSPropertyOp42
 70
     1
102
RTVSPropertyOp43
 70
     1
102
RTVSPropertyOp44
 70
     1
102
RTVSPropertyOp45
 70
     1
102
RTVSPropertyOp46
 70
     1
102
RTVSPropertyOp47
 70
     1
102
RTVSPropertyOp48
 70
     1
102
RTVSPropertyOp49
 70
     1
102
RTVSPropertyOp50
 70
     1
102
RTVSPropertyOp51
 70
     0
102
RTVSPropertyOp52
 70
     0
102
RTVSPropertyOp53
 70
     1
102
RTVSPropertyOp54
 70
     1
102
RTVSPropertyOp55
 70
     1
102
RTVSPropertyOp56
 70
     1
102
RTVSPropertyOp57
 70
     1
102
RTVSPost2010Prop28
280
     0
102
RTVSPost2010PropOp28
 70
     1
102
RTVSPost2010Prop29
280
     1
102
RTVSPost2010PropOp29
 70
     1
102
RTVSPost2010Prop30
280
     1
102
RTVSPost2010PropOp30
 70
     1
102
RTVSPost2010Prop31
280
     0
102
RTVSPost2010PropOp31
 70
     1
102
RTVSPost2010Prop32
280
     0
102
RTVSPost2010PropOp32
 70
     1
102
RTVSPost2010Prop33
280
     0
102
RTVSPost2010PropOp33
 70
     1
102
RTVSPost2010Prop34
280
     0
102
RTVSPost2010PropOp34
 70
     1
102
RTVSPost2010Prop35
280
     0
102
RTVSPost2010PropOp35
 70
     1
102
RTVSPost2010Prop36
280
     0
102
RTVSPost2010PropOp36
 70
     1
102
RTVSPost2010Prop37
 90
       50
102
RTVSPost2010PropOp37
 70
     1
102
RTVSPost2010Prop38
140
0.0
102
RTVSPost2010PropOp38
 70
     1
102
RTVSPost2010Prop39
140
1.0
102
RTVSPost2010PropOp39
 70
     1
102
RTVSPost2010Prop40
 90
        0
102
RTVSPost2010PropOp40
 70
     1
102
RTVSPost2010Prop41ColorIndex
 90
       18
102
RTVSPost2010Prop41ColorRGB
 90
        0
102
RTVSPost2010PropOp41
 70
     1
102
RTVSPost2010Prop42
 90
       50
102
RTVSPost2010PropOp42
 70
     1
102
RTVSPost2010Prop43
 90
        3
102
RTVSPost2010PropOp43
 70
     1
102
RTVSPost2010Prop44ColorIndex
 90
        5
102
RTVSPost2010Prop44ColorRGB
 90
      255
102
RTVSPost2010PropOp44
 70
     1
102
RTVSPost2010Prop45
280
     0
102
RTVSPost2010PropOp45
 70
     1
102
RTVSPost2010Prop46
 90
       50
102
RTVSPost2010PropOp46
 70
     1
102
RTVSPost2010Prop47
 90
       50
102
RTVSPost2010PropOp47
 70
     1
102
RTVSPost2010Prop48
 90
       50
102
RTVSPost2010PropOp48
 70
     1
102
RTVSPost2010Prop49
280
     0
102
RTVSPost2010PropOp49
 70
     1
102
RTVSPost2010Prop50
 90
       50
102
RTVSPost2010PropOp50
 70
     1
102
RTVSPost2010Prop51ColorIndex
 90
      256
102
RTVSPost2010Prop51ColorRGB
 90
-16777216
102
RTVSPost2010PropOp51
 70
     0
102
RTVSPost2010Prop52
140
1.0
102
RTVSPost2010PropOp52
 70
     0
102
RTVSPost2010Prop53
 90
        2
102
RTVSPost2010PropOp53
 70
     1
102
RTVSPost2010Prop54
  1
strokes_ogs.tif
102
RTVSPost2010PropOp54
 70
     1
102
RTVSPost2010Prop55
280
     0
102
RTVSPost2010PropOp55
 70
     1
102
RTVSPost2010Prop56
140
1.0
102
RTVSPost2010PropOp56
 70
     1
102
RTVSPost2010Prop57
140
1.0
102
RTVSPost2010PropOp57
 70
     1
  0
ENDSEC
  0
EOF
