  0
SECTION
  2
HEADER
  9
$ACADVER
  1
AC1018
  9
$ACADMAINTVER
 70
     0
  9
$DWGCODEPAGE
  3
ANSI_932
  9
$INSBASE
 10
0.0
 20
0.0
 30
0.0
  9
$EXTMIN
 10
-1260.0
 20
-891.0
 30
0.0
  9
$EXTMAX
 10
1260.0
 20
891.0
 30
0.0
  9
$LIMMIN
 10
-1260.0
 20
-891.0
  9
$LIMMAX
 10
1260.0
 20
891.0
  9
$ORTHOMODE
 70
     0
  9
$REGENMODE
 70
     1
  9
$FILLMODE
 70
     1
  9
$QTEXTMODE
 70
     0
  9
$MIRRTEXT
 70
     1
  9
$LTSCALE
 40
6.0
  9
$ATTMODE
 70
     1
  9
$TEXTSIZE
 40
2.5
  9
$TRACEWID
 40
1.0
  9
$TEXTSTYLE
  7
Standard
  9
$CLAYER
  8
0
  9
$CELTYPE
  6
ByLayer
  9
$CECOLOR
 62
   256
  9
$CELTSCALE
 40
1.0
  9
$DISPSILH
 70
     0
  9
$DIMSCALE
 40
1.0
  9
$DIMASZ
 40
2.5
  9
$DIMEXO
 40
0.625
  9
$DIMDLI
 40
3.75
  9
$DIMRND
 40
0.0
  9
$DIMDLE
 40
0.0
  9
$DIMEXE
 40
1.25
  9
$DIMTP
 40
0.0
  9
$DIMTM
 40
0.0
  9
$DIMTXT
 40
2.5
  9
$DIMCEN
 40
2.5
  9
$DIMTSZ
 40
0.0
  9
$DIMTOL
 70
     0
  9
$DIMLIM
 70
     0
  9
$DIMTIH
 70
     0
  9
$DIMTOH
 70
     0
  9
$DIMSE1
 70
     0
  9
$DIMSE2
 70
     0
  9
$DIMTAD
 70
     1
  9
$DIMZIN
 70
     8
  9
$DIMBLK
  1

  9
$DIMASO
 70
     1
  9
$DIMSHO
 70
     1
  9
$DIMPOST
  1

  9
$DIMAPOST
  1

  9
$DIMALT
 70
     0
  9
$DIMALTD
 70
     3
  9
$DIMALTF
 40
0.03937007874016
  9
$DIMLFAC
 40
1.0
  9
$DIMTOFL
 70
     1
  9
$DIMTVP
 40
0.0
  9
$DIMTIX
 70
     0
  9
$DIMSOXD
 70
     0
  9
$DIMSAH
 70
     0
  9
$DIMBLK1
  1

  9
$DIMBLK2
  1

  9
$DIMSTYLE
  2
ISO-25
  9
$DIMCLRD
 70
     0
  9
$DIMCLRE
 70
     0
  9
$DIMCLRT
 70
     0
  9
$DIMTFAC
 40
1.0
  9
$DIMGAP
 40
0.625
  9
$DIMJUST
 70
     0
  9
$DIMSD1
 70
     0
  9
$DIMSD2
 70
     0
  9
$DIMTOLJ
 70
     0
  9
$DIMTZIN
 70
     8
  9
$DIMALTZ
 70
     0
  9
$DIMALTTZ
 70
     0
  9
$DIMUPT
 70
     0
  9
$DIMDEC
 70
     2
  9
$DIMTDEC
 70
     2
  9
$DIMALTU
 70
     2
  9
$DIMALTTD
 70
     3
  9
$DIMTXSTY
  7
Standard
  9
$DIMAUNIT
 70
     0
  9
$DIMADEC
 70
     0
  9
$DIMALTRND
 40
0.0
  9
$DIMAZIN
 70
     0
  9
$DIMDSEP
 70
    44
  9
$DIMATFIT
 70
     3
  9
$DIMFRAC
 70
     0
  9
$DIMLDRBLK
  1

  9
$DIMLUNIT
 70
     2
  9
$DIMLWD
 70
    -2
  9
$DIMLWE
 70
    -2
  9
$DIMTMOVE
 70
     0
  9
$LUNITS
 70
     2
  9
$LUPREC
 70
     4
  9
$SKETCHINC
 40
1.0
  9
$FILLETRAD
 40
10.0
  9
$AUNITS
 70
     0
  9
$AUPREC
 70
     0
  9
$MENU
  1
.
  9
$ELEVATION
 40
0.0
  9
$PELEVATION
 40
0.0
  9
$THICKNESS
 40
0.0
  9
$LIMCHECK
 70
     0
  9
$CHAMFERA
 40
0.0
  9
$CHAMFERB
 40
0.0
  9
$CHAMFERC
 40
0.0
  9
$CHAMFERD
 40
0.0
  9
$SKPOLY
 70
     0
  9
$TDCREATE
 40
2459474.717576319
  9
$TDUCREATE
 40
2459474.342576319
  9
$TDUPDATE
 40
2459474.717576424
  9
$TDUUPDATE
 40
2459474.342576424
  9
$TDINDWG
 40
0.0000000116
  9
$TDUSRTIMER
 40
0.0000000116
  9
$USRTIMER
 70
     1
  9
$ANGBASE
 50
0.0
  9
$ANGDIR
 70
     0
  9
$PDMODE
 70
     0
  9
$PDSIZE
 40
0.0
  9
$PLINEWID
 40
0.0
  9
$SPLFRAME
 70
     0
  9
$SPLINETYPE
 70
     6
  9
$SPLINESEGS
 70
     8
  9
$HANDSEED
  5
308
  9
$SURFTAB1
 70
     6
  9
$SURFTAB2
 70
     6
  9
$SURFTYPE
 70
     6
  9
$SURFU
 70
     6
  9
$SURFV
 70
     6
  9
$UCSBASE
  2

  9
$UCSNAME
  2

  9
$UCSORG
 10
0.0
 20
0.0
 30
0.0
  9
$UCSXDIR
 10
1.0
 20
0.0
 30
0.0
  9
$UCSYDIR
 10
0.0
 20
1.0
 30
0.0
  9
$UCSORTHOREF
  2

  9
$UCSORTHOVIEW
 70
     0
  9
$UCSORGTOP
 10
0.0
 20
0.0
 30
0.0
  9
$UCSORGBOTTOM
 10
0.0
 20
0.0
 30
0.0
  9
$UCSORGLEFT
 10
0.0
 20
0.0
 30
0.0
  9
$UCSORGRIGHT
 10
0.0
 20
0.0
 30
0.0
  9
$UCSORGFRONT
 10
0.0
 20
0.0
 30
0.0
  9
$UCSORGBACK
 10
0.0
 20
0.0
 30
0.0
  9
$PUCSBASE
  2

  9
$PUCSNAME
  2

  9
$PUCSORG
 10
0.0
 20
0.0
 30
0.0
  9
$PUCSXDIR
 10
1.0
 20
0.0
 30
0.0
  9
$PUCSYDIR
 10
0.0
 20
1.0
 30
0.0
  9
$PUCSORTHOREF
  2

  9
$PUCSORTHOVIEW
 70
     0
  9
$PUCSORGTOP
 10
0.0
 20
0.0
 30
0.0
  9
$PUCSORGBOTTOM
 10
0.0
 20
0.0
 30
0.0
  9
$PUCSORGLEFT
 10
0.0
 20
0.0
 30
0.0
  9
$PUCSORGRIGHT
 10
0.0
 20
0.0
 30
0.0
  9
$PUCSORGFRONT
 10
0.0
 20
0.0
 30
0.0
  9
$PUCSORGBACK
 10
0.0
 20
0.0
 30
0.0
  9
$USERI1
 70
     0
  9
$USERI2
 70
     0
  9
$USERI3
 70
     0
  9
$USERI4
 70
     0
  9
$USERI5
 70
     0
  9
$USERR1
 40
0.0
  9
$USERR2
 40
0.0
  9
$USERR3
 40
0.0
  9
$USERR4
 40
0.0
  9
$USERR5
 40
0.0
  9
$WORLDVIEW
 70
     1
  9
$SHADEDGE
 70
     3
  9
$SHADEDIF
 70
    70
  9
$TILEMODE
 70
     1
  9
$MAXACTVP
 70
    64
  9
$PINSBASE
 10
0.0
 20
0.0
 30
0.0
  9
$PLIMCHECK
 70
     0
  9
$PEXTMIN
 10
1.000000000000000E+20
 20
1.000000000000000E+20
 30
1.000000000000000E+20
  9
$PEXTMAX
 10
-1.000000000000000E+20
 20
-1.000000000000000E+20
 30
-1.000000000000000E+20
  9
$PLIMMIN
 10
0.0
 20
0.0
  9
$PLIMMAX
 10
420.0
 20
297.0
  9
$UNITMODE
 70
     0
  9
$VISRETAIN
 70
     1
  9
$PLINEGEN
 70
     0
  9
$PSLTSCALE
 70
     1
  9
$TREEDEPTH
 70
  3020
  9
$CMLSTYLE
  2
Standard
  9
$CMLJUST
 70
     0
  9
$CMLSCALE
 40
20.0
  9
$PROXYGRAPHICS
 70
     1
  9
$MEASUREMENT
 70
     1
  9
$CELWEIGHT
370
    -1
  9
$ENDCAPS
280
     0
  9
$JOINSTYLE
280
     0
  9
$LWDISPLAY
290
     0
  9
$INSUNITS
 70
     4
  9
$HYPERLINKBASE
  1

  9
$STYLESHEET
  1

  9
$XEDIT
290
     1
  9
$CEPSNTYPE
380
     0
  9
$PSTYLEMODE
290
     1
  9
$FINGERPRINTGUID
  2
{8DE92B7F-31F3-466C-873E-11F566AE145D}
  9
$VERSIONGUID
  2
{FAEB1C32-E019-11D5-929B-00C0DF256EC4}
  9
$EXTNAMES
290
     1
  9
$PSVPSCALE
 40
0.0
  9
$OLESTARTUP
290
     0
  9
$SORTENTS
280
   127
  9
$INDEXCTL
280
     0
  9
$HIDETEXT
280
     1
  9
$XCLIPFRAME
290
     0
  9
$HALOGAP
280
     0
  9
$OBSCOLOR
 70
   257
  9
$OBSLTYPE
280
     0
  9
$INTERSECTIONDISPLAY
280
     0
  9
$INTERSECTIONCOLOR
 70
   257
  9
$DIMASSOC
280
     2
  9
$PROJECTNAME
  1

  0
ENDSEC
  0
SECTION
  2
CLASSES
  0
CLASS
  1
ACDBDICTIONARYWDFLT
  2
AcDbDictionaryWithDefault
  3
ObjectDBX Classes
 90
        0
 91
        4
280
     0
281
     0
  0
CLASS
  1
VISUALSTYLE
  2
AcDbVisualStyle
  3
ObjectDBX Classes
 90
     4095
 91
        4
280
     0
281
     0
  0
CLASS
  1
MATERIAL
  2
AcDbMaterial
  3
ObjectDBX Classes
 90
     1153
 91
        4
280
     0
281
     0
  0
CLASS
  1
SCALE
  2
AcDbScale
  3
ObjectDBX Classes
 90
     1153
 91
        4
280
     0
281
     0
  0
CLASS
  1
TABLESTYLE
  2
AcDbTableStyle
  3
ObjectDBX Classes
 90
     4095
 91
        4
280
     0
281
     0
  0
CLASS
  1
MLEADERSTYLE
  2
AcDbMLeaderStyle
  3
ACDB_MLEADERSTYLE_CLASS
 90
     4095
 91
        4
280
     0
281
     0
  0
CLASS
  1
SUN
  2
AcDbSun
  3
SCENEOE
 90
     1153
 91
        4
280
     0
281
     0
  0
CLASS
  1
DICTIONARYVAR
  2
AcDbDictionaryVar
  3
ObjectDBX Classes
 90
        0
 91
        4
280
     0
281
     0
  0
CLASS
  1
CELLSTYLEMAP
  2
AcDbCellStyleMap
  3
ObjectDBX Classes
 90
     1152
 91
        4
280
     0
281
     0
  0
ENDSEC
  0
SECTION
  2
TABLES
  0
TABLE
  2
VPORT
  5
8
102
{ACAD_XDICTIONARY
360
2BF
102
}
330
0
100
AcDbSymbolTable
 70
     1
  0
VPORT
  5
29
330
8
100
AcDbSymbolTableRecord
100
AcDbViewportTableRecord
  2
*Active
 70
     0
 10
0.0
 20
0.0
 11
1.0
 21
1.0
 12
0.0
 22
0.0
 13
0.0
 23
0.0
 14
10.0
 24
10.0
 15
10.0
 25
10.0
 16
0.0
 26
0.0
 36
1.0
 17
0.0
 27
0.0
 37
0.0
 40
1960.2
 41
1.414141414141414
 42
50.0
 43
0.0
 44
0.0
 50
0.0
 51
0.0
 71
     0
 72
 10000
 73
     1
 74
     3
 75
     0
 76
     0
 77
     0
 78
     0
281
     0
 65
     1
110
0.0
120
0.0
130
0.0
111
1.0
121
0.0
131
0.0
112
0.0
122
1.0
132
0.0
 79
     0
146
0.0
  0
ENDTAB
  0
TABLE
  2
LTYPE
  5
5
330
0
100
AcDbSymbolTable
 70
     3
  0
LTYPE
  5
14
330
5
100
AcDbSymbolTableRecord
100
AcDbLinetypeTableRecord
  2
ByBlock
 70
     0
  3

 72
    65
 73
     0
 40
0.0
  0
LTYPE
  5
15
330
5
100
AcDbSymbolTableRecord
100
AcDbLinetypeTableRecord
  2
ByLayer
 70
     0
  3

 72
    65
 73
     0
 40
0.0
  0
LTYPE
  5
16
330
5
100
AcDbSymbolTableRecord
100
AcDbLinetypeTableRecord
  2
Continuous
 70
     0
  3
Solid line
 72
    65
 73
     0
 40
0.0
  0
LTYPE
  5
6F
330
5
100
AcDbSymbolTableRecord
100
AcDbLinetypeTableRecord
  2
JWW_CENTER1
 70
     0
  3
-----  --  ----------  --  -----
 72
    65
 73
     4
 40
6.773333333333333
 49
4.233333333333333
 74
     0
 49
-0.8466666666666667
 74
     0
 49
0.8466666666666667
 74
     0
 49
-0.8466666666666667
 74
     0
  0
LTYPE
  5
70
330
5
100
AcDbSymbolTableRecord
100
AcDbLinetypeTableRecord
  2
JWW_DASHED3
 70
     0
  3
---  ------  ------  ------  ---
 72
    65
 73
     2
 40
3.386666666666667
 49
2.54
 74
     0
 49
-0.8466666666666667
 74
     0
  0
ENDTAB
  0
TABLE
  2
LAYER
  5
2
330
0
100
AcDbSymbolTable
 70
     8
  0
LAYER
  5
10
330
2
100
AcDbSymbolTableRecord
100
AcDbLayerTableRecord
  2
0
 70
     0
 62
     7
  6
Continuous
370
    -3
390
F
  0
LAYER
  5
71
330
2
100
AcDbSymbolTableRecord
100
AcDbLayerTableRecord
  2
B-C
 70
     0
 62
     7
  6
Continuous
370
    -3
390
F
  0
LAYER
  5
72
330
2
100
AcDbSymbolTableRecord
100
AcDbLayerTableRecord
  2
B-2
 70
     0
 62
     7
  6
Continuous
370
    -3
390
F
  0
LAYER
  5
73
330
2
100
AcDbSymbolTableRecord
100
AcDbLayerTableRecord
  2
B-1
 70
     0
 62
     7
  6
Continuous
370
    -3
390
F
  0
LAYER
  5
74
330
2
100
AcDbSymbolTableRecord
100
AcDbLayerTableRecord
  2
B-4
 70
     0
 62
     7
  6
Continuous
370
    -3
390
F
  0
LAYER
  5
75
330
2
100
AcDbSymbolTableRecord
100
AcDbLayerTableRecord
  2
F-0ﾚｲﾔ
 70
     0
 62
     7
  6
Continuous
370
    -3
390
F
  0
LAYER
  5
76
330
2
100
AcDbSymbolTableRecord
100
AcDbLayerTableRecord
  2
F-4ﾚｲﾔ
 70
     0
 62
     7
  6
Continuous
370
    -3
390
F
  0
LAYER
  5
77
330
2
100
AcDbSymbolTableRecord
100
AcDbLayerTableRecord
  2
F-5ﾚｲﾔ
 70
     0
 62
     7
  6
Continuous
370
    -3
390
F
  0
ENDTAB
  0
TABLE
  2
STYLE
  5
3
330
0
100
AcDbSymbolTable
 70
     2
  0
STYLE
  5
11
330
3
100
AcDbSymbolTableRecord
100
AcDbTextStyleTableRecord
  2
Standard
 70
     0
 40
0.0
 41
1.0
 50
0.0
 71
     0
 42
2.5
  3
txt
  4

  0
STYLE
  5
6E
330
3
100
AcDbSymbolTableRecord
100
AcDbTextStyleTableRecord
  2
ＭＳ ゴシック
 70
     0
 40
1.0
 41
1.0
 50
0.0
 71
     0
 42
2.5
  3

  4

1001
ACAD
1000
MS Gothic
1071
    32817
  0
ENDTAB
  0
TABLE
  2
VIEW
  5
6
330
0
100
AcDbSymbolTable
 70
     0
  0
ENDTAB
  0
TABLE
  2
UCS
  5
7
330
0
100
AcDbSymbolTable
 70
     0
  0
ENDTAB
  0
TABLE
  2
APPID
  5
9
330
0
100
AcDbSymbolTable
 70
     2
  0
APPID
  5
12
330
9
100
AcDbSymbolTableRecord
100
AcDbRegAppTableRecord
  2
ACAD
 70
     0
  0
APPID
  5
2FE
330
9
100
AcDbSymbolTableRecord
100
AcDbRegAppTableRecord
  2
ACAD_MLEADERVER
 70
     0
  0
ENDTAB
  0
TABLE
  2
DIMSTYLE
  5
A
330
0
100
AcDbSymbolTable
 70
     1
100
AcDbDimStyleTable
  0
DIMSTYLE
105
27
330
A
100
AcDbSymbolTableRecord
100
AcDbDimStyleTableRecord
  2
ISO-25
 70
     0
 41
2.5
 42
0.625
 43
3.75
 44
1.25
 73
     0
 74
     0
 77
     1
 78
     8
140
2.5
141
2.5
143
0.03937007874016
147
0.625
171
     3
172
     1
178
     0
271
     2
272
     2
274
     3
278
    44
283
     0
284
     8
340
11
  0
ENDTAB
  0
TABLE
  2
BLOCK_RECORD
  5
1
330
0
100
AcDbSymbolTable
 70
     1
  0
BLOCK_RECORD
  5
1F
330
1
100
AcDbSymbolTableRecord
100
AcDbBlockTableRecord
  2
*Model_Space
340
22
  0
BLOCK_RECORD
  5
1B
330
1
100
AcDbSymbolTableRecord
100
AcDbBlockTableRecord
  2
*Paper_Space
340
1E
  0
BLOCK_RECORD
  5
23
330
1
100
AcDbSymbolTableRecord
100
AcDbBlockTableRecord
  2
*Paper_Space0
340
26
  0
ENDTAB
  0
ENDSEC
  0
SECTION
  2
BLOCKS
  0
BLOCK
  5
20
330
1F
100
AcDbEntity
  8
0
100
AcDbBlockBegin
  2
*Model_Space
 70
     0
 10
0.0
 20
0.0
 30
0.0
  3
*Model_Space
  1

  0
ENDBLK
  5
21
330
1F
100
AcDbEntity
  8
0
100
AcDbBlockEnd
  0
BLOCK
  5
1C
330
1B
100
AcDbEntity
 67
     1
  8
0
100
AcDbBlockBegin
  2
*Paper_Space
 70
     0
 10
0.0
 20
0.0
 30
0.0
  3
*Paper_Space
  1

  0
ENDBLK
  5
1D
330
1B
100
AcDbEntity
 67
     1
  8
0
100
AcDbBlockEnd
  0
BLOCK
  5
24
330
23
100
AcDbEntity
  8
0
100
AcDbBlockBegin
  2
*Paper_Space0
 70
     0
 10
0.0
 20
0.0
 30
0.0
  3
*Paper_Space0
  1

  0
ENDBLK
  5
25
330
23
100
AcDbEntity
  8
0
100
AcDbBlockEnd
  0
ENDSEC
  0
SECTION
  2
ENTITIES
  0
LINE
  5
78
330
1F
100
AcDbEntity
  8
B-C
  6
Continuous
 62
     7
370
     9
100
AcDbLine
 10
-278.8192006703969
 20
512.9820714917519
 30
0.0
 11
-277.1876567118877
 21
525.375243472326
 31
0.0
  0
LINE
  5
79
330
1F
100
AcDbEntity
  8
B-C
  6
Continuous
 62
     7
370
     9
100
AcDbLine
 10
-278.8192006703969
 20
512.9820714917519
 30
0.0
 11
-274.0356197872676
 21
524.5307808456369
 31
0.0
  0
LINE
  5
7A
330
1F
100
AcDbEntity
  8
B-C
  6
Continuous
 62
     7
370
     9
100
AcDbLine
 10
-205.3555545291384
 20
656.8029052649781
 30
0.0
 11
19.71303578969594
 21
656.8029052649781
 31
0.0
  0
LINE
  5
7B
330
1F
100
AcDbEntity
  8
B-C
  6
Continuous
 62
     7
370
     9
100
AcDbLine
 10
-180.7213860589105
 20
615.2224741258312
 30
0.0
 11
78.54215054898657
 21
615.2224741258312
 31
0.0
  0
LINE
  5
7C
330
1F
100
AcDbEntity
  8
B-2
  6
Continuous
 62
     3
370
     9
100
AcDbLine
 10
-214.3082984718116
 20
442.2221013164984
 30
0.0
 11
-244.3089170713681
 21
433.742586034615
 31
0.0
  0
LINE
  5
7D
330
1F
100
AcDbEntity
  8
B-2
  6
Continuous
 62
     3
370
     9
100
AcDbLine
 10
-244.3083974477406
 20
442.2221013164984
 30
0.0
 11
-274.3085706556166
 21
433.742586034615
 31
0.0
  0
LINE
  5
7E
330
1F
100
AcDbEntity
  8
B-2
  6
Continuous
 62
     3
370
     9
100
AcDbLine
 10
-274.3085706556166
 20
442.2221013164984
 30
0.0
 11
-304.3087438634923
 21
433.742586034615
 31
0.0
  0
LINE
  5
7F
330
1F
100
AcDbEntity
  8
B-2
  6
Continuous
 62
     3
370
     9
100
AcDbLine
 10
-304.3087438634923
 20
442.2221013164984
 30
0.0
 11
-334.3088428394214
 21
433.742586034615
 31
0.0
  0
LINE
  5
80
330
1F
100
AcDbEntity
  8
B-2
  6
Continuous
 62
     3
370
     9
100
AcDbLine
 10
-334.3088428394214
 20
442.2221013164984
 30
0.0
 11
-364.3084964236697
 21
433.742586034615
 31
0.0
  0
LINE
  5
81
330
1F
100
AcDbEntity
  8
B-2
  6
Continuous
 62
     3
370
     9
100
AcDbLine
 10
-364.3084964236697
 20
442.2221013164984
 30
0.0
 11
-394.3086696315456
 21
433.742586034615
 31
0.0
  0
LINE
  5
82
330
1F
100
AcDbEntity
  8
B-2
  6
Continuous
 62
     3
370
     9
100
AcDbLine
 10
-394.3086696315456
 20
442.2221013164984
 30
0.0
 11
-424.3087686074747
 21
433.742586034615
 31
0.0
  0
LINE
  5
83
330
1F
100
AcDbEntity
  8
B-2
  6
Continuous
 62
     3
370
     9
100
AcDbLine
 10
-424.3087686074747
 20
442.2221013164984
 30
0.0
 11
-454.3088675834038
 21
433.742586034615
 31
0.0
  0
LINE
  5
84
330
1F
100
AcDbEntity
  8
B-2
  6
Continuous
 62
     3
370
     9
100
AcDbLine
 10
-454.308422191723
 20
442.2221013164984
 30
0.0
 11
-484.3090407912795
 21
433.742586034615
 31
0.0
  0
LINE
  5
85
330
1F
100
AcDbEntity
  8
B-2
  6
Continuous
 62
     3
370
     9
100
AcDbLine
 10
-484.308521167652
 20
442.2221013164984
 30
0.0
 11
-514.308620143581
 21
433.742586034615
 31
0.0
  0
LINE
  5
86
330
1F
100
AcDbEntity
  8
B-2
  6
Continuous
 62
     3
370
     9
100
AcDbLine
 10
-514.308620143581
 20
442.2221013164984
 30
0.0
 11
-544.3082737278294
 21
433.742586034615
 31
0.0
  0
LINE
  5
87
330
1F
100
AcDbEntity
  8
B-2
  6
Continuous
 62
     3
370
     9
100
AcDbLine
 10
-544.3082737278294
 20
442.2221013164984
 30
0.0
 11
-574.3089665593327
 21
433.742586034615
 31
0.0
  0
LINE
  5
88
330
1F
100
AcDbEntity
  8
B-2
  6
Continuous
 62
     3
370
     9
100
AcDbLine
 10
-574.3089665593327
 20
442.2221013164984
 30
0.0
 11
-604.308620143581
 21
433.742586034615
 31
0.0
  0
LINE
  5
89
330
1F
100
AcDbEntity
  8
B-2
  6
Continuous
 62
     3
370
     9
100
AcDbLine
 10
-604.308620143581
 20
442.2221013164984
 30
0.0
 11
-634.3081994958826
 21
433.742586034615
 31
0.0
  0
LINE
  5
8A
330
1F
100
AcDbEntity
  8
B-2
  6
Continuous
 62
     3
370
     9
100
AcDbLine
 10
-634.3081994958826
 20
442.2221013164984
 30
0.0
 11
-664.3088180954392
 21
433.742586034615
 31
0.0
  0
LINE
  5
8B
330
1F
100
AcDbEntity
  8
B-2
  6
Continuous
 62
     3
370
     9
100
AcDbLine
 10
-664.3088180954392
 20
442.2221013164984
 30
0.0
 11
-694.3084716796875
 21
433.742586034615
 31
0.0
  0
LINE
  5
8C
330
1F
100
AcDbEntity
  8
B-2
  6
Continuous
 62
     3
370
     9
100
AcDbLine
 10
-694.3084716796875
 20
442.2221013164984
 30
0.0
 11
-699.3087356154983
 21
441.2221969932298
 31
0.0
  0
LINE
  5
8D
330
1F
100
AcDbEntity
  8
B-2
  6
Continuous
 62
     3
370
     9
100
AcDbLine
 10
-669.3081912478885
 20
508.4821308773092
 30
0.0
 11
-669.3081912478885
 21
442.2221013164984
 31
0.0
  0
LINE
  5
8E
330
1F
100
AcDbEntity
  8
B-2
  6
Continuous
 62
     3
370
     9
100
AcDbLine
 10
-664.3088180954392
 20
508.4821308773092
 30
0.0
 11
-664.3088180954392
 21
442.2221013164984
 31
0.0
  0
LINE
  5
8F
330
1F
100
AcDbEntity
  8
B-2
  6
Continuous
 62
     3
370
     9
100
AcDbLine
 10
-339.3085871516047
 20
508.4821308773092
 30
0.0
 11
-339.3085871516047
 21
442.2221013164984
 31
0.0
  0
LINE
  5
90
330
1F
100
AcDbEntity
  8
B-2
  6
Continuous
 62
     3
370
     9
100
AcDbLine
 10
-334.3088428394214
 20
508.4821308773092
 30
0.0
 11
-334.3088428394214
 21
442.2221013164984
 31
0.0
  0
LINE
  5
91
330
1F
100
AcDbEntity
  8
B-2
  6
Continuous
 62
     3
370
     9
100
AcDbLine
 10
-369.3087603594805
 20
508.4821308773092
 30
0.0
 11
-369.3087603594805
 21
442.2221013164984
 31
0.0
  0
LINE
  5
92
330
1F
100
AcDbEntity
  8
B-2
  6
Continuous
 62
     3
370
     9
100
AcDbLine
 10
-364.3084964236697
 20
508.4821308773092
 30
0.0
 11
-364.3084964236697
 21
442.2221013164984
 31
0.0
  0
LINE
  5
93
330
1F
100
AcDbEntity
  8
B-2
  6
Continuous
 62
     3
370
     9
100
AcDbLine
 10
-399.3084139437289
 20
508.4821308773092
 30
0.0
 11
-399.3084139437289
 21
442.2221013164984
 31
0.0
  0
LINE
  5
94
330
1F
100
AcDbEntity
  8
B-2
  6
Continuous
 62
     3
370
     9
100
AcDbLine
 10
-394.3086696315456
 20
508.4821308773092
 30
0.0
 11
-394.3086696315456
 21
442.2221013164984
 31
0.0
  0
LINE
  5
95
330
1F
100
AcDbEntity
  8
B-2
  6
Continuous
 62
     3
370
     9
100
AcDbLine
 10
-429.308512919658
 20
508.4821308773092
 30
0.0
 11
-429.308512919658
 21
442.2221013164984
 31
0.0
  0
LINE
  5
96
330
1F
100
AcDbEntity
  8
B-2
  6
Continuous
 62
     3
370
     9
100
AcDbLine
 10
-424.3087686074747
 20
508.4821308773092
 30
0.0
 11
-424.3087686074747
 21
442.2221013164984
 31
0.0
  0
LINE
  5
97
330
1F
100
AcDbEntity
  8
B-2
  6
Continuous
 62
     3
370
     9
100
AcDbLine
 10
-459.3086861275337
 20
508.4821308773092
 30
0.0
 11
-459.3086861275337
 21
442.2221013164984
 31
0.0
  0
LINE
  5
98
330
1F
100
AcDbEntity
  8
B-2
  6
Continuous
 62
     3
370
     9
100
AcDbLine
 10
-454.3088675834038
 20
508.4821308773092
 30
0.0
 11
-454.3088675834038
 21
442.2221013164984
 31
0.0
  0
LINE
  5
99
330
1F
100
AcDbEntity
  8
B-2
  6
Continuous
 62
     3
370
     9
100
AcDbLine
 10
-489.308339711782
 20
508.4821308773092
 30
0.0
 11
-489.308339711782
 21
442.2221013164984
 31
0.0
  0
LINE
  5
9A
330
1F
100
AcDbEntity
  8
B-2
  6
Continuous
 62
     3
370
     9
100
AcDbLine
 10
-484.3090407912795
 20
508.4821308773092
 30
0.0
 11
-484.3090407912795
 21
442.2221013164984
 31
0.0
  0
LINE
  5
9B
330
1F
100
AcDbEntity
  8
B-2
  6
Continuous
 62
     3
370
     9
100
AcDbLine
 10
-519.3079190640835
 20
508.4821308773092
 30
0.0
 11
-519.3079190640835
 21
442.2221013164984
 31
0.0
  0
LINE
  5
9C
330
1F
100
AcDbEntity
  8
B-2
  6
Continuous
 62
     3
370
     9
100
AcDbLine
 10
-514.308620143581
 20
508.4821308773092
 30
0.0
 11
-514.308620143581
 21
442.2221013164984
 31
0.0
  0
LINE
  5
9D
330
1F
100
AcDbEntity
  8
B-2
  6
Continuous
 62
     3
370
     9
100
AcDbLine
 10
-549.3085376636402
 20
508.4821308773092
 30
0.0
 11
-549.3085376636402
 21
442.2221013164984
 31
0.0
  0
LINE
  5
9E
330
1F
100
AcDbEntity
  8
B-2
  6
Continuous
 62
     3
370
     9
100
AcDbLine
 10
-544.3082737278294
 20
508.4821308773092
 30
0.0
 11
-544.3082737278294
 21
442.2221013164984
 31
0.0
  0
LINE
  5
9F
330
1F
100
AcDbEntity
  8
B-2
  6
Continuous
 62
     3
370
     9
100
AcDbLine
 10
-579.3081912478885
 20
508.4821308773092
 30
0.0
 11
-579.3081912478885
 21
442.2221013164984
 31
0.0
  0
LINE
  5
A0
330
1F
100
AcDbEntity
  8
B-2
  6
Continuous
 62
     3
370
     9
100
AcDbLine
 10
-574.3089665593327
 20
508.4821308773092
 30
0.0
 11
-574.3089665593327
 21
442.2221013164984
 31
0.0
  0
LINE
  5
A1
330
1F
100
AcDbEntity
  8
B-2
  6
Continuous
 62
     3
370
     9
100
AcDbLine
 10
-609.3088840793919
 20
508.4821308773092
 30
0.0
 11
-609.3088840793919
 21
442.2221013164984
 31
0.0
  0
LINE
  5
A2
330
1F
100
AcDbEntity
  8
B-2
  6
Continuous
 62
     3
370
     9
100
AcDbLine
 10
-604.308620143581
 20
508.4821308773092
 30
0.0
 11
-604.308620143581
 21
442.2221013164984
 31
0.0
  0
LINE
  5
A3
330
1F
100
AcDbEntity
  8
B-2
  6
Continuous
 62
     3
370
     9
100
AcDbLine
 10
-639.3085376636402
 20
508.4821308773092
 30
0.0
 11
-639.3085376636402
 21
442.2221013164984
 31
0.0
  0
LINE
  5
A4
330
1F
100
AcDbEntity
  8
B-2
  6
Continuous
 62
     3
370
     9
100
AcDbLine
 10
-634.3081994958826
 20
508.4821308773092
 30
0.0
 11
-634.3081994958826
 21
442.2221013164984
 31
0.0
  0
LINE
  5
A5
330
1F
100
AcDbEntity
  8
B-2
  6
Continuous
 62
     3
370
     9
100
AcDbLine
 10
-159.3096263988597
 20
508.4821308773092
 30
0.0
 11
-159.3096263988597
 21
442.2221013164984
 31
0.0
  0
LINE
  5
A6
330
1F
100
AcDbEntity
  8
B-2
  6
Continuous
 62
     3
370
     9
100
AcDbLine
 10
-219.3085624076223
 20
508.4821308773092
 30
0.0
 11
-219.3085624076223
 21
442.2221013164984
 31
0.0
  0
LINE
  5
A7
330
1F
100
AcDbEntity
  8
B-2
  6
Continuous
 62
     3
370
     9
100
AcDbLine
 10
-214.3088180954391
 20
508.4821308773092
 30
0.0
 11
-214.3088180954391
 21
442.2221013164984
 31
0.0
  0
LINE
  5
A8
330
1F
100
AcDbEntity
  8
B-2
  6
Continuous
 62
     3
370
     9
100
AcDbLine
 10
-249.3081417599239
 20
508.4821308773092
 30
0.0
 11
-249.3081417599239
 21
442.2221013164984
 31
0.0
  0
LINE
  5
A9
330
1F
100
AcDbEntity
  8
B-2
  6
Continuous
 62
     3
370
     9
100
AcDbLine
 10
-244.3089170713681
 20
508.4821308773092
 30
0.0
 11
-244.3089170713681
 21
442.2221013164984
 31
0.0
  0
LINE
  5
AA
330
1F
100
AcDbEntity
  8
B-2
  6
Continuous
 62
     3
370
     9
100
AcDbLine
 10
-279.3083149677998
 20
508.4821308773092
 30
0.0
 11
-279.3083149677998
 21
442.2221013164984
 31
0.0
  0
LINE
  5
AB
330
1F
100
AcDbEntity
  8
B-2
  6
Continuous
 62
     3
370
     9
100
AcDbLine
 10
-274.3085706556166
 20
508.4821308773092
 30
0.0
 11
-274.3085706556166
 21
442.2221013164984
 31
0.0
  0
LINE
  5
AC
330
1F
100
AcDbEntity
  8
B-2
  6
Continuous
 62
     3
370
     9
100
AcDbLine
 10
-309.3084881756756
 20
508.4821308773092
 30
0.0
 11
-309.3084881756756
 21
442.2221013164984
 31
0.0
  0
LINE
  5
AD
330
1F
100
AcDbEntity
  8
B-2
  6
Continuous
 62
     3
370
     9
100
AcDbLine
 10
-304.3087438634923
 20
508.4821308773092
 30
0.0
 11
-304.3087438634923
 21
442.2221013164984
 31
0.0
  0
LINE
  5
AE
330
1F
100
AcDbEntity
  8
B-2
  6
Continuous
 62
     3
370
     9
100
AcDbLine
 10
-214.3082984718116
 20
342.2225384601849
 30
0.0
 11
-244.3089170713681
 21
333.7422808588337
 31
0.0
  0
LINE
  5
AF
330
1F
100
AcDbEntity
  8
B-2
  6
Continuous
 62
     3
370
     9
100
AcDbLine
 10
-244.3083974477406
 20
342.2225384601849
 30
0.0
 11
-274.3085706556166
 21
333.7422808588337
 31
0.0
  0
LINE
  5
B0
330
1F
100
AcDbEntity
  8
B-2
  6
Continuous
 62
     3
370
     9
100
AcDbLine
 10
-274.3085706556166
 20
342.2225384601849
 30
0.0
 11
-304.3087438634923
 21
333.7422808588337
 31
0.0
  0
LINE
  5
B1
330
1F
100
AcDbEntity
  8
B-2
  6
Continuous
 62
     3
370
     9
100
AcDbLine
 10
-304.3087438634923
 20
342.2225384601849
 30
0.0
 11
-334.3088428394214
 21
333.7422808588337
 31
0.0
  0
LINE
  5
B2
330
1F
100
AcDbEntity
  8
B-2
  6
Continuous
 62
     3
370
     9
100
AcDbLine
 10
-334.3088428394214
 20
342.2225384601849
 30
0.0
 11
-364.3084964236697
 21
333.7422808588337
 31
0.0
  0
LINE
  5
B3
330
1F
100
AcDbEntity
  8
B-2
  6
Continuous
 62
     3
370
     9
100
AcDbLine
 10
-364.3084964236697
 20
342.2225384601849
 30
0.0
 11
-394.3086696315456
 21
333.7422808588337
 31
0.0
  0
LINE
  5
B4
330
1F
100
AcDbEntity
  8
B-2
  6
Continuous
 62
     3
370
     9
100
AcDbLine
 10
-394.3086696315456
 20
342.2225384601849
 30
0.0
 11
-424.3087686074747
 21
333.7422808588337
 31
0.0
  0
LINE
  5
B5
330
1F
100
AcDbEntity
  8
B-2
  6
Continuous
 62
     3
370
     9
100
AcDbLine
 10
-424.3087686074747
 20
342.2225384601849
 30
0.0
 11
-454.3088675834038
 21
333.7422808588337
 31
0.0
  0
LINE
  5
B6
330
1F
100
AcDbEntity
  8
B-2
  6
Continuous
 62
     3
370
     9
100
AcDbLine
 10
-454.308422191723
 20
342.2225384601849
 30
0.0
 11
-484.3090407912795
 21
333.7422808588337
 31
0.0
  0
LINE
  5
B7
330
1F
100
AcDbEntity
  8
B-2
  6
Continuous
 62
     3
370
     9
100
AcDbLine
 10
-484.308521167652
 20
342.2225384601849
 30
0.0
 11
-514.308620143581
 21
333.7422808588337
 31
0.0
  0
LINE
  5
B8
330
1F
100
AcDbEntity
  8
B-2
  6
Continuous
 62
     3
370
     9
100
AcDbLine
 10
-514.308620143581
 20
342.2225384601849
 30
0.0
 11
-544.3082737278294
 21
333.7422808588337
 31
0.0
  0
LINE
  5
B9
330
1F
100
AcDbEntity
  8
B-2
  6
Continuous
 62
     3
370
     9
100
AcDbLine
 10
-544.3082737278294
 20
342.2225384601849
 30
0.0
 11
-574.3089665593327
 21
333.7422808588337
 31
0.0
  0
LINE
  5
BA
330
1F
100
AcDbEntity
  8
B-2
  6
Continuous
 62
     3
370
     9
100
AcDbLine
 10
-574.3089665593327
 20
342.2225384601849
 30
0.0
 11
-604.308620143581
 21
333.7422808588337
 31
0.0
  0
LINE
  5
BB
330
1F
100
AcDbEntity
  8
B-2
  6
Continuous
 62
     3
370
     9
100
AcDbLine
 10
-604.308620143581
 20
342.2225384601849
 30
0.0
 11
-634.3081994958826
 21
333.7422808588337
 31
0.0
  0
LINE
  5
BC
330
1F
100
AcDbEntity
  8
B-2
  6
Continuous
 62
     3
370
     9
100
AcDbLine
 10
-634.3081994958826
 20
342.2225384601849
 30
0.0
 11
-664.3088180954392
 21
333.7422808588337
 31
0.0
  0
LINE
  5
BD
330
1F
100
AcDbEntity
  8
B-2
  6
Continuous
 62
     3
370
     9
100
AcDbLine
 10
-664.3088180954392
 20
342.2225384601849
 30
0.0
 11
-694.3084716796875
 21
333.7422808588337
 31
0.0
  0
LINE
  5
BE
330
1F
100
AcDbEntity
  8
B-2
  6
Continuous
 62
     3
370
     9
100
AcDbLine
 10
-694.3084716796875
 20
342.2225384601849
 30
0.0
 11
-699.3087356154983
 21
341.222411441076
 31
0.0
  0
LINE
  5
BF
330
1F
100
AcDbEntity
  8
B-2
  6
Continuous
 62
     3
370
     9
100
AcDbLine
 10
-694.3084716796875
 20
442.2221013164984
 30
0.0
 11
-694.3084716796875
 21
508.4821308773092
 31
0.0
  0
LINE
  5
C0
330
1F
100
AcDbEntity
  8
B-1
  6
Continuous
 62
     2
370
     9
100
AcDbLine
 10
-481.8094284470017
 20
-57.61826700592569
 30
0.0
 11
-481.8094284470017
 21
-51.51803408257264
 31
0.0
  0
LINE
  5
C1
330
1F
100
AcDbEntity
  8
B-1
  6
Continuous
 62
     2
370
     9
100
AcDbLine
 10
-381.8094944309544
 20
-67.61827525391975
 30
0.0
 11
-471.8093459670608
 21
-67.61827525391975
 31
0.0
  0
LINE
  5
C2
330
1F
100
AcDbEntity
  8
B-1
  6
Continuous
 62
     2
370
     9
100
AcDbLine
 10
-371.8093377190667
 20
-57.61826700592569
 30
0.0
 11
-371.8093377190667
 21
-51.51803408257264
 31
0.0
  0
LINE
  5
C3
330
1F
100
AcDbEntity
  8
B-1
  6
Continuous
 62
     2
370
     9
100
AcDbLine
 10
-380.8095901076858
 20
-57.61826700592569
 30
0.0
 11
-380.8095901076858
 21
-51.51803408257264
 31
0.0
  0
LINE
  5
C4
330
1F
100
AcDbEntity
  8
B-1
  6
Continuous
 62
     2
370
     9
100
AcDbLine
 10
-471.8093459670608
 20
-58.61802286530069
 30
0.0
 11
-381.8094944309544
 21
-58.61802286530069
 31
0.0
  0
LINE
  5
C5
330
1F
100
AcDbEntity
  8
B-1
  6
Continuous
 62
     2
370
     9
100
AcDbLine
 10
-472.8096956820102
 20
-57.61826700592569
 30
0.0
 11
-472.8096956820102
 21
-51.51803408257264
 31
0.0
  0
LINE
  5
C6
330
1F
100
AcDbEntity
  8
B-1
  6
JWW_CENTER1
 62
     2
370
     9
100
AcDbLine
 10
-477.3094878325591
 20
-43.41116317357763
 30
0.0
 11
-477.3094878325591
 21
-59.00803751373819
 31
0.0
  0
LINE
  5
C7
330
1F
100
AcDbEntity
  8
B-1
  6
JWW_CENTER1
 62
     2
370
     9
100
AcDbLine
 10
-469.1462006440033
 20
-51.51803408257264
 30
0.0
 11
-485.5536878431166
 21
-51.51803408257264
 31
0.0
  0
LINE
  5
C8
330
1F
100
AcDbEntity
  8
B-1
  6
JWW_CENTER1
 62
     2
370
     9
100
AcDbLine
 10
-376.3092783335092
 20
-43.41116317357763
 30
0.0
 11
-376.3092783335092
 21
-59.00803751373819
 31
0.0
  0
LINE
  5
C9
330
1F
100
AcDbEntity
  8
B-1
  6
JWW_CENTER1
 62
     2
370
     9
100
AcDbLine
 10
-368.1463623046875
 20
-51.51803408257264
 30
0.0
 11
-384.5533298801731
 21
-51.51803408257264
 31
0.0
  0
LINE
  5
CA
330
1F
100
AcDbEntity
  8
B-1
  6
Continuous
 62
     2
370
     9
100
AcDbLine
 10
-481.8094284470017
 20
533.5826244372754
 30
0.0
 11
-481.8094284470017
 21
527.482243050029
 31
0.0
  0
LINE
  5
CB
330
1F
100
AcDbEntity
  8
B-1
  6
Continuous
 62
     2
370
     9
100
AcDbLine
 10
-381.8094944309544
 20
543.5822615255356
 30
0.0
 11
-471.8093459670608
 21
543.5822615255356
 31
0.0
  0
LINE
  5
CC
330
1F
100
AcDbEntity
  8
B-1
  6
Continuous
 62
     2
370
     9
100
AcDbLine
 10
-371.8093377190667
 20
533.5826244372754
 30
0.0
 11
-371.8093377190667
 21
527.482243050029
 31
0.0
  0
LINE
  5
CD
330
1F
100
AcDbEntity
  8
B-1
  6
Continuous
 62
     2
370
     9
100
AcDbLine
 10
-380.8095901076858
 20
533.5826244372754
 30
0.0
 11
-380.8095901076858
 21
527.482243050029
 31
0.0
  0
LINE
  5
CE
330
1F
100
AcDbEntity
  8
B-1
  6
Continuous
 62
     2
370
     9
100
AcDbLine
 10
-471.8093459670608
 20
534.5826772244377
 30
0.0
 11
-381.8094944309544
 21
534.5826772244377
 31
0.0
  0
LINE
  5
CF
330
1F
100
AcDbEntity
  8
B-1
  6
Continuous
 62
     2
370
     9
100
AcDbLine
 10
-472.8096956820102
 20
533.5826244372754
 30
0.0
 11
-472.8096956820102
 21
527.482243050029
 31
0.0
  0
LINE
  5
D0
330
1F
100
AcDbEntity
  8
B-1
  6
JWW_CENTER1
 62
     2
370
     9
100
AcDbLine
 10
-477.3094878325591
 20
519.3746298215659
 30
0.0
 11
-477.3094878325591
 21
534.9731372645559
 31
0.0
  0
LINE
  5
D1
330
1F
100
AcDbEntity
  8
B-1
  6
JWW_CENTER1
 62
     2
370
     9
100
AcDbLine
 10
-469.1462006440033
 20
527.482243050029
 30
0.0
 11
-485.5536878431166
 21
527.482243050029
 31
0.0
  0
LINE
  5
D2
330
1F
100
AcDbEntity
  8
B-1
  6
JWW_CENTER1
 62
     2
370
     9
100
AcDbLine
 10
-376.3092783335092
 20
519.3746298215659
 30
0.0
 11
-376.3092783335092
 21
534.9731372645559
 31
0.0
  0
LINE
  5
D3
330
1F
100
AcDbEntity
  8
B-1
  6
JWW_CENTER1
 62
     2
370
     9
100
AcDbLine
 10
-368.1463623046875
 20
527.482243050029
 30
0.0
 11
-384.5533298801731
 21
527.482243050029
 31
0.0
  0
LINE
  5
D4
330
1F
100
AcDbEntity
  8
B-2
  6
Continuous
 62
     3
370
     9
100
AcDbLine
 10
-484.3090407912795
 20
433.742586034615
 30
0.0
 11
-484.3090407912795
 21
342.2225384601849
 31
0.0
  0
LINE
  5
D5
330
1F
100
AcDbEntity
  8
B-2
  6
Continuous
 62
     3
370
     9
100
AcDbLine
 10
-489.308339711782
 20
433.742586034615
 30
0.0
 11
-489.308339711782
 21
342.2225384601849
 31
0.0
  0
LINE
  5
D6
330
1F
100
AcDbEntity
  8
B-2
  6
Continuous
 62
     3
370
     9
100
AcDbLine
 10
-514.308620143581
 20
433.742586034615
 30
0.0
 11
-514.308620143581
 21
342.2225384601849
 31
0.0
  0
LINE
  5
D7
330
1F
100
AcDbEntity
  8
B-2
  6
Continuous
 62
     3
370
     9
100
AcDbLine
 10
-519.3079190640835
 20
433.742586034615
 30
0.0
 11
-519.3079190640835
 21
342.2225384601849
 31
0.0
  0
LINE
  5
D8
330
1F
100
AcDbEntity
  8
B-2
  6
Continuous
 62
     3
370
     9
100
AcDbLine
 10
-544.3082737278294
 20
433.742586034615
 30
0.0
 11
-544.3082737278294
 21
342.2225384601849
 31
0.0
  0
LINE
  5
D9
330
1F
100
AcDbEntity
  8
B-2
  6
Continuous
 62
     3
370
     9
100
AcDbLine
 10
-549.3085376636402
 20
433.742586034615
 30
0.0
 11
-549.3085376636402
 21
342.2225384601849
 31
0.0
  0
LINE
  5
DA
330
1F
100
AcDbEntity
  8
B-2
  6
Continuous
 62
     3
370
     9
100
AcDbLine
 10
-574.3089665593327
 20
433.742586034615
 30
0.0
 11
-574.3089665593327
 21
342.2225384601849
 31
0.0
  0
LINE
  5
DB
330
1F
100
AcDbEntity
  8
B-2
  6
Continuous
 62
     3
370
     9
100
AcDbLine
 10
-579.3081912478885
 20
433.742586034615
 30
0.0
 11
-579.3081912478885
 21
342.2225384601849
 31
0.0
  0
LINE
  5
DC
330
1F
100
AcDbEntity
  8
B-2
  6
Continuous
 62
     3
370
     9
100
AcDbLine
 10
-604.308620143581
 20
433.742586034615
 30
0.0
 11
-604.308620143581
 21
342.2225384601849
 31
0.0
  0
LINE
  5
DD
330
1F
100
AcDbEntity
  8
B-2
  6
Continuous
 62
     3
370
     9
100
AcDbLine
 10
-609.3088840793919
 20
433.742586034615
 30
0.0
 11
-609.3088840793919
 21
342.2225384601849
 31
0.0
  0
LINE
  5
DE
330
1F
100
AcDbEntity
  8
B-2
  6
Continuous
 62
     3
370
     9
100
AcDbLine
 10
-634.3081994958826
 20
433.742586034615
 30
0.0
 11
-634.3081994958826
 21
342.2225384601849
 31
0.0
  0
LINE
  5
DF
330
1F
100
AcDbEntity
  8
B-2
  6
Continuous
 62
     3
370
     9
100
AcDbLine
 10
-639.3085376636402
 20
433.742586034615
 30
0.0
 11
-639.3085376636402
 21
342.2225384601849
 31
0.0
  0
LINE
  5
E0
330
1F
100
AcDbEntity
  8
B-2
  6
Continuous
 62
     3
370
     9
100
AcDbLine
 10
-664.3088180954392
 20
433.742586034615
 30
0.0
 11
-664.3088180954392
 21
342.2225384601849
 31
0.0
  0
LINE
  5
E1
330
1F
100
AcDbEntity
  8
B-2
  6
Continuous
 62
     3
370
     9
100
AcDbLine
 10
-669.3081912478885
 20
433.742586034615
 30
0.0
 11
-669.3081912478885
 21
342.2225384601849
 31
0.0
  0
LINE
  5
E2
330
1F
100
AcDbEntity
  8
B-2
  6
Continuous
 62
     3
370
     9
100
AcDbLine
 10
-699.3087356154983
 20
-37.01763982845522
 30
0.0
 11
-699.3087356154983
 21
512.9820714917519
 31
0.0
  0
LINE
  5
E3
330
1F
100
AcDbEntity
  8
B-2
  6
Continuous
 62
     3
370
     9
100
AcDbLine
 10
-694.3084716796875
 20
342.2225384601849
 30
0.0
 11
-694.3084716796875
 21
433.742586034615
 31
0.0
  0
LINE
  5
E4
330
1F
100
AcDbEntity
  8
B-2
  6
Continuous
 62
     3
370
     9
100
AcDbLine
 10
-304.3087438634923
 20
433.742586034615
 30
0.0
 11
-304.3087438634923
 21
342.2225384601849
 31
0.0
  0
LINE
  5
E5
330
1F
100
AcDbEntity
  8
B-2
  6
Continuous
 62
     3
370
     9
100
AcDbLine
 10
-309.3084881756756
 20
433.742586034615
 30
0.0
 11
-309.3084881756756
 21
342.2225384601849
 31
0.0
  0
LINE
  5
E6
330
1F
100
AcDbEntity
  8
B-2
  6
Continuous
 62
     3
370
     9
100
AcDbLine
 10
-334.3088428394214
 20
433.742586034615
 30
0.0
 11
-334.3088428394214
 21
342.2225384601849
 31
0.0
  0
LINE
  5
E7
330
1F
100
AcDbEntity
  8
B-2
  6
Continuous
 62
     3
370
     9
100
AcDbLine
 10
-339.3085871516047
 20
433.742586034615
 30
0.0
 11
-339.3085871516047
 21
342.2225384601849
 31
0.0
  0
LINE
  5
E8
330
1F
100
AcDbEntity
  8
B-2
  6
Continuous
 62
     3
370
     9
100
AcDbLine
 10
-364.3084964236697
 20
433.742586034615
 30
0.0
 11
-364.3084964236697
 21
342.2225384601849
 31
0.0
  0
LINE
  5
E9
330
1F
100
AcDbEntity
  8
B-2
  6
Continuous
 62
     3
370
     9
100
AcDbLine
 10
-369.3087603594805
 20
433.742586034615
 30
0.0
 11
-369.3087603594805
 21
342.2225384601849
 31
0.0
  0
LINE
  5
EA
330
1F
100
AcDbEntity
  8
B-2
  6
Continuous
 62
     3
370
     9
100
AcDbLine
 10
-394.3086696315456
 20
433.742586034615
 30
0.0
 11
-394.3086696315456
 21
342.2225384601849
 31
0.0
  0
LINE
  5
EB
330
1F
100
AcDbEntity
  8
B-2
  6
Continuous
 62
     3
370
     9
100
AcDbLine
 10
-399.3084139437289
 20
433.742586034615
 30
0.0
 11
-399.3084139437289
 21
342.2225384601849
 31
0.0
  0
LINE
  5
EC
330
1F
100
AcDbEntity
  8
B-2
  6
Continuous
 62
     3
370
     9
100
AcDbLine
 10
-424.3087686074747
 20
433.742586034615
 30
0.0
 11
-424.3087686074747
 21
342.2225384601849
 31
0.0
  0
LINE
  5
ED
330
1F
100
AcDbEntity
  8
B-2
  6
Continuous
 62
     3
370
     9
100
AcDbLine
 10
-429.308512919658
 20
433.742586034615
 30
0.0
 11
-429.308512919658
 21
342.2225384601849
 31
0.0
  0
LINE
  5
EE
330
1F
100
AcDbEntity
  8
B-2
  6
Continuous
 62
     3
370
     9
100
AcDbLine
 10
-454.3088675834038
 20
433.742586034615
 30
0.0
 11
-454.3088675834038
 21
342.2225384601849
 31
0.0
  0
LINE
  5
EF
330
1F
100
AcDbEntity
  8
B-2
  6
Continuous
 62
     3
370
     9
100
AcDbLine
 10
-459.3086861275337
 20
433.742586034615
 30
0.0
 11
-459.3086861275337
 21
342.2225384601849
 31
0.0
  0
LINE
  5
F0
330
1F
100
AcDbEntity
  8
B-2
  6
Continuous
 62
     3
370
     9
100
AcDbLine
 10
-159.3096263988597
 20
433.742586034615
 30
0.0
 11
-159.3096263988597
 21
342.2225384601849
 31
0.0
  0
LINE
  5
F1
330
1F
100
AcDbEntity
  8
B-2
  6
Continuous
 62
     3
370
     9
100
AcDbLine
 10
-214.3088180954391
 20
433.742586034615
 30
0.0
 11
-214.3088180954391
 21
342.2225384601849
 31
0.0
  0
LINE
  5
F2
330
1F
100
AcDbEntity
  8
B-2
  6
Continuous
 62
     3
370
     9
100
AcDbLine
 10
-219.3085624076223
 20
433.742586034615
 30
0.0
 11
-219.3085624076223
 21
342.2225384601849
 31
0.0
  0
LINE
  5
F3
330
1F
100
AcDbEntity
  8
B-2
  6
Continuous
 62
     3
370
     9
100
AcDbLine
 10
-244.3089170713681
 20
433.742586034615
 30
0.0
 11
-244.3089170713681
 21
342.2225384601849
 31
0.0
  0
LINE
  5
F4
330
1F
100
AcDbEntity
  8
B-2
  6
Continuous
 62
     3
370
     9
100
AcDbLine
 10
-249.3081417599239
 20
433.742586034615
 30
0.0
 11
-249.3081417599239
 21
342.2225384601849
 31
0.0
  0
LINE
  5
F5
330
1F
100
AcDbEntity
  8
B-2
  6
Continuous
 62
     3
370
     9
100
AcDbLine
 10
-274.3085706556166
 20
433.742586034615
 30
0.0
 11
-274.3085706556166
 21
342.2225384601849
 31
0.0
  0
LINE
  5
F6
330
1F
100
AcDbEntity
  8
B-2
  6
Continuous
 62
     3
370
     9
100
AcDbLine
 10
-279.3083149677998
 20
433.742586034615
 30
0.0
 11
-279.3083149677998
 21
342.2225384601849
 31
0.0
  0
LINE
  5
F7
330
1F
100
AcDbEntity
  8
B-2
  6
Continuous
 62
     3
370
     9
100
AcDbLine
 10
-154.3098820866764
 20
512.9820714917519
 30
0.0
 11
-154.3098820866764
 21
-37.01763982845522
 31
0.0
  0
LINE
  5
F8
330
1F
100
AcDbEntity
  8
B-2
  6
Continuous
 62
     3
370
     9
100
AcDbLine
 10
-694.3084716796875
 20
242.2226786760845
 30
0.0
 11
-694.3084716796875
 21
333.7422808588337
 31
0.0
  0
LINE
  5
F9
330
1F
100
AcDbEntity
  8
B-2
  6
Continuous
 62
     3
370
     9
100
AcDbLine
 10
-664.3088180954392
 20
333.7422808588337
 30
0.0
 11
-664.3088180954392
 21
242.2226786760845
 31
0.0
  0
LINE
  5
FA
330
1F
100
AcDbEntity
  8
B-2
  6
Continuous
 62
     3
370
     9
100
AcDbLine
 10
-669.3081912478885
 20
333.7422808588337
 30
0.0
 11
-669.3081912478885
 21
242.2226786760845
 31
0.0
  0
LINE
  5
FB
330
1F
100
AcDbEntity
  8
B-2
  6
Continuous
 62
     3
370
     9
100
AcDbLine
 10
-634.3081994958826
 20
333.7422808588337
 30
0.0
 11
-634.3081994958826
 21
242.2226786760845
 31
0.0
  0
LINE
  5
FC
330
1F
100
AcDbEntity
  8
B-2
  6
Continuous
 62
     3
370
     9
100
AcDbLine
 10
-639.3085376636402
 20
333.7422808588337
 30
0.0
 11
-639.3085376636402
 21
242.2226786760845
 31
0.0
  0
LINE
  5
FD
330
1F
100
AcDbEntity
  8
B-2
  6
Continuous
 62
     3
370
     9
100
AcDbLine
 10
-424.3087686074747
 20
333.7422808588337
 30
0.0
 11
-424.3087686074747
 21
242.2226786760845
 31
0.0
  0
LINE
  5
FE
330
1F
100
AcDbEntity
  8
B-2
  6
Continuous
 62
     3
370
     9
100
AcDbLine
 10
-429.308512919658
 20
333.7422808588337
 30
0.0
 11
-429.308512919658
 21
242.2226786760845
 31
0.0
  0
LINE
  5
FF
330
1F
100
AcDbEntity
  8
B-2
  6
Continuous
 62
     3
370
     9
100
AcDbLine
 10
-454.3088675834038
 20
333.7422808588337
 30
0.0
 11
-454.3088675834038
 21
242.2226786760845
 31
0.0
  0
LINE
  5
100
330
1F
100
AcDbEntity
  8
B-2
  6
Continuous
 62
     3
370
     9
100
AcDbLine
 10
-459.3086861275337
 20
333.7422808588337
 30
0.0
 11
-459.3086861275337
 21
242.2226786760845
 31
0.0
  0
LINE
  5
101
330
1F
100
AcDbEntity
  8
B-2
  6
Continuous
 62
     3
370
     9
100
AcDbLine
 10
-484.3090407912795
 20
333.7422808588337
 30
0.0
 11
-484.3090407912795
 21
242.2226786760845
 31
0.0
  0
LINE
  5
102
330
1F
100
AcDbEntity
  8
B-2
  6
Continuous
 62
     3
370
     9
100
AcDbLine
 10
-489.308339711782
 20
333.7422808588337
 30
0.0
 11
-489.308339711782
 21
242.2226786760845
 31
0.0
  0
LINE
  5
103
330
1F
100
AcDbEntity
  8
B-2
  6
Continuous
 62
     3
370
     9
100
AcDbLine
 10
-514.308620143581
 20
333.7422808588337
 30
0.0
 11
-514.308620143581
 21
242.2226786760845
 31
0.0
  0
LINE
  5
104
330
1F
100
AcDbEntity
  8
B-2
  6
Continuous
 62
     3
370
     9
100
AcDbLine
 10
-519.3079190640835
 20
333.7422808588337
 30
0.0
 11
-519.3079190640835
 21
242.2226786760845
 31
0.0
  0
LINE
  5
105
330
1F
100
AcDbEntity
  8
B-2
  6
Continuous
 62
     3
370
     9
100
AcDbLine
 10
-544.3082737278294
 20
333.7422808588337
 30
0.0
 11
-544.3082737278294
 21
242.2226786760845
 31
0.0
  0
LINE
  5
106
330
1F
100
AcDbEntity
  8
B-2
  6
Continuous
 62
     3
370
     9
100
AcDbLine
 10
-549.3085376636402
 20
333.7422808588337
 30
0.0
 11
-549.3085376636402
 21
242.2226786760845
 31
0.0
  0
LINE
  5
107
330
1F
100
AcDbEntity
  8
B-2
  6
Continuous
 62
     3
370
     9
100
AcDbLine
 10
-574.3089665593327
 20
333.7422808588337
 30
0.0
 11
-574.3089665593327
 21
242.2226786760845
 31
0.0
  0
LINE
  5
108
330
1F
100
AcDbEntity
  8
B-2
  6
Continuous
 62
     3
370
     9
100
AcDbLine
 10
-579.3081912478885
 20
333.7422808588337
 30
0.0
 11
-579.3081912478885
 21
242.2226786760845
 31
0.0
  0
LINE
  5
109
330
1F
100
AcDbEntity
  8
B-2
  6
Continuous
 62
     3
370
     9
100
AcDbLine
 10
-604.308620143581
 20
333.7422808588337
 30
0.0
 11
-604.308620143581
 21
242.2226786760845
 31
0.0
  0
LINE
  5
10A
330
1F
100
AcDbEntity
  8
B-2
  6
Continuous
 62
     3
370
     9
100
AcDbLine
 10
-609.3088840793919
 20
333.7422808588337
 30
0.0
 11
-609.3088840793919
 21
242.2226786760845
 31
0.0
  0
LINE
  5
10B
330
1F
100
AcDbEntity
  8
B-2
  6
Continuous
 62
     3
370
     9
100
AcDbLine
 10
-244.3089170713681
 20
333.7422808588337
 30
0.0
 11
-244.3089170713681
 21
242.2226786760845
 31
0.0
  0
LINE
  5
10C
330
1F
100
AcDbEntity
  8
B-2
  6
Continuous
 62
     3
370
     9
100
AcDbLine
 10
-249.3081417599239
 20
333.7422808588337
 30
0.0
 11
-249.3081417599239
 21
242.2226786760845
 31
0.0
  0
LINE
  5
10D
330
1F
100
AcDbEntity
  8
B-2
  6
Continuous
 62
     3
370
     9
100
AcDbLine
 10
-274.3085706556166
 20
333.7422808588337
 30
0.0
 11
-274.3085706556166
 21
242.2226786760845
 31
0.0
  0
LINE
  5
10E
330
1F
100
AcDbEntity
  8
B-2
  6
Continuous
 62
     3
370
     9
100
AcDbLine
 10
-279.3083149677998
 20
333.7422808588337
 30
0.0
 11
-279.3083149677998
 21
242.2226786760845
 31
0.0
  0
LINE
  5
10F
330
1F
100
AcDbEntity
  8
B-2
  6
Continuous
 62
     3
370
     9
100
AcDbLine
 10
-304.3087438634923
 20
333.7422808588337
 30
0.0
 11
-304.3087438634923
 21
242.2226786760845
 31
0.0
  0
LINE
  5
110
330
1F
100
AcDbEntity
  8
B-2
  6
Continuous
 62
     3
370
     9
100
AcDbLine
 10
-309.3084881756756
 20
333.7422808588337
 30
0.0
 11
-309.3084881756756
 21
242.2226786760845
 31
0.0
  0
LINE
  5
111
330
1F
100
AcDbEntity
  8
B-2
  6
Continuous
 62
     3
370
     9
100
AcDbLine
 10
-334.3088428394214
 20
333.7422808588337
 30
0.0
 11
-334.3088428394214
 21
242.2226786760845
 31
0.0
  0
LINE
  5
112
330
1F
100
AcDbEntity
  8
B-2
  6
Continuous
 62
     3
370
     9
100
AcDbLine
 10
-339.3085871516047
 20
333.7422808588337
 30
0.0
 11
-339.3085871516047
 21
242.2226786760845
 31
0.0
  0
LINE
  5
113
330
1F
100
AcDbEntity
  8
B-2
  6
Continuous
 62
     3
370
     9
100
AcDbLine
 10
-364.3084964236697
 20
333.7422808588337
 30
0.0
 11
-364.3084964236697
 21
242.2226786760845
 31
0.0
  0
LINE
  5
114
330
1F
100
AcDbEntity
  8
B-2
  6
Continuous
 62
     3
370
     9
100
AcDbLine
 10
-369.3087603594805
 20
333.7422808588337
 30
0.0
 11
-369.3087603594805
 21
242.2226786760845
 31
0.0
  0
LINE
  5
115
330
1F
100
AcDbEntity
  8
B-2
  6
Continuous
 62
     3
370
     9
100
AcDbLine
 10
-394.3086696315456
 20
333.7422808588337
 30
0.0
 11
-394.3086696315456
 21
242.2226786760845
 31
0.0
  0
LINE
  5
116
330
1F
100
AcDbEntity
  8
B-2
  6
Continuous
 62
     3
370
     9
100
AcDbLine
 10
-399.3084139437289
 20
333.7422808588337
 30
0.0
 11
-399.3084139437289
 21
242.2226786760845
 31
0.0
  0
LINE
  5
117
330
1F
100
AcDbEntity
  8
B-2
  6
Continuous
 62
     3
370
     9
100
AcDbLine
 10
-159.3096263988597
 20
333.7422808588337
 30
0.0
 11
-159.3096263988597
 21
242.2226786760845
 31
0.0
  0
LINE
  5
118
330
1F
100
AcDbEntity
  8
B-2
  6
Continuous
 62
     3
370
     9
100
AcDbLine
 10
-214.3088180954391
 20
333.7422808588337
 30
0.0
 11
-214.3088180954391
 21
242.2226786760845
 31
0.0
  0
LINE
  5
119
330
1F
100
AcDbEntity
  8
B-2
  6
Continuous
 62
     3
370
     9
100
AcDbLine
 10
-219.3085624076223
 20
333.7422808588337
 30
0.0
 11
-219.3085624076223
 21
242.2226786760845
 31
0.0
  0
LINE
  5
11A
330
1F
100
AcDbEntity
  8
B-2
  6
Continuous
 62
     3
370
     9
100
AcDbLine
 10
-214.3082984718116
 20
242.2226786760845
 30
0.0
 11
-244.3089170713681
 21
233.7421983788927
 31
0.0
  0
LINE
  5
11B
330
1F
100
AcDbEntity
  8
B-2
  6
Continuous
 62
     3
370
     9
100
AcDbLine
 10
-244.3083974477406
 20
242.2226786760845
 30
0.0
 11
-274.3085706556166
 21
233.7421983788927
 31
0.0
  0
LINE
  5
11C
330
1F
100
AcDbEntity
  8
B-2
  6
Continuous
 62
     3
370
     9
100
AcDbLine
 10
-274.3085706556166
 20
242.2226786760845
 30
0.0
 11
-304.3087438634923
 21
233.7421983788927
 31
0.0
  0
LINE
  5
11D
330
1F
100
AcDbEntity
  8
B-2
  6
Continuous
 62
     3
370
     9
100
AcDbLine
 10
-304.3087438634923
 20
242.2226786760845
 30
0.0
 11
-334.3088428394214
 21
233.7421983788927
 31
0.0
  0
LINE
  5
11E
330
1F
100
AcDbEntity
  8
B-2
  6
Continuous
 62
     3
370
     9
100
AcDbLine
 10
-334.3088428394214
 20
242.2226786760845
 30
0.0
 11
-364.3084964236697
 21
233.7421983788927
 31
0.0
  0
LINE
  5
11F
330
1F
100
AcDbEntity
  8
B-2
  6
Continuous
 62
     3
370
     9
100
AcDbLine
 10
-364.3084964236697
 20
242.2226786760845
 30
0.0
 11
-394.3086696315456
 21
233.7421983788927
 31
0.0
  0
LINE
  5
120
330
1F
100
AcDbEntity
  8
B-2
  6
Continuous
 62
     3
370
     9
100
AcDbLine
 10
-394.3086696315456
 20
242.2226786760845
 30
0.0
 11
-424.3087686074747
 21
233.7421983788927
 31
0.0
  0
LINE
  5
121
330
1F
100
AcDbEntity
  8
B-2
  6
Continuous
 62
     3
370
     9
100
AcDbLine
 10
-424.3087686074747
 20
242.2226786760845
 30
0.0
 11
-454.3088675834038
 21
233.7421983788927
 31
0.0
  0
LINE
  5
122
330
1F
100
AcDbEntity
  8
B-2
  6
Continuous
 62
     3
370
     9
100
AcDbLine
 10
-454.308422191723
 20
242.2226786760845
 30
0.0
 11
-484.3090407912795
 21
233.7421983788927
 31
0.0
  0
LINE
  5
123
330
1F
100
AcDbEntity
  8
B-2
  6
Continuous
 62
     3
370
     9
100
AcDbLine
 10
-484.308521167652
 20
242.2226786760845
 30
0.0
 11
-514.308620143581
 21
233.7421983788927
 31
0.0
  0
LINE
  5
124
330
1F
100
AcDbEntity
  8
B-2
  6
Continuous
 62
     3
370
     9
100
AcDbLine
 10
-514.308620143581
 20
242.2226786760845
 30
0.0
 11
-544.3082737278294
 21
233.7421983788927
 31
0.0
  0
LINE
  5
125
330
1F
100
AcDbEntity
  8
B-2
  6
Continuous
 62
     3
370
     9
100
AcDbLine
 10
-544.3082737278294
 20
242.2226786760845
 30
0.0
 11
-574.3089665593327
 21
233.7421983788927
 31
0.0
  0
LINE
  5
126
330
1F
100
AcDbEntity
  8
B-2
  6
Continuous
 62
     3
370
     9
100
AcDbLine
 10
-574.3089665593327
 20
242.2226786760845
 30
0.0
 11
-604.308620143581
 21
233.7421983788927
 31
0.0
  0
LINE
  5
127
330
1F
100
AcDbEntity
  8
B-2
  6
Continuous
 62
     3
370
     9
100
AcDbLine
 10
-604.308620143581
 20
242.2226786760845
 30
0.0
 11
-634.3081994958826
 21
233.7421983788927
 31
0.0
  0
LINE
  5
128
330
1F
100
AcDbEntity
  8
B-2
  6
Continuous
 62
     3
370
     9
100
AcDbLine
 10
-634.3081994958826
 20
242.2226786760845
 30
0.0
 11
-664.3088180954392
 21
233.7421983788927
 31
0.0
  0
LINE
  5
129
330
1F
100
AcDbEntity
  8
B-2
  6
Continuous
 62
     3
370
     9
100
AcDbLine
 10
-664.3088180954392
 20
242.2226786760845
 30
0.0
 11
-694.3084716796875
 21
233.7421983788927
 31
0.0
  0
LINE
  5
12A
330
1F
100
AcDbEntity
  8
B-2
  6
Continuous
 62
     3
370
     9
100
AcDbLine
 10
-694.3084716796875
 20
242.2226786760845
 30
0.0
 11
-699.3087356154983
 21
241.2223289611352
 31
0.0
  0
LINE
  5
12B
330
1F
100
AcDbEntity
  8
B-2
  6
Continuous
 62
     3
370
     9
100
AcDbLine
 10
-694.3084716796875
 20
142.2227446600371
 30
0.0
 11
-694.3084716796875
 21
233.7421983788927
 31
0.0
  0
LINE
  5
12C
330
1F
100
AcDbEntity
  8
B-2
  6
Continuous
 62
     3
370
     9
100
AcDbLine
 10
-669.3081912478885
 20
233.7421983788927
 30
0.0
 11
-669.3081912478885
 21
142.2227446600371
 31
0.0
  0
LINE
  5
12D
330
1F
100
AcDbEntity
  8
B-2
  6
Continuous
 62
     3
370
     9
100
AcDbLine
 10
-664.3088180954392
 20
233.7421983788927
 30
0.0
 11
-664.3088180954392
 21
142.2227446600371
 31
0.0
  0
LINE
  5
12E
330
1F
100
AcDbEntity
  8
B-2
  6
Continuous
 62
     3
370
     9
100
AcDbLine
 10
-639.3085376636402
 20
233.7421983788927
 30
0.0
 11
-639.3085376636402
 21
142.2227446600371
 31
0.0
  0
LINE
  5
12F
330
1F
100
AcDbEntity
  8
B-2
  6
Continuous
 62
     3
370
     9
100
AcDbLine
 10
-634.3081994958826
 20
233.7421983788927
 30
0.0
 11
-634.3081994958826
 21
142.2227446600371
 31
0.0
  0
LINE
  5
130
330
1F
100
AcDbEntity
  8
B-2
  6
Continuous
 62
     3
370
     9
100
AcDbLine
 10
-609.3088840793919
 20
233.7421983788927
 30
0.0
 11
-609.3088840793919
 21
142.2227446600371
 31
0.0
  0
LINE
  5
131
330
1F
100
AcDbEntity
  8
B-2
  6
Continuous
 62
     3
370
     9
100
AcDbLine
 10
-604.308620143581
 20
233.7421983788927
 30
0.0
 11
-604.308620143581
 21
142.2227446600371
 31
0.0
  0
LINE
  5
132
330
1F
100
AcDbEntity
  8
B-2
  6
Continuous
 62
     3
370
     9
100
AcDbLine
 10
-579.3081912478885
 20
233.7421983788927
 30
0.0
 11
-579.3081912478885
 21
142.2227446600371
 31
0.0
  0
LINE
  5
133
330
1F
100
AcDbEntity
  8
B-2
  6
Continuous
 62
     3
370
     9
100
AcDbLine
 10
-574.3089665593327
 20
233.7421983788927
 30
0.0
 11
-574.3089665593327
 21
142.2227446600371
 31
0.0
  0
LINE
  5
134
330
1F
100
AcDbEntity
  8
B-2
  6
Continuous
 62
     3
370
     9
100
AcDbLine
 10
-549.3085376636402
 20
233.7421983788927
 30
0.0
 11
-549.3085376636402
 21
142.2227446600371
 31
0.0
  0
LINE
  5
135
330
1F
100
AcDbEntity
  8
B-2
  6
Continuous
 62
     3
370
     9
100
AcDbLine
 10
-544.3082737278294
 20
233.7421983788927
 30
0.0
 11
-544.3082737278294
 21
142.2227446600371
 31
0.0
  0
LINE
  5
136
330
1F
100
AcDbEntity
  8
B-2
  6
Continuous
 62
     3
370
     9
100
AcDbLine
 10
-424.3087686074747
 20
233.7421983788927
 30
0.0
 11
-424.3087686074747
 21
142.2227446600371
 31
0.0
  0
LINE
  5
137
330
1F
100
AcDbEntity
  8
B-2
  6
Continuous
 62
     3
370
     9
100
AcDbLine
 10
-429.308512919658
 20
233.7421983788927
 30
0.0
 11
-429.308512919658
 21
142.2227446600371
 31
0.0
  0
LINE
  5
138
330
1F
100
AcDbEntity
  8
B-2
  6
Continuous
 62
     3
370
     9
100
AcDbLine
 10
-454.3088675834038
 20
233.7421983788927
 30
0.0
 11
-454.3088675834038
 21
142.2227446600371
 31
0.0
  0
LINE
  5
139
330
1F
100
AcDbEntity
  8
B-2
  6
Continuous
 62
     3
370
     9
100
AcDbLine
 10
-459.3086861275337
 20
233.7421983788927
 30
0.0
 11
-459.3086861275337
 21
142.2227446600371
 31
0.0
  0
LINE
  5
13A
330
1F
100
AcDbEntity
  8
B-2
  6
Continuous
 62
     3
370
     9
100
AcDbLine
 10
-484.3090407912795
 20
233.7421983788927
 30
0.0
 11
-484.3090407912795
 21
142.2227446600371
 31
0.0
  0
LINE
  5
13B
330
1F
100
AcDbEntity
  8
B-2
  6
Continuous
 62
     3
370
     9
100
AcDbLine
 10
-489.308339711782
 20
233.7421983788927
 30
0.0
 11
-489.308339711782
 21
142.2227446600371
 31
0.0
  0
LINE
  5
13C
330
1F
100
AcDbEntity
  8
B-2
  6
Continuous
 62
     3
370
     9
100
AcDbLine
 10
-514.308620143581
 20
233.7421983788927
 30
0.0
 11
-514.308620143581
 21
142.2227446600371
 31
0.0
  0
LINE
  5
13D
330
1F
100
AcDbEntity
  8
B-2
  6
Continuous
 62
     3
370
     9
100
AcDbLine
 10
-519.3079190640835
 20
233.7421983788927
 30
0.0
 11
-519.3079190640835
 21
142.2227446600371
 31
0.0
  0
LINE
  5
13E
330
1F
100
AcDbEntity
  8
B-2
  6
Continuous
 62
     3
370
     9
100
AcDbLine
 10
-334.3088428394214
 20
233.7421983788927
 30
0.0
 11
-334.3088428394214
 21
142.2227446600371
 31
0.0
  0
LINE
  5
13F
330
1F
100
AcDbEntity
  8
B-2
  6
Continuous
 62
     3
370
     9
100
AcDbLine
 10
-339.3085871516047
 20
233.7421983788927
 30
0.0
 11
-339.3085871516047
 21
142.2227446600371
 31
0.0
  0
LINE
  5
140
330
1F
100
AcDbEntity
  8
B-2
  6
Continuous
 62
     3
370
     9
100
AcDbLine
 10
-364.3084964236697
 20
233.7421983788927
 30
0.0
 11
-364.3084964236697
 21
142.2227446600371
 31
0.0
  0
LINE
  5
141
330
1F
100
AcDbEntity
  8
B-2
  6
Continuous
 62
     3
370
     9
100
AcDbLine
 10
-369.3087603594805
 20
233.7421983788927
 30
0.0
 11
-369.3087603594805
 21
142.2227446600371
 31
0.0
  0
LINE
  5
142
330
1F
100
AcDbEntity
  8
B-2
  6
Continuous
 62
     3
370
     9
100
AcDbLine
 10
-394.3086696315456
 20
233.7421983788927
 30
0.0
 11
-394.3086696315456
 21
142.2227446600371
 31
0.0
  0
LINE
  5
143
330
1F
100
AcDbEntity
  8
B-2
  6
Continuous
 62
     3
370
     9
100
AcDbLine
 10
-399.3084139437289
 20
233.7421983788927
 30
0.0
 11
-399.3084139437289
 21
142.2227446600371
 31
0.0
  0
LINE
  5
144
330
1F
100
AcDbEntity
  8
B-2
  6
Continuous
 62
     3
370
     9
100
AcDbLine
 10
-244.3089170713681
 20
233.7421983788927
 30
0.0
 11
-244.3089170713681
 21
142.2227446600371
 31
0.0
  0
LINE
  5
145
330
1F
100
AcDbEntity
  8
B-2
  6
Continuous
 62
     3
370
     9
100
AcDbLine
 10
-249.3081417599239
 20
233.7421983788927
 30
0.0
 11
-249.3081417599239
 21
142.2227446600371
 31
0.0
  0
LINE
  5
146
330
1F
100
AcDbEntity
  8
B-2
  6
Continuous
 62
     3
370
     9
100
AcDbLine
 10
-159.3096263988597
 20
233.7421983788927
 30
0.0
 11
-159.3096263988597
 21
142.2227446600371
 31
0.0
  0
LINE
  5
147
330
1F
100
AcDbEntity
  8
B-2
  6
Continuous
 62
     3
370
     9
100
AcDbLine
 10
-214.3088180954391
 20
233.7421983788927
 30
0.0
 11
-214.3088180954391
 21
142.2227446600371
 31
0.0
  0
LINE
  5
148
330
1F
100
AcDbEntity
  8
B-2
  6
Continuous
 62
     3
370
     9
100
AcDbLine
 10
-219.3085624076223
 20
233.7421983788927
 30
0.0
 11
-219.3085624076223
 21
142.2227446600371
 31
0.0
  0
LINE
  5
149
330
1F
100
AcDbEntity
  8
B-2
  6
Continuous
 62
     3
370
     9
100
AcDbLine
 10
-304.3087438634923
 20
233.7421983788927
 30
0.0
 11
-304.3087438634923
 21
142.2227446600371
 31
0.0
  0
LINE
  5
14A
330
1F
100
AcDbEntity
  8
B-2
  6
Continuous
 62
     3
370
     9
100
AcDbLine
 10
-309.3084881756756
 20
233.7421983788927
 30
0.0
 11
-309.3084881756756
 21
142.2227446600371
 31
0.0
  0
LINE
  5
14B
330
1F
100
AcDbEntity
  8
B-2
  6
Continuous
 62
     3
370
     9
100
AcDbLine
 10
-274.3085706556166
 20
233.7421983788927
 30
0.0
 11
-274.3085706556166
 21
142.2227446600371
 31
0.0
  0
LINE
  5
14C
330
1F
100
AcDbEntity
  8
B-2
  6
Continuous
 62
     3
370
     9
100
AcDbLine
 10
-279.3083149677998
 20
233.7421983788927
 30
0.0
 11
-279.3083149677998
 21
142.2227446600371
 31
0.0
  0
LINE
  5
14D
330
1F
100
AcDbEntity
  8
B-2
  6
Continuous
 62
     3
370
     9
100
AcDbLine
 10
-214.3082984718116
 20
142.2227446600371
 30
0.0
 11
-244.3089170713681
 21
133.7422643628454
 31
0.0
  0
LINE
  5
14E
330
1F
100
AcDbEntity
  8
B-2
  6
Continuous
 62
     3
370
     9
100
AcDbLine
 10
-244.3083974477406
 20
142.2227446600371
 30
0.0
 11
-274.3085706556166
 21
133.7422643628454
 31
0.0
  0
LINE
  5
14F
330
1F
100
AcDbEntity
  8
B-2
  6
Continuous
 62
     3
370
     9
100
AcDbLine
 10
-274.3085706556166
 20
142.2227446600371
 30
0.0
 11
-304.3087438634923
 21
133.7422643628454
 31
0.0
  0
LINE
  5
150
330
1F
100
AcDbEntity
  8
B-2
  6
Continuous
 62
     3
370
     9
100
AcDbLine
 10
-304.3087438634923
 20
142.2227446600371
 30
0.0
 11
-334.3088428394214
 21
133.7422643628454
 31
0.0
  0
LINE
  5
151
330
1F
100
AcDbEntity
  8
B-2
  6
Continuous
 62
     3
370
     9
100
AcDbLine
 10
-334.3088428394214
 20
142.2227446600371
 30
0.0
 11
-364.3084964236697
 21
133.7422643628454
 31
0.0
  0
LINE
  5
152
330
1F
100
AcDbEntity
  8
B-2
  6
Continuous
 62
     3
370
     9
100
AcDbLine
 10
-364.3084964236697
 20
142.2227446600371
 30
0.0
 11
-394.3086696315456
 21
133.7422643628454
 31
0.0
  0
LINE
  5
153
330
1F
100
AcDbEntity
  8
B-2
  6
Continuous
 62
     3
370
     9
100
AcDbLine
 10
-394.3086696315456
 20
142.2227446600371
 30
0.0
 11
-424.3087686074747
 21
133.7422643628454
 31
0.0
  0
LINE
  5
154
330
1F
100
AcDbEntity
  8
B-2
  6
Continuous
 62
     3
370
     9
100
AcDbLine
 10
-424.3087686074747
 20
142.2227446600371
 30
0.0
 11
-454.3088675834038
 21
133.7422643628454
 31
0.0
  0
LINE
  5
155
330
1F
100
AcDbEntity
  8
B-2
  6
Continuous
 62
     3
370
     9
100
AcDbLine
 10
-454.308422191723
 20
142.2227446600371
 30
0.0
 11
-484.3090407912795
 21
133.7422643628454
 31
0.0
  0
LINE
  5
156
330
1F
100
AcDbEntity
  8
B-2
  6
Continuous
 62
     3
370
     9
100
AcDbLine
 10
-484.308521167652
 20
142.2227446600371
 30
0.0
 11
-514.308620143581
 21
133.7422643628454
 31
0.0
  0
LINE
  5
157
330
1F
100
AcDbEntity
  8
B-2
  6
Continuous
 62
     3
370
     9
100
AcDbLine
 10
-514.308620143581
 20
142.2227446600371
 30
0.0
 11
-544.3082737278294
 21
133.7422643628454
 31
0.0
  0
LINE
  5
158
330
1F
100
AcDbEntity
  8
B-2
  6
Continuous
 62
     3
370
     9
100
AcDbLine
 10
-544.3082737278294
 20
142.2227446600371
 30
0.0
 11
-574.3089665593327
 21
133.7422643628454
 31
0.0
  0
LINE
  5
159
330
1F
100
AcDbEntity
  8
B-2
  6
Continuous
 62
     3
370
     9
100
AcDbLine
 10
-574.3089665593327
 20
142.2227446600371
 30
0.0
 11
-604.308620143581
 21
133.7422643628454
 31
0.0
  0
LINE
  5
15A
330
1F
100
AcDbEntity
  8
B-2
  6
Continuous
 62
     3
370
     9
100
AcDbLine
 10
-604.308620143581
 20
142.2227446600371
 30
0.0
 11
-634.3081994958826
 21
133.7422643628454
 31
0.0
  0
LINE
  5
15B
330
1F
100
AcDbEntity
  8
B-2
  6
Continuous
 62
     3
370
     9
100
AcDbLine
 10
-634.3081994958826
 20
142.2227446600371
 30
0.0
 11
-664.3088180954392
 21
133.7422643628454
 31
0.0
  0
LINE
  5
15C
330
1F
100
AcDbEntity
  8
B-2
  6
Continuous
 62
     3
370
     9
100
AcDbLine
 10
-664.3088180954392
 20
142.2227446600371
 30
0.0
 11
-694.3084716796875
 21
133.7422643628454
 31
0.0
  0
LINE
  5
15D
330
1F
100
AcDbEntity
  8
B-2
  6
Continuous
 62
     3
370
     9
100
AcDbLine
 10
-694.3084716796875
 20
142.2227446600371
 30
0.0
 11
-699.3087356154983
 21
141.222320713141
 31
0.0
  0
LINE
  5
15E
330
1F
100
AcDbEntity
  8
B-2
  6
Continuous
 62
     3
370
     9
100
AcDbLine
 10
-429.308512919658
 20
133.7422643628454
 30
0.0
 11
-429.308512919658
 21
42.22281064398994
 31
0.0
  0
LINE
  5
15F
330
1F
100
AcDbEntity
  8
B-2
  6
Continuous
 62
     3
370
     9
100
AcDbLine
 10
-429.308512919658
 20
33.74225611485134
 30
0.0
 11
-429.308512919658
 21
-32.51769921401264
 31
0.0
  0
LINE
  5
160
330
1F
100
AcDbEntity
  8
B-2
  6
Continuous
 62
     3
370
     9
100
AcDbLine
 10
-694.3084716796875
 20
-32.51769921401264
 30
0.0
 11
-694.3084716796875
 21
33.74225611485134
 31
0.0
  0
LINE
  5
161
330
1F
100
AcDbEntity
  8
B-2
  6
Continuous
 62
     3
370
     9
100
AcDbLine
 10
-694.3084716796875
 20
42.22281064398994
 30
0.0
 11
-694.3084716796875
 21
133.7422643628454
 31
0.0
  0
LINE
  5
162
330
1F
100
AcDbEntity
  8
B-2
  6
Continuous
 62
     3
370
     9
100
AcDbLine
 10
-669.3081912478885
 20
133.7422643628454
 30
0.0
 11
-669.3081912478885
 21
42.22281064398994
 31
0.0
  0
LINE
  5
163
330
1F
100
AcDbEntity
  8
B-2
  6
Continuous
 62
     3
370
     9
100
AcDbLine
 10
-669.3081912478885
 20
33.74225611485134
 30
0.0
 11
-669.3081912478885
 21
-32.51769921401264
 31
0.0
  0
LINE
  5
164
330
1F
100
AcDbEntity
  8
B-2
  6
Continuous
 62
     3
370
     9
100
AcDbLine
 10
-664.3088180954392
 20
133.7422643628454
 30
0.0
 11
-664.3088180954392
 21
42.22281064398994
 31
0.0
  0
LINE
  5
165
330
1F
100
AcDbEntity
  8
B-2
  6
Continuous
 62
     3
370
     9
100
AcDbLine
 10
-664.3088180954392
 20
33.74225611485134
 30
0.0
 11
-664.3088180954392
 21
-32.51769921401264
 31
0.0
  0
LINE
  5
166
330
1F
100
AcDbEntity
  8
B-2
  6
Continuous
 62
     3
370
     9
100
AcDbLine
 10
-639.3085376636402
 20
133.7422643628454
 30
0.0
 11
-639.3085376636402
 21
42.22281064398994
 31
0.0
  0
LINE
  5
167
330
1F
100
AcDbEntity
  8
B-2
  6
Continuous
 62
     3
370
     9
100
AcDbLine
 10
-639.3085376636402
 20
33.74225611485134
 30
0.0
 11
-639.3085376636402
 21
-32.51769921401264
 31
0.0
  0
LINE
  5
168
330
1F
100
AcDbEntity
  8
B-2
  6
Continuous
 62
     3
370
     9
100
AcDbLine
 10
-634.3081994958826
 20
133.7422643628454
 30
0.0
 11
-634.3081994958826
 21
42.22281064398994
 31
0.0
  0
LINE
  5
169
330
1F
100
AcDbEntity
  8
B-2
  6
Continuous
 62
     3
370
     9
100
AcDbLine
 10
-634.3081994958826
 20
33.74225611485134
 30
0.0
 11
-634.3081994958826
 21
-32.51769921401264
 31
0.0
  0
LINE
  5
16A
330
1F
100
AcDbEntity
  8
B-2
  6
Continuous
 62
     3
370
     9
100
AcDbLine
 10
-609.3088840793919
 20
133.7422643628454
 30
0.0
 11
-609.3088840793919
 21
42.22281064398994
 31
0.0
  0
LINE
  5
16B
330
1F
100
AcDbEntity
  8
B-2
  6
Continuous
 62
     3
370
     9
100
AcDbLine
 10
-609.3088840793919
 20
33.74225611485134
 30
0.0
 11
-609.3088840793919
 21
-32.51769921401264
 31
0.0
  0
LINE
  5
16C
330
1F
100
AcDbEntity
  8
B-2
  6
Continuous
 62
     3
370
     9
100
AcDbLine
 10
-604.308620143581
 20
133.7422643628454
 30
0.0
 11
-604.308620143581
 21
42.22281064398994
 31
0.0
  0
LINE
  5
16D
330
1F
100
AcDbEntity
  8
B-2
  6
Continuous
 62
     3
370
     9
100
AcDbLine
 10
-604.308620143581
 20
33.74225611485134
 30
0.0
 11
-604.308620143581
 21
-32.51769921401264
 31
0.0
  0
LINE
  5
16E
330
1F
100
AcDbEntity
  8
B-2
  6
Continuous
 62
     3
370
     9
100
AcDbLine
 10
-579.3081912478885
 20
133.7422643628454
 30
0.0
 11
-579.3081912478885
 21
42.22281064398994
 31
0.0
  0
LINE
  5
16F
330
1F
100
AcDbEntity
  8
B-2
  6
Continuous
 62
     3
370
     9
100
AcDbLine
 10
-579.3081912478885
 20
33.74225611485134
 30
0.0
 11
-579.3081912478885
 21
-32.51769921401264
 31
0.0
  0
LINE
  5
170
330
1F
100
AcDbEntity
  8
B-2
  6
Continuous
 62
     3
370
     9
100
AcDbLine
 10
-574.3089665593327
 20
133.7422643628454
 30
0.0
 11
-574.3089665593327
 21
42.22281064398994
 31
0.0
  0
LINE
  5
171
330
1F
100
AcDbEntity
  8
B-2
  6
Continuous
 62
     3
370
     9
100
AcDbLine
 10
-574.3089665593327
 20
33.74225611485134
 30
0.0
 11
-574.3089665593327
 21
-32.51769921401264
 31
0.0
  0
LINE
  5
172
330
1F
100
AcDbEntity
  8
B-2
  6
Continuous
 62
     3
370
     9
100
AcDbLine
 10
-549.3085376636402
 20
133.7422643628454
 30
0.0
 11
-549.3085376636402
 21
42.22281064398994
 31
0.0
  0
LINE
  5
173
330
1F
100
AcDbEntity
  8
B-2
  6
Continuous
 62
     3
370
     9
100
AcDbLine
 10
-549.3085376636402
 20
33.74225611485134
 30
0.0
 11
-549.3085376636402
 21
-32.51769921401264
 31
0.0
  0
LINE
  5
174
330
1F
100
AcDbEntity
  8
B-2
  6
Continuous
 62
     3
370
     9
100
AcDbLine
 10
-544.3082737278294
 20
133.7422643628454
 30
0.0
 11
-544.3082737278294
 21
42.22281064398994
 31
0.0
  0
LINE
  5
175
330
1F
100
AcDbEntity
  8
B-2
  6
Continuous
 62
     3
370
     9
100
AcDbLine
 10
-544.3082737278294
 20
33.74225611485134
 30
0.0
 11
-544.3082737278294
 21
-32.51769921401264
 31
0.0
  0
LINE
  5
176
330
1F
100
AcDbEntity
  8
B-2
  6
Continuous
 62
     3
370
     9
100
AcDbLine
 10
-454.3088675834038
 20
133.7422643628454
 30
0.0
 11
-454.3088675834038
 21
42.22281064398994
 31
0.0
  0
LINE
  5
177
330
1F
100
AcDbEntity
  8
B-2
  6
Continuous
 62
     3
370
     9
100
AcDbLine
 10
-454.3088675834038
 20
33.74225611485134
 30
0.0
 11
-454.3088675834038
 21
-32.51769921401264
 31
0.0
  0
LINE
  5
178
330
1F
100
AcDbEntity
  8
B-2
  6
Continuous
 62
     3
370
     9
100
AcDbLine
 10
-459.3086861275337
 20
133.7422643628454
 30
0.0
 11
-459.3086861275337
 21
42.22281064398994
 31
0.0
  0
LINE
  5
179
330
1F
100
AcDbEntity
  8
B-2
  6
Continuous
 62
     3
370
     9
100
AcDbLine
 10
-459.3086861275337
 20
33.74225611485134
 30
0.0
 11
-459.3086861275337
 21
-32.51769921401264
 31
0.0
  0
LINE
  5
17A
330
1F
100
AcDbEntity
  8
B-2
  6
Continuous
 62
     3
370
     9
100
AcDbLine
 10
-484.3090407912795
 20
133.7422643628454
 30
0.0
 11
-484.3090407912795
 21
42.22281064398994
 31
0.0
  0
LINE
  5
17B
330
1F
100
AcDbEntity
  8
B-2
  6
Continuous
 62
     3
370
     9
100
AcDbLine
 10
-484.3090407912795
 20
33.74225611485134
 30
0.0
 11
-484.3090407912795
 21
-32.51769921401264
 31
0.0
  0
LINE
  5
17C
330
1F
100
AcDbEntity
  8
B-2
  6
Continuous
 62
     3
370
     9
100
AcDbLine
 10
-489.308339711782
 20
133.7422643628454
 30
0.0
 11
-489.308339711782
 21
42.22281064398994
 31
0.0
  0
LINE
  5
17D
330
1F
100
AcDbEntity
  8
B-2
  6
Continuous
 62
     3
370
     9
100
AcDbLine
 10
-489.308339711782
 20
33.74225611485134
 30
0.0
 11
-489.308339711782
 21
-32.51769921401264
 31
0.0
  0
LINE
  5
17E
330
1F
100
AcDbEntity
  8
B-2
  6
Continuous
 62
     3
370
     9
100
AcDbLine
 10
-514.308620143581
 20
133.7422643628454
 30
0.0
 11
-514.308620143581
 21
42.22281064398994
 31
0.0
  0
LINE
  5
17F
330
1F
100
AcDbEntity
  8
B-2
  6
Continuous
 62
     3
370
     9
100
AcDbLine
 10
-514.308620143581
 20
33.74225611485134
 30
0.0
 11
-514.308620143581
 21
-32.51769921401264
 31
0.0
  0
LINE
  5
180
330
1F
100
AcDbEntity
  8
B-2
  6
Continuous
 62
     3
370
     9
100
AcDbLine
 10
-519.3079190640835
 20
133.7422643628454
 30
0.0
 11
-519.3079190640835
 21
42.22281064398994
 31
0.0
  0
LINE
  5
181
330
1F
100
AcDbEntity
  8
B-2
  6
Continuous
 62
     3
370
     9
100
AcDbLine
 10
-519.3079190640835
 20
33.74225611485134
 30
0.0
 11
-519.3079190640835
 21
-32.51769921401264
 31
0.0
  0
LINE
  5
182
330
1F
100
AcDbEntity
  8
B-2
  6
Continuous
 62
     3
370
     9
100
AcDbLine
 10
-334.3088428394214
 20
133.7422643628454
 30
0.0
 11
-334.3088428394214
 21
42.22281064398994
 31
0.0
  0
LINE
  5
183
330
1F
100
AcDbEntity
  8
B-2
  6
Continuous
 62
     3
370
     9
100
AcDbLine
 10
-334.3088428394214
 20
33.74225611485134
 30
0.0
 11
-334.3088428394214
 21
-32.51769921401264
 31
0.0
  0
LINE
  5
184
330
1F
100
AcDbEntity
  8
B-2
  6
Continuous
 62
     3
370
     9
100
AcDbLine
 10
-339.3085871516047
 20
133.7422643628454
 30
0.0
 11
-339.3085871516047
 21
42.22281064398994
 31
0.0
  0
LINE
  5
185
330
1F
100
AcDbEntity
  8
B-2
  6
Continuous
 62
     3
370
     9
100
AcDbLine
 10
-339.3085871516047
 20
33.74225611485134
 30
0.0
 11
-339.3085871516047
 21
-32.51769921401264
 31
0.0
  0
LINE
  5
186
330
1F
100
AcDbEntity
  8
B-2
  6
Continuous
 62
     3
370
     9
100
AcDbLine
 10
-364.3084964236697
 20
133.7422643628454
 30
0.0
 11
-364.3084964236697
 21
42.22281064398994
 31
0.0
  0
LINE
  5
187
330
1F
100
AcDbEntity
  8
B-2
  6
Continuous
 62
     3
370
     9
100
AcDbLine
 10
-364.3084964236697
 20
33.74225611485134
 30
0.0
 11
-364.3084964236697
 21
-32.51769921401264
 31
0.0
  0
LINE
  5
188
330
1F
100
AcDbEntity
  8
B-2
  6
Continuous
 62
     3
370
     9
100
AcDbLine
 10
-369.3087603594805
 20
133.7422643628454
 30
0.0
 11
-369.3087603594805
 21
42.22281064398994
 31
0.0
  0
LINE
  5
189
330
1F
100
AcDbEntity
  8
B-2
  6
Continuous
 62
     3
370
     9
100
AcDbLine
 10
-369.3087603594805
 20
33.74225611485134
 30
0.0
 11
-369.3087603594805
 21
-32.51769921401264
 31
0.0
  0
LINE
  5
18A
330
1F
100
AcDbEntity
  8
B-2
  6
Continuous
 62
     3
370
     9
100
AcDbLine
 10
-394.3086696315456
 20
133.7422643628454
 30
0.0
 11
-394.3086696315456
 21
42.22281064398994
 31
0.0
  0
LINE
  5
18B
330
1F
100
AcDbEntity
  8
B-2
  6
Continuous
 62
     3
370
     9
100
AcDbLine
 10
-394.3086696315456
 20
33.74225611485134
 30
0.0
 11
-394.3086696315456
 21
-32.51769921401264
 31
0.0
  0
LINE
  5
18C
330
1F
100
AcDbEntity
  8
B-2
  6
Continuous
 62
     3
370
     9
100
AcDbLine
 10
-399.3084139437289
 20
133.7422643628454
 30
0.0
 11
-399.3084139437289
 21
42.22281064398994
 31
0.0
  0
LINE
  5
18D
330
1F
100
AcDbEntity
  8
B-2
  6
Continuous
 62
     3
370
     9
100
AcDbLine
 10
-399.3084139437289
 20
33.74225611485134
 30
0.0
 11
-399.3084139437289
 21
-32.51769921401264
 31
0.0
  0
LINE
  5
18E
330
1F
100
AcDbEntity
  8
B-2
  6
Continuous
 62
     3
370
     9
100
AcDbLine
 10
-244.3089170713681
 20
133.7422643628454
 30
0.0
 11
-244.3089170713681
 21
42.22281064398994
 31
0.0
  0
LINE
  5
18F
330
1F
100
AcDbEntity
  8
B-2
  6
Continuous
 62
     3
370
     9
100
AcDbLine
 10
-244.3089170713681
 20
33.74225611485134
 30
0.0
 11
-244.3089170713681
 21
-32.51769921401264
 31
0.0
  0
LINE
  5
190
330
1F
100
AcDbEntity
  8
B-2
  6
Continuous
 62
     3
370
     9
100
AcDbLine
 10
-249.3081417599239
 20
133.7422643628454
 30
0.0
 11
-249.3081417599239
 21
42.22281064398994
 31
0.0
  0
LINE
  5
191
330
1F
100
AcDbEntity
  8
B-2
  6
Continuous
 62
     3
370
     9
100
AcDbLine
 10
-249.3081417599239
 20
33.74225611485134
 30
0.0
 11
-249.3081417599239
 21
-32.51769921401264
 31
0.0
  0
LINE
  5
192
330
1F
100
AcDbEntity
  8
B-2
  6
Continuous
 62
     3
370
     9
100
AcDbLine
 10
-159.3096263988597
 20
133.7422643628454
 30
0.0
 11
-159.3096263988597
 21
42.22281064398994
 31
0.0
  0
LINE
  5
193
330
1F
100
AcDbEntity
  8
B-2
  6
Continuous
 62
     3
370
     9
100
AcDbLine
 10
-159.3096263988597
 20
33.74225611485134
 30
0.0
 11
-159.3096263988597
 21
-32.51769921401264
 31
0.0
  0
LINE
  5
194
330
1F
100
AcDbEntity
  8
B-2
  6
Continuous
 62
     3
370
     9
100
AcDbLine
 10
-214.3088180954391
 20
133.7422643628454
 30
0.0
 11
-214.3088180954391
 21
42.22281064398994
 31
0.0
  0
LINE
  5
195
330
1F
100
AcDbEntity
  8
B-2
  6
Continuous
 62
     3
370
     9
100
AcDbLine
 10
-214.3088180954391
 20
33.74225611485134
 30
0.0
 11
-214.3088180954391
 21
-32.51769921401264
 31
0.0
  0
LINE
  5
196
330
1F
100
AcDbEntity
  8
B-2
  6
Continuous
 62
     3
370
     9
100
AcDbLine
 10
-219.3085624076223
 20
133.7422643628454
 30
0.0
 11
-219.3085624076223
 21
42.22281064398994
 31
0.0
  0
LINE
  5
197
330
1F
100
AcDbEntity
  8
B-2
  6
Continuous
 62
     3
370
     9
100
AcDbLine
 10
-219.3085624076223
 20
33.74225611485134
 30
0.0
 11
-219.3085624076223
 21
-32.51769921401264
 31
0.0
  0
LINE
  5
198
330
1F
100
AcDbEntity
  8
B-2
  6
Continuous
 62
     3
370
     9
100
AcDbLine
 10
-304.3087438634923
 20
133.7422643628454
 30
0.0
 11
-304.3087438634923
 21
42.22281064398994
 31
0.0
  0
LINE
  5
199
330
1F
100
AcDbEntity
  8
B-2
  6
Continuous
 62
     3
370
     9
100
AcDbLine
 10
-304.3087438634923
 20
33.74225611485134
 30
0.0
 11
-304.3087438634923
 21
-32.51769921401264
 31
0.0
  0
LINE
  5
19A
330
1F
100
AcDbEntity
  8
B-2
  6
Continuous
 62
     3
370
     9
100
AcDbLine
 10
-309.3084881756756
 20
133.7422643628454
 30
0.0
 11
-309.3084881756756
 21
42.22281064398994
 31
0.0
  0
LINE
  5
19B
330
1F
100
AcDbEntity
  8
B-2
  6
Continuous
 62
     3
370
     9
100
AcDbLine
 10
-309.3084881756756
 20
33.74225611485134
 30
0.0
 11
-309.3084881756756
 21
-32.51769921401264
 31
0.0
  0
LINE
  5
19C
330
1F
100
AcDbEntity
  8
B-2
  6
Continuous
 62
     3
370
     9
100
AcDbLine
 10
-274.3085706556166
 20
133.7422643628454
 30
0.0
 11
-274.3085706556166
 21
42.22281064398994
 31
0.0
  0
LINE
  5
19D
330
1F
100
AcDbEntity
  8
B-2
  6
Continuous
 62
     3
370
     9
100
AcDbLine
 10
-274.3085706556166
 20
33.74225611485134
 30
0.0
 11
-274.3085706556166
 21
-32.51769921401264
 31
0.0
  0
LINE
  5
19E
330
1F
100
AcDbEntity
  8
B-2
  6
Continuous
 62
     3
370
     9
100
AcDbLine
 10
-279.3083149677998
 20
133.7422643628454
 30
0.0
 11
-279.3083149677998
 21
42.22281064398994
 31
0.0
  0
LINE
  5
19F
330
1F
100
AcDbEntity
  8
B-2
  6
Continuous
 62
     3
370
     9
100
AcDbLine
 10
-279.3083149677998
 20
33.74225611485134
 30
0.0
 11
-279.3083149677998
 21
-32.51769921401264
 31
0.0
  0
LINE
  5
1A0
330
1F
100
AcDbEntity
  8
B-2
  6
Continuous
 62
     3
370
     9
100
AcDbLine
 10
-424.3087686074747
 20
133.7422643628454
 30
0.0
 11
-424.3087686074747
 21
42.22281064398994
 31
0.0
  0
LINE
  5
1A1
330
1F
100
AcDbEntity
  8
B-2
  6
Continuous
 62
     3
370
     9
100
AcDbLine
 10
-424.3087686074747
 20
33.74225611485134
 30
0.0
 11
-424.3087686074747
 21
-32.51769921401264
 31
0.0
  0
LINE
  5
1A2
330
1F
100
AcDbEntity
  8
B-2
  6
Continuous
 62
     3
370
     9
100
AcDbLine
 10
-214.3082984718116
 20
42.22281064398994
 30
0.0
 11
-244.3089170713681
 21
33.74225611485134
 31
0.0
  0
LINE
  5
1A3
330
1F
100
AcDbEntity
  8
B-2
  6
Continuous
 62
     3
370
     9
100
AcDbLine
 10
-244.3083974477406
 20
42.22281064398994
 30
0.0
 11
-274.3085706556166
 21
33.74225611485134
 31
0.0
  0
LINE
  5
1A4
330
1F
100
AcDbEntity
  8
B-2
  6
Continuous
 62
     3
370
     9
100
AcDbLine
 10
-274.3085706556166
 20
42.22281064398994
 30
0.0
 11
-304.3087438634923
 21
33.74225611485134
 31
0.0
  0
LINE
  5
1A5
330
1F
100
AcDbEntity
  8
B-2
  6
Continuous
 62
     3
370
     9
100
AcDbLine
 10
-304.3087438634923
 20
42.22281064398994
 30
0.0
 11
-334.3088428394214
 21
33.74225611485134
 31
0.0
  0
LINE
  5
1A6
330
1F
100
AcDbEntity
  8
B-2
  6
Continuous
 62
     3
370
     9
100
AcDbLine
 10
-334.3088428394214
 20
42.22281064398994
 30
0.0
 11
-364.3084964236697
 21
33.74225611485134
 31
0.0
  0
LINE
  5
1A7
330
1F
100
AcDbEntity
  8
B-2
  6
Continuous
 62
     3
370
     9
100
AcDbLine
 10
-364.3084964236697
 20
42.22281064398994
 30
0.0
 11
-394.3086696315456
 21
33.74225611485134
 31
0.0
  0
LINE
  5
1A8
330
1F
100
AcDbEntity
  8
B-2
  6
Continuous
 62
     3
370
     9
100
AcDbLine
 10
-394.3086696315456
 20
42.22281064398994
 30
0.0
 11
-424.3087686074747
 21
33.74225611485134
 31
0.0
  0
LINE
  5
1A9
330
1F
100
AcDbEntity
  8
B-2
  6
Continuous
 62
     3
370
     9
100
AcDbLine
 10
-424.3087686074747
 20
42.22281064398994
 30
0.0
 11
-454.3088675834038
 21
33.74225611485134
 31
0.0
  0
LINE
  5
1AA
330
1F
100
AcDbEntity
  8
B-2
  6
Continuous
 62
     3
370
     9
100
AcDbLine
 10
-454.308422191723
 20
42.22281064398994
 30
0.0
 11
-484.3090407912795
 21
33.74225611485134
 31
0.0
  0
LINE
  5
1AB
330
1F
100
AcDbEntity
  8
B-2
  6
Continuous
 62
     3
370
     9
100
AcDbLine
 10
-484.308521167652
 20
42.22281064398994
 30
0.0
 11
-514.308620143581
 21
33.74225611485134
 31
0.0
  0
LINE
  5
1AC
330
1F
100
AcDbEntity
  8
B-2
  6
Continuous
 62
     3
370
     9
100
AcDbLine
 10
-514.308620143581
 20
42.22281064398994
 30
0.0
 11
-544.3082737278294
 21
33.74225611485134
 31
0.0
  0
LINE
  5
1AD
330
1F
100
AcDbEntity
  8
B-2
  6
Continuous
 62
     3
370
     9
100
AcDbLine
 10
-544.3082737278294
 20
42.22281064398994
 30
0.0
 11
-574.3089665593327
 21
33.74225611485134
 31
0.0
  0
LINE
  5
1AE
330
1F
100
AcDbEntity
  8
B-2
  6
Continuous
 62
     3
370
     9
100
AcDbLine
 10
-574.3089665593327
 20
42.22281064398994
 30
0.0
 11
-604.308620143581
 21
33.74225611485134
 31
0.0
  0
LINE
  5
1AF
330
1F
100
AcDbEntity
  8
B-2
  6
Continuous
 62
     3
370
     9
100
AcDbLine
 10
-604.308620143581
 20
42.22281064398994
 30
0.0
 11
-634.3081994958826
 21
33.74225611485134
 31
0.0
  0
LINE
  5
1B0
330
1F
100
AcDbEntity
  8
B-2
  6
Continuous
 62
     3
370
     9
100
AcDbLine
 10
-634.3081994958826
 20
42.22281064398994
 30
0.0
 11
-664.3088180954392
 21
33.74225611485134
 31
0.0
  0
LINE
  5
1B1
330
1F
100
AcDbEntity
  8
B-2
  6
Continuous
 62
     3
370
     9
100
AcDbLine
 10
-664.3088180954392
 20
42.22281064398994
 30
0.0
 11
-694.3084716796875
 21
33.74225611485134
 31
0.0
  0
LINE
  5
1B2
330
1F
100
AcDbEntity
  8
B-2
  6
Continuous
 62
     3
370
     9
100
AcDbLine
 10
-694.3084716796875
 20
42.22281064398994
 30
0.0
 11
-699.3087356154983
 21
41.22238669709385
 31
0.0
  0
LINE
  5
1B3
330
1F
100
AcDbEntity
  8
B-2
  6
Continuous
 62
     3
370
     9
100
AcDbLine
 10
-154.3098820866764
 20
-37.01763982845522
 30
0.0
 11
-699.3087356154983
 21
-37.01763982845522
 31
0.0
  0
LINE
  5
1B4
330
1F
100
AcDbEntity
  8
B-2
  6
Continuous
 62
     3
370
     9
100
AcDbLine
 10
-154.3098820866764
 20
-32.51769921401264
 30
0.0
 11
-699.3087356154983
 21
-32.51769921401264
 31
0.0
  0
LINE
  5
1B5
330
1F
100
AcDbEntity
  8
B-2
  6
Continuous
 62
     3
370
     9
100
AcDbLine
 10
-699.3087356154983
 20
442.2221013164984
 30
0.0
 11
-154.3098820866764
 21
442.2221013164984
 31
0.0
  0
LINE
  5
1B6
330
1F
100
AcDbEntity
  8
B-2
  6
Continuous
 62
     3
370
     9
100
AcDbLine
 10
-699.3087356154983
 20
433.742586034615
 30
0.0
 11
-154.3098820866764
 21
433.742586034615
 31
0.0
  0
LINE
  5
1B7
330
1F
100
AcDbEntity
  8
B-2
  6
Continuous
 62
     3
370
     9
100
AcDbLine
 10
-184.3086448875633
 20
442.2221013164984
 30
0.0
 11
-214.3088180954391
 21
433.742586034615
 31
0.0
  0
LINE
  5
1B8
330
1F
100
AcDbEntity
  8
B-2
  6
Continuous
 62
     3
370
     9
100
AcDbLine
 10
-699.3087356154983
 20
508.4821308773092
 30
0.0
 11
-154.3098820866764
 21
508.4821308773092
 31
0.0
  0
LINE
  5
1B9
330
1F
100
AcDbEntity
  8
B-2
  6
Continuous
 62
     3
370
     9
100
AcDbLine
 10
-699.3087356154983
 20
512.9820714917519
 30
0.0
 11
-154.3098820866764
 21
512.9820714917519
 31
0.0
  0
LINE
  5
1BA
330
1F
100
AcDbEntity
  8
B-2
  6
Continuous
 62
     3
370
     9
100
AcDbLine
 10
-699.3087356154983
 20
342.2225384601849
 30
0.0
 11
-154.3098820866764
 21
342.2225384601849
 31
0.0
  0
LINE
  5
1BB
330
1F
100
AcDbEntity
  8
B-2
  6
Continuous
 62
     3
370
     9
100
AcDbLine
 10
-699.3087356154983
 20
333.7422808588337
 30
0.0
 11
-154.3098820866764
 21
333.7422808588337
 31
0.0
  0
LINE
  5
1BC
330
1F
100
AcDbEntity
  8
B-2
  6
Continuous
 62
     3
370
     9
100
AcDbLine
 10
-184.3086448875633
 20
342.2225384601849
 30
0.0
 11
-214.3088180954391
 21
333.7422808588337
 31
0.0
  0
LINE
  5
1BD
330
1F
100
AcDbEntity
  8
B-2
  6
Continuous
 62
     3
370
     9
100
AcDbLine
 10
-699.3087356154983
 20
233.7421983788927
 30
0.0
 11
-154.3098820866764
 21
233.7421983788927
 31
0.0
  0
LINE
  5
1BE
330
1F
100
AcDbEntity
  8
B-2
  6
Continuous
 62
     3
370
     9
100
AcDbLine
 10
-699.3087356154983
 20
242.2226786760845
 30
0.0
 11
-154.3098820866764
 21
242.2226786760845
 31
0.0
  0
LINE
  5
1BF
330
1F
100
AcDbEntity
  8
B-2
  6
Continuous
 62
     3
370
     9
100
AcDbLine
 10
-184.3086448875633
 20
242.2226786760845
 30
0.0
 11
-214.3088180954391
 21
233.7421983788927
 31
0.0
  0
LINE
  5
1C0
330
1F
100
AcDbEntity
  8
B-2
  6
Continuous
 62
     3
370
     9
100
AcDbLine
 10
-699.3087356154983
 20
133.7422643628454
 30
0.0
 11
-154.3098820866764
 21
133.7422643628454
 31
0.0
  0
LINE
  5
1C1
330
1F
100
AcDbEntity
  8
B-2
  6
Continuous
 62
     3
370
     9
100
AcDbLine
 10
-699.3087356154983
 20
142.2227446600371
 30
0.0
 11
-154.3098820866764
 21
142.2227446600371
 31
0.0
  0
LINE
  5
1C2
330
1F
100
AcDbEntity
  8
B-2
  6
Continuous
 62
     3
370
     9
100
AcDbLine
 10
-184.3086448875633
 20
142.2227446600371
 30
0.0
 11
-214.3088180954391
 21
133.7422643628454
 31
0.0
  0
LINE
  5
1C3
330
1F
100
AcDbEntity
  8
B-2
  6
Continuous
 62
     3
370
     9
100
AcDbLine
 10
-699.3087356154983
 20
33.74225611485134
 30
0.0
 11
-154.3098820866764
 21
33.74225611485134
 31
0.0
  0
LINE
  5
1C4
330
1F
100
AcDbEntity
  8
B-2
  6
Continuous
 62
     3
370
     9
100
AcDbLine
 10
-699.3087356154983
 20
42.22281064398994
 30
0.0
 11
-154.3098820866764
 21
42.22281064398994
 31
0.0
  0
LINE
  5
1C5
330
1F
100
AcDbEntity
  8
B-2
  6
Continuous
 62
     3
370
     9
100
AcDbLine
 10
-184.3086448875633
 20
42.22281064398994
 30
0.0
 11
-214.3088180954391
 21
33.74225611485134
 31
0.0
  0
LINE
  5
1C6
330
1F
100
AcDbEntity
  8
B-1
  6
Continuous
 62
     2
370
     9
100
AcDbLine
 10
-705.8091529639992
 20
516.9825795681877
 30
0.0
 11
-705.8091529639992
 21
-41.0174798173699
 31
0.0
  0
LINE
  5
1C7
330
1F
100
AcDbEntity
  8
B-1
  6
Continuous
 62
     2
370
     9
100
AcDbLine
 10
-711.8093212230785
 20
522.9825993633734
 30
0.0
 11
-711.8093212230785
 21
-47.01764807644928
 31
0.0
  0
LINE
  5
1C8
330
1F
100
AcDbEntity
  8
B-1
  6
Continuous
 62
     2
370
     9
100
AcDbLine
 10
-711.8093212230785
 20
522.9825993633734
 30
0.0
 11
-141.809370711043
 21
522.9825993633734
 31
0.0
  0
LINE
  5
1C9
330
1F
100
AcDbEntity
  8
B-1
  6
Continuous
 62
     2
370
     9
100
AcDbLine
 10
-705.8091529639992
 20
516.9825795681877
 30
0.0
 11
-147.8094647381756
 21
516.9825795681877
 31
0.0
  0
LINE
  5
1CA
330
1F
100
AcDbEntity
  8
B-1
  6
Continuous
 62
     2
370
     9
100
AcDbLine
 10
-705.8091529639992
 20
-41.0174798173699
 30
0.0
 11
-147.8094647381756
 21
-41.0174798173699
 31
0.0
  0
LINE
  5
1CB
330
1F
100
AcDbEntity
  8
B-1
  6
Continuous
 62
     2
370
     9
100
AcDbLine
 10
-711.8093212230785
 20
-47.01764807644928
 30
0.0
 11
-141.809370711043
 21
-47.01764807644928
 31
0.0
  0
LINE
  5
1CC
330
1F
100
AcDbEntity
  8
B-1
  6
Continuous
 62
     2
370
     9
100
AcDbLine
 10
-147.8094647381756
 20
516.9825795681877
 30
0.0
 11
-147.8094647381756
 21
-41.0174798173699
 31
0.0
  0
LINE
  5
1CD
330
1F
100
AcDbEntity
  8
B-1
  6
Continuous
 62
     2
370
     9
100
AcDbLine
 10
-141.809370711043
 20
522.9825993633734
 30
0.0
 11
-141.809370711043
 21
-47.01764807644928
 31
0.0
  0
LINE
  5
1CE
330
1F
100
AcDbEntity
  8
B-2
  6
Continuous
 62
     3
370
     9
100
AcDbLine
 10
464.9725836676522
 20
512.982665347326
 30
0.0
 11
489.9727156355575
 21
512.982665347326
 31
0.0
  0
LINE
  5
1CF
330
1F
100
AcDbEntity
  8
B-2
  6
Continuous
 62
     3
370
     9
100
AcDbLine
 10
464.9725836676522
 20
508.4824278050964
 30
0.0
 11
496.9727882179056
 21
508.4824278050964
 31
0.0
  0
LINE
  5
1D0
330
1F
100
AcDbEntity
  8
B-1
  6
Continuous
 62
     2
370
     9
100
AcDbLine
 10
464.9725836676522
 20
519.4827115360929
 30
0.0
 11
464.9725836676522
 21
522.9825993633734
 31
0.0
  0
LINE
  5
1D1
330
1F
100
AcDbEntity
  8
B-1
  6
Continuous
 62
     2
370
     9
100
AcDbLine
 10
499.4726232580238
 20
462.982475643462
 30
0.0
 11
502.9726595491978
 21
462.982475643462
 31
0.0
  0
LINE
  5
1D2
330
1F
100
AcDbEntity
  8
B-1
  6
Continuous
 62
     2
370
     9
100
AcDbLine
 10
492.9728739970441
 20
516.9825795681877
 30
0.0
 11
467.4727156355575
 21
516.9825795681877
 31
0.0
  0
LINE
  5
1D3
330
1F
100
AcDbEntity
  8
B-1
  6
Continuous
 62
     2
370
     9
100
AcDbLine
 10
496.9727882179056
 20
512.982665347326
 30
0.0
 11
496.9727882179056
 21
465.4823106835803
 31
0.0
  0
LINE
  5
1D4
330
1F
100
AcDbEntity
  8
B-1
  6
Continuous
 62
     2
370
     9
100
AcDbLine
 10
502.9726595491978
 20
522.9825993633734
 30
0.0
 11
464.9725836676522
 21
522.9825993633734
 31
0.0
  0
LINE
  5
1D5
330
1F
100
AcDbEntity
  8
B-1
  6
Continuous
 62
     2
370
     9
100
AcDbLine
 10
482.9726430532097
 20
522.9825993633734
 30
0.0
 11
482.9726430532097
 21
531.9824805922585
 31
0.0
  0
LINE
  5
1D6
330
1F
100
AcDbEntity
  8
B-1
  6
Continuous
 62
     2
370
     9
100
AcDbLine
 10
496.7879506703972
 20
531.9824805922585
 30
0.0
 11
482.9726430532097
 21
531.9824805922585
 31
0.0
  0
LINE
  5
1D7
330
1F
100
AcDbEntity
  8
B-1
  6
Continuous
 62
     2
370
     9
100
AcDbLine
 10
501.4464507231841
 20
523.5960521716504
 30
0.0
 11
559.6374676678631
 21
539.1883241311098
 31
0.0
  0
LINE
  5
1D8
330
1F
100
AcDbEntity
  8
B-1
  6
Continuous
 62
     2
370
     9
100
AcDbLine
 10
499.1173491606841
 20
532.2893554602906
 30
0.0
 11
557.3080691775763
 21
547.8814789558566
 31
0.0
  0
LINE
  5
1D9
330
1F
100
AcDbEntity
  8
B-1
  6
JWW_CENTER1
 62
     2
370
     9
100
AcDbLine
 10
496.78765374261
 20
527.4828369056031
 30
0.0
 11
479.1678103885138
 21
527.4828369056031
 31
0.0
  0
LINE
  5
1DA
330
1F
100
AcDbEntity
  8
B-1
  6
JWW_CENTER1
 62
     2
370
     9
100
AcDbLine
 10
500.2817514780406
 20
527.9427780479173
 30
0.0
 11
565.4484929265203
 21
545.4039134997754
 31
0.0
  0
LINE
  5
1DB
330
1F
100
AcDbEntity
  8
B-2
  6
Continuous
 62
     3
370
     9
100
AcDbLine
 10
464.9725836676522
 20
512.982665347326
 30
0.0
 11
464.9725836676522
 21
-37.01763982845522
 31
0.0
  0
LINE
  5
1DC
330
1F
100
AcDbEntity
  8
B-2
  6
Continuous
 62
     3
370
     9
100
AcDbLine
 10
473.4580375052788
 20
37.98238491552713
 30
0.0
 11
469.2152363545188
 21
42.2254087621276
 31
0.0
  0
LINE
  5
1DD
330
1F
100
AcDbEntity
  8
B-2
  6
Continuous
 62
     3
370
     9
100
AcDbLine
 10
469.2152363545188
 20
42.2254087621276
 30
0.0
 11
464.9725836676522
 21
37.98238491552713
 31
0.0
  0
LINE
  5
1DE
330
1F
100
AcDbEntity
  8
B-2
  6
Continuous
 62
     3
370
     9
100
AcDbLine
 10
464.9725836676522
 20
37.98238491552713
 30
0.0
 11
469.2152363545188
 21
33.73995492450088
 31
0.0
  0
LINE
  5
1DF
330
1F
100
AcDbEntity
  8
B-2
  6
Continuous
 62
     3
370
     9
100
AcDbLine
 10
469.2152363545188
 20
33.73995492450088
 30
0.0
 11
473.4580375052788
 21
37.98238491552713
 31
0.0
  0
LINE
  5
1E0
330
1F
100
AcDbEntity
  8
B-2
  6
Continuous
 62
     3
370
     9
100
AcDbLine
 10
464.9725836676522
 20
-37.01763982845522
 30
0.0
 11
489.9727156355575
 21
-37.01763982845522
 31
0.0
  0
LINE
  5
1E1
330
1F
100
AcDbEntity
  8
B-2
  6
Continuous
 62
     3
370
     9
100
AcDbLine
 10
464.9725836676522
 20
-32.51747651817224
 30
0.0
 11
496.9727882179056
 21
-32.51747651817224
 31
0.0
  0
LINE
  5
1E2
330
1F
100
AcDbEntity
  8
B-1
  6
Continuous
 62
     2
370
     9
100
AcDbLine
 10
464.9725836676522
 20
-43.51761178527529
 30
0.0
 11
464.9725836676522
 21
-47.01764807644928
 31
0.0
  0
LINE
  5
1E3
330
1F
100
AcDbEntity
  8
B-1
  6
Continuous
 62
     2
370
     9
100
AcDbLine
 10
499.4726232580238
 20
12.98210448372807
 30
0.0
 11
502.9726595491978
 21
12.98210448372807
 31
0.0
  0
LINE
  5
1E4
330
1F
100
AcDbEntity
  8
B-1
  6
Continuous
 62
     2
370
     9
100
AcDbLine
 10
492.9728739970441
 20
-41.0174798173699
 30
0.0
 11
467.4727156355575
 21
-41.0174798173699
 31
0.0
  0
LINE
  5
1E5
330
1F
100
AcDbEntity
  8
B-1
  6
Continuous
 62
     2
370
     9
100
AcDbLine
 10
496.9727882179056
 20
-37.01763982845522
 30
0.0
 11
496.9727882179056
 21
10.48226944360978
 31
0.0
  0
LINE
  5
1E6
330
1F
100
AcDbEntity
  8
B-1
  6
Continuous
 62
     2
370
     9
100
AcDbLine
 10
502.9726595491978
 20
-47.01764807644928
 30
0.0
 11
464.9725836676522
 21
-47.01764807644928
 31
0.0
  0
LINE
  5
1E7
330
1F
100
AcDbEntity
  8
B-1
  6
Continuous
 62
     2
370
     9
100
AcDbLine
 10
482.9726430532097
 20
-47.01764807644928
 30
0.0
 11
482.9726430532097
 21
-56.01752930533443
 31
0.0
  0
LINE
  5
1E8
330
1F
100
AcDbEntity
  8
B-1
  6
Continuous
 62
     2
370
     9
100
AcDbLine
 10
496.7879506703972
 20
-56.01752930533443
 30
0.0
 11
482.9726430532097
 21
-56.01752930533443
 31
0.0
  0
LINE
  5
1E9
330
1F
100
AcDbEntity
  8
B-1
  6
Continuous
 62
     2
370
     9
100
AcDbLine
 10
501.4464507231841
 20
-47.63110088472631
 30
0.0
 11
559.6374676678631
 21
-63.22322438029217
 31
0.0
  0
LINE
  5
1EA
330
1F
100
AcDbEntity
  8
B-1
  6
Continuous
 62
     2
370
     9
100
AcDbLine
 10
499.1173491606841
 20
-56.32440417336655
 30
0.0
 11
557.3080691775763
 21
-71.9165276689324
 31
0.0
  0
LINE
  5
1EB
330
1F
100
AcDbEntity
  8
B-1
  6
JWW_CENTER1
 62
     2
370
     9
100
AcDbLine
 10
496.78765374261
 20
-51.51788561867905
 30
0.0
 11
479.1678103885138
 21
-51.51788561867905
 31
0.0
  0
LINE
  5
1EC
330
1F
100
AcDbEntity
  8
B-1
  6
JWW_CENTER1
 62
     2
370
     9
100
AcDbLine
 10
500.2817514780406
 20
-51.97782676099318
 30
0.0
 11
565.4484929265203
 21
-69.43896221285131
 31
0.0
  0
LINE
  5
1ED
330
1F
100
AcDbEntity
  8
B-2
  6
Continuous
 62
     3
370
     9
100
AcDbLine
 10
470.9726034628378
 20
-32.51747651817224
 30
0.0
 11
470.9726034628378
 21
35.49709933697979
 31
0.0
  0
LINE
  5
1EE
330
1F
100
AcDbEntity
  8
B-2
  6
Continuous
 62
     3
370
     9
100
AcDbLine
 10
471.97265625
 20
-32.51747651817224
 30
0.0
 11
471.97265625
 21
36.49700366024838
 31
0.0
  0
LINE
  5
1EF
330
1F
100
AcDbEntity
  8
B-C
  6
Continuous
 62
     7
370
     9
100
AcDbLine
 10
560.7227387299409
 20
547.4322272138802
 30
0.0
 11
566.4627982474663
 21
561.2904408963127
 31
0.0
  0
LINE
  5
1F0
330
1F
100
AcDbEntity
  8
B-C
  6
Continuous
 62
     7
370
     9
100
AcDbLine
 10
560.7227387299409
 20
547.4322272138802
 30
0.0
 11
569.8541589685391
 21
559.3324990677653
 31
0.0
  0
LINE
  5
1F1
330
1F
100
AcDbEntity
  8
B-C
  6
Continuous
 62
     7
370
     9
100
AcDbLine
 10
464.9725836676522
 20
522.9825993633734
 30
0.0
 11
455.8413118929478
 21
534.8828712172585
 31
0.0
  0
LINE
  5
1F2
330
1F
100
AcDbEntity
  8
B-C
  6
Continuous
 62
     7
370
     9
100
AcDbLine
 10
464.9725836676522
 20
522.9825993633734
 30
0.0
 11
459.2323756862331
 21
536.8408130458059
 31
0.0
  0
LINE
  5
1F3
330
1F
100
AcDbEntity
  8
B-C
  6
Continuous
 62
     7
370
     9
100
AcDbLine
 10
464.9725836676522
 20
522.9825993633734
 30
0.0
 11
418.4380608635981
 21
603.5830533329679
 31
0.0
  0
LINE
  5
1F4
330
1F
100
AcDbEntity
  8
B-2
  6
Continuous
 62
     3
370
     9
100
AcDbLine
 10
473.4580375052788
 20
437.9823436755567
 30
0.0
 11
469.2152363545188
 21
433.7396167567433
 31
0.0
  0
LINE
  5
1F5
330
1F
100
AcDbEntity
  8
B-2
  6
Continuous
 62
     3
370
     9
100
AcDbLine
 10
469.2152363545188
 20
433.7396167567433
 30
0.0
 11
464.9725836676522
 21
437.9823436755567
 31
0.0
  0
LINE
  5
1F6
330
1F
100
AcDbEntity
  8
B-2
  6
Continuous
 62
     3
370
     9
100
AcDbLine
 10
464.9725836676522
 20
437.9823436755567
 30
0.0
 11
469.2152363545188
 21
442.22507059437
 31
0.0
  0
LINE
  5
1F7
330
1F
100
AcDbEntity
  8
B-2
  6
Continuous
 62
     3
370
     9
100
AcDbLine
 10
469.2152363545188
 20
442.22507059437
 30
0.0
 11
473.4580375052788
 21
437.9823436755567
 31
0.0
  0
LINE
  5
1F8
330
1F
100
AcDbEntity
  8
B-2
  6
Continuous
 62
     3
370
     9
100
AcDbLine
 10
489.9727156355575
 20
512.982665347326
 30
0.0
 11
489.9727156355575
 21
-37.01763982845522
 31
0.0
  0
LINE
  5
1F9
330
1F
100
AcDbEntity
  8
B-2
  6
Continuous
 62
     3
370
     9
100
AcDbLine
 10
490.9726199588263
 20
508.4824278050964
 30
0.0
 11
490.9726199588263
 21
-32.51747651817224
 31
0.0
  0
LINE
  5
1FA
330
1F
100
AcDbEntity
  8
B-2
  6
Continuous
 62
     3
370
     9
100
AcDbLine
 10
496.9727882179056
 20
508.4824278050964
 30
0.0
 11
496.9727882179056
 21
-32.51747651817224
 31
0.0
  0
LINE
  5
1FB
330
1F
100
AcDbEntity
  8
B-2
  6
JWW_CENTER1
 62
     3
370
     9
100
AcDbLine
 10
440.1412551467484
 20
237.982475643462
 30
0.0
 11
523.8207018053209
 21
237.982475643462
 31
0.0
  0
LINE
  5
1FC
330
1F
100
AcDbEntity
  8
B-C
  6
Continuous
 62
     7
370
     9
100
AcDbLine
 10
560.7227387299409
 20
547.4322272138802
 30
0.0
 11
593.1414629961994
 21
603.5830533329679
 31
0.0
  0
LINE
  5
1FD
330
1F
100
AcDbEntity
  8
B-2
  6
Continuous
 62
     3
370
     9
100
AcDbLine
 10
473.4580375052788
 20
137.9824673954679
 30
0.0
 11
469.2152363545188
 21
142.2254912420684
 31
0.0
  0
LINE
  5
1FE
330
1F
100
AcDbEntity
  8
B-2
  6
Continuous
 62
     3
370
     9
100
AcDbLine
 10
469.2152363545188
 20
142.2254912420684
 30
0.0
 11
464.9725836676522
 21
137.9824673954679
 31
0.0
  0
LINE
  5
1FF
330
1F
100
AcDbEntity
  8
B-2
  6
Continuous
 62
     3
370
     9
100
AcDbLine
 10
464.9725836676522
 20
137.9824673954679
 30
0.0
 11
469.2152363545188
 21
133.7400374044418
 31
0.0
  0
LINE
  5
200
330
1F
100
AcDbEntity
  8
B-2
  6
Continuous
 62
     3
370
     9
100
AcDbLine
 10
469.2152363545188
 20
133.7400374044418
 30
0.0
 11
473.4580375052788
 21
137.9824673954679
 31
0.0
  0
LINE
  5
201
330
1F
100
AcDbEntity
  8
B-2
  6
Continuous
 62
     3
370
     9
100
AcDbLine
 10
473.4580375052788
 20
237.982475643462
 30
0.0
 11
469.2152363545188
 21
242.2254252581157
 31
0.0
  0
LINE
  5
202
330
1F
100
AcDbEntity
  8
B-2
  6
Continuous
 62
     3
370
     9
100
AcDbLine
 10
469.2152363545188
 20
242.2254252581157
 30
0.0
 11
464.9725836676522
 21
237.982475643462
 31
0.0
  0
LINE
  5
203
330
1F
100
AcDbEntity
  8
B-2
  6
Continuous
 62
     3
370
     9
100
AcDbLine
 10
464.9725836676522
 20
237.982475643462
 30
0.0
 11
469.2152363545188
 21
233.739971420489
 31
0.0
  0
LINE
  5
204
330
1F
100
AcDbEntity
  8
B-2
  6
Continuous
 62
     3
370
     9
100
AcDbLine
 10
469.2152363545188
 20
233.739971420489
 30
0.0
 11
473.4580375052788
 21
237.982475643462
 31
0.0
  0
LINE
  5
205
330
1F
100
AcDbEntity
  8
B-2
  6
Continuous
 62
     3
370
     9
100
AcDbLine
 10
473.4580375052788
 20
337.9824096595093
 30
0.0
 11
469.2152363545188
 21
342.2253592741631
 31
0.0
  0
LINE
  5
206
330
1F
100
AcDbEntity
  8
B-2
  6
Continuous
 62
     3
370
     9
100
AcDbLine
 10
469.2152363545188
 20
342.2253592741631
 30
0.0
 11
464.9725836676522
 21
337.9824096595093
 31
0.0
  0
LINE
  5
207
330
1F
100
AcDbEntity
  8
B-2
  6
Continuous
 62
     3
370
     9
100
AcDbLine
 10
464.9725836676522
 20
337.9824096595093
 30
0.0
 11
469.2152363545188
 21
333.7399054365363
 31
0.0
  0
LINE
  5
208
330
1F
100
AcDbEntity
  8
B-2
  6
Continuous
 62
     3
370
     9
100
AcDbLine
 10
469.2152363545188
 20
333.7399054365363
 30
0.0
 11
473.4580375052788
 21
337.9824096595093
 31
0.0
  0
LINE
  5
209
330
1F
100
AcDbEntity
  8
B-C
  6
Continuous
 62
     7
370
     9
100
AcDbLine
 10
-214.3088180954391
 20
471.7794809617687
 30
0.0
 11
-212.9773938978041
 21
484.2084327406961
 31
0.0
  0
LINE
  5
20A
330
1F
100
AcDbEntity
  8
B-C
  6
Continuous
 62
     7
370
     9
100
AcDbLine
 10
-214.3088180954391
 20
471.7794809617687
 30
0.0
 11
-209.8059824350717
 21
483.4404290192011
 31
0.0
  0
LINE
  5
20B
330
1F
100
AcDbEntity
  8
B-C
  6
Continuous
 62
     7
370
     9
100
AcDbLine
 10
-260.9022810652448
 20
442.2221013164984
 30
0.0
 11
-259.3525407120987
 21
454.6256657696234
 31
0.0
  0
LINE
  5
20C
330
1F
100
AcDbEntity
  8
B-C
  6
Continuous
 62
     7
370
     9
100
AcDbLine
 10
-260.9022810652448
 20
442.2221013164984
 30
0.0
 11
-256.1950848553631
 21
453.8019138560887
 31
0.0
  0
LINE
  5
20D
330
1F
100
AcDbEntity
  8
B-2
  6
Continuous
 62
     3
370
     9
100
AcDbLine
 10
470.9726034628378
 20
135.4971818169207
 30
0.0
 11
470.9726034628378
 21
40.46804165380838
 31
0.0
  0
LINE
  5
20E
330
1F
100
AcDbEntity
  8
B-2
  6
Continuous
 62
     3
370
     9
100
AcDbLine
 10
471.97265625
 20
136.4972346040827
 30
0.0
 11
471.97265625
 21
39.46791463469931
 31
0.0
  0
LINE
  5
20F
330
1F
100
AcDbEntity
  8
B-2
  6
Continuous
 62
     3
370
     9
100
AcDbLine
 10
470.9726034628378
 20
335.497124080962
 30
0.0
 11
470.9726034628378
 21
240.4680581497965
 31
0.0
  0
LINE
  5
210
330
1F
100
AcDbEntity
  8
B-2
  6
Continuous
 62
     3
370
     9
100
AcDbLine
 10
470.9726034628378
 20
235.4971900649148
 30
0.0
 11
470.9726034628378
 21
140.4681241337491
 31
0.0
  0
LINE
  5
211
330
1F
100
AcDbEntity
  8
B-2
  6
Continuous
 62
     3
370
     9
100
AcDbLine
 10
471.97265625
 20
336.6235196415616
 30
0.0
 11
471.97265625
 21
239.4679311306876
 31
0.0
  0
LINE
  5
212
330
1F
100
AcDbEntity
  8
B-2
  6
Continuous
 62
     3
370
     9
100
AcDbLine
 10
471.97265625
 20
236.4971686201301
 30
0.0
 11
471.97265625
 21
139.4679228826934
 31
0.0
  0
LINE
  5
213
330
1F
100
AcDbEntity
  8
B-2
  6
Continuous
 62
     3
370
     9
100
AcDbLine
 10
470.9726034628378
 20
435.4969096331158
 30
0.0
 11
470.9726034628378
 21
340.4679921658438
 31
0.0
  0
LINE
  5
214
330
1F
100
AcDbEntity
  8
B-2
  6
Continuous
 62
     3
370
     9
100
AcDbLine
 10
471.97265625
 20
436.4970366522248
 30
0.0
 11
471.97265625
 21
339.4678651467348
 31
0.0
  0
LINE
  5
215
330
1F
100
AcDbEntity
  8
B-2
  6
Continuous
 62
     3
370
     9
100
AcDbLine
 10
470.9726034628378
 20
508.4824278050964
 30
0.0
 11
470.9726034628378
 21
440.4678519499444
 31
0.0
  0
LINE
  5
216
330
1F
100
AcDbEntity
  8
B-2
  6
Continuous
 62
     3
370
     9
100
AcDbLine
 10
471.97265625
 20
508.4824278050964
 30
0.0
 11
471.97265625
 21
439.4973434776048
 31
0.0
  0
LINE
  5
217
330
1F
100
AcDbEntity
  8
B-C
  6
Continuous
 62
     7
370
     9
100
AcDbLine
 10
260.3265380859375
 20
603.5830533329679
 30
0.0
 11
418.4380608635981
 21
603.5830533329679
 31
0.0
  0
LINE
  5
218
330
1F
100
AcDbEntity
  8
B-C
  6
Continuous
 62
     7
370
     9
100
AcDbLine
 10
593.1414629961994
 20
603.5830533329679
 30
0.0
 11
742.2205909522806
 21
603.5830533329679
 31
0.0
  0
LINE
  5
219
330
1F
100
AcDbEntity
  8
B-2
  6
Continuous
 62
     3
370
     9
100
AcDbLine
 10
-189.3084634316933
 20
508.4821308773092
 30
0.0
 11
-189.3084634316933
 21
442.2221013164984
 31
0.0
  0
LINE
  5
21A
330
1F
100
AcDbEntity
  8
B-2
  6
Continuous
 62
     3
370
     9
100
AcDbLine
 10
-184.3087191195102
 20
508.4821308773092
 30
0.0
 11
-184.3087191195102
 21
442.2221013164984
 31
0.0
  0
LINE
  5
21B
330
1F
100
AcDbEntity
  8
B-2
  6
Continuous
 62
     3
370
     9
100
AcDbLine
 10
-184.3087191195102
 20
433.742586034615
 30
0.0
 11
-184.3087191195102
 21
342.2225384601849
 31
0.0
  0
LINE
  5
21C
330
1F
100
AcDbEntity
  8
B-2
  6
Continuous
 62
     3
370
     9
100
AcDbLine
 10
-189.3084634316933
 20
433.742586034615
 30
0.0
 11
-189.3084634316933
 21
342.2225384601849
 31
0.0
  0
LINE
  5
21D
330
1F
100
AcDbEntity
  8
B-2
  6
Continuous
 62
     3
370
     9
100
AcDbLine
 10
-184.3087191195102
 20
333.7422808588337
 30
0.0
 11
-184.3087191195102
 21
242.2226786760845
 31
0.0
  0
LINE
  5
21E
330
1F
100
AcDbEntity
  8
B-2
  6
Continuous
 62
     3
370
     9
100
AcDbLine
 10
-189.3084634316933
 20
333.7422808588337
 30
0.0
 11
-189.3084634316933
 21
242.2226786760845
 31
0.0
  0
LINE
  5
21F
330
1F
100
AcDbEntity
  8
B-2
  6
Continuous
 62
     3
370
     9
100
AcDbLine
 10
-184.3087191195102
 20
233.7421983788927
 30
0.0
 11
-184.3087191195102
 21
142.2227446600371
 31
0.0
  0
LINE
  5
220
330
1F
100
AcDbEntity
  8
B-2
  6
Continuous
 62
     3
370
     9
100
AcDbLine
 10
-189.3084634316933
 20
233.7421983788927
 30
0.0
 11
-189.3084634316933
 21
142.2227446600371
 31
0.0
  0
LINE
  5
221
330
1F
100
AcDbEntity
  8
B-2
  6
Continuous
 62
     3
370
     9
100
AcDbLine
 10
-184.3087191195102
 20
133.7422643628454
 30
0.0
 11
-184.3087191195102
 21
42.22281064398994
 31
0.0
  0
LINE
  5
222
330
1F
100
AcDbEntity
  8
B-2
  6
Continuous
 62
     3
370
     9
100
AcDbLine
 10
-184.3087191195102
 20
33.74225611485134
 30
0.0
 11
-184.3087191195102
 21
-32.51769921401264
 31
0.0
  0
LINE
  5
223
330
1F
100
AcDbEntity
  8
B-2
  6
Continuous
 62
     3
370
     9
100
AcDbLine
 10
-189.3084634316933
 20
133.7422643628454
 30
0.0
 11
-189.3084634316933
 21
42.22281064398994
 31
0.0
  0
LINE
  5
224
330
1F
100
AcDbEntity
  8
B-2
  6
Continuous
 62
     3
370
     9
100
AcDbLine
 10
-189.3084634316933
 20
33.74225611485134
 30
0.0
 11
-189.3084634316933
 21
-32.51769921401264
 31
0.0
  0
LINE
  5
225
330
1F
100
AcDbEntity
  8
B-2
  6
Continuous
 62
     3
370
     9
100
AcDbLine
 10
-159.3085129196578
 20
442.2221013164984
 30
0.0
 11
-184.3087191195102
 21
433.742586034615
 31
0.0
  0
LINE
  5
226
330
1F
100
AcDbEntity
  8
B-2
  6
Continuous
 62
     3
370
     9
100
AcDbLine
 10
-159.3085129196578
 20
342.2225384601849
 30
0.0
 11
-184.3087191195102
 21
333.7422808588337
 31
0.0
  0
LINE
  5
227
330
1F
100
AcDbEntity
  8
B-2
  6
Continuous
 62
     3
370
     9
100
AcDbLine
 10
-159.3085129196578
 20
242.2226786760845
 30
0.0
 11
-184.3087191195102
 21
233.7421983788927
 31
0.0
  0
LINE
  5
228
330
1F
100
AcDbEntity
  8
B-2
  6
Continuous
 62
     3
370
     9
100
AcDbLine
 10
-159.3085129196578
 20
142.2227446600371
 30
0.0
 11
-184.3087191195102
 21
133.7422643628454
 31
0.0
  0
LINE
  5
229
330
1F
100
AcDbEntity
  8
B-2
  6
Continuous
 62
     3
370
     9
100
AcDbLine
 10
-159.3085129196578
 20
42.22281064398994
 30
0.0
 11
-184.3087191195102
 21
33.74225611485134
 31
0.0
  0
LINE
  5
22A
330
1F
100
AcDbEntity
  8
B-1
  6
JWW_DASHED3
 62
     2
370
     9
100
AcDbLine
 10
-651.8090490392735
 20
12.98210448372807
 30
0.0
 11
-651.8090490392735
 21
462.982475643462
 31
0.0
  0
LINE
  5
22B
330
1F
100
AcDbEntity
  8
B-1
  6
JWW_DASHED3
 62
     2
370
     9
100
AcDbLine
 10
-201.809642894848
 20
462.982475643462
 30
0.0
 11
-651.8090490392735
 21
462.982475643462
 31
0.0
  0
LINE
  5
22C
330
1F
100
AcDbEntity
  8
B-1
  6
JWW_DASHED3
 62
     2
370
     9
100
AcDbLine
 10
-201.809642894848
 20
12.98210448372807
 30
0.0
 11
-651.8090490392735
 21
12.98210448372807
 31
0.0
  0
LINE
  5
22D
330
1F
100
AcDbEntity
  8
B-1
  6
JWW_DASHED3
 62
     2
370
     9
100
AcDbLine
 10
-201.809642894848
 20
462.982475643462
 30
0.0
 11
-201.809642894848
 21
12.98210448372807
 31
0.0
  0
LINE
  5
22E
330
1F
100
AcDbEntity
  8
B-4
  6
Continuous
 62
     7
370
     9
100
AcDbLine
 10
-711.8093212230785
 20
588.1698288291673
 30
0.0
 11
-426.8094201990075
 21
588.1698288291673
 31
0.0
  0
LINE
  5
22F
330
1F
100
AcDbEntity
  8
B-4
  6
Continuous
 62
     7
370
     9
100
AcDbLine
 10
-711.8093212230785
 20
531.9826290561522
 30
0.0
 11
-711.8093212230785
 21
589.9698050749444
 31
0.0
  0
LINE
  5
230
330
1F
100
AcDbEntity
  8
B-4
  6
Continuous
 62
     7
370
     9
100
AcDbLine
 10
-426.8094201990075
 20
543.5827069172165
 30
0.0
 11
-426.8094201990075
 21
589.9698050749444
 31
0.0
  0
LINE
  5
231
330
1F
100
AcDbEntity
  8
B-4
  6
Continuous
 62
     7
370
     9
100
AcDbLine
 10
-426.8094201990075
 20
588.1698288291673
 30
0.0
 11
-141.809370711043
 21
588.1698288291673
 31
0.0
  0
LINE
  5
232
330
1F
100
AcDbEntity
  8
B-4
  6
Continuous
 62
     7
370
     9
100
AcDbLine
 10
-141.809370711043
 20
531.9826290561522
 30
0.0
 11
-141.809370711043
 21
589.9698050749444
 31
0.0
  0
LINE
  5
233
330
1F
100
AcDbEntity
  8
B-4
  6
Continuous
 62
     7
370
     9
100
AcDbLine
 10
-606.8087521114865
 20
540.8312255774781
 30
0.0
 11
-576.8085789036106
 21
540.8312255774781
 31
0.0
  0
LINE
  5
234
330
1F
100
AcDbEntity
  8
B-4
  6
Continuous
 62
     7
370
     9
100
AcDbLine
 10
-606.8087521114865
 20
495.6434187520981
 30
0.0
 11
-606.8087521114865
 21
542.6312018232552
 31
0.0
  0
LINE
  5
235
330
1F
100
AcDbEntity
  8
B-4
  6
Continuous
 62
     7
370
     9
100
AcDbLine
 10
-576.8085789036106
 20
495.2869569436098
 30
0.0
 11
-576.8085789036106
 21
542.6312018232552
 31
0.0
  0
LINE
  5
236
330
1F
100
AcDbEntity
  8
B-4
  6
Continuous
 62
     7
370
     9
100
AcDbLine
 10
-711.8093212230785
 20
-224.1123581429612
 30
0.0
 11
-141.809370711043
 21
-224.1123581429612
 31
0.0
  0
LINE
  5
237
330
1F
100
AcDbEntity
  8
B-4
  6
Continuous
 62
     7
370
     9
100
AcDbLine
 10
-711.8093212230785
 20
-56.01767776922803
 30
0.0
 11
-711.8093212230785
 21
-225.9123715047115
 31
0.0
  0
LINE
  5
238
330
1F
100
AcDbEntity
  8
B-4
  6
Continuous
 62
     7
370
     9
100
AcDbLine
 10
-141.809370711043
 20
-56.01767776922803
 30
0.0
 11
-141.809370711043
 21
-225.9123715047115
 31
0.0
  0
LINE
  5
239
330
1F
100
AcDbEntity
  8
B-4
  6
Continuous
 62
     7
370
     9
100
AcDbLine
 10
-737.675034806535
 20
-170.5988446294476
 30
0.0
 11
-117.9776495856208
 21
-170.5988446294476
 31
0.0
  0
LINE
  5
23A
330
1F
100
AcDbEntity
  8
B-4
  6
Continuous
 62
     7
370
     9
100
AcDbLine
 10
-711.8092469911317
 20
-179.5988372062529
 30
0.0
 11
-711.8092469911317
 21
-172.398857991198
 31
0.0
  0
LINE
  5
23B
330
1F
100
AcDbEntity
  8
B-4
  6
Continuous
 62
     7
370
     9
100
AcDbLine
 10
-705.8091529639992
 20
-50.01750951014866
 30
0.0
 11
-705.8091529639992
 21
-172.398857991198
 31
0.0
  0
LINE
  5
23C
330
1F
100
AcDbEntity
  8
B-4
  6
Continuous
 62
     7
370
     9
100
AcDbLine
 10
-699.3087356154983
 20
-46.01766952123388
 30
0.0
 11
-699.3087356154983
 21
-172.398857991198
 31
0.0
  0
LINE
  5
23D
330
1F
100
AcDbEntity
  8
B-4
  6
Continuous
 62
     7
370
     9
100
AcDbLine
 10
-154.3098820866764
 20
-46.01766952123388
 30
0.0
 11
-154.3098820866764
 21
-172.398857991198
 31
0.0
  0
LINE
  5
23E
330
1F
100
AcDbEntity
  8
B-4
  6
Continuous
 62
     7
370
     9
100
AcDbLine
 10
-147.8094647381756
 20
-50.01750951014866
 30
0.0
 11
-147.8094647381756
 21
-172.398857991198
 31
0.0
  0
LINE
  5
23F
330
1F
100
AcDbEntity
  8
B-4
  6
Continuous
 62
     7
370
     9
100
AcDbLine
 10
-651.8090490392735
 20
-126.1201013598108
 30
0.0
 11
-201.809642894848
 21
-126.1201013598108
 31
0.0
  0
LINE
  5
240
330
1F
100
AcDbEntity
  8
B-4
  6
Continuous
 62
     7
370
     9
100
AcDbLine
 10
-651.8090490392735
 20
3.982074790949312
 30
0.0
 11
-651.8090490392735
 21
-127.9200776055878
 31
0.0
  0
LINE
  5
241
330
1F
100
AcDbEntity
  8
B-4
  6
Continuous
 62
     7
370
     9
100
AcDbLine
 10
-201.809642894848
 20
3.982074790949312
 30
0.0
 11
-201.809642894848
 21
-127.9200776055878
 31
0.0
  0
LINE
  5
242
330
1F
100
AcDbEntity
  8
B-4
  6
Continuous
 62
     7
370
     9
100
AcDbLine
 10
330.8108108108109
 20
522.9825993633734
 30
0.0
 11
330.8108108108109
 21
-47.01764807644928
 31
0.0
  0
LINE
  5
243
330
1F
100
AcDbEntity
  8
B-4
  6
Continuous
 62
     7
370
     9
100
AcDbLine
 10
455.9725539748734
 20
522.9825993633734
 30
0.0
 11
329.0108345650337
 21
522.9825993633734
 31
0.0
  0
LINE
  5
244
330
1F
100
AcDbEntity
  8
B-4
  6
Continuous
 62
     7
370
     9
100
AcDbLine
 10
455.9725539748734
 20
-47.01764807644928
 30
0.0
 11
329.0108345650337
 21
-47.01764807644928
 31
0.0
  0
LINE
  5
245
330
1F
100
AcDbEntity
  8
B-4
  6
Continuous
 62
     7
370
     9
100
AcDbLine
 10
406.000201251056
 20
550.1520857442856
 30
0.0
 11
406.000201251056
 21
-82.59464475085811
 31
0.0
  0
LINE
  5
246
330
1F
100
AcDbEntity
  8
B-4
  6
Continuous
 62
     7
370
     9
100
AcDbLine
 10
458.4726859427788
 20
516.9825795681877
 30
0.0
 11
404.2002250052788
 21
516.9825795681877
 31
0.0
  0
LINE
  5
247
330
1F
100
AcDbEntity
  8
B-4
  6
Continuous
 62
     7
370
     9
100
AcDbLine
 10
455.9725539748734
 20
512.982665347326
 30
0.0
 11
404.2002250052788
 21
512.982665347326
 31
0.0
  0
LINE
  5
248
330
1F
100
AcDbEntity
  8
B-4
  6
Continuous
 62
     7
370
     9
100
AcDbLine
 10
455.9725539748734
 20
-37.01763982845522
 30
0.0
 11
404.2002250052788
 21
-37.01763982845522
 31
0.0
  0
LINE
  5
249
330
1F
100
AcDbEntity
  8
B-4
  6
Continuous
 62
     7
370
     9
100
AcDbLine
 10
458.4726859427788
 20
-41.0176282812635
 30
0.0
 11
404.2002250052788
 21
-41.0176282812635
 31
0.0
  0
LINE
  5
24A
330
1F
100
AcDbEntity
  8
B-4
  6
Continuous
 62
     7
370
     9
100
AcDbLine
 10
415.0002309438347
 20
-47.01779654034287
 30
0.0
 11
407.8001774968328
 21
-47.01779654034287
 31
0.0
  0
LINE
  5
24B
330
1F
100
AcDbEntity
  8
B-4
  6
Continuous
 62
     7
370
     9
100
AcDbLine
 10
617.8378378378378
 20
523.5960521716504
 30
0.0
 11
617.8378378378378
 21
462.9825498754089
 31
0.0
  0
LINE
  5
24C
330
1F
100
AcDbEntity
  8
B-4
  6
Continuous
 62
     7
370
     9
100
AcDbLine
 10
510.4464804159628
 20
522.9825993633734
 30
0.0
 11
619.637814083615
 21
522.9825993633734
 31
0.0
  0
LINE
  5
24D
330
1F
100
AcDbEntity
  8
B-4
  6
Continuous
 62
     7
370
     9
100
AcDbLine
 10
511.9726892419766
 20
462.9825498754089
 30
0.0
 11
619.637814083615
 21
462.9825498754089
 31
0.0
  0
LINE
  5
24E
330
1F
100
AcDbEntity
  8
B-4
  6
Continuous
 62
     7
370
     9
100
AcDbLine
 10
617.8378378378378
 20
462.9825498754089
 30
0.0
 11
617.8378378378378
 21
12.98210448372807
 31
0.0
  0
LINE
  5
24F
330
1F
100
AcDbEntity
  8
B-4
  6
Continuous
 62
     7
370
     9
100
AcDbLine
 10
511.9726892419766
 20
12.98210448372807
 30
0.0
 11
619.637814083615
 21
12.98210448372807
 31
0.0
  0
LINE
  5
250
330
1F
100
AcDbEntity
  8
B-4
  6
Continuous
 62
     7
370
     9
100
AcDbLine
 10
617.8378378378378
 20
12.98210448372807
 30
0.0
 11
617.8378378378378
 21
-47.01764807644928
 31
0.0
  0
LINE
  5
251
330
1F
100
AcDbEntity
  8
B-4
  6
Continuous
 62
     7
370
     9
100
AcDbLine
 10
511.9726892419766
 20
-47.01764807644928
 30
0.0
 11
619.637814083615
 21
-47.01764807644928
 31
0.0
  0
LINE
  5
252
330
1F
100
AcDbEntity
  8
B-4
  6
Continuous
 62
     7
370
     9
100
AcDbLine
 10
464.9725836676522
 20
-170.5988446294476
 30
0.0
 11
502.9726595491978
 21
-170.5988446294476
 31
0.0
  0
LINE
  5
253
330
1F
100
AcDbEntity
  8
B-4
  6
Continuous
 62
     7
370
     9
100
AcDbLine
 10
464.9725836676522
 20
-56.01767776922803
 30
0.0
 11
464.9725836676522
 21
-172.398857991198
 31
0.0
  0
LINE
  5
254
330
1F
100
AcDbEntity
  8
B-4
  6
Continuous
 62
     7
370
     9
100
AcDbLine
 10
502.9726595491978
 20
-56.01767776922803
 30
0.0
 11
502.9726595491978
 21
-172.398857991198
 31
0.0
  0
LINE
  5
255
330
1F
100
AcDbEntity
  8
B-4
  6
Continuous
 62
     7
370
     9
100
AcDbLine
 10
464.9725836676522
 20
-112.4552618987677
 30
0.0
 11
496.9727882179056
 21
-112.4552618987677
 31
0.0
  0
LINE
  5
256
330
1F
100
AcDbEntity
  8
B-4
  6
Continuous
 62
     7
370
     9
100
AcDbLine
 10
496.9727882179056
 20
-41.517506210951
 30
0.0
 11
496.9727882179056
 21
-114.2552381445447
 31
0.0
  0
LINE
  5
257
330
1F
100
AcDbEntity
  8
B-C
  6
Continuous
 62
     7
370
     9
100
AcDbLine
 10
-278.8192006703969
 20
512.9820714917519
 30
0.0
 11
-226.9393838418497
 21
696.8027897930609
 31
0.0
  0
LINE
  5
258
330
1F
100
AcDbEntity
  8
B-C
  6
Continuous
 62
     7
370
     9
100
AcDbLine
 10
-205.3555545291384
 20
656.8029052649781
 30
0.0
 11
-260.9022810652448
 21
442.2221013164984
 31
0.0
  0
LINE
  5
259
330
1F
100
AcDbEntity
  8
B-C
  6
Continuous
 62
     7
370
     9
100
AcDbLine
 10
-180.7213860589105
 20
615.2224741258312
 30
0.0
 11
-214.3088180954391
 21
471.7794809617687
 31
0.0
  0
LINE
  5
25A
330
1F
100
AcDbEntity
  8
B-C
  6
Continuous
 62
     7
370
     9
100
AcDbLine
 10
-226.9393838418497
 20
696.8027897930609
 30
0.0
 11
50.13254526499156
 21
696.8027897930609
 31
0.0
  0
CIRCLE
  5
25B
330
1F
100
AcDbEntity
  8
B-1
  6
Continuous
 62
     2
370
     9
100
AcDbCircle
 10
-477.3094878325591
 20
-51.51803408257264
 30
0.0
 40
4.500000057993709
  0
CIRCLE
  5
25C
330
1F
100
AcDbEntity
  8
B-1
  6
Continuous
 62
     2
370
     9
100
AcDbCircle
 10
-376.3092783335092
 20
-51.51803408257264
 30
0.0
 40
4.500000057993709
  0
ARC
  5
25D
330
1F
100
AcDbEntity
  8
B-1
  6
Continuous
 62
     2
370
     9
100
AcDbCircle
 10
-471.8093459670608
 20
-57.61826700592569
 30
0.0
 40
9.999998969000739
100
AcDbArc
 50
180.0
 51
270.0
  0
ARC
  5
25E
330
1F
100
AcDbEntity
  8
B-1
  6
Continuous
 62
     2
370
     9
100
AcDbCircle
 10
-381.8094944309544
 20
-57.61826700592569
 30
0.0
 40
9.999998969000739
100
AcDbArc
 50
270.0
 51
0.0
  0
ARC
  5
25F
330
1F
100
AcDbEntity
  8
B-1
  6
Continuous
 62
     2
370
     9
100
AcDbCircle
 10
-381.8094944309544
 20
-57.61826700592569
 30
0.0
 40
0.9999999403953552
100
AcDbArc
 50
270.0
 51
0.0
  0
ARC
  5
260
330
1F
100
AcDbEntity
  8
B-1
  6
Continuous
 62
     2
370
     9
100
AcDbCircle
 10
-471.8093459670608
 20
-57.61826700592569
 30
0.0
 40
0.9999999403953552
100
AcDbArc
 50
180.0
 51
270.0
  0
CIRCLE
  5
261
330
1F
100
AcDbEntity
  8
B-1
  6
Continuous
 62
     2
370
     9
100
AcDbCircle
 10
-477.3094878325591
 20
527.482243050029
 30
0.0
 40
4.500000057993709
  0
CIRCLE
  5
262
330
1F
100
AcDbEntity
  8
B-1
  6
Continuous
 62
     2
370
     9
100
AcDbCircle
 10
-376.3092783335092
 20
527.482243050029
 30
0.0
 40
4.500000057993709
  0
ARC
  5
263
330
1F
100
AcDbEntity
  8
B-1
  6
Continuous
 62
     2
370
     9
100
AcDbCircle
 10
-471.8093459670608
 20
533.5826244372754
 30
0.0
 40
9.999998969000739
100
AcDbArc
 50
90.0
 51
180.0
  0
ARC
  5
264
330
1F
100
AcDbEntity
  8
B-1
  6
Continuous
 62
     2
370
     9
100
AcDbCircle
 10
-381.8094944309544
 20
533.5826244372754
 30
0.0
 40
9.999998969000739
100
AcDbArc
 50
0.0
 51
90.0
  0
ARC
  5
265
330
1F
100
AcDbEntity
  8
B-1
  6
Continuous
 62
     2
370
     9
100
AcDbCircle
 10
-381.8094944309544
 20
533.5826244372754
 30
0.0
 40
0.9999999403953552
100
AcDbArc
 50
0.0
 51
90.0
  0
ARC
  5
266
330
1F
100
AcDbEntity
  8
B-1
  6
Continuous
 62
     2
370
     9
100
AcDbCircle
 10
-471.8093459670608
 20
533.5826244372754
 30
0.0
 40
0.9999999403953552
100
AcDbArc
 50
90.0
 51
180.0
  0
ARC
  5
267
330
1F
100
AcDbEntity
  8
B-1
  6
Continuous
 62
     2
370
     9
100
AcDbCircle
 10
467.4727156355575
 20
519.4827115360929
 30
0.0
 40
2.500000032218727
100
AcDbArc
 50
180.0
 51
270.0
  0
ARC
  5
268
330
1F
100
AcDbEntity
  8
B-1
  6
Continuous
 62
     2
370
     9
100
AcDbCircle
 10
499.4726232580238
 20
465.4823106835803
 30
0.0
 40
2.500000032218727
100
AcDbArc
 50
180.0
 51
270.0
  0
ARC
  5
269
330
1F
100
AcDbEntity
  8
B-1
  6
Continuous
 62
     2
370
     9
100
AcDbCircle
 10
492.9728739970441
 20
512.982665347326
 30
0.0
 40
3.999999761581421
100
AcDbArc
 50
0.0
 51
90.0
  0
ARC
  5
26A
330
1F
100
AcDbEntity
  8
B-1
  6
Continuous
 62
     2
370
     9
100
AcDbCircle
 10
496.78765374261
 20
540.9823618211437
 30
0.0
 40
18.00000023197483
100
AcDbArc
 50
270.0
 51
285.0
  0
ARC
  5
26B
330
1F
100
AcDbEntity
  8
B-C
  6
Continuous
 62
     2
370
     9
100
AcDbCircle
 10
558.4727684227197
 20
543.5350500073769
 30
0.0
 40
4.500000057993709
100
AcDbArc
 50
285.0001373291016
 51
104.9999084472656
  0
ARC
  5
26C
330
1F
100
AcDbEntity
  8
B-1
  6
JWW_CENTER1
 62
     2
370
     9
100
AcDbCircle
 10
496.78765374261
 20
540.9823618211437
 30
0.0
 40
13.500002783698
100
AcDbArc
 50
270.0
 51
284.9999542236328
  0
ARC
  5
26D
330
1F
100
AcDbEntity
  8
B-1
  6
Continuous
 62
     2
370
     9
100
AcDbCircle
 10
496.7879506703972
 20
540.9823618211437
 30
0.0
 40
9.000000115987417
100
AcDbArc
 50
270.0
 51
285.0000152587891
  0
ARC
  5
26E
330
1F
100
AcDbEntity
  8
B-1
  6
Continuous
 62
     2
370
     9
100
AcDbCircle
 10
467.4727156355575
 20
-43.51761178527529
 30
0.0
 40
2.500000032218727
100
AcDbArc
 50
90.0
 51
180.0
  0
ARC
  5
26F
330
1F
100
AcDbEntity
  8
B-1
  6
Continuous
 62
     2
370
     9
100
AcDbCircle
 10
499.4726232580238
 20
10.48226944360978
 30
0.0
 40
2.500000032218727
100
AcDbArc
 50
90.0
 51
180.0
  0
ARC
  5
270
330
1F
100
AcDbEntity
  8
B-1
  6
Continuous
 62
     2
370
     9
100
AcDbCircle
 10
492.9728739970441
 20
-37.01763982845522
 30
0.0
 40
3.999999761581421
100
AcDbArc
 50
270.0
 51
0.0
  0
ARC
  5
271
330
1F
100
AcDbEntity
  8
B-1
  6
Continuous
 62
     2
370
     9
100
AcDbCircle
 10
496.78765374261
 20
-65.0174105342196
 30
0.0
 40
18.00000023197483
100
AcDbArc
 50
75.0
 51
90.0
  0
ARC
  5
272
330
1F
100
AcDbEntity
  8
B-1
  6
Continuous
 62
     2
370
     9
100
AcDbCircle
 10
558.4727684227197
 20
-67.57002448850592
 30
0.0
 40
4.500000057993709
100
AcDbArc
 50
255.0000915527343
 51
74.99986267089841
  0
ARC
  5
273
330
1F
100
AcDbEntity
  8
B-1
  6
JWW_CENTER1
 62
     2
370
     9
100
AcDbCircle
 10
496.78765374261
 20
-65.0174105342196
 30
0.0
 40
13.500002783698
100
AcDbArc
 50
75.00004577636719
 51
90.0
  0
ARC
  5
274
330
1F
100
AcDbEntity
  8
B-1
  6
Continuous
 62
     2
370
     9
100
AcDbCircle
 10
496.7879506703972
 20
-65.0174105342196
 30
0.0
 40
9.000000115987417
100
AcDbArc
 50
74.99998474121094
 51
90.0
  0
TEXT
  5
275
330
1F
100
AcDbEntity
  8
B-C
  6
Continuous
 62
     7
370
     9
100
AcDbText
 10
-197.6204471072635
 20
665.9093933086859
 30
0.0
 40
13.716
  1
クロスバー □６ ＠100
 41
1.158730158730158
  7
ＭＳ ゴシック
100
AcDbText
  0
TEXT
  5
276
330
1F
100
AcDbEntity
  8
B-C
  6
Continuous
 62
     7
370
     9
100
AcDbText
 10
596.1362915039062
 20
617.159492284615
 30
0.0
 40
13.716
  1
アンカー：φ９
 41
1.142857142857143
  7
ＭＳ ゴシック
100
AcDbText
  0
TEXT
  5
277
330
1F
100
AcDbEntity
  8
B-C
  6
Continuous
 62
     7
370
     9
100
AcDbText
 10
263.1715665250213
 20
614.4856575612197
 30
0.0
 40
13.716
  1
受枠：Ｌ－３２
 41
1.142857142857143
  7
ＭＳ ゴシック
100
AcDbText
  0
TEXT
  5
278
330
1F
100
AcDbEntity
  8
B-C
  6
Continuous
 62
     7
370
     9
100
AcDbText
 10
254.7899978225297
 20
587.0397314104596
 30
0.0
 40
13.716
  1
（四方受四方枠）
 41
1.145833333333333
  7
ＭＳ ゴシック
100
AcDbText
  0
TEXT
  5
279
330
1F
100
AcDbEntity
  8
B-4
  6
Continuous
 62
     2
370
     9
100
AcDbText
 10
-588.809370711043
 20
595.1537813207215
 30
0.0
 40
18.288
  1
285
 41
1.083333333333333
  7
ＭＳ ゴシック
100
AcDbText
  0
TEXT
  5
27A
330
1F
100
AcDbEntity
  8
B-4
  6
Continuous
 62
     2
370
     9
100
AcDbText
 10
-303.8093954550252
 20
595.1537813207215
 30
0.0
 40
18.288
  1
285
 41
1.083333333333333
  7
ＭＳ ゴシック
100
AcDbText
  0
TEXT
  5
27B
330
1F
100
AcDbEntity
  8
B-4
  6
Continuous
 62
     2
370
     9
100
AcDbText
 10
-604.5586283915752
 20
547.8151780690322
 30
0.0
 40
18.288
  1
30
 41
1.0625
  7
ＭＳ ゴシック
100
AcDbText
  0
TEXT
  5
27C
330
1F
100
AcDbEntity
  8
B-4
  6
Continuous
 62
     2
370
     9
100
AcDbText
 10
-446.3093459670608
 20
-217.1283685354337
 30
0.0
 40
18.288
  1
570
 41
1.083333333333333
  7
ＭＳ ゴシック
100
AcDbText
  0
TEXT
  5
27D
330
1F
100
AcDbEntity
  8
B-4
  6
Continuous
 62
     2
370
     9
100
AcDbText
 10
-691.6654345538165
 20
-163.6148550219201
 30
0.0
 40
18.288
  1
6.5
 41
1.083333333333333
  7
ＭＳ ゴシック
100
AcDbText
  0
TEXT
  5
27E
330
1F
100
AcDbEntity
  8
B-4
  6
Continuous
 62
     2
370
     9
100
AcDbText
 10
-446.3093459670608
 20
-163.6148550219201
 30
0.0
 40
18.288
  1
545
 41
1.083333333333333
  7
ＭＳ ゴシック
100
AcDbText
  0
TEXT
  5
27F
330
1F
100
AcDbEntity
  8
B-4
  6
Continuous
 62
     2
370
     9
100
AcDbText
 10
-202.1266974371832
 20
-163.6148550219201
 30
0.0
 40
18.288
  1
6.5
 41
1.083333333333333
  7
ＭＳ ゴシック
100
AcDbText
  0
TEXT
  5
280
330
1F
100
AcDbEntity
  8
B-4
  6
Continuous
 62
     2
370
     9
100
AcDbText
 10
-132.9667300662479
 20
-163.6148550219201
 30
0.0
 40
18.288
  1
6
  7
ＭＳ ゴシック
100
AcDbText
  0
TEXT
  5
281
330
1F
100
AcDbEntity
  8
B-4
  6
Continuous
 62
     2
370
     9
100
AcDbText
 10
-446.3093459670608
 20
-119.1360746363099
 30
0.0
 40
18.288
  1
450
 41
1.083333333333333
  7
ＭＳ ゴシック
100
AcDbText
  0
TEXT
  5
282
330
1F
100
AcDbEntity
  8
B-4
  6
Continuous
 62
     2
370
     9
100
AcDbText
 10
323.826859171629
 20
218.4824754955428
 30
0.0
 40
18.288
  1
570
 50
90.00000250447816
 41
1.083333333333332
  7
ＭＳ ゴシック
100
AcDbText
  0
TEXT
  5
283
330
1F
100
AcDbEntity
  8
B-4
  6
Continuous
 62
     2
370
     9
100
AcDbText
 10
399.0162490217702
 20
529.1254610714507
 30
0.0
 40
18.288
  1
6
 50
90.00000250447816
 41
1.000000000000001
  7
ＭＳ ゴシック
100
AcDbText
  0
TEXT
  5
284
330
1F
100
AcDbEntity
  8
B-4
  6
Continuous
 62
     2
370
     9
100
AcDbText
 10
399.0162490217702
 20
508.9826223098375
 30
0.0
 40
18.288
  1
4
 50
90.00000250447816
 41
1.000000000000001
  7
ＭＳ ゴシック
100
AcDbText
  0
TEXT
  5
285
330
1F
100
AcDbEntity
  8
B-4
  6
Continuous
 62
     2
370
     9
100
AcDbText
 10
399.016249611874
 20
218.4824754955428
 30
0.0
 40
18.288
  1
550
 50
90.00000250447816
 41
1.083333333333332
  7
ＭＳ ゴシック
100
AcDbText
  0
TEXT
  5
286
330
1F
100
AcDbEntity
  8
B-4
  6
Continuous
 62
     2
370
     9
100
AcDbText
 10
399.0162490217702
 20
-32.34943285934542
 30
0.0
 40
18.288
  1
4
 50
90.00000250447816
 41
0.9999999999999991
  7
ＭＳ ゴシック
100
AcDbText
  0
TEXT
  5
287
330
1F
100
AcDbEntity
  8
B-4
  6
Continuous
 62
     2
370
     9
100
AcDbText
 10
399.0162490217702
 20
-70.53575669538846
 30
0.0
 40
18.288
  1
6
 50
90.00000250447816
 41
0.9999999999999991
  7
ＭＳ ゴシック
100
AcDbText
  0
TEXT
  5
288
330
1F
100
AcDbEntity
  8
B-4
  6
Continuous
 62
     2
370
     9
100
AcDbText
 10
610.8538861986558
 20
218.4823270316492
 30
0.0
 40
18.288
  1
450
 50
90.00000250447816
 41
1.083333333333332
  7
ＭＳ ゴシック
100
AcDbText
  0
TEXT
  5
289
330
1F
100
AcDbEntity
  8
B-4
  6
Continuous
 62
     2
370
     9
100
AcDbText
 10
610.853885903604
 20
-29.76777194427993
 30
0.0
 40
18.288
  1
60
 50
90.00000250447816
 41
1.0625
  7
ＭＳ ゴシック
100
AcDbText
  0
TEXT
  5
28A
330
1F
100
AcDbEntity
  8
B-4
  6
Continuous
 62
     2
370
     9
100
AcDbText
 10
471.2226216084248
 20
-163.6148550219201
 30
0.0
 40
18.288
  1
38
 41
1.0625
  7
ＭＳ ゴシック
100
AcDbText
  0
TEXT
  5
28B
330
1F
100
AcDbEntity
  8
B-4
  6
Continuous
 62
     2
370
     9
100
AcDbText
 10
468.2227601747256
 20
-105.4713094072137
 30
0.0
 40
18.288
  1
32
 41
1.0625
  7
ＭＳ ゴシック
100
AcDbText
  0
TEXT
  5
28C
330
1F
100
AcDbEntity
  8
B-4
  6
Continuous
 62
     2
370
     9
100
AcDbText
 10
-734.3691880509659
 20
-163.6148550219201
 30
0.0
 40
18.288
  1
6
  7
ＭＳ ゴシック
100
AcDbText
  0
TEXT
  5
28D
330
1F
100
AcDbEntity
  8
B-4
  6
Continuous
 62
     2
370
     9
100
AcDbText
 10
610.853885903604
 20
480.2325744714717
 30
0.0
 40
18.288
  1
60
 50
90.00000250447816
 41
1.062500000000001
  7
ＭＳ ゴシック
100
AcDbText
  0
TEXT
  5
28E
330
1F
100
AcDbEntity
  8
B-C
  6
Continuous
 62
     7
370
     9
100
AcDbText
 10
-175.0123505463471
 20
624.1739658646403
 30
0.0
 40
13.716
  1
メインバー Ⅰ－３２ ＠30
 41
1.159722222222222
  7
ＭＳ ゴシック
100
AcDbText
  0
LWPOLYLINE
  5
28F
330
1F
100
AcDbEntity
  8
B-4
  6
Continuous
 62
     7
370
     9
100
AcDbPolyline
 90
        4
 70
     1
 43
1.2
 10
-711.2093212230785
 20
588.1698288291673
 42
0.4142135623731
 10
-711.8093212230785
 20
588.7698288291673
 42
0.4142135623731
 10
-712.4093212230785
 20
588.1698288291673
 42
0.4142135623731
 10
-711.8093212230785
 20
587.5698288291674
 42
0.4142135623731
  0
LWPOLYLINE
  5
290
330
1F
100
AcDbEntity
  8
B-4
  6
Continuous
 62
     7
370
     9
100
AcDbPolyline
 90
        4
 70
     1
 43
1.2
 10
-426.2094201990075
 20
588.1698288291673
 42
0.4142135623731
 10
-426.8094201990075
 20
588.7698288291673
 42
0.4142135623731
 10
-427.4094201990075
 20
588.1698288291673
 42
0.4142135623731
 10
-426.8094201990075
 20
587.5698288291674
 42
0.4142135623731
  0
LWPOLYLINE
  5
291
330
1F
100
AcDbEntity
  8
B-4
  6
Continuous
 62
     7
370
     9
100
AcDbPolyline
 90
        4
 70
     1
 43
1.2
 10
-141.2093707110429
 20
588.1698288291673
 42
0.4142135623731
 10
-141.809370711043
 20
588.7698288291673
 42
0.4142135623731
 10
-142.409370711043
 20
588.1698288291673
 42
0.4142135623731
 10
-141.809370711043
 20
587.5698288291674
 42
0.4142135623731
  0
LWPOLYLINE
  5
292
330
1F
100
AcDbEntity
  8
B-4
  6
Continuous
 62
     7
370
     9
100
AcDbPolyline
 90
        4
 70
     1
 43
1.2
 10
-606.2087521114865
 20
540.8312255774781
 42
0.4142135623731
 10
-606.8087521114865
 20
541.431225577478
 42
0.4142135623731
 10
-607.4087521114865
 20
540.8312255774781
 42
0.4142135623731
 10
-606.8087521114865
 20
540.2312255774782
 42
0.4142135623731
  0
LWPOLYLINE
  5
293
330
1F
100
AcDbEntity
  8
B-4
  6
Continuous
 62
     7
370
     9
100
AcDbPolyline
 90
        4
 70
     1
 43
1.2
 10
-576.2085789036107
 20
540.8312255774781
 42
0.4142135623731
 10
-576.8085789036106
 20
541.431225577478
 42
0.4142135623731
 10
-577.4085789036105
 20
540.8312255774781
 42
0.4142135623731
 10
-576.8085789036106
 20
540.2312255774782
 42
0.4142135623731
  0
LWPOLYLINE
  5
294
330
1F
100
AcDbEntity
  8
B-4
  6
Continuous
 62
     7
370
     9
100
AcDbPolyline
 90
        4
 70
     1
 43
1.2
 10
-711.2093212230785
 20
-224.1123581429612
 42
0.4142135623731
 10
-711.8093212230785
 20
-223.5123581429611
 42
0.4142135623731
 10
-712.4093212230785
 20
-224.1123581429612
 42
0.4142135623731
 10
-711.8093212230785
 20
-224.7123581429612
 42
0.4142135623731
  0
LWPOLYLINE
  5
295
330
1F
100
AcDbEntity
  8
B-4
  6
Continuous
 62
     7
370
     9
100
AcDbPolyline
 90
        4
 70
     1
 43
1.2
 10
-141.2093707110429
 20
-224.1123581429612
 42
0.4142135623731
 10
-141.809370711043
 20
-223.5123581429611
 42
0.4142135623731
 10
-142.409370711043
 20
-224.1123581429612
 42
0.4142135623731
 10
-141.809370711043
 20
-224.7123581429612
 42
0.4142135623731
  0
LWPOLYLINE
  5
296
330
1F
100
AcDbEntity
  8
B-4
  6
Continuous
 62
     7
370
     9
100
AcDbPolyline
 90
        4
 70
     1
 43
1.2
 10
-711.2092469911317
 20
-170.5988446294476
 42
0.4142135623731
 10
-711.8092469911317
 20
-169.9988446294476
 42
0.4142135623731
 10
-712.4092469911317
 20
-170.5988446294476
 42
0.4142135623731
 10
-711.8092469911317
 20
-171.1988446294476
 42
0.4142135623731
  0
LWPOLYLINE
  5
297
330
1F
100
AcDbEntity
  8
B-4
  6
Continuous
 62
     7
370
     9
100
AcDbPolyline
 90
        4
 70
     1
 43
1.2
 10
-705.2091529639991
 20
-170.5988446294476
 42
0.4142135623731
 10
-705.8091529639992
 20
-169.9988446294476
 42
0.4142135623731
 10
-706.4091529639991
 20
-170.5988446294476
 42
0.4142135623731
 10
-705.8091529639992
 20
-171.1988446294476
 42
0.4142135623731
  0
LWPOLYLINE
  5
298
330
1F
100
AcDbEntity
  8
B-4
  6
Continuous
 62
     7
370
     9
100
AcDbPolyline
 90
        4
 70
     1
 43
1.2
 10
-698.7087356154983
 20
-170.5988446294476
 42
0.4142135623731
 10
-699.3087356154983
 20
-169.9988446294476
 42
0.4142135623731
 10
-699.9087356154982
 20
-170.5988446294476
 42
0.4142135623731
 10
-699.3087356154983
 20
-171.1988446294476
 42
0.4142135623731
  0
LWPOLYLINE
  5
299
330
1F
100
AcDbEntity
  8
B-4
  6
Continuous
 62
     7
370
     9
100
AcDbPolyline
 90
        4
 70
     1
 43
1.2
 10
-153.7098820866764
 20
-170.5988446294476
 42
0.4142135623731
 10
-154.3098820866764
 20
-169.9988446294476
 42
0.4142135623731
 10
-154.9098820866764
 20
-170.5988446294476
 42
0.4142135623731
 10
-154.3098820866764
 20
-171.1988446294476
 42
0.4142135623731
  0
LWPOLYLINE
  5
29A
330
1F
100
AcDbEntity
  8
B-4
  6
Continuous
 62
     7
370
     9
100
AcDbPolyline
 90
        4
 70
     1
 43
1.2
 10
-147.2094647381756
 20
-170.5988446294476
 42
0.4142135623731
 10
-147.8094647381756
 20
-169.9988446294476
 42
0.4142135623731
 10
-148.4094647381756
 20
-170.5988446294476
 42
0.4142135623731
 10
-147.8094647381756
 20
-171.1988446294476
 42
0.4142135623731
  0
LWPOLYLINE
  5
29B
330
1F
100
AcDbEntity
  8
B-4
  6
Continuous
 62
     7
370
     9
100
AcDbPolyline
 90
        4
 70
     1
 43
1.2
 10
-141.2093707110429
 20
-170.5988446294476
 42
0.4142135623731
 10
-141.809370711043
 20
-169.9988446294476
 42
0.4142135623731
 10
-142.409370711043
 20
-170.5988446294476
 42
0.4142135623731
 10
-141.809370711043
 20
-171.1988446294476
 42
0.4142135623731
  0
LWPOLYLINE
  5
29C
330
1F
100
AcDbEntity
  8
B-4
  6
Continuous
 62
     7
370
     9
100
AcDbPolyline
 90
        4
 70
     1
 43
1.2
 10
-651.2090490392736
 20
-126.1201013598108
 42
0.4142135623731
 10
-651.8090490392735
 20
-125.5201013598108
 42
0.4142135623731
 10
-652.4090490392736
 20
-126.1201013598108
 42
0.4142135623731
 10
-651.8090490392735
 20
-126.7201013598108
 42
0.4142135623731
  0
LWPOLYLINE
  5
29D
330
1F
100
AcDbEntity
  8
B-4
  6
Continuous
 62
     7
370
     9
100
AcDbPolyline
 90
        4
 70
     1
 43
1.2
 10
-201.2096428948479
 20
-126.1201013598108
 42
0.4142135623731
 10
-201.809642894848
 20
-125.5201013598108
 42
0.4142135623731
 10
-202.409642894848
 20
-126.1201013598108
 42
0.4142135623731
 10
-201.809642894848
 20
-126.7201013598108
 42
0.4142135623731
  0
LWPOLYLINE
  5
29E
330
1F
100
AcDbEntity
  8
B-4
  6
Continuous
 62
     7
370
     9
100
AcDbPolyline
 90
        4
 70
     1
 43
1.2
 10
331.410810810811
 20
522.9825993633734
 42
0.4142135623731
 10
330.8108108108109
 20
523.5825993633734
 42
0.4142135623731
 10
330.2108108108109
 20
522.9825993633734
 42
0.4142135623731
 10
330.8108108108109
 20
522.3825993633734
 42
0.4142135623731
  0
LWPOLYLINE
  5
29F
330
1F
100
AcDbEntity
  8
B-4
  6
Continuous
 62
     7
370
     9
100
AcDbPolyline
 90
        4
 70
     1
 43
1.2
 10
331.410810810811
 20
-47.01764807644928
 42
0.4142135623731
 10
330.8108108108109
 20
-46.41764807644928
 42
0.4142135623731
 10
330.2108108108109
 20
-47.01764807644928
 42
0.4142135623731
 10
330.8108108108109
 20
-47.61764807644927
 42
0.4142135623731
  0
LWPOLYLINE
  5
2A0
330
1F
100
AcDbEntity
  8
B-4
  6
Continuous
 62
     7
370
     9
100
AcDbPolyline
 90
        4
 70
     1
 43
1.2
 10
406.6002012510559
 20
522.9825993633734
 42
0.4142135623731
 10
406.000201251056
 20
523.5825993633734
 42
0.4142135623731
 10
405.400201251056
 20
522.9825993633734
 42
0.4142135623731
 10
406.000201251056
 20
522.3825993633734
 42
0.4142135623731
  0
LWPOLYLINE
  5
2A1
330
1F
100
AcDbEntity
  8
B-4
  6
Continuous
 62
     7
370
     9
100
AcDbPolyline
 90
        4
 70
     1
 43
1.2
 10
406.6002012510559
 20
516.9825795681877
 42
0.4142135623731
 10
406.000201251056
 20
517.5825795681876
 42
0.4142135623731
 10
405.400201251056
 20
516.9825795681877
 42
0.4142135623731
 10
406.000201251056
 20
516.3825795681877
 42
0.4142135623731
  0
LWPOLYLINE
  5
2A2
330
1F
100
AcDbEntity
  8
B-4
  6
Continuous
 62
     7
370
     9
100
AcDbPolyline
 90
        4
 70
     1
 43
1.2
 10
406.6002012510559
 20
512.982665347326
 42
0.4142135623731
 10
406.000201251056
 20
513.582665347326
 42
0.4142135623731
 10
405.400201251056
 20
512.982665347326
 42
0.4142135623731
 10
406.000201251056
 20
512.3826653473261
 42
0.4142135623731
  0
LWPOLYLINE
  5
2A3
330
1F
100
AcDbEntity
  8
B-4
  6
Continuous
 62
     7
370
     9
100
AcDbPolyline
 90
        4
 70
     1
 43
1.2
 10
406.6002012510559
 20
-37.01763982845522
 42
0.4142135623731
 10
406.000201251056
 20
-36.41763982845522
 42
0.4142135623731
 10
405.400201251056
 20
-37.01763982845522
 42
0.4142135623731
 10
406.000201251056
 20
-37.61763982845521
 42
0.4142135623731
  0
LWPOLYLINE
  5
2A4
330
1F
100
AcDbEntity
  8
B-4
  6
Continuous
 62
     7
370
     9
100
AcDbPolyline
 90
        4
 70
     1
 43
1.2
 10
406.6002012510559
 20
-41.0176282812635
 42
0.4142135623731
 10
406.000201251056
 20
-40.4176282812635
 42
0.4142135623731
 10
405.400201251056
 20
-41.0176282812635
 42
0.4142135623731
 10
406.000201251056
 20
-41.61762828126349
 42
0.4142135623731
  0
LWPOLYLINE
  5
2A5
330
1F
100
AcDbEntity
  8
B-4
  6
Continuous
 62
     7
370
     9
100
AcDbPolyline
 90
        4
 70
     1
 43
1.2
 10
406.6002012510559
 20
-47.01779654034287
 42
0.4142135623731
 10
406.000201251056
 20
-46.41779654034288
 42
0.4142135623731
 10
405.400201251056
 20
-47.01779654034287
 42
0.4142135623731
 10
406.000201251056
 20
-47.61779654034287
 42
0.4142135623731
  0
LWPOLYLINE
  5
2A6
330
1F
100
AcDbEntity
  8
B-4
  6
Continuous
 62
     7
370
     9
100
AcDbPolyline
 90
        4
 70
     1
 43
1.2
 10
618.4378378378378
 20
522.9825993633734
 42
0.4142135623731
 10
617.8378378378378
 20
523.5825993633734
 42
0.4142135623731
 10
617.2378378378378
 20
522.9825993633734
 42
0.4142135623731
 10
617.8378378378378
 20
522.3825993633734
 42
0.4142135623731
  0
LWPOLYLINE
  5
2A7
330
1F
100
AcDbEntity
  8
B-4
  6
Continuous
 62
     7
370
     9
100
AcDbPolyline
 90
        4
 70
     1
 43
1.2
 10
618.4378378378378
 20
462.9825498754089
 42
0.4142135623731
 10
617.8378378378378
 20
463.5825498754089
 42
0.4142135623731
 10
617.2378378378378
 20
462.9825498754089
 42
0.4142135623731
 10
617.8378378378378
 20
462.3825498754089
 42
0.4142135623731
  0
LWPOLYLINE
  5
2A8
330
1F
100
AcDbEntity
  8
B-4
  6
Continuous
 62
     7
370
     9
100
AcDbPolyline
 90
        4
 70
     1
 43
1.2
 10
618.4378378378378
 20
12.98210448372807
 42
0.4142135623731
 10
617.8378378378378
 20
13.58210448372807
 42
0.4142135623731
 10
617.2378378378378
 20
12.98210448372807
 42
0.4142135623731
 10
617.8378378378378
 20
12.38210448372806
 42
0.4142135623731
  0
LWPOLYLINE
  5
2A9
330
1F
100
AcDbEntity
  8
B-4
  6
Continuous
 62
     7
370
     9
100
AcDbPolyline
 90
        4
 70
     1
 43
1.2
 10
618.4378378378378
 20
-47.01764807644928
 42
0.4142135623731
 10
617.8378378378378
 20
-46.41764807644928
 42
0.4142135623731
 10
617.2378378378378
 20
-47.01764807644928
 42
0.4142135623731
 10
617.8378378378378
 20
-47.61764807644927
 42
0.4142135623731
  0
LWPOLYLINE
  5
2AA
330
1F
100
AcDbEntity
  8
B-4
  6
Continuous
 62
     7
370
     9
100
AcDbPolyline
 90
        4
 70
     1
 43
1.2
 10
465.5725836676522
 20
-170.5988446294476
 42
0.4142135623731
 10
464.9725836676522
 20
-169.9988446294476
 42
0.4142135623731
 10
464.3725836676522
 20
-170.5988446294476
 42
0.4142135623731
 10
464.9725836676522
 20
-171.1988446294476
 42
0.4142135623731
  0
LWPOLYLINE
  5
2AB
330
1F
100
AcDbEntity
  8
B-4
  6
Continuous
 62
     7
370
     9
100
AcDbPolyline
 90
        4
 70
     1
 43
1.2
 10
503.5726595491978
 20
-170.5988446294476
 42
0.4142135623731
 10
502.9726595491978
 20
-169.9988446294476
 42
0.4142135623731
 10
502.3726595491979
 20
-170.5988446294476
 42
0.4142135623731
 10
502.9726595491978
 20
-171.1988446294476
 42
0.4142135623731
  0
LWPOLYLINE
  5
2AC
330
1F
100
AcDbEntity
  8
B-4
  6
Continuous
 62
     7
370
     9
100
AcDbPolyline
 90
        4
 70
     1
 43
1.2
 10
465.5725836676522
 20
-112.4552618987677
 42
0.4142135623731
 10
464.9725836676522
 20
-111.8552618987677
 42
0.4142135623731
 10
464.3725836676522
 20
-112.4552618987677
 42
0.4142135623731
 10
464.9725836676522
 20
-113.0552618987677
 42
0.4142135623731
  0
LWPOLYLINE
  5
2AD
330
1F
100
AcDbEntity
  8
B-4
  6
Continuous
 62
     7
370
     9
100
AcDbPolyline
 90
        4
 70
     1
 43
1.2
 10
497.5727882179056
 20
-112.4552618987677
 42
0.4142135623731
 10
496.9727882179056
 20
-111.8552618987677
 42
0.4142135623731
 10
496.3727882179057
 20
-112.4552618987677
 42
0.4142135623731
 10
496.9727882179056
 20
-113.0552618987677
 42
0.4142135623731
  0
TEXT
  5
2AE
330
1F
100
AcDbEntity
  8
B-C
  6
Continuous
 62
     7
370
     9
100
AcDbText
 10
-222.9171233306059
 20
706.6333362457635
 30
0.0
 40
13.716
  1
エンドプレート ＦＢ4.5×25
 41
1.16025641025641
  7
ＭＳ ゴシック
100
AcDbText
  0
LINE
  5
2AF
330
1F
100
AcDbEntity
  8
B-1
  6
Continuous
 62
     2
370
     9
100
AcDbLine
 10
502.9726595491978
 20
-47.01764807644928
 30
0.0
 11
502.9726595491978
 21
12.98210448372807
 31
0.0
  0
LINE
  5
2B0
330
1F
100
AcDbEntity
  8
B-1
  6
Continuous
 62
     2
370
     9
100
AcDbLine
 10
502.9726595491978
 20
462.982475643462
 30
0.0
 11
502.9726595491978
 21
522.9825993633734
 31
0.0
  0
TEXT
  5
2B1
330
1F
100
AcDbEntity
  8
F-0ﾚｲﾔ
  6
Continuous
 62
     2
370
     9
100
AcDbText
 10
-527.1438945842951
 20
-817.3978045193494
 30
0.0
 40
18.288
  1
スチール製グレーチング　枠付正方形型　プレーンタイプ　集水桝用　ＨＳＣ　４４３２Ａ
 41
0.7743902439024392
  7
ＭＳ ゴシック
100
AcDbText
  0
LINE
  5
2B2
330
1F
100
AcDbEntity
  8
F-4ﾚｲﾔ
  6
Continuous
 62
     2
370
     9
100
AcDbLine
 10
237.1123932479506
 20
-371.3545644588967
 30
0.0
 11
237.1123932479506
 21
-341.3543912510208
 31
0.0
  0
LINE
  5
2B3
330
1F
100
AcDbEntity
  8
F-4ﾚｲﾔ
  6
Continuous
 62
     2
370
     9
100
AcDbLine
 10
237.1123932479506
 20
-341.3543912510208
 30
0.0
 11
372.1123932479506
 21
-341.3543912510208
 31
0.0
  0
LINE
  5
2B4
330
1F
100
AcDbEntity
  8
F-4ﾚｲﾔ
  6
Continuous
 62
     2
370
     9
100
AcDbLine
 10
372.1123932479506
 20
-341.3543912510208
 30
0.0
 11
372.1123932479506
 21
-371.3545644588967
 31
0.0
  0
LINE
  5
2B5
330
1F
100
AcDbEntity
  8
F-4ﾚｲﾔ
  6
Continuous
 62
     2
370
     9
100
AcDbLine
 10
372.1123932479506
 20
-371.3545644588967
 30
0.0
 11
237.1123932479506
 21
-371.3545644588967
 31
0.0
  0
TEXT
  5
2B6
330
1F
100
AcDbEntity
  8
F-4ﾚｲﾔ
  6
Continuous
 62
     2
370
     9
100
AcDbText
 10
265.6122447840571
 20
-364.9706659092239
 30
0.0
 40
18.288
  1
仕　様
 41
1.083333333333333
  7
ＭＳ ゴシック
100
AcDbText
  0
TEXT
  5
2B7
330
1F
100
AcDbEntity
  8
F-4ﾚｲﾔ
  6
Continuous
 62
     2
370
     9
100
AcDbText
 10
334.1932252396102
 20
-505.2365607897632
 30
0.0
 40
18.288
  1
処理：溶融亜鉛めっき
 41
1.1125
  7
ＭＳ ゴシック
100
AcDbText
  0
TEXT
  5
2B8
330
1F
100
AcDbEntity
  8
F-4ﾚｲﾔ
  6
Continuous
 62
     2
370
     9
100
AcDbText
 10
334.1932103932208
 20
-577.2370581438067
 30
0.0
 40
18.288
  1
材質：ＳＳ４００
 41
1.109375
  7
ＭＳ ゴシック
100
AcDbText
  0
TEXT
  5
2B9
330
1F
100
AcDbEntity
  8
F-4ﾚｲﾔ
  6
Continuous
 62
     2
370
     9
100
AcDbText
 10
298.3659035942346
 20
-402.7227699725157
 30
0.0
 40
18.288
  1
スチール製グレーチング　枠付正方形型　プレーンタイプ
 41
1.120192307692308
  7
ＭＳ ゴシック
100
AcDbText
  0
TEXT
  5
2BA
330
1F
100
AcDbEntity
  8
F-4ﾚｲﾔ
  6
Continuous
 62
     2
370
     9
100
AcDbText
 10
334.1932103932208
 20
-472.2366003801349
 30
0.0
 40
18.288
  1
材質：ＳＳ４００
 41
1.109375
  7
ＭＳ ゴシック
100
AcDbText
  0
TEXT
  5
2BB
330
1F
100
AcDbEntity
  8
F-4ﾚｲﾔ
  6
Continuous
 62
     2
370
     9
100
AcDbText
 10
298.3659035942346
 20
-436.1671607667164
 30
0.0
 40
18.288
  1
集水桝用　ＨＳＣ　４４３２Ａ
 41
1.116071428571429
  7
ＭＳ ゴシック
100
AcDbText
  0
TEXT
  5
2BC
330
1F
100
AcDbEntity
  8
F-4ﾚｲﾔ
  6
Continuous
 62
     2
370
     9
100
AcDbText
 10
298.366512296198
 20
-544.2369492702848
 30
0.0
 40
18.288
  1
スチール製受枠　Ｌ－３２（四方受四方枠）
 41
1.11875
  7
ＭＳ ゴシック
100
AcDbText
  0
TEXT
  5
2BD
330
1F
100
AcDbEntity
  8
F-4ﾚｲﾔ
  6
Continuous
 62
     2
370
     9
100
AcDbText
 10
334.1932252396102
 20
-610.2370371114218
 30
0.0
 40
18.288
  1
処理：樹脂系塗装
 41
1.109375
  7
ＭＳ ゴシック
100
AcDbText
  0
TEXT
  5
2BE
330
1F
100
AcDbEntity
  8
F-5ﾚｲﾔ
  6
Continuous
 62
     3
370
     9
100
AcDbText
 10
402.1123932479506
 20
-367.1245644588967
 30
0.0
 40
22.86
  1
※適用荷重：Ｔ－２
 41
1.088888888888889
  7
ＭＳ ゴシック
100
AcDbText
  0
ENDSEC
  0
SECTION
  2
OBJECTS
  0
DICTIONARY
  5
C
330
0
100
AcDbDictionary
281
     1
  3
ACAD_DETAILVIEWSTYLE
350
304
  3
ACAD_GROUP
350
D
  3
ACAD_LAYOUT
350
1A
  3
ACAD_MATERIAL
350
43
  3
ACAD_MLEADERSTYLE
350
6B
  3
ACAD_MLINESTYLE
350
17
  3
ACAD_PLOTSETTINGS
350
19
  3
ACAD_PLOTSTYLENAME
350
E
  3
ACAD_SCALELIST
350
47
  3
ACAD_SECTIONVIEWSTYLE
350
305
  3
ACAD_TABLESTYLE
350
69
  3
ACAD_VISUALSTYLE
350
2A
  3
ACDB_RECOMPOSE_DATA
350
301
  3
AcDbVariableDictionary
350
2C1
  0
DICTIONARY
  5
2BF
330
8
100
AcDbDictionary
280
     1
281
     1
  3
ACAD_XREC_ROUNDTRIP
360
2C0
  0
DICTIONARY
  5
304
102
{ACAD_REACTORS
330
C
102
}
330
C
100
AcDbDictionary
281
     1
  0
DICTIONARY
  5
D
102
{ACAD_REACTORS
330
C
102
}
330
C
100
AcDbDictionary
281
     1
  0
DICTIONARY
  5
1A
102
{ACAD_REACTORS
330
C
102
}
330
C
100
AcDbDictionary
281
     1
  3
Layout1
350
1E
  3
Layout2
350
26
  3
Model
350
22
  0
DICTIONARY
  5
43
102
{ACAD_REACTORS
330
C
102
}
330
C
100
AcDbDictionary
281
     1
  3
ByBlock
350
45
  3
ByLayer
350
44
  3
Global
350
46
  0
DICTIONARY
  5
6B
102
{ACAD_REACTORS
330
C
102
}
330
C
100
AcDbDictionary
281
     1
  3
Standard
350
6C
  0
DICTIONARY
  5
17
102
{ACAD_REACTORS
330
C
102
}
330
C
100
AcDbDictionary
281
     1
  3
Standard
350
18
  0
DICTIONARY
  5
19
102
{ACAD_REACTORS
330
C
102
}
330
C
100
AcDbDictionary
281
     1
  0
ACDBDICTIONARYWDFLT
  5
E
102
{ACAD_REACTORS
330
C
102
}
330
C
100
AcDbDictionary
281
     1
  3
Normal
350
F
100
AcDbDictionaryWithDefault
340
F
  0
DICTIONARY
  5
47
102
{ACAD_REACTORS
330
C
102
}
330
C
100
AcDbDictionary
281
     1
  3
A0
350
48
  3
A1
350
49
  3
A2
350
4A
  3
A3
350
4B
  3
A4
350
4C
  3
A5
350
4D
  3
A6
350
4E
  3
A7
350
4F
  3
A8
350
50
  3
A9
350
51
  3
B0
350
52
  3
B1
350
53
  3
B2
350
54
  3
B3
350
55
  3
B4
350
56
  3
B5
350
57
  3
B6
350
58
  3
B7
350
59
  3
B8
350
5A
  3
B9
350
5B
  3
C0
350
5C
  3
C1
350
5D
  3
C2
350
5E
  3
C3
350
5F
  3
C4
350
60
  3
C5
350
61
  3
C6
350
62
  3
C7
350
63
  3
C8
350
64
  3
C9
350
65
  3
D0
350
66
  3
D1
350
67
  3
D2
350
68
  0
DICTIONARY
  5
305
102
{ACAD_REACTORS
330
C
102
}
330
C
100
AcDbDictionary
281
     1
  0
DICTIONARY
  5
69
102
{ACAD_REACTORS
330
C
102
}
330
C
100
AcDbDictionary
281
     1
  3
Standard
350
6A
  0
DICTIONARY
  5
2A
102
{ACAD_REACTORS
330
C
102
}
330
C
100
AcDbDictionary
281
     1
  3
2dWireframe
350
2F
  3
Basic
350
32
  3
Brighten
350
36
  3
ColorChange
350
3A
  3
Conceptual
350
34
  3
Dim
350
35
  3
EdgeColorOff
350
3D
  3
Facepattern
350
39
  3
Flat
350
2B
  3
FlatWithEdges
350
2C
  3
Gouraud
350
2D
  3
GouraudWithEdges
350
2E
  3
Hidden
350
31
  3
JitterOff
350
3B
  3
Linepattern
350
38
  3
OverhangOff
350
3C
  3
Realistic
350
33
  3
Shaded
350
42
  3
Shaded with edges
350
41
  3
Shades of Gray
350
3E
  3
Sketchy
350
3F
  3
Thicken
350
37
  3
Wireframe
350
30
  3
X-Ray
350
40
  0
XRECORD
  5
301
102
{ACAD_REACTORS
330
C
102
}
330
C
100
AcDbXrecord
280
     1
 90
        1
330
6A
  0
DICTIONARY
  5
2C1
102
{ACAD_REACTORS
330
C
102
}
330
C
100
AcDbDictionary
281
     1
  3
CANNOSCALE
350
2C2
  3
CENTEREXE
350
306
  3
CENTERLTYPEFILE
350
307
  3
CMLEADERSTYLE
350
303
  3
CTABLESTYLE
350
302
  3
MSLTSCALE
350
2C3
  3
XCLIPFRAME
350
2C4
  0
XRECORD
  5
2C0
102
{ACAD_REACTORS
330
2BF
102
}
330
2BF
100
AcDbXrecord
280
     1
102
VTR_0.000_0.000_1.000_1.000_VISUALSTYLE
340
2F
102
VTR_0.000_0.000_1.000_1.000_GRIDDISPLAY
 70
     3
102
VTR_0.000_0.000_1.000_1.000_GRIDMAJOR
 70
     5
102
VTR_0.000_0.000_1.000_1.000_DEFAULTLIGHTING
280
     1
102
VTR_0.000_0.000_1.000_1.000_DEFAULTLIGHTINGTYPE
 70
     1
102
VTR_0.000_0.000_1.000_1.000_BRIGHTNESS
141
0.0
102
VTR_0.000_0.000_1.000_1.000_CONTRAST
142
0.0
  0
LAYOUT
  5
1E
102
{ACAD_REACTORS
330
1A
102
}
330
1A
100
AcDbPlotSettings
  1

  2
none_device
  4

  6

 40
0.0
 41
0.0
 42
0.0
 43
0.0
 44
0.0
 45
0.0
 46
0.0
 47
0.0
 48
0.0
 49
0.0
140
0.0
141
0.0
142
1.0
143
1.0
 70
   688
 72
     1
 73
     0
 74
     5
  7

 75
    16
 76
     0
 77
     5
 78
   300
147
1.0
148
0.0
149
0.0
100
AcDbLayout
  1
Layout1
 70
     1
 71
     1
 10
0.0
 20
0.0
 11
420.0
 21
297.0
 12
0.0
 22
0.0
 32
0.0
 14
1.000000000000000E+20
 24
1.000000000000000E+20
 34
1.000000000000000E+20
 15
-1.000000000000000E+20
 25
-1.000000000000000E+20
 35
-1.000000000000000E+20
146
0.0
 13
0.0
 23
0.0
 33
0.0
 16
1.0
 26
0.0
 36
0.0
 17
0.0
 27
1.0
 37
0.0
 76
     0
330
1B
  0
LAYOUT
  5
26
102
{ACAD_REACTORS
330
1A
102
}
330
1A
100
AcDbPlotSettings
  1

  2
none_device
  4

  6

 40
0.0
 41
0.0
 42
0.0
 43
0.0
 44
0.0
 45
0.0
 46
0.0
 47
0.0
 48
0.0
 49
0.0
140
0.0
141
0.0
142
1.0
143
1.0
 70
   688
 72
     1
 73
     0
 74
     5
  7

 75
    16
 76
     0
 77
     5
 78
   300
147
1.0
148
0.0
149
0.0
100
AcDbLayout
  1
Layout2
 70
     1
 71
     2
 10
0.0
 20
0.0
 11
0.0
 21
0.0
 12
0.0
 22
0.0
 32
0.0
 14
0.0
 24
0.0
 34
0.0
 15
0.0
 25
0.0
 35
0.0
146
0.0
 13
0.0
 23
0.0
 33
0.0
 16
1.0
 26
0.0
 36
0.0
 17
0.0
 27
1.0
 37
0.0
 76
     0
330
23
  0
LAYOUT
  5
22
102
{ACAD_REACTORS
330
1A
102
}
330
1A
100
AcDbPlotSettings
  1

  2
none_device
  4
Letter_(8.50_x_11.00_Inches)
  6

 40
6.35
 41
6.35
 42
6.35000508
 43
6.35000508
 44
215.9
 45
279.4
 46
0.0
 47
0.0
 48
0.0
 49
0.0
140
0.0
141
0.0
142
1.0
143
1.0
 70
  1712
 72
     1
 73
     0
 74
     0
  7

 75
     0
 76
     0
 77
     5
 78
   300
147
1.0
148
0.0
149
0.0
100
AcDbLayout
  1
Model
 70
     1
 71
     0
 10
-1260.0
 20
-891.0
 11
1260.0
 21
891.0
 12
0.0
 22
0.0
 32
0.0
 14
-1260.0
 24
-891.0
 34
0.0
 15
1260.0
 25
891.0
 35
0.0
146
0.0
 13
0.0
 23
0.0
 33
0.0
 16
1.0
 26
0.0
 36
0.0
 17
0.0
 27
1.0
 37
0.0
 76
     0
330
1F
331
29
  0
MATERIAL
  5
45
102
{ACAD_REACTORS
330
43
102
}
102
{ACAD_XDICTIONARY
360
2F7
102
}
330
43
100
AcDbMaterial
  1
ByBlock
  0
MATERIAL
  5
44
102
{ACAD_REACTORS
330
43
102
}
102
{ACAD_XDICTIONARY
360
2F5
102
}
330
43
100
AcDbMaterial
  1
ByLayer
  0
MATERIAL
  5
46
102
{ACAD_REACTORS
330
43
102
}
102
{ACAD_XDICTIONARY
360
2F9
102
}
330
43
100
AcDbMaterial
  1
Global
  0
MLEADERSTYLE
  5
6C
102
{ACAD_REACTORS
330
6B
102
}
102
{ACAD_XDICTIONARY
360
2FF
102
}
330
6B
100
AcDbMLeaderStyle
170
     2
171
     1
172
     0
 90
        2
 40
0.0
 41
0.0
173
     1
 91
-1056964608
340
14
 92
       -2
290
     1
 42
2.0
291
     1
 43
8.0
  3
Standard
341
0
 44
4.0
300

342
11
174
     1
178
     6
175
     1
176
     0
 93
-1056964608
 45
4.0
292
     0
297
     0
 46
4.0
343
0
 94
-1056964608
 47
1.0
 49
1.0
140
1.0
293
     1
141
0.0
294
     1
177
     0
142
1.0
295
     0
296
     0
143
3.75
1001
ACAD_MLEADERVER
1070
     2
  0
MLINESTYLE
  5
18
102
{ACAD_REACTORS
330
17
102
}
330
17
100
AcDbMlineStyle
  2
Standard
 70
     0
  3

 62
   256
 51
90.0
 52
90.0
 71
     2
 49
0.5
 62
   256
  6
BYLAYER
 49
-0.5
 62
   256
  6
BYLAYER
  0
ACDBPLACEHOLDER
  5
F
102
{ACAD_REACTORS
330
E
102
}
330
E
  0
SCALE
  5
48
102
{ACAD_REACTORS
330
47
102
}
330
47
100
AcDbScale
 70
     0
300
1:1
140
1.0
141
1.0
290
     1
  0
SCALE
  5
49
102
{ACAD_REACTORS
330
47
102
}
330
47
100
AcDbScale
 70
     0
300
1:2
140
1.0
141
2.0
290
     0
  0
SCALE
  5
4A
102
{ACAD_REACTORS
330
47
102
}
330
47
100
AcDbScale
 70
     0
300
1:4
140
1.0
141
4.0
290
     0
  0
SCALE
  5
4B
102
{ACAD_REACTORS
330
47
102
}
330
47
100
AcDbScale
 70
     0
300
1:5
140
1.0
141
5.0
290
     0
  0
SCALE
  5
4C
102
{ACAD_REACTORS
330
47
102
}
330
47
100
AcDbScale
 70
     0
300
1:8
140
1.0
141
8.0
290
     0
  0
SCALE
  5
4D
102
{ACAD_REACTORS
330
47
102
}
330
47
100
AcDbScale
 70
     0
300
1:10
140
1.0
141
10.0
290
     0
  0
SCALE
  5
4E
102
{ACAD_REACTORS
330
47
102
}
330
47
100
AcDbScale
 70
     0
300
1:16
140
1.0
141
16.0
290
     0
  0
SCALE
  5
4F
102
{ACAD_REACTORS
330
47
102
}
330
47
100
AcDbScale
 70
     0
300
1:20
140
1.0
141
20.0
290
     0
  0
SCALE
  5
50
102
{ACAD_REACTORS
330
47
102
}
330
47
100
AcDbScale
 70
     0
300
1:30
140
1.0
141
30.0
290
     0
  0
SCALE
  5
51
102
{ACAD_REACTORS
330
47
102
}
330
47
100
AcDbScale
 70
     0
300
1:40
140
1.0
141
40.0
290
     0
  0
SCALE
  5
52
102
{ACAD_REACTORS
330
47
102
}
330
47
100
AcDbScale
 70
     0
300
1:50
140
1.0
141
50.0
290
     0
  0
SCALE
  5
53
102
{ACAD_REACTORS
330
47
102
}
330
47
100
AcDbScale
 70
     0
300
1:100
140
1.0
141
100.0
290
     0
  0
SCALE
  5
54
102
{ACAD_REACTORS
330
47
102
}
330
47
100
AcDbScale
 70
     0
300
2:1
140
2.0
141
1.0
290
     0
  0
SCALE
  5
55
102
{ACAD_REACTORS
330
47
102
}
330
47
100
AcDbScale
 70
     0
300
4:1
140
4.0
141
1.0
290
     0
  0
SCALE
  5
56
102
{ACAD_REACTORS
330
47
102
}
330
47
100
AcDbScale
 70
     0
300
8:1
140
8.0
141
1.0
290
     0
  0
SCALE
  5
57
102
{ACAD_REACTORS
330
47
102
}
330
47
100
AcDbScale
 70
     0
300
10:1
140
10.0
141
1.0
290
     0
  0
SCALE
  5
58
102
{ACAD_REACTORS
330
47
102
}
330
47
100
AcDbScale
 70
     0
300
100:1
140
100.0
141
1.0
290
     0
  0
SCALE
  5
59
102
{ACAD_REACTORS
330
47
102
}
330
47
100
AcDbScale
 70
     0
300
1/128" = 1'-0"
140
0.0078125
141
12.0
290
     0
  0
SCALE
  5
5A
102
{ACAD_REACTORS
330
47
102
}
330
47
100
AcDbScale
 70
     0
300
1/64" = 1'-0"
140
0.015625
141
12.0
290
     0
  0
SCALE
  5
5B
102
{ACAD_REACTORS
330
47
102
}
330
47
100
AcDbScale
 70
     0
300
1/32" = 1'-0"
140
0.03125
141
12.0
290
     0
  0
SCALE
  5
5C
102
{ACAD_REACTORS
330
47
102
}
330
47
100
AcDbScale
 70
     0
300
1/16" = 1'-0"
140
0.0625
141
12.0
290
     0
  0
SCALE
  5
5D
102
{ACAD_REACTORS
330
47
102
}
330
47
100
AcDbScale
 70
     0
300
3/32" = 1'-0"
140
0.09375
141
12.0
290
     0
  0
SCALE
  5
5E
102
{ACAD_REACTORS
330
47
102
}
330
47
100
AcDbScale
 70
     0
300
1/8" = 1'-0"
140
0.125
141
12.0
290
     0
  0
SCALE
  5
5F
102
{ACAD_REACTORS
330
47
102
}
330
47
100
AcDbScale
 70
     0
300
3/16" = 1'-0"
140
0.1875
141
12.0
290
     0
  0
SCALE
  5
60
102
{ACAD_REACTORS
330
47
102
}
330
47
100
AcDbScale
 70
     0
300
1/4" = 1'-0"
140
0.25
141
12.0
290
     0
  0
SCALE
  5
61
102
{ACAD_REACTORS
330
47
102
}
330
47
100
AcDbScale
 70
     0
300
3/8" = 1'-0"
140
0.375
141
12.0
290
     0
  0
SCALE
  5
62
102
{ACAD_REACTORS
330
47
102
}
330
47
100
AcDbScale
 70
     0
300
1/2" = 1'-0"
140
0.5
141
12.0
290
     0
  0
SCALE
  5
63
102
{ACAD_REACTORS
330
47
102
}
330
47
100
AcDbScale
 70
     0
300
3/4" = 1'-0"
140
0.75
141
12.0
290
     0
  0
SCALE
  5
64
102
{ACAD_REACTORS
330
47
102
}
330
47
100
AcDbScale
 70
     0
300
1" = 1'-0"
140
1.0
141
12.0
290
     0
  0
SCALE
  5
65
102
{ACAD_REACTORS
330
47
102
}
330
47
100
AcDbScale
 70
     0
300
1-1/2" = 1'-0"
140
1.5
141
12.0
290
     0
  0
SCALE
  5
66
102
{ACAD_REACTORS
330
47
102
}
330
47
100
AcDbScale
 70
     0
300
3" = 1'-0"
140
3.0
141
12.0
290
     0
  0
SCALE
  5
67
102
{ACAD_REACTORS
330
47
102
}
330
47
100
AcDbScale
 70
     0
300
6" = 1'-0"
140
6.0
141
12.0
290
     0
  0
SCALE
  5
68
102
{ACAD_REACTORS
330
47
102
}
330
47
100
AcDbScale
 70
     0
300
1'-0" = 1'-0"
140
12.0
141
12.0
290
     0
  0
TABLESTYLE
  5
6A
102
{ACAD_REACTORS
330
69
102
}
102
{ACAD_XDICTIONARY
360
2FB
102
}
330
69
100
AcDbTableStyle
  3
Standard
 70
     0
 71
     0
 40
0.06
 41
0.06
280
     0
281
     0
  7
Standard
140
4.5
170
     2
 62
     0
 63
   257
283
     0
274
    -2
284
     1
 64
     0
275
    -2
285
     1
 65
     0
276
    -2
286
     1
 66
     0
277
    -2
287
     1
 67
     0
278
    -2
288
     1
 68
     0
279
    -2
289
     1
 69
     0
  7
Standard
140
6.0
170
     5
 62
     0
 63
   257
283
     0
274
    -2
284
     1
 64
     0
275
    -2
285
     1
 65
     0
276
    -2
286
     1
 66
     0
277
    -2
287
     1
 67
     0
278
    -2
288
     1
 68
     0
279
    -2
289
     1
 69
     0
  7
Standard
140
4.5
170
     5
 62
     0
 63
   257
283
     0
274
    -2
284
     1
 64
     0
275
    -2
285
     1
 65
     0
276
    -2
286
     1
 66
     0
277
    -2
287
     1
 67
     0
278
    -2
288
     1
 68
     0
279
    -2
289
     1
 69
     0
  0
VISUALSTYLE
  5
2F
102
{ACAD_REACTORS
330
2A
102
}
102
{ACAD_XDICTIONARY
360
2CD
102
}
330
2A
100
AcDbVisualStyle
  2
2dWireframe
 70
     4
 71
     0
 72
     2
 73
     0
 90
        0
 40
0.6
 41
30.0
 62
     5
 63
     7
421
 16777215
 74
     1
 91
        4
 64
     7
 65
   257
 75
     1
175
     1
 42
1.0
 92
        0
 66
   257
 43
1.0
 76
     1
 77
     6
 78
     2
 67
     7
 79
     5
170
     0
171
     0
290
     0
174
     0
 93
        1
 44
0.0
173
     0
291
     0
 45
0.0
1001
ACAD
1000
AcDbSavedByObjectVersion
1070
     0
  0
VISUALSTYLE
  5
32
102
{ACAD_REACTORS
330
2A
102
}
102
{ACAD_XDICTIONARY
360
2D3
102
}
330
2A
100
AcDbVisualStyle
  2
Basic
 70
     7
 71
     1
 72
     0
 73
     1
 90
        0
 40
0.6
 41
30.0
 62
     5
 63
     7
421
 16777215
 74
     0
 91
        4
 64
     7
 65
   257
 75
     1
175
     1
 42
1.0
 92
        8
 66
     7
 43
1.0
 76
     1
 77
     6
 78
     2
 67
     7
 79
     5
170
     0
171
     0
290
     0
174
     0
 93
        1
 44
0.0
173
     0
291
     1
 45
0.0
1001
ACAD
1000
AcDbSavedByObjectVersion
1070
     0
  0
VISUALSTYLE
  5
36
102
{ACAD_REACTORS
330
2A
102
}
102
{ACAD_XDICTIONARY
360
2DB
102
}
330
2A
100
AcDbVisualStyle
  2
Brighten
 70
    12
 71
     2
 72
     2
 73
     0
 90
        0
 40
0.6
 41
30.0
 62
     5
 63
     7
421
 16777215
 74
     1
 91
        4
 64
     7
 65
   257
 75
     1
175
     1
 42
1.0
 92
        8
 66
     7
 43
1.0
 76
     1
 77
     6
 78
     2
 67
     7
 79
     5
170
     0
171
     0
290
     0
174
     0
 93
        1
 44
50.0
173
     0
291
     1
 45
0.0
1001
ACAD
1000
AcDbSavedByObjectVersion
1070
     0
  0
VISUALSTYLE
  5
3A
102
{ACAD_REACTORS
330
2A
102
}
102
{ACAD_XDICTIONARY
360
2E3
102
}
330
2A
100
AcDbVisualStyle
  2
ColorChange
 70
    16
 71
     2
 72
     2
 73
     3
 90
        0
 40
0.6
 41
30.0
 62
     5
 63
     8
421
  8421504
 74
     1
 91
        4
 64
     7
 65
   257
 75
     1
175
     1
 42
1.0
 92
        8
 66
     8
424
  8421504
 43
1.0
 76
     1
 77
     6
 78
     2
 67
     7
 79
     5
170
     0
171
     0
290
     0
174
     0
 93
        1
 44
0.0
173
     0
291
     1
 45
0.0
1001
ACAD
1000
AcDbSavedByObjectVersion
1070
     0
  0
VISUALSTYLE
  5
34
102
{ACAD_REACTORS
330
2A
102
}
102
{ACAD_XDICTIONARY
360
2D7
102
}
330
2A
100
AcDbVisualStyle
  2
Conceptual
 70
     9
 71
     3
 72
     2
 73
     0
 90
        0
 40
0.6
 41
30.0
 62
     5
 63
     7
421
 16777215
 74
     2
 91
        2
 64
     7
 65
   257
 75
     1
175
     1
 42
179.0
 92
        8
 66
     7
 43
1.0
 76
     1
 77
     6
 78
     2
 67
     7
 79
     3
170
     0
171
     0
290
     0
174
     0
 93
        1
 44
0.0
173
     0
291
     0
 45
0.0
1001
ACAD
1000
AcDbSavedByObjectVersion
1070
     0
  0
VISUALSTYLE
  5
35
102
{ACAD_REACTORS
330
2A
102
}
102
{ACAD_XDICTIONARY
360
2D9
102
}
330
2A
100
AcDbVisualStyle
  2
Dim
 70
    11
 71
     2
 72
     2
 73
     0
 90
        0
 40
0.6
 41
30.0
 62
     5
 63
     7
421
 16777215
 74
     1
 91
        4
 64
     7
 65
   257
 75
     1
175
     1
 42
1.0
 92
        8
 66
     7
 43
1.0
 76
     1
 77
     6
 78
     2
 67
     7
 79
     5
170
     0
171
     0
290
     0
174
     0
 93
        1
 44
-50.0
173
     0
291
     1
 45
0.0
1001
ACAD
1000
AcDbSavedByObjectVersion
1070
     0
  0
VISUALSTYLE
  5
3D
102
{ACAD_REACTORS
330
2A
102
}
102
{ACAD_XDICTIONARY
360
2E9
102
}
330
2A
100
AcDbVisualStyle
  2
EdgeColorOff
 70
    22
 71
     2
 72
     2
 73
     0
 90
        0
 40
0.6
 41
30.0
 62
     5
 63
     7
421
 16777215
 74
     1
 91
        4
 64
     7
 65
   257
 75
     1
175
     1
 42
1.0
 92
        8
 66
     7
 43
1.0
 76
     1
 77
     6
 78
     2
 67
     7
 79
     5
170
     0
171
     0
290
     0
174
     0
 93
        1
 44
0.0
173
     0
291
     1
 45
0.0
1001
ACAD
1000
AcDbSavedByObjectVersion
1070
     0
  0
VISUALSTYLE
  5
39
102
{ACAD_REACTORS
330
2A
102
}
102
{ACAD_XDICTIONARY
360
2E1
102
}
330
2A
100
AcDbVisualStyle
  2
Facepattern
 70
    15
 71
     2
 72
     2
 73
     0
 90
        0
 40
0.6
 41
30.0
 62
     5
 63
     7
421
 16777215
 74
     1
 91
        4
 64
     7
 65
   257
 75
     1
175
     1
 42
1.0
 92
        8
 66
     7
 43
1.0
 76
     1
 77
     6
 78
     2
 67
     7
 79
     5
170
     0
171
     0
290
     0
174
     0
 93
        1
 44
0.0
173
     0
291
     1
 45
0.0
1001
ACAD
1000
AcDbSavedByObjectVersion
1070
     0
  0
VISUALSTYLE
  5
2B
102
{ACAD_REACTORS
330
2A
102
}
102
{ACAD_XDICTIONARY
360
2C5
102
}
330
2A
100
AcDbVisualStyle
  2
Flat
 70
     0
 71
     2
 72
     1
 73
     1
 90
        2
 40
0.6
 41
30.0
 62
     5
 63
     7
421
 16777215
 74
     0
 91
        0
 64
     7
 65
   257
 75
     1
175
     1
 42
1.0
 92
        8
 66
     7
 43
1.0
 76
     1
 77
     6
 78
     2
 67
     7
 79
     5
170
     0
171
     0
290
     0
174
     0
 93
       13
 44
0.0
173
     0
291
     1
 45
0.0
1001
ACAD
1000
AcDbSavedByObjectVersion
1070
     0
  0
VISUALSTYLE
  5
2C
102
{ACAD_REACTORS
330
2A
102
}
102
{ACAD_XDICTIONARY
360
2C7
102
}
330
2A
100
AcDbVisualStyle
  2
FlatWithEdges
 70
     1
 71
     2
 72
     1
 73
     1
 90
        2
 40
0.6
 41
30.0
 62
     5
 63
     7
421
 16777215
 74
     1
 91
        0
 64
     7
 65
   257
 75
     1
175
     1
 42
1.0
 92
        0
 66
   257
 43
1.0
 76
     1
 77
     6
 78
     2
 67
     7
 79
     5
170
     0
171
     0
290
     0
174
     0
 93
       13
 44
0.0
173
     0
291
     1
 45
0.0
1001
ACAD
1000
AcDbSavedByObjectVersion
1070
     0
  0
VISUALSTYLE
  5
2D
102
{ACAD_REACTORS
330
2A
102
}
102
{ACAD_XDICTIONARY
360
2C9
102
}
330
2A
100
AcDbVisualStyle
  2
Gouraud
 70
     2
 71
     2
 72
     2
 73
     1
 90
        2
 40
0.6
 41
30.0
 62
     5
 63
     7
421
 16777215
 74
     0
 91
        0
 64
     7
 65
   257
 75
     1
175
     1
 42
1.0
 92
        0
 66
     7
 43
1.0
 76
     1
 77
     6
 78
     2
 67
     7
 79
     5
170
     0
171
     0
290
     0
174
     0
 93
       13
 44
0.0
173
     0
291
     1
 45
0.0
1001
ACAD
1000
AcDbSavedByObjectVersion
1070
     0
  0
VISUALSTYLE
  5
2E
102
{ACAD_REACTORS
330
2A
102
}
102
{ACAD_XDICTIONARY
360
2CB
102
}
330
2A
100
AcDbVisualStyle
  2
GouraudWithEdges
 70
     3
 71
     2
 72
     2
 73
     1
 90
        2
 40
0.6
 41
30.0
 62
     5
 63
     7
421
 16777215
 74
     1
 91
        0
 64
     7
 65
   257
 75
     1
175
     1
 42
1.0
 92
        0
 66
   257
 43
1.0
 76
     1
 77
     6
 78
     2
 67
     7
 79
     5
170
     0
171
     0
290
     0
174
     0
 93
       13
 44
0.0
173
     0
291
     1
 45
0.0
1001
ACAD
1000
AcDbSavedByObjectVersion
1070
     0
  0
VISUALSTYLE
  5
31
102
{ACAD_REACTORS
330
2A
102
}
102
{ACAD_XDICTIONARY
360
2D1
102
}
330
2A
100
AcDbVisualStyle
  2
Hidden
 70
     6
 71
     1
 72
     2
 73
     2
 90
        0
 40
0.6
 41
30.0
 62
     5
 63
     7
421
 16777215
 74
     2
 91
        2
 64
     7
 65
   257
 75
     2
175
     1
 42
40.0
 92
        0
 66
   257
 43
1.0
 76
     1
 77
     6
 78
     2
 67
     7
 79
     3
170
     0
171
     0
290
     0
174
     0
 93
        1
 44
0.0
173
     0
291
     0
 45
0.0
1001
ACAD
1000
AcDbSavedByObjectVersion
1070
     0
  0
VISUALSTYLE
  5
3B
102
{ACAD_REACTORS
330
2A
102
}
102
{ACAD_XDICTIONARY
360
2E5
102
}
330
2A
100
AcDbVisualStyle
  2
JitterOff
 70
    20
 71
     2
 72
     2
 73
     0
 90
        0
 40
0.6
 41
30.0
 62
     5
 63
     7
421
 16777215
 74
     1
 91
        4
 64
     7
 65
   257
 75
     1
175
     1
 42
1.0
 92
       10
 66
     7
 43
1.0
 76
     1
 77
     6
 78
     2
 67
     7
 79
     5
170
     0
171
     0
290
     0
174
     0
 93
        1
 44
0.0
173
     0
291
     1
 45
0.0
1001
ACAD
1000
AcDbSavedByObjectVersion
1070
     0
  0
VISUALSTYLE
  5
38
102
{ACAD_REACTORS
330
2A
102
}
102
{ACAD_XDICTIONARY
360
2DF
102
}
330
2A
100
AcDbVisualStyle
  2
Linepattern
 70
    14
 71
     2
 72
     2
 73
     0
 90
        0
 40
0.6
 41
30.0
 62
     5
 63
     7
421
 16777215
 74
     1
 91
        4
 64
     7
 65
   257
 75
     7
175
     7
 42
1.0
 92
        8
 66
     7
 43
1.0
 76
     1
 77
     6
 78
     2
 67
     7
 79
     5
170
     0
171
     0
290
     0
174
     0
 93
        1
 44
0.0
173
     0
291
     1
 45
0.0
1001
ACAD
1000
AcDbSavedByObjectVersion
1070
     0
  0
VISUALSTYLE
  5
3C
102
{ACAD_REACTORS
330
2A
102
}
102
{ACAD_XDICTIONARY
360
2E7
102
}
330
2A
100
AcDbVisualStyle
  2
OverhangOff
 70
    21
 71
     2
 72
     2
 73
     0
 90
        0
 40
0.6
 41
30.0
 62
     5
 63
     7
421
 16777215
 74
     1
 91
        4
 64
     7
 65
   257
 75
     1
175
     1
 42
1.0
 92
        9
 66
     7
 43
1.0
 76
     1
 77
     6
 78
     2
 67
     7
 79
     5
170
     0
171
     0
290
     0
174
     0
 93
        1
 44
0.0
173
     0
291
     1
 45
0.0
1001
ACAD
1000
AcDbSavedByObjectVersion
1070
     0
  0
VISUALSTYLE
  5
33
102
{ACAD_REACTORS
330
2A
102
}
102
{ACAD_XDICTIONARY
360
2D5
102
}
330
2A
100
AcDbVisualStyle
  2
Realistic
 70
     8
 71
     2
 72
     3
 73
     0
 90
        2
 40
0.6
 41
30.0
 62
     5
 63
     7
421
 16777215
 74
     0
 91
        0
 64
     7
 65
   257
 75
     1
175
     1
 42
1.0
 92
        8
 66
   257
 43
1.0
 76
     1
 77
     6
 78
     2
 67
     7
 79
     3
170
     0
171
     0
290
     0
174
     0
 93
       13
 44
0.0
173
     0
291
     0
 45
0.0
1001
ACAD
1000
AcDbSavedByObjectVersion
1070
     0
  0
VISUALSTYLE
  5
42
102
{ACAD_REACTORS
330
2A
102
}
102
{ACAD_XDICTIONARY
360
2F3
102
}
330
2A
100
AcDbVisualStyle
  2
Shaded
 70
    27
 71
     2
 72
     2
 73
     1
 90
        2
 40
0.6
 41
30.0
 62
     5
 63
     7
421
 16777215
 74
     0
 91
        4
 64
     7
 65
   257
 75
     1
175
     1
 42
1.0
 92
        8
 66
   257
 43
1.0
 76
     1
 77
     6
 78
     2
 67
     8
425
  7895160
 79
     3
170
     0
171
     0
290
     0
174
     0
 93
        5
 44
0.0
173
     0
291
     0
 45
0.0
1001
ACAD
1000
AcDbSavedByObjectVersion
1070
     0
  0
VISUALSTYLE
  5
41
102
{ACAD_REACTORS
330
2A
102
}
102
{ACAD_XDICTIONARY
360
2F1
102
}
330
2A
100
AcDbVisualStyle
  2
Shaded with edges
 70
    26
 71
     2
 72
     2
 73
     1
 90
        2
 40
0.6
 41
30.0
 62
     5
 63
     7
421
 16777215
 74
     1
 91
       10
 64
     7
 65
   257
 75
     2
175
     1
 42
1.0
 92
        8
 66
   257
 43
1.0
 76
     1
 77
     6
 78
     2
 67
     7
 79
     3
170
     0
171
     0
290
     0
174
     0
 93
        5
 44
0.0
173
     0
291
     0
 45
0.0
1001
ACAD
1000
AcDbSavedByObjectVersion
1070
     0
  0
VISUALSTYLE
  5
3E
102
{ACAD_REACTORS
330
2A
102
}
102
{ACAD_XDICTIONARY
360
2EB
102
}
330
2A
100
AcDbVisualStyle
  2
Shades of Gray
 70
    23
 71
     2
 72
     2
 73
     3
 90
        0
 40
0.6
 41
30.0
 62
     5
 63
     7
421
 16777215
 74
     2
 91
        2
 64
     7
 65
     7
 75
     1
175
     1
 42
40.0
 92
        8
 66
     7
 43
1.0
 76
     1
 77
     6
 78
     2
 67
     7
 79
     3
170
     0
171
     0
290
     0
174
     0
 93
        1
 44
0.0
173
     0
291
     0
 45
0.0
1001
ACAD
1000
AcDbSavedByObjectVersion
1070
     0
  0
VISUALSTYLE
  5
3F
102
{ACAD_REACTORS
330
2A
102
}
102
{ACAD_XDICTIONARY
360
2ED
102
}
330
2A
100
AcDbVisualStyle
  2
Sketchy
 70
    24
 71
     1
 72
     2
 73
     2
 90
        0
 40
0.6
 41
30.0
 62
     5
 63
     7
421
 16777215
 74
     2
 91
        2
 64
     7
 65
     7
 75
     1
175
     1
 42
40.0
 92
       11
 66
     7
 43
1.0
 76
     1
 77
     6
 78
     2
 67
     7
 79
     6
170
     0
171
     0
290
     0
174
     0
 93
        1
 44
0.0
173
     0
291
     0
 45
0.0
1001
ACAD
1000
AcDbSavedByObjectVersion
1070
     0
  0
VISUALSTYLE
  5
37
102
{ACAD_REACTORS
330
2A
102
}
102
{ACAD_XDICTIONARY
360
2DD
102
}
330
2A
100
AcDbVisualStyle
  2
Thicken
 70
    13
 71
     2
 72
     2
 73
     0
 90
        0
 40
0.6
 41
30.0
 62
     5
 63
     7
421
 16777215
 74
     1
 91
        4
 64
     7
 65
   257
 75
     1
175
     1
 42
1.0
 92
       12
 66
     7
 43
1.0
 76
     1
 77
     6
 78
     2
 67
     7
 79
     5
170
     0
171
     0
290
     0
174
     0
 93
        1
 44
0.0
173
     0
291
     1
 45
0.0
1001
ACAD
1000
AcDbSavedByObjectVersion
1070
     0
  0
VISUALSTYLE
  5
30
102
{ACAD_REACTORS
330
2A
102
}
102
{ACAD_XDICTIONARY
360
2CF
102
}
330
2A
100
AcDbVisualStyle
  2
Wireframe
 70
     5
 71
     0
 72
     2
 73
     0
 90
        0
 40
0.6
 41
30.0
 62
     5
 63
     7
421
 16777215
 74
     1
 91
        4
 64
     7
 65
   257
 75
     1
175
     1
 42
1.0
 92
        0
 66
   257
 43
1.0
 76
     1
 77
     6
 78
     2
 67
     7
 79
     3
170
     0
171
     0
290
     0
174
     0
 93
        1
 44
0.0
173
     0
291
     0
 45
0.0
1001
ACAD
1000
AcDbSavedByObjectVersion
1070
     0
  0
VISUALSTYLE
  5
40
102
{ACAD_REACTORS
330
2A
102
}
102
{ACAD_XDICTIONARY
360
2EF
102
}
330
2A
100
AcDbVisualStyle
  2
X-Ray
 70
    25
 71
     2
 72
     2
 73
     1
 90
        1
 40
0.5
 41
30.0
 62
     5
 63
     7
421
 16777215
 74
     1
 91
        0
 64
     7
 65
   257
 75
     1
175
     1
 42
1.0
 92
        8
 66
     7
 43
1.0
 76
     1
 77
     6
 78
     2
 67
     7
 79
     3
170
     0
171
     0
290
     0
174
     0
 93
       13
 44
0.0
173
     0
291
     0
 45
0.0
1001
ACAD
1000
AcDbSavedByObjectVersion
1070
     0
  0
DICTIONARYVAR
  5
2C2
102
{ACAD_REACTORS
330
2C1
102
}
330
2C1
100
DictionaryVariables
280
     0
  1
1:1
  0
DICTIONARYVAR
  5
306
102
{ACAD_REACTORS
330
2C1
102
}
330
2C1
100
DictionaryVariables
280
     0
  1
3.500000
  0
DICTIONARYVAR
  5
307
102
{ACAD_REACTORS
330
2C1
102
}
330
2C1
100
DictionaryVariables
280
     0
  1
acadiso.lin
  0
DICTIONARYVAR
  5
303
102
{ACAD_REACTORS
330
2C1
102
}
330
2C1
100
DictionaryVariables
280
     0
  1
Standard
  0
DICTIONARYVAR
  5
302
102
{ACAD_REACTORS
330
2C1
102
}
330
2C1
100
DictionaryVariables
280
     0
  1
Standard
  0
DICTIONARYVAR
  5
2C3
102
{ACAD_REACTORS
330
2C1
102
}
330
2C1
100
DictionaryVariables
280
     0
  1
1
  0
DICTIONARYVAR
  5
2C4
102
{ACAD_REACTORS
330
2C1
102
}
330
2C1
100
DictionaryVariables
280
     0
  1
2
  0
DICTIONARY
  5
2F7
330
45
100
AcDbDictionary
280
     1
281
     1
  3
ACAD_XREC_ROUNDTRIP
360
2F8
  0
DICTIONARY
  5
2F5
330
44
100
AcDbDictionary
280
     1
281
     1
  3
ACAD_XREC_ROUNDTRIP
360
2F6
  0
DICTIONARY
  5
2F9
330
46
100
AcDbDictionary
280
     1
281
     1
  3
ACAD_XREC_ROUNDTRIP
360
2FA
  0
DICTIONARY
  5
2FF
330
6C
100
AcDbDictionary
280
     1
281
     1
  3
ACAD_XREC_ROUNDTRIP
360
300
  0
DICTIONARY
  5
2FB
330
6A
100
AcDbDictionary
280
     1
281
     1
  3
ACAD_ROUNDTRIP_2008_TABLESTYLE_CELLSTYLEMAP
360
2FD
  3
ACAD_XREC_ROUNDTRIP
360
2FC
  0
DICTIONARY
  5
2CD
330
2F
100
AcDbDictionary
280
     1
281
     1
  3
ACAD_XREC_ROUNDTRIP
360
2CE
  0
DICTIONARY
  5
2D3
330
32
100
AcDbDictionary
280
     1
281
     1
  3
ACAD_XREC_ROUNDTRIP
360
2D4
  0
DICTIONARY
  5
2DB
330
36
100
AcDbDictionary
280
     1
281
     1
  3
ACAD_XREC_ROUNDTRIP
360
2DC
  0
DICTIONARY
  5
2E3
330
3A
100
AcDbDictionary
280
     1
281
     1
  3
ACAD_XREC_ROUNDTRIP
360
2E4
  0
DICTIONARY
  5
2D7
330
34
100
AcDbDictionary
280
     1
281
     1
  3
ACAD_XREC_ROUNDTRIP
360
2D8
  0
DICTIONARY
  5
2D9
330
35
100
AcDbDictionary
280
     1
281
     1
  3
ACAD_XREC_ROUNDTRIP
360
2DA
  0
DICTIONARY
  5
2E9
330
3D
100
AcDbDictionary
280
     1
281
     1
  3
ACAD_XREC_ROUNDTRIP
360
2EA
  0
DICTIONARY
  5
2E1
330
39
100
AcDbDictionary
280
     1
281
     1
  3
ACAD_XREC_ROUNDTRIP
360
2E2
  0
DICTIONARY
  5
2C5
330
2B
100
AcDbDictionary
280
     1
281
     1
  3
ACAD_XREC_ROUNDTRIP
360
2C6
  0
DICTIONARY
  5
2C7
330
2C
100
AcDbDictionary
280
     1
281
     1
  3
ACAD_XREC_ROUNDTRIP
360
2C8
  0
DICTIONARY
  5
2C9
330
2D
100
AcDbDictionary
280
     1
281
     1
  3
ACAD_XREC_ROUNDTRIP
360
2CA
  0
DICTIONARY
  5
2CB
330
2E
100
AcDbDictionary
280
     1
281
     1
  3
ACAD_XREC_ROUNDTRIP
360
2CC
  0
DICTIONARY
  5
2D1
330
31
100
AcDbDictionary
280
     1
281
     1
  3
ACAD_XREC_ROUNDTRIP
360
2D2
  0
DICTIONARY
  5
2E5
330
3B
100
AcDbDictionary
280
     1
281
     1
  3
ACAD_XREC_ROUNDTRIP
360
2E6
  0
DICTIONARY
  5
2DF
330
38
100
AcDbDictionary
280
     1
281
     1
  3
ACAD_XREC_ROUNDTRIP
360
2E0
  0
DICTIONARY
  5
2E7
330
3C
100
AcDbDictionary
280
     1
281
     1
  3
ACAD_XREC_ROUNDTRIP
360
2E8
  0
DICTIONARY
  5
2D5
330
33
100
AcDbDictionary
280
     1
281
     1
  3
ACAD_XREC_ROUNDTRIP
360
2D6
  0
DICTIONARY
  5
2F3
330
42
100
AcDbDictionary
280
     1
281
     1
  3
ACAD_XREC_ROUNDTRIP
360
2F4
  0
DICTIONARY
  5
2F1
330
41
100
AcDbDictionary
280
     1
281
     1
  3
ACAD_XREC_ROUNDTRIP
360
2F2
  0
DICTIONARY
  5
2EB
330
3E
100
AcDbDictionary
280
     1
281
     1
  3
ACAD_XREC_ROUNDTRIP
360
2EC
  0
DICTIONARY
  5
2ED
330
3F
100
AcDbDictionary
280
     1
281
     1
  3
ACAD_XREC_ROUNDTRIP
360
2EE
  0
DICTIONARY
  5
2DD
330
37
100
AcDbDictionary
280
     1
281
     1
  3
ACAD_XREC_ROUNDTRIP
360
2DE
  0
DICTIONARY
  5
2CF
330
30
100
AcDbDictionary
280
     1
281
     1
  3
ACAD_XREC_ROUNDTRIP
360
2D0
  0
DICTIONARY
  5
2EF
330
40
100
AcDbDictionary
280
     1
281
     1
  3
ACAD_XREC_ROUNDTRIP
360
2F0
  0
XRECORD
  5
2F8
102
{ACAD_REACTORS
330
2F7
102
}
330
2F7
100
AcDbXrecord
280
     1
102
MATERIAL
148
0.0
149
0.0
149
0.0
 93
        0
 94
      127
282
     0
 72
     1
 77
     1
171
     1
175
     1
179
     1
273
     0
  0
XRECORD
  5
2F6
102
{ACAD_REACTORS
330
2F5
102
}
330
2F5
100
AcDbXrecord
280
     1
102
MATERIAL
148
0.0
149
0.0
149
0.0
 93
        0
 94
      127
282
     0
 72
     1
 77
     1
171
     1
175
     1
179
     1
273
     0
  0
XRECORD
  5
2FA
102
{ACAD_REACTORS
330
2F9
102
}
330
2F9
100
AcDbXrecord
280
     1
102
MATERIAL
148
0.0
149
0.0
149
0.0
 93
        0
 94
      127
282
     0
 72
     1
 77
     1
171
     1
175
     1
179
     1
273
     0
  0
XRECORD
  5
300
102
{ACAD_REACTORS
330
2FF
102
}
330
2FF
100
AcDbXrecord
280
     1
102
ACAD_ROUNDTRIP_2010_MLEADER_STYLE
  0
CELLSTYLEMAP
  5
2FD
102
{ACAD_REACTORS
330
2FB
102
}
330
2FB
100
AcDbCellStyleMap
 90
        3
300
CELLSTYLE
  1
TABLEFORMAT_BEGIN
 90
        5
170
     1
 91
        0
 92
    32768
 62
   257
 93
        1
300
CONTENTFORMAT
  1
CONTENTFORMAT_BEGIN
 90
        0
 91
        0
 92
        4
 93
        0
300

 40
0.0
140
1.0
 94
        5
 62
     0
340
11
144
6.0
309
CONTENTFORMAT_END
171
     1
301
MARGIN
  1
CELLMARGIN_BEGIN
 40
1.5
 40
1.5
 40
1.5
 40
1.5
 40
1.5
 40
1.5
309
CELLMARGIN_END
 94
        6
 95
        1
302
GRIDFORMAT
  1
GRIDFORMAT_BEGIN
 90
        0
 91
        1
 62
     0
 92
       -2
340
14
 93
        0
 40
0.045
309
GRIDFORMAT_END
 95
        2
302
GRIDFORMAT
  1
GRIDFORMAT_BEGIN
 90
        0
 91
        1
 62
     0
 92
       -2
340
14
 93
        0
 40
0.045
309
GRIDFORMAT_END
 95
        4
302
GRIDFORMAT
  1
GRIDFORMAT_BEGIN
 90
        0
 91
        1
 62
     0
 92
       -2
340
14
 93
        0
 40
0.045
309
GRIDFORMAT_END
 95
        8
302
GRIDFORMAT
  1
GRIDFORMAT_BEGIN
 90
        0
 91
        1
 62
     0
 92
       -2
340
14
 93
        0
 40
0.045
309
GRIDFORMAT_END
 95
       16
302
GRIDFORMAT
  1
GRIDFORMAT_BEGIN
 90
        0
 91
        1
 62
     0
 92
       -2
340
14
 93
        0
 40
0.045
309
GRIDFORMAT_END
 95
       32
302
GRIDFORMAT
  1
GRIDFORMAT_BEGIN
 90
        0
 91
        1
 62
     0
 92
       -2
340
14
 93
        0
 40
0.045
309
GRIDFORMAT_END
309
TABLEFORMAT_END
  1
CELLSTYLE_BEGIN
 90
        1
 91
        1
300
_TITLE
309
CELLSTYLE_END
300
CELLSTYLE
  1
TABLEFORMAT_BEGIN
 90
        5
170
     1
 91
        0
 92
        0
 62
   257
 93
        1
300
CONTENTFORMAT
  1
CONTENTFORMAT_BEGIN
 90
        0
 91
        0
 92
        4
 93
        0
300

 40
0.0
140
1.0
 94
        5
 62
     0
340
11
144
4.5
309
CONTENTFORMAT_END
171
     1
301
MARGIN
  1
CELLMARGIN_BEGIN
 40
1.5
 40
1.5
 40
1.5
 40
1.5
 40
1.5
 40
1.5
309
CELLMARGIN_END
 94
        6
 95
        1
302
GRIDFORMAT
  1
GRIDFORMAT_BEGIN
 90
        0
 91
        1
 62
     0
 92
       -2
340
14
 93
        0
 40
0.045
309
GRIDFORMAT_END
 95
        2
302
GRIDFORMAT
  1
GRIDFORMAT_BEGIN
 90
        0
 91
        1
 62
     0
 92
       -2
340
14
 93
        0
 40
0.045
309
GRIDFORMAT_END
 95
        4
302
GRIDFORMAT
  1
GRIDFORMAT_BEGIN
 90
        0
 91
        1
 62
     0
 92
       -2
340
14
 93
        0
 40
0.045
309
GRIDFORMAT_END
 95
        8
302
GRIDFORMAT
  1
GRIDFORMAT_BEGIN
 90
        0
 91
        1
 62
     0
 92
       -2
340
14
 93
        0
 40
0.045
309
GRIDFORMAT_END
 95
       16
302
GRIDFORMAT
  1
GRIDFORMAT_BEGIN
 90
        0
 91
        1
 62
     0
 92
       -2
340
14
 93
        0
 40
0.045
309
GRIDFORMAT_END
 95
       32
302
GRIDFORMAT
  1
GRIDFORMAT_BEGIN
 90
        0
 91
        1
 62
     0
 92
       -2
340
14
 93
        0
 40
0.045
309
GRIDFORMAT_END
309
TABLEFORMAT_END
  1
CELLSTYLE_BEGIN
 90
        2
 91
        1
300
_HEADER
309
CELLSTYLE_END
300
CELLSTYLE
  1
TABLEFORMAT_BEGIN
 90
        5
170
     1
 91
        0
 92
        0
 62
   257
 93
        1
300
CONTENTFORMAT
  1
CONTENTFORMAT_BEGIN
 90
        0
 91
        0
 92
        4
 93
        0
300

 40
0.0
140
1.0
 94
        2
 62
     0
340
11
144
4.5
309
CONTENTFORMAT_END
171
     1
301
MARGIN
  1
CELLMARGIN_BEGIN
 40
1.5
 40
1.5
 40
1.5
 40
1.5
 40
1.5
 40
1.5
309
CELLMARGIN_END
 94
        6
 95
        1
302
GRIDFORMAT
  1
GRIDFORMAT_BEGIN
 90
        0
 91
        1
 62
     0
 92
       -2
340
14
 93
        0
 40
0.045
309
GRIDFORMAT_END
 95
        2
302
GRIDFORMAT
  1
GRIDFORMAT_BEGIN
 90
        0
 91
        1
 62
     0
 92
       -2
340
14
 93
        0
 40
0.045
309
GRIDFORMAT_END
 95
        4
302
GRIDFORMAT
  1
GRIDFORMAT_BEGIN
 90
        0
 91
        1
 62
     0
 92
       -2
340
14
 93
        0
 40
0.045
309
GRIDFORMAT_END
 95
        8
302
GRIDFORMAT
  1
GRIDFORMAT_BEGIN
 90
        0
 91
        1
 62
     0
 92
       -2
340
14
 93
        0
 40
0.045
309
GRIDFORMAT_END
 95
       16
302
GRIDFORMAT
  1
GRIDFORMAT_BEGIN
 90
        0
 91
        1
 62
     0
 92
       -2
340
14
 93
        0
 40
0.045
309
GRIDFORMAT_END
 95
       32
302
GRIDFORMAT
  1
GRIDFORMAT_BEGIN
 90
        0
 91
        1
 62
     0
 92
       -2
340
14
 93
        0
 40
0.045
309
GRIDFORMAT_END
309
TABLEFORMAT_END
  1
CELLSTYLE_BEGIN
 90
        3
 91
        2
300
_DATA
309
CELLSTYLE_END
  0
XRECORD
  5
2FC
102
{ACAD_REACTORS
330
2FB
102
}
330
2FB
100
AcDbXrecord
280
     1
102
ACAD_ROUNDTRIP_PRE2007_TABLESTYLE
 90
        4
 91
        0
  1

 92
        4
 93
        0
  2

 94
        4
 95
        0
  3

  0
XRECORD
  5
2CE
102
{ACAD_REACTORS
330
2CD
102
}
330
2CD
100
AcDbXrecord
280
     1
102
RTVSPropertyOp0
 70
     1
102
RTVSPropertyOp1
 70
     1
102
RTVSPropertyOp2
 70
     1
102
RTVSPropertyOp3
 70
     1
102
RTVSPropertyOp4
 70
     1
102
RTVSPropertyOp5
 70
     1
102
RTVSPropertyOp6
 70
     1
102
RTVSPropertyOp7
 70
     1
102
RTVSPropertyOp8
 70
     1
102
RTVSPropertyOp9
 70
     1
102
RTVSPropertyOp10
 70
     1
102
RTVSPropertyOp11
 70
     1
102
RTVSPropertyOp12
 70
     1
102
RTVSPropertyOp13
 70
     1
102
RTVSPropertyOp14
 70
     1
102
RTVSPropertyOp15
 70
     1
102
RTVSPropertyOp16
 70
     1
102
RTVSPropertyOp17
 70
     1
102
RTVSPropertyOp18
 70
     1
102
RTVSPropertyOp19
 70
     1
102
RTVSPropertyOp20
 70
     1
102
RTVSPropertyOp21
 70
     1
102
RTVSPropertyOp22
 70
     1
102
RTVSPropertyOp23
 70
     1
102
RTVSPropertyOp24
 70
     1
102
RTVSPropertyOp25
 70
     1
102
RTVSPropertyOp26
 70
     1
102
RTVSPropertyOp27
 70
     1
102
RTVSPropertyOp28
 70
     1
102
RTVSPropertyOp29
 70
     1
102
RTVSPropertyOp30
 70
     1
102
RTVSPropertyOp31
 70
     1
102
RTVSPropertyOp32
 70
     1
102
RTVSPropertyOp33
 70
     1
102
RTVSPropertyOp34
 70
     1
102
RTVSPropertyOp35
 70
     1
102
RTVSPropertyOp36
 70
     1
102
RTVSPropertyOp37
 70
     1
102
RTVSPropertyOp38
 70
     1
102
RTVSPropertyOp39
 70
     1
102
RTVSPropertyOp40
 70
     1
102
RTVSPropertyOp41
 70
     1
102
RTVSPropertyOp42
 70
     1
102
RTVSPropertyOp43
 70
     1
102
RTVSPropertyOp44
 70
     1
102
RTVSPropertyOp45
 70
     1
102
RTVSPropertyOp46
 70
     1
102
RTVSPropertyOp47
 70
     1
102
RTVSPropertyOp48
 70
     1
102
RTVSPropertyOp49
 70
     1
102
RTVSPropertyOp50
 70
     1
102
RTVSPropertyOp51
 70
     0
102
RTVSPropertyOp52
 70
     0
102
RTVSPropertyOp53
 70
     1
102
RTVSPropertyOp54
 70
     1
102
RTVSPropertyOp55
 70
     1
102
RTVSPropertyOp56
 70
     1
102
RTVSPropertyOp57
 70
     1
102
RTVSPost2010Prop28
280
     1
102
RTVSPost2010PropOp28
 70
     1
102
RTVSPost2010Prop29
280
     1
102
RTVSPost2010PropOp29
 70
     1
102
RTVSPost2010Prop30
280
     0
102
RTVSPost2010PropOp30
 70
     1
102
RTVSPost2010Prop31
280
     0
102
RTVSPost2010PropOp31
 70
     1
102
RTVSPost2010Prop32
280
     0
102
RTVSPost2010PropOp32
 70
     1
102
RTVSPost2010Prop33
280
     0
102
RTVSPost2010PropOp33
 70
     1
102
RTVSPost2010Prop34
280
     0
102
RTVSPost2010PropOp34
 70
     1
102
RTVSPost2010Prop35
280
     0
102
RTVSPost2010PropOp35
 70
     1
102
RTVSPost2010Prop36
280
     0
102
RTVSPost2010PropOp36
 70
     1
102
RTVSPost2010Prop37
 90
       50
102
RTVSPost2010PropOp37
 70
     1
102
RTVSPost2010Prop38
140
0.0
102
RTVSPost2010PropOp38
 70
     1
102
RTVSPost2010Prop39
140
1.0
102
RTVSPost2010PropOp39
 70
     1
102
RTVSPost2010Prop40
 90
        0
102
RTVSPost2010PropOp40
 70
     1
102
RTVSPost2010Prop41ColorIndex
 90
       18
102
RTVSPost2010Prop41ColorRGB
 90
        0
102
RTVSPost2010PropOp41
 70
     1
102
RTVSPost2010Prop42
 90
       50
102
RTVSPost2010PropOp42
 70
     1
102
RTVSPost2010Prop43
 90
        3
102
RTVSPost2010PropOp43
 70
     1
102
RTVSPost2010Prop44ColorIndex
 90
        5
102
RTVSPost2010Prop44ColorRGB
 90
      255
102
RTVSPost2010PropOp44
 70
     1
102
RTVSPost2010Prop45
280
     0
102
RTVSPost2010PropOp45
 70
     1
102
RTVSPost2010Prop46
 90
       50
102
RTVSPost2010PropOp46
 70
     1
102
RTVSPost2010Prop47
 90
       50
102
RTVSPost2010PropOp47
 70
     1
102
RTVSPost2010Prop48
 90
       50
102
RTVSPost2010PropOp48
 70
     1
102
RTVSPost2010Prop49
280
     0
102
RTVSPost2010PropOp49
 70
     1
102
RTVSPost2010Prop50
 90
       50
102
RTVSPost2010PropOp50
 70
     1
102
RTVSPost2010Prop51ColorIndex
 90
      256
102
RTVSPost2010Prop51ColorRGB
 90
-16777216
102
RTVSPost2010PropOp51
 70
     0
102
RTVSPost2010Prop52
140
1.0
102
RTVSPost2010PropOp52
 70
     0
102
RTVSPost2010Prop53
 90
        2
102
RTVSPost2010PropOp53
 70
     1
102
RTVSPost2010Prop54
  1
strokes_ogs.tif
102
RTVSPost2010PropOp54
 70
     1
102
RTVSPost2010Prop55
280
     0
102
RTVSPost2010PropOp55
 70
     1
102
RTVSPost2010Prop56
140
1.0
102
RTVSPost2010PropOp56
 70
     1
102
RTVSPost2010Prop57
140
1.0
102
RTVSPost2010PropOp57
 70
     1
  0
XRECORD
  5
2D4
102
{ACAD_REACTORS
330
2D3
102
}
330
2D3
100
AcDbXrecord
280
     1
102
RTVSPropertyOp0
 70
     1
102
RTVSPropertyOp1
 70
     1
102
RTVSPropertyOp2
 70
     1
102
RTVSPropertyOp3
 70
     1
102
RTVSPropertyOp4
 70
     1
102
RTVSPropertyOp5
 70
     1
102
RTVSPropertyOp6
 70
     1
102
RTVSPropertyOp7
 70
     1
102
RTVSPropertyOp8
 70
     1
102
RTVSPropertyOp9
 70
     1
102
RTVSPropertyOp10
 70
     1
102
RTVSPropertyOp11
 70
     1
102
RTVSPropertyOp12
 70
     1
102
RTVSPropertyOp13
 70
     1
102
RTVSPropertyOp14
 70
     1
102
RTVSPropertyOp15
 70
     1
102
RTVSPropertyOp16
 70
     1
102
RTVSPropertyOp17
 70
     1
102
RTVSPropertyOp18
 70
     1
102
RTVSPropertyOp19
 70
     1
102
RTVSPropertyOp20
 70
     1
102
RTVSPropertyOp21
 70
     1
102
RTVSPropertyOp22
 70
     1
102
RTVSPropertyOp23
 70
     1
102
RTVSPropertyOp24
 70
     1
102
RTVSPropertyOp25
 70
     1
102
RTVSPropertyOp26
 70
     1
102
RTVSPropertyOp27
 70
     1
102
RTVSPropertyOp28
 70
     1
102
RTVSPropertyOp29
 70
     1
102
RTVSPropertyOp30
 70
     1
102
RTVSPropertyOp31
 70
     1
102
RTVSPropertyOp32
 70
     1
102
RTVSPropertyOp33
 70
     1
102
RTVSPropertyOp34
 70
     1
102
RTVSPropertyOp35
 70
     1
102
RTVSPropertyOp36
 70
     1
102
RTVSPropertyOp37
 70
     1
102
RTVSPropertyOp38
 70
     1
102
RTVSPropertyOp39
 70
     1
102
RTVSPropertyOp40
 70
     1
102
RTVSPropertyOp41
 70
     1
102
RTVSPropertyOp42
 70
     1
102
RTVSPropertyOp43
 70
     1
102
RTVSPropertyOp44
 70
     1
102
RTVSPropertyOp45
 70
     1
102
RTVSPropertyOp46
 70
     1
102
RTVSPropertyOp47
 70
     1
102
RTVSPropertyOp48
 70
     1
102
RTVSPropertyOp49
 70
     1
102
RTVSPropertyOp50
 70
     1
102
RTVSPropertyOp51
 70
     0
102
RTVSPropertyOp52
 70
     0
102
RTVSPropertyOp53
 70
     1
102
RTVSPropertyOp54
 70
     1
102
RTVSPropertyOp55
 70
     1
102
RTVSPropertyOp56
 70
     1
102
RTVSPropertyOp57
 70
     1
102
RTVSPost2010Prop28
280
     0
102
RTVSPost2010PropOp28
 70
     1
102
RTVSPost2010Prop29
280
     1
102
RTVSPost2010PropOp29
 70
     1
102
RTVSPost2010Prop30
280
     1
102
RTVSPost2010PropOp30
 70
     1
102
RTVSPost2010Prop31
280
     0
102
RTVSPost2010PropOp31
 70
     1
102
RTVSPost2010Prop32
280
     0
102
RTVSPost2010PropOp32
 70
     1
102
RTVSPost2010Prop33
280
     0
102
RTVSPost2010PropOp33
 70
     1
102
RTVSPost2010Prop34
280
     0
102
RTVSPost2010PropOp34
 70
     1
102
RTVSPost2010Prop35
280
     0
102
RTVSPost2010PropOp35
 70
     1
102
RTVSPost2010Prop36
280
     0
102
RTVSPost2010PropOp36
 70
     1
102
RTVSPost2010Prop37
 90
       50
102
RTVSPost2010PropOp37
 70
     1
102
RTVSPost2010Prop38
140
0.0
102
RTVSPost2010PropOp38
 70
     1
102
RTVSPost2010Prop39
140
1.0
102
RTVSPost2010PropOp39
 70
     1
102
RTVSPost2010Prop40
 90
        0
102
RTVSPost2010PropOp40
 70
     1
102
RTVSPost2010Prop41ColorIndex
 90
       18
102
RTVSPost2010Prop41ColorRGB
 90
        0
102
RTVSPost2010PropOp41
 70
     1
102
RTVSPost2010Prop42
 90
       50
102
RTVSPost2010PropOp42
 70
     1
102
RTVSPost2010Prop43
 90
        3
102
RTVSPost2010PropOp43
 70
     1
102
RTVSPost2010Prop44ColorIndex
 90
        5
102
RTVSPost2010Prop44ColorRGB
 90
      255
102
RTVSPost2010PropOp44
 70
     1
102
RTVSPost2010Prop45
280
     0
102
RTVSPost2010PropOp45
 70
     1
102
RTVSPost2010Prop46
 90
       50
102
RTVSPost2010PropOp46
 70
     1
102
RTVSPost2010Prop47
 90
       50
102
RTVSPost2010PropOp47
 70
     1
102
RTVSPost2010Prop48
 90
       50
102
RTVSPost2010PropOp48
 70
     1
102
RTVSPost2010Prop49
280
     0
102
RTVSPost2010PropOp49
 70
     1
102
RTVSPost2010Prop50
 90
       50
102
RTVSPost2010PropOp50
 70
     1
102
RTVSPost2010Prop51ColorIndex
 90
      256
102
RTVSPost2010Prop51ColorRGB
 90
-16777216
102
RTVSPost2010PropOp51
 70
     0
102
RTVSPost2010Prop52
140
1.0
102
RTVSPost2010PropOp52
 70
     0
102
RTVSPost2010Prop53
 90
        2
102
RTVSPost2010PropOp53
 70
     1
102
RTVSPost2010Prop54
  1
strokes_ogs.tif
102
RTVSPost2010PropOp54
 70
     1
102
RTVSPost2010Prop55
280
     0
102
RTVSPost2010PropOp55
 70
     1
102
RTVSPost2010Prop56
140
1.0
102
RTVSPost2010PropOp56
 70
     1
102
RTVSPost2010Prop57
140
1.0
102
RTVSPost2010PropOp57
 70
     1
  0
XRECORD
  5
2DC
102
{ACAD_REACTORS
330
2DB
102
}
330
2DB
100
AcDbXrecord
280
     1
102
RTVSPropertyOp0
 70
     1
102
RTVSPropertyOp1
 70
     1
102
RTVSPropertyOp2
 70
     1
102
RTVSPropertyOp3
 70
     1
102
RTVSPropertyOp4
 70
     1
102
RTVSPropertyOp5
 70
     1
102
RTVSPropertyOp6
 70
     1
102
RTVSPropertyOp7
 70
     1
102
RTVSPropertyOp8
 70
     1
102
RTVSPropertyOp9
 70
     1
102
RTVSPropertyOp10
 70
     1
102
RTVSPropertyOp11
 70
     1
102
RTVSPropertyOp12
 70
     1
102
RTVSPropertyOp13
 70
     1
102
RTVSPropertyOp14
 70
     1
102
RTVSPropertyOp15
 70
     1
102
RTVSPropertyOp16
 70
     1
102
RTVSPropertyOp17
 70
     1
102
RTVSPropertyOp18
 70
     1
102
RTVSPropertyOp19
 70
     1
102
RTVSPropertyOp20
 70
     1
102
RTVSPropertyOp21
 70
     1
102
RTVSPropertyOp22
 70
     1
102
RTVSPropertyOp23
 70
     1
102
RTVSPropertyOp24
 70
     1
102
RTVSPropertyOp25
 70
     1
102
RTVSPropertyOp26
 70
     1
102
RTVSPropertyOp27
 70
     1
102
RTVSPropertyOp28
 70
     1
102
RTVSPropertyOp29
 70
     1
102
RTVSPropertyOp30
 70
     1
102
RTVSPropertyOp31
 70
     1
102
RTVSPropertyOp32
 70
     1
102
RTVSPropertyOp33
 70
     1
102
RTVSPropertyOp34
 70
     1
102
RTVSPropertyOp35
 70
     1
102
RTVSPropertyOp36
 70
     1
102
RTVSPropertyOp37
 70
     1
102
RTVSPropertyOp38
 70
     1
102
RTVSPropertyOp39
 70
     1
102
RTVSPropertyOp40
 70
     1
102
RTVSPropertyOp41
 70
     1
102
RTVSPropertyOp42
 70
     1
102
RTVSPropertyOp43
 70
     1
102
RTVSPropertyOp44
 70
     1
102
RTVSPropertyOp45
 70
     1
102
RTVSPropertyOp46
 70
     1
102
RTVSPropertyOp47
 70
     1
102
RTVSPropertyOp48
 70
     1
102
RTVSPropertyOp49
 70
     1
102
RTVSPropertyOp50
 70
     1
102
RTVSPropertyOp51
 70
     0
102
RTVSPropertyOp52
 70
     0
102
RTVSPropertyOp53
 70
     1
102
RTVSPropertyOp54
 70
     1
102
RTVSPropertyOp55
 70
     1
102
RTVSPropertyOp56
 70
     1
102
RTVSPropertyOp57
 70
     1
102
RTVSPost2010Prop28
280
     0
102
RTVSPost2010PropOp28
 70
     1
102
RTVSPost2010Prop29
280
     1
102
RTVSPost2010PropOp29
 70
     1
102
RTVSPost2010Prop30
280
     1
102
RTVSPost2010PropOp30
 70
     1
102
RTVSPost2010Prop31
280
     0
102
RTVSPost2010PropOp31
 70
     1
102
RTVSPost2010Prop32
280
     0
102
RTVSPost2010PropOp32
 70
     1
102
RTVSPost2010Prop33
280
     0
102
RTVSPost2010PropOp33
 70
     1
102
RTVSPost2010Prop34
280
     0
102
RTVSPost2010PropOp34
 70
     1
102
RTVSPost2010Prop35
280
     0
102
RTVSPost2010PropOp35
 70
     1
102
RTVSPost2010Prop36
280
     0
102
RTVSPost2010PropOp36
 70
     1
102
RTVSPost2010Prop37
 90
       50
102
RTVSPost2010PropOp37
 70
     1
102
RTVSPost2010Prop38
140
0.0
102
RTVSPost2010PropOp38
 70
     1
102
RTVSPost2010Prop39
140
1.0
102
RTVSPost2010PropOp39
 70
     1
102
RTVSPost2010Prop40
 90
        0
102
RTVSPost2010PropOp40
 70
     1
102
RTVSPost2010Prop41ColorIndex
 90
       18
102
RTVSPost2010Prop41ColorRGB
 90
        0
102
RTVSPost2010PropOp41
 70
     1
102
RTVSPost2010Prop42
 90
       50
102
RTVSPost2010PropOp42
 70
     1
102
RTVSPost2010Prop43
 90
        3
102
RTVSPost2010PropOp43
 70
     1
102
RTVSPost2010Prop44ColorIndex
 90
        5
102
RTVSPost2010Prop44ColorRGB
 90
      255
102
RTVSPost2010PropOp44
 70
     1
102
RTVSPost2010Prop45
280
     0
102
RTVSPost2010PropOp45
 70
     1
102
RTVSPost2010Prop46
 90
       50
102
RTVSPost2010PropOp46
 70
     1
102
RTVSPost2010Prop47
 90
       50
102
RTVSPost2010PropOp47
 70
     1
102
RTVSPost2010Prop48
 90
       50
102
RTVSPost2010PropOp48
 70
     1
102
RTVSPost2010Prop49
280
     0
102
RTVSPost2010PropOp49
 70
     1
102
RTVSPost2010Prop50
 90
       50
102
RTVSPost2010PropOp50
 70
     1
102
RTVSPost2010Prop51ColorIndex
 90
      256
102
RTVSPost2010Prop51ColorRGB
 90
-16777216
102
RTVSPost2010PropOp51
 70
     0
102
RTVSPost2010Prop52
140
1.0
102
RTVSPost2010PropOp52
 70
     0
102
RTVSPost2010Prop53
 90
        2
102
RTVSPost2010PropOp53
 70
     1
102
RTVSPost2010Prop54
  1
strokes_ogs.tif
102
RTVSPost2010PropOp54
 70
     1
102
RTVSPost2010Prop55
280
     0
102
RTVSPost2010PropOp55
 70
     1
102
RTVSPost2010Prop56
140
1.0
102
RTVSPost2010PropOp56
 70
     1
102
RTVSPost2010Prop57
140
1.0
102
RTVSPost2010PropOp57
 70
     1
  0
XRECORD
  5
2E4
102
{ACAD_REACTORS
330
2E3
102
}
330
2E3
100
AcDbXrecord
280
     1
102
RTVSPropertyOp0
 70
     1
102
RTVSPropertyOp1
 70
     1
102
RTVSPropertyOp2
 70
     1
102
RTVSPropertyOp3
 70
     1
102
RTVSPropertyOp4
 70
     1
102
RTVSPropertyOp5
 70
     1
102
RTVSPropertyOp6
 70
     1
102
RTVSPropertyOp7
 70
     1
102
RTVSPropertyOp8
 70
     1
102
RTVSPropertyOp9
 70
     1
102
RTVSPropertyOp10
 70
     1
102
RTVSPropertyOp11
 70
     1
102
RTVSPropertyOp12
 70
     1
102
RTVSPropertyOp13
 70
     1
102
RTVSPropertyOp14
 70
     1
102
RTVSPropertyOp15
 70
     1
102
RTVSPropertyOp16
 70
     1
102
RTVSPropertyOp17
 70
     1
102
RTVSPropertyOp18
 70
     1
102
RTVSPropertyOp19
 70
     1
102
RTVSPropertyOp20
 70
     1
102
RTVSPropertyOp21
 70
     1
102
RTVSPropertyOp22
 70
     1
102
RTVSPropertyOp23
 70
     1
102
RTVSPropertyOp24
 70
     1
102
RTVSPropertyOp25
 70
     1
102
RTVSPropertyOp26
 70
     1
102
RTVSPropertyOp27
 70
     1
102
RTVSPropertyOp28
 70
     1
102
RTVSPropertyOp29
 70
     1
102
RTVSPropertyOp30
 70
     1
102
RTVSPropertyOp31
 70
     1
102
RTVSPropertyOp32
 70
     1
102
RTVSPropertyOp33
 70
     1
102
RTVSPropertyOp34
 70
     1
102
RTVSPropertyOp35
 70
     1
102
RTVSPropertyOp36
 70
     1
102
RTVSPropertyOp37
 70
     1
102
RTVSPropertyOp38
 70
     1
102
RTVSPropertyOp39
 70
     1
102
RTVSPropertyOp40
 70
     1
102
RTVSPropertyOp41
 70
     1
102
RTVSPropertyOp42
 70
     1
102
RTVSPropertyOp43
 70
     1
102
RTVSPropertyOp44
 70
     1
102
RTVSPropertyOp45
 70
     1
102
RTVSPropertyOp46
 70
     1
102
RTVSPropertyOp47
 70
     1
102
RTVSPropertyOp48
 70
     1
102
RTVSPropertyOp49
 70
     1
102
RTVSPropertyOp50
 70
     1
102
RTVSPropertyOp51
 70
     0
102
RTVSPropertyOp52
 70
     0
102
RTVSPropertyOp53
 70
     1
102
RTVSPropertyOp54
 70
     1
102
RTVSPropertyOp55
 70
     1
102
RTVSPropertyOp56
 70
     1
102
RTVSPropertyOp57
 70
     1
102
RTVSPost2010Prop28
280
     0
102
RTVSPost2010PropOp28
 70
     1
102
RTVSPost2010Prop29
280
     1
102
RTVSPost2010PropOp29
 70
     1
102
RTVSPost2010Prop30
280
     1
102
RTVSPost2010PropOp30
 70
     1
102
RTVSPost2010Prop31
280
     0
102
RTVSPost2010PropOp31
 70
     1
102
RTVSPost2010Prop32
280
     0
102
RTVSPost2010PropOp32
 70
     1
102
RTVSPost2010Prop33
280
     0
102
RTVSPost2010PropOp33
 70
     1
102
RTVSPost2010Prop34
280
     0
102
RTVSPost2010PropOp34
 70
     1
102
RTVSPost2010Prop35
280
     0
102
RTVSPost2010PropOp35
 70
     1
102
RTVSPost2010Prop36
280
     0
102
RTVSPost2010PropOp36
 70
     1
102
RTVSPost2010Prop37
 90
       50
102
RTVSPost2010PropOp37
 70
     1
102
RTVSPost2010Prop38
140
0.0
102
RTVSPost2010PropOp38
 70
     1
102
RTVSPost2010Prop39
140
1.0
102
RTVSPost2010PropOp39
 70
     1
102
RTVSPost2010Prop40
 90
        0
102
RTVSPost2010PropOp40
 70
     1
102
RTVSPost2010Prop41ColorIndex
 90
       18
102
RTVSPost2010Prop41ColorRGB
 90
        0
102
RTVSPost2010PropOp41
 70
     1
102
RTVSPost2010Prop42
 90
       50
102
RTVSPost2010PropOp42
 70
     1
102
RTVSPost2010Prop43
 90
        3
102
RTVSPost2010PropOp43
 70
     1
102
RTVSPost2010Prop44ColorIndex
 90
        5
102
RTVSPost2010Prop44ColorRGB
 90
      255
102
RTVSPost2010PropOp44
 70
     1
102
RTVSPost2010Prop45
280
     0
102
RTVSPost2010PropOp45
 70
     1
102
RTVSPost2010Prop46
 90
       50
102
RTVSPost2010PropOp46
 70
     1
102
RTVSPost2010Prop47
 90
       50
102
RTVSPost2010PropOp47
 70
     1
102
RTVSPost2010Prop48
 90
       50
102
RTVSPost2010PropOp48
 70
     1
102
RTVSPost2010Prop49
280
     0
102
RTVSPost2010PropOp49
 70
     1
102
RTVSPost2010Prop50
 90
       50
102
RTVSPost2010PropOp50
 70
     1
102
RTVSPost2010Prop51ColorIndex
 90
      256
102
RTVSPost2010Prop51ColorRGB
 90
-16777216
102
RTVSPost2010PropOp51
 70
     0
102
RTVSPost2010Prop52
140
1.0
102
RTVSPost2010PropOp52
 70
     0
102
RTVSPost2010Prop53
 90
        2
102
RTVSPost2010PropOp53
 70
     1
102
RTVSPost2010Prop54
  1
strokes_ogs.tif
102
RTVSPost2010PropOp54
 70
     1
102
RTVSPost2010Prop55
280
     0
102
RTVSPost2010PropOp55
 70
     1
102
RTVSPost2010Prop56
140
1.0
102
RTVSPost2010PropOp56
 70
     1
102
RTVSPost2010Prop57
140
1.0
102
RTVSPost2010PropOp57
 70
     1
  0
XRECORD
  5
2D8
102
{ACAD_REACTORS
330
2D7
102
}
330
2D7
100
AcDbXrecord
280
     1
102
RTVSPropertyOp0
 70
     1
102
RTVSPropertyOp1
 70
     1
102
RTVSPropertyOp2
 70
     1
102
RTVSPropertyOp3
 70
     1
102
RTVSPropertyOp4
 70
     1
102
RTVSPropertyOp5
 70
     1
102
RTVSPropertyOp6
 70
     1
102
RTVSPropertyOp7
 70
     1
102
RTVSPropertyOp8
 70
     1
102
RTVSPropertyOp9
 70
     1
102
RTVSPropertyOp10
 70
     1
102
RTVSPropertyOp11
 70
     1
102
RTVSPropertyOp12
 70
     1
102
RTVSPropertyOp13
 70
     1
102
RTVSPropertyOp14
 70
     1
102
RTVSPropertyOp15
 70
     1
102
RTVSPropertyOp16
 70
     1
102
RTVSPropertyOp17
 70
     1
102
RTVSPropertyOp18
 70
     1
102
RTVSPropertyOp19
 70
     1
102
RTVSPropertyOp20
 70
     1
102
RTVSPropertyOp21
 70
     1
102
RTVSPropertyOp22
 70
     1
102
RTVSPropertyOp23
 70
     1
102
RTVSPropertyOp24
 70
     1
102
RTVSPropertyOp25
 70
     1
102
RTVSPropertyOp26
 70
     1
102
RTVSPropertyOp27
 70
     1
102
RTVSPropertyOp28
 70
     1
102
RTVSPropertyOp29
 70
     1
102
RTVSPropertyOp30
 70
     1
102
RTVSPropertyOp31
 70
     1
102
RTVSPropertyOp32
 70
     1
102
RTVSPropertyOp33
 70
     1
102
RTVSPropertyOp34
 70
     1
102
RTVSPropertyOp35
 70
     1
102
RTVSPropertyOp36
 70
     1
102
RTVSPropertyOp37
 70
     1
102
RTVSPropertyOp38
 70
     1
102
RTVSPropertyOp39
 70
     1
102
RTVSPropertyOp40
 70
     1
102
RTVSPropertyOp41
 70
     1
102
RTVSPropertyOp42
 70
     1
102
RTVSPropertyOp43
 70
     1
102
RTVSPropertyOp44
 70
     1
102
RTVSPropertyOp45
 70
     1
102
RTVSPropertyOp46
 70
     1
102
RTVSPropertyOp47
 70
     1
102
RTVSPropertyOp48
 70
     1
102
RTVSPropertyOp49
 70
     1
102
RTVSPropertyOp50
 70
     1
102
RTVSPropertyOp51
 70
     0
102
RTVSPropertyOp52
 70
     0
102
RTVSPropertyOp53
 70
     1
102
RTVSPropertyOp54
 70
     1
102
RTVSPropertyOp55
 70
     1
102
RTVSPropertyOp56
 70
     1
102
RTVSPropertyOp57
 70
     1
102
RTVSPost2010Prop28
280
     0
102
RTVSPost2010PropOp28
 70
     1
102
RTVSPost2010Prop29
280
     1
102
RTVSPost2010PropOp29
 70
     1
102
RTVSPost2010Prop30
280
     1
102
RTVSPost2010PropOp30
 70
     1
102
RTVSPost2010Prop31
280
     0
102
RTVSPost2010PropOp31
 70
     1
102
RTVSPost2010Prop32
280
     0
102
RTVSPost2010PropOp32
 70
     1
102
RTVSPost2010Prop33
280
     0
102
RTVSPost2010PropOp33
 70
     1
102
RTVSPost2010Prop34
280
     0
102
RTVSPost2010PropOp34
 70
     1
102
RTVSPost2010Prop35
280
     0
102
RTVSPost2010PropOp35
 70
     1
102
RTVSPost2010Prop36
280
     0
102
RTVSPost2010PropOp36
 70
     1
102
RTVSPost2010Prop37
 90
       50
102
RTVSPost2010PropOp37
 70
     1
102
RTVSPost2010Prop38
140
0.0
102
RTVSPost2010PropOp38
 70
     1
102
RTVSPost2010Prop39
140
1.0
102
RTVSPost2010PropOp39
 70
     1
102
RTVSPost2010Prop40
 90
        0
102
RTVSPost2010PropOp40
 70
     1
102
RTVSPost2010Prop41ColorIndex
 90
       18
102
RTVSPost2010Prop41ColorRGB
 90
        0
102
RTVSPost2010PropOp41
 70
     1
102
RTVSPost2010Prop42
 90
       50
102
RTVSPost2010PropOp42
 70
     1
102
RTVSPost2010Prop43
 90
        3
102
RTVSPost2010PropOp43
 70
     1
102
RTVSPost2010Prop44ColorIndex
 90
        5
102
RTVSPost2010Prop44ColorRGB
 90
      255
102
RTVSPost2010PropOp44
 70
     1
102
RTVSPost2010Prop45
280
     0
102
RTVSPost2010PropOp45
 70
     1
102
RTVSPost2010Prop46
 90
       50
102
RTVSPost2010PropOp46
 70
     1
102
RTVSPost2010Prop47
 90
       50
102
RTVSPost2010PropOp47
 70
     1
102
RTVSPost2010Prop48
 90
       50
102
RTVSPost2010PropOp48
 70
     1
102
RTVSPost2010Prop49
280
     0
102
RTVSPost2010PropOp49
 70
     1
102
RTVSPost2010Prop50
 90
       50
102
RTVSPost2010PropOp50
 70
     1
102
RTVSPost2010Prop51ColorIndex
 90
      256
102
RTVSPost2010Prop51ColorRGB
 90
-16777216
102
RTVSPost2010PropOp51
 70
     0
102
RTVSPost2010Prop52
140
1.0
102
RTVSPost2010PropOp52
 70
     0
102
RTVSPost2010Prop53
 90
        2
102
RTVSPost2010PropOp53
 70
     1
102
RTVSPost2010Prop54
  1
strokes_ogs.tif
102
RTVSPost2010PropOp54
 70
     1
102
RTVSPost2010Prop55
280
     0
102
RTVSPost2010PropOp55
 70
     1
102
RTVSPost2010Prop56
140
1.0
102
RTVSPost2010PropOp56
 70
     1
102
RTVSPost2010Prop57
140
1.0
102
RTVSPost2010PropOp57
 70
     1
  0
XRECORD
  5
2DA
102
{ACAD_REACTORS
330
2D9
102
}
330
2D9
100
AcDbXrecord
280
     1
102
RTVSPropertyOp0
 70
     1
102
RTVSPropertyOp1
 70
     1
102
RTVSPropertyOp2
 70
     1
102
RTVSPropertyOp3
 70
     1
102
RTVSPropertyOp4
 70
     1
102
RTVSPropertyOp5
 70
     1
102
RTVSPropertyOp6
 70
     1
102
RTVSPropertyOp7
 70
     1
102
RTVSPropertyOp8
 70
     1
102
RTVSPropertyOp9
 70
     1
102
RTVSPropertyOp10
 70
     1
102
RTVSPropertyOp11
 70
     1
102
RTVSPropertyOp12
 70
     1
102
RTVSPropertyOp13
 70
     1
102
RTVSPropertyOp14
 70
     1
102
RTVSPropertyOp15
 70
     1
102
RTVSPropertyOp16
 70
     1
102
RTVSPropertyOp17
 70
     1
102
RTVSPropertyOp18
 70
     1
102
RTVSPropertyOp19
 70
     1
102
RTVSPropertyOp20
 70
     1
102
RTVSPropertyOp21
 70
     1
102
RTVSPropertyOp22
 70
     1
102
RTVSPropertyOp23
 70
     1
102
RTVSPropertyOp24
 70
     1
102
RTVSPropertyOp25
 70
     1
102
RTVSPropertyOp26
 70
     1
102
RTVSPropertyOp27
 70
     1
102
RTVSPropertyOp28
 70
     1
102
RTVSPropertyOp29
 70
     1
102
RTVSPropertyOp30
 70
     1
102
RTVSPropertyOp31
 70
     1
102
RTVSPropertyOp32
 70
     1
102
RTVSPropertyOp33
 70
     1
102
RTVSPropertyOp34
 70
     1
102
RTVSPropertyOp35
 70
     1
102
RTVSPropertyOp36
 70
     1
102
RTVSPropertyOp37
 70
     1
102
RTVSPropertyOp38
 70
     1
102
RTVSPropertyOp39
 70
     1
102
RTVSPropertyOp40
 70
     1
102
RTVSPropertyOp41
 70
     1
102
RTVSPropertyOp42
 70
     1
102
RTVSPropertyOp43
 70
     1
102
RTVSPropertyOp44
 70
     1
102
RTVSPropertyOp45
 70
     1
102
RTVSPropertyOp46
 70
     1
102
RTVSPropertyOp47
 70
     1
102
RTVSPropertyOp48
 70
     1
102
RTVSPropertyOp49
 70
     1
102
RTVSPropertyOp50
 70
     1
102
RTVSPropertyOp51
 70
     0
102
RTVSPropertyOp52
 70
     0
102
RTVSPropertyOp53
 70
     1
102
RTVSPropertyOp54
 70
     1
102
RTVSPropertyOp55
 70
     1
102
RTVSPropertyOp56
 70
     1
102
RTVSPropertyOp57
 70
     1
102
RTVSPost2010Prop28
280
     0
102
RTVSPost2010PropOp28
 70
     1
102
RTVSPost2010Prop29
280
     1
102
RTVSPost2010PropOp29
 70
     1
102
RTVSPost2010Prop30
280
     1
102
RTVSPost2010PropOp30
 70
     1
102
RTVSPost2010Prop31
280
     0
102
RTVSPost2010PropOp31
 70
     1
102
RTVSPost2010Prop32
280
     0
102
RTVSPost2010PropOp32
 70
     1
102
RTVSPost2010Prop33
280
     0
102
RTVSPost2010PropOp33
 70
     1
102
RTVSPost2010Prop34
280
     0
102
RTVSPost2010PropOp34
 70
     1
102
RTVSPost2010Prop35
280
     0
102
RTVSPost2010PropOp35
 70
     1
102
RTVSPost2010Prop36
280
     0
102
RTVSPost2010PropOp36
 70
     1
102
RTVSPost2010Prop37
 90
       50
102
RTVSPost2010PropOp37
 70
     1
102
RTVSPost2010Prop38
140
0.0
102
RTVSPost2010PropOp38
 70
     1
102
RTVSPost2010Prop39
140
1.0
102
RTVSPost2010PropOp39
 70
     1
102
RTVSPost2010Prop40
 90
        0
102
RTVSPost2010PropOp40
 70
     1
102
RTVSPost2010Prop41ColorIndex
 90
       18
102
RTVSPost2010Prop41ColorRGB
 90
        0
102
RTVSPost2010PropOp41
 70
     1
102
RTVSPost2010Prop42
 90
       50
102
RTVSPost2010PropOp42
 70
     1
102
RTVSPost2010Prop43
 90
        3
102
RTVSPost2010PropOp43
 70
     1
102
RTVSPost2010Prop44ColorIndex
 90
        5
102
RTVSPost2010Prop44ColorRGB
 90
      255
102
RTVSPost2010PropOp44
 70
     1
102
RTVSPost2010Prop45
280
     0
102
RTVSPost2010PropOp45
 70
     1
102
RTVSPost2010Prop46
 90
       50
102
RTVSPost2010PropOp46
 70
     1
102
RTVSPost2010Prop47
 90
       50
102
RTVSPost2010PropOp47
 70
     1
102
RTVSPost2010Prop48
 90
       50
102
RTVSPost2010PropOp48
 70
     1
102
RTVSPost2010Prop49
280
     0
102
RTVSPost2010PropOp49
 70
     1
102
RTVSPost2010Prop50
 90
       50
102
RTVSPost2010PropOp50
 70
     1
102
RTVSPost2010Prop51ColorIndex
 90
      256
102
RTVSPost2010Prop51ColorRGB
 90
-16777216
102
RTVSPost2010PropOp51
 70
     0
102
RTVSPost2010Prop52
140
1.0
102
RTVSPost2010PropOp52
 70
     0
102
RTVSPost2010Prop53
 90
        2
102
RTVSPost2010PropOp53
 70
     1
102
RTVSPost2010Prop54
  1
strokes_ogs.tif
102
RTVSPost2010PropOp54
 70
     1
102
RTVSPost2010Prop55
280
     0
102
RTVSPost2010PropOp55
 70
     1
102
RTVSPost2010Prop56
140
1.0
102
RTVSPost2010PropOp56
 70
     1
102
RTVSPost2010Prop57
140
1.0
102
RTVSPost2010PropOp57
 70
     1
  0
XRECORD
  5
2EA
102
{ACAD_REACTORS
330
2E9
102
}
330
2E9
100
AcDbXrecord
280
     1
102
RTVSPropertyOp0
 70
     0
102
RTVSPropertyOp1
 70
     0
102
RTVSPropertyOp2
 70
     0
102
RTVSPropertyOp3
 70
     0
102
RTVSPropertyOp4
 70
     0
102
RTVSPropertyOp5
 70
     0
102
RTVSPropertyOp6
 70
     0
102
RTVSPropertyOp7
 70
     0
102
RTVSPropertyOp8
 70
     0
102
RTVSPropertyOp9
 70
     0
102
RTVSPropertyOp10
 70
     0
102
RTVSPropertyOp11
 70
     0
102
RTVSPropertyOp12
 70
     0
102
RTVSPropertyOp13
 70
     0
102
RTVSPropertyOp14
 70
     2
102
RTVSPropertyOp15
 70
     0
102
RTVSPropertyOp16
 70
     0
102
RTVSPropertyOp17
 70
     0
102
RTVSPropertyOp18
 70
     0
102
RTVSPropertyOp19
 70
     0
102
RTVSPropertyOp20
 70
     0
102
RTVSPropertyOp21
 70
     0
102
RTVSPropertyOp22
 70
     0
102
RTVSPropertyOp23
 70
     0
102
RTVSPropertyOp24
 70
     0
102
RTVSPropertyOp25
 70
     0
102
RTVSPropertyOp26
 70
     0
102
RTVSPropertyOp27
 70
     0
102
RTVSPropertyOp28
 70
     0
102
RTVSPropertyOp29
 70
     0
102
RTVSPropertyOp30
 70
     0
102
RTVSPropertyOp31
 70
     0
102
RTVSPropertyOp32
 70
     0
102
RTVSPropertyOp33
 70
     0
102
RTVSPropertyOp34
 70
     0
102
RTVSPropertyOp35
 70
     0
102
RTVSPropertyOp36
 70
     0
102
RTVSPropertyOp37
 70
     0
102
RTVSPropertyOp38
 70
     0
102
RTVSPropertyOp39
 70
     0
102
RTVSPropertyOp40
 70
     0
102
RTVSPropertyOp41
 70
     0
102
RTVSPropertyOp42
 70
     0
102
RTVSPropertyOp43
 70
     0
102
RTVSPropertyOp44
 70
     0
102
RTVSPropertyOp45
 70
     0
102
RTVSPropertyOp46
 70
     0
102
RTVSPropertyOp47
 70
     0
102
RTVSPropertyOp48
 70
     0
102
RTVSPropertyOp49
 70
     0
102
RTVSPropertyOp50
 70
     0
102
RTVSPropertyOp51
 70
     0
102
RTVSPropertyOp52
 70
     0
102
RTVSPropertyOp53
 70
     0
102
RTVSPropertyOp54
 70
     0
102
RTVSPropertyOp55
 70
     0
102
RTVSPropertyOp56
 70
     0
102
RTVSPropertyOp57
 70
     0
102
RTVSPost2010Prop28
280
     0
102
RTVSPost2010PropOp28
 70
     0
102
RTVSPost2010Prop29
280
     1
102
RTVSPost2010PropOp29
 70
     0
102
RTVSPost2010Prop30
280
     1
102
RTVSPost2010PropOp30
 70
     0
102
RTVSPost2010Prop31
280
     0
102
RTVSPost2010PropOp31
 70
     0
102
RTVSPost2010Prop32
280
     0
102
RTVSPost2010PropOp32
 70
     0
102
RTVSPost2010Prop33
280
     0
102
RTVSPost2010PropOp33
 70
     0
102
RTVSPost2010Prop34
280
     0
102
RTVSPost2010PropOp34
 70
     0
102
RTVSPost2010Prop35
280
     0
102
RTVSPost2010PropOp35
 70
     0
102
RTVSPost2010Prop36
280
     0
102
RTVSPost2010PropOp36
 70
     0
102
RTVSPost2010Prop37
 90
       50
102
RTVSPost2010PropOp37
 70
     0
102
RTVSPost2010Prop38
140
0.0
102
RTVSPost2010PropOp38
 70
     0
102
RTVSPost2010Prop39
140
1.0
102
RTVSPost2010PropOp39
 70
     0
102
RTVSPost2010Prop40
 90
        0
102
RTVSPost2010PropOp40
 70
     0
102
RTVSPost2010Prop41ColorIndex
 90
       18
102
RTVSPost2010Prop41ColorRGB
 90
        0
102
RTVSPost2010PropOp41
 70
     0
102
RTVSPost2010Prop42
 90
       50
102
RTVSPost2010PropOp42
 70
     0
102
RTVSPost2010Prop43
 90
        3
102
RTVSPost2010PropOp43
 70
     0
102
RTVSPost2010Prop44ColorIndex
 90
        5
102
RTVSPost2010Prop44ColorRGB
 90
      255
102
RTVSPost2010PropOp44
 70
     0
102
RTVSPost2010Prop45
280
     0
102
RTVSPost2010PropOp45
 70
     0
102
RTVSPost2010Prop46
 90
       50
102
RTVSPost2010PropOp46
 70
     0
102
RTVSPost2010Prop47
 90
       50
102
RTVSPost2010PropOp47
 70
     0
102
RTVSPost2010Prop48
 90
       50
102
RTVSPost2010PropOp48
 70
     0
102
RTVSPost2010Prop49
280
     0
102
RTVSPost2010PropOp49
 70
     0
102
RTVSPost2010Prop50
 90
       50
102
RTVSPost2010PropOp50
 70
     0
102
RTVSPost2010Prop51ColorIndex
 90
      256
102
RTVSPost2010Prop51ColorRGB
 90
-16777216
102
RTVSPost2010PropOp51
 70
     0
102
RTVSPost2010Prop52
140
1.0
102
RTVSPost2010PropOp52
 70
     0
102
RTVSPost2010Prop53
 90
        2
102
RTVSPost2010PropOp53
 70
     0
102
RTVSPost2010Prop54
  1
strokes_ogs.tif
102
RTVSPost2010PropOp54
 70
     0
102
RTVSPost2010Prop55
280
     0
102
RTVSPost2010PropOp55
 70
     0
102
RTVSPost2010Prop56
140
1.0
102
RTVSPost2010PropOp56
 70
     0
102
RTVSPost2010Prop57
140
1.0
102
RTVSPost2010PropOp57
 70
     0
  0
XRECORD
  5
2E2
102
{ACAD_REACTORS
330
2E1
102
}
330
2E1
100
AcDbXrecord
280
     1
102
RTVSPropertyOp0
 70
     1
102
RTVSPropertyOp1
 70
     1
102
RTVSPropertyOp2
 70
     1
102
RTVSPropertyOp3
 70
     1
102
RTVSPropertyOp4
 70
     1
102
RTVSPropertyOp5
 70
     1
102
RTVSPropertyOp6
 70
     1
102
RTVSPropertyOp7
 70
     1
102
RTVSPropertyOp8
 70
     1
102
RTVSPropertyOp9
 70
     1
102
RTVSPropertyOp10
 70
     1
102
RTVSPropertyOp11
 70
     1
102
RTVSPropertyOp12
 70
     1
102
RTVSPropertyOp13
 70
     1
102
RTVSPropertyOp14
 70
     1
102
RTVSPropertyOp15
 70
     1
102
RTVSPropertyOp16
 70
     1
102
RTVSPropertyOp17
 70
     1
102
RTVSPropertyOp18
 70
     1
102
RTVSPropertyOp19
 70
     1
102
RTVSPropertyOp20
 70
     1
102
RTVSPropertyOp21
 70
     1
102
RTVSPropertyOp22
 70
     1
102
RTVSPropertyOp23
 70
     1
102
RTVSPropertyOp24
 70
     1
102
RTVSPropertyOp25
 70
     1
102
RTVSPropertyOp26
 70
     1
102
RTVSPropertyOp27
 70
     1
102
RTVSPropertyOp28
 70
     1
102
RTVSPropertyOp29
 70
     1
102
RTVSPropertyOp30
 70
     1
102
RTVSPropertyOp31
 70
     1
102
RTVSPropertyOp32
 70
     1
102
RTVSPropertyOp33
 70
     1
102
RTVSPropertyOp34
 70
     1
102
RTVSPropertyOp35
 70
     1
102
RTVSPropertyOp36
 70
     1
102
RTVSPropertyOp37
 70
     1
102
RTVSPropertyOp38
 70
     1
102
RTVSPropertyOp39
 70
     1
102
RTVSPropertyOp40
 70
     1
102
RTVSPropertyOp41
 70
     1
102
RTVSPropertyOp42
 70
     1
102
RTVSPropertyOp43
 70
     1
102
RTVSPropertyOp44
 70
     1
102
RTVSPropertyOp45
 70
     1
102
RTVSPropertyOp46
 70
     1
102
RTVSPropertyOp47
 70
     1
102
RTVSPropertyOp48
 70
     1
102
RTVSPropertyOp49
 70
     1
102
RTVSPropertyOp50
 70
     1
102
RTVSPropertyOp51
 70
     0
102
RTVSPropertyOp52
 70
     0
102
RTVSPropertyOp53
 70
     1
102
RTVSPropertyOp54
 70
     1
102
RTVSPropertyOp55
 70
     1
102
RTVSPropertyOp56
 70
     1
102
RTVSPropertyOp57
 70
     1
102
RTVSPost2010Prop28
280
     0
102
RTVSPost2010PropOp28
 70
     1
102
RTVSPost2010Prop29
280
     1
102
RTVSPost2010PropOp29
 70
     1
102
RTVSPost2010Prop30
280
     1
102
RTVSPost2010PropOp30
 70
     1
102
RTVSPost2010Prop31
280
     0
102
RTVSPost2010PropOp31
 70
     1
102
RTVSPost2010Prop32
280
     0
102
RTVSPost2010PropOp32
 70
     1
102
RTVSPost2010Prop33
280
     0
102
RTVSPost2010PropOp33
 70
     1
102
RTVSPost2010Prop34
280
     0
102
RTVSPost2010PropOp34
 70
     1
102
RTVSPost2010Prop35
280
     0
102
RTVSPost2010PropOp35
 70
     1
102
RTVSPost2010Prop36
280
     0
102
RTVSPost2010PropOp36
 70
     1
102
RTVSPost2010Prop37
 90
       50
102
RTVSPost2010PropOp37
 70
     1
102
RTVSPost2010Prop38
140
0.0
102
RTVSPost2010PropOp38
 70
     1
102
RTVSPost2010Prop39
140
1.0
102
RTVSPost2010PropOp39
 70
     1
102
RTVSPost2010Prop40
 90
        0
102
RTVSPost2010PropOp40
 70
     1
102
RTVSPost2010Prop41ColorIndex
 90
       18
102
RTVSPost2010Prop41ColorRGB
 90
        0
102
RTVSPost2010PropOp41
 70
     1
102
RTVSPost2010Prop42
 90
       50
102
RTVSPost2010PropOp42
 70
     1
102
RTVSPost2010Prop43
 90
        3
102
RTVSPost2010PropOp43
 70
     1
102
RTVSPost2010Prop44ColorIndex
 90
        5
102
RTVSPost2010Prop44ColorRGB
 90
      255
102
RTVSPost2010PropOp44
 70
     1
102
RTVSPost2010Prop45
280
     0
102
RTVSPost2010PropOp45
 70
     1
102
RTVSPost2010Prop46
 90
       50
102
RTVSPost2010PropOp46
 70
     1
102
RTVSPost2010Prop47
 90
       50
102
RTVSPost2010PropOp47
 70
     1
102
RTVSPost2010Prop48
 90
       50
102
RTVSPost2010PropOp48
 70
     1
102
RTVSPost2010Prop49
280
     0
102
RTVSPost2010PropOp49
 70
     1
102
RTVSPost2010Prop50
 90
       50
102
RTVSPost2010PropOp50
 70
     1
102
RTVSPost2010Prop51ColorIndex
 90
      256
102
RTVSPost2010Prop51ColorRGB
 90
-16777216
102
RTVSPost2010PropOp51
 70
     0
102
RTVSPost2010Prop52
140
1.0
102
RTVSPost2010PropOp52
 70
     0
102
RTVSPost2010Prop53
 90
        2
102
RTVSPost2010PropOp53
 70
     1
102
RTVSPost2010Prop54
  1
strokes_ogs.tif
102
RTVSPost2010PropOp54
 70
     1
102
RTVSPost2010Prop55
280
     0
102
RTVSPost2010PropOp55
 70
     1
102
RTVSPost2010Prop56
140
1.0
102
RTVSPost2010PropOp56
 70
     1
102
RTVSPost2010Prop57
140
1.0
102
RTVSPost2010PropOp57
 70
     1
  0
XRECORD
  5
2C6
102
{ACAD_REACTORS
330
2C5
102
}
330
2C5
100
AcDbXrecord
280
     1
102
RTVSPropertyOp0
 70
     1
102
RTVSPropertyOp1
 70
     1
102
RTVSPropertyOp2
 70
     1
102
RTVSPropertyOp3
 70
     1
102
RTVSPropertyOp4
 70
     1
102
RTVSPropertyOp5
 70
     1
102
RTVSPropertyOp6
 70
     1
102
RTVSPropertyOp7
 70
     1
102
RTVSPropertyOp8
 70
     1
102
RTVSPropertyOp9
 70
     1
102
RTVSPropertyOp10
 70
     1
102
RTVSPropertyOp11
 70
     1
102
RTVSPropertyOp12
 70
     1
102
RTVSPropertyOp13
 70
     1
102
RTVSPropertyOp14
 70
     1
102
RTVSPropertyOp15
 70
     1
102
RTVSPropertyOp16
 70
     1
102
RTVSPropertyOp17
 70
     1
102
RTVSPropertyOp18
 70
     1
102
RTVSPropertyOp19
 70
     1
102
RTVSPropertyOp20
 70
     1
102
RTVSPropertyOp21
 70
     1
102
RTVSPropertyOp22
 70
     1
102
RTVSPropertyOp23
 70
     1
102
RTVSPropertyOp24
 70
     1
102
RTVSPropertyOp25
 70
     1
102
RTVSPropertyOp26
 70
     1
102
RTVSPropertyOp27
 70
     1
102
RTVSPropertyOp28
 70
     1
102
RTVSPropertyOp29
 70
     1
102
RTVSPropertyOp30
 70
     1
102
RTVSPropertyOp31
 70
     1
102
RTVSPropertyOp32
 70
     1
102
RTVSPropertyOp33
 70
     1
102
RTVSPropertyOp34
 70
     1
102
RTVSPropertyOp35
 70
     1
102
RTVSPropertyOp36
 70
     1
102
RTVSPropertyOp37
 70
     1
102
RTVSPropertyOp38
 70
     1
102
RTVSPropertyOp39
 70
     1
102
RTVSPropertyOp40
 70
     1
102
RTVSPropertyOp41
 70
     1
102
RTVSPropertyOp42
 70
     1
102
RTVSPropertyOp43
 70
     1
102
RTVSPropertyOp44
 70
     1
102
RTVSPropertyOp45
 70
     1
102
RTVSPropertyOp46
 70
     1
102
RTVSPropertyOp47
 70
     1
102
RTVSPropertyOp48
 70
     1
102
RTVSPropertyOp49
 70
     1
102
RTVSPropertyOp50
 70
     1
102
RTVSPropertyOp51
 70
     0
102
RTVSPropertyOp52
 70
     0
102
RTVSPropertyOp53
 70
     1
102
RTVSPropertyOp54
 70
     1
102
RTVSPropertyOp55
 70
     1
102
RTVSPropertyOp56
 70
     1
102
RTVSPropertyOp57
 70
     1
102
RTVSPost2010Prop28
280
     0
102
RTVSPost2010PropOp28
 70
     1
102
RTVSPost2010Prop29
280
     1
102
RTVSPost2010PropOp29
 70
     1
102
RTVSPost2010Prop30
280
     1
102
RTVSPost2010PropOp30
 70
     1
102
RTVSPost2010Prop31
280
     0
102
RTVSPost2010PropOp31
 70
     1
102
RTVSPost2010Prop32
280
     0
102
RTVSPost2010PropOp32
 70
     1
102
RTVSPost2010Prop33
280
     0
102
RTVSPost2010PropOp33
 70
     1
102
RTVSPost2010Prop34
280
     0
102
RTVSPost2010PropOp34
 70
     1
102
RTVSPost2010Prop35
280
     0
102
RTVSPost2010PropOp35
 70
     1
102
RTVSPost2010Prop36
280
     0
102
RTVSPost2010PropOp36
 70
     1
102
RTVSPost2010Prop37
 90
       50
102
RTVSPost2010PropOp37
 70
     1
102
RTVSPost2010Prop38
140
0.0
102
RTVSPost2010PropOp38
 70
     1
102
RTVSPost2010Prop39
140
1.0
102
RTVSPost2010PropOp39
 70
     1
102
RTVSPost2010Prop40
 90
        0
102
RTVSPost2010PropOp40
 70
     1
102
RTVSPost2010Prop41ColorIndex
 90
       18
102
RTVSPost2010Prop41ColorRGB
 90
        0
102
RTVSPost2010PropOp41
 70
     1
102
RTVSPost2010Prop42
 90
       50
102
RTVSPost2010PropOp42
 70
     1
102
RTVSPost2010Prop43
 90
        3
102
RTVSPost2010PropOp43
 70
     1
102
RTVSPost2010Prop44ColorIndex
 90
        5
102
RTVSPost2010Prop44ColorRGB
 90
      255
102
RTVSPost2010PropOp44
 70
     1
102
RTVSPost2010Prop45
280
     0
102
RTVSPost2010PropOp45
 70
     1
102
RTVSPost2010Prop46
 90
       50
102
RTVSPost2010PropOp46
 70
     1
102
RTVSPost2010Prop47
 90
       50
102
RTVSPost2010PropOp47
 70
     1
102
RTVSPost2010Prop48
 90
       50
102
RTVSPost2010PropOp48
 70
     1
102
RTVSPost2010Prop49
280
     0
102
RTVSPost2010PropOp49
 70
     1
102
RTVSPost2010Prop50
 90
       50
102
RTVSPost2010PropOp50
 70
     1
102
RTVSPost2010Prop51ColorIndex
 90
      256
102
RTVSPost2010Prop51ColorRGB
 90
-16777216
102
RTVSPost2010PropOp51
 70
     0
102
RTVSPost2010Prop52
140
1.0
102
RTVSPost2010PropOp52
 70
     0
102
RTVSPost2010Prop53
 90
        2
102
RTVSPost2010PropOp53
 70
     1
102
RTVSPost2010Prop54
  1
strokes_ogs.tif
102
RTVSPost2010PropOp54
 70
     1
102
RTVSPost2010Prop55
280
     0
102
RTVSPost2010PropOp55
 70
     1
102
RTVSPost2010Prop56
140
1.0
102
RTVSPost2010PropOp56
 70
     1
102
RTVSPost2010Prop57
140
1.0
102
RTVSPost2010PropOp57
 70
     1
  0
XRECORD
  5
2C8
102
{ACAD_REACTORS
330
2C7
102
}
330
2C7
100
AcDbXrecord
280
     1
102
RTVSPropertyOp0
 70
     1
102
RTVSPropertyOp1
 70
     1
102
RTVSPropertyOp2
 70
     1
102
RTVSPropertyOp3
 70
     1
102
RTVSPropertyOp4
 70
     1
102
RTVSPropertyOp5
 70
     1
102
RTVSPropertyOp6
 70
     1
102
RTVSPropertyOp7
 70
     1
102
RTVSPropertyOp8
 70
     1
102
RTVSPropertyOp9
 70
     1
102
RTVSPropertyOp10
 70
     1
102
RTVSPropertyOp11
 70
     1
102
RTVSPropertyOp12
 70
     1
102
RTVSPropertyOp13
 70
     1
102
RTVSPropertyOp14
 70
     1
102
RTVSPropertyOp15
 70
     1
102
RTVSPropertyOp16
 70
     1
102
RTVSPropertyOp17
 70
     1
102
RTVSPropertyOp18
 70
     1
102
RTVSPropertyOp19
 70
     1
102
RTVSPropertyOp20
 70
     1
102
RTVSPropertyOp21
 70
     1
102
RTVSPropertyOp22
 70
     1
102
RTVSPropertyOp23
 70
     1
102
RTVSPropertyOp24
 70
     1
102
RTVSPropertyOp25
 70
     1
102
RTVSPropertyOp26
 70
     1
102
RTVSPropertyOp27
 70
     1
102
RTVSPropertyOp28
 70
     1
102
RTVSPropertyOp29
 70
     1
102
RTVSPropertyOp30
 70
     1
102
RTVSPropertyOp31
 70
     1
102
RTVSPropertyOp32
 70
     1
102
RTVSPropertyOp33
 70
     1
102
RTVSPropertyOp34
 70
     1
102
RTVSPropertyOp35
 70
     1
102
RTVSPropertyOp36
 70
     1
102
RTVSPropertyOp37
 70
     1
102
RTVSPropertyOp38
 70
     1
102
RTVSPropertyOp39
 70
     1
102
RTVSPropertyOp40
 70
     1
102
RTVSPropertyOp41
 70
     1
102
RTVSPropertyOp42
 70
     1
102
RTVSPropertyOp43
 70
     1
102
RTVSPropertyOp44
 70
     1
102
RTVSPropertyOp45
 70
     1
102
RTVSPropertyOp46
 70
     1
102
RTVSPropertyOp47
 70
     1
102
RTVSPropertyOp48
 70
     1
102
RTVSPropertyOp49
 70
     1
102
RTVSPropertyOp50
 70
     1
102
RTVSPropertyOp51
 70
     0
102
RTVSPropertyOp52
 70
     0
102
RTVSPropertyOp53
 70
     1
102
RTVSPropertyOp54
 70
     1
102
RTVSPropertyOp55
 70
     1
102
RTVSPropertyOp56
 70
     1
102
RTVSPropertyOp57
 70
     1
102
RTVSPost2010Prop28
280
     0
102
RTVSPost2010PropOp28
 70
     1
102
RTVSPost2010Prop29
280
     1
102
RTVSPost2010PropOp29
 70
     1
102
RTVSPost2010Prop30
280
     1
102
RTVSPost2010PropOp30
 70
     1
102
RTVSPost2010Prop31
280
     0
102
RTVSPost2010PropOp31
 70
     1
102
RTVSPost2010Prop32
280
     0
102
RTVSPost2010PropOp32
 70
     1
102
RTVSPost2010Prop33
280
     0
102
RTVSPost2010PropOp33
 70
     1
102
RTVSPost2010Prop34
280
     0
102
RTVSPost2010PropOp34
 70
     1
102
RTVSPost2010Prop35
280
     0
102
RTVSPost2010PropOp35
 70
     1
102
RTVSPost2010Prop36
280
     0
102
RTVSPost2010PropOp36
 70
     1
102
RTVSPost2010Prop37
 90
       50
102
RTVSPost2010PropOp37
 70
     1
102
RTVSPost2010Prop38
140
0.0
102
RTVSPost2010PropOp38
 70
     1
102
RTVSPost2010Prop39
140
1.0
102
RTVSPost2010PropOp39
 70
     1
102
RTVSPost2010Prop40
 90
        0
102
RTVSPost2010PropOp40
 70
     1
102
RTVSPost2010Prop41ColorIndex
 90
       18
102
RTVSPost2010Prop41ColorRGB
 90
        0
102
RTVSPost2010PropOp41
 70
     1
102
RTVSPost2010Prop42
 90
       50
102
RTVSPost2010PropOp42
 70
     1
102
RTVSPost2010Prop43
 90
        3
102
RTVSPost2010PropOp43
 70
     1
102
RTVSPost2010Prop44ColorIndex
 90
        5
102
RTVSPost2010Prop44ColorRGB
 90
      255
102
RTVSPost2010PropOp44
 70
     1
102
RTVSPost2010Prop45
280
     0
102
RTVSPost2010PropOp45
 70
     1
102
RTVSPost2010Prop46
 90
       50
102
RTVSPost2010PropOp46
 70
     1
102
RTVSPost2010Prop47
 90
       50
102
RTVSPost2010PropOp47
 70
     1
102
RTVSPost2010Prop48
 90
       50
102
RTVSPost2010PropOp48
 70
     1
102
RTVSPost2010Prop49
280
     0
102
RTVSPost2010PropOp49
 70
     1
102
RTVSPost2010Prop50
 90
       50
102
RTVSPost2010PropOp50
 70
     1
102
RTVSPost2010Prop51ColorIndex
 90
      256
102
RTVSPost2010Prop51ColorRGB
 90
-16777216
102
RTVSPost2010PropOp51
 70
     0
102
RTVSPost2010Prop52
140
1.0
102
RTVSPost2010PropOp52
 70
     0
102
RTVSPost2010Prop53
 90
        2
102
RTVSPost2010PropOp53
 70
     1
102
RTVSPost2010Prop54
  1
strokes_ogs.tif
102
RTVSPost2010PropOp54
 70
     1
102
RTVSPost2010Prop55
280
     0
102
RTVSPost2010PropOp55
 70
     1
102
RTVSPost2010Prop56
140
1.0
102
RTVSPost2010PropOp56
 70
     1
102
RTVSPost2010Prop57
140
1.0
102
RTVSPost2010PropOp57
 70
     1
  0
XRECORD
  5
2CA
102
{ACAD_REACTORS
330
2C9
102
}
330
2C9
100
AcDbXrecord
280
     1
102
RTVSPropertyOp0
 70
     1
102
RTVSPropertyOp1
 70
     1
102
RTVSPropertyOp2
 70
     1
102
RTVSPropertyOp3
 70
     1
102
RTVSPropertyOp4
 70
     1
102
RTVSPropertyOp5
 70
     1
102
RTVSPropertyOp6
 70
     1
102
RTVSPropertyOp7
 70
     1
102
RTVSPropertyOp8
 70
     1
102
RTVSPropertyOp9
 70
     1
102
RTVSPropertyOp10
 70
     1
102
RTVSPropertyOp11
 70
     1
102
RTVSPropertyOp12
 70
     1
102
RTVSPropertyOp13
 70
     1
102
RTVSPropertyOp14
 70
     1
102
RTVSPropertyOp15
 70
     1
102
RTVSPropertyOp16
 70
     1
102
RTVSPropertyOp17
 70
     1
102
RTVSPropertyOp18
 70
     1
102
RTVSPropertyOp19
 70
     1
102
RTVSPropertyOp20
 70
     1
102
RTVSPropertyOp21
 70
     1
102
RTVSPropertyOp22
 70
     1
102
RTVSPropertyOp23
 70
     1
102
RTVSPropertyOp24
 70
     1
102
RTVSPropertyOp25
 70
     1
102
RTVSPropertyOp26
 70
     1
102
RTVSPropertyOp27
 70
     1
102
RTVSPropertyOp28
 70
     1
102
RTVSPropertyOp29
 70
     1
102
RTVSPropertyOp30
 70
     1
102
RTVSPropertyOp31
 70
     1
102
RTVSPropertyOp32
 70
     1
102
RTVSPropertyOp33
 70
     1
102
RTVSPropertyOp34
 70
     1
102
RTVSPropertyOp35
 70
     1
102
RTVSPropertyOp36
 70
     1
102
RTVSPropertyOp37
 70
     1
102
RTVSPropertyOp38
 70
     1
102
RTVSPropertyOp39
 70
     1
102
RTVSPropertyOp40
 70
     1
102
RTVSPropertyOp41
 70
     1
102
RTVSPropertyOp42
 70
     1
102
RTVSPropertyOp43
 70
     1
102
RTVSPropertyOp44
 70
     1
102
RTVSPropertyOp45
 70
     1
102
RTVSPropertyOp46
 70
     1
102
RTVSPropertyOp47
 70
     1
102
RTVSPropertyOp48
 70
     1
102
RTVSPropertyOp49
 70
     1
102
RTVSPropertyOp50
 70
     1
102
RTVSPropertyOp51
 70
     0
102
RTVSPropertyOp52
 70
     0
102
RTVSPropertyOp53
 70
     1
102
RTVSPropertyOp54
 70
     1
102
RTVSPropertyOp55
 70
     1
102
RTVSPropertyOp56
 70
     1
102
RTVSPropertyOp57
 70
     1
102
RTVSPost2010Prop28
280
     0
102
RTVSPost2010PropOp28
 70
     1
102
RTVSPost2010Prop29
280
     1
102
RTVSPost2010PropOp29
 70
     1
102
RTVSPost2010Prop30
280
     1
102
RTVSPost2010PropOp30
 70
     1
102
RTVSPost2010Prop31
280
     0
102
RTVSPost2010PropOp31
 70
     1
102
RTVSPost2010Prop32
280
     0
102
RTVSPost2010PropOp32
 70
     1
102
RTVSPost2010Prop33
280
     0
102
RTVSPost2010PropOp33
 70
     1
102
RTVSPost2010Prop34
280
     0
102
RTVSPost2010PropOp34
 70
     1
102
RTVSPost2010Prop35
280
     0
102
RTVSPost2010PropOp35
 70
     1
102
RTVSPost2010Prop36
280
     0
102
RTVSPost2010PropOp36
 70
     1
102
RTVSPost2010Prop37
 90
       50
102
RTVSPost2010PropOp37
 70
     1
102
RTVSPost2010Prop38
140
0.0
102
RTVSPost2010PropOp38
 70
     1
102
RTVSPost2010Prop39
140
1.0
102
RTVSPost2010PropOp39
 70
     1
102
RTVSPost2010Prop40
 90
        0
102
RTVSPost2010PropOp40
 70
     1
102
RTVSPost2010Prop41ColorIndex
 90
       18
102
RTVSPost2010Prop41ColorRGB
 90
        0
102
RTVSPost2010PropOp41
 70
     1
102
RTVSPost2010Prop42
 90
       50
102
RTVSPost2010PropOp42
 70
     1
102
RTVSPost2010Prop43
 90
        3
102
RTVSPost2010PropOp43
 70
     1
102
RTVSPost2010Prop44ColorIndex
 90
        5
102
RTVSPost2010Prop44ColorRGB
 90
      255
102
RTVSPost2010PropOp44
 70
     1
102
RTVSPost2010Prop45
280
     0
102
RTVSPost2010PropOp45
 70
     1
102
RTVSPost2010Prop46
 90
       50
102
RTVSPost2010PropOp46
 70
     1
102
RTVSPost2010Prop47
 90
       50
102
RTVSPost2010PropOp47
 70
     1
102
RTVSPost2010Prop48
 90
       50
102
RTVSPost2010PropOp48
 70
     1
102
RTVSPost2010Prop49
280
     0
102
RTVSPost2010PropOp49
 70
     1
102
RTVSPost2010Prop50
 90
       50
102
RTVSPost2010PropOp50
 70
     1
102
RTVSPost2010Prop51ColorIndex
 90
      256
102
RTVSPost2010Prop51ColorRGB
 90
-16777216
102
RTVSPost2010PropOp51
 70
     0
102
RTVSPost2010Prop52
140
1.0
102
RTVSPost2010PropOp52
 70
     0
102
RTVSPost2010Prop53
 90
        2
102
RTVSPost2010PropOp53
 70
     1
102
RTVSPost2010Prop54
  1
strokes_ogs.tif
102
RTVSPost2010PropOp54
 70
     1
102
RTVSPost2010Prop55
280
     0
102
RTVSPost2010PropOp55
 70
     1
102
RTVSPost2010Prop56
140
1.0
102
RTVSPost2010PropOp56
 70
     1
102
RTVSPost2010Prop57
140
1.0
102
RTVSPost2010PropOp57
 70
     1
  0
XRECORD
  5
2CC
102
{ACAD_REACTORS
330
2CB
102
}
330
2CB
100
AcDbXrecord
280
     1
102
RTVSPropertyOp0
 70
     1
102
RTVSPropertyOp1
 70
     1
102
RTVSPropertyOp2
 70
     1
102
RTVSPropertyOp3
 70
     1
102
RTVSPropertyOp4
 70
     1
102
RTVSPropertyOp5
 70
     1
102
RTVSPropertyOp6
 70
     1
102
RTVSPropertyOp7
 70
     1
102
RTVSPropertyOp8
 70
     1
102
RTVSPropertyOp9
 70
     1
102
RTVSPropertyOp10
 70
     1
102
RTVSPropertyOp11
 70
     1
102
RTVSPropertyOp12
 70
     1
102
RTVSPropertyOp13
 70
     1
102
RTVSPropertyOp14
 70
     1
102
RTVSPropertyOp15
 70
     1
102
RTVSPropertyOp16
 70
     1
102
RTVSPropertyOp17
 70
     1
102
RTVSPropertyOp18
 70
     1
102
RTVSPropertyOp19
 70
     1
102
RTVSPropertyOp20
 70
     1
102
RTVSPropertyOp21
 70
     1
102
RTVSPropertyOp22
 70
     1
102
RTVSPropertyOp23
 70
     1
102
RTVSPropertyOp24
 70
     1
102
RTVSPropertyOp25
 70
     1
102
RTVSPropertyOp26
 70
     1
102
RTVSPropertyOp27
 70
     1
102
RTVSPropertyOp28
 70
     1
102
RTVSPropertyOp29
 70
     1
102
RTVSPropertyOp30
 70
     1
102
RTVSPropertyOp31
 70
     1
102
RTVSPropertyOp32
 70
     1
102
RTVSPropertyOp33
 70
     1
102
RTVSPropertyOp34
 70
     1
102
RTVSPropertyOp35
 70
     1
102
RTVSPropertyOp36
 70
     1
102
RTVSPropertyOp37
 70
     1
102
RTVSPropertyOp38
 70
     1
102
RTVSPropertyOp39
 70
     1
102
RTVSPropertyOp40
 70
     1
102
RTVSPropertyOp41
 70
     1
102
RTVSPropertyOp42
 70
     1
102
RTVSPropertyOp43
 70
     1
102
RTVSPropertyOp44
 70
     1
102
RTVSPropertyOp45
 70
     1
102
RTVSPropertyOp46
 70
     1
102
RTVSPropertyOp47
 70
     1
102
RTVSPropertyOp48
 70
     1
102
RTVSPropertyOp49
 70
     1
102
RTVSPropertyOp50
 70
     1
102
RTVSPropertyOp51
 70
     0
102
RTVSPropertyOp52
 70
     0
102
RTVSPropertyOp53
 70
     1
102
RTVSPropertyOp54
 70
     1
102
RTVSPropertyOp55
 70
     1
102
RTVSPropertyOp56
 70
     1
102
RTVSPropertyOp57
 70
     1
102
RTVSPost2010Prop28
280
     0
102
RTVSPost2010PropOp28
 70
     1
102
RTVSPost2010Prop29
280
     1
102
RTVSPost2010PropOp29
 70
     1
102
RTVSPost2010Prop30
280
     1
102
RTVSPost2010PropOp30
 70
     1
102
RTVSPost2010Prop31
280
     0
102
RTVSPost2010PropOp31
 70
     1
102
RTVSPost2010Prop32
280
     0
102
RTVSPost2010PropOp32
 70
     1
102
RTVSPost2010Prop33
280
     0
102
RTVSPost2010PropOp33
 70
     1
102
RTVSPost2010Prop34
280
     0
102
RTVSPost2010PropOp34
 70
     1
102
RTVSPost2010Prop35
280
     0
102
RTVSPost2010PropOp35
 70
     1
102
RTVSPost2010Prop36
280
     0
102
RTVSPost2010PropOp36
 70
     1
102
RTVSPost2010Prop37
 90
       50
102
RTVSPost2010PropOp37
 70
     1
102
RTVSPost2010Prop38
140
0.0
102
RTVSPost2010PropOp38
 70
     1
102
RTVSPost2010Prop39
140
1.0
102
RTVSPost2010PropOp39
 70
     1
102
RTVSPost2010Prop40
 90
        0
102
RTVSPost2010PropOp40
 70
     1
102
RTVSPost2010Prop41ColorIndex
 90
       18
102
RTVSPost2010Prop41ColorRGB
 90
        0
102
RTVSPost2010PropOp41
 70
     1
102
RTVSPost2010Prop42
 90
       50
102
RTVSPost2010PropOp42
 70
     1
102
RTVSPost2010Prop43
 90
        3
102
RTVSPost2010PropOp43
 70
     1
102
RTVSPost2010Prop44ColorIndex
 90
        5
102
RTVSPost2010Prop44ColorRGB
 90
      255
102
RTVSPost2010PropOp44
 70
     1
102
RTVSPost2010Prop45
280
     0
102
RTVSPost2010PropOp45
 70
     1
102
RTVSPost2010Prop46
 90
       50
102
RTVSPost2010PropOp46
 70
     1
102
RTVSPost2010Prop47
 90
       50
102
RTVSPost2010PropOp47
 70
     1
102
RTVSPost2010Prop48
 90
       50
102
RTVSPost2010PropOp48
 70
     1
102
RTVSPost2010Prop49
280
     0
102
RTVSPost2010PropOp49
 70
     1
102
RTVSPost2010Prop50
 90
       50
102
RTVSPost2010PropOp50
 70
     1
102
RTVSPost2010Prop51ColorIndex
 90
      256
102
RTVSPost2010Prop51ColorRGB
 90
-16777216
102
RTVSPost2010PropOp51
 70
     0
102
RTVSPost2010Prop52
140
1.0
102
RTVSPost2010PropOp52
 70
     0
102
RTVSPost2010Prop53
 90
        2
102
RTVSPost2010PropOp53
 70
     1
102
RTVSPost2010Prop54
  1
strokes_ogs.tif
102
RTVSPost2010PropOp54
 70
     1
102
RTVSPost2010Prop55
280
     0
102
RTVSPost2010PropOp55
 70
     1
102
RTVSPost2010Prop56
140
1.0
102
RTVSPost2010PropOp56
 70
     1
102
RTVSPost2010Prop57
140
1.0
102
RTVSPost2010PropOp57
 70
     1
  0
XRECORD
  5
2D2
102
{ACAD_REACTORS
330
2D1
102
}
330
2D1
100
AcDbXrecord
280
     1
102
RTVSPropertyOp0
 70
     1
102
RTVSPropertyOp1
 70
     1
102
RTVSPropertyOp2
 70
     1
102
RTVSPropertyOp3
 70
     1
102
RTVSPropertyOp4
 70
     1
102
RTVSPropertyOp5
 70
     1
102
RTVSPropertyOp6
 70
     1
102
RTVSPropertyOp7
 70
     1
102
RTVSPropertyOp8
 70
     1
102
RTVSPropertyOp9
 70
     1
102
RTVSPropertyOp10
 70
     1
102
RTVSPropertyOp11
 70
     1
102
RTVSPropertyOp12
 70
     1
102
RTVSPropertyOp13
 70
     1
102
RTVSPropertyOp14
 70
     1
102
RTVSPropertyOp15
 70
     1
102
RTVSPropertyOp16
 70
     1
102
RTVSPropertyOp17
 70
     1
102
RTVSPropertyOp18
 70
     1
102
RTVSPropertyOp19
 70
     1
102
RTVSPropertyOp20
 70
     1
102
RTVSPropertyOp21
 70
     1
102
RTVSPropertyOp22
 70
     1
102
RTVSPropertyOp23
 70
     1
102
RTVSPropertyOp24
 70
     1
102
RTVSPropertyOp25
 70
     1
102
RTVSPropertyOp26
 70
     1
102
RTVSPropertyOp27
 70
     1
102
RTVSPropertyOp28
 70
     1
102
RTVSPropertyOp29
 70
     1
102
RTVSPropertyOp30
 70
     1
102
RTVSPropertyOp31
 70
     1
102
RTVSPropertyOp32
 70
     1
102
RTVSPropertyOp33
 70
     1
102
RTVSPropertyOp34
 70
     1
102
RTVSPropertyOp35
 70
     1
102
RTVSPropertyOp36
 70
     1
102
RTVSPropertyOp37
 70
     1
102
RTVSPropertyOp38
 70
     1
102
RTVSPropertyOp39
 70
     1
102
RTVSPropertyOp40
 70
     1
102
RTVSPropertyOp41
 70
     1
102
RTVSPropertyOp42
 70
     1
102
RTVSPropertyOp43
 70
     1
102
RTVSPropertyOp44
 70
     1
102
RTVSPropertyOp45
 70
     1
102
RTVSPropertyOp46
 70
     1
102
RTVSPropertyOp47
 70
     1
102
RTVSPropertyOp48
 70
     1
102
RTVSPropertyOp49
 70
     1
102
RTVSPropertyOp50
 70
     1
102
RTVSPropertyOp51
 70
     0
102
RTVSPropertyOp52
 70
     0
102
RTVSPropertyOp53
 70
     1
102
RTVSPropertyOp54
 70
     1
102
RTVSPropertyOp55
 70
     1
102
RTVSPropertyOp56
 70
     1
102
RTVSPropertyOp57
 70
     1
102
RTVSPost2010Prop28
280
     0
102
RTVSPost2010PropOp28
 70
     1
102
RTVSPost2010Prop29
280
     1
102
RTVSPost2010PropOp29
 70
     1
102
RTVSPost2010Prop30
280
     1
102
RTVSPost2010PropOp30
 70
     1
102
RTVSPost2010Prop31
280
     0
102
RTVSPost2010PropOp31
 70
     1
102
RTVSPost2010Prop32
280
     0
102
RTVSPost2010PropOp32
 70
     1
102
RTVSPost2010Prop33
280
     0
102
RTVSPost2010PropOp33
 70
     1
102
RTVSPost2010Prop34
280
     0
102
RTVSPost2010PropOp34
 70
     1
102
RTVSPost2010Prop35
280
     0
102
RTVSPost2010PropOp35
 70
     1
102
RTVSPost2010Prop36
280
     0
102
RTVSPost2010PropOp36
 70
     1
102
RTVSPost2010Prop37
 90
       50
102
RTVSPost2010PropOp37
 70
     1
102
RTVSPost2010Prop38
140
0.0
102
RTVSPost2010PropOp38
 70
     1
102
RTVSPost2010Prop39
140
1.0
102
RTVSPost2010PropOp39
 70
     1
102
RTVSPost2010Prop40
 90
        0
102
RTVSPost2010PropOp40
 70
     1
102
RTVSPost2010Prop41ColorIndex
 90
       18
102
RTVSPost2010Prop41ColorRGB
 90
        0
102
RTVSPost2010PropOp41
 70
     1
102
RTVSPost2010Prop42
 90
       50
102
RTVSPost2010PropOp42
 70
     1
102
RTVSPost2010Prop43
 90
        3
102
RTVSPost2010PropOp43
 70
     1
102
RTVSPost2010Prop44ColorIndex
 90
        5
102
RTVSPost2010Prop44ColorRGB
 90
      255
102
RTVSPost2010PropOp44
 70
     1
102
RTVSPost2010Prop45
280
     0
102
RTVSPost2010PropOp45
 70
     1
102
RTVSPost2010Prop46
 90
       50
102
RTVSPost2010PropOp46
 70
     1
102
RTVSPost2010Prop47
 90
       50
102
RTVSPost2010PropOp47
 70
     1
102
RTVSPost2010Prop48
 90
       50
102
RTVSPost2010PropOp48
 70
     1
102
RTVSPost2010Prop49
280
     0
102
RTVSPost2010PropOp49
 70
     1
102
RTVSPost2010Prop50
 90
       50
102
RTVSPost2010PropOp50
 70
     1
102
RTVSPost2010Prop51ColorIndex
 90
      256
102
RTVSPost2010Prop51ColorRGB
 90
-16777216
102
RTVSPost2010PropOp51
 70
     0
102
RTVSPost2010Prop52
140
1.0
102
RTVSPost2010PropOp52
 70
     0
102
RTVSPost2010Prop53
 90
        2
102
RTVSPost2010PropOp53
 70
     1
102
RTVSPost2010Prop54
  1
strokes_ogs.tif
102
RTVSPost2010PropOp54
 70
     1
102
RTVSPost2010Prop55
280
     0
102
RTVSPost2010PropOp55
 70
     1
102
RTVSPost2010Prop56
140
1.0
102
RTVSPost2010PropOp56
 70
     1
102
RTVSPost2010Prop57
140
1.0
102
RTVSPost2010PropOp57
 70
     1
  0
XRECORD
  5
2E6
102
{ACAD_REACTORS
330
2E5
102
}
330
2E5
100
AcDbXrecord
280
     1
102
RTVSPropertyOp0
 70
     0
102
RTVSPropertyOp1
 70
     0
102
RTVSPropertyOp2
 70
     0
102
RTVSPropertyOp3
 70
     0
102
RTVSPropertyOp4
 70
     0
102
RTVSPropertyOp5
 70
     0
102
RTVSPropertyOp6
 70
     0
102
RTVSPropertyOp7
 70
     0
102
RTVSPropertyOp8
 70
     0
102
RTVSPropertyOp9
 70
     0
102
RTVSPropertyOp10
 70
     0
102
RTVSPropertyOp11
 70
     0
102
RTVSPropertyOp12
 70
     0
102
RTVSPropertyOp13
 70
     0
102
RTVSPropertyOp14
 70
     2
102
RTVSPropertyOp15
 70
     0
102
RTVSPropertyOp16
 70
     0
102
RTVSPropertyOp17
 70
     0
102
RTVSPropertyOp18
 70
     0
102
RTVSPropertyOp19
 70
     0
102
RTVSPropertyOp20
 70
     0
102
RTVSPropertyOp21
 70
     0
102
RTVSPropertyOp22
 70
     0
102
RTVSPropertyOp23
 70
     0
102
RTVSPropertyOp24
 70
     0
102
RTVSPropertyOp25
 70
     0
102
RTVSPropertyOp26
 70
     0
102
RTVSPropertyOp27
 70
     0
102
RTVSPropertyOp28
 70
     0
102
RTVSPropertyOp29
 70
     0
102
RTVSPropertyOp30
 70
     0
102
RTVSPropertyOp31
 70
     0
102
RTVSPropertyOp32
 70
     0
102
RTVSPropertyOp33
 70
     0
102
RTVSPropertyOp34
 70
     0
102
RTVSPropertyOp35
 70
     0
102
RTVSPropertyOp36
 70
     0
102
RTVSPropertyOp37
 70
     0
102
RTVSPropertyOp38
 70
     0
102
RTVSPropertyOp39
 70
     0
102
RTVSPropertyOp40
 70
     0
102
RTVSPropertyOp41
 70
     0
102
RTVSPropertyOp42
 70
     0
102
RTVSPropertyOp43
 70
     0
102
RTVSPropertyOp44
 70
     0
102
RTVSPropertyOp45
 70
     0
102
RTVSPropertyOp46
 70
     0
102
RTVSPropertyOp47
 70
     0
102
RTVSPropertyOp48
 70
     0
102
RTVSPropertyOp49
 70
     0
102
RTVSPropertyOp50
 70
     0
102
RTVSPropertyOp51
 70
     0
102
RTVSPropertyOp52
 70
     0
102
RTVSPropertyOp53
 70
     0
102
RTVSPropertyOp54
 70
     0
102
RTVSPropertyOp55
 70
     0
102
RTVSPropertyOp56
 70
     0
102
RTVSPropertyOp57
 70
     0
102
RTVSPost2010Prop28
280
     0
102
RTVSPost2010PropOp28
 70
     0
102
RTVSPost2010Prop29
280
     1
102
RTVSPost2010PropOp29
 70
     0
102
RTVSPost2010Prop30
280
     1
102
RTVSPost2010PropOp30
 70
     0
102
RTVSPost2010Prop31
280
     0
102
RTVSPost2010PropOp31
 70
     0
102
RTVSPost2010Prop32
280
     0
102
RTVSPost2010PropOp32
 70
     0
102
RTVSPost2010Prop33
280
     0
102
RTVSPost2010PropOp33
 70
     0
102
RTVSPost2010Prop34
280
     0
102
RTVSPost2010PropOp34
 70
     0
102
RTVSPost2010Prop35
280
     0
102
RTVSPost2010PropOp35
 70
     0
102
RTVSPost2010Prop36
280
     0
102
RTVSPost2010PropOp36
 70
     0
102
RTVSPost2010Prop37
 90
       50
102
RTVSPost2010PropOp37
 70
     0
102
RTVSPost2010Prop38
140
0.0
102
RTVSPost2010PropOp38
 70
     0
102
RTVSPost2010Prop39
140
1.0
102
RTVSPost2010PropOp39
 70
     0
102
RTVSPost2010Prop40
 90
        0
102
RTVSPost2010PropOp40
 70
     0
102
RTVSPost2010Prop41ColorIndex
 90
       18
102
RTVSPost2010Prop41ColorRGB
 90
        0
102
RTVSPost2010PropOp41
 70
     0
102
RTVSPost2010Prop42
 90
       50
102
RTVSPost2010PropOp42
 70
     0
102
RTVSPost2010Prop43
 90
        3
102
RTVSPost2010PropOp43
 70
     0
102
RTVSPost2010Prop44ColorIndex
 90
        5
102
RTVSPost2010Prop44ColorRGB
 90
      255
102
RTVSPost2010PropOp44
 70
     0
102
RTVSPost2010Prop45
280
     0
102
RTVSPost2010PropOp45
 70
     0
102
RTVSPost2010Prop46
 90
       50
102
RTVSPost2010PropOp46
 70
     0
102
RTVSPost2010Prop47
 90
       50
102
RTVSPost2010PropOp47
 70
     0
102
RTVSPost2010Prop48
 90
       50
102
RTVSPost2010PropOp48
 70
     0
102
RTVSPost2010Prop49
280
     0
102
RTVSPost2010PropOp49
 70
     0
102
RTVSPost2010Prop50
 90
       50
102
RTVSPost2010PropOp50
 70
     0
102
RTVSPost2010Prop51ColorIndex
 90
      256
102
RTVSPost2010Prop51ColorRGB
 90
-16777216
102
RTVSPost2010PropOp51
 70
     0
102
RTVSPost2010Prop52
140
1.0
102
RTVSPost2010PropOp52
 70
     0
102
RTVSPost2010Prop53
 90
        2
102
RTVSPost2010PropOp53
 70
     0
102
RTVSPost2010Prop54
  1
strokes_ogs.tif
102
RTVSPost2010PropOp54
 70
     0
102
RTVSPost2010Prop55
280
     0
102
RTVSPost2010PropOp55
 70
     0
102
RTVSPost2010Prop56
140
1.0
102
RTVSPost2010PropOp56
 70
     0
102
RTVSPost2010Prop57
140
1.0
102
RTVSPost2010PropOp57
 70
     0
  0
XRECORD
  5
2E0
102
{ACAD_REACTORS
330
2DF
102
}
330
2DF
100
AcDbXrecord
280
     1
102
RTVSPropertyOp0
 70
     1
102
RTVSPropertyOp1
 70
     1
102
RTVSPropertyOp2
 70
     1
102
RTVSPropertyOp3
 70
     1
102
RTVSPropertyOp4
 70
     1
102
RTVSPropertyOp5
 70
     1
102
RTVSPropertyOp6
 70
     1
102
RTVSPropertyOp7
 70
     1
102
RTVSPropertyOp8
 70
     1
102
RTVSPropertyOp9
 70
     1
102
RTVSPropertyOp10
 70
     1
102
RTVSPropertyOp11
 70
     1
102
RTVSPropertyOp12
 70
     1
102
RTVSPropertyOp13
 70
     1
102
RTVSPropertyOp14
 70
     1
102
RTVSPropertyOp15
 70
     1
102
RTVSPropertyOp16
 70
     1
102
RTVSPropertyOp17
 70
     1
102
RTVSPropertyOp18
 70
     1
102
RTVSPropertyOp19
 70
     1
102
RTVSPropertyOp20
 70
     1
102
RTVSPropertyOp21
 70
     1
102
RTVSPropertyOp22
 70
     1
102
RTVSPropertyOp23
 70
     1
102
RTVSPropertyOp24
 70
     1
102
RTVSPropertyOp25
 70
     1
102
RTVSPropertyOp26
 70
     1
102
RTVSPropertyOp27
 70
     1
102
RTVSPropertyOp28
 70
     1
102
RTVSPropertyOp29
 70
     1
102
RTVSPropertyOp30
 70
     1
102
RTVSPropertyOp31
 70
     1
102
RTVSPropertyOp32
 70
     1
102
RTVSPropertyOp33
 70
     1
102
RTVSPropertyOp34
 70
     1
102
RTVSPropertyOp35
 70
     1
102
RTVSPropertyOp36
 70
     1
102
RTVSPropertyOp37
 70
     1
102
RTVSPropertyOp38
 70
     1
102
RTVSPropertyOp39
 70
     1
102
RTVSPropertyOp40
 70
     1
102
RTVSPropertyOp41
 70
     1
102
RTVSPropertyOp42
 70
     1
102
RTVSPropertyOp43
 70
     1
102
RTVSPropertyOp44
 70
     1
102
RTVSPropertyOp45
 70
     1
102
RTVSPropertyOp46
 70
     1
102
RTVSPropertyOp47
 70
     1
102
RTVSPropertyOp48
 70
     1
102
RTVSPropertyOp49
 70
     1
102
RTVSPropertyOp50
 70
     1
102
RTVSPropertyOp51
 70
     0
102
RTVSPropertyOp52
 70
     0
102
RTVSPropertyOp53
 70
     1
102
RTVSPropertyOp54
 70
     1
102
RTVSPropertyOp55
 70
     1
102
RTVSPropertyOp56
 70
     1
102
RTVSPropertyOp57
 70
     1
102
RTVSPost2010Prop28
280
     0
102
RTVSPost2010PropOp28
 70
     1
102
RTVSPost2010Prop29
280
     1
102
RTVSPost2010PropOp29
 70
     1
102
RTVSPost2010Prop30
280
     1
102
RTVSPost2010PropOp30
 70
     1
102
RTVSPost2010Prop31
280
     0
102
RTVSPost2010PropOp31
 70
     1
102
RTVSPost2010Prop32
280
     0
102
RTVSPost2010PropOp32
 70
     1
102
RTVSPost2010Prop33
280
     0
102
RTVSPost2010PropOp33
 70
     1
102
RTVSPost2010Prop34
280
     0
102
RTVSPost2010PropOp34
 70
     1
102
RTVSPost2010Prop35
280
     0
102
RTVSPost2010PropOp35
 70
     1
102
RTVSPost2010Prop36
280
     0
102
RTVSPost2010PropOp36
 70
     1
102
RTVSPost2010Prop37
 90
       50
102
RTVSPost2010PropOp37
 70
     1
102
RTVSPost2010Prop38
140
0.0
102
RTVSPost2010PropOp38
 70
     1
102
RTVSPost2010Prop39
140
1.0
102
RTVSPost2010PropOp39
 70
     1
102
RTVSPost2010Prop40
 90
        0
102
RTVSPost2010PropOp40
 70
     1
102
RTVSPost2010Prop41ColorIndex
 90
       18
102
RTVSPost2010Prop41ColorRGB
 90
        0
102
RTVSPost2010PropOp41
 70
     1
102
RTVSPost2010Prop42
 90
       50
102
RTVSPost2010PropOp42
 70
     1
102
RTVSPost2010Prop43
 90
        3
102
RTVSPost2010PropOp43
 70
     1
102
RTVSPost2010Prop44ColorIndex
 90
        5
102
RTVSPost2010Prop44ColorRGB
 90
      255
102
RTVSPost2010PropOp44
 70
     1
102
RTVSPost2010Prop45
280
     0
102
RTVSPost2010PropOp45
 70
     1
102
RTVSPost2010Prop46
 90
       50
102
RTVSPost2010PropOp46
 70
     1
102
RTVSPost2010Prop47
 90
       50
102
RTVSPost2010PropOp47
 70
     1
102
RTVSPost2010Prop48
 90
       50
102
RTVSPost2010PropOp48
 70
     1
102
RTVSPost2010Prop49
280
     0
102
RTVSPost2010PropOp49
 70
     1
102
RTVSPost2010Prop50
 90
       50
102
RTVSPost2010PropOp50
 70
     1
102
RTVSPost2010Prop51ColorIndex
 90
      256
102
RTVSPost2010Prop51ColorRGB
 90
-16777216
102
RTVSPost2010PropOp51
 70
     0
102
RTVSPost2010Prop52
140
1.0
102
RTVSPost2010PropOp52
 70
     0
102
RTVSPost2010Prop53
 90
        2
102
RTVSPost2010PropOp53
 70
     1
102
RTVSPost2010Prop54
  1
strokes_ogs.tif
102
RTVSPost2010PropOp54
 70
     1
102
RTVSPost2010Prop55
280
     0
102
RTVSPost2010PropOp55
 70
     1
102
RTVSPost2010Prop56
140
1.0
102
RTVSPost2010PropOp56
 70
     1
102
RTVSPost2010Prop57
140
1.0
102
RTVSPost2010PropOp57
 70
     1
  0
XRECORD
  5
2E8
102
{ACAD_REACTORS
330
2E7
102
}
330
2E7
100
AcDbXrecord
280
     1
102
RTVSPropertyOp0
 70
     0
102
RTVSPropertyOp1
 70
     0
102
RTVSPropertyOp2
 70
     0
102
RTVSPropertyOp3
 70
     0
102
RTVSPropertyOp4
 70
     0
102
RTVSPropertyOp5
 70
     0
102
RTVSPropertyOp6
 70
     0
102
RTVSPropertyOp7
 70
     0
102
RTVSPropertyOp8
 70
     0
102
RTVSPropertyOp9
 70
     0
102
RTVSPropertyOp10
 70
     0
102
RTVSPropertyOp11
 70
     0
102
RTVSPropertyOp12
 70
     0
102
RTVSPropertyOp13
 70
     0
102
RTVSPropertyOp14
 70
     2
102
RTVSPropertyOp15
 70
     0
102
RTVSPropertyOp16
 70
     0
102
RTVSPropertyOp17
 70
     0
102
RTVSPropertyOp18
 70
     0
102
RTVSPropertyOp19
 70
     0
102
RTVSPropertyOp20
 70
     0
102
RTVSPropertyOp21
 70
     0
102
RTVSPropertyOp22
 70
     0
102
RTVSPropertyOp23
 70
     0
102
RTVSPropertyOp24
 70
     0
102
RTVSPropertyOp25
 70
     0
102
RTVSPropertyOp26
 70
     0
102
RTVSPropertyOp27
 70
     0
102
RTVSPropertyOp28
 70
     0
102
RTVSPropertyOp29
 70
     0
102
RTVSPropertyOp30
 70
     0
102
RTVSPropertyOp31
 70
     0
102
RTVSPropertyOp32
 70
     0
102
RTVSPropertyOp33
 70
     0
102
RTVSPropertyOp34
 70
     0
102
RTVSPropertyOp35
 70
     0
102
RTVSPropertyOp36
 70
     0
102
RTVSPropertyOp37
 70
     0
102
RTVSPropertyOp38
 70
     0
102
RTVSPropertyOp39
 70
     0
102
RTVSPropertyOp40
 70
     0
102
RTVSPropertyOp41
 70
     0
102
RTVSPropertyOp42
 70
     0
102
RTVSPropertyOp43
 70
     0
102
RTVSPropertyOp44
 70
     0
102
RTVSPropertyOp45
 70
     0
102
RTVSPropertyOp46
 70
     0
102
RTVSPropertyOp47
 70
     0
102
RTVSPropertyOp48
 70
     0
102
RTVSPropertyOp49
 70
     0
102
RTVSPropertyOp50
 70
     0
102
RTVSPropertyOp51
 70
     0
102
RTVSPropertyOp52
 70
     0
102
RTVSPropertyOp53
 70
     0
102
RTVSPropertyOp54
 70
     0
102
RTVSPropertyOp55
 70
     0
102
RTVSPropertyOp56
 70
     0
102
RTVSPropertyOp57
 70
     0
102
RTVSPost2010Prop28
280
     0
102
RTVSPost2010PropOp28
 70
     0
102
RTVSPost2010Prop29
280
     1
102
RTVSPost2010PropOp29
 70
     0
102
RTVSPost2010Prop30
280
     1
102
RTVSPost2010PropOp30
 70
     0
102
RTVSPost2010Prop31
280
     0
102
RTVSPost2010PropOp31
 70
     0
102
RTVSPost2010Prop32
280
     0
102
RTVSPost2010PropOp32
 70
     0
102
RTVSPost2010Prop33
280
     0
102
RTVSPost2010PropOp33
 70
     0
102
RTVSPost2010Prop34
280
     0
102
RTVSPost2010PropOp34
 70
     0
102
RTVSPost2010Prop35
280
     0
102
RTVSPost2010PropOp35
 70
     0
102
RTVSPost2010Prop36
280
     0
102
RTVSPost2010PropOp36
 70
     0
102
RTVSPost2010Prop37
 90
       50
102
RTVSPost2010PropOp37
 70
     0
102
RTVSPost2010Prop38
140
0.0
102
RTVSPost2010PropOp38
 70
     0
102
RTVSPost2010Prop39
140
1.0
102
RTVSPost2010PropOp39
 70
     0
102
RTVSPost2010Prop40
 90
        0
102
RTVSPost2010PropOp40
 70
     0
102
RTVSPost2010Prop41ColorIndex
 90
       18
102
RTVSPost2010Prop41ColorRGB
 90
        0
102
RTVSPost2010PropOp41
 70
     0
102
RTVSPost2010Prop42
 90
       50
102
RTVSPost2010PropOp42
 70
     0
102
RTVSPost2010Prop43
 90
        3
102
RTVSPost2010PropOp43
 70
     0
102
RTVSPost2010Prop44ColorIndex
 90
        5
102
RTVSPost2010Prop44ColorRGB
 90
      255
102
RTVSPost2010PropOp44
 70
     0
102
RTVSPost2010Prop45
280
     0
102
RTVSPost2010PropOp45
 70
     0
102
RTVSPost2010Prop46
 90
       50
102
RTVSPost2010PropOp46
 70
     0
102
RTVSPost2010Prop47
 90
       50
102
RTVSPost2010PropOp47
 70
     0
102
RTVSPost2010Prop48
 90
       50
102
RTVSPost2010PropOp48
 70
     0
102
RTVSPost2010Prop49
280
     0
102
RTVSPost2010PropOp49
 70
     0
102
RTVSPost2010Prop50
 90
       50
102
RTVSPost2010PropOp50
 70
     0
102
RTVSPost2010Prop51ColorIndex
 90
      256
102
RTVSPost2010Prop51ColorRGB
 90
-16777216
102
RTVSPost2010PropOp51
 70
     0
102
RTVSPost2010Prop52
140
1.0
102
RTVSPost2010PropOp52
 70
     0
102
RTVSPost2010Prop53
 90
        2
102
RTVSPost2010PropOp53
 70
     0
102
RTVSPost2010Prop54
  1
strokes_ogs.tif
102
RTVSPost2010PropOp54
 70
     0
102
RTVSPost2010Prop55
280
     0
102
RTVSPost2010PropOp55
 70
     0
102
RTVSPost2010Prop56
140
1.0
102
RTVSPost2010PropOp56
 70
     0
102
RTVSPost2010Prop57
140
1.0
102
RTVSPost2010PropOp57
 70
     0
  0
XRECORD
  5
2D6
102
{ACAD_REACTORS
330
2D5
102
}
330
2D5
100
AcDbXrecord
280
     1
102
RTVSPropertyOp0
 70
     1
102
RTVSPropertyOp1
 70
     1
102
RTVSPropertyOp2
 70
     1
102
RTVSPropertyOp3
 70
     1
102
RTVSPropertyOp4
 70
     1
102
RTVSPropertyOp5
 70
     1
102
RTVSPropertyOp6
 70
     1
102
RTVSPropertyOp7
 70
     1
102
RTVSPropertyOp8
 70
     1
102
RTVSPropertyOp9
 70
     1
102
RTVSPropertyOp10
 70
     1
102
RTVSPropertyOp11
 70
     1
102
RTVSPropertyOp12
 70
     1
102
RTVSPropertyOp13
 70
     1
102
RTVSPropertyOp14
 70
     1
102
RTVSPropertyOp15
 70
     1
102
RTVSPropertyOp16
 70
     1
102
RTVSPropertyOp17
 70
     1
102
RTVSPropertyOp18
 70
     1
102
RTVSPropertyOp19
 70
     1
102
RTVSPropertyOp20
 70
     1
102
RTVSPropertyOp21
 70
     1
102
RTVSPropertyOp22
 70
     1
102
RTVSPropertyOp23
 70
     1
102
RTVSPropertyOp24
 70
     1
102
RTVSPropertyOp25
 70
     1
102
RTVSPropertyOp26
 70
     1
102
RTVSPropertyOp27
 70
     1
102
RTVSPropertyOp28
 70
     1
102
RTVSPropertyOp29
 70
     1
102
RTVSPropertyOp30
 70
     1
102
RTVSPropertyOp31
 70
     1
102
RTVSPropertyOp32
 70
     1
102
RTVSPropertyOp33
 70
     1
102
RTVSPropertyOp34
 70
     1
102
RTVSPropertyOp35
 70
     1
102
RTVSPropertyOp36
 70
     1
102
RTVSPropertyOp37
 70
     1
102
RTVSPropertyOp38
 70
     1
102
RTVSPropertyOp39
 70
     1
102
RTVSPropertyOp40
 70
     1
102
RTVSPropertyOp41
 70
     1
102
RTVSPropertyOp42
 70
     1
102
RTVSPropertyOp43
 70
     1
102
RTVSPropertyOp44
 70
     1
102
RTVSPropertyOp45
 70
     1
102
RTVSPropertyOp46
 70
     1
102
RTVSPropertyOp47
 70
     1
102
RTVSPropertyOp48
 70
     1
102
RTVSPropertyOp49
 70
     1
102
RTVSPropertyOp50
 70
     1
102
RTVSPropertyOp51
 70
     0
102
RTVSPropertyOp52
 70
     0
102
RTVSPropertyOp53
 70
     1
102
RTVSPropertyOp54
 70
     1
102
RTVSPropertyOp55
 70
     1
102
RTVSPropertyOp56
 70
     1
102
RTVSPropertyOp57
 70
     1
102
RTVSPost2010Prop28
280
     0
102
RTVSPost2010PropOp28
 70
     1
102
RTVSPost2010Prop29
280
     1
102
RTVSPost2010PropOp29
 70
     1
102
RTVSPost2010Prop30
280
     1
102
RTVSPost2010PropOp30
 70
     1
102
RTVSPost2010Prop31
280
     0
102
RTVSPost2010PropOp31
 70
     1
102
RTVSPost2010Prop32
280
     0
102
RTVSPost2010PropOp32
 70
     1
102
RTVSPost2010Prop33
280
     0
102
RTVSPost2010PropOp33
 70
     1
102
RTVSPost2010Prop34
280
     0
102
RTVSPost2010PropOp34
 70
     1
102
RTVSPost2010Prop35
280
     0
102
RTVSPost2010PropOp35
 70
     1
102
RTVSPost2010Prop36
280
     0
102
RTVSPost2010PropOp36
 70
     1
102
RTVSPost2010Prop37
 90
       50
102
RTVSPost2010PropOp37
 70
     1
102
RTVSPost2010Prop38
140
0.0
102
RTVSPost2010PropOp38
 70
     1
102
RTVSPost2010Prop39
140
1.0
102
RTVSPost2010PropOp39
 70
     1
102
RTVSPost2010Prop40
 90
        0
102
RTVSPost2010PropOp40
 70
     1
102
RTVSPost2010Prop41ColorIndex
 90
       18
102
RTVSPost2010Prop41ColorRGB
 90
        0
102
RTVSPost2010PropOp41
 70
     1
102
RTVSPost2010Prop42
 90
       50
102
RTVSPost2010PropOp42
 70
     1
102
RTVSPost2010Prop43
 90
        3
102
RTVSPost2010PropOp43
 70
     1
102
RTVSPost2010Prop44ColorIndex
 90
        5
102
RTVSPost2010Prop44ColorRGB
 90
      255
102
RTVSPost2010PropOp44
 70
     1
102
RTVSPost2010Prop45
280
     0
102
RTVSPost2010PropOp45
 70
     1
102
RTVSPost2010Prop46
 90
       50
102
RTVSPost2010PropOp46
 70
     1
102
RTVSPost2010Prop47
 90
       50
102
RTVSPost2010PropOp47
 70
     1
102
RTVSPost2010Prop48
 90
       50
102
RTVSPost2010PropOp48
 70
     1
102
RTVSPost2010Prop49
280
     0
102
RTVSPost2010PropOp49
 70
     1
102
RTVSPost2010Prop50
 90
       50
102
RTVSPost2010PropOp50
 70
     1
102
RTVSPost2010Prop51ColorIndex
 90
      256
102
RTVSPost2010Prop51ColorRGB
 90
-16777216
102
RTVSPost2010PropOp51
 70
     0
102
RTVSPost2010Prop52
140
1.0
102
RTVSPost2010PropOp52
 70
     0
102
RTVSPost2010Prop53
 90
        2
102
RTVSPost2010PropOp53
 70
     1
102
RTVSPost2010Prop54
  1
strokes_ogs.tif
102
RTVSPost2010PropOp54
 70
     1
102
RTVSPost2010Prop55
280
     0
102
RTVSPost2010PropOp55
 70
     1
102
RTVSPost2010Prop56
140
1.0
102
RTVSPost2010PropOp56
 70
     1
102
RTVSPost2010Prop57
140
1.0
102
RTVSPost2010PropOp57
 70
     1
  0
XRECORD
  5
2F4
102
{ACAD_REACTORS
330
2F3
102
}
330
2F3
100
AcDbXrecord
280
     1
102
RTVSPropertyOp0
 70
     1
102
RTVSPropertyOp1
 70
     1
102
RTVSPropertyOp2
 70
     1
102
RTVSPropertyOp3
 70
     1
102
RTVSPropertyOp4
 70
     1
102
RTVSPropertyOp5
 70
     1
102
RTVSPropertyOp6
 70
     1
102
RTVSPropertyOp7
 70
     1
102
RTVSPropertyOp8
 70
     1
102
RTVSPropertyOp9
 70
     1
102
RTVSPropertyOp10
 70
     1
102
RTVSPropertyOp11
 70
     1
102
RTVSPropertyOp12
 70
     1
102
RTVSPropertyOp13
 70
     1
102
RTVSPropertyOp14
 70
     1
102
RTVSPropertyOp15
 70
     1
102
RTVSPropertyOp16
 70
     1
102
RTVSPropertyOp17
 70
     1
102
RTVSPropertyOp18
 70
     1
102
RTVSPropertyOp19
 70
     1
102
RTVSPropertyOp20
 70
     1
102
RTVSPropertyOp21
 70
     1
102
RTVSPropertyOp22
 70
     1
102
RTVSPropertyOp23
 70
     1
102
RTVSPropertyOp24
 70
     1
102
RTVSPropertyOp25
 70
     1
102
RTVSPropertyOp26
 70
     1
102
RTVSPropertyOp27
 70
     1
102
RTVSPropertyOp28
 70
     1
102
RTVSPropertyOp29
 70
     1
102
RTVSPropertyOp30
 70
     1
102
RTVSPropertyOp31
 70
     1
102
RTVSPropertyOp32
 70
     1
102
RTVSPropertyOp33
 70
     1
102
RTVSPropertyOp34
 70
     1
102
RTVSPropertyOp35
 70
     1
102
RTVSPropertyOp36
 70
     1
102
RTVSPropertyOp37
 70
     1
102
RTVSPropertyOp38
 70
     1
102
RTVSPropertyOp39
 70
     1
102
RTVSPropertyOp40
 70
     1
102
RTVSPropertyOp41
 70
     1
102
RTVSPropertyOp42
 70
     1
102
RTVSPropertyOp43
 70
     1
102
RTVSPropertyOp44
 70
     1
102
RTVSPropertyOp45
 70
     1
102
RTVSPropertyOp46
 70
     1
102
RTVSPropertyOp47
 70
     1
102
RTVSPropertyOp48
 70
     1
102
RTVSPropertyOp49
 70
     1
102
RTVSPropertyOp50
 70
     1
102
RTVSPropertyOp51
 70
     0
102
RTVSPropertyOp52
 70
     0
102
RTVSPropertyOp53
 70
     1
102
RTVSPropertyOp54
 70
     1
102
RTVSPropertyOp55
 70
     1
102
RTVSPropertyOp56
 70
     1
102
RTVSPropertyOp57
 70
     1
102
RTVSPost2010Prop28
280
     0
102
RTVSPost2010PropOp28
 70
     1
102
RTVSPost2010Prop29
280
     1
102
RTVSPost2010PropOp29
 70
     1
102
RTVSPost2010Prop30
280
     1
102
RTVSPost2010PropOp30
 70
     1
102
RTVSPost2010Prop31
280
     0
102
RTVSPost2010PropOp31
 70
     1
102
RTVSPost2010Prop32
280
     0
102
RTVSPost2010PropOp32
 70
     1
102
RTVSPost2010Prop33
280
     0
102
RTVSPost2010PropOp33
 70
     1
102
RTVSPost2010Prop34
280
     0
102
RTVSPost2010PropOp34
 70
     1
102
RTVSPost2010Prop35
280
     0
102
RTVSPost2010PropOp35
 70
     1
102
RTVSPost2010Prop36
280
     0
102
RTVSPost2010PropOp36
 70
     1
102
RTVSPost2010Prop37
 90
       50
102
RTVSPost2010PropOp37
 70
     1
102
RTVSPost2010Prop38
140
0.0
102
RTVSPost2010PropOp38
 70
     1
102
RTVSPost2010Prop39
140
1.0
102
RTVSPost2010PropOp39
 70
     1
102
RTVSPost2010Prop40
 90
        0
102
RTVSPost2010PropOp40
 70
     1
102
RTVSPost2010Prop41ColorIndex
 90
       18
102
RTVSPost2010Prop41ColorRGB
 90
        0
102
RTVSPost2010PropOp41
 70
     1
102
RTVSPost2010Prop42
 90
       50
102
RTVSPost2010PropOp42
 70
     1
102
RTVSPost2010Prop43
 90
        3
102
RTVSPost2010PropOp43
 70
     1
102
RTVSPost2010Prop44ColorIndex
 90
        5
102
RTVSPost2010Prop44ColorRGB
 90
      255
102
RTVSPost2010PropOp44
 70
     1
102
RTVSPost2010Prop45
280
     0
102
RTVSPost2010PropOp45
 70
     1
102
RTVSPost2010Prop46
 90
       50
102
RTVSPost2010PropOp46
 70
     1
102
RTVSPost2010Prop47
 90
       50
102
RTVSPost2010PropOp47
 70
     1
102
RTVSPost2010Prop48
 90
       50
102
RTVSPost2010PropOp48
 70
     1
102
RTVSPost2010Prop49
280
     0
102
RTVSPost2010PropOp49
 70
     1
102
RTVSPost2010Prop50
 90
       50
102
RTVSPost2010PropOp50
 70
     1
102
RTVSPost2010Prop51ColorIndex
 90
      256
102
RTVSPost2010Prop51ColorRGB
 90
-16777216
102
RTVSPost2010PropOp51
 70
     0
102
RTVSPost2010Prop52
140
1.0
102
RTVSPost2010PropOp52
 70
     0
102
RTVSPost2010Prop53
 90
        2
102
RTVSPost2010PropOp53
 70
     1
102
RTVSPost2010Prop54
  1
strokes_ogs.tif
102
RTVSPost2010PropOp54
 70
     1
102
RTVSPost2010Prop55
280
     0
102
RTVSPost2010PropOp55
 70
     1
102
RTVSPost2010Prop56
140
1.0
102
RTVSPost2010PropOp56
 70
     1
102
RTVSPost2010Prop57
140
1.0
102
RTVSPost2010PropOp57
 70
     1
  0
XRECORD
  5
2F2
102
{ACAD_REACTORS
330
2F1
102
}
330
2F1
100
AcDbXrecord
280
     1
102
RTVSPropertyOp0
 70
     1
102
RTVSPropertyOp1
 70
     1
102
RTVSPropertyOp2
 70
     1
102
RTVSPropertyOp3
 70
     1
102
RTVSPropertyOp4
 70
     1
102
RTVSPropertyOp5
 70
     1
102
RTVSPropertyOp6
 70
     1
102
RTVSPropertyOp7
 70
     1
102
RTVSPropertyOp8
 70
     1
102
RTVSPropertyOp9
 70
     1
102
RTVSPropertyOp10
 70
     1
102
RTVSPropertyOp11
 70
     1
102
RTVSPropertyOp12
 70
     1
102
RTVSPropertyOp13
 70
     1
102
RTVSPropertyOp14
 70
     1
102
RTVSPropertyOp15
 70
     1
102
RTVSPropertyOp16
 70
     1
102
RTVSPropertyOp17
 70
     1
102
RTVSPropertyOp18
 70
     1
102
RTVSPropertyOp19
 70
     1
102
RTVSPropertyOp20
 70
     1
102
RTVSPropertyOp21
 70
     1
102
RTVSPropertyOp22
 70
     1
102
RTVSPropertyOp23
 70
     1
102
RTVSPropertyOp24
 70
     1
102
RTVSPropertyOp25
 70
     1
102
RTVSPropertyOp26
 70
     1
102
RTVSPropertyOp27
 70
     1
102
RTVSPropertyOp28
 70
     1
102
RTVSPropertyOp29
 70
     1
102
RTVSPropertyOp30
 70
     1
102
RTVSPropertyOp31
 70
     1
102
RTVSPropertyOp32
 70
     1
102
RTVSPropertyOp33
 70
     1
102
RTVSPropertyOp34
 70
     1
102
RTVSPropertyOp35
 70
     1
102
RTVSPropertyOp36
 70
     1
102
RTVSPropertyOp37
 70
     1
102
RTVSPropertyOp38
 70
     1
102
RTVSPropertyOp39
 70
     1
102
RTVSPropertyOp40
 70
     1
102
RTVSPropertyOp41
 70
     1
102
RTVSPropertyOp42
 70
     1
102
RTVSPropertyOp43
 70
     1
102
RTVSPropertyOp44
 70
     1
102
RTVSPropertyOp45
 70
     1
102
RTVSPropertyOp46
 70
     1
102
RTVSPropertyOp47
 70
     1
102
RTVSPropertyOp48
 70
     1
102
RTVSPropertyOp49
 70
     1
102
RTVSPropertyOp50
 70
     1
102
RTVSPropertyOp51
 70
     0
102
RTVSPropertyOp52
 70
     0
102
RTVSPropertyOp53
 70
     1
102
RTVSPropertyOp54
 70
     1
102
RTVSPropertyOp55
 70
     1
102
RTVSPropertyOp56
 70
     1
102
RTVSPropertyOp57
 70
     1
102
RTVSPost2010Prop28
280
     0
102
RTVSPost2010PropOp28
 70
     1
102
RTVSPost2010Prop29
280
     1
102
RTVSPost2010PropOp29
 70
     1
102
RTVSPost2010Prop30
280
     1
102
RTVSPost2010PropOp30
 70
     1
102
RTVSPost2010Prop31
280
     0
102
RTVSPost2010PropOp31
 70
     1
102
RTVSPost2010Prop32
280
     0
102
RTVSPost2010PropOp32
 70
     1
102
RTVSPost2010Prop33
280
     0
102
RTVSPost2010PropOp33
 70
     1
102
RTVSPost2010Prop34
280
     0
102
RTVSPost2010PropOp34
 70
     1
102
RTVSPost2010Prop35
280
     0
102
RTVSPost2010PropOp35
 70
     1
102
RTVSPost2010Prop36
280
     0
102
RTVSPost2010PropOp36
 70
     1
102
RTVSPost2010Prop37
 90
       50
102
RTVSPost2010PropOp37
 70
     1
102
RTVSPost2010Prop38
140
0.0
102
RTVSPost2010PropOp38
 70
     1
102
RTVSPost2010Prop39
140
1.0
102
RTVSPost2010PropOp39
 70
     1
102
RTVSPost2010Prop40
 90
        0
102
RTVSPost2010PropOp40
 70
     1
102
RTVSPost2010Prop41ColorIndex
 90
       18
102
RTVSPost2010Prop41ColorRGB
 90
        0
102
RTVSPost2010PropOp41
 70
     1
102
RTVSPost2010Prop42
 90
       50
102
RTVSPost2010PropOp42
 70
     1
102
RTVSPost2010Prop43
 90
        3
102
RTVSPost2010PropOp43
 70
     1
102
RTVSPost2010Prop44ColorIndex
 90
        5
102
RTVSPost2010Prop44ColorRGB
 90
      255
102
RTVSPost2010PropOp44
 70
     1
102
RTVSPost2010Prop45
280
     0
102
RTVSPost2010PropOp45
 70
     1
102
RTVSPost2010Prop46
 90
       50
102
RTVSPost2010PropOp46
 70
     1
102
RTVSPost2010Prop47
 90
       50
102
RTVSPost2010PropOp47
 70
     1
102
RTVSPost2010Prop48
 90
       50
102
RTVSPost2010PropOp48
 70
     1
102
RTVSPost2010Prop49
280
     0
102
RTVSPost2010PropOp49
 70
     1
102
RTVSPost2010Prop50
 90
       50
102
RTVSPost2010PropOp50
 70
     1
102
RTVSPost2010Prop51ColorIndex
 90
      256
102
RTVSPost2010Prop51ColorRGB
 90
-16777216
102
RTVSPost2010PropOp51
 70
     0
102
RTVSPost2010Prop52
140
1.0
102
RTVSPost2010PropOp52
 70
     0
102
RTVSPost2010Prop53
 90
        2
102
RTVSPost2010PropOp53
 70
     1
102
RTVSPost2010Prop54
  1
strokes_ogs.tif
102
RTVSPost2010PropOp54
 70
     1
102
RTVSPost2010Prop55
280
     0
102
RTVSPost2010PropOp55
 70
     1
102
RTVSPost2010Prop56
140
1.0
102
RTVSPost2010PropOp56
 70
     1
102
RTVSPost2010Prop57
140
1.0
102
RTVSPost2010PropOp57
 70
     1
  0
XRECORD
  5
2EC
102
{ACAD_REACTORS
330
2EB
102
}
330
2EB
100
AcDbXrecord
280
     1
102
RTVSPropertyOp0
 70
     1
102
RTVSPropertyOp1
 70
     1
102
RTVSPropertyOp2
 70
     1
102
RTVSPropertyOp3
 70
     1
102
RTVSPropertyOp4
 70
     1
102
RTVSPropertyOp5
 70
     1
102
RTVSPropertyOp6
 70
     1
102
RTVSPropertyOp7
 70
     1
102
RTVSPropertyOp8
 70
     1
102
RTVSPropertyOp9
 70
     1
102
RTVSPropertyOp10
 70
     1
102
RTVSPropertyOp11
 70
     1
102
RTVSPropertyOp12
 70
     1
102
RTVSPropertyOp13
 70
     1
102
RTVSPropertyOp14
 70
     1
102
RTVSPropertyOp15
 70
     1
102
RTVSPropertyOp16
 70
     1
102
RTVSPropertyOp17
 70
     1
102
RTVSPropertyOp18
 70
     1
102
RTVSPropertyOp19
 70
     1
102
RTVSPropertyOp20
 70
     1
102
RTVSPropertyOp21
 70
     1
102
RTVSPropertyOp22
 70
     1
102
RTVSPropertyOp23
 70
     1
102
RTVSPropertyOp24
 70
     1
102
RTVSPropertyOp25
 70
     1
102
RTVSPropertyOp26
 70
     1
102
RTVSPropertyOp27
 70
     1
102
RTVSPropertyOp28
 70
     1
102
RTVSPropertyOp29
 70
     1
102
RTVSPropertyOp30
 70
     1
102
RTVSPropertyOp31
 70
     1
102
RTVSPropertyOp32
 70
     1
102
RTVSPropertyOp33
 70
     1
102
RTVSPropertyOp34
 70
     1
102
RTVSPropertyOp35
 70
     1
102
RTVSPropertyOp36
 70
     1
102
RTVSPropertyOp37
 70
     1
102
RTVSPropertyOp38
 70
     1
102
RTVSPropertyOp39
 70
     1
102
RTVSPropertyOp40
 70
     1
102
RTVSPropertyOp41
 70
     1
102
RTVSPropertyOp42
 70
     1
102
RTVSPropertyOp43
 70
     1
102
RTVSPropertyOp44
 70
     1
102
RTVSPropertyOp45
 70
     1
102
RTVSPropertyOp46
 70
     1
102
RTVSPropertyOp47
 70
     1
102
RTVSPropertyOp48
 70
     1
102
RTVSPropertyOp49
 70
     1
102
RTVSPropertyOp50
 70
     1
102
RTVSPropertyOp51
 70
     0
102
RTVSPropertyOp52
 70
     0
102
RTVSPropertyOp53
 70
     1
102
RTVSPropertyOp54
 70
     1
102
RTVSPropertyOp55
 70
     1
102
RTVSPropertyOp56
 70
     1
102
RTVSPropertyOp57
 70
     1
102
RTVSPost2010Prop28
280
     0
102
RTVSPost2010PropOp28
 70
     1
102
RTVSPost2010Prop29
280
     1
102
RTVSPost2010PropOp29
 70
     1
102
RTVSPost2010Prop30
280
     1
102
RTVSPost2010PropOp30
 70
     1
102
RTVSPost2010Prop31
280
     0
102
RTVSPost2010PropOp31
 70
     1
102
RTVSPost2010Prop32
280
     0
102
RTVSPost2010PropOp32
 70
     1
102
RTVSPost2010Prop33
280
     0
102
RTVSPost2010PropOp33
 70
     1
102
RTVSPost2010Prop34
280
     0
102
RTVSPost2010PropOp34
 70
     1
102
RTVSPost2010Prop35
280
     0
102
RTVSPost2010PropOp35
 70
     1
102
RTVSPost2010Prop36
280
     0
102
RTVSPost2010PropOp36
 70
     1
102
RTVSPost2010Prop37
 90
       50
102
RTVSPost2010PropOp37
 70
     1
102
RTVSPost2010Prop38
140
0.0
102
RTVSPost2010PropOp38
 70
     1
102
RTVSPost2010Prop39
140
1.0
102
RTVSPost2010PropOp39
 70
     1
102
RTVSPost2010Prop40
 90
        0
102
RTVSPost2010PropOp40
 70
     1
102
RTVSPost2010Prop41ColorIndex
 90
       18
102
RTVSPost2010Prop41ColorRGB
 90
        0
102
RTVSPost2010PropOp41
 70
     1
102
RTVSPost2010Prop42
 90
       50
102
RTVSPost2010PropOp42
 70
     1
102
RTVSPost2010Prop43
 90
        3
102
RTVSPost2010PropOp43
 70
     1
102
RTVSPost2010Prop44ColorIndex
 90
        5
102
RTVSPost2010Prop44ColorRGB
 90
      255
102
RTVSPost2010PropOp44
 70
     1
102
RTVSPost2010Prop45
280
     0
102
RTVSPost2010PropOp45
 70
     1
102
RTVSPost2010Prop46
 90
       50
102
RTVSPost2010PropOp46
 70
     1
102
RTVSPost2010Prop47
 90
       50
102
RTVSPost2010PropOp47
 70
     1
102
RTVSPost2010Prop48
 90
       50
102
RTVSPost2010PropOp48
 70
     1
102
RTVSPost2010Prop49
280
     0
102
RTVSPost2010PropOp49
 70
     1
102
RTVSPost2010Prop50
 90
       50
102
RTVSPost2010PropOp50
 70
     1
102
RTVSPost2010Prop51ColorIndex
 90
      256
102
RTVSPost2010Prop51ColorRGB
 90
-16777216
102
RTVSPost2010PropOp51
 70
     0
102
RTVSPost2010Prop52
140
1.0
102
RTVSPost2010PropOp52
 70
     0
102
RTVSPost2010Prop53
 90
        2
102
RTVSPost2010PropOp53
 70
     1
102
RTVSPost2010Prop54
  1
strokes_ogs.tif
102
RTVSPost2010PropOp54
 70
     1
102
RTVSPost2010Prop55
280
     0
102
RTVSPost2010PropOp55
 70
     1
102
RTVSPost2010Prop56
140
1.0
102
RTVSPost2010PropOp56
 70
     1
102
RTVSPost2010Prop57
140
1.0
102
RTVSPost2010PropOp57
 70
     1
  0
XRECORD
  5
2EE
102
{ACAD_REACTORS
330
2ED
102
}
330
2ED
100
AcDbXrecord
280
     1
102
RTVSPropertyOp0
 70
     1
102
RTVSPropertyOp1
 70
     1
102
RTVSPropertyOp2
 70
     1
102
RTVSPropertyOp3
 70
     1
102
RTVSPropertyOp4
 70
     1
102
RTVSPropertyOp5
 70
     1
102
RTVSPropertyOp6
 70
     1
102
RTVSPropertyOp7
 70
     1
102
RTVSPropertyOp8
 70
     1
102
RTVSPropertyOp9
 70
     1
102
RTVSPropertyOp10
 70
     1
102
RTVSPropertyOp11
 70
     1
102
RTVSPropertyOp12
 70
     1
102
RTVSPropertyOp13
 70
     1
102
RTVSPropertyOp14
 70
     1
102
RTVSPropertyOp15
 70
     1
102
RTVSPropertyOp16
 70
     1
102
RTVSPropertyOp17
 70
     1
102
RTVSPropertyOp18
 70
     1
102
RTVSPropertyOp19
 70
     1
102
RTVSPropertyOp20
 70
     1
102
RTVSPropertyOp21
 70
     1
102
RTVSPropertyOp22
 70
     1
102
RTVSPropertyOp23
 70
     1
102
RTVSPropertyOp24
 70
     1
102
RTVSPropertyOp25
 70
     1
102
RTVSPropertyOp26
 70
     1
102
RTVSPropertyOp27
 70
     1
102
RTVSPropertyOp28
 70
     1
102
RTVSPropertyOp29
 70
     1
102
RTVSPropertyOp30
 70
     1
102
RTVSPropertyOp31
 70
     1
102
RTVSPropertyOp32
 70
     1
102
RTVSPropertyOp33
 70
     1
102
RTVSPropertyOp34
 70
     1
102
RTVSPropertyOp35
 70
     1
102
RTVSPropertyOp36
 70
     1
102
RTVSPropertyOp37
 70
     1
102
RTVSPropertyOp38
 70
     1
102
RTVSPropertyOp39
 70
     1
102
RTVSPropertyOp40
 70
     1
102
RTVSPropertyOp41
 70
     1
102
RTVSPropertyOp42
 70
     1
102
RTVSPropertyOp43
 70
     1
102
RTVSPropertyOp44
 70
     1
102
RTVSPropertyOp45
 70
     1
102
RTVSPropertyOp46
 70
     1
102
RTVSPropertyOp47
 70
     1
102
RTVSPropertyOp48
 70
     1
102
RTVSPropertyOp49
 70
     1
102
RTVSPropertyOp50
 70
     1
102
RTVSPropertyOp51
 70
     0
102
RTVSPropertyOp52
 70
     0
102
RTVSPropertyOp53
 70
     1
102
RTVSPropertyOp54
 70
     1
102
RTVSPropertyOp55
 70
     1
102
RTVSPropertyOp56
 70
     1
102
RTVSPropertyOp57
 70
     1
102
RTVSPost2010Prop28
280
     0
102
RTVSPost2010PropOp28
 70
     1
102
RTVSPost2010Prop29
280
     1
102
RTVSPost2010PropOp29
 70
     1
102
RTVSPost2010Prop30
280
     1
102
RTVSPost2010PropOp30
 70
     1
102
RTVSPost2010Prop31
280
     0
102
RTVSPost2010PropOp31
 70
     1
102
RTVSPost2010Prop32
280
     0
102
RTVSPost2010PropOp32
 70
     1
102
RTVSPost2010Prop33
280
     0
102
RTVSPost2010PropOp33
 70
     1
102
RTVSPost2010Prop34
280
     0
102
RTVSPost2010PropOp34
 70
     1
102
RTVSPost2010Prop35
280
     0
102
RTVSPost2010PropOp35
 70
     1
102
RTVSPost2010Prop36
280
     0
102
RTVSPost2010PropOp36
 70
     1
102
RTVSPost2010Prop37
 90
       50
102
RTVSPost2010PropOp37
 70
     1
102
RTVSPost2010Prop38
140
0.0
102
RTVSPost2010PropOp38
 70
     1
102
RTVSPost2010Prop39
140
1.0
102
RTVSPost2010PropOp39
 70
     1
102
RTVSPost2010Prop40
 90
        0
102
RTVSPost2010PropOp40
 70
     1
102
RTVSPost2010Prop41ColorIndex
 90
       18
102
RTVSPost2010Prop41ColorRGB
 90
        0
102
RTVSPost2010PropOp41
 70
     1
102
RTVSPost2010Prop42
 90
       50
102
RTVSPost2010PropOp42
 70
     1
102
RTVSPost2010Prop43
 90
        3
102
RTVSPost2010PropOp43
 70
     1
102
RTVSPost2010Prop44ColorIndex
 90
        5
102
RTVSPost2010Prop44ColorRGB
 90
      255
102
RTVSPost2010PropOp44
 70
     1
102
RTVSPost2010Prop45
280
     0
102
RTVSPost2010PropOp45
 70
     1
102
RTVSPost2010Prop46
 90
       50
102
RTVSPost2010PropOp46
 70
     1
102
RTVSPost2010Prop47
 90
       50
102
RTVSPost2010PropOp47
 70
     1
102
RTVSPost2010Prop48
 90
       50
102
RTVSPost2010PropOp48
 70
     1
102
RTVSPost2010Prop49
280
     0
102
RTVSPost2010PropOp49
 70
     1
102
RTVSPost2010Prop50
 90
       50
102
RTVSPost2010PropOp50
 70
     1
102
RTVSPost2010Prop51ColorIndex
 90
      256
102
RTVSPost2010Prop51ColorRGB
 90
-16777216
102
RTVSPost2010PropOp51
 70
     0
102
RTVSPost2010Prop52
140
1.0
102
RTVSPost2010PropOp52
 70
     0
102
RTVSPost2010Prop53
 90
        2
102
RTVSPost2010PropOp53
 70
     1
102
RTVSPost2010Prop54
  1
strokes_ogs.tif
102
RTVSPost2010PropOp54
 70
     1
102
RTVSPost2010Prop55
280
     0
102
RTVSPost2010PropOp55
 70
     1
102
RTVSPost2010Prop56
140
1.0
102
RTVSPost2010PropOp56
 70
     1
102
RTVSPost2010Prop57
140
1.0
102
RTVSPost2010PropOp57
 70
     1
  0
XRECORD
  5
2DE
102
{ACAD_REACTORS
330
2DD
102
}
330
2DD
100
AcDbXrecord
280
     1
102
RTVSPropertyOp0
 70
     1
102
RTVSPropertyOp1
 70
     1
102
RTVSPropertyOp2
 70
     1
102
RTVSPropertyOp3
 70
     1
102
RTVSPropertyOp4
 70
     1
102
RTVSPropertyOp5
 70
     1
102
RTVSPropertyOp6
 70
     1
102
RTVSPropertyOp7
 70
     1
102
RTVSPropertyOp8
 70
     1
102
RTVSPropertyOp9
 70
     1
102
RTVSPropertyOp10
 70
     1
102
RTVSPropertyOp11
 70
     1
102
RTVSPropertyOp12
 70
     1
102
RTVSPropertyOp13
 70
     1
102
RTVSPropertyOp14
 70
     1
102
RTVSPropertyOp15
 70
     1
102
RTVSPropertyOp16
 70
     1
102
RTVSPropertyOp17
 70
     1
102
RTVSPropertyOp18
 70
     1
102
RTVSPropertyOp19
 70
     1
102
RTVSPropertyOp20
 70
     1
102
RTVSPropertyOp21
 70
     1
102
RTVSPropertyOp22
 70
     1
102
RTVSPropertyOp23
 70
     1
102
RTVSPropertyOp24
 70
     1
102
RTVSPropertyOp25
 70
     1
102
RTVSPropertyOp26
 70
     1
102
RTVSPropertyOp27
 70
     1
102
RTVSPropertyOp28
 70
     1
102
RTVSPropertyOp29
 70
     1
102
RTVSPropertyOp30
 70
     1
102
RTVSPropertyOp31
 70
     1
102
RTVSPropertyOp32
 70
     1
102
RTVSPropertyOp33
 70
     1
102
RTVSPropertyOp34
 70
     1
102
RTVSPropertyOp35
 70
     1
102
RTVSPropertyOp36
 70
     1
102
RTVSPropertyOp37
 70
     1
102
RTVSPropertyOp38
 70
     1
102
RTVSPropertyOp39
 70
     1
102
RTVSPropertyOp40
 70
     1
102
RTVSPropertyOp41
 70
     1
102
RTVSPropertyOp42
 70
     1
102
RTVSPropertyOp43
 70
     1
102
RTVSPropertyOp44
 70
     1
102
RTVSPropertyOp45
 70
     1
102
RTVSPropertyOp46
 70
     1
102
RTVSPropertyOp47
 70
     1
102
RTVSPropertyOp48
 70
     1
102
RTVSPropertyOp49
 70
     1
102
RTVSPropertyOp50
 70
     1
102
RTVSPropertyOp51
 70
     0
102
RTVSPropertyOp52
 70
     0
102
RTVSPropertyOp53
 70
     1
102
RTVSPropertyOp54
 70
     1
102
RTVSPropertyOp55
 70
     1
102
RTVSPropertyOp56
 70
     1
102
RTVSPropertyOp57
 70
     1
102
RTVSPost2010Prop28
280
     0
102
RTVSPost2010PropOp28
 70
     1
102
RTVSPost2010Prop29
280
     1
102
RTVSPost2010PropOp29
 70
     1
102
RTVSPost2010Prop30
280
     1
102
RTVSPost2010PropOp30
 70
     1
102
RTVSPost2010Prop31
280
     0
102
RTVSPost2010PropOp31
 70
     1
102
RTVSPost2010Prop32
280
     0
102
RTVSPost2010PropOp32
 70
     1
102
RTVSPost2010Prop33
280
     0
102
RTVSPost2010PropOp33
 70
     1
102
RTVSPost2010Prop34
280
     0
102
RTVSPost2010PropOp34
 70
     1
102
RTVSPost2010Prop35
280
     0
102
RTVSPost2010PropOp35
 70
     1
102
RTVSPost2010Prop36
280
     0
102
RTVSPost2010PropOp36
 70
     1
102
RTVSPost2010Prop37
 90
       50
102
RTVSPost2010PropOp37
 70
     1
102
RTVSPost2010Prop38
140
0.0
102
RTVSPost2010PropOp38
 70
     1
102
RTVSPost2010Prop39
140
1.0
102
RTVSPost2010PropOp39
 70
     1
102
RTVSPost2010Prop40
 90
        0
102
RTVSPost2010PropOp40
 70
     1
102
RTVSPost2010Prop41ColorIndex
 90
       18
102
RTVSPost2010Prop41ColorRGB
 90
        0
102
RTVSPost2010PropOp41
 70
     1
102
RTVSPost2010Prop42
 90
       50
102
RTVSPost2010PropOp42
 70
     1
102
RTVSPost2010Prop43
 90
        3
102
RTVSPost2010PropOp43
 70
     1
102
RTVSPost2010Prop44ColorIndex
 90
        5
102
RTVSPost2010Prop44ColorRGB
 90
      255
102
RTVSPost2010PropOp44
 70
     1
102
RTVSPost2010Prop45
280
     0
102
RTVSPost2010PropOp45
 70
     1
102
RTVSPost2010Prop46
 90
       50
102
RTVSPost2010PropOp46
 70
     1
102
RTVSPost2010Prop47
 90
       50
102
RTVSPost2010PropOp47
 70
     1
102
RTVSPost2010Prop48
 90
       50
102
RTVSPost2010PropOp48
 70
     1
102
RTVSPost2010Prop49
280
     0
102
RTVSPost2010PropOp49
 70
     1
102
RTVSPost2010Prop50
 90
       50
102
RTVSPost2010PropOp50
 70
     1
102
RTVSPost2010Prop51ColorIndex
 90
      256
102
RTVSPost2010Prop51ColorRGB
 90
-16777216
102
RTVSPost2010PropOp51
 70
     0
102
RTVSPost2010Prop52
140
1.0
102
RTVSPost2010PropOp52
 70
     0
102
RTVSPost2010Prop53
 90
        2
102
RTVSPost2010PropOp53
 70
     1
102
RTVSPost2010Prop54
  1
strokes_ogs.tif
102
RTVSPost2010PropOp54
 70
     1
102
RTVSPost2010Prop55
280
     0
102
RTVSPost2010PropOp55
 70
     1
102
RTVSPost2010Prop56
140
1.0
102
RTVSPost2010PropOp56
 70
     1
102
RTVSPost2010Prop57
140
1.0
102
RTVSPost2010PropOp57
 70
     1
  0
XRECORD
  5
2D0
102
{ACAD_REACTORS
330
2CF
102
}
330
2CF
100
AcDbXrecord
280
     1
102
RTVSPropertyOp0
 70
     1
102
RTVSPropertyOp1
 70
     1
102
RTVSPropertyOp2
 70
     1
102
RTVSPropertyOp3
 70
     1
102
RTVSPropertyOp4
 70
     1
102
RTVSPropertyOp5
 70
     1
102
RTVSPropertyOp6
 70
     1
102
RTVSPropertyOp7
 70
     1
102
RTVSPropertyOp8
 70
     1
102
RTVSPropertyOp9
 70
     1
102
RTVSPropertyOp10
 70
     1
102
RTVSPropertyOp11
 70
     1
102
RTVSPropertyOp12
 70
     1
102
RTVSPropertyOp13
 70
     1
102
RTVSPropertyOp14
 70
     1
102
RTVSPropertyOp15
 70
     1
102
RTVSPropertyOp16
 70
     1
102
RTVSPropertyOp17
 70
     1
102
RTVSPropertyOp18
 70
     1
102
RTVSPropertyOp19
 70
     1
102
RTVSPropertyOp20
 70
     1
102
RTVSPropertyOp21
 70
     1
102
RTVSPropertyOp22
 70
     1
102
RTVSPropertyOp23
 70
     1
102
RTVSPropertyOp24
 70
     1
102
RTVSPropertyOp25
 70
     1
102
RTVSPropertyOp26
 70
     1
102
RTVSPropertyOp27
 70
     1
102
RTVSPropertyOp28
 70
     1
102
RTVSPropertyOp29
 70
     1
102
RTVSPropertyOp30
 70
     1
102
RTVSPropertyOp31
 70
     1
102
RTVSPropertyOp32
 70
     1
102
RTVSPropertyOp33
 70
     1
102
RTVSPropertyOp34
 70
     1
102
RTVSPropertyOp35
 70
     1
102
RTVSPropertyOp36
 70
     1
102
RTVSPropertyOp37
 70
     1
102
RTVSPropertyOp38
 70
     1
102
RTVSPropertyOp39
 70
     1
102
RTVSPropertyOp40
 70
     1
102
RTVSPropertyOp41
 70
     1
102
RTVSPropertyOp42
 70
     1
102
RTVSPropertyOp43
 70
     1
102
RTVSPropertyOp44
 70
     1
102
RTVSPropertyOp45
 70
     1
102
RTVSPropertyOp46
 70
     1
102
RTVSPropertyOp47
 70
     1
102
RTVSPropertyOp48
 70
     1
102
RTVSPropertyOp49
 70
     1
102
RTVSPropertyOp50
 70
     1
102
RTVSPropertyOp51
 70
     0
102
RTVSPropertyOp52
 70
     0
102
RTVSPropertyOp53
 70
     1
102
RTVSPropertyOp54
 70
     1
102
RTVSPropertyOp55
 70
     1
102
RTVSPropertyOp56
 70
     1
102
RTVSPropertyOp57
 70
     1
102
RTVSPost2010Prop28
280
     0
102
RTVSPost2010PropOp28
 70
     1
102
RTVSPost2010Prop29
280
     1
102
RTVSPost2010PropOp29
 70
     1
102
RTVSPost2010Prop30
280
     1
102
RTVSPost2010PropOp30
 70
     1
102
RTVSPost2010Prop31
280
     0
102
RTVSPost2010PropOp31
 70
     1
102
RTVSPost2010Prop32
280
     0
102
RTVSPost2010PropOp32
 70
     1
102
RTVSPost2010Prop33
280
     0
102
RTVSPost2010PropOp33
 70
     1
102
RTVSPost2010Prop34
280
     0
102
RTVSPost2010PropOp34
 70
     1
102
RTVSPost2010Prop35
280
     0
102
RTVSPost2010PropOp35
 70
     1
102
RTVSPost2010Prop36
280
     0
102
RTVSPost2010PropOp36
 70
     1
102
RTVSPost2010Prop37
 90
       50
102
RTVSPost2010PropOp37
 70
     1
102
RTVSPost2010Prop38
140
0.0
102
RTVSPost2010PropOp38
 70
     1
102
RTVSPost2010Prop39
140
1.0
102
RTVSPost2010PropOp39
 70
     1
102
RTVSPost2010Prop40
 90
        0
102
RTVSPost2010PropOp40
 70
     1
102
RTVSPost2010Prop41ColorIndex
 90
       18
102
RTVSPost2010Prop41ColorRGB
 90
        0
102
RTVSPost2010PropOp41
 70
     1
102
RTVSPost2010Prop42
 90
       50
102
RTVSPost2010PropOp42
 70
     1
102
RTVSPost2010Prop43
 90
        3
102
RTVSPost2010PropOp43
 70
     1
102
RTVSPost2010Prop44ColorIndex
 90
        5
102
RTVSPost2010Prop44ColorRGB
 90
      255
102
RTVSPost2010PropOp44
 70
     1
102
RTVSPost2010Prop45
280
     0
102
RTVSPost2010PropOp45
 70
     1
102
RTVSPost2010Prop46
 90
       50
102
RTVSPost2010PropOp46
 70
     1
102
RTVSPost2010Prop47
 90
       50
102
RTVSPost2010PropOp47
 70
     1
102
RTVSPost2010Prop48
 90
       50
102
RTVSPost2010PropOp48
 70
     1
102
RTVSPost2010Prop49
280
     0
102
RTVSPost2010PropOp49
 70
     1
102
RTVSPost2010Prop50
 90
       50
102
RTVSPost2010PropOp50
 70
     1
102
RTVSPost2010Prop51ColorIndex
 90
      256
102
RTVSPost2010Prop51ColorRGB
 90
-16777216
102
RTVSPost2010PropOp51
 70
     0
102
RTVSPost2010Prop52
140
1.0
102
RTVSPost2010PropOp52
 70
     0
102
RTVSPost2010Prop53
 90
        2
102
RTVSPost2010PropOp53
 70
     1
102
RTVSPost2010Prop54
  1
strokes_ogs.tif
102
RTVSPost2010PropOp54
 70
     1
102
RTVSPost2010Prop55
280
     0
102
RTVSPost2010PropOp55
 70
     1
102
RTVSPost2010Prop56
140
1.0
102
RTVSPost2010PropOp56
 70
     1
102
RTVSPost2010Prop57
140
1.0
102
RTVSPost2010PropOp57
 70
     1
  0
XRECORD
  5
2F0
102
{ACAD_REACTORS
330
2EF
102
}
330
2EF
100
AcDbXrecord
280
     1
102
RTVSPropertyOp0
 70
     1
102
RTVSPropertyOp1
 70
     1
102
RTVSPropertyOp2
 70
     1
102
RTVSPropertyOp3
 70
     1
102
RTVSPropertyOp4
 70
     1
102
RTVSPropertyOp5
 70
     1
102
RTVSPropertyOp6
 70
     1
102
RTVSPropertyOp7
 70
     1
102
RTVSPropertyOp8
 70
     1
102
RTVSPropertyOp9
 70
     1
102
RTVSPropertyOp10
 70
     1
102
RTVSPropertyOp11
 70
     1
102
RTVSPropertyOp12
 70
     1
102
RTVSPropertyOp13
 70
     1
102
RTVSPropertyOp14
 70
     1
102
RTVSPropertyOp15
 70
     1
102
RTVSPropertyOp16
 70
     1
102
RTVSPropertyOp17
 70
     1
102
RTVSPropertyOp18
 70
     1
102
RTVSPropertyOp19
 70
     1
102
RTVSPropertyOp20
 70
     1
102
RTVSPropertyOp21
 70
     1
102
RTVSPropertyOp22
 70
     1
102
RTVSPropertyOp23
 70
     1
102
RTVSPropertyOp24
 70
     1
102
RTVSPropertyOp25
 70
     1
102
RTVSPropertyOp26
 70
     1
102
RTVSPropertyOp27
 70
     1
102
RTVSPropertyOp28
 70
     1
102
RTVSPropertyOp29
 70
     1
102
RTVSPropertyOp30
 70
     1
102
RTVSPropertyOp31
 70
     1
102
RTVSPropertyOp32
 70
     1
102
RTVSPropertyOp33
 70
     1
102
RTVSPropertyOp34
 70
     1
102
RTVSPropertyOp35
 70
     1
102
RTVSPropertyOp36
 70
     1
102
RTVSPropertyOp37
 70
     1
102
RTVSPropertyOp38
 70
     1
102
RTVSPropertyOp39
 70
     1
102
RTVSPropertyOp40
 70
     1
102
RTVSPropertyOp41
 70
     1
102
RTVSPropertyOp42
 70
     1
102
RTVSPropertyOp43
 70
     1
102
RTVSPropertyOp44
 70
     1
102
RTVSPropertyOp45
 70
     1
102
RTVSPropertyOp46
 70
     1
102
RTVSPropertyOp47
 70
     1
102
RTVSPropertyOp48
 70
     1
102
RTVSPropertyOp49
 70
     1
102
RTVSPropertyOp50
 70
     1
102
RTVSPropertyOp51
 70
     0
102
RTVSPropertyOp52
 70
     0
102
RTVSPropertyOp53
 70
     1
102
RTVSPropertyOp54
 70
     1
102
RTVSPropertyOp55
 70
     1
102
RTVSPropertyOp56
 70
     1
102
RTVSPropertyOp57
 70
     1
102
RTVSPost2010Prop28
280
     0
102
RTVSPost2010PropOp28
 70
     1
102
RTVSPost2010Prop29
280
     1
102
RTVSPost2010PropOp29
 70
     1
102
RTVSPost2010Prop30
280
     1
102
RTVSPost2010PropOp30
 70
     1
102
RTVSPost2010Prop31
280
     0
102
RTVSPost2010PropOp31
 70
     1
102
RTVSPost2010Prop32
280
     0
102
RTVSPost2010PropOp32
 70
     1
102
RTVSPost2010Prop33
280
     0
102
RTVSPost2010PropOp33
 70
     1
102
RTVSPost2010Prop34
280
     0
102
RTVSPost2010PropOp34
 70
     1
102
RTVSPost2010Prop35
280
     0
102
RTVSPost2010PropOp35
 70
     1
102
RTVSPost2010Prop36
280
     0
102
RTVSPost2010PropOp36
 70
     1
102
RTVSPost2010Prop37
 90
       50
102
RTVSPost2010PropOp37
 70
     1
102
RTVSPost2010Prop38
140
0.0
102
RTVSPost2010PropOp38
 70
     1
102
RTVSPost2010Prop39
140
1.0
102
RTVSPost2010PropOp39
 70
     1
102
RTVSPost2010Prop40
 90
        0
102
RTVSPost2010PropOp40
 70
     1
102
RTVSPost2010Prop41ColorIndex
 90
       18
102
RTVSPost2010Prop41ColorRGB
 90
        0
102
RTVSPost2010PropOp41
 70
     1
102
RTVSPost2010Prop42
 90
       50
102
RTVSPost2010PropOp42
 70
     1
102
RTVSPost2010Prop43
 90
        3
102
RTVSPost2010PropOp43
 70
     1
102
RTVSPost2010Prop44ColorIndex
 90
        5
102
RTVSPost2010Prop44ColorRGB
 90
      255
102
RTVSPost2010PropOp44
 70
     1
102
RTVSPost2010Prop45
280
     0
102
RTVSPost2010PropOp45
 70
     1
102
RTVSPost2010Prop46
 90
       50
102
RTVSPost2010PropOp46
 70
     1
102
RTVSPost2010Prop47
 90
       50
102
RTVSPost2010PropOp47
 70
     1
102
RTVSPost2010Prop48
 90
       50
102
RTVSPost2010PropOp48
 70
     1
102
RTVSPost2010Prop49
280
     0
102
RTVSPost2010PropOp49
 70
     1
102
RTVSPost2010Prop50
 90
       50
102
RTVSPost2010PropOp50
 70
     1
102
RTVSPost2010Prop51ColorIndex
 90
      256
102
RTVSPost2010Prop51ColorRGB
 90
-16777216
102
RTVSPost2010PropOp51
 70
     0
102
RTVSPost2010Prop52
140
1.0
102
RTVSPost2010PropOp52
 70
     0
102
RTVSPost2010Prop53
 90
        2
102
RTVSPost2010PropOp53
 70
     1
102
RTVSPost2010Prop54
  1
strokes_ogs.tif
102
RTVSPost2010PropOp54
 70
     1
102
RTVSPost2010Prop55
280
     0
102
RTVSPost2010PropOp55
 70
     1
102
RTVSPost2010Prop56
140
1.0
102
RTVSPost2010PropOp56
 70
     1
102
RTVSPost2010Prop57
140
1.0
102
RTVSPost2010PropOp57
 70
     1
  0
ENDSEC
  0
EOF
