  0
SECTION
  2
HEADER
  9
$ACADVER
  1
AC1018
  9
$ACADMAINTVER
 70
     0
  9
$DWGCODEPAGE
  3
ANSI_932
  9
$INSBASE
 10
0.0
 20
0.0
 30
0.0
  9
$EXTMIN
 10
-1050.0
 20
-742.5
 30
0.0
  9
$EXTMAX
 10
1050.0
 20
742.5
 30
0.0
  9
$LIMMIN
 10
-1050.0
 20
-742.5
  9
$LIMMAX
 10
1050.0
 20
742.5
  9
$ORTHOMODE
 70
     0
  9
$REGENMODE
 70
     1
  9
$FILLMODE
 70
     1
  9
$QTEXTMODE
 70
     0
  9
$MIRRTEXT
 70
     1
  9
$LTSCALE
 40
5.0
  9
$ATTMODE
 70
     1
  9
$TEXTSIZE
 40
2.5
  9
$TRACEWID
 40
1.0
  9
$TEXTSTYLE
  7
Standard
  9
$CLAYER
  8
0
  9
$CELTYPE
  6
ByLayer
  9
$CECOLOR
 62
   256
  9
$CELTSCALE
 40
1.0
  9
$DISPSILH
 70
     0
  9
$DIMSCALE
 40
1.0
  9
$DIMASZ
 40
2.5
  9
$DIMEXO
 40
0.625
  9
$DIMDLI
 40
3.75
  9
$DIMRND
 40
0.0
  9
$DIMDLE
 40
0.0
  9
$DIMEXE
 40
1.25
  9
$DIMTP
 40
0.0
  9
$DIMTM
 40
0.0
  9
$DIMTXT
 40
2.5
  9
$DIMCEN
 40
2.5
  9
$DIMTSZ
 40
0.0
  9
$DIMTOL
 70
     0
  9
$DIMLIM
 70
     0
  9
$DIMTIH
 70
     0
  9
$DIMTOH
 70
     0
  9
$DIMSE1
 70
     0
  9
$DIMSE2
 70
     0
  9
$DIMTAD
 70
     1
  9
$DIMZIN
 70
     8
  9
$DIMBLK
  1

  9
$DIMASO
 70
     1
  9
$DIMSHO
 70
     1
  9
$DIMPOST
  1

  9
$DIMAPOST
  1

  9
$DIMALT
 70
     0
  9
$DIMALTD
 70
     3
  9
$DIMALTF
 40
0.03937007874016
  9
$DIMLFAC
 40
1.0
  9
$DIMTOFL
 70
     1
  9
$DIMTVP
 40
0.0
  9
$DIMTIX
 70
     0
  9
$DIMSOXD
 70
     0
  9
$DIMSAH
 70
     0
  9
$DIMBLK1
  1

  9
$DIMBLK2
  1

  9
$DIMSTYLE
  2
ISO-25
  9
$DIMCLRD
 70
     0
  9
$DIMCLRE
 70
     0
  9
$DIMCLRT
 70
     0
  9
$DIMTFAC
 40
1.0
  9
$DIMGAP
 40
0.625
  9
$DIMJUST
 70
     0
  9
$DIMSD1
 70
     0
  9
$DIMSD2
 70
     0
  9
$DIMTOLJ
 70
     0
  9
$DIMTZIN
 70
     8
  9
$DIMALTZ
 70
     0
  9
$DIMALTTZ
 70
     0
  9
$DIMUPT
 70
     0
  9
$DIMDEC
 70
     2
  9
$DIMTDEC
 70
     2
  9
$DIMALTU
 70
     2
  9
$DIMALTTD
 70
     3
  9
$DIMTXSTY
  7
Standard
  9
$DIMAUNIT
 70
     0
  9
$DIMADEC
 70
     0
  9
$DIMALTRND
 40
0.0
  9
$DIMAZIN
 70
     0
  9
$DIMDSEP
 70
    44
  9
$DIMATFIT
 70
     3
  9
$DIMFRAC
 70
     0
  9
$DIMLDRBLK
  1

  9
$DIMLUNIT
 70
     2
  9
$DIMLWD
 70
    -2
  9
$DIMLWE
 70
    -2
  9
$DIMTMOVE
 70
     0
  9
$LUNITS
 70
     2
  9
$LUPREC
 70
     4
  9
$SKETCHINC
 40
1.0
  9
$FILLETRAD
 40
10.0
  9
$AUNITS
 70
     0
  9
$AUPREC
 70
     0
  9
$MENU
  1
.
  9
$ELEVATION
 40
0.0
  9
$PELEVATION
 40
0.0
  9
$THICKNESS
 40
0.0
  9
$LIMCHECK
 70
     0
  9
$CHAMFERA
 40
0.0
  9
$CHAMFERB
 40
0.0
  9
$CHAMFERC
 40
0.0
  9
$CHAMFERD
 40
0.0
  9
$SKPOLY
 70
     0
  9
$TDCREATE
 40
2459475.711737928
  9
$TDUCREATE
 40
2459475.336737928
  9
$TDUPDATE
 40
2459475.711738056
  9
$TDUUPDATE
 40
2459475.336738056
  9
$TDINDWG
 40
0.0000000116
  9
$TDUSRTIMER
 40
0.0000000116
  9
$USRTIMER
 70
     1
  9
$ANGBASE
 50
0.0
  9
$ANGDIR
 70
     0
  9
$PDMODE
 70
     0
  9
$PDSIZE
 40
0.0
  9
$PLINEWID
 40
0.0
  9
$SPLFRAME
 70
     0
  9
$SPLINETYPE
 70
     6
  9
$SPLINESEGS
 70
     8
  9
$HANDSEED
  5
3A7
  9
$SURFTAB1
 70
     6
  9
$SURFTAB2
 70
     6
  9
$SURFTYPE
 70
     6
  9
$SURFU
 70
     6
  9
$SURFV
 70
     6
  9
$UCSBASE
  2

  9
$UCSNAME
  2

  9
$UCSORG
 10
0.0
 20
0.0
 30
0.0
  9
$UCSXDIR
 10
1.0
 20
0.0
 30
0.0
  9
$UCSYDIR
 10
0.0
 20
1.0
 30
0.0
  9
$UCSORTHOREF
  2

  9
$UCSORTHOVIEW
 70
     0
  9
$UCSORGTOP
 10
0.0
 20
0.0
 30
0.0
  9
$UCSORGBOTTOM
 10
0.0
 20
0.0
 30
0.0
  9
$UCSORGLEFT
 10
0.0
 20
0.0
 30
0.0
  9
$UCSORGRIGHT
 10
0.0
 20
0.0
 30
0.0
  9
$UCSORGFRONT
 10
0.0
 20
0.0
 30
0.0
  9
$UCSORGBACK
 10
0.0
 20
0.0
 30
0.0
  9
$PUCSBASE
  2

  9
$PUCSNAME
  2

  9
$PUCSORG
 10
0.0
 20
0.0
 30
0.0
  9
$PUCSXDIR
 10
1.0
 20
0.0
 30
0.0
  9
$PUCSYDIR
 10
0.0
 20
1.0
 30
0.0
  9
$PUCSORTHOREF
  2

  9
$PUCSORTHOVIEW
 70
     0
  9
$PUCSORGTOP
 10
0.0
 20
0.0
 30
0.0
  9
$PUCSORGBOTTOM
 10
0.0
 20
0.0
 30
0.0
  9
$PUCSORGLEFT
 10
0.0
 20
0.0
 30
0.0
  9
$PUCSORGRIGHT
 10
0.0
 20
0.0
 30
0.0
  9
$PUCSORGFRONT
 10
0.0
 20
0.0
 30
0.0
  9
$PUCSORGBACK
 10
0.0
 20
0.0
 30
0.0
  9
$USERI1
 70
     0
  9
$USERI2
 70
     0
  9
$USERI3
 70
     0
  9
$USERI4
 70
     0
  9
$USERI5
 70
     0
  9
$USERR1
 40
0.0
  9
$USERR2
 40
0.0
  9
$USERR3
 40
0.0
  9
$USERR4
 40
0.0
  9
$USERR5
 40
0.0
  9
$WORLDVIEW
 70
     1
  9
$SHADEDGE
 70
     3
  9
$SHADEDIF
 70
    70
  9
$TILEMODE
 70
     1
  9
$MAXACTVP
 70
    64
  9
$PINSBASE
 10
0.0
 20
0.0
 30
0.0
  9
$PLIMCHECK
 70
     0
  9
$PEXTMIN
 10
1.000000000000000E+20
 20
1.000000000000000E+20
 30
1.000000000000000E+20
  9
$PEXTMAX
 10
-1.000000000000000E+20
 20
-1.000000000000000E+20
 30
-1.000000000000000E+20
  9
$PLIMMIN
 10
0.0
 20
0.0
  9
$PLIMMAX
 10
420.0
 20
297.0
  9
$UNITMODE
 70
     0
  9
$VISRETAIN
 70
     1
  9
$PLINEGEN
 70
     0
  9
$PSLTSCALE
 70
     1
  9
$TREEDEPTH
 70
  3020
  9
$CMLSTYLE
  2
Standard
  9
$CMLJUST
 70
     0
  9
$CMLSCALE
 40
20.0
  9
$PROXYGRAPHICS
 70
     1
  9
$MEASUREMENT
 70
     1
  9
$CELWEIGHT
370
    -1
  9
$ENDCAPS
280
     0
  9
$JOINSTYLE
280
     0
  9
$LWDISPLAY
290
     0
  9
$INSUNITS
 70
     4
  9
$HYPERLINKBASE
  1

  9
$STYLESHEET
  1

  9
$XEDIT
290
     1
  9
$CEPSNTYPE
380
     0
  9
$PSTYLEMODE
290
     1
  9
$FINGERPRINTGUID
  2
{39B35FC5-E0C7-4C20-B95B-2D542B0E9BDC}
  9
$VERSIONGUID
  2
{FAEB1C32-E019-11D5-929B-00C0DF256EC4}
  9
$EXTNAMES
290
     1
  9
$PSVPSCALE
 40
0.0
  9
$OLESTARTUP
290
     0
  9
$SORTENTS
280
   127
  9
$INDEXCTL
280
     0
  9
$HIDETEXT
280
     1
  9
$XCLIPFRAME
290
     0
  9
$HALOGAP
280
     0
  9
$OBSCOLOR
 70
   257
  9
$OBSLTYPE
280
     0
  9
$INTERSECTIONDISPLAY
280
     0
  9
$INTERSECTIONCOLOR
 70
   257
  9
$DIMASSOC
280
     2
  9
$PROJECTNAME
  1

  0
ENDSEC
  0
SECTION
  2
CLASSES
  0
CLASS
  1
ACDBDICTIONARYWDFLT
  2
AcDbDictionaryWithDefault
  3
ObjectDBX Classes
 90
        0
 91
        4
280
     0
281
     0
  0
CLASS
  1
VISUALSTYLE
  2
AcDbVisualStyle
  3
ObjectDBX Classes
 90
     4095
 91
        4
280
     0
281
     0
  0
CLASS
  1
MATERIAL
  2
AcDbMaterial
  3
ObjectDBX Classes
 90
     1153
 91
        4
280
     0
281
     0
  0
CLASS
  1
SCALE
  2
AcDbScale
  3
ObjectDBX Classes
 90
     1153
 91
        4
280
     0
281
     0
  0
CLASS
  1
TABLESTYLE
  2
AcDbTableStyle
  3
ObjectDBX Classes
 90
     4095
 91
        4
280
     0
281
     0
  0
CLASS
  1
MLEADERSTYLE
  2
AcDbMLeaderStyle
  3
ACDB_MLEADERSTYLE_CLASS
 90
     4095
 91
        4
280
     0
281
     0
  0
CLASS
  1
SUN
  2
AcDbSun
  3
SCENEOE
 90
     1153
 91
        4
280
     0
281
     0
  0
CLASS
  1
DICTIONARYVAR
  2
AcDbDictionaryVar
  3
ObjectDBX Classes
 90
        0
 91
        4
280
     0
281
     0
  0
CLASS
  1
CELLSTYLEMAP
  2
AcDbCellStyleMap
  3
ObjectDBX Classes
 90
     1152
 91
        4
280
     0
281
     0
  0
ENDSEC
  0
SECTION
  2
TABLES
  0
TABLE
  2
VPORT
  5
8
102
{ACAD_XDICTIONARY
360
35E
102
}
330
0
100
AcDbSymbolTable
 70
     1
  0
VPORT
  5
29
330
8
100
AcDbSymbolTableRecord
100
AcDbViewportTableRecord
  2
*Active
 70
     0
 10
0.0
 20
0.0
 11
1.0
 21
1.0
 12
0.0
 22
0.0
 13
0.0
 23
0.0
 14
10.0
 24
10.0
 15
10.0
 25
10.0
 16
0.0
 26
0.0
 36
1.0
 17
0.0
 27
0.0
 37
0.0
 40
1633.5
 41
1.414141414141414
 42
50.0
 43
0.0
 44
0.0
 50
0.0
 51
0.0
 71
     0
 72
 10000
 73
     1
 74
     3
 75
     0
 76
     0
 77
     0
 78
     0
281
     0
 65
     1
110
0.0
120
0.0
130
0.0
111
1.0
121
0.0
131
0.0
112
0.0
122
1.0
132
0.0
 79
     0
146
0.0
  0
ENDTAB
  0
TABLE
  2
LTYPE
  5
5
330
0
100
AcDbSymbolTable
 70
     3
  0
LTYPE
  5
14
330
5
100
AcDbSymbolTableRecord
100
AcDbLinetypeTableRecord
  2
ByBlock
 70
     0
  3

 72
    65
 73
     0
 40
0.0
  0
LTYPE
  5
15
330
5
100
AcDbSymbolTableRecord
100
AcDbLinetypeTableRecord
  2
ByLayer
 70
     0
  3

 72
    65
 73
     0
 40
0.0
  0
LTYPE
  5
16
330
5
100
AcDbSymbolTableRecord
100
AcDbLinetypeTableRecord
  2
Continuous
 70
     0
  3
Solid line
 72
    65
 73
     0
 40
0.0
  0
LTYPE
  5
6F
330
5
100
AcDbSymbolTableRecord
100
AcDbLinetypeTableRecord
  2
JWW_DASHED1
 70
     0
  3
-  --  --  --  --  --  --  --  -
 72
    65
 73
     2
 40
1.693333333333333
 49
0.8466666666666667
 74
     0
 49
-0.8466666666666667
 74
     0
  0
LTYPE
  5
70
330
5
100
AcDbSymbolTableRecord
100
AcDbLinetypeTableRecord
  2
JWW_CENTER1
 70
     0
  3
-----  --  ----------  --  -----
 72
    65
 73
     4
 40
6.773333333333333
 49
4.233333333333333
 74
     0
 49
-0.8466666666666667
 74
     0
 49
0.8466666666666667
 74
     0
 49
-0.8466666666666667
 74
     0
  0
ENDTAB
  0
TABLE
  2
LAYER
  5
2
330
0
100
AcDbSymbolTable
 70
     7
  0
LAYER
  5
10
330
2
100
AcDbSymbolTableRecord
100
AcDbLayerTableRecord
  2
0
 70
     0
 62
     7
  6
Continuous
370
    -3
390
F
  0
LAYER
  5
71
330
2
100
AcDbSymbolTableRecord
100
AcDbLayerTableRecord
  2
F-4ﾚｲﾔ
 70
     0
 62
     7
  6
Continuous
370
    -3
390
F
  0
LAYER
  5
72
330
2
100
AcDbSymbolTableRecord
100
AcDbLayerTableRecord
  2
F-5ﾚｲﾔ
 70
     0
 62
     7
  6
Continuous
370
    -3
390
F
  0
LAYER
  5
73
330
2
100
AcDbSymbolTableRecord
100
AcDbLayerTableRecord
  2
1-4ﾚｲﾔ
 70
     0
 62
     7
  6
Continuous
370
    -3
390
F
  0
LAYER
  5
74
330
2
100
AcDbSymbolTableRecord
100
AcDbLayerTableRecord
  2
1-2ﾚｲﾔ
 70
     0
 62
     7
  6
Continuous
370
    -3
390
F
  0
LAYER
  5
75
330
2
100
AcDbSymbolTableRecord
100
AcDbLayerTableRecord
  2
1-1ﾚｲﾔ
 70
     0
 62
     7
  6
Continuous
370
    -3
390
F
  0
LAYER
  5
76
330
2
100
AcDbSymbolTableRecord
100
AcDbLayerTableRecord
  2
1-E
 70
     0
 62
     7
  6
Continuous
370
    -3
390
F
  0
ENDTAB
  0
TABLE
  2
STYLE
  5
3
330
0
100
AcDbSymbolTable
 70
     2
  0
STYLE
  5
11
330
3
100
AcDbSymbolTableRecord
100
AcDbTextStyleTableRecord
  2
Standard
 70
     0
 40
0.0
 41
1.0
 50
0.0
 71
     0
 42
2.5
  3
txt
  4

  0
STYLE
  5
6E
330
3
100
AcDbSymbolTableRecord
100
AcDbTextStyleTableRecord
  2
ＭＳ ゴシック
 70
     0
 40
1.0
 41
1.0
 50
0.0
 71
     0
 42
2.5
  3

  4

1001
ACAD
1000
MS Gothic
1071
    32817
  0
ENDTAB
  0
TABLE
  2
VIEW
  5
6
330
0
100
AcDbSymbolTable
 70
     0
  0
ENDTAB
  0
TABLE
  2
UCS
  5
7
330
0
100
AcDbSymbolTable
 70
     0
  0
ENDTAB
  0
TABLE
  2
APPID
  5
9
330
0
100
AcDbSymbolTable
 70
     2
  0
APPID
  5
12
330
9
100
AcDbSymbolTableRecord
100
AcDbRegAppTableRecord
  2
ACAD
 70
     0
  0
APPID
  5
39D
330
9
100
AcDbSymbolTableRecord
100
AcDbRegAppTableRecord
  2
ACAD_MLEADERVER
 70
     0
  0
ENDTAB
  0
TABLE
  2
DIMSTYLE
  5
A
330
0
100
AcDbSymbolTable
 70
     1
100
AcDbDimStyleTable
  0
DIMSTYLE
105
27
330
A
100
AcDbSymbolTableRecord
100
AcDbDimStyleTableRecord
  2
ISO-25
 70
     0
 41
2.5
 42
0.625
 43
3.75
 44
1.25
 73
     0
 74
     0
 77
     1
 78
     8
140
2.5
141
2.5
143
0.03937007874016
147
0.625
171
     3
172
     1
178
     0
271
     2
272
     2
274
     3
278
    44
283
     0
284
     8
340
11
  0
ENDTAB
  0
TABLE
  2
BLOCK_RECORD
  5
1
330
0
100
AcDbSymbolTable
 70
     1
  0
BLOCK_RECORD
  5
1F
330
1
100
AcDbSymbolTableRecord
100
AcDbBlockTableRecord
  2
*Model_Space
340
22
  0
BLOCK_RECORD
  5
1B
330
1
100
AcDbSymbolTableRecord
100
AcDbBlockTableRecord
  2
*Paper_Space
340
1E
  0
BLOCK_RECORD
  5
23
330
1
100
AcDbSymbolTableRecord
100
AcDbBlockTableRecord
  2
*Paper_Space0
340
26
  0
ENDTAB
  0
ENDSEC
  0
SECTION
  2
BLOCKS
  0
BLOCK
  5
20
330
1F
100
AcDbEntity
  8
0
100
AcDbBlockBegin
  2
*Model_Space
 70
     0
 10
0.0
 20
0.0
 30
0.0
  3
*Model_Space
  1

  0
ENDBLK
  5
21
330
1F
100
AcDbEntity
  8
0
100
AcDbBlockEnd
  0
BLOCK
  5
1C
330
1B
100
AcDbEntity
 67
     1
  8
0
100
AcDbBlockBegin
  2
*Paper_Space
 70
     0
 10
0.0
 20
0.0
 30
0.0
  3
*Paper_Space
  1

  0
ENDBLK
  5
1D
330
1B
100
AcDbEntity
 67
     1
  8
0
100
AcDbBlockEnd
  0
BLOCK
  5
24
330
23
100
AcDbEntity
  8
0
100
AcDbBlockBegin
  2
*Paper_Space0
 70
     0
 10
0.0
 20
0.0
 30
0.0
  3
*Paper_Space0
  1

  0
ENDBLK
  5
25
330
23
100
AcDbEntity
  8
0
100
AcDbBlockEnd
  0
ENDSEC
  0
SECTION
  2
ENTITIES
  0
LINE
  5
77
330
1F
100
AcDbEntity
  8
F-4ﾚｲﾔ
  6
Continuous
 62
     2
370
     9
100
AcDbLine
 10
184.5360420845651
 20
-335.1878233213682
 30
0.0
 11
184.5360420845651
 21
-310.18798828125
 31
0.0
  0
LINE
  5
78
330
1F
100
AcDbEntity
  8
F-4ﾚｲﾔ
  6
Continuous
 62
     2
370
     9
100
AcDbLine
 10
184.5360420845651
 20
-310.18798828125
 30
0.0
 11
297.0360420845651
 21
-310.18798828125
 31
0.0
  0
LINE
  5
79
330
1F
100
AcDbEntity
  8
F-4ﾚｲﾔ
  6
Continuous
 62
     2
370
     9
100
AcDbLine
 10
297.0360420845651
 20
-310.18798828125
 30
0.0
 11
297.0360420845651
 21
-335.1878233213682
 31
0.0
  0
LINE
  5
7A
330
1F
100
AcDbEntity
  8
F-4ﾚｲﾔ
  6
Continuous
 62
     2
370
     9
100
AcDbLine
 10
297.0360420845651
 20
-335.1878233213682
 30
0.0
 11
184.5360420845651
 21
-335.1878233213682
 31
0.0
  0
TEXT
  5
7B
330
1F
100
AcDbEntity
  8
F-4ﾚｲﾔ
  6
Continuous
 62
     2
370
     9
100
AcDbText
 10
208.2860585805533
 20
-329.8682480930638
 30
0.0
 40
15.24
  1
仕　様
 41
1.083333333333333
  7
ＭＳ ゴシック
100
AcDbText
  0
TEXT
  5
7C
330
1F
100
AcDbEntity
  8
F-4ﾚｲﾔ
  6
Continuous
 62
     2
370
     9
100
AcDbText
 10
265.4369869747677
 20
-445.4869754762003
 30
0.0
 40
15.24
  1
処理：溶融亜鉛めっき
 41
1.1125
  7
ＭＳ ゴシック
100
AcDbText
  0
TEXT
  5
7D
330
1F
100
AcDbEntity
  8
F-4ﾚｲﾔ
  6
Continuous
 62
     2
370
     9
100
AcDbText
 10
265.4372344145904
 20
-417.0995780006918
 30
0.0
 40
15.24
  1
材質：ＳＳ４００＋ＳＴＫＲ４００
 41
1.1171875
  7
ＭＳ ゴシック
100
AcDbText
  0
TEXT
  5
7E
330
1F
100
AcDbEntity
  8
F-4ﾚｲﾔ
  6
Continuous
 62
     2
370
     9
100
AcDbText
 10
235.580774255701
 20
-361.3280564426731
 30
0.0
 40
15.24
  1
スチール製グレーチング　かさあげ型　プレーンタイプ
 41
1.12
  7
ＭＳ ゴシック
100
AcDbText
  0
TEXT
  5
7F
330
1F
100
AcDbEntity
  8
F-5ﾚｲﾔ
  6
Continuous
 62
     3
370
     9
100
AcDbText
 10
322.0360420845651
 20
-331.6628233213683
 30
0.0
 40
19.05
  1
※適用荷重：Ｔ－２
 41
1.088888888888889
  7
ＭＳ ゴシック
100
AcDbText
  0
TEXT
  5
80
330
1F
100
AcDbEntity
  8
F-4ﾚｲﾔ
  6
Continuous
 62
     2
370
     9
100
AcDbText
 10
235.580774255701
 20
-387.9861986644701
 30
0.0
 40
15.24
  1
ＪＩＳ型側溝用　ＨＳＪ　５１３２Ｂ
 41
1.117647058823529
  7
ＭＳ ゴシック
100
AcDbText
  0
TEXT
  5
81
330
1F
100
AcDbEntity
  8
F-4ﾚｲﾔ
  6
Continuous
 62
     2
370
     9
100
AcDbText
 10
265.4369869747677
 20
-473.8342132509425
 30
0.0
 40
15.24
  1
定尺：９９５
 41
1.104166666666667
  7
ＭＳ ゴシック
100
AcDbText
  0
LWPOLYLINE
  5
82
330
1F
100
AcDbEntity
  8
1-4ﾚｲﾔ
  6
Continuous
 62
     7
370
     9
100
AcDbPolyline
 90
        4
 70
     1
 43
1.0
 10
-842.7432432432432
 20
-68.38774188870286
 42
0.4142135623731
 10
-843.2432432432432
 20
-67.88774188870286
 42
0.4142135623731
 10
-843.7432432432432
 20
-68.38774188870286
 42
0.4142135623731
 10
-843.2432432432432
 20
-68.88774188870285
 42
0.4142135623731
  0
LWPOLYLINE
  5
83
330
1F
100
AcDbEntity
  8
1-4ﾚｲﾔ
  6
Continuous
 62
     7
370
     9
100
AcDbPolyline
 90
        4
 70
     1
 43
1.0
 10
152.2566990207982
 20
-68.38774188870286
 42
0.4142135623731
 10
151.7566990207982
 20
-67.88774188870286
 42
0.4142135623731
 10
151.2566990207982
 20
-68.38774188870286
 42
0.4142135623731
 10
151.7566990207982
 20
-68.88774188870285
 42
0.4142135623731
  0
LWPOLYLINE
  5
84
330
1F
100
AcDbEntity
  8
1-4ﾚｲﾔ
  6
Continuous
 62
     7
370
     9
100
AcDbPolyline
 90
        4
 70
     1
 43
1.0
 10
414.0135135135135
 20
-18.38776250868808
 42
0.4142135623731
 10
413.5135135135135
 20
-17.88776250868808
 42
0.4142135623731
 10
413.0135135135135
 20
-18.38776250868808
 42
0.4142135623731
 10
413.5135135135135
 20
-18.88776250868808
 42
0.4142135623731
  0
LWPOLYLINE
  5
85
330
1F
100
AcDbEntity
  8
1-4ﾚｲﾔ
  6
Continuous
 62
     7
370
     9
100
AcDbPolyline
 90
        4
 70
     1
 43
1.0
 10
414.0135135135135
 20
491.6121261433918
 42
0.4142135623731
 10
413.5135135135135
 20
492.1121261433917
 42
0.4142135623731
 10
413.0135135135135
 20
491.6121261433918
 42
0.4142135623731
 10
413.5135135135135
 20
491.1121261433918
 42
0.4142135623731
  0
LWPOLYLINE
  5
86
330
1F
100
AcDbEntity
  8
1-4ﾚｲﾔ
  6
Continuous
 62
     7
370
     9
100
AcDbPolyline
 90
        4
 70
     1
 43
1.0
 10
464.0135547534841
 20
-68.38774188870286
 42
0.4142135623731
 10
463.5135547534841
 20
-67.88774188870286
 42
0.4142135623731
 10
463.0135547534842
 20
-68.38774188870286
 42
0.4142135623731
 10
463.5135547534841
 20
-68.88774188870285
 42
0.4142135623731
  0
LWPOLYLINE
  5
87
330
1F
100
AcDbEntity
  8
1-4ﾚｲﾔ
  6
Continuous
 62
     7
370
     9
100
AcDbPolyline
 90
        4
 70
     1
 43
1.0
 10
496.0134623759502
 20
-68.38774188870286
 42
0.4142135623731
 10
495.5134623759503
 20
-67.88774188870286
 42
0.4142135623731
 10
495.0134623759503
 20
-68.38774188870286
 42
0.4142135623731
 10
495.5134623759503
 20
-68.88774188870285
 42
0.4142135623731
  0
LWPOLYLINE
  5
88
330
1F
100
AcDbEntity
  8
1-4ﾚｲﾔ
  6
Continuous
 62
     7
370
     9
100
AcDbPolyline
 90
        4
 70
     1
 43
1.0
 10
571.0134623759502
 20
-68.38774188870286
 42
0.4142135623731
 10
570.5134623759502
 20
-67.88774188870286
 42
0.4142135623731
 10
570.0134623759503
 20
-68.38774188870286
 42
0.4142135623731
 10
570.5134623759502
 20
-68.88774188870285
 42
0.4142135623731
  0
LWPOLYLINE
  5
89
330
1F
100
AcDbEntity
  8
1-4ﾚｲﾔ
  6
Continuous
 62
     7
370
     9
100
AcDbPolyline
 90
        4
 70
     1
 43
1.0
 10
464.0135547534841
 20
-108.387750136697
 42
0.4142135623731
 10
463.5135547534841
 20
-107.887750136697
 42
0.4142135623731
 10
463.0135547534842
 20
-108.387750136697
 42
0.4142135623731
 10
463.5135547534841
 20
-108.887750136697
 42
0.4142135623731
  0
LWPOLYLINE
  5
8A
330
1F
100
AcDbEntity
  8
1-4ﾚｲﾔ
  6
Continuous
 62
     7
370
     9
100
AcDbPolyline
 90
        4
 70
     1
 43
1.0
 10
571.0134623759502
 20
-108.387750136697
 42
0.4142135623731
 10
570.5134623759502
 20
-107.887750136697
 42
0.4142135623731
 10
570.0134623759503
 20
-108.387750136697
 42
0.4142135623731
 10
570.5134623759502
 20
-108.887750136697
 42
0.4142135623731
  0
LWPOLYLINE
  5
8B
330
1F
100
AcDbEntity
  8
1-4ﾚｲﾔ
  6
Continuous
 62
     7
370
     9
100
AcDbPolyline
 90
        4
 70
     1
 43
1.0
 10
621.0135036159205
 20
-18.38776250868808
 42
0.4142135623731
 10
620.5135036159206
 20
-17.88776250868808
 42
0.4142135623731
 10
620.0135036159206
 20
-18.38776250868808
 42
0.4142135623731
 10
620.5135036159206
 20
-18.88776250868808
 42
0.4142135623731
  0
LWPOLYLINE
  5
8C
330
1F
100
AcDbEntity
  8
1-4ﾚｲﾔ
  6
Continuous
 62
     7
370
     9
100
AcDbPolyline
 90
        4
 70
     1
 43
1.0
 10
621.0135036159205
 20
-11.38768992634009
 42
0.4142135623731
 10
620.5135036159206
 20
-10.88768992634009
 42
0.4142135623731
 10
620.0135036159206
 20
-11.38768992634009
 42
0.4142135623731
 10
620.5135036159206
 20
-11.88768992634009
 42
0.4142135623731
  0
LWPOLYLINE
  5
8D
330
1F
100
AcDbEntity
  8
1-4ﾚｲﾔ
  6
Continuous
 62
     7
370
     9
100
AcDbPolyline
 90
        4
 70
     1
 43
1.0
 10
621.0135036159205
 20
28.61231832165398
 42
0.4142135623731
 10
620.5135036159206
 20
29.11231832165398
 42
0.4142135623731
 10
620.0135036159206
 20
28.61231832165398
 42
0.4142135623731
 10
620.5135036159206
 20
28.11231832165398
 42
0.4142135623731
  0
LWPOLYLINE
  5
8E
330
1F
100
AcDbEntity
  8
1-4ﾚｲﾔ
  6
Continuous
 62
     7
370
     9
100
AcDbPolyline
 90
        4
 70
     1
 43
1.0
 10
621.0135036159205
 20
444.6120453130497
 42
0.4142135623731
 10
620.5135036159206
 20
445.1120453130497
 42
0.4142135623731
 10
620.0135036159206
 20
444.6120453130497
 42
0.4142135623731
 10
620.5135036159206
 20
444.1120453130497
 42
0.4142135623731
  0
LWPOLYLINE
  5
8F
330
1F
100
AcDbEntity
  8
1-4ﾚｲﾔ
  6
Continuous
 62
     7
370
     9
100
AcDbPolyline
 90
        4
 70
     1
 43
1.0
 10
621.0135036159205
 20
484.6121772809551
 42
0.4142135623731
 10
620.5135036159206
 20
485.1121772809551
 42
0.4142135623731
 10
620.0135036159206
 20
484.6121772809551
 42
0.4142135623731
 10
620.5135036159206
 20
484.1121772809551
 42
0.4142135623731
  0
LWPOLYLINE
  5
90
330
1F
100
AcDbEntity
  8
1-4ﾚｲﾔ
  6
Continuous
 62
     7
370
     9
100
AcDbPolyline
 90
        4
 70
     1
 43
1.0
 10
621.0135036159205
 20
491.6121261433918
 42
0.4142135623731
 10
620.5135036159206
 20
492.1121261433917
 42
0.4142135623731
 10
620.0135036159206
 20
491.6121261433918
 42
0.4142135623731
 10
620.5135036159206
 20
491.1121261433918
 42
0.4142135623731
  0
LWPOLYLINE
  5
91
330
1F
100
AcDbEntity
  8
1-4ﾚｲﾔ
  6
Continuous
 62
     7
370
     9
100
AcDbPolyline
 90
        4
 70
     1
 43
1.0
 10
-720.2431483913113
 20
514.9836834306595
 42
0.4142135623731
 10
-720.7431483913113
 20
515.4836834306594
 42
0.4142135623731
 10
-721.2431483913111
 20
514.9836834306595
 42
0.4142135623731
 10
-720.7431483913113
 20
514.4836834306595
 42
0.4142135623731
  0
LWPOLYLINE
  5
92
330
1F
100
AcDbEntity
  8
1-4ﾚｲﾔ
  6
Continuous
 62
     7
370
     9
100
AcDbPolyline
 90
        4
 70
     1
 43
1.0
 10
-690.2429256954708
 20
514.9836834306595
 42
0.4142135623731
 10
-690.7429256954708
 20
515.4836834306594
 42
0.4142135623731
 10
-691.2429256954708
 20
514.9836834306595
 42
0.4142135623731
 10
-690.7429256954708
 20
514.4836834306595
 42
0.4142135623731
  0
LINE
  5
93
330
1F
100
AcDbEntity
  8
1-2ﾚｲﾔ
  6
Continuous
 62
     3
370
     9
100
AcDbLine
 10
-508.242942191459
 20
440.8518260483748
 30
0.0
 11
-538.2431648872994
 21
432.3723107664914
 31
0.0
  0
LINE
  5
94
330
1F
100
AcDbEntity
  8
1-2ﾚｲﾔ
  6
Continuous
 62
     3
370
     9
100
AcDbLine
 10
-538.2431648872994
 20
440.8518260483748
 30
0.0
 11
-568.2432638632284
 21
432.3723107664914
 31
0.0
  0
LINE
  5
95
330
1F
100
AcDbEntity
  8
1-2ﾚｲﾔ
  6
Continuous
 62
     3
370
     9
100
AcDbLine
 10
-568.2432638632284
 20
440.8518260483748
 30
0.0
 11
-598.2433628391575
 21
432.3723107664914
 31
0.0
  0
LINE
  5
96
330
1F
100
AcDbEntity
  8
1-2ﾚｲﾔ
  6
Continuous
 62
     3
370
     9
100
AcDbLine
 10
-598.2428679595123
 20
440.8518260483748
 30
0.0
 11
-628.2434618150866
 21
432.3723107664914
 31
0.0
  0
LINE
  5
97
330
1F
100
AcDbEntity
  8
1-2ﾚｲﾔ
  6
Continuous
 62
     3
370
     9
100
AcDbLine
 10
-628.2429669354412
 20
440.8518260483748
 30
0.0
 11
-658.2431896312817
 21
432.3723107664914
 31
0.0
  0
LINE
  5
98
330
1F
100
AcDbEntity
  8
1-2ﾚｲﾔ
  6
Continuous
 62
     3
370
     9
100
AcDbLine
 10
-658.2431896312817
 20
440.8518260483748
 30
0.0
 11
-688.2427937275654
 21
432.3723107664914
 31
0.0
  0
LINE
  5
99
330
1F
100
AcDbEntity
  8
1-2ﾚｲﾔ
  6
Continuous
 62
     3
370
     9
100
AcDbLine
 10
-688.2427937275654
 20
440.8518260483748
 30
0.0
 11
-718.243511303051
 21
432.3723107664914
 31
0.0
  0
LINE
  5
9A
330
1F
100
AcDbEntity
  8
1-2ﾚｲﾔ
  6
Continuous
 62
     3
370
     9
100
AcDbLine
 10
-718.243511303051
 20
440.8518260483748
 30
0.0
 11
-748.2431153993349
 21
432.3723107664914
 31
0.0
  0
LINE
  5
9B
330
1F
100
AcDbEntity
  8
1-2ﾚｲﾔ
  6
Continuous
 62
     3
370
     9
100
AcDbLine
 10
-748.2431153993349
 20
440.8518260483748
 30
0.0
 11
-778.2427194956186
 21
432.3723107664914
 31
0.0
  0
LINE
  5
9C
330
1F
100
AcDbEntity
  8
1-2ﾚｲﾔ
  6
Continuous
 62
     3
370
     9
100
AcDbLine
 10
-778.2427194956186
 20
440.8518260483748
 30
0.0
 11
-808.2433133511929
 21
432.3723107664914
 31
0.0
  0
LINE
  5
9D
330
1F
100
AcDbEntity
  8
1-2ﾚｲﾔ
  6
Continuous
 62
     3
370
     9
100
AcDbLine
 10
-808.2433133511929
 20
440.8518260483748
 30
0.0
 11
-838.2429793074324
 21
432.3723107664914
 31
0.0
  0
LINE
  5
9E
330
1F
100
AcDbEntity
  8
1-2ﾚｲﾔ
  6
Continuous
 62
     3
370
     9
100
AcDbLine
 10
-838.2429793074324
 20
440.8518260483748
 30
0.0
 11
-843.2432432432432
 21
439.8519217251064
 31
0.0
  0
LINE
  5
9F
330
1F
100
AcDbEntity
  8
1-2ﾚｲﾔ
  6
Continuous
 62
     3
370
     9
100
AcDbLine
 10
-813.2426493876688
 20
487.1124329687718
 30
0.0
 11
-813.2426493876688
 21
440.8518260483748
 31
0.0
  0
LINE
  5
A0
330
1F
100
AcDbEntity
  8
1-2ﾚｲﾔ
  6
Continuous
 62
     3
370
     9
100
AcDbLine
 10
-808.2433133511929
 20
487.1124329687718
 30
0.0
 11
-808.2433133511929
 21
440.8518260483748
 31
0.0
  0
LINE
  5
A1
330
1F
100
AcDbEntity
  8
1-2ﾚｲﾔ
  6
Continuous
 62
     3
370
     9
100
AcDbLine
 10
-543.2429339434649
 20
487.1124329687718
 30
0.0
 11
-543.2429339434649
 21
440.8518260483748
 31
0.0
  0
LINE
  5
A2
330
1F
100
AcDbEntity
  8
1-2ﾚｲﾔ
  6
Continuous
 62
     3
370
     9
100
AcDbLine
 10
-538.2431648872994
 20
487.1124329687718
 30
0.0
 11
-538.2431648872994
 21
440.8518260483748
 31
0.0
  0
LINE
  5
A3
330
1F
100
AcDbEntity
  8
1-2ﾚｲﾔ
  6
Continuous
 62
     3
370
     9
100
AcDbLine
 10
-573.243032919394
 20
487.1124329687718
 30
0.0
 11
-573.243032919394
 21
440.8518260483748
 31
0.0
  0
LINE
  5
A4
330
1F
100
AcDbEntity
  8
1-2ﾚｲﾔ
  6
Continuous
 62
     3
370
     9
100
AcDbLine
 10
-568.2432638632284
 20
487.1124329687718
 30
0.0
 11
-568.2432638632284
 21
440.8518260483748
 31
0.0
  0
LINE
  5
A5
330
1F
100
AcDbEntity
  8
1-2ﾚｲﾔ
  6
Continuous
 62
     3
370
     9
100
AcDbLine
 10
-603.243131895323
 20
487.1124329687718
 30
0.0
 11
-603.243131895323
 21
440.8518260483748
 31
0.0
  0
LINE
  5
A6
330
1F
100
AcDbEntity
  8
1-2ﾚｲﾔ
  6
Continuous
 62
     3
370
     9
100
AcDbLine
 10
-598.2433628391575
 20
487.1124329687718
 30
0.0
 11
-598.2433628391575
 21
440.8518260483748
 31
0.0
  0
LINE
  5
A7
330
1F
100
AcDbEntity
  8
1-2ﾚｲﾔ
  6
Continuous
 62
     3
370
     9
100
AcDbLine
 10
-633.2427359916069
 20
487.1124329687718
 30
0.0
 11
-633.2427359916069
 21
440.8518260483748
 31
0.0
  0
LINE
  5
A8
330
1F
100
AcDbEntity
  8
1-2ﾚｲﾔ
  6
Continuous
 62
     3
370
     9
100
AcDbLine
 10
-628.2434618150866
 20
487.1124329687718
 30
0.0
 11
-628.2434618150866
 21
440.8518260483748
 31
0.0
  0
LINE
  5
A9
330
1F
100
AcDbEntity
  8
1-2ﾚｲﾔ
  6
Continuous
 62
     3
370
     9
100
AcDbLine
 10
-663.242463807802
 20
487.1124329687718
 30
0.0
 11
-663.242463807802
 21
440.8518260483748
 31
0.0
  0
LINE
  5
AA
330
1F
100
AcDbEntity
  8
1-2ﾚｲﾔ
  6
Continuous
 62
     3
370
     9
100
AcDbLine
 10
-658.2431896312817
 20
487.1124329687718
 30
0.0
 11
-658.2431896312817
 21
440.8518260483748
 31
0.0
  0
LINE
  5
AB
330
1F
100
AcDbEntity
  8
1-2ﾚｲﾔ
  6
Continuous
 62
     3
370
     9
100
AcDbLine
 10
-693.2430576633762
 20
487.1124329687718
 30
0.0
 11
-693.2430576633762
 21
440.8518260483748
 31
0.0
  0
LINE
  5
AC
330
1F
100
AcDbEntity
  8
1-2ﾚｲﾔ
  6
Continuous
 62
     3
370
     9
100
AcDbLine
 10
-688.2427937275654
 20
487.1124329687718
 30
0.0
 11
-688.2427937275654
 21
440.8518260483748
 31
0.0
  0
LINE
  5
AD
330
1F
100
AcDbEntity
  8
1-2ﾚｲﾔ
  6
Continuous
 62
     3
370
     9
100
AcDbLine
 10
-723.2427854795714
 20
487.1124329687718
 30
0.0
 11
-723.2427854795714
 21
440.8518260483748
 31
0.0
  0
LINE
  5
AE
330
1F
100
AcDbEntity
  8
1-2ﾚｲﾔ
  6
Continuous
 62
     3
370
     9
100
AcDbLine
 10
-718.243511303051
 20
487.1124329687718
 30
0.0
 11
-718.243511303051
 21
440.8518260483748
 31
0.0
  0
LINE
  5
AF
330
1F
100
AcDbEntity
  8
1-2ﾚｲﾔ
  6
Continuous
 62
     3
370
     9
100
AcDbLine
 10
-753.2433793351457
 20
487.1124329687718
 30
0.0
 11
-753.2433793351457
 21
440.8518260483748
 31
0.0
  0
LINE
  5
B0
330
1F
100
AcDbEntity
  8
1-2ﾚｲﾔ
  6
Continuous
 62
     3
370
     9
100
AcDbLine
 10
-748.2431153993349
 20
487.1124329687718
 30
0.0
 11
-748.2431153993349
 21
440.8518260483748
 31
0.0
  0
LINE
  5
B1
330
1F
100
AcDbEntity
  8
1-2ﾚｲﾔ
  6
Continuous
 62
     3
370
     9
100
AcDbLine
 10
-783.2429834314294
 20
487.1124329687718
 30
0.0
 11
-783.2429834314294
 21
440.8518260483748
 31
0.0
  0
LINE
  5
B2
330
1F
100
AcDbEntity
  8
1-2ﾚｲﾔ
  6
Continuous
 62
     3
370
     9
100
AcDbLine
 10
-778.2427194956186
 20
487.1124329687718
 30
0.0
 11
-778.2427194956186
 21
440.8518260483748
 31
0.0
  0
LINE
  5
B3
330
1F
100
AcDbEntity
  8
1-2ﾚｲﾔ
  6
Continuous
 62
     3
370
     9
100
AcDbLine
 10
-838.2429793074324
 20
440.8518260483748
 30
0.0
 11
-838.2429793074324
 21
487.1124329687718
 31
0.0
  0
LINE
  5
B4
330
1F
100
AcDbEntity
  8
1-2ﾚｲﾔ
  6
Continuous
 62
     3
370
     9
100
AcDbLine
 10
146.7569299646327
 20
487.1124329687718
 30
0.0
 11
146.7569299646327
 21
440.8518260483748
 31
0.0
  0
LINE
  5
B5
330
1F
100
AcDbEntity
  8
1-2ﾚｲﾔ
  6
Continuous
 62
     3
370
     9
100
AcDbLine
 10
-838.2429793074324
 20
-13.88800747411249
 30
0.0
 11
-838.2429793074324
 21
32.37185712681661
 31
0.0
  0
LINE
  5
B6
330
1F
100
AcDbEntity
  8
1-2ﾚｲﾔ
  6
Continuous
 62
     3
370
     9
100
AcDbLine
 10
-813.2426493876688
 20
32.37185712681661
 30
0.0
 11
-813.2426493876688
 21
-13.88800747411249
 31
0.0
  0
LINE
  5
B7
330
1F
100
AcDbEntity
  8
1-2ﾚｲﾔ
  6
Continuous
 62
     3
370
     9
100
AcDbLine
 10
-808.2433133511929
 20
32.37185712681661
 30
0.0
 11
-808.2433133511929
 21
-13.88800747411249
 31
0.0
  0
LINE
  5
B8
330
1F
100
AcDbEntity
  8
1-2ﾚｲﾔ
  6
Continuous
 62
     3
370
     9
100
AcDbLine
 10
-783.2429834314294
 20
32.37185712681661
 30
0.0
 11
-783.2429834314294
 21
-13.88800747411249
 31
0.0
  0
LINE
  5
B9
330
1F
100
AcDbEntity
  8
1-2ﾚｲﾔ
  6
Continuous
 62
     3
370
     9
100
AcDbLine
 10
-778.2427194956186
 20
32.37185712681661
 30
0.0
 11
-778.2427194956186
 21
-13.88800747411249
 31
0.0
  0
LINE
  5
BA
330
1F
100
AcDbEntity
  8
1-2ﾚｲﾔ
  6
Continuous
 62
     3
370
     9
100
AcDbLine
 10
-753.2433793351457
 20
32.37185712681661
 30
0.0
 11
-753.2433793351457
 21
-13.88800747411249
 31
0.0
  0
LINE
  5
BB
330
1F
100
AcDbEntity
  8
1-2ﾚｲﾔ
  6
Continuous
 62
     3
370
     9
100
AcDbLine
 10
-748.2431153993349
 20
32.37185712681661
 30
0.0
 11
-748.2431153993349
 21
-13.88800747411249
 31
0.0
  0
LINE
  5
BC
330
1F
100
AcDbEntity
  8
1-2ﾚｲﾔ
  6
Continuous
 62
     3
370
     9
100
AcDbLine
 10
-723.2427854795714
 20
32.37185712681661
 30
0.0
 11
-723.2427854795714
 21
-13.88800747411249
 31
0.0
  0
LINE
  5
BD
330
1F
100
AcDbEntity
  8
1-2ﾚｲﾔ
  6
Continuous
 62
     3
370
     9
100
AcDbLine
 10
-718.243511303051
 20
32.37185712681661
 30
0.0
 11
-718.243511303051
 21
-13.88800747411249
 31
0.0
  0
LINE
  5
BE
330
1F
100
AcDbEntity
  8
1-2ﾚｲﾔ
  6
Continuous
 62
     3
370
     9
100
AcDbLine
 10
-693.2430576633762
 20
32.37185712681661
 30
0.0
 11
-693.2430576633762
 21
-13.88800747411249
 31
0.0
  0
LINE
  5
BF
330
1F
100
AcDbEntity
  8
1-2ﾚｲﾔ
  6
Continuous
 62
     3
370
     9
100
AcDbLine
 10
-688.2427937275654
 20
32.37185712681661
 30
0.0
 11
-688.2427937275654
 21
-13.88800747411249
 31
0.0
  0
LINE
  5
C0
330
1F
100
AcDbEntity
  8
1-2ﾚｲﾔ
  6
Continuous
 62
     3
370
     9
100
AcDbLine
 10
-568.2432638632284
 20
32.37185712681661
 30
0.0
 11
-568.2432638632284
 21
-13.88800747411249
 31
0.0
  0
LINE
  5
C1
330
1F
100
AcDbEntity
  8
1-2ﾚｲﾔ
  6
Continuous
 62
     3
370
     9
100
AcDbLine
 10
-573.243032919394
 20
32.37185712681661
 30
0.0
 11
-573.243032919394
 21
-13.88800747411249
 31
0.0
  0
LINE
  5
C2
330
1F
100
AcDbEntity
  8
1-2ﾚｲﾔ
  6
Continuous
 62
     3
370
     9
100
AcDbLine
 10
-598.2433628391575
 20
32.37185712681661
 30
0.0
 11
-598.2433628391575
 21
-13.88800747411249
 31
0.0
  0
LINE
  5
C3
330
1F
100
AcDbEntity
  8
1-2ﾚｲﾔ
  6
Continuous
 62
     3
370
     9
100
AcDbLine
 10
-603.243131895323
 20
32.37185712681661
 30
0.0
 11
-603.243131895323
 21
-13.88800747411249
 31
0.0
  0
LINE
  5
C4
330
1F
100
AcDbEntity
  8
1-2ﾚｲﾔ
  6
Continuous
 62
     3
370
     9
100
AcDbLine
 10
-628.2434618150866
 20
32.37185712681661
 30
0.0
 11
-628.2434618150866
 21
-13.88800747411249
 31
0.0
  0
LINE
  5
C5
330
1F
100
AcDbEntity
  8
1-2ﾚｲﾔ
  6
Continuous
 62
     3
370
     9
100
AcDbLine
 10
-633.2427359916069
 20
32.37185712681661
 30
0.0
 11
-633.2427359916069
 21
-13.88800747411249
 31
0.0
  0
LINE
  5
C6
330
1F
100
AcDbEntity
  8
1-2ﾚｲﾔ
  6
Continuous
 62
     3
370
     9
100
AcDbLine
 10
-658.2431896312817
 20
32.37185712681661
 30
0.0
 11
-658.2431896312817
 21
-13.88800747411249
 31
0.0
  0
LINE
  5
C7
330
1F
100
AcDbEntity
  8
1-2ﾚｲﾔ
  6
Continuous
 62
     3
370
     9
100
AcDbLine
 10
-663.242463807802
 20
32.37185712681661
 30
0.0
 11
-663.242463807802
 21
-13.88800747411249
 31
0.0
  0
LINE
  5
C8
330
1F
100
AcDbEntity
  8
1-2ﾚｲﾔ
  6
Continuous
 62
     3
370
     9
100
AcDbLine
 10
-538.2431648872994
 20
32.37185712681661
 30
0.0
 11
-538.2431648872994
 21
-13.88800747411249
 31
0.0
  0
LINE
  5
C9
330
1F
100
AcDbEntity
  8
1-2ﾚｲﾔ
  6
Continuous
 62
     3
370
     9
100
AcDbLine
 10
-543.2429339434649
 20
32.37185712681661
 30
0.0
 11
-543.2429339434649
 21
-13.88800747411249
 31
0.0
  0
LINE
  5
CA
330
1F
100
AcDbEntity
  8
1-2ﾚｲﾔ
  6
Continuous
 62
     3
370
     9
100
AcDbLine
 10
146.7569299646327
 20
32.37185712681661
 30
0.0
 11
146.7569299646327
 21
-13.88800747411249
 31
0.0
  0
LINE
  5
CB
330
1F
100
AcDbEntity
  8
1-2ﾚｲﾔ
  6
Continuous
 62
     3
370
     9
100
AcDbLine
 10
-508.242942191459
 20
40.85236216799057
 30
0.0
 11
-538.2431648872994
 21
32.37185712681661
 31
0.0
  0
LINE
  5
CC
330
1F
100
AcDbEntity
  8
1-2ﾚｲﾔ
  6
Continuous
 62
     3
370
     9
100
AcDbLine
 10
-538.2431648872994
 20
40.85236216799057
 30
0.0
 11
-568.2432638632284
 21
32.37185712681661
 31
0.0
  0
LINE
  5
CD
330
1F
100
AcDbEntity
  8
1-2ﾚｲﾔ
  6
Continuous
 62
     3
370
     9
100
AcDbLine
 10
-568.2432638632284
 20
40.85236216799057
 30
0.0
 11
-598.2433628391575
 21
32.37185712681661
 31
0.0
  0
LINE
  5
CE
330
1F
100
AcDbEntity
  8
1-2ﾚｲﾔ
  6
Continuous
 62
     3
370
     9
100
AcDbLine
 10
-598.2428679595123
 20
40.85236216799057
 30
0.0
 11
-628.2434618150866
 21
32.37185712681661
 31
0.0
  0
LINE
  5
CF
330
1F
100
AcDbEntity
  8
1-2ﾚｲﾔ
  6
Continuous
 62
     3
370
     9
100
AcDbLine
 10
-628.2429669354412
 20
40.85236216799057
 30
0.0
 11
-658.2431896312817
 21
32.37185712681661
 31
0.0
  0
LINE
  5
D0
330
1F
100
AcDbEntity
  8
1-2ﾚｲﾔ
  6
Continuous
 62
     3
370
     9
100
AcDbLine
 10
-658.2431896312817
 20
40.85236216799057
 30
0.0
 11
-688.2427937275654
 21
32.37185712681661
 31
0.0
  0
LINE
  5
D1
330
1F
100
AcDbEntity
  8
1-2ﾚｲﾔ
  6
Continuous
 62
     3
370
     9
100
AcDbLine
 10
-688.2427937275654
 20
40.85236216799057
 30
0.0
 11
-718.243511303051
 21
32.37185712681661
 31
0.0
  0
LINE
  5
D2
330
1F
100
AcDbEntity
  8
1-2ﾚｲﾔ
  6
Continuous
 62
     3
370
     9
100
AcDbLine
 10
-718.243511303051
 20
40.85236216799057
 30
0.0
 11
-748.2431153993349
 21
32.37185712681661
 31
0.0
  0
LINE
  5
D3
330
1F
100
AcDbEntity
  8
1-2ﾚｲﾔ
  6
Continuous
 62
     3
370
     9
100
AcDbLine
 10
-748.2431153993349
 20
40.85236216799057
 30
0.0
 11
-778.2427194956186
 21
32.37185712681661
 31
0.0
  0
LINE
  5
D4
330
1F
100
AcDbEntity
  8
1-2ﾚｲﾔ
  6
Continuous
 62
     3
370
     9
100
AcDbLine
 10
-778.2427194956186
 20
40.85236216799057
 30
0.0
 11
-808.2433133511929
 21
32.37185712681661
 31
0.0
  0
LINE
  5
D5
330
1F
100
AcDbEntity
  8
1-2ﾚｲﾔ
  6
Continuous
 62
     3
370
     9
100
AcDbLine
 10
-808.2433133511929
 20
40.85236216799057
 30
0.0
 11
-838.2429793074324
 21
32.37185712681661
 31
0.0
  0
LINE
  5
D6
330
1F
100
AcDbEntity
  8
1-2ﾚｲﾔ
  6
Continuous
 62
     3
370
     9
100
AcDbLine
 10
-838.2429793074324
 20
40.85236216799057
 30
0.0
 11
-843.2432432432432
 21
39.85196296507663
 31
0.0
  0
LINE
  5
D7
330
1F
100
AcDbEntity
  8
1-1ﾚｲﾔ
  6
JWW_DASHED1
 62
     2
370
     9
100
AcDbLine
 10
146.75668252481
 20
484.6121772809551
 30
0.0
 11
146.75668252481
 21
444.612169032961
 31
0.0
  0
LINE
  5
D8
330
1F
100
AcDbEntity
  8
1-1ﾚｲﾔ
  6
JWW_DASHED1
 62
     2
370
     9
100
AcDbLine
 10
-838.2432267472551
 20
444.612169032961
 30
0.0
 11
146.75668252481
 21
444.612169032961
 31
0.0
  0
LINE
  5
D9
330
1F
100
AcDbEntity
  8
1-1ﾚｲﾔ
  6
JWW_DASHED1
 62
     2
370
     9
100
AcDbLine
 10
-838.2432267472551
 20
444.612169032961
 30
0.0
 11
-838.2432267472551
 21
484.6121772809551
 31
0.0
  0
LINE
  5
DA
330
1F
100
AcDbEntity
  8
1-1ﾚｲﾔ
  6
JWW_DASHED1
 62
     2
370
     9
100
AcDbLine
 10
-838.2432267472551
 20
484.6121772809551
 30
0.0
 11
146.75668252481
 21
484.6121772809551
 31
0.0
  0
LINE
  5
DB
330
1F
100
AcDbEntity
  8
1-1ﾚｲﾔ
  6
JWW_DASHED1
 62
     2
370
     9
100
AcDbLine
 10
146.75668252481
 20
-11.38781364625142
 30
0.0
 11
146.75668252481
 21
28.61219460174265
 31
0.0
  0
LINE
  5
DC
330
1F
100
AcDbEntity
  8
1-1ﾚｲﾔ
  6
JWW_DASHED1
 62
     2
370
     9
100
AcDbLine
 10
-838.2432267472551
 20
28.61219460174265
 30
0.0
 11
146.75668252481
 21
28.61219460174265
 31
0.0
  0
LINE
  5
DD
330
1F
100
AcDbEntity
  8
1-1ﾚｲﾔ
  6
JWW_DASHED1
 62
     2
370
     9
100
AcDbLine
 10
-838.2432267472551
 20
28.61219460174265
 30
0.0
 11
-838.2432267472551
 21
-11.38781364625142
 31
0.0
  0
LINE
  5
DE
330
1F
100
AcDbEntity
  8
1-1ﾚｲﾔ
  6
JWW_DASHED1
 62
     2
370
     9
100
AcDbLine
 10
-838.2432267472551
 20
-11.38781364625142
 30
0.0
 11
146.75668252481
 21
-11.38781364625142
 31
0.0
  0
LINE
  5
DF
330
1F
100
AcDbEntity
  8
1-4ﾚｲﾔ
  6
Continuous
 62
     7
370
     9
100
AcDbLine
 10
-843.2432432432432
 20
-68.38774188870286
 30
0.0
 11
151.7566990207982
 21
-68.38774188870286
 31
0.0
  0
LINE
  5
E0
330
1F
100
AcDbEntity
  8
1-4ﾚｲﾔ
  6
Continuous
 62
     7
370
     9
100
AcDbLine
 10
-843.2432432432432
 20
-30.88774188870286
 30
0.0
 11
-843.2432432432432
 21
-69.88772209351706
 31
0.0
  0
LINE
  5
E1
330
1F
100
AcDbEntity
  8
1-4ﾚｲﾔ
  6
Continuous
 62
     7
370
     9
100
AcDbLine
 10
151.7566990207982
 20
-30.88774188870286
 30
0.0
 11
151.7566990207982
 21
-69.88772209351706
 31
0.0
  0
LINE
  5
E2
330
1F
100
AcDbEntity
  8
1-2ﾚｲﾔ
  6
Continuous
 62
     3
370
     9
100
AcDbLine
 10
-628.2434618150866
 20
432.3723107664914
 30
0.0
 11
-628.2434618150866
 21
340.8522384480793
 31
0.0
  0
LINE
  5
E3
330
1F
100
AcDbEntity
  8
1-2ﾚｲﾔ
  6
Continuous
 62
     3
370
     9
100
AcDbLine
 10
-633.2427359916069
 20
432.3723107664914
 30
0.0
 11
-633.2427359916069
 21
340.8522384480793
 31
0.0
  0
LINE
  5
E4
330
1F
100
AcDbEntity
  8
1-2ﾚｲﾔ
  6
Continuous
 62
     3
370
     9
100
AcDbLine
 10
-658.2431896312817
 20
432.3723107664914
 30
0.0
 11
-658.2431896312817
 21
340.8522384480793
 31
0.0
  0
LINE
  5
E5
330
1F
100
AcDbEntity
  8
1-2ﾚｲﾔ
  6
Continuous
 62
     3
370
     9
100
AcDbLine
 10
-663.242463807802
 20
432.3723107664914
 30
0.0
 11
-663.242463807802
 21
340.8522384480793
 31
0.0
  0
LINE
  5
E6
330
1F
100
AcDbEntity
  8
1-2ﾚｲﾔ
  6
Continuous
 62
     3
370
     9
100
AcDbLine
 10
-688.2427937275654
 20
432.3723107664914
 30
0.0
 11
-688.2427937275654
 21
340.8522384480793
 31
0.0
  0
LINE
  5
E7
330
1F
100
AcDbEntity
  8
1-2ﾚｲﾔ
  6
Continuous
 62
     3
370
     9
100
AcDbLine
 10
-693.2430576633762
 20
432.3723107664914
 30
0.0
 11
-693.2430576633762
 21
340.8522384480793
 31
0.0
  0
LINE
  5
E8
330
1F
100
AcDbEntity
  8
1-2ﾚｲﾔ
  6
Continuous
 62
     3
370
     9
100
AcDbLine
 10
-718.243511303051
 20
432.3723107664914
 30
0.0
 11
-718.243511303051
 21
340.8522384480793
 31
0.0
  0
LINE
  5
E9
330
1F
100
AcDbEntity
  8
1-2ﾚｲﾔ
  6
Continuous
 62
     3
370
     9
100
AcDbLine
 10
-723.2427854795714
 20
432.3723107664914
 30
0.0
 11
-723.2427854795714
 21
340.8522384480793
 31
0.0
  0
LINE
  5
EA
330
1F
100
AcDbEntity
  8
1-2ﾚｲﾔ
  6
Continuous
 62
     3
370
     9
100
AcDbLine
 10
-748.2431153993349
 20
432.3723107664914
 30
0.0
 11
-748.2431153993349
 21
340.8522384480793
 31
0.0
  0
LINE
  5
EB
330
1F
100
AcDbEntity
  8
1-2ﾚｲﾔ
  6
Continuous
 62
     3
370
     9
100
AcDbLine
 10
-753.2433793351457
 20
432.3723107664914
 30
0.0
 11
-753.2433793351457
 21
340.8522384480793
 31
0.0
  0
LINE
  5
EC
330
1F
100
AcDbEntity
  8
1-2ﾚｲﾔ
  6
Continuous
 62
     3
370
     9
100
AcDbLine
 10
-778.2427194956186
 20
432.3723107664914
 30
0.0
 11
-778.2427194956186
 21
340.8522384480793
 31
0.0
  0
LINE
  5
ED
330
1F
100
AcDbEntity
  8
1-2ﾚｲﾔ
  6
Continuous
 62
     3
370
     9
100
AcDbLine
 10
-783.2429834314294
 20
432.3723107664914
 30
0.0
 11
-783.2429834314294
 21
340.8522384480793
 31
0.0
  0
LINE
  5
EE
330
1F
100
AcDbEntity
  8
1-2ﾚｲﾔ
  6
Continuous
 62
     3
370
     9
100
AcDbLine
 10
-808.2433133511929
 20
432.3723107664914
 30
0.0
 11
-808.2433133511929
 21
340.8522384480793
 31
0.0
  0
LINE
  5
EF
330
1F
100
AcDbEntity
  8
1-2ﾚｲﾔ
  6
Continuous
 62
     3
370
     9
100
AcDbLine
 10
-813.2426493876688
 20
432.3723107664914
 30
0.0
 11
-813.2426493876688
 21
340.8522384480793
 31
0.0
  0
LINE
  5
F0
330
1F
100
AcDbEntity
  8
1-2ﾚｲﾔ
  6
Continuous
 62
     3
370
     9
100
AcDbLine
 10
-843.2432432432432
 20
-18.38782436864374
 30
0.0
 11
-843.2432432432432
 21
491.6121261433918
 31
0.0
  0
LINE
  5
F1
330
1F
100
AcDbEntity
  8
1-2ﾚｲﾔ
  6
Continuous
 62
     3
370
     9
100
AcDbLine
 10
-838.2429793074324
 20
340.8522384480793
 30
0.0
 11
-838.2429793074324
 21
432.3723107664914
 31
0.0
  0
LINE
  5
F2
330
1F
100
AcDbEntity
  8
1-2ﾚｲﾔ
  6
Continuous
 62
     3
370
     9
100
AcDbLine
 10
-598.2433628391575
 20
432.3723107664914
 30
0.0
 11
-598.2433628391575
 21
340.8522384480793
 31
0.0
  0
LINE
  5
F3
330
1F
100
AcDbEntity
  8
1-2ﾚｲﾔ
  6
Continuous
 62
     3
370
     9
100
AcDbLine
 10
-603.243131895323
 20
432.3723107664914
 30
0.0
 11
-603.243131895323
 21
340.8522384480793
 31
0.0
  0
LINE
  5
F4
330
1F
100
AcDbEntity
  8
1-2ﾚｲﾔ
  6
Continuous
 62
     3
370
     9
100
AcDbLine
 10
-538.2431648872994
 20
432.3723107664914
 30
0.0
 11
-538.2431648872994
 21
340.8522384480793
 31
0.0
  0
LINE
  5
F5
330
1F
100
AcDbEntity
  8
1-2ﾚｲﾔ
  6
Continuous
 62
     3
370
     9
100
AcDbLine
 10
-543.2429339434649
 20
432.3723107664914
 30
0.0
 11
-543.2429339434649
 21
340.8522384480793
 31
0.0
  0
LINE
  5
F6
330
1F
100
AcDbEntity
  8
1-2ﾚｲﾔ
  6
Continuous
 62
     3
370
     9
100
AcDbLine
 10
-568.2432638632284
 20
432.3723107664914
 30
0.0
 11
-568.2432638632284
 21
340.8522384480793
 31
0.0
  0
LINE
  5
F7
330
1F
100
AcDbEntity
  8
1-2ﾚｲﾔ
  6
Continuous
 62
     3
370
     9
100
AcDbLine
 10
-573.243032919394
 20
432.3723107664914
 30
0.0
 11
-573.243032919394
 21
340.8522384480793
 31
0.0
  0
LINE
  5
F8
330
1F
100
AcDbEntity
  8
1-2ﾚｲﾔ
  6
Continuous
 62
     3
370
     9
100
AcDbLine
 10
151.7566990207982
 20
491.6121261433918
 30
0.0
 11
151.7566990207982
 21
-18.38782436864374
 31
0.0
  0
LINE
  5
F9
330
1F
100
AcDbEntity
  8
1-2ﾚｲﾔ
  6
Continuous
 62
     3
370
     9
100
AcDbLine
 10
146.7569299646327
 20
432.3723107664914
 30
0.0
 11
146.7569299646327
 21
340.8522384480793
 31
0.0
  0
LINE
  5
FA
330
1F
100
AcDbEntity
  8
1-2ﾚｲﾔ
  6
Continuous
 62
     3
370
     9
100
AcDbLine
 10
-478.2428432155299
 20
440.8518260483748
 30
0.0
 11
-508.2430659113703
 21
432.3723107664914
 31
0.0
  0
LINE
  5
FB
330
1F
100
AcDbEntity
  8
1-2ﾚｲﾔ
  6
Continuous
 62
     3
370
     9
100
AcDbLine
 10
-513.2428349675358
 20
487.1124329687718
 30
0.0
 11
-513.2428349675358
 21
440.8518260483748
 31
0.0
  0
LINE
  5
FC
330
1F
100
AcDbEntity
  8
1-2ﾚｲﾔ
  6
Continuous
 62
     3
370
     9
100
AcDbLine
 10
-508.2430659113703
 20
487.1124329687718
 30
0.0
 11
-508.2430659113703
 21
440.8518260483748
 31
0.0
  0
LINE
  5
FD
330
1F
100
AcDbEntity
  8
1-2ﾚｲﾔ
  6
Continuous
 62
     3
370
     9
100
AcDbLine
 10
-508.2430659113703
 20
32.37185712681661
 30
0.0
 11
-508.2430659113703
 21
-13.88800747411249
 31
0.0
  0
LINE
  5
FE
330
1F
100
AcDbEntity
  8
1-2ﾚｲﾔ
  6
Continuous
 62
     3
370
     9
100
AcDbLine
 10
-513.2428349675358
 20
32.37185712681661
 30
0.0
 11
-513.2428349675358
 21
-13.88800747411249
 31
0.0
  0
LINE
  5
FF
330
1F
100
AcDbEntity
  8
1-2ﾚｲﾔ
  6
Continuous
 62
     3
370
     9
100
AcDbLine
 10
-478.2428432155299
 20
40.85236216799057
 30
0.0
 11
-508.2430659113703
 21
32.37185712681661
 31
0.0
  0
LINE
  5
100
330
1F
100
AcDbEntity
  8
1-2ﾚｲﾔ
  6
Continuous
 62
     3
370
     9
100
AcDbLine
 10
-508.2430659113703
 20
432.3723107664914
 30
0.0
 11
-508.2430659113703
 21
340.8522384480793
 31
0.0
  0
LINE
  5
101
330
1F
100
AcDbEntity
  8
1-2ﾚｲﾔ
  6
Continuous
 62
     3
370
     9
100
AcDbLine
 10
-513.2428349675358
 20
432.3723107664914
 30
0.0
 11
-513.2428349675358
 21
340.8522384480793
 31
0.0
  0
LINE
  5
102
330
1F
100
AcDbEntity
  8
1-2ﾚｲﾔ
  6
Continuous
 62
     3
370
     9
100
AcDbLine
 10
-448.2427442396009
 20
440.8518260483748
 30
0.0
 11
-478.2429669354412
 21
432.3723107664914
 31
0.0
  0
LINE
  5
103
330
1F
100
AcDbEntity
  8
1-2ﾚｲﾔ
  6
Continuous
 62
     3
370
     9
100
AcDbLine
 10
-483.2427359916068
 20
487.1124329687718
 30
0.0
 11
-483.2427359916068
 21
440.8518260483748
 31
0.0
  0
LINE
  5
104
330
1F
100
AcDbEntity
  8
1-2ﾚｲﾔ
  6
Continuous
 62
     3
370
     9
100
AcDbLine
 10
-478.2429669354412
 20
487.1124329687718
 30
0.0
 11
-478.2429669354412
 21
440.8518260483748
 31
0.0
  0
LINE
  5
105
330
1F
100
AcDbEntity
  8
1-2ﾚｲﾔ
  6
Continuous
 62
     3
370
     9
100
AcDbLine
 10
-478.2429669354412
 20
32.37185712681661
 30
0.0
 11
-478.2429669354412
 21
-13.88800747411249
 31
0.0
  0
LINE
  5
106
330
1F
100
AcDbEntity
  8
1-2ﾚｲﾔ
  6
Continuous
 62
     3
370
     9
100
AcDbLine
 10
-483.2427359916068
 20
32.37185712681661
 30
0.0
 11
-483.2427359916068
 21
-13.88800747411249
 31
0.0
  0
LINE
  5
107
330
1F
100
AcDbEntity
  8
1-2ﾚｲﾔ
  6
Continuous
 62
     3
370
     9
100
AcDbLine
 10
-448.2427442396009
 20
40.85236216799057
 30
0.0
 11
-478.2429669354412
 21
32.37185712681661
 31
0.0
  0
LINE
  5
108
330
1F
100
AcDbEntity
  8
1-2ﾚｲﾔ
  6
Continuous
 62
     3
370
     9
100
AcDbLine
 10
-478.2429669354412
 20
432.3723107664914
 30
0.0
 11
-478.2429669354412
 21
340.8522384480793
 31
0.0
  0
LINE
  5
109
330
1F
100
AcDbEntity
  8
1-2ﾚｲﾔ
  6
Continuous
 62
     3
370
     9
100
AcDbLine
 10
-483.2427359916068
 20
432.3723107664914
 30
0.0
 11
-483.2427359916068
 21
340.8522384480793
 31
0.0
  0
LINE
  5
10A
330
1F
100
AcDbEntity
  8
1-2ﾚｲﾔ
  6
Continuous
 62
     3
370
     9
100
AcDbLine
 10
-418.2426452636719
 20
440.8518260483748
 30
0.0
 11
-448.2428679595122
 21
432.3723107664914
 31
0.0
  0
LINE
  5
10B
330
1F
100
AcDbEntity
  8
1-2ﾚｲﾔ
  6
Continuous
 62
     3
370
     9
100
AcDbLine
 10
-453.2426370156777
 20
487.1124329687718
 30
0.0
 11
-453.2426370156777
 21
440.8518260483748
 31
0.0
  0
LINE
  5
10C
330
1F
100
AcDbEntity
  8
1-2ﾚｲﾔ
  6
Continuous
 62
     3
370
     9
100
AcDbLine
 10
-448.2428679595122
 20
487.1124329687718
 30
0.0
 11
-448.2428679595122
 21
440.8518260483748
 31
0.0
  0
LINE
  5
10D
330
1F
100
AcDbEntity
  8
1-2ﾚｲﾔ
  6
Continuous
 62
     3
370
     9
100
AcDbLine
 10
-448.2428679595122
 20
32.37185712681661
 30
0.0
 11
-448.2428679595122
 21
-13.88800747411249
 31
0.0
  0
LINE
  5
10E
330
1F
100
AcDbEntity
  8
1-2ﾚｲﾔ
  6
Continuous
 62
     3
370
     9
100
AcDbLine
 10
-453.2426370156777
 20
32.37185712681661
 30
0.0
 11
-453.2426370156777
 21
-13.88800747411249
 31
0.0
  0
LINE
  5
10F
330
1F
100
AcDbEntity
  8
1-2ﾚｲﾔ
  6
Continuous
 62
     3
370
     9
100
AcDbLine
 10
-418.2426452636719
 20
40.85236216799057
 30
0.0
 11
-448.2428679595122
 21
32.37185712681661
 31
0.0
  0
LINE
  5
110
330
1F
100
AcDbEntity
  8
1-2ﾚｲﾔ
  6
Continuous
 62
     3
370
     9
100
AcDbLine
 10
-448.2428679595122
 20
432.3723107664914
 30
0.0
 11
-448.2428679595122
 21
340.8522384480793
 31
0.0
  0
LINE
  5
111
330
1F
100
AcDbEntity
  8
1-2ﾚｲﾔ
  6
Continuous
 62
     3
370
     9
100
AcDbLine
 10
-453.2426370156777
 20
432.3723107664914
 30
0.0
 11
-453.2426370156777
 21
340.8522384480793
 31
0.0
  0
LINE
  5
112
330
1F
100
AcDbEntity
  8
1-2ﾚｲﾔ
  6
Continuous
 62
     3
370
     9
100
AcDbLine
 10
-388.2425462877428
 20
440.8518260483748
 30
0.0
 11
-418.2427689835831
 21
432.3723107664914
 31
0.0
  0
LINE
  5
113
330
1F
100
AcDbEntity
  8
1-2ﾚｲﾔ
  6
Continuous
 62
     3
370
     9
100
AcDbLine
 10
-423.2425380397487
 20
487.1124329687718
 30
0.0
 11
-423.2425380397487
 21
440.8518260483748
 31
0.0
  0
LINE
  5
114
330
1F
100
AcDbEntity
  8
1-2ﾚｲﾔ
  6
Continuous
 62
     3
370
     9
100
AcDbLine
 10
-418.2427689835831
 20
487.1124329687718
 30
0.0
 11
-418.2427689835831
 21
440.8518260483748
 31
0.0
  0
LINE
  5
115
330
1F
100
AcDbEntity
  8
1-2ﾚｲﾔ
  6
Continuous
 62
     3
370
     9
100
AcDbLine
 10
-418.2427689835831
 20
32.37185712681661
 30
0.0
 11
-418.2427689835831
 21
-13.88800747411249
 31
0.0
  0
LINE
  5
116
330
1F
100
AcDbEntity
  8
1-2ﾚｲﾔ
  6
Continuous
 62
     3
370
     9
100
AcDbLine
 10
-423.2425380397487
 20
32.37185712681661
 30
0.0
 11
-423.2425380397487
 21
-13.88800747411249
 31
0.0
  0
LINE
  5
117
330
1F
100
AcDbEntity
  8
1-2ﾚｲﾔ
  6
Continuous
 62
     3
370
     9
100
AcDbLine
 10
-388.2425462877428
 20
40.85236216799057
 30
0.0
 11
-418.2427689835831
 21
32.37185712681661
 31
0.0
  0
LINE
  5
118
330
1F
100
AcDbEntity
  8
1-2ﾚｲﾔ
  6
Continuous
 62
     3
370
     9
100
AcDbLine
 10
-418.2427689835831
 20
432.3723107664914
 30
0.0
 11
-418.2427689835831
 21
340.8522384480793
 31
0.0
  0
LINE
  5
119
330
1F
100
AcDbEntity
  8
1-2ﾚｲﾔ
  6
Continuous
 62
     3
370
     9
100
AcDbLine
 10
-423.2425380397487
 20
432.3723107664914
 30
0.0
 11
-423.2425380397487
 21
340.8522384480793
 31
0.0
  0
LINE
  5
11A
330
1F
100
AcDbEntity
  8
1-2ﾚｲﾔ
  6
Continuous
 62
     3
370
     9
100
AcDbLine
 10
-358.2424473118136
 20
440.8518260483748
 30
0.0
 11
-388.2426700076542
 21
432.3723107664914
 31
0.0
  0
LINE
  5
11B
330
1F
100
AcDbEntity
  8
1-2ﾚｲﾔ
  6
Continuous
 62
     3
370
     9
100
AcDbLine
 10
-393.2424390638197
 20
487.1124329687718
 30
0.0
 11
-393.2424390638197
 21
440.8518260483748
 31
0.0
  0
LINE
  5
11C
330
1F
100
AcDbEntity
  8
1-2ﾚｲﾔ
  6
Continuous
 62
     3
370
     9
100
AcDbLine
 10
-388.2426700076542
 20
487.1124329687718
 30
0.0
 11
-388.2426700076542
 21
440.8518260483748
 31
0.0
  0
LINE
  5
11D
330
1F
100
AcDbEntity
  8
1-2ﾚｲﾔ
  6
Continuous
 62
     3
370
     9
100
AcDbLine
 10
-388.2426700076542
 20
32.37185712681661
 30
0.0
 11
-388.2426700076542
 21
-13.88800747411249
 31
0.0
  0
LINE
  5
11E
330
1F
100
AcDbEntity
  8
1-2ﾚｲﾔ
  6
Continuous
 62
     3
370
     9
100
AcDbLine
 10
-393.2424390638197
 20
32.37185712681661
 30
0.0
 11
-393.2424390638197
 21
-13.88800747411249
 31
0.0
  0
LINE
  5
11F
330
1F
100
AcDbEntity
  8
1-2ﾚｲﾔ
  6
Continuous
 62
     3
370
     9
100
AcDbLine
 10
-358.2424473118136
 20
40.85236216799057
 30
0.0
 11
-388.2426700076542
 21
32.37185712681661
 31
0.0
  0
LINE
  5
120
330
1F
100
AcDbEntity
  8
1-2ﾚｲﾔ
  6
Continuous
 62
     3
370
     9
100
AcDbLine
 10
-388.2426700076542
 20
432.3723107664914
 30
0.0
 11
-388.2426700076542
 21
340.8522384480793
 31
0.0
  0
LINE
  5
121
330
1F
100
AcDbEntity
  8
1-2ﾚｲﾔ
  6
Continuous
 62
     3
370
     9
100
AcDbLine
 10
-393.2424390638197
 20
432.3723107664914
 30
0.0
 11
-393.2424390638197
 21
340.8522384480793
 31
0.0
  0
LINE
  5
122
330
1F
100
AcDbEntity
  8
1-4ﾚｲﾔ
  6
Continuous
 62
     7
370
     9
100
AcDbLine
 10
-559.007386903505
 20
491.6121261433918
 30
0.0
 11
-557.375768713049
 21
504.0051496600725
 31
0.0
  0
LINE
  5
123
330
1F
100
AcDbEntity
  8
1-4ﾚｲﾔ
  6
Continuous
 62
     7
370
     9
100
AcDbLine
 10
-559.007386903505
 20
491.6121261433918
 30
0.0
 11
-554.2238802523226
 21
503.1606375454189
 31
0.0
  0
LINE
  5
124
330
1F
100
AcDbEntity
  8
1-4ﾚｲﾔ
  6
Continuous
 62
     7
370
     9
100
AcDbLine
 10
-559.007386903505
 20
491.6121261433918
 30
0.0
 11
-524.1740458720438
 21
621.6121838793504
 31
0.0
  0
LINE
  5
125
330
1F
100
AcDbEntity
  8
1-4ﾚｲﾔ
  6
Continuous
 62
     7
370
     9
100
AcDbLine
 10
-524.1740458720438
 20
621.6121838793504
 30
0.0
 11
-289.9408288904138
 21
621.6121838793504
 31
0.0
  0
LINE
  5
126
330
1F
100
AcDbEntity
  8
1-4ﾚｲﾔ
  6
Continuous
 62
     7
370
     9
100
AcDbLine
 10
-457.6196618982263
 20
541.6121673833622
 30
0.0
 11
-235.4068240603884
 21
541.6121673833622
 31
0.0
  0
LINE
  5
127
330
1F
100
AcDbEntity
  8
1-2ﾚｲﾔ
  6
Continuous
 62
     3
370
     9
100
AcDbLine
 10
151.7566990207982
 20
-18.38782436864374
 30
0.0
 11
-843.2432432432432
 21
-18.38782436864374
 31
0.0
  0
LINE
  5
128
330
1F
100
AcDbEntity
  8
1-2ﾚｲﾔ
  6
Continuous
 62
     3
370
     9
100
AcDbLine
 10
151.7566990207982
 20
-13.88800747411249
 30
0.0
 11
-843.2432432432432
 21
-13.88800747411249
 31
0.0
  0
LINE
  5
129
330
1F
100
AcDbEntity
  8
1-2ﾚｲﾔ
  6
Continuous
 62
     3
370
     9
100
AcDbLine
 10
-843.2432432432432
 20
440.8518260483748
 30
0.0
 11
151.7566990207982
 21
440.8518260483748
 31
0.0
  0
LINE
  5
12A
330
1F
100
AcDbEntity
  8
1-2ﾚｲﾔ
  6
Continuous
 62
     3
370
     9
100
AcDbLine
 10
-843.2432432432432
 20
432.3723107664914
 30
0.0
 11
151.7566990207982
 21
432.3723107664914
 31
0.0
  0
LINE
  5
12B
330
1F
100
AcDbEntity
  8
1-2ﾚｲﾔ
  6
Continuous
 62
     3
370
     9
100
AcDbLine
 10
-843.2432432432432
 20
487.1124329687718
 30
0.0
 11
151.7566990207982
 21
487.1124329687718
 31
0.0
  0
LINE
  5
12C
330
1F
100
AcDbEntity
  8
1-2ﾚｲﾔ
  6
Continuous
 62
     3
370
     9
100
AcDbLine
 10
-843.2432432432432
 20
491.6121261433918
 30
0.0
 11
151.7566990207982
 21
491.6121261433918
 31
0.0
  0
LINE
  5
12D
330
1F
100
AcDbEntity
  8
1-2ﾚｲﾔ
  6
Continuous
 62
     3
370
     9
100
AcDbLine
 10
-843.2432432432432
 20
32.37185712681661
 30
0.0
 11
151.7566990207982
 21
32.37185712681661
 31
0.0
  0
LINE
  5
12E
330
1F
100
AcDbEntity
  8
1-2ﾚｲﾔ
  6
Continuous
 62
     3
370
     9
100
AcDbLine
 10
-843.2432432432432
 20
40.85236216799057
 30
0.0
 11
151.7566990207982
 21
40.85236216799057
 31
0.0
  0
LINE
  5
12F
330
1F
100
AcDbEntity
  8
1-2ﾚｲﾔ
  6
Continuous
 62
     3
370
     9
100
AcDbLine
 10
-508.242942191459
 20
340.8518672883453
 30
0.0
 11
-538.2431648872994
 21
332.3723520064618
 31
0.0
  0
LINE
  5
130
330
1F
100
AcDbEntity
  8
1-2ﾚｲﾔ
  6
Continuous
 62
     3
370
     9
100
AcDbLine
 10
-538.2431648872994
 20
340.8518672883453
 30
0.0
 11
-568.2432638632284
 21
332.3723520064618
 31
0.0
  0
LINE
  5
131
330
1F
100
AcDbEntity
  8
1-2ﾚｲﾔ
  6
Continuous
 62
     3
370
     9
100
AcDbLine
 10
-568.2432638632284
 20
340.8518672883453
 30
0.0
 11
-598.2433628391575
 21
332.3723520064618
 31
0.0
  0
LINE
  5
132
330
1F
100
AcDbEntity
  8
1-2ﾚｲﾔ
  6
Continuous
 62
     3
370
     9
100
AcDbLine
 10
-598.2428679595123
 20
340.8518672883453
 30
0.0
 11
-628.2434618150866
 21
332.3723520064618
 31
0.0
  0
LINE
  5
133
330
1F
100
AcDbEntity
  8
1-2ﾚｲﾔ
  6
Continuous
 62
     3
370
     9
100
AcDbLine
 10
-628.2429669354412
 20
340.8518672883453
 30
0.0
 11
-658.2431896312817
 21
332.3723520064618
 31
0.0
  0
LINE
  5
134
330
1F
100
AcDbEntity
  8
1-2ﾚｲﾔ
  6
Continuous
 62
     3
370
     9
100
AcDbLine
 10
-658.2431896312817
 20
340.8518672883453
 30
0.0
 11
-688.2427937275654
 21
332.3723520064618
 31
0.0
  0
LINE
  5
135
330
1F
100
AcDbEntity
  8
1-2ﾚｲﾔ
  6
Continuous
 62
     3
370
     9
100
AcDbLine
 10
-688.2427937275654
 20
340.8518672883453
 30
0.0
 11
-718.243511303051
 21
332.3723520064618
 31
0.0
  0
LINE
  5
136
330
1F
100
AcDbEntity
  8
1-2ﾚｲﾔ
  6
Continuous
 62
     3
370
     9
100
AcDbLine
 10
-718.243511303051
 20
340.8518672883453
 30
0.0
 11
-748.2431153993349
 21
332.3723520064618
 31
0.0
  0
LINE
  5
137
330
1F
100
AcDbEntity
  8
1-2ﾚｲﾔ
  6
Continuous
 62
     3
370
     9
100
AcDbLine
 10
-748.2431153993349
 20
340.8518672883453
 30
0.0
 11
-778.2427194956186
 21
332.3723520064618
 31
0.0
  0
LINE
  5
138
330
1F
100
AcDbEntity
  8
1-2ﾚｲﾔ
  6
Continuous
 62
     3
370
     9
100
AcDbLine
 10
-778.2427194956186
 20
340.8518672883453
 30
0.0
 11
-808.2433133511929
 21
332.3723520064618
 31
0.0
  0
LINE
  5
139
330
1F
100
AcDbEntity
  8
1-2ﾚｲﾔ
  6
Continuous
 62
     3
370
     9
100
AcDbLine
 10
-808.2433133511929
 20
340.8518672883453
 30
0.0
 11
-838.2429793074324
 21
332.3723520064618
 31
0.0
  0
LINE
  5
13A
330
1F
100
AcDbEntity
  8
1-2ﾚｲﾔ
  6
Continuous
 62
     3
370
     9
100
AcDbLine
 10
-838.2429793074324
 20
340.8518672883453
 30
0.0
 11
-843.2432432432432
 21
339.8519629650767
 31
0.0
  0
LINE
  5
13B
330
1F
100
AcDbEntity
  8
1-2ﾚｲﾔ
  6
Continuous
 62
     3
370
     9
100
AcDbLine
 10
-628.2434618150866
 20
332.3723520064618
 30
0.0
 11
-628.2434618150866
 21
240.8522796880497
 31
0.0
  0
LINE
  5
13C
330
1F
100
AcDbEntity
  8
1-2ﾚｲﾔ
  6
Continuous
 62
     3
370
     9
100
AcDbLine
 10
-633.2427359916069
 20
332.3723520064618
 30
0.0
 11
-633.2427359916069
 21
240.8522796880497
 31
0.0
  0
LINE
  5
13D
330
1F
100
AcDbEntity
  8
1-2ﾚｲﾔ
  6
Continuous
 62
     3
370
     9
100
AcDbLine
 10
-658.2431896312817
 20
332.3723520064618
 30
0.0
 11
-658.2431896312817
 21
240.8522796880497
 31
0.0
  0
LINE
  5
13E
330
1F
100
AcDbEntity
  8
1-2ﾚｲﾔ
  6
Continuous
 62
     3
370
     9
100
AcDbLine
 10
-663.242463807802
 20
332.3723520064618
 30
0.0
 11
-663.242463807802
 21
240.8522796880497
 31
0.0
  0
LINE
  5
13F
330
1F
100
AcDbEntity
  8
1-2ﾚｲﾔ
  6
Continuous
 62
     3
370
     9
100
AcDbLine
 10
-688.2427937275654
 20
332.3723520064618
 30
0.0
 11
-688.2427937275654
 21
240.8522796880497
 31
0.0
  0
LINE
  5
140
330
1F
100
AcDbEntity
  8
1-2ﾚｲﾔ
  6
Continuous
 62
     3
370
     9
100
AcDbLine
 10
-693.2430576633762
 20
332.3723520064618
 30
0.0
 11
-693.2430576633762
 21
240.8522796880497
 31
0.0
  0
LINE
  5
141
330
1F
100
AcDbEntity
  8
1-2ﾚｲﾔ
  6
Continuous
 62
     3
370
     9
100
AcDbLine
 10
-718.243511303051
 20
332.3723520064618
 30
0.0
 11
-718.243511303051
 21
240.8522796880497
 31
0.0
  0
LINE
  5
142
330
1F
100
AcDbEntity
  8
1-2ﾚｲﾔ
  6
Continuous
 62
     3
370
     9
100
AcDbLine
 10
-723.2427854795714
 20
332.3723520064618
 30
0.0
 11
-723.2427854795714
 21
240.8522796880497
 31
0.0
  0
LINE
  5
143
330
1F
100
AcDbEntity
  8
1-2ﾚｲﾔ
  6
Continuous
 62
     3
370
     9
100
AcDbLine
 10
-748.2431153993349
 20
332.3723520064618
 30
0.0
 11
-748.2431153993349
 21
240.8522796880497
 31
0.0
  0
LINE
  5
144
330
1F
100
AcDbEntity
  8
1-2ﾚｲﾔ
  6
Continuous
 62
     3
370
     9
100
AcDbLine
 10
-753.2433793351457
 20
332.3723520064618
 30
0.0
 11
-753.2433793351457
 21
240.8522796880497
 31
0.0
  0
LINE
  5
145
330
1F
100
AcDbEntity
  8
1-2ﾚｲﾔ
  6
Continuous
 62
     3
370
     9
100
AcDbLine
 10
-778.2427194956186
 20
332.3723520064618
 30
0.0
 11
-778.2427194956186
 21
240.8522796880497
 31
0.0
  0
LINE
  5
146
330
1F
100
AcDbEntity
  8
1-2ﾚｲﾔ
  6
Continuous
 62
     3
370
     9
100
AcDbLine
 10
-783.2429834314294
 20
332.3723520064618
 30
0.0
 11
-783.2429834314294
 21
240.8522796880497
 31
0.0
  0
LINE
  5
147
330
1F
100
AcDbEntity
  8
1-2ﾚｲﾔ
  6
Continuous
 62
     3
370
     9
100
AcDbLine
 10
-808.2433133511929
 20
332.3723520064618
 30
0.0
 11
-808.2433133511929
 21
240.8522796880497
 31
0.0
  0
LINE
  5
148
330
1F
100
AcDbEntity
  8
1-2ﾚｲﾔ
  6
Continuous
 62
     3
370
     9
100
AcDbLine
 10
-813.2426493876688
 20
332.3723520064618
 30
0.0
 11
-813.2426493876688
 21
240.8522796880497
 31
0.0
  0
LINE
  5
149
330
1F
100
AcDbEntity
  8
1-2ﾚｲﾔ
  6
Continuous
 62
     3
370
     9
100
AcDbLine
 10
-838.2429793074324
 20
240.8522796880497
 30
0.0
 11
-838.2429793074324
 21
332.3723520064618
 31
0.0
  0
LINE
  5
14A
330
1F
100
AcDbEntity
  8
1-2ﾚｲﾔ
  6
Continuous
 62
     3
370
     9
100
AcDbLine
 10
-598.2433628391575
 20
332.3723520064618
 30
0.0
 11
-598.2433628391575
 21
240.8522796880497
 31
0.0
  0
LINE
  5
14B
330
1F
100
AcDbEntity
  8
1-2ﾚｲﾔ
  6
Continuous
 62
     3
370
     9
100
AcDbLine
 10
-603.243131895323
 20
332.3723520064618
 30
0.0
 11
-603.243131895323
 21
240.8522796880497
 31
0.0
  0
LINE
  5
14C
330
1F
100
AcDbEntity
  8
1-2ﾚｲﾔ
  6
Continuous
 62
     3
370
     9
100
AcDbLine
 10
-538.2431648872994
 20
332.3723520064618
 30
0.0
 11
-538.2431648872994
 21
240.8522796880497
 31
0.0
  0
LINE
  5
14D
330
1F
100
AcDbEntity
  8
1-2ﾚｲﾔ
  6
Continuous
 62
     3
370
     9
100
AcDbLine
 10
-543.2429339434649
 20
332.3723520064618
 30
0.0
 11
-543.2429339434649
 21
240.8522796880497
 31
0.0
  0
LINE
  5
14E
330
1F
100
AcDbEntity
  8
1-2ﾚｲﾔ
  6
Continuous
 62
     3
370
     9
100
AcDbLine
 10
-568.2432638632284
 20
332.3723520064618
 30
0.0
 11
-568.2432638632284
 21
240.8522796880497
 31
0.0
  0
LINE
  5
14F
330
1F
100
AcDbEntity
  8
1-2ﾚｲﾔ
  6
Continuous
 62
     3
370
     9
100
AcDbLine
 10
-573.243032919394
 20
332.3723520064618
 30
0.0
 11
-573.243032919394
 21
240.8522796880497
 31
0.0
  0
LINE
  5
150
330
1F
100
AcDbEntity
  8
1-2ﾚｲﾔ
  6
Continuous
 62
     3
370
     9
100
AcDbLine
 10
146.7569299646327
 20
332.3723520064618
 30
0.0
 11
146.7569299646327
 21
240.8522796880497
 31
0.0
  0
LINE
  5
151
330
1F
100
AcDbEntity
  8
1-2ﾚｲﾔ
  6
Continuous
 62
     3
370
     9
100
AcDbLine
 10
-478.2428432155299
 20
340.8518672883453
 30
0.0
 11
-508.2430659113703
 21
332.3723520064618
 31
0.0
  0
LINE
  5
152
330
1F
100
AcDbEntity
  8
1-2ﾚｲﾔ
  6
Continuous
 62
     3
370
     9
100
AcDbLine
 10
-508.2430659113703
 20
332.3723520064618
 30
0.0
 11
-508.2430659113703
 21
240.8522796880497
 31
0.0
  0
LINE
  5
153
330
1F
100
AcDbEntity
  8
1-2ﾚｲﾔ
  6
Continuous
 62
     3
370
     9
100
AcDbLine
 10
-513.2428349675358
 20
332.3723520064618
 30
0.0
 11
-513.2428349675358
 21
240.8522796880497
 31
0.0
  0
LINE
  5
154
330
1F
100
AcDbEntity
  8
1-2ﾚｲﾔ
  6
Continuous
 62
     3
370
     9
100
AcDbLine
 10
-448.2427442396009
 20
340.8518672883453
 30
0.0
 11
-478.2429669354412
 21
332.3723520064618
 31
0.0
  0
LINE
  5
155
330
1F
100
AcDbEntity
  8
1-2ﾚｲﾔ
  6
Continuous
 62
     3
370
     9
100
AcDbLine
 10
-478.2429669354412
 20
332.3723520064618
 30
0.0
 11
-478.2429669354412
 21
240.8522796880497
 31
0.0
  0
LINE
  5
156
330
1F
100
AcDbEntity
  8
1-2ﾚｲﾔ
  6
Continuous
 62
     3
370
     9
100
AcDbLine
 10
-483.2427359916068
 20
332.3723520064618
 30
0.0
 11
-483.2427359916068
 21
240.8522796880497
 31
0.0
  0
LINE
  5
157
330
1F
100
AcDbEntity
  8
1-2ﾚｲﾔ
  6
Continuous
 62
     3
370
     9
100
AcDbLine
 10
-418.2426452636719
 20
340.8518672883453
 30
0.0
 11
-448.2428679595122
 21
332.3723520064618
 31
0.0
  0
LINE
  5
158
330
1F
100
AcDbEntity
  8
1-2ﾚｲﾔ
  6
Continuous
 62
     3
370
     9
100
AcDbLine
 10
-448.2428679595122
 20
332.3723520064618
 30
0.0
 11
-448.2428679595122
 21
240.8522796880497
 31
0.0
  0
LINE
  5
159
330
1F
100
AcDbEntity
  8
1-2ﾚｲﾔ
  6
Continuous
 62
     3
370
     9
100
AcDbLine
 10
-453.2426370156777
 20
332.3723520064618
 30
0.0
 11
-453.2426370156777
 21
240.8522796880497
 31
0.0
  0
LINE
  5
15A
330
1F
100
AcDbEntity
  8
1-2ﾚｲﾔ
  6
Continuous
 62
     3
370
     9
100
AcDbLine
 10
-388.2425462877428
 20
340.8518672883453
 30
0.0
 11
-418.2427689835831
 21
332.3723520064618
 31
0.0
  0
LINE
  5
15B
330
1F
100
AcDbEntity
  8
1-2ﾚｲﾔ
  6
Continuous
 62
     3
370
     9
100
AcDbLine
 10
-418.2427689835831
 20
332.3723520064618
 30
0.0
 11
-418.2427689835831
 21
240.8522796880497
 31
0.0
  0
LINE
  5
15C
330
1F
100
AcDbEntity
  8
1-2ﾚｲﾔ
  6
Continuous
 62
     3
370
     9
100
AcDbLine
 10
-423.2425380397487
 20
332.3723520064618
 30
0.0
 11
-423.2425380397487
 21
240.8522796880497
 31
0.0
  0
LINE
  5
15D
330
1F
100
AcDbEntity
  8
1-2ﾚｲﾔ
  6
Continuous
 62
     3
370
     9
100
AcDbLine
 10
-358.2424473118136
 20
340.8518672883453
 30
0.0
 11
-388.2426700076542
 21
332.3723520064618
 31
0.0
  0
LINE
  5
15E
330
1F
100
AcDbEntity
  8
1-2ﾚｲﾔ
  6
Continuous
 62
     3
370
     9
100
AcDbLine
 10
-388.2426700076542
 20
332.3723520064618
 30
0.0
 11
-388.2426700076542
 21
240.8522796880497
 31
0.0
  0
LINE
  5
15F
330
1F
100
AcDbEntity
  8
1-2ﾚｲﾔ
  6
Continuous
 62
     3
370
     9
100
AcDbLine
 10
-393.2424390638197
 20
332.3723520064618
 30
0.0
 11
-393.2424390638197
 21
240.8522796880497
 31
0.0
  0
LINE
  5
160
330
1F
100
AcDbEntity
  8
1-2ﾚｲﾔ
  6
Continuous
 62
     3
370
     9
100
AcDbLine
 10
-843.2432432432432
 20
340.8518672883453
 30
0.0
 11
151.7566990207982
 21
340.8518672883453
 31
0.0
  0
LINE
  5
161
330
1F
100
AcDbEntity
  8
1-2ﾚｲﾔ
  6
Continuous
 62
     3
370
     9
100
AcDbLine
 10
-843.2432432432432
 20
332.3723520064618
 30
0.0
 11
151.7566990207982
 21
332.3723520064618
 31
0.0
  0
LINE
  5
162
330
1F
100
AcDbEntity
  8
1-2ﾚｲﾔ
  6
Continuous
 62
     3
370
     9
100
AcDbLine
 10
-508.242942191459
 20
240.8518466683601
 30
0.0
 11
-538.2431648872994
 21
232.3723313864766
 31
0.0
  0
LINE
  5
163
330
1F
100
AcDbEntity
  8
1-2ﾚｲﾔ
  6
Continuous
 62
     3
370
     9
100
AcDbLine
 10
-538.2431648872994
 20
240.8518466683601
 30
0.0
 11
-568.2432638632284
 21
232.3723313864766
 31
0.0
  0
LINE
  5
164
330
1F
100
AcDbEntity
  8
1-2ﾚｲﾔ
  6
Continuous
 62
     3
370
     9
100
AcDbLine
 10
-568.2432638632284
 20
240.8518466683601
 30
0.0
 11
-598.2433628391575
 21
232.3723313864766
 31
0.0
  0
LINE
  5
165
330
1F
100
AcDbEntity
  8
1-2ﾚｲﾔ
  6
Continuous
 62
     3
370
     9
100
AcDbLine
 10
-598.2428679595123
 20
240.8518466683601
 30
0.0
 11
-628.2434618150866
 21
232.3723313864766
 31
0.0
  0
LINE
  5
166
330
1F
100
AcDbEntity
  8
1-2ﾚｲﾔ
  6
Continuous
 62
     3
370
     9
100
AcDbLine
 10
-628.2429669354412
 20
240.8518466683601
 30
0.0
 11
-658.2431896312817
 21
232.3723313864766
 31
0.0
  0
LINE
  5
167
330
1F
100
AcDbEntity
  8
1-2ﾚｲﾔ
  6
Continuous
 62
     3
370
     9
100
AcDbLine
 10
-658.2431896312817
 20
240.8518466683601
 30
0.0
 11
-688.2427937275654
 21
232.3723313864766
 31
0.0
  0
LINE
  5
168
330
1F
100
AcDbEntity
  8
1-2ﾚｲﾔ
  6
Continuous
 62
     3
370
     9
100
AcDbLine
 10
-688.2427937275654
 20
240.8518466683601
 30
0.0
 11
-718.243511303051
 21
232.3723313864766
 31
0.0
  0
LINE
  5
169
330
1F
100
AcDbEntity
  8
1-2ﾚｲﾔ
  6
Continuous
 62
     3
370
     9
100
AcDbLine
 10
-718.243511303051
 20
240.8518466683601
 30
0.0
 11
-748.2431153993349
 21
232.3723313864766
 31
0.0
  0
LINE
  5
16A
330
1F
100
AcDbEntity
  8
1-2ﾚｲﾔ
  6
Continuous
 62
     3
370
     9
100
AcDbLine
 10
-748.2431153993349
 20
240.8518466683601
 30
0.0
 11
-778.2427194956186
 21
232.3723313864766
 31
0.0
  0
LINE
  5
16B
330
1F
100
AcDbEntity
  8
1-2ﾚｲﾔ
  6
Continuous
 62
     3
370
     9
100
AcDbLine
 10
-778.2427194956186
 20
240.8518466683601
 30
0.0
 11
-808.2433133511929
 21
232.3723313864766
 31
0.0
  0
LINE
  5
16C
330
1F
100
AcDbEntity
  8
1-2ﾚｲﾔ
  6
Continuous
 62
     3
370
     9
100
AcDbLine
 10
-808.2433133511929
 20
240.8518466683601
 30
0.0
 11
-838.2429793074324
 21
232.3723313864766
 31
0.0
  0
LINE
  5
16D
330
1F
100
AcDbEntity
  8
1-2ﾚｲﾔ
  6
Continuous
 62
     3
370
     9
100
AcDbLine
 10
-838.2429793074324
 20
240.8518466683601
 30
0.0
 11
-843.2432432432432
 21
239.8519423450915
 31
0.0
  0
LINE
  5
16E
330
1F
100
AcDbEntity
  8
1-2ﾚｲﾔ
  6
Continuous
 62
     3
370
     9
100
AcDbLine
 10
-628.2434618150866
 20
232.3723313864766
 30
0.0
 11
-628.2434618150866
 21
140.8522590680644
 31
0.0
  0
LINE
  5
16F
330
1F
100
AcDbEntity
  8
1-2ﾚｲﾔ
  6
Continuous
 62
     3
370
     9
100
AcDbLine
 10
-633.2427359916069
 20
232.3723313864766
 30
0.0
 11
-633.2427359916069
 21
140.8522590680644
 31
0.0
  0
LINE
  5
170
330
1F
100
AcDbEntity
  8
1-2ﾚｲﾔ
  6
Continuous
 62
     3
370
     9
100
AcDbLine
 10
-658.2431896312817
 20
232.3723313864766
 30
0.0
 11
-658.2431896312817
 21
140.8522590680644
 31
0.0
  0
LINE
  5
171
330
1F
100
AcDbEntity
  8
1-2ﾚｲﾔ
  6
Continuous
 62
     3
370
     9
100
AcDbLine
 10
-663.242463807802
 20
232.3723313864766
 30
0.0
 11
-663.242463807802
 21
140.8522590680644
 31
0.0
  0
LINE
  5
172
330
1F
100
AcDbEntity
  8
1-2ﾚｲﾔ
  6
Continuous
 62
     3
370
     9
100
AcDbLine
 10
-688.2427937275654
 20
232.3723313864766
 30
0.0
 11
-688.2427937275654
 21
140.8522590680644
 31
0.0
  0
LINE
  5
173
330
1F
100
AcDbEntity
  8
1-2ﾚｲﾔ
  6
Continuous
 62
     3
370
     9
100
AcDbLine
 10
-693.2430576633762
 20
232.3723313864766
 30
0.0
 11
-693.2430576633762
 21
140.8522590680644
 31
0.0
  0
LINE
  5
174
330
1F
100
AcDbEntity
  8
1-2ﾚｲﾔ
  6
Continuous
 62
     3
370
     9
100
AcDbLine
 10
-718.243511303051
 20
232.3723313864766
 30
0.0
 11
-718.243511303051
 21
140.8522590680644
 31
0.0
  0
LINE
  5
175
330
1F
100
AcDbEntity
  8
1-2ﾚｲﾔ
  6
Continuous
 62
     3
370
     9
100
AcDbLine
 10
-723.2427854795714
 20
232.3723313864766
 30
0.0
 11
-723.2427854795714
 21
140.8522590680644
 31
0.0
  0
LINE
  5
176
330
1F
100
AcDbEntity
  8
1-2ﾚｲﾔ
  6
Continuous
 62
     3
370
     9
100
AcDbLine
 10
-748.2431153993349
 20
232.3723313864766
 30
0.0
 11
-748.2431153993349
 21
140.8522590680644
 31
0.0
  0
LINE
  5
177
330
1F
100
AcDbEntity
  8
1-2ﾚｲﾔ
  6
Continuous
 62
     3
370
     9
100
AcDbLine
 10
-753.2433793351457
 20
232.3723313864766
 30
0.0
 11
-753.2433793351457
 21
140.8522590680644
 31
0.0
  0
LINE
  5
178
330
1F
100
AcDbEntity
  8
1-2ﾚｲﾔ
  6
Continuous
 62
     3
370
     9
100
AcDbLine
 10
-778.2427194956186
 20
232.3723313864766
 30
0.0
 11
-778.2427194956186
 21
140.8522590680644
 31
0.0
  0
LINE
  5
179
330
1F
100
AcDbEntity
  8
1-2ﾚｲﾔ
  6
Continuous
 62
     3
370
     9
100
AcDbLine
 10
-783.2429834314294
 20
232.3723313864766
 30
0.0
 11
-783.2429834314294
 21
140.8522590680644
 31
0.0
  0
LINE
  5
17A
330
1F
100
AcDbEntity
  8
1-2ﾚｲﾔ
  6
Continuous
 62
     3
370
     9
100
AcDbLine
 10
-808.2433133511929
 20
232.3723313864766
 30
0.0
 11
-808.2433133511929
 21
140.8522590680644
 31
0.0
  0
LINE
  5
17B
330
1F
100
AcDbEntity
  8
1-2ﾚｲﾔ
  6
Continuous
 62
     3
370
     9
100
AcDbLine
 10
-813.2426493876688
 20
232.3723313864766
 30
0.0
 11
-813.2426493876688
 21
140.8522590680644
 31
0.0
  0
LINE
  5
17C
330
1F
100
AcDbEntity
  8
1-2ﾚｲﾔ
  6
Continuous
 62
     3
370
     9
100
AcDbLine
 10
-838.2429793074324
 20
140.8522590680644
 30
0.0
 11
-838.2429793074324
 21
232.3723313864766
 31
0.0
  0
LINE
  5
17D
330
1F
100
AcDbEntity
  8
1-2ﾚｲﾔ
  6
Continuous
 62
     3
370
     9
100
AcDbLine
 10
-598.2433628391575
 20
232.3723313864766
 30
0.0
 11
-598.2433628391575
 21
140.8522590680644
 31
0.0
  0
LINE
  5
17E
330
1F
100
AcDbEntity
  8
1-2ﾚｲﾔ
  6
Continuous
 62
     3
370
     9
100
AcDbLine
 10
-603.243131895323
 20
232.3723313864766
 30
0.0
 11
-603.243131895323
 21
140.8522590680644
 31
0.0
  0
LINE
  5
17F
330
1F
100
AcDbEntity
  8
1-2ﾚｲﾔ
  6
Continuous
 62
     3
370
     9
100
AcDbLine
 10
-538.2431648872994
 20
232.3723313864766
 30
0.0
 11
-538.2431648872994
 21
140.8522590680644
 31
0.0
  0
LINE
  5
180
330
1F
100
AcDbEntity
  8
1-2ﾚｲﾔ
  6
Continuous
 62
     3
370
     9
100
AcDbLine
 10
-543.2429339434649
 20
232.3723313864766
 30
0.0
 11
-543.2429339434649
 21
140.8522590680644
 31
0.0
  0
LINE
  5
181
330
1F
100
AcDbEntity
  8
1-2ﾚｲﾔ
  6
Continuous
 62
     3
370
     9
100
AcDbLine
 10
-568.2432638632284
 20
232.3723313864766
 30
0.0
 11
-568.2432638632284
 21
140.8522590680644
 31
0.0
  0
LINE
  5
182
330
1F
100
AcDbEntity
  8
1-2ﾚｲﾔ
  6
Continuous
 62
     3
370
     9
100
AcDbLine
 10
-573.243032919394
 20
232.3723313864766
 30
0.0
 11
-573.243032919394
 21
140.8522590680644
 31
0.0
  0
LINE
  5
183
330
1F
100
AcDbEntity
  8
1-2ﾚｲﾔ
  6
Continuous
 62
     3
370
     9
100
AcDbLine
 10
146.7569299646327
 20
232.3723313864766
 30
0.0
 11
146.7569299646327
 21
140.8522590680644
 31
0.0
  0
LINE
  5
184
330
1F
100
AcDbEntity
  8
1-2ﾚｲﾔ
  6
Continuous
 62
     3
370
     9
100
AcDbLine
 10
-478.2428432155299
 20
240.8518466683601
 30
0.0
 11
-508.2430659113703
 21
232.3723313864766
 31
0.0
  0
LINE
  5
185
330
1F
100
AcDbEntity
  8
1-2ﾚｲﾔ
  6
Continuous
 62
     3
370
     9
100
AcDbLine
 10
-508.2430659113703
 20
232.3723313864766
 30
0.0
 11
-508.2430659113703
 21
140.8522590680644
 31
0.0
  0
LINE
  5
186
330
1F
100
AcDbEntity
  8
1-2ﾚｲﾔ
  6
Continuous
 62
     3
370
     9
100
AcDbLine
 10
-513.2428349675358
 20
232.3723313864766
 30
0.0
 11
-513.2428349675358
 21
140.8522590680644
 31
0.0
  0
LINE
  5
187
330
1F
100
AcDbEntity
  8
1-2ﾚｲﾔ
  6
Continuous
 62
     3
370
     9
100
AcDbLine
 10
-448.2427442396009
 20
240.8518466683601
 30
0.0
 11
-478.2429669354412
 21
232.3723313864766
 31
0.0
  0
LINE
  5
188
330
1F
100
AcDbEntity
  8
1-2ﾚｲﾔ
  6
Continuous
 62
     3
370
     9
100
AcDbLine
 10
-478.2429669354412
 20
232.3723313864766
 30
0.0
 11
-478.2429669354412
 21
140.8522590680644
 31
0.0
  0
LINE
  5
189
330
1F
100
AcDbEntity
  8
1-2ﾚｲﾔ
  6
Continuous
 62
     3
370
     9
100
AcDbLine
 10
-483.2427359916068
 20
232.3723313864766
 30
0.0
 11
-483.2427359916068
 21
140.8522590680644
 31
0.0
  0
LINE
  5
18A
330
1F
100
AcDbEntity
  8
1-2ﾚｲﾔ
  6
Continuous
 62
     3
370
     9
100
AcDbLine
 10
-418.2426452636719
 20
240.8518466683601
 30
0.0
 11
-448.2428679595122
 21
232.3723313864766
 31
0.0
  0
LINE
  5
18B
330
1F
100
AcDbEntity
  8
1-2ﾚｲﾔ
  6
Continuous
 62
     3
370
     9
100
AcDbLine
 10
-448.2428679595122
 20
232.3723313864766
 30
0.0
 11
-448.2428679595122
 21
140.8522590680644
 31
0.0
  0
LINE
  5
18C
330
1F
100
AcDbEntity
  8
1-2ﾚｲﾔ
  6
Continuous
 62
     3
370
     9
100
AcDbLine
 10
-453.2426370156777
 20
232.3723313864766
 30
0.0
 11
-453.2426370156777
 21
140.8522590680644
 31
0.0
  0
LINE
  5
18D
330
1F
100
AcDbEntity
  8
1-2ﾚｲﾔ
  6
Continuous
 62
     3
370
     9
100
AcDbLine
 10
-388.2425462877428
 20
240.8518466683601
 30
0.0
 11
-418.2427689835831
 21
232.3723313864766
 31
0.0
  0
LINE
  5
18E
330
1F
100
AcDbEntity
  8
1-2ﾚｲﾔ
  6
Continuous
 62
     3
370
     9
100
AcDbLine
 10
-418.2427689835831
 20
232.3723313864766
 30
0.0
 11
-418.2427689835831
 21
140.8522590680644
 31
0.0
  0
LINE
  5
18F
330
1F
100
AcDbEntity
  8
1-2ﾚｲﾔ
  6
Continuous
 62
     3
370
     9
100
AcDbLine
 10
-423.2425380397487
 20
232.3723313864766
 30
0.0
 11
-423.2425380397487
 21
140.8522590680644
 31
0.0
  0
LINE
  5
190
330
1F
100
AcDbEntity
  8
1-2ﾚｲﾔ
  6
Continuous
 62
     3
370
     9
100
AcDbLine
 10
-358.2424473118136
 20
240.8518466683601
 30
0.0
 11
-388.2426700076542
 21
232.3723313864766
 31
0.0
  0
LINE
  5
191
330
1F
100
AcDbEntity
  8
1-2ﾚｲﾔ
  6
Continuous
 62
     3
370
     9
100
AcDbLine
 10
-388.2426700076542
 20
232.3723313864766
 30
0.0
 11
-388.2426700076542
 21
140.8522590680644
 31
0.0
  0
LINE
  5
192
330
1F
100
AcDbEntity
  8
1-2ﾚｲﾔ
  6
Continuous
 62
     3
370
     9
100
AcDbLine
 10
-393.2424390638197
 20
232.3723313864766
 30
0.0
 11
-393.2424390638197
 21
140.8522590680644
 31
0.0
  0
LINE
  5
193
330
1F
100
AcDbEntity
  8
1-2ﾚｲﾔ
  6
Continuous
 62
     3
370
     9
100
AcDbLine
 10
-843.2432432432432
 20
240.8518466683601
 30
0.0
 11
151.7566990207982
 21
240.8518466683601
 31
0.0
  0
LINE
  5
194
330
1F
100
AcDbEntity
  8
1-2ﾚｲﾔ
  6
Continuous
 62
     3
370
     9
100
AcDbLine
 10
-843.2432432432432
 20
232.3723313864766
 30
0.0
 11
151.7566990207982
 21
232.3723313864766
 31
0.0
  0
LINE
  5
195
330
1F
100
AcDbEntity
  8
1-2ﾚｲﾔ
  6
Continuous
 62
     3
370
     9
100
AcDbLine
 10
-508.242942191459
 20
140.8518879083306
 30
0.0
 11
-538.2431648872994
 21
132.3723726264471
 31
0.0
  0
LINE
  5
196
330
1F
100
AcDbEntity
  8
1-2ﾚｲﾔ
  6
Continuous
 62
     3
370
     9
100
AcDbLine
 10
-538.2431648872994
 20
140.8518879083306
 30
0.0
 11
-568.2432638632284
 21
132.3723726264471
 31
0.0
  0
LINE
  5
197
330
1F
100
AcDbEntity
  8
1-2ﾚｲﾔ
  6
Continuous
 62
     3
370
     9
100
AcDbLine
 10
-568.2432638632284
 20
140.8518879083306
 30
0.0
 11
-598.2433628391575
 21
132.3723726264471
 31
0.0
  0
LINE
  5
198
330
1F
100
AcDbEntity
  8
1-2ﾚｲﾔ
  6
Continuous
 62
     3
370
     9
100
AcDbLine
 10
-598.2428679595123
 20
140.8518879083306
 30
0.0
 11
-628.2434618150866
 21
132.3723726264471
 31
0.0
  0
LINE
  5
199
330
1F
100
AcDbEntity
  8
1-2ﾚｲﾔ
  6
Continuous
 62
     3
370
     9
100
AcDbLine
 10
-628.2429669354412
 20
140.8518879083306
 30
0.0
 11
-658.2431896312817
 21
132.3723726264471
 31
0.0
  0
LINE
  5
19A
330
1F
100
AcDbEntity
  8
1-2ﾚｲﾔ
  6
Continuous
 62
     3
370
     9
100
AcDbLine
 10
-658.2431896312817
 20
140.8518879083306
 30
0.0
 11
-688.2427937275654
 21
132.3723726264471
 31
0.0
  0
LINE
  5
19B
330
1F
100
AcDbEntity
  8
1-2ﾚｲﾔ
  6
Continuous
 62
     3
370
     9
100
AcDbLine
 10
-688.2427937275654
 20
140.8518879083306
 30
0.0
 11
-718.243511303051
 21
132.3723726264471
 31
0.0
  0
LINE
  5
19C
330
1F
100
AcDbEntity
  8
1-2ﾚｲﾔ
  6
Continuous
 62
     3
370
     9
100
AcDbLine
 10
-718.243511303051
 20
140.8518879083306
 30
0.0
 11
-748.2431153993349
 21
132.3723726264471
 31
0.0
  0
LINE
  5
19D
330
1F
100
AcDbEntity
  8
1-2ﾚｲﾔ
  6
Continuous
 62
     3
370
     9
100
AcDbLine
 10
-748.2431153993349
 20
140.8518879083306
 30
0.0
 11
-778.2427194956186
 21
132.3723726264471
 31
0.0
  0
LINE
  5
19E
330
1F
100
AcDbEntity
  8
1-2ﾚｲﾔ
  6
Continuous
 62
     3
370
     9
100
AcDbLine
 10
-778.2427194956186
 20
140.8518879083306
 30
0.0
 11
-808.2433133511929
 21
132.3723726264471
 31
0.0
  0
LINE
  5
19F
330
1F
100
AcDbEntity
  8
1-2ﾚｲﾔ
  6
Continuous
 62
     3
370
     9
100
AcDbLine
 10
-808.2433133511929
 20
140.8518879083306
 30
0.0
 11
-838.2429793074324
 21
132.3723726264471
 31
0.0
  0
LINE
  5
1A0
330
1F
100
AcDbEntity
  8
1-2ﾚｲﾔ
  6
Continuous
 62
     3
370
     9
100
AcDbLine
 10
-838.2429793074324
 20
140.8518879083306
 30
0.0
 11
-843.2432432432432
 21
139.8519835850619
 31
0.0
  0
LINE
  5
1A1
330
1F
100
AcDbEntity
  8
1-2ﾚｲﾔ
  6
Continuous
 62
     3
370
     9
100
AcDbLine
 10
-628.2434618150866
 20
132.3723726264471
 30
0.0
 11
-628.2434618150866
 21
40.85230030803483
 31
0.0
  0
LINE
  5
1A2
330
1F
100
AcDbEntity
  8
1-2ﾚｲﾔ
  6
Continuous
 62
     3
370
     9
100
AcDbLine
 10
-633.2427359916069
 20
132.3723726264471
 30
0.0
 11
-633.2427359916069
 21
40.85230030803483
 31
0.0
  0
LINE
  5
1A3
330
1F
100
AcDbEntity
  8
1-2ﾚｲﾔ
  6
Continuous
 62
     3
370
     9
100
AcDbLine
 10
-658.2431896312817
 20
132.3723726264471
 30
0.0
 11
-658.2431896312817
 21
40.85230030803483
 31
0.0
  0
LINE
  5
1A4
330
1F
100
AcDbEntity
  8
1-2ﾚｲﾔ
  6
Continuous
 62
     3
370
     9
100
AcDbLine
 10
-663.242463807802
 20
132.3723726264471
 30
0.0
 11
-663.242463807802
 21
40.85230030803483
 31
0.0
  0
LINE
  5
1A5
330
1F
100
AcDbEntity
  8
1-2ﾚｲﾔ
  6
Continuous
 62
     3
370
     9
100
AcDbLine
 10
-688.2427937275654
 20
132.3723726264471
 30
0.0
 11
-688.2427937275654
 21
40.85230030803483
 31
0.0
  0
LINE
  5
1A6
330
1F
100
AcDbEntity
  8
1-2ﾚｲﾔ
  6
Continuous
 62
     3
370
     9
100
AcDbLine
 10
-693.2430576633762
 20
132.3723726264471
 30
0.0
 11
-693.2430576633762
 21
40.85230030803483
 31
0.0
  0
LINE
  5
1A7
330
1F
100
AcDbEntity
  8
1-2ﾚｲﾔ
  6
Continuous
 62
     3
370
     9
100
AcDbLine
 10
-718.243511303051
 20
132.3723726264471
 30
0.0
 11
-718.243511303051
 21
40.85230030803483
 31
0.0
  0
LINE
  5
1A8
330
1F
100
AcDbEntity
  8
1-2ﾚｲﾔ
  6
Continuous
 62
     3
370
     9
100
AcDbLine
 10
-723.2427854795714
 20
132.3723726264471
 30
0.0
 11
-723.2427854795714
 21
40.85230030803483
 31
0.0
  0
LINE
  5
1A9
330
1F
100
AcDbEntity
  8
1-2ﾚｲﾔ
  6
Continuous
 62
     3
370
     9
100
AcDbLine
 10
-748.2431153993349
 20
132.3723726264471
 30
0.0
 11
-748.2431153993349
 21
40.85230030803483
 31
0.0
  0
LINE
  5
1AA
330
1F
100
AcDbEntity
  8
1-2ﾚｲﾔ
  6
Continuous
 62
     3
370
     9
100
AcDbLine
 10
-753.2433793351457
 20
132.3723726264471
 30
0.0
 11
-753.2433793351457
 21
40.85230030803483
 31
0.0
  0
LINE
  5
1AB
330
1F
100
AcDbEntity
  8
1-2ﾚｲﾔ
  6
Continuous
 62
     3
370
     9
100
AcDbLine
 10
-778.2427194956186
 20
132.3723726264471
 30
0.0
 11
-778.2427194956186
 21
40.85230030803483
 31
0.0
  0
LINE
  5
1AC
330
1F
100
AcDbEntity
  8
1-2ﾚｲﾔ
  6
Continuous
 62
     3
370
     9
100
AcDbLine
 10
-783.2429834314294
 20
132.3723726264471
 30
0.0
 11
-783.2429834314294
 21
40.85230030803483
 31
0.0
  0
LINE
  5
1AD
330
1F
100
AcDbEntity
  8
1-2ﾚｲﾔ
  6
Continuous
 62
     3
370
     9
100
AcDbLine
 10
-808.2433133511929
 20
132.3723726264471
 30
0.0
 11
-808.2433133511929
 21
40.85230030803483
 31
0.0
  0
LINE
  5
1AE
330
1F
100
AcDbEntity
  8
1-2ﾚｲﾔ
  6
Continuous
 62
     3
370
     9
100
AcDbLine
 10
-813.2426493876688
 20
132.3723726264471
 30
0.0
 11
-813.2426493876688
 21
40.85230030803483
 31
0.0
  0
LINE
  5
1AF
330
1F
100
AcDbEntity
  8
1-2ﾚｲﾔ
  6
Continuous
 62
     3
370
     9
100
AcDbLine
 10
-838.2429793074324
 20
40.85230030803483
 30
0.0
 11
-838.2429793074324
 21
132.3723726264471
 31
0.0
  0
LINE
  5
1B0
330
1F
100
AcDbEntity
  8
1-2ﾚｲﾔ
  6
Continuous
 62
     3
370
     9
100
AcDbLine
 10
-598.2433628391575
 20
132.3723726264471
 30
0.0
 11
-598.2433628391575
 21
40.85230030803483
 31
0.0
  0
LINE
  5
1B1
330
1F
100
AcDbEntity
  8
1-2ﾚｲﾔ
  6
Continuous
 62
     3
370
     9
100
AcDbLine
 10
-603.243131895323
 20
132.3723726264471
 30
0.0
 11
-603.243131895323
 21
40.85230030803483
 31
0.0
  0
LINE
  5
1B2
330
1F
100
AcDbEntity
  8
1-2ﾚｲﾔ
  6
Continuous
 62
     3
370
     9
100
AcDbLine
 10
-538.2431648872994
 20
132.3723726264471
 30
0.0
 11
-538.2431648872994
 21
40.85230030803483
 31
0.0
  0
LINE
  5
1B3
330
1F
100
AcDbEntity
  8
1-2ﾚｲﾔ
  6
Continuous
 62
     3
370
     9
100
AcDbLine
 10
-543.2429339434649
 20
132.3723726264471
 30
0.0
 11
-543.2429339434649
 21
40.85230030803483
 31
0.0
  0
LINE
  5
1B4
330
1F
100
AcDbEntity
  8
1-2ﾚｲﾔ
  6
Continuous
 62
     3
370
     9
100
AcDbLine
 10
-568.2432638632284
 20
132.3723726264471
 30
0.0
 11
-568.2432638632284
 21
40.85230030803483
 31
0.0
  0
LINE
  5
1B5
330
1F
100
AcDbEntity
  8
1-2ﾚｲﾔ
  6
Continuous
 62
     3
370
     9
100
AcDbLine
 10
-573.243032919394
 20
132.3723726264471
 30
0.0
 11
-573.243032919394
 21
40.85230030803483
 31
0.0
  0
LINE
  5
1B6
330
1F
100
AcDbEntity
  8
1-2ﾚｲﾔ
  6
Continuous
 62
     3
370
     9
100
AcDbLine
 10
146.7569299646327
 20
132.3723726264471
 30
0.0
 11
146.7569299646327
 21
40.85230030803483
 31
0.0
  0
LINE
  5
1B7
330
1F
100
AcDbEntity
  8
1-2ﾚｲﾔ
  6
Continuous
 62
     3
370
     9
100
AcDbLine
 10
-478.2428432155299
 20
140.8518879083306
 30
0.0
 11
-508.2430659113703
 21
132.3723726264471
 31
0.0
  0
LINE
  5
1B8
330
1F
100
AcDbEntity
  8
1-2ﾚｲﾔ
  6
Continuous
 62
     3
370
     9
100
AcDbLine
 10
-508.2430659113703
 20
132.3723726264471
 30
0.0
 11
-508.2430659113703
 21
40.85230030803483
 31
0.0
  0
LINE
  5
1B9
330
1F
100
AcDbEntity
  8
1-2ﾚｲﾔ
  6
Continuous
 62
     3
370
     9
100
AcDbLine
 10
-513.2428349675358
 20
132.3723726264471
 30
0.0
 11
-513.2428349675358
 21
40.85230030803483
 31
0.0
  0
LINE
  5
1BA
330
1F
100
AcDbEntity
  8
1-2ﾚｲﾔ
  6
Continuous
 62
     3
370
     9
100
AcDbLine
 10
-448.2427442396009
 20
140.8518879083306
 30
0.0
 11
-478.2429669354412
 21
132.3723726264471
 31
0.0
  0
LINE
  5
1BB
330
1F
100
AcDbEntity
  8
1-2ﾚｲﾔ
  6
Continuous
 62
     3
370
     9
100
AcDbLine
 10
-478.2429669354412
 20
132.3723726264471
 30
0.0
 11
-478.2429669354412
 21
40.85230030803483
 31
0.0
  0
LINE
  5
1BC
330
1F
100
AcDbEntity
  8
1-2ﾚｲﾔ
  6
Continuous
 62
     3
370
     9
100
AcDbLine
 10
-483.2427359916068
 20
132.3723726264471
 30
0.0
 11
-483.2427359916068
 21
40.85230030803483
 31
0.0
  0
LINE
  5
1BD
330
1F
100
AcDbEntity
  8
1-2ﾚｲﾔ
  6
Continuous
 62
     3
370
     9
100
AcDbLine
 10
-418.2426452636719
 20
140.8518879083306
 30
0.0
 11
-448.2428679595122
 21
132.3723726264471
 31
0.0
  0
LINE
  5
1BE
330
1F
100
AcDbEntity
  8
1-2ﾚｲﾔ
  6
Continuous
 62
     3
370
     9
100
AcDbLine
 10
-448.2428679595122
 20
132.3723726264471
 30
0.0
 11
-448.2428679595122
 21
40.85230030803483
 31
0.0
  0
LINE
  5
1BF
330
1F
100
AcDbEntity
  8
1-2ﾚｲﾔ
  6
Continuous
 62
     3
370
     9
100
AcDbLine
 10
-453.2426370156777
 20
132.3723726264471
 30
0.0
 11
-453.2426370156777
 21
40.85230030803483
 31
0.0
  0
LINE
  5
1C0
330
1F
100
AcDbEntity
  8
1-2ﾚｲﾔ
  6
Continuous
 62
     3
370
     9
100
AcDbLine
 10
-388.2425462877428
 20
140.8518879083306
 30
0.0
 11
-418.2427689835831
 21
132.3723726264471
 31
0.0
  0
LINE
  5
1C1
330
1F
100
AcDbEntity
  8
1-2ﾚｲﾔ
  6
Continuous
 62
     3
370
     9
100
AcDbLine
 10
-418.2427689835831
 20
132.3723726264471
 30
0.0
 11
-418.2427689835831
 21
40.85230030803483
 31
0.0
  0
LINE
  5
1C2
330
1F
100
AcDbEntity
  8
1-2ﾚｲﾔ
  6
Continuous
 62
     3
370
     9
100
AcDbLine
 10
-423.2425380397487
 20
132.3723726264471
 30
0.0
 11
-423.2425380397487
 21
40.85230030803483
 31
0.0
  0
LINE
  5
1C3
330
1F
100
AcDbEntity
  8
1-2ﾚｲﾔ
  6
Continuous
 62
     3
370
     9
100
AcDbLine
 10
-358.2424473118136
 20
140.8518879083306
 30
0.0
 11
-388.2426700076542
 21
132.3723726264471
 31
0.0
  0
LINE
  5
1C4
330
1F
100
AcDbEntity
  8
1-2ﾚｲﾔ
  6
Continuous
 62
     3
370
     9
100
AcDbLine
 10
-388.2426700076542
 20
132.3723726264471
 30
0.0
 11
-388.2426700076542
 21
40.85230030803483
 31
0.0
  0
LINE
  5
1C5
330
1F
100
AcDbEntity
  8
1-2ﾚｲﾔ
  6
Continuous
 62
     3
370
     9
100
AcDbLine
 10
-393.2424390638197
 20
132.3723726264471
 30
0.0
 11
-393.2424390638197
 21
40.85230030803483
 31
0.0
  0
LINE
  5
1C6
330
1F
100
AcDbEntity
  8
1-2ﾚｲﾔ
  6
Continuous
 62
     3
370
     9
100
AcDbLine
 10
-843.2432432432432
 20
140.8518879083306
 30
0.0
 11
151.7566990207982
 21
140.8518879083306
 31
0.0
  0
LINE
  5
1C7
330
1F
100
AcDbEntity
  8
1-2ﾚｲﾔ
  6
Continuous
 62
     3
370
     9
100
AcDbLine
 10
-843.2432432432432
 20
132.3723726264471
 30
0.0
 11
151.7566990207982
 21
132.3723726264471
 31
0.0
  0
LINE
  5
1C8
330
1F
100
AcDbEntity
  8
1-4ﾚｲﾔ
  6
Continuous
 62
     7
370
     9
100
AcDbLine
 10
-528.5994452399176
 20
440.8518260483748
 30
0.0
 11
-490.8828116752006
 21
581.6121756313564
 31
0.0
  0
LINE
  5
1C9
330
1F
100
AcDbEntity
  8
1-4ﾚｲﾔ
  6
Continuous
 62
     7
370
     9
100
AcDbLine
 10
-490.8828116752006
 20
581.6121756313564
 30
0.0
 11
-289.9408288904138
 21
581.6121756313564
 31
0.0
  0
LINE
  5
1CA
330
1F
100
AcDbEntity
  8
1-4ﾚｲﾔ
  6
Continuous
 62
     7
370
     9
100
AcDbLine
 10
-528.5994452399176
 20
440.8518260483748
 30
0.0
 11
-526.9678889094172
 21
453.2448495650556
 31
0.0
  0
LINE
  5
1CB
330
1F
100
AcDbEntity
  8
1-4ﾚｲﾔ
  6
Continuous
 62
     7
370
     9
100
AcDbLine
 10
-528.5994452399176
 20
440.8518260483748
 30
0.0
 11
-523.8158767287796
 21
452.4003374504019
 31
0.0
  0
LINE
  5
1CC
330
1F
100
AcDbEntity
  8
1-4ﾚｲﾔ
  6
Continuous
 62
     7
370
     9
100
AcDbLine
 10
413.5135135135135
 20
-18.38776250868808
 30
0.0
 11
413.5135135135135
 21
491.6121261433918
 31
0.0
  0
LINE
  5
1CD
330
1F
100
AcDbEntity
  8
1-4ﾚｲﾔ
  6
Continuous
 62
     7
370
     9
100
AcDbLine
 10
451.0135135135135
 20
-18.38776250868808
 30
0.0
 11
412.0135333086995
 21
-18.38776250868808
 31
0.0
  0
LINE
  5
1CE
330
1F
100
AcDbEntity
  8
1-4ﾚｲﾔ
  6
Continuous
 62
     7
370
     9
100
AcDbLine
 10
451.0135135135135
 20
491.6121261433918
 30
0.0
 11
412.0135333086995
 21
491.6121261433918
 31
0.0
  0
LINE
  5
1CF
330
1F
100
AcDbEntity
  8
1-4ﾚｲﾔ
  6
Continuous
 62
     7
370
     9
100
AcDbLine
 10
495.5134623759503
 20
-26.38767755434902
 30
0.0
 11
495.5134623759503
 21
-69.88772209351706
 31
0.0
  0
LINE
  5
1D0
330
1F
100
AcDbEntity
  8
1-4ﾚｲﾔ
  6
Continuous
 62
     7
370
     9
100
AcDbLine
 10
570.5134623759502
 20
-17.48770015385279
 30
0.0
 11
570.5134623759502
 21
-109.8877303415112
 31
0.0
  0
LINE
  5
1D1
330
1F
100
AcDbEntity
  8
1-4ﾚｲﾔ
  6
Continuous
 62
     7
370
     9
100
AcDbLine
 10
463.5135547534841
 20
-108.387750136697
 30
0.0
 11
570.5134623759502
 21
-108.387750136697
 31
0.0
  0
LINE
  5
1D2
330
1F
100
AcDbEntity
  8
1-4ﾚｲﾔ
  6
Continuous
 62
     7
370
     9
100
AcDbLine
 10
502.0135827966638
 20
-18.38776250868808
 30
0.0
 11
622.0134838207349
 21
-18.38776250868808
 31
0.0
  0
LINE
  5
1D3
330
1F
100
AcDbEntity
  8
1-4ﾚｲﾔ
  6
Continuous
 62
     7
370
     9
100
AcDbLine
 10
576.6135963233742
 20
-11.38768992634009
 30
0.0
 11
622.0134838207349
 21
-11.38768992634009
 31
0.0
  0
LINE
  5
1D4
330
1F
100
AcDbEntity
  8
1-4ﾚｲﾔ
  6
Continuous
 62
     7
370
     9
100
AcDbLine
 10
576.6135963233742
 20
28.61231832165398
 30
0.0
 11
622.0134838207349
 21
28.61231832165398
 31
0.0
  0
LINE
  5
1D5
330
1F
100
AcDbEntity
  8
1-4ﾚｲﾔ
  6
Continuous
 62
     7
370
     9
100
AcDbLine
 10
576.6135963233742
 20
444.6120453130497
 30
0.0
 11
622.0134838207349
 21
444.6120453130497
 31
0.0
  0
LINE
  5
1D6
330
1F
100
AcDbEntity
  8
1-4ﾚｲﾔ
  6
Continuous
 62
     7
370
     9
100
AcDbLine
 10
576.6135963233742
 20
484.6121772809551
 30
0.0
 11
622.0134838207349
 21
484.6121772809551
 31
0.0
  0
LINE
  5
1D7
330
1F
100
AcDbEntity
  8
1-4ﾚｲﾔ
  6
Continuous
 62
     7
370
     9
100
AcDbLine
 10
502.0135827966638
 20
491.6121261433918
 30
0.0
 11
622.0134838207349
 21
491.6121261433918
 31
0.0
  0
LINE
  5
1D8
330
1F
100
AcDbEntity
  8
1-4ﾚｲﾔ
  6
Continuous
 62
     7
370
     9
100
AcDbLine
 10
463.5135547534841
 20
-30.88774188870286
 30
0.0
 11
463.5135547534841
 21
-109.8877303415112
 31
0.0
  0
LINE
  5
1D9
330
1F
100
AcDbEntity
  8
1-4ﾚｲﾔ
  6
Continuous
 62
     7
370
     9
100
AcDbLine
 10
620.5135036159206
 20
-44.59126856601497
 30
0.0
 11
620.5135036159206
 21
516.5288214031046
 31
0.0
  0
LINE
  5
1DA
330
1F
100
AcDbEntity
  8
1-2ﾚｲﾔ
  6
Continuous
 62
     3
370
     9
100
AcDbLine
 10
471.998761151288
 20
436.6120684074332
 30
0.0
 11
467.7561579523859
 21
432.3693414886197
 31
0.0
  0
LINE
  5
1DB
330
1F
100
AcDbEntity
  8
1-2ﾚｲﾔ
  6
Continuous
 62
     3
370
     9
100
AcDbLine
 10
467.7561579523859
 20
432.3693414886197
 30
0.0
 11
463.5135547534841
 21
436.6120684074332
 31
0.0
  0
LINE
  5
1DC
330
1F
100
AcDbEntity
  8
1-2ﾚｲﾔ
  6
Continuous
 62
     3
370
     9
100
AcDbLine
 10
463.5135547534841
 20
436.6120684074332
 30
0.0
 11
467.7561579523859
 21
440.8546716063352
 31
0.0
  0
LINE
  5
1DD
330
1F
100
AcDbEntity
  8
1-2ﾚｲﾔ
  6
Continuous
 62
     3
370
     9
100
AcDbLine
 10
467.7561579523859
 20
440.8546716063352
 30
0.0
 11
471.998761151288
 21
436.6120684074332
 31
0.0
  0
LINE
  5
1DE
330
1F
100
AcDbEntity
  8
1-2ﾚｲﾔ
  6
Continuous
 62
     3
370
     9
100
AcDbLine
 10
463.5135547534841
 20
491.6121261433918
 30
0.0
 11
488.513637233425
 21
491.6121261433918
 31
0.0
  0
LINE
  5
1DF
330
1F
100
AcDbEntity
  8
1-2ﾚｲﾔ
  6
Continuous
 62
     3
370
     9
100
AcDbLine
 10
463.5135547534841
 20
487.1120618090379
 30
0.0
 11
495.5134623759503
 21
487.1120618090379
 31
0.0
  0
LINE
  5
1E0
330
1F
100
AcDbEntity
  8
1-1ﾚｲﾔ
  6
Continuous
 62
     2
370
     9
100
AcDbLine
 10
564.1134313634925
 20
444.6120453130497
 30
0.0
 11
501.9134933884081
 21
444.6120453130497
 31
0.0
  0
LINE
  5
1E1
330
1F
100
AcDbEntity
  8
1-1ﾚｲﾔ
  6
Continuous
 62
     2
370
     9
100
AcDbLine
 10
564.1134313634925
 20
481.412038054815
 30
0.0
 11
501.9134933884081
 21
481.412038054815
 31
0.0
  0
LINE
  5
1E2
330
1F
100
AcDbEntity
  8
1-1ﾚｲﾔ
  6
Continuous
 62
     2
370
     9
100
AcDbLine
 10
567.3135705896328
 20
451.0120763255076
 30
0.0
 11
567.3135705896328
 21
478.212022548586
 31
0.0
  0
LINE
  5
1E3
330
1F
100
AcDbEntity
  8
1-1ﾚｲﾔ
  6
Continuous
 62
     2
370
     9
100
AcDbLine
 10
564.1134313634925
 20
484.6120535610439
 30
0.0
 11
501.9134933884081
 21
484.6120535610439
 31
0.0
  0
LINE
  5
1E4
330
1F
100
AcDbEntity
  8
1-1ﾚｲﾔ
  6
Continuous
 62
     2
370
     9
100
AcDbLine
 10
570.5134623759502
 20
451.0119526055962
 30
0.0
 11
570.5134623759502
 21
478.212022548586
 31
0.0
  0
LINE
  5
1E5
330
1F
100
AcDbEntity
  8
1-1ﾚｲﾔ
  6
Continuous
 62
     2
370
     9
100
AcDbLine
 10
501.9134933884081
 20
447.8120608192786
 30
0.0
 11
564.1134313634925
 21
447.8120608192786
 31
0.0
  0
LINE
  5
1E6
330
1F
100
AcDbEntity
  8
1-1ﾚｲﾔ
  6
Continuous
 62
     2
370
     9
100
AcDbLine
 10
498.7136016020904
 20
451.0119526055962
 30
0.0
 11
498.7136016020904
 21
478.212022548586
 31
0.0
  0
LINE
  5
1E7
330
1F
100
AcDbEntity
  8
1-2ﾚｲﾔ
  6
Continuous
 62
     3
370
     9
100
AcDbLine
 10
463.5135547534841
 20
491.6121261433918
 30
0.0
 11
463.5135547534841
 21
-18.38776250868808
 31
0.0
  0
LINE
  5
1E8
330
1F
100
AcDbEntity
  8
1-2ﾚｲﾔ
  6
Continuous
 62
     3
370
     9
100
AcDbLine
 10
463.5135547534841
 20
336.6121096474036
 30
0.0
 11
467.7561579523859
 21
340.8547128463056
 31
0.0
  0
LINE
  5
1E9
330
1F
100
AcDbEntity
  8
1-2ﾚｲﾔ
  6
Continuous
 62
     3
370
     9
100
AcDbLine
 10
467.7561579523859
 20
340.8547128463056
 30
0.0
 11
471.998761151288
 21
336.6121096474036
 31
0.0
  0
LINE
  5
1EA
330
1F
100
AcDbEntity
  8
1-2ﾚｲﾔ
  6
Continuous
 62
     3
370
     9
100
AcDbLine
 10
470.513627335832
 20
487.1120618090379
 30
0.0
 11
470.513627335832
 21
438.0973259428005
 31
0.0
  0
LINE
  5
1EB
330
1F
100
AcDbEntity
  8
1-2ﾚｲﾔ
  6
Continuous
 62
     3
370
     9
100
AcDbLine
 10
470.513627335832
 20
435.1268108720657
 30
0.0
 11
470.513627335832
 21
338.0972434628596
 31
0.0
  0
LINE
  5
1EC
330
1F
100
AcDbEntity
  8
1-2ﾚｲﾔ
  6
Continuous
 62
     3
370
     9
100
AcDbLine
 10
469.5134755727409
 20
487.1120618090379
 30
0.0
 11
469.5134755727409
 21
439.0973539859805
 31
0.0
  0
LINE
  5
1ED
330
1F
100
AcDbEntity
  8
1-2ﾚｲﾔ
  6
Continuous
 62
     3
370
     9
100
AcDbLine
 10
469.5134755727409
 20
434.1266591089746
 30
0.0
 11
469.5134755727409
 21
339.0973952259509
 31
0.0
  0
LINE
  5
1EE
330
1F
100
AcDbEntity
  8
1-2ﾚｲﾔ
  6
Continuous
 62
     3
370
     9
100
AcDbLine
 10
471.998761151288
 20
36.61229522727051
 30
0.0
 11
467.7561579523859
 21
40.85502214608393
 31
0.0
  0
LINE
  5
1EF
330
1F
100
AcDbEntity
  8
1-2ﾚｲﾔ
  6
Continuous
 62
     3
370
     9
100
AcDbLine
 10
467.7561579523859
 20
40.85502214608393
 30
0.0
 11
463.5135547534841
 21
36.61229522727051
 31
0.0
  0
LINE
  5
1F0
330
1F
100
AcDbEntity
  8
1-2ﾚｲﾔ
  6
Continuous
 62
     3
370
     9
100
AcDbLine
 10
463.5135547534841
 20
36.61229522727051
 30
0.0
 11
467.7561579523859
 21
32.36969202836843
 31
0.0
  0
LINE
  5
1F1
330
1F
100
AcDbEntity
  8
1-2ﾚｲﾔ
  6
Continuous
 62
     3
370
     9
100
AcDbLine
 10
467.7561579523859
 20
32.36969202836843
 30
0.0
 11
471.998761151288
 21
36.61229522727051
 31
0.0
  0
LINE
  5
1F2
330
1F
100
AcDbEntity
  8
1-2ﾚｲﾔ
  6
Continuous
 62
     3
370
     9
100
AcDbLine
 10
463.5135547534841
 20
-18.38776250868808
 30
0.0
 11
488.513637233425
 21
-18.38776250868808
 31
0.0
  0
LINE
  5
1F3
330
1F
100
AcDbEntity
  8
1-2ﾚｲﾔ
  6
Continuous
 62
     3
370
     9
100
AcDbLine
 10
463.5135547534841
 20
-13.88769817433424
 30
0.0
 11
495.5134623759503
 21
-13.88769817433424
 31
0.0
  0
LINE
  5
1F4
330
1F
100
AcDbEntity
  8
1-1ﾚｲﾔ
  6
Continuous
 62
     2
370
     9
100
AcDbLine
 10
564.1134313634925
 20
28.61231832165398
 30
0.0
 11
501.9134933884081
 21
28.61231832165398
 31
0.0
  0
LINE
  5
1F5
330
1F
100
AcDbEntity
  8
1-1ﾚｲﾔ
  6
Continuous
 62
     2
370
     9
100
AcDbLine
 10
564.1134313634925
 20
-8.187674420111257
 30
0.0
 11
501.9134933884081
 21
-8.187674420111257
 31
0.0
  0
LINE
  5
1F6
330
1F
100
AcDbEntity
  8
1-1ﾚｲﾔ
  6
Continuous
 62
     2
370
     9
100
AcDbLine
 10
567.3135705896328
 20
22.21228730919616
 30
0.0
 11
567.3135705896328
 21
-4.987658913882349
 31
0.0
  0
LINE
  5
1F7
330
1F
100
AcDbEntity
  8
1-1ﾚｲﾔ
  6
Continuous
 62
     2
370
     9
100
AcDbLine
 10
564.1134313634925
 20
-11.38768992634009
 30
0.0
 11
501.9134933884081
 21
-11.38768992634009
 31
0.0
  0
LINE
  5
1F8
330
1F
100
AcDbEntity
  8
1-1ﾚｲﾔ
  6
Continuous
 62
     2
370
     9
100
AcDbLine
 10
570.5134623759502
 20
22.21241102910749
 30
0.0
 11
570.5134623759502
 21
-4.987658913882349
 31
0.0
  0
LINE
  5
1F9
330
1F
100
AcDbEntity
  8
1-1ﾚｲﾔ
  6
Continuous
 62
     2
370
     9
100
AcDbLine
 10
501.9134933884081
 20
25.41230281542507
 30
0.0
 11
564.1134313634925
 21
25.41230281542507
 31
0.0
  0
LINE
  5
1FA
330
1F
100
AcDbEntity
  8
1-1ﾚｲﾔ
  6
Continuous
 62
     2
370
     9
100
AcDbLine
 10
498.7136016020904
 20
22.21241102910749
 30
0.0
 11
498.7136016020904
 21
-4.987658913882349
 31
0.0
  0
LINE
  5
1FB
330
1F
100
AcDbEntity
  8
1-2ﾚｲﾔ
  6
Continuous
 62
     3
370
     9
100
AcDbLine
 10
463.5135547534841
 20
336.6123570872263
 30
0.0
 11
467.7561579523859
 21
332.3697538883242
 31
0.0
  0
LINE
  5
1FC
330
1F
100
AcDbEntity
  8
1-2ﾚｲﾔ
  6
Continuous
 62
     3
370
     9
100
AcDbLine
 10
467.7561579523859
 20
332.3697538883242
 30
0.0
 11
471.998761151288
 21
336.6123570872263
 31
0.0
  0
LINE
  5
1FD
330
1F
100
AcDbEntity
  8
1-2ﾚｲﾔ
  6
Continuous
 62
     3
370
     9
100
AcDbLine
 10
470.513627335832
 20
-13.88769817433424
 30
0.0
 11
470.513627335832
 21
35.12703769190306
 31
0.0
  0
LINE
  5
1FE
330
1F
100
AcDbEntity
  8
1-2ﾚｲﾔ
  6
Continuous
 62
     3
370
     9
100
AcDbLine
 10
469.5134755727409
 20
-13.88769817433424
 30
0.0
 11
469.5134755727409
 21
34.12700964872325
 31
0.0
  0
LINE
  5
1FF
330
1F
100
AcDbEntity
  8
1-2ﾚｲﾔ
  6
Continuous
 62
     3
370
     9
100
AcDbLine
 10
463.5135547534841
 20
236.612150887374
 30
0.0
 11
467.7561579523859
 21
240.854754086276
 31
0.0
  0
LINE
  5
200
330
1F
100
AcDbEntity
  8
1-2ﾚｲﾔ
  6
Continuous
 62
     3
370
     9
100
AcDbLine
 10
467.7561579523859
 20
240.854754086276
 30
0.0
 11
471.998761151288
 21
236.612150887374
 31
0.0
  0
LINE
  5
201
330
1F
100
AcDbEntity
  8
1-2ﾚｲﾔ
  6
Continuous
 62
     3
370
     9
100
AcDbLine
 10
463.5135547534841
 20
236.6123983271967
 30
0.0
 11
467.7561579523859
 21
232.3697951282946
 31
0.0
  0
LINE
  5
202
330
1F
100
AcDbEntity
  8
1-2ﾚｲﾔ
  6
Continuous
 62
     3
370
     9
100
AcDbLine
 10
467.7561579523859
 20
232.3697951282946
 30
0.0
 11
471.998761151288
 21
236.6123983271967
 31
0.0
  0
LINE
  5
203
330
1F
100
AcDbEntity
  8
1-2ﾚｲﾔ
  6
Continuous
 62
     3
370
     9
100
AcDbLine
 10
470.513627335832
 20
238.09728470283
 30
0.0
 11
470.513627335832
 21
335.1269758319475
 31
0.0
  0
LINE
  5
204
330
1F
100
AcDbEntity
  8
1-2ﾚｲﾔ
  6
Continuous
 62
     3
370
     9
100
AcDbLine
 10
469.5134755727409
 20
239.0974364659213
 30
0.0
 11
469.5134755727409
 21
334.1270715086789
 31
0.0
  0
LINE
  5
205
330
1F
100
AcDbEntity
  8
1-4ﾚｲﾔ
  6
Continuous
 62
     7
370
     9
100
AcDbLine
 10
463.5135547534841
 20
-68.38774188870286
 30
0.0
 11
570.5134623759502
 21
-68.38774188870286
 31
0.0
  0
LINE
  5
206
330
1F
100
AcDbEntity
  8
1-2ﾚｲﾔ
  6
Continuous
 62
     3
370
     9
100
AcDbLine
 10
489.5135415566935
 20
487.1120618090379
 30
0.0
 11
489.5135415566935
 21
-13.88769817433424
 31
0.0
  0
LINE
  5
207
330
1F
100
AcDbEntity
  8
1-2ﾚｲﾔ
  6
Continuous
 62
     3
370
     9
100
AcDbLine
 10
488.513637233425
 20
491.6121261433918
 30
0.0
 11
488.513637233425
 21
-18.38776250868808
 31
0.0
  0
LINE
  5
208
330
1F
100
AcDbEntity
  8
1-2ﾚｲﾔ
  6
Continuous
 62
     3
370
     9
100
AcDbLine
 10
495.5134623759503
 20
487.1120618090379
 30
0.0
 11
495.5134623759503
 21
-13.88769817433424
 31
0.0
  0
LINE
  5
209
330
1F
100
AcDbEntity
  8
1-2ﾚｲﾔ
  6
Continuous
 62
     3
370
     9
100
AcDbLine
 10
463.5135547534841
 20
136.6121302673887
 30
0.0
 11
467.7561579523859
 21
140.8547334662908
 31
0.0
  0
LINE
  5
20A
330
1F
100
AcDbEntity
  8
1-2ﾚｲﾔ
  6
Continuous
 62
     3
370
     9
100
AcDbLine
 10
467.7561579523859
 20
140.8547334662908
 30
0.0
 11
471.998761151288
 21
136.6121302673887
 31
0.0
  0
LINE
  5
20B
330
1F
100
AcDbEntity
  8
1-2ﾚｲﾔ
  6
Continuous
 62
     3
370
     9
100
AcDbLine
 10
463.5135547534841
 20
136.6123777072114
 30
0.0
 11
467.7561579523859
 21
132.3697745083093
 31
0.0
  0
LINE
  5
20C
330
1F
100
AcDbEntity
  8
1-2ﾚｲﾔ
  6
Continuous
 62
     3
370
     9
100
AcDbLine
 10
467.7561579523859
 20
132.3697745083093
 30
0.0
 11
471.998761151288
 21
136.6123777072114
 31
0.0
  0
LINE
  5
20D
330
1F
100
AcDbEntity
  8
1-2ﾚｲﾔ
  6
Continuous
 62
     3
370
     9
100
AcDbLine
 10
470.513627335832
 20
38.09755276263797
 30
0.0
 11
470.513627335832
 21
135.1272438917553
 31
0.0
  0
LINE
  5
20E
330
1F
100
AcDbEntity
  8
1-2ﾚｲﾔ
  6
Continuous
 62
     3
370
     9
100
AcDbLine
 10
470.513627335832
 20
138.0972022228891
 30
0.0
 11
470.513627335832
 21
235.1272645117406
 31
0.0
  0
LINE
  5
20F
330
1F
100
AcDbEntity
  8
1-2ﾚｲﾔ
  6
Continuous
 62
     3
370
     9
100
AcDbLine
 10
469.5134755727409
 20
39.09770452572911
 30
0.0
 11
469.5134755727409
 21
134.1270921286641
 31
0.0
  0
LINE
  5
210
330
1F
100
AcDbEntity
  8
1-2ﾚｲﾔ
  6
Continuous
 62
     3
370
     9
100
AcDbLine
 10
469.5134755727409
 20
139.097415845936
 30
0.0
 11
469.5134755727409
 21
234.1271127486493
 31
0.0
  0
LINE
  5
211
330
1F
100
AcDbEntity
  8
1-2ﾚｲﾔ
  6
JWW_CENTER1
 62
     3
370
     9
100
AcDbLine
 10
442.6661310969172
 20
236.612150887374
 30
0.0
 11
513.0068392366977
 21
236.612150887374
 31
0.0
  0
LINE
  5
212
330
1F
100
AcDbEntity
  8
1-4ﾚｲﾔ
  6
Continuous
 62
     7
370
     9
100
AcDbLine
 10
564.1134313634925
 20
484.6120535610439
 30
0.0
 11
565.7450495539484
 21
497.0050770777246
 31
0.0
  0
LINE
  5
213
330
1F
100
AcDbEntity
  8
1-4ﾚｲﾔ
  6
Continuous
 62
     7
370
     9
100
AcDbLine
 10
564.1134313634925
 20
484.6120535610439
 30
0.0
 11
568.896938014675
 21
496.1605649630708
 31
0.0
  0
LINE
  5
214
330
1F
100
AcDbEntity
  8
1-4ﾚｲﾔ
  6
Continuous
 62
     7
370
     9
100
AcDbLine
 10
564.1134313634925
 20
484.6120535610439
 30
0.0
 11
590.104510333087
 21
581.6121756313564
 31
0.0
  0
LINE
  5
215
330
1F
100
AcDbEntity
  8
1-E
  6
Continuous
 62
     7
370
     9
100
AcDbLine
 10
590.104510333087
 20
581.6121756313564
 30
0.0
 11
880.6059141416807
 21
581.6121756313564
 31
0.0
  0
LINE
  5
216
330
1F
100
AcDbEntity
  8
1-4ﾚｲﾔ
  6
Continuous
 62
     7
370
     9
100
AcDbLine
 10
-720.7431483913113
 20
514.9836834306595
 30
0.0
 11
-690.7429256954708
 21
514.9836834306595
 31
0.0
  0
LINE
  5
217
330
1F
100
AcDbEntity
  8
1-4ﾚｲﾔ
  6
Continuous
 62
     7
370
     9
100
AcDbLine
 10
-720.7431483913113
 20
466.752342042885
 30
0.0
 11
-720.7431483913113
 21
516.4836636354737
 31
0.0
  0
LINE
  5
218
330
1F
100
AcDbEntity
  8
1-4ﾚｲﾔ
  6
Continuous
 62
     7
370
     9
100
AcDbLine
 10
-690.7429256954708
 20
466.752342042885
 30
0.0
 11
-690.7429256954708
 21
516.4836636354737
 31
0.0
  0
LINE
  5
219
330
1F
100
AcDbEntity
  8
1-2ﾚｲﾔ
  6
Continuous
 62
     3
370
     9
100
AcDbLine
 10
-328.2424101958404
 20
440.8518260483748
 30
0.0
 11
-358.2426328916807
 21
432.3723107664914
 31
0.0
  0
LINE
  5
21A
330
1F
100
AcDbEntity
  8
1-2ﾚｲﾔ
  6
Continuous
 62
     3
370
     9
100
AcDbLine
 10
-363.2424019478462
 20
487.1124329687718
 30
0.0
 11
-363.2424019478462
 21
440.8518260483748
 31
0.0
  0
LINE
  5
21B
330
1F
100
AcDbEntity
  8
1-2ﾚｲﾔ
  6
Continuous
 62
     3
370
     9
100
AcDbLine
 10
-358.2426328916807
 20
487.1124329687718
 30
0.0
 11
-358.2426328916807
 21
440.8518260483748
 31
0.0
  0
LINE
  5
21C
330
1F
100
AcDbEntity
  8
1-2ﾚｲﾔ
  6
Continuous
 62
     3
370
     9
100
AcDbLine
 10
-358.2426328916807
 20
32.37185712681661
 30
0.0
 11
-358.2426328916807
 21
-13.88800747411249
 31
0.0
  0
LINE
  5
21D
330
1F
100
AcDbEntity
  8
1-2ﾚｲﾔ
  6
Continuous
 62
     3
370
     9
100
AcDbLine
 10
-363.2424019478462
 20
32.37185712681661
 30
0.0
 11
-363.2424019478462
 21
-13.88800747411249
 31
0.0
  0
LINE
  5
21E
330
1F
100
AcDbEntity
  8
1-2ﾚｲﾔ
  6
Continuous
 62
     3
370
     9
100
AcDbLine
 10
-328.2424101958404
 20
40.85236216799057
 30
0.0
 11
-358.2426328916807
 21
32.37185712681661
 31
0.0
  0
LINE
  5
21F
330
1F
100
AcDbEntity
  8
1-2ﾚｲﾔ
  6
Continuous
 62
     3
370
     9
100
AcDbLine
 10
-358.2426328916807
 20
432.3723107664914
 30
0.0
 11
-358.2426328916807
 21
340.8522384480793
 31
0.0
  0
LINE
  5
220
330
1F
100
AcDbEntity
  8
1-2ﾚｲﾔ
  6
Continuous
 62
     3
370
     9
100
AcDbLine
 10
-363.2424019478462
 20
432.3723107664914
 30
0.0
 11
-363.2424019478462
 21
340.8522384480793
 31
0.0
  0
LINE
  5
221
330
1F
100
AcDbEntity
  8
1-2ﾚｲﾔ
  6
Continuous
 62
     3
370
     9
100
AcDbLine
 10
-328.2424101958404
 20
340.8518672883453
 30
0.0
 11
-358.2426328916807
 21
332.3723520064618
 31
0.0
  0
LINE
  5
222
330
1F
100
AcDbEntity
  8
1-2ﾚｲﾔ
  6
Continuous
 62
     3
370
     9
100
AcDbLine
 10
-358.2426328916807
 20
332.3723520064618
 30
0.0
 11
-358.2426328916807
 21
240.8522796880497
 31
0.0
  0
LINE
  5
223
330
1F
100
AcDbEntity
  8
1-2ﾚｲﾔ
  6
Continuous
 62
     3
370
     9
100
AcDbLine
 10
-363.2424019478462
 20
332.3723520064618
 30
0.0
 11
-363.2424019478462
 21
240.8522796880497
 31
0.0
  0
LINE
  5
224
330
1F
100
AcDbEntity
  8
1-2ﾚｲﾔ
  6
Continuous
 62
     3
370
     9
100
AcDbLine
 10
-328.2424101958404
 20
240.8518466683601
 30
0.0
 11
-358.2426328916807
 21
232.3723313864766
 31
0.0
  0
LINE
  5
225
330
1F
100
AcDbEntity
  8
1-2ﾚｲﾔ
  6
Continuous
 62
     3
370
     9
100
AcDbLine
 10
-358.2426328916807
 20
232.3723313864766
 30
0.0
 11
-358.2426328916807
 21
140.8522590680644
 31
0.0
  0
LINE
  5
226
330
1F
100
AcDbEntity
  8
1-2ﾚｲﾔ
  6
Continuous
 62
     3
370
     9
100
AcDbLine
 10
-363.2424019478462
 20
232.3723313864766
 30
0.0
 11
-363.2424019478462
 21
140.8522590680644
 31
0.0
  0
LINE
  5
227
330
1F
100
AcDbEntity
  8
1-2ﾚｲﾔ
  6
Continuous
 62
     3
370
     9
100
AcDbLine
 10
-328.2424101958404
 20
140.8518879083306
 30
0.0
 11
-358.2426328916807
 21
132.3723726264471
 31
0.0
  0
LINE
  5
228
330
1F
100
AcDbEntity
  8
1-2ﾚｲﾔ
  6
Continuous
 62
     3
370
     9
100
AcDbLine
 10
-358.2426328916807
 20
132.3723726264471
 30
0.0
 11
-358.2426328916807
 21
40.85230030803483
 31
0.0
  0
LINE
  5
229
330
1F
100
AcDbEntity
  8
1-2ﾚｲﾔ
  6
Continuous
 62
     3
370
     9
100
AcDbLine
 10
-363.2424019478462
 20
132.3723726264471
 30
0.0
 11
-363.2424019478462
 21
40.85230030803483
 31
0.0
  0
LINE
  5
22A
330
1F
100
AcDbEntity
  8
1-2ﾚｲﾔ
  6
Continuous
 62
     3
370
     9
100
AcDbLine
 10
-298.2423730798669
 20
440.8518260483748
 30
0.0
 11
-328.2425957757073
 21
432.3723107664914
 31
0.0
  0
LINE
  5
22B
330
1F
100
AcDbEntity
  8
1-2ﾚｲﾔ
  6
Continuous
 62
     3
370
     9
100
AcDbLine
 10
-333.2423648318729
 20
487.1124329687718
 30
0.0
 11
-333.2423648318729
 21
440.8518260483748
 31
0.0
  0
LINE
  5
22C
330
1F
100
AcDbEntity
  8
1-2ﾚｲﾔ
  6
Continuous
 62
     3
370
     9
100
AcDbLine
 10
-328.2425957757073
 20
487.1124329687718
 30
0.0
 11
-328.2425957757073
 21
440.8518260483748
 31
0.0
  0
LINE
  5
22D
330
1F
100
AcDbEntity
  8
1-2ﾚｲﾔ
  6
Continuous
 62
     3
370
     9
100
AcDbLine
 10
-328.2425957757073
 20
32.37185712681661
 30
0.0
 11
-328.2425957757073
 21
-13.88800747411249
 31
0.0
  0
LINE
  5
22E
330
1F
100
AcDbEntity
  8
1-2ﾚｲﾔ
  6
Continuous
 62
     3
370
     9
100
AcDbLine
 10
-333.2423648318729
 20
32.37185712681661
 30
0.0
 11
-333.2423648318729
 21
-13.88800747411249
 31
0.0
  0
LINE
  5
22F
330
1F
100
AcDbEntity
  8
1-2ﾚｲﾔ
  6
Continuous
 62
     3
370
     9
100
AcDbLine
 10
-298.2423730798669
 20
40.85236216799057
 30
0.0
 11
-328.2425957757073
 21
32.37185712681661
 31
0.0
  0
LINE
  5
230
330
1F
100
AcDbEntity
  8
1-2ﾚｲﾔ
  6
Continuous
 62
     3
370
     9
100
AcDbLine
 10
-328.2425957757073
 20
432.3723107664914
 30
0.0
 11
-328.2425957757073
 21
340.8522384480793
 31
0.0
  0
LINE
  5
231
330
1F
100
AcDbEntity
  8
1-2ﾚｲﾔ
  6
Continuous
 62
     3
370
     9
100
AcDbLine
 10
-333.2423648318729
 20
432.3723107664914
 30
0.0
 11
-333.2423648318729
 21
340.8522384480793
 31
0.0
  0
LINE
  5
232
330
1F
100
AcDbEntity
  8
1-2ﾚｲﾔ
  6
Continuous
 62
     3
370
     9
100
AcDbLine
 10
-298.2423730798669
 20
340.8518672883453
 30
0.0
 11
-328.2425957757073
 21
332.3723520064618
 31
0.0
  0
LINE
  5
233
330
1F
100
AcDbEntity
  8
1-2ﾚｲﾔ
  6
Continuous
 62
     3
370
     9
100
AcDbLine
 10
-328.2425957757073
 20
332.3723520064618
 30
0.0
 11
-328.2425957757073
 21
240.8522796880497
 31
0.0
  0
LINE
  5
234
330
1F
100
AcDbEntity
  8
1-2ﾚｲﾔ
  6
Continuous
 62
     3
370
     9
100
AcDbLine
 10
-333.2423648318729
 20
332.3723520064618
 30
0.0
 11
-333.2423648318729
 21
240.8522796880497
 31
0.0
  0
LINE
  5
235
330
1F
100
AcDbEntity
  8
1-2ﾚｲﾔ
  6
Continuous
 62
     3
370
     9
100
AcDbLine
 10
-298.2423730798669
 20
240.8518466683601
 30
0.0
 11
-328.2425957757073
 21
232.3723313864766
 31
0.0
  0
LINE
  5
236
330
1F
100
AcDbEntity
  8
1-2ﾚｲﾔ
  6
Continuous
 62
     3
370
     9
100
AcDbLine
 10
-328.2425957757073
 20
232.3723313864766
 30
0.0
 11
-328.2425957757073
 21
140.8522590680644
 31
0.0
  0
LINE
  5
237
330
1F
100
AcDbEntity
  8
1-2ﾚｲﾔ
  6
Continuous
 62
     3
370
     9
100
AcDbLine
 10
-333.2423648318729
 20
232.3723313864766
 30
0.0
 11
-333.2423648318729
 21
140.8522590680644
 31
0.0
  0
LINE
  5
238
330
1F
100
AcDbEntity
  8
1-2ﾚｲﾔ
  6
Continuous
 62
     3
370
     9
100
AcDbLine
 10
-298.2423730798669
 20
140.8518879083306
 30
0.0
 11
-328.2425957757073
 21
132.3723726264471
 31
0.0
  0
LINE
  5
239
330
1F
100
AcDbEntity
  8
1-2ﾚｲﾔ
  6
Continuous
 62
     3
370
     9
100
AcDbLine
 10
-328.2425957757073
 20
132.3723726264471
 30
0.0
 11
-328.2425957757073
 21
40.85230030803483
 31
0.0
  0
LINE
  5
23A
330
1F
100
AcDbEntity
  8
1-2ﾚｲﾔ
  6
Continuous
 62
     3
370
     9
100
AcDbLine
 10
-333.2423648318729
 20
132.3723726264471
 30
0.0
 11
-333.2423648318729
 21
40.85230030803483
 31
0.0
  0
LINE
  5
23B
330
1F
100
AcDbEntity
  8
1-2ﾚｲﾔ
  6
Continuous
 62
     3
370
     9
100
AcDbLine
 10
-268.2423359638935
 20
440.8518260483748
 30
0.0
 11
-298.2425586597338
 21
432.3723107664914
 31
0.0
  0
LINE
  5
23C
330
1F
100
AcDbEntity
  8
1-2ﾚｲﾔ
  6
Continuous
 62
     3
370
     9
100
AcDbLine
 10
-303.2423277158995
 20
487.1124329687718
 30
0.0
 11
-303.2423277158995
 21
440.8518260483748
 31
0.0
  0
LINE
  5
23D
330
1F
100
AcDbEntity
  8
1-2ﾚｲﾔ
  6
Continuous
 62
     3
370
     9
100
AcDbLine
 10
-298.2425586597338
 20
487.1124329687718
 30
0.0
 11
-298.2425586597338
 21
440.8518260483748
 31
0.0
  0
LINE
  5
23E
330
1F
100
AcDbEntity
  8
1-2ﾚｲﾔ
  6
Continuous
 62
     3
370
     9
100
AcDbLine
 10
-298.2425586597338
 20
32.37185712681661
 30
0.0
 11
-298.2425586597338
 21
-13.88800747411249
 31
0.0
  0
LINE
  5
23F
330
1F
100
AcDbEntity
  8
1-2ﾚｲﾔ
  6
Continuous
 62
     3
370
     9
100
AcDbLine
 10
-303.2423277158995
 20
32.37185712681661
 30
0.0
 11
-303.2423277158995
 21
-13.88800747411249
 31
0.0
  0
LINE
  5
240
330
1F
100
AcDbEntity
  8
1-2ﾚｲﾔ
  6
Continuous
 62
     3
370
     9
100
AcDbLine
 10
-268.2423359638935
 20
40.85236216799057
 30
0.0
 11
-298.2425586597338
 21
32.37185712681661
 31
0.0
  0
LINE
  5
241
330
1F
100
AcDbEntity
  8
1-2ﾚｲﾔ
  6
Continuous
 62
     3
370
     9
100
AcDbLine
 10
-298.2425586597338
 20
432.3723107664914
 30
0.0
 11
-298.2425586597338
 21
340.8522384480793
 31
0.0
  0
LINE
  5
242
330
1F
100
AcDbEntity
  8
1-2ﾚｲﾔ
  6
Continuous
 62
     3
370
     9
100
AcDbLine
 10
-303.2423277158995
 20
432.3723107664914
 30
0.0
 11
-303.2423277158995
 21
340.8522384480793
 31
0.0
  0
LINE
  5
243
330
1F
100
AcDbEntity
  8
1-2ﾚｲﾔ
  6
Continuous
 62
     3
370
     9
100
AcDbLine
 10
-268.2423359638935
 20
340.8518672883453
 30
0.0
 11
-298.2425586597338
 21
332.3723520064618
 31
0.0
  0
LINE
  5
244
330
1F
100
AcDbEntity
  8
1-2ﾚｲﾔ
  6
Continuous
 62
     3
370
     9
100
AcDbLine
 10
-298.2425586597338
 20
332.3723520064618
 30
0.0
 11
-298.2425586597338
 21
240.8522796880497
 31
0.0
  0
LINE
  5
245
330
1F
100
AcDbEntity
  8
1-2ﾚｲﾔ
  6
Continuous
 62
     3
370
     9
100
AcDbLine
 10
-303.2423277158995
 20
332.3723520064618
 30
0.0
 11
-303.2423277158995
 21
240.8522796880497
 31
0.0
  0
LINE
  5
246
330
1F
100
AcDbEntity
  8
1-2ﾚｲﾔ
  6
Continuous
 62
     3
370
     9
100
AcDbLine
 10
-268.2423359638935
 20
240.8518466683601
 30
0.0
 11
-298.2425586597338
 21
232.3723313864766
 31
0.0
  0
LINE
  5
247
330
1F
100
AcDbEntity
  8
1-2ﾚｲﾔ
  6
Continuous
 62
     3
370
     9
100
AcDbLine
 10
-298.2425586597338
 20
232.3723313864766
 30
0.0
 11
-298.2425586597338
 21
140.8522590680644
 31
0.0
  0
LINE
  5
248
330
1F
100
AcDbEntity
  8
1-2ﾚｲﾔ
  6
Continuous
 62
     3
370
     9
100
AcDbLine
 10
-303.2423277158995
 20
232.3723313864766
 30
0.0
 11
-303.2423277158995
 21
140.8522590680644
 31
0.0
  0
LINE
  5
249
330
1F
100
AcDbEntity
  8
1-2ﾚｲﾔ
  6
Continuous
 62
     3
370
     9
100
AcDbLine
 10
-268.2423359638935
 20
140.8518879083306
 30
0.0
 11
-298.2425586597338
 21
132.3723726264471
 31
0.0
  0
LINE
  5
24A
330
1F
100
AcDbEntity
  8
1-2ﾚｲﾔ
  6
Continuous
 62
     3
370
     9
100
AcDbLine
 10
-298.2425586597338
 20
132.3723726264471
 30
0.0
 11
-298.2425586597338
 21
40.85230030803483
 31
0.0
  0
LINE
  5
24B
330
1F
100
AcDbEntity
  8
1-2ﾚｲﾔ
  6
Continuous
 62
     3
370
     9
100
AcDbLine
 10
-303.2423277158995
 20
132.3723726264471
 30
0.0
 11
-303.2423277158995
 21
40.85230030803483
 31
0.0
  0
LINE
  5
24C
330
1F
100
AcDbEntity
  8
1-2ﾚｲﾔ
  6
Continuous
 62
     3
370
     9
100
AcDbLine
 10
-238.2422988479202
 20
440.8518260483748
 30
0.0
 11
-268.2425215437605
 21
432.3723107664914
 31
0.0
  0
LINE
  5
24D
330
1F
100
AcDbEntity
  8
1-2ﾚｲﾔ
  6
Continuous
 62
     3
370
     9
100
AcDbLine
 10
-273.242290599926
 20
487.1124329687718
 30
0.0
 11
-273.242290599926
 21
440.8518260483748
 31
0.0
  0
LINE
  5
24E
330
1F
100
AcDbEntity
  8
1-2ﾚｲﾔ
  6
Continuous
 62
     3
370
     9
100
AcDbLine
 10
-268.2425215437605
 20
487.1124329687718
 30
0.0
 11
-268.2425215437605
 21
440.8518260483748
 31
0.0
  0
LINE
  5
24F
330
1F
100
AcDbEntity
  8
1-2ﾚｲﾔ
  6
Continuous
 62
     3
370
     9
100
AcDbLine
 10
-268.2425215437605
 20
32.37185712681661
 30
0.0
 11
-268.2425215437605
 21
-13.88800747411249
 31
0.0
  0
LINE
  5
250
330
1F
100
AcDbEntity
  8
1-2ﾚｲﾔ
  6
Continuous
 62
     3
370
     9
100
AcDbLine
 10
-273.242290599926
 20
32.37185712681661
 30
0.0
 11
-273.242290599926
 21
-13.88800747411249
 31
0.0
  0
LINE
  5
251
330
1F
100
AcDbEntity
  8
1-2ﾚｲﾔ
  6
Continuous
 62
     3
370
     9
100
AcDbLine
 10
-238.2422988479202
 20
40.85236216799057
 30
0.0
 11
-268.2425215437605
 21
32.37185712681661
 31
0.0
  0
LINE
  5
252
330
1F
100
AcDbEntity
  8
1-2ﾚｲﾔ
  6
Continuous
 62
     3
370
     9
100
AcDbLine
 10
-268.2425215437605
 20
432.3723107664914
 30
0.0
 11
-268.2425215437605
 21
340.8522384480793
 31
0.0
  0
LINE
  5
253
330
1F
100
AcDbEntity
  8
1-2ﾚｲﾔ
  6
Continuous
 62
     3
370
     9
100
AcDbLine
 10
-273.242290599926
 20
432.3723107664914
 30
0.0
 11
-273.242290599926
 21
340.8522384480793
 31
0.0
  0
LINE
  5
254
330
1F
100
AcDbEntity
  8
1-2ﾚｲﾔ
  6
Continuous
 62
     3
370
     9
100
AcDbLine
 10
-238.2422988479202
 20
340.8518672883453
 30
0.0
 11
-268.2425215437605
 21
332.3723520064618
 31
0.0
  0
LINE
  5
255
330
1F
100
AcDbEntity
  8
1-2ﾚｲﾔ
  6
Continuous
 62
     3
370
     9
100
AcDbLine
 10
-268.2425215437605
 20
332.3723520064618
 30
0.0
 11
-268.2425215437605
 21
240.8522796880497
 31
0.0
  0
LINE
  5
256
330
1F
100
AcDbEntity
  8
1-2ﾚｲﾔ
  6
Continuous
 62
     3
370
     9
100
AcDbLine
 10
-273.242290599926
 20
332.3723520064618
 30
0.0
 11
-273.242290599926
 21
240.8522796880497
 31
0.0
  0
LINE
  5
257
330
1F
100
AcDbEntity
  8
1-2ﾚｲﾔ
  6
Continuous
 62
     3
370
     9
100
AcDbLine
 10
-238.2422988479202
 20
240.8518466683601
 30
0.0
 11
-268.2425215437605
 21
232.3723313864766
 31
0.0
  0
LINE
  5
258
330
1F
100
AcDbEntity
  8
1-2ﾚｲﾔ
  6
Continuous
 62
     3
370
     9
100
AcDbLine
 10
-268.2425215437605
 20
232.3723313864766
 30
0.0
 11
-268.2425215437605
 21
140.8522590680644
 31
0.0
  0
LINE
  5
259
330
1F
100
AcDbEntity
  8
1-2ﾚｲﾔ
  6
Continuous
 62
     3
370
     9
100
AcDbLine
 10
-273.242290599926
 20
232.3723313864766
 30
0.0
 11
-273.242290599926
 21
140.8522590680644
 31
0.0
  0
LINE
  5
25A
330
1F
100
AcDbEntity
  8
1-2ﾚｲﾔ
  6
Continuous
 62
     3
370
     9
100
AcDbLine
 10
-238.2422988479202
 20
140.8518879083306
 30
0.0
 11
-268.2425215437605
 21
132.3723726264471
 31
0.0
  0
LINE
  5
25B
330
1F
100
AcDbEntity
  8
1-2ﾚｲﾔ
  6
Continuous
 62
     3
370
     9
100
AcDbLine
 10
-268.2425215437605
 20
132.3723726264471
 30
0.0
 11
-268.2425215437605
 21
40.85230030803483
 31
0.0
  0
LINE
  5
25C
330
1F
100
AcDbEntity
  8
1-2ﾚｲﾔ
  6
Continuous
 62
     3
370
     9
100
AcDbLine
 10
-273.242290599926
 20
132.3723726264471
 30
0.0
 11
-273.242290599926
 21
40.85230030803483
 31
0.0
  0
LINE
  5
25D
330
1F
100
AcDbEntity
  8
1-2ﾚｲﾔ
  6
Continuous
 62
     3
370
     9
100
AcDbLine
 10
-208.2422617319467
 20
440.8518260483748
 30
0.0
 11
-238.2424844277871
 21
432.3723107664914
 31
0.0
  0
LINE
  5
25E
330
1F
100
AcDbEntity
  8
1-2ﾚｲﾔ
  6
Continuous
 62
     3
370
     9
100
AcDbLine
 10
-243.2422534839526
 20
487.1124329687718
 30
0.0
 11
-243.2422534839526
 21
440.8518260483748
 31
0.0
  0
LINE
  5
25F
330
1F
100
AcDbEntity
  8
1-2ﾚｲﾔ
  6
Continuous
 62
     3
370
     9
100
AcDbLine
 10
-238.2424844277871
 20
487.1124329687718
 30
0.0
 11
-238.2424844277871
 21
440.8518260483748
 31
0.0
  0
LINE
  5
260
330
1F
100
AcDbEntity
  8
1-2ﾚｲﾔ
  6
Continuous
 62
     3
370
     9
100
AcDbLine
 10
-238.2424844277871
 20
32.37185712681661
 30
0.0
 11
-238.2424844277871
 21
-13.88800747411249
 31
0.0
  0
LINE
  5
261
330
1F
100
AcDbEntity
  8
1-2ﾚｲﾔ
  6
Continuous
 62
     3
370
     9
100
AcDbLine
 10
-243.2422534839526
 20
32.37185712681661
 30
0.0
 11
-243.2422534839526
 21
-13.88800747411249
 31
0.0
  0
LINE
  5
262
330
1F
100
AcDbEntity
  8
1-2ﾚｲﾔ
  6
Continuous
 62
     3
370
     9
100
AcDbLine
 10
-208.2422617319467
 20
40.85236216799057
 30
0.0
 11
-238.2424844277871
 21
32.37185712681661
 31
0.0
  0
LINE
  5
263
330
1F
100
AcDbEntity
  8
1-2ﾚｲﾔ
  6
Continuous
 62
     3
370
     9
100
AcDbLine
 10
-238.2424844277871
 20
432.3723107664914
 30
0.0
 11
-238.2424844277871
 21
340.8522384480793
 31
0.0
  0
LINE
  5
264
330
1F
100
AcDbEntity
  8
1-2ﾚｲﾔ
  6
Continuous
 62
     3
370
     9
100
AcDbLine
 10
-243.2422534839526
 20
432.3723107664914
 30
0.0
 11
-243.2422534839526
 21
340.8522384480793
 31
0.0
  0
LINE
  5
265
330
1F
100
AcDbEntity
  8
1-2ﾚｲﾔ
  6
Continuous
 62
     3
370
     9
100
AcDbLine
 10
-208.2422617319467
 20
340.8518672883453
 30
0.0
 11
-238.2424844277871
 21
332.3723520064618
 31
0.0
  0
LINE
  5
266
330
1F
100
AcDbEntity
  8
1-2ﾚｲﾔ
  6
Continuous
 62
     3
370
     9
100
AcDbLine
 10
-238.2424844277871
 20
332.3723520064618
 30
0.0
 11
-238.2424844277871
 21
240.8522796880497
 31
0.0
  0
LINE
  5
267
330
1F
100
AcDbEntity
  8
1-2ﾚｲﾔ
  6
Continuous
 62
     3
370
     9
100
AcDbLine
 10
-243.2422534839526
 20
332.3723520064618
 30
0.0
 11
-243.2422534839526
 21
240.8522796880497
 31
0.0
  0
LINE
  5
268
330
1F
100
AcDbEntity
  8
1-2ﾚｲﾔ
  6
Continuous
 62
     3
370
     9
100
AcDbLine
 10
-208.2422617319467
 20
240.8518466683601
 30
0.0
 11
-238.2424844277871
 21
232.3723313864766
 31
0.0
  0
LINE
  5
269
330
1F
100
AcDbEntity
  8
1-2ﾚｲﾔ
  6
Continuous
 62
     3
370
     9
100
AcDbLine
 10
-238.2424844277871
 20
232.3723313864766
 30
0.0
 11
-238.2424844277871
 21
140.8522590680644
 31
0.0
  0
LINE
  5
26A
330
1F
100
AcDbEntity
  8
1-2ﾚｲﾔ
  6
Continuous
 62
     3
370
     9
100
AcDbLine
 10
-243.2422534839526
 20
232.3723313864766
 30
0.0
 11
-243.2422534839526
 21
140.8522590680644
 31
0.0
  0
LINE
  5
26B
330
1F
100
AcDbEntity
  8
1-2ﾚｲﾔ
  6
Continuous
 62
     3
370
     9
100
AcDbLine
 10
-208.2422617319467
 20
140.8518879083306
 30
0.0
 11
-238.2424844277871
 21
132.3723726264471
 31
0.0
  0
LINE
  5
26C
330
1F
100
AcDbEntity
  8
1-2ﾚｲﾔ
  6
Continuous
 62
     3
370
     9
100
AcDbLine
 10
-238.2424844277871
 20
132.3723726264471
 30
0.0
 11
-238.2424844277871
 21
40.85230030803483
 31
0.0
  0
LINE
  5
26D
330
1F
100
AcDbEntity
  8
1-2ﾚｲﾔ
  6
Continuous
 62
     3
370
     9
100
AcDbLine
 10
-243.2422534839526
 20
132.3723726264471
 30
0.0
 11
-243.2422534839526
 21
40.85230030803483
 31
0.0
  0
LINE
  5
26E
330
1F
100
AcDbEntity
  8
1-2ﾚｲﾔ
  6
Continuous
 62
     3
370
     9
100
AcDbLine
 10
-178.2422246159733
 20
440.8518260483748
 30
0.0
 11
-208.2424473118137
 21
432.3723107664914
 31
0.0
  0
LINE
  5
26F
330
1F
100
AcDbEntity
  8
1-2ﾚｲﾔ
  6
Continuous
 62
     3
370
     9
100
AcDbLine
 10
-213.2422163679793
 20
487.1124329687718
 30
0.0
 11
-213.2422163679793
 21
440.8518260483748
 31
0.0
  0
LINE
  5
270
330
1F
100
AcDbEntity
  8
1-2ﾚｲﾔ
  6
Continuous
 62
     3
370
     9
100
AcDbLine
 10
-208.2424473118137
 20
487.1124329687718
 30
0.0
 11
-208.2424473118137
 21
440.8518260483748
 31
0.0
  0
LINE
  5
271
330
1F
100
AcDbEntity
  8
1-2ﾚｲﾔ
  6
Continuous
 62
     3
370
     9
100
AcDbLine
 10
-208.2424473118137
 20
32.37185712681661
 30
0.0
 11
-208.2424473118137
 21
-13.88800747411249
 31
0.0
  0
LINE
  5
272
330
1F
100
AcDbEntity
  8
1-2ﾚｲﾔ
  6
Continuous
 62
     3
370
     9
100
AcDbLine
 10
-213.2422163679793
 20
32.37185712681661
 30
0.0
 11
-213.2422163679793
 21
-13.88800747411249
 31
0.0
  0
LINE
  5
273
330
1F
100
AcDbEntity
  8
1-2ﾚｲﾔ
  6
Continuous
 62
     3
370
     9
100
AcDbLine
 10
-178.2422246159733
 20
40.85236216799057
 30
0.0
 11
-208.2424473118137
 21
32.37185712681661
 31
0.0
  0
LINE
  5
274
330
1F
100
AcDbEntity
  8
1-2ﾚｲﾔ
  6
Continuous
 62
     3
370
     9
100
AcDbLine
 10
-208.2424473118137
 20
432.3723107664914
 30
0.0
 11
-208.2424473118137
 21
340.8522384480793
 31
0.0
  0
LINE
  5
275
330
1F
100
AcDbEntity
  8
1-2ﾚｲﾔ
  6
Continuous
 62
     3
370
     9
100
AcDbLine
 10
-213.2422163679793
 20
432.3723107664914
 30
0.0
 11
-213.2422163679793
 21
340.8522384480793
 31
0.0
  0
LINE
  5
276
330
1F
100
AcDbEntity
  8
1-2ﾚｲﾔ
  6
Continuous
 62
     3
370
     9
100
AcDbLine
 10
-178.2422246159733
 20
340.8518672883453
 30
0.0
 11
-208.2424473118137
 21
332.3723520064618
 31
0.0
  0
LINE
  5
277
330
1F
100
AcDbEntity
  8
1-2ﾚｲﾔ
  6
Continuous
 62
     3
370
     9
100
AcDbLine
 10
-208.2424473118137
 20
332.3723520064618
 30
0.0
 11
-208.2424473118137
 21
240.8522796880497
 31
0.0
  0
LINE
  5
278
330
1F
100
AcDbEntity
  8
1-2ﾚｲﾔ
  6
Continuous
 62
     3
370
     9
100
AcDbLine
 10
-213.2422163679793
 20
332.3723520064618
 30
0.0
 11
-213.2422163679793
 21
240.8522796880497
 31
0.0
  0
LINE
  5
279
330
1F
100
AcDbEntity
  8
1-2ﾚｲﾔ
  6
Continuous
 62
     3
370
     9
100
AcDbLine
 10
-178.2422246159733
 20
240.8518466683601
 30
0.0
 11
-208.2424473118137
 21
232.3723313864766
 31
0.0
  0
LINE
  5
27A
330
1F
100
AcDbEntity
  8
1-2ﾚｲﾔ
  6
Continuous
 62
     3
370
     9
100
AcDbLine
 10
-208.2424473118137
 20
232.3723313864766
 30
0.0
 11
-208.2424473118137
 21
140.8522590680644
 31
0.0
  0
LINE
  5
27B
330
1F
100
AcDbEntity
  8
1-2ﾚｲﾔ
  6
Continuous
 62
     3
370
     9
100
AcDbLine
 10
-213.2422163679793
 20
232.3723313864766
 30
0.0
 11
-213.2422163679793
 21
140.8522590680644
 31
0.0
  0
LINE
  5
27C
330
1F
100
AcDbEntity
  8
1-2ﾚｲﾔ
  6
Continuous
 62
     3
370
     9
100
AcDbLine
 10
-178.2422246159733
 20
140.8518879083306
 30
0.0
 11
-208.2424473118137
 21
132.3723726264471
 31
0.0
  0
LINE
  5
27D
330
1F
100
AcDbEntity
  8
1-2ﾚｲﾔ
  6
Continuous
 62
     3
370
     9
100
AcDbLine
 10
-208.2424473118137
 20
132.3723726264471
 30
0.0
 11
-208.2424473118137
 21
40.85230030803483
 31
0.0
  0
LINE
  5
27E
330
1F
100
AcDbEntity
  8
1-2ﾚｲﾔ
  6
Continuous
 62
     3
370
     9
100
AcDbLine
 10
-213.2422163679793
 20
132.3723726264471
 30
0.0
 11
-213.2422163679793
 21
40.85230030803483
 31
0.0
  0
LINE
  5
27F
330
1F
100
AcDbEntity
  8
1-2ﾚｲﾔ
  6
Continuous
 62
     3
370
     9
100
AcDbLine
 10
-148.2421875
 20
440.8518260483748
 30
0.0
 11
-178.2424101958404
 21
432.3723107664914
 31
0.0
  0
LINE
  5
280
330
1F
100
AcDbEntity
  8
1-2ﾚｲﾔ
  6
Continuous
 62
     3
370
     9
100
AcDbLine
 10
-183.2421792520059
 20
487.1124329687718
 30
0.0
 11
-183.2421792520059
 21
440.8518260483748
 31
0.0
  0
LINE
  5
281
330
1F
100
AcDbEntity
  8
1-2ﾚｲﾔ
  6
Continuous
 62
     3
370
     9
100
AcDbLine
 10
-178.2424101958404
 20
487.1124329687718
 30
0.0
 11
-178.2424101958404
 21
440.8518260483748
 31
0.0
  0
LINE
  5
282
330
1F
100
AcDbEntity
  8
1-2ﾚｲﾔ
  6
Continuous
 62
     3
370
     9
100
AcDbLine
 10
-178.2424101958404
 20
32.37185712681661
 30
0.0
 11
-178.2424101958404
 21
-13.88800747411249
 31
0.0
  0
LINE
  5
283
330
1F
100
AcDbEntity
  8
1-2ﾚｲﾔ
  6
Continuous
 62
     3
370
     9
100
AcDbLine
 10
-183.2421792520059
 20
32.37185712681661
 30
0.0
 11
-183.2421792520059
 21
-13.88800747411249
 31
0.0
  0
LINE
  5
284
330
1F
100
AcDbEntity
  8
1-2ﾚｲﾔ
  6
Continuous
 62
     3
370
     9
100
AcDbLine
 10
-148.2421875
 20
40.85236216799057
 30
0.0
 11
-178.2424101958404
 21
32.37185712681661
 31
0.0
  0
LINE
  5
285
330
1F
100
AcDbEntity
  8
1-2ﾚｲﾔ
  6
Continuous
 62
     3
370
     9
100
AcDbLine
 10
-178.2424101958404
 20
432.3723107664914
 30
0.0
 11
-178.2424101958404
 21
340.8522384480793
 31
0.0
  0
LINE
  5
286
330
1F
100
AcDbEntity
  8
1-2ﾚｲﾔ
  6
Continuous
 62
     3
370
     9
100
AcDbLine
 10
-183.2421792520059
 20
432.3723107664914
 30
0.0
 11
-183.2421792520059
 21
340.8522384480793
 31
0.0
  0
LINE
  5
287
330
1F
100
AcDbEntity
  8
1-2ﾚｲﾔ
  6
Continuous
 62
     3
370
     9
100
AcDbLine
 10
-148.2421875
 20
340.8518672883453
 30
0.0
 11
-178.2424101958404
 21
332.3723520064618
 31
0.0
  0
LINE
  5
288
330
1F
100
AcDbEntity
  8
1-2ﾚｲﾔ
  6
Continuous
 62
     3
370
     9
100
AcDbLine
 10
-178.2424101958404
 20
332.3723520064618
 30
0.0
 11
-178.2424101958404
 21
240.8522796880497
 31
0.0
  0
LINE
  5
289
330
1F
100
AcDbEntity
  8
1-2ﾚｲﾔ
  6
Continuous
 62
     3
370
     9
100
AcDbLine
 10
-183.2421792520059
 20
332.3723520064618
 30
0.0
 11
-183.2421792520059
 21
240.8522796880497
 31
0.0
  0
LINE
  5
28A
330
1F
100
AcDbEntity
  8
1-2ﾚｲﾔ
  6
Continuous
 62
     3
370
     9
100
AcDbLine
 10
-148.2421875
 20
240.8518466683601
 30
0.0
 11
-178.2424101958404
 21
232.3723313864766
 31
0.0
  0
LINE
  5
28B
330
1F
100
AcDbEntity
  8
1-2ﾚｲﾔ
  6
Continuous
 62
     3
370
     9
100
AcDbLine
 10
-178.2424101958404
 20
232.3723313864766
 30
0.0
 11
-178.2424101958404
 21
140.8522590680644
 31
0.0
  0
LINE
  5
28C
330
1F
100
AcDbEntity
  8
1-2ﾚｲﾔ
  6
Continuous
 62
     3
370
     9
100
AcDbLine
 10
-183.2421792520059
 20
232.3723313864766
 30
0.0
 11
-183.2421792520059
 21
140.8522590680644
 31
0.0
  0
LINE
  5
28D
330
1F
100
AcDbEntity
  8
1-2ﾚｲﾔ
  6
Continuous
 62
     3
370
     9
100
AcDbLine
 10
-148.2421875
 20
140.8518879083306
 30
0.0
 11
-178.2424101958404
 21
132.3723726264471
 31
0.0
  0
LINE
  5
28E
330
1F
100
AcDbEntity
  8
1-2ﾚｲﾔ
  6
Continuous
 62
     3
370
     9
100
AcDbLine
 10
-178.2424101958404
 20
132.3723726264471
 30
0.0
 11
-178.2424101958404
 21
40.85230030803483
 31
0.0
  0
LINE
  5
28F
330
1F
100
AcDbEntity
  8
1-2ﾚｲﾔ
  6
Continuous
 62
     3
370
     9
100
AcDbLine
 10
-183.2421792520059
 20
132.3723726264471
 30
0.0
 11
-183.2421792520059
 21
40.85230030803483
 31
0.0
  0
LINE
  5
290
330
1F
100
AcDbEntity
  8
1-2ﾚｲﾔ
  6
Continuous
 62
     3
370
     9
100
AcDbLine
 10
-118.2421503840266
 20
440.8518260483748
 30
0.0
 11
-148.2423730798669
 21
432.3723107664914
 31
0.0
  0
LINE
  5
291
330
1F
100
AcDbEntity
  8
1-2ﾚｲﾔ
  6
Continuous
 62
     3
370
     9
100
AcDbLine
 10
-153.2421421360324
 20
487.1124329687718
 30
0.0
 11
-153.2421421360324
 21
440.8518260483748
 31
0.0
  0
LINE
  5
292
330
1F
100
AcDbEntity
  8
1-2ﾚｲﾔ
  6
Continuous
 62
     3
370
     9
100
AcDbLine
 10
-148.2423730798669
 20
487.1124329687718
 30
0.0
 11
-148.2423730798669
 21
440.8518260483748
 31
0.0
  0
LINE
  5
293
330
1F
100
AcDbEntity
  8
1-2ﾚｲﾔ
  6
Continuous
 62
     3
370
     9
100
AcDbLine
 10
-148.2423730798669
 20
32.37185712681661
 30
0.0
 11
-148.2423730798669
 21
-13.88800747411249
 31
0.0
  0
LINE
  5
294
330
1F
100
AcDbEntity
  8
1-2ﾚｲﾔ
  6
Continuous
 62
     3
370
     9
100
AcDbLine
 10
-153.2421421360324
 20
32.37185712681661
 30
0.0
 11
-153.2421421360324
 21
-13.88800747411249
 31
0.0
  0
LINE
  5
295
330
1F
100
AcDbEntity
  8
1-2ﾚｲﾔ
  6
Continuous
 62
     3
370
     9
100
AcDbLine
 10
-118.2421503840266
 20
40.85236216799057
 30
0.0
 11
-148.2423730798669
 21
32.37185712681661
 31
0.0
  0
LINE
  5
296
330
1F
100
AcDbEntity
  8
1-2ﾚｲﾔ
  6
Continuous
 62
     3
370
     9
100
AcDbLine
 10
-148.2423730798669
 20
432.3723107664914
 30
0.0
 11
-148.2423730798669
 21
340.8522384480793
 31
0.0
  0
LINE
  5
297
330
1F
100
AcDbEntity
  8
1-2ﾚｲﾔ
  6
Continuous
 62
     3
370
     9
100
AcDbLine
 10
-153.2421421360324
 20
432.3723107664914
 30
0.0
 11
-153.2421421360324
 21
340.8522384480793
 31
0.0
  0
LINE
  5
298
330
1F
100
AcDbEntity
  8
1-2ﾚｲﾔ
  6
Continuous
 62
     3
370
     9
100
AcDbLine
 10
-118.2421503840266
 20
340.8518672883453
 30
0.0
 11
-148.2423730798669
 21
332.3723520064618
 31
0.0
  0
LINE
  5
299
330
1F
100
AcDbEntity
  8
1-2ﾚｲﾔ
  6
Continuous
 62
     3
370
     9
100
AcDbLine
 10
-148.2423730798669
 20
332.3723520064618
 30
0.0
 11
-148.2423730798669
 21
240.8522796880497
 31
0.0
  0
LINE
  5
29A
330
1F
100
AcDbEntity
  8
1-2ﾚｲﾔ
  6
Continuous
 62
     3
370
     9
100
AcDbLine
 10
-153.2421421360324
 20
332.3723520064618
 30
0.0
 11
-153.2421421360324
 21
240.8522796880497
 31
0.0
  0
LINE
  5
29B
330
1F
100
AcDbEntity
  8
1-2ﾚｲﾔ
  6
Continuous
 62
     3
370
     9
100
AcDbLine
 10
-118.2421503840266
 20
240.8518466683601
 30
0.0
 11
-148.2423730798669
 21
232.3723313864766
 31
0.0
  0
LINE
  5
29C
330
1F
100
AcDbEntity
  8
1-2ﾚｲﾔ
  6
Continuous
 62
     3
370
     9
100
AcDbLine
 10
-148.2423730798669
 20
232.3723313864766
 30
0.0
 11
-148.2423730798669
 21
140.8522590680644
 31
0.0
  0
LINE
  5
29D
330
1F
100
AcDbEntity
  8
1-2ﾚｲﾔ
  6
Continuous
 62
     3
370
     9
100
AcDbLine
 10
-153.2421421360324
 20
232.3723313864766
 30
0.0
 11
-153.2421421360324
 21
140.8522590680644
 31
0.0
  0
LINE
  5
29E
330
1F
100
AcDbEntity
  8
1-2ﾚｲﾔ
  6
Continuous
 62
     3
370
     9
100
AcDbLine
 10
-118.2421503840266
 20
140.8518879083306
 30
0.0
 11
-148.2423730798669
 21
132.3723726264471
 31
0.0
  0
LINE
  5
29F
330
1F
100
AcDbEntity
  8
1-2ﾚｲﾔ
  6
Continuous
 62
     3
370
     9
100
AcDbLine
 10
-148.2423730798669
 20
132.3723726264471
 30
0.0
 11
-148.2423730798669
 21
40.85230030803483
 31
0.0
  0
LINE
  5
2A0
330
1F
100
AcDbEntity
  8
1-2ﾚｲﾔ
  6
Continuous
 62
     3
370
     9
100
AcDbLine
 10
-153.2421421360324
 20
132.3723726264471
 30
0.0
 11
-153.2421421360324
 21
40.85230030803483
 31
0.0
  0
LINE
  5
2A1
330
1F
100
AcDbEntity
  8
1-2ﾚｲﾔ
  6
Continuous
 62
     3
370
     9
100
AcDbLine
 10
-88.24211326805312
 20
440.8518260483748
 30
0.0
 11
-118.2423359638935
 21
432.3723107664914
 31
0.0
  0
LINE
  5
2A2
330
1F
100
AcDbEntity
  8
1-2ﾚｲﾔ
  6
Continuous
 62
     3
370
     9
100
AcDbLine
 10
-123.2421050200591
 20
487.1124329687718
 30
0.0
 11
-123.2421050200591
 21
440.8518260483748
 31
0.0
  0
LINE
  5
2A3
330
1F
100
AcDbEntity
  8
1-2ﾚｲﾔ
  6
Continuous
 62
     3
370
     9
100
AcDbLine
 10
-118.2423359638935
 20
487.1124329687718
 30
0.0
 11
-118.2423359638935
 21
440.8518260483748
 31
0.0
  0
LINE
  5
2A4
330
1F
100
AcDbEntity
  8
1-2ﾚｲﾔ
  6
Continuous
 62
     3
370
     9
100
AcDbLine
 10
-118.2423359638935
 20
32.37185712681661
 30
0.0
 11
-118.2423359638935
 21
-13.88800747411249
 31
0.0
  0
LINE
  5
2A5
330
1F
100
AcDbEntity
  8
1-2ﾚｲﾔ
  6
Continuous
 62
     3
370
     9
100
AcDbLine
 10
-123.2421050200591
 20
32.37185712681661
 30
0.0
 11
-123.2421050200591
 21
-13.88800747411249
 31
0.0
  0
LINE
  5
2A6
330
1F
100
AcDbEntity
  8
1-2ﾚｲﾔ
  6
Continuous
 62
     3
370
     9
100
AcDbLine
 10
-88.24211326805312
 20
40.85236216799057
 30
0.0
 11
-118.2423359638935
 21
32.37185712681661
 31
0.0
  0
LINE
  5
2A7
330
1F
100
AcDbEntity
  8
1-2ﾚｲﾔ
  6
Continuous
 62
     3
370
     9
100
AcDbLine
 10
-118.2423359638935
 20
432.3723107664914
 30
0.0
 11
-118.2423359638935
 21
340.8522384480793
 31
0.0
  0
LINE
  5
2A8
330
1F
100
AcDbEntity
  8
1-2ﾚｲﾔ
  6
Continuous
 62
     3
370
     9
100
AcDbLine
 10
-123.2421050200591
 20
432.3723107664914
 30
0.0
 11
-123.2421050200591
 21
340.8522384480793
 31
0.0
  0
LINE
  5
2A9
330
1F
100
AcDbEntity
  8
1-2ﾚｲﾔ
  6
Continuous
 62
     3
370
     9
100
AcDbLine
 10
-88.24211326805312
 20
340.8518672883453
 30
0.0
 11
-118.2423359638935
 21
332.3723520064618
 31
0.0
  0
LINE
  5
2AA
330
1F
100
AcDbEntity
  8
1-2ﾚｲﾔ
  6
Continuous
 62
     3
370
     9
100
AcDbLine
 10
-118.2423359638935
 20
332.3723520064618
 30
0.0
 11
-118.2423359638935
 21
240.8522796880497
 31
0.0
  0
LINE
  5
2AB
330
1F
100
AcDbEntity
  8
1-2ﾚｲﾔ
  6
Continuous
 62
     3
370
     9
100
AcDbLine
 10
-123.2421050200591
 20
332.3723520064618
 30
0.0
 11
-123.2421050200591
 21
240.8522796880497
 31
0.0
  0
LINE
  5
2AC
330
1F
100
AcDbEntity
  8
1-2ﾚｲﾔ
  6
Continuous
 62
     3
370
     9
100
AcDbLine
 10
-88.24211326805312
 20
240.8518466683601
 30
0.0
 11
-118.2423359638935
 21
232.3723313864766
 31
0.0
  0
LINE
  5
2AD
330
1F
100
AcDbEntity
  8
1-2ﾚｲﾔ
  6
Continuous
 62
     3
370
     9
100
AcDbLine
 10
-118.2423359638935
 20
232.3723313864766
 30
0.0
 11
-118.2423359638935
 21
140.8522590680644
 31
0.0
  0
LINE
  5
2AE
330
1F
100
AcDbEntity
  8
1-2ﾚｲﾔ
  6
Continuous
 62
     3
370
     9
100
AcDbLine
 10
-123.2421050200591
 20
232.3723313864766
 30
0.0
 11
-123.2421050200591
 21
140.8522590680644
 31
0.0
  0
LINE
  5
2AF
330
1F
100
AcDbEntity
  8
1-2ﾚｲﾔ
  6
Continuous
 62
     3
370
     9
100
AcDbLine
 10
-88.24211326805312
 20
140.8518879083306
 30
0.0
 11
-118.2423359638935
 21
132.3723726264471
 31
0.0
  0
LINE
  5
2B0
330
1F
100
AcDbEntity
  8
1-2ﾚｲﾔ
  6
Continuous
 62
     3
370
     9
100
AcDbLine
 10
-118.2423359638935
 20
132.3723726264471
 30
0.0
 11
-118.2423359638935
 21
40.85230030803483
 31
0.0
  0
LINE
  5
2B1
330
1F
100
AcDbEntity
  8
1-2ﾚｲﾔ
  6
Continuous
 62
     3
370
     9
100
AcDbLine
 10
-123.2421050200591
 20
132.3723726264471
 30
0.0
 11
-123.2421050200591
 21
40.85230030803483
 31
0.0
  0
LINE
  5
2B2
330
1F
100
AcDbEntity
  8
1-2ﾚｲﾔ
  6
Continuous
 62
     3
370
     9
100
AcDbLine
 10
-58.24207615207982
 20
440.8518260483748
 30
0.0
 11
-88.24229884792018
 21
432.3723107664914
 31
0.0
  0
LINE
  5
2B3
330
1F
100
AcDbEntity
  8
1-2ﾚｲﾔ
  6
Continuous
 62
     3
370
     9
100
AcDbLine
 10
-93.24206790408567
 20
487.1124329687718
 30
0.0
 11
-93.24206790408567
 21
440.8518260483748
 31
0.0
  0
LINE
  5
2B4
330
1F
100
AcDbEntity
  8
1-2ﾚｲﾔ
  6
Continuous
 62
     3
370
     9
100
AcDbLine
 10
-88.24229884792018
 20
487.1124329687718
 30
0.0
 11
-88.24229884792018
 21
440.8518260483748
 31
0.0
  0
LINE
  5
2B5
330
1F
100
AcDbEntity
  8
1-2ﾚｲﾔ
  6
Continuous
 62
     3
370
     9
100
AcDbLine
 10
-88.24229884792018
 20
32.37185712681661
 30
0.0
 11
-88.24229884792018
 21
-13.88800747411249
 31
0.0
  0
LINE
  5
2B6
330
1F
100
AcDbEntity
  8
1-2ﾚｲﾔ
  6
Continuous
 62
     3
370
     9
100
AcDbLine
 10
-93.24206790408567
 20
32.37185712681661
 30
0.0
 11
-93.24206790408567
 21
-13.88800747411249
 31
0.0
  0
LINE
  5
2B7
330
1F
100
AcDbEntity
  8
1-2ﾚｲﾔ
  6
Continuous
 62
     3
370
     9
100
AcDbLine
 10
-58.24207615207982
 20
40.85236216799057
 30
0.0
 11
-88.24229884792018
 21
32.37185712681661
 31
0.0
  0
LINE
  5
2B8
330
1F
100
AcDbEntity
  8
1-2ﾚｲﾔ
  6
Continuous
 62
     3
370
     9
100
AcDbLine
 10
-88.24229884792018
 20
432.3723107664914
 30
0.0
 11
-88.24229884792018
 21
340.8522384480793
 31
0.0
  0
LINE
  5
2B9
330
1F
100
AcDbEntity
  8
1-2ﾚｲﾔ
  6
Continuous
 62
     3
370
     9
100
AcDbLine
 10
-93.24206790408567
 20
432.3723107664914
 30
0.0
 11
-93.24206790408567
 21
340.8522384480793
 31
0.0
  0
LINE
  5
2BA
330
1F
100
AcDbEntity
  8
1-2ﾚｲﾔ
  6
Continuous
 62
     3
370
     9
100
AcDbLine
 10
-58.24207615207982
 20
340.8518672883453
 30
0.0
 11
-88.24229884792018
 21
332.3723520064618
 31
0.0
  0
LINE
  5
2BB
330
1F
100
AcDbEntity
  8
1-2ﾚｲﾔ
  6
Continuous
 62
     3
370
     9
100
AcDbLine
 10
-88.24229884792018
 20
332.3723520064618
 30
0.0
 11
-88.24229884792018
 21
240.8522796880497
 31
0.0
  0
LINE
  5
2BC
330
1F
100
AcDbEntity
  8
1-2ﾚｲﾔ
  6
Continuous
 62
     3
370
     9
100
AcDbLine
 10
-93.24206790408567
 20
332.3723520064618
 30
0.0
 11
-93.24206790408567
 21
240.8522796880497
 31
0.0
  0
LINE
  5
2BD
330
1F
100
AcDbEntity
  8
1-2ﾚｲﾔ
  6
Continuous
 62
     3
370
     9
100
AcDbLine
 10
-58.24207615207982
 20
240.8518466683601
 30
0.0
 11
-88.24229884792018
 21
232.3723313864766
 31
0.0
  0
LINE
  5
2BE
330
1F
100
AcDbEntity
  8
1-2ﾚｲﾔ
  6
Continuous
 62
     3
370
     9
100
AcDbLine
 10
-88.24229884792018
 20
232.3723313864766
 30
0.0
 11
-88.24229884792018
 21
140.8522590680644
 31
0.0
  0
LINE
  5
2BF
330
1F
100
AcDbEntity
  8
1-2ﾚｲﾔ
  6
Continuous
 62
     3
370
     9
100
AcDbLine
 10
-93.24206790408567
 20
232.3723313864766
 30
0.0
 11
-93.24206790408567
 21
140.8522590680644
 31
0.0
  0
LINE
  5
2C0
330
1F
100
AcDbEntity
  8
1-2ﾚｲﾔ
  6
Continuous
 62
     3
370
     9
100
AcDbLine
 10
-58.24207615207982
 20
140.8518879083306
 30
0.0
 11
-88.24229884792018
 21
132.3723726264471
 31
0.0
  0
LINE
  5
2C1
330
1F
100
AcDbEntity
  8
1-2ﾚｲﾔ
  6
Continuous
 62
     3
370
     9
100
AcDbLine
 10
-88.24229884792018
 20
132.3723726264471
 30
0.0
 11
-88.24229884792018
 21
40.85230030803483
 31
0.0
  0
LINE
  5
2C2
330
1F
100
AcDbEntity
  8
1-2ﾚｲﾔ
  6
Continuous
 62
     3
370
     9
100
AcDbLine
 10
-93.24206790408567
 20
132.3723726264471
 30
0.0
 11
-93.24206790408567
 21
40.85230030803483
 31
0.0
  0
LINE
  5
2C3
330
1F
100
AcDbEntity
  8
1-2ﾚｲﾔ
  6
Continuous
 62
     3
370
     9
100
AcDbLine
 10
-28.24203903610638
 20
440.8518260483748
 30
0.0
 11
-58.24226173194674
 21
432.3723107664914
 31
0.0
  0
LINE
  5
2C4
330
1F
100
AcDbEntity
  8
1-2ﾚｲﾔ
  6
Continuous
 62
     3
370
     9
100
AcDbLine
 10
-63.24203078811223
 20
487.1124329687718
 30
0.0
 11
-63.24203078811223
 21
440.8518260483748
 31
0.0
  0
LINE
  5
2C5
330
1F
100
AcDbEntity
  8
1-2ﾚｲﾔ
  6
Continuous
 62
     3
370
     9
100
AcDbLine
 10
-58.24226173194674
 20
487.1124329687718
 30
0.0
 11
-58.24226173194674
 21
440.8518260483748
 31
0.0
  0
LINE
  5
2C6
330
1F
100
AcDbEntity
  8
1-2ﾚｲﾔ
  6
Continuous
 62
     3
370
     9
100
AcDbLine
 10
-58.24226173194674
 20
32.37185712681661
 30
0.0
 11
-58.24226173194674
 21
-13.88800747411249
 31
0.0
  0
LINE
  5
2C7
330
1F
100
AcDbEntity
  8
1-2ﾚｲﾔ
  6
Continuous
 62
     3
370
     9
100
AcDbLine
 10
-63.24203078811223
 20
32.37185712681661
 30
0.0
 11
-63.24203078811223
 21
-13.88800747411249
 31
0.0
  0
LINE
  5
2C8
330
1F
100
AcDbEntity
  8
1-2ﾚｲﾔ
  6
Continuous
 62
     3
370
     9
100
AcDbLine
 10
-28.24203903610638
 20
40.85236216799057
 30
0.0
 11
-58.24226173194674
 21
32.37185712681661
 31
0.0
  0
LINE
  5
2C9
330
1F
100
AcDbEntity
  8
1-2ﾚｲﾔ
  6
Continuous
 62
     3
370
     9
100
AcDbLine
 10
-58.24226173194674
 20
432.3723107664914
 30
0.0
 11
-58.24226173194674
 21
340.8522384480793
 31
0.0
  0
LINE
  5
2CA
330
1F
100
AcDbEntity
  8
1-2ﾚｲﾔ
  6
Continuous
 62
     3
370
     9
100
AcDbLine
 10
-63.24203078811223
 20
432.3723107664914
 30
0.0
 11
-63.24203078811223
 21
340.8522384480793
 31
0.0
  0
LINE
  5
2CB
330
1F
100
AcDbEntity
  8
1-2ﾚｲﾔ
  6
Continuous
 62
     3
370
     9
100
AcDbLine
 10
-28.24203903610638
 20
340.8518672883453
 30
0.0
 11
-58.24226173194674
 21
332.3723520064618
 31
0.0
  0
LINE
  5
2CC
330
1F
100
AcDbEntity
  8
1-2ﾚｲﾔ
  6
Continuous
 62
     3
370
     9
100
AcDbLine
 10
-58.24226173194674
 20
332.3723520064618
 30
0.0
 11
-58.24226173194674
 21
240.8522796880497
 31
0.0
  0
LINE
  5
2CD
330
1F
100
AcDbEntity
  8
1-2ﾚｲﾔ
  6
Continuous
 62
     3
370
     9
100
AcDbLine
 10
-63.24203078811223
 20
332.3723520064618
 30
0.0
 11
-63.24203078811223
 21
240.8522796880497
 31
0.0
  0
LINE
  5
2CE
330
1F
100
AcDbEntity
  8
1-2ﾚｲﾔ
  6
Continuous
 62
     3
370
     9
100
AcDbLine
 10
-28.24203903610638
 20
240.8518466683601
 30
0.0
 11
-58.24226173194674
 21
232.3723313864766
 31
0.0
  0
LINE
  5
2CF
330
1F
100
AcDbEntity
  8
1-2ﾚｲﾔ
  6
Continuous
 62
     3
370
     9
100
AcDbLine
 10
-58.24226173194674
 20
232.3723313864766
 30
0.0
 11
-58.24226173194674
 21
140.8522590680644
 31
0.0
  0
LINE
  5
2D0
330
1F
100
AcDbEntity
  8
1-2ﾚｲﾔ
  6
Continuous
 62
     3
370
     9
100
AcDbLine
 10
-63.24203078811223
 20
232.3723313864766
 30
0.0
 11
-63.24203078811223
 21
140.8522590680644
 31
0.0
  0
LINE
  5
2D1
330
1F
100
AcDbEntity
  8
1-2ﾚｲﾔ
  6
Continuous
 62
     3
370
     9
100
AcDbLine
 10
-28.24203903610638
 20
140.8518879083306
 30
0.0
 11
-58.24226173194674
 21
132.3723726264471
 31
0.0
  0
LINE
  5
2D2
330
1F
100
AcDbEntity
  8
1-2ﾚｲﾔ
  6
Continuous
 62
     3
370
     9
100
AcDbLine
 10
-58.24226173194674
 20
132.3723726264471
 30
0.0
 11
-58.24226173194674
 21
40.85230030803483
 31
0.0
  0
LINE
  5
2D3
330
1F
100
AcDbEntity
  8
1-2ﾚｲﾔ
  6
Continuous
 62
     3
370
     9
100
AcDbLine
 10
-63.24203078811223
 20
132.3723726264471
 30
0.0
 11
-63.24203078811223
 21
40.85230030803483
 31
0.0
  0
LINE
  5
2D4
330
1F
100
AcDbEntity
  8
1-2ﾚｲﾔ
  6
Continuous
 62
     3
370
     9
100
AcDbLine
 10
1.758059939822658
 20
440.8518260483748
 30
0.0
 11
-28.2422246159733
 21
432.3723107664914
 31
0.0
  0
LINE
  5
2D5
330
1F
100
AcDbEntity
  8
1-2ﾚｲﾔ
  6
Continuous
 62
     3
370
     9
100
AcDbLine
 10
-33.24199367213893
 20
487.1124329687718
 30
0.0
 11
-33.24199367213893
 21
440.8518260483748
 31
0.0
  0
LINE
  5
2D6
330
1F
100
AcDbEntity
  8
1-2ﾚｲﾔ
  6
Continuous
 62
     3
370
     9
100
AcDbLine
 10
-28.2422246159733
 20
487.1124329687718
 30
0.0
 11
-28.2422246159733
 21
440.8518260483748
 31
0.0
  0
LINE
  5
2D7
330
1F
100
AcDbEntity
  8
1-2ﾚｲﾔ
  6
Continuous
 62
     3
370
     9
100
AcDbLine
 10
-28.2422246159733
 20
32.37185712681661
 30
0.0
 11
-28.2422246159733
 21
-13.88800747411249
 31
0.0
  0
LINE
  5
2D8
330
1F
100
AcDbEntity
  8
1-2ﾚｲﾔ
  6
Continuous
 62
     3
370
     9
100
AcDbLine
 10
-33.24199367213893
 20
32.37185712681661
 30
0.0
 11
-33.24199367213893
 21
-13.88800747411249
 31
0.0
  0
LINE
  5
2D9
330
1F
100
AcDbEntity
  8
1-2ﾚｲﾔ
  6
Continuous
 62
     3
370
     9
100
AcDbLine
 10
1.758059939822658
 20
40.85236216799057
 30
0.0
 11
-28.2422246159733
 21
32.37185712681661
 31
0.0
  0
LINE
  5
2DA
330
1F
100
AcDbEntity
  8
1-2ﾚｲﾔ
  6
Continuous
 62
     3
370
     9
100
AcDbLine
 10
-28.2422246159733
 20
432.3723107664914
 30
0.0
 11
-28.2422246159733
 21
340.8522384480793
 31
0.0
  0
LINE
  5
2DB
330
1F
100
AcDbEntity
  8
1-2ﾚｲﾔ
  6
Continuous
 62
     3
370
     9
100
AcDbLine
 10
-33.24199367213893
 20
432.3723107664914
 30
0.0
 11
-33.24199367213893
 21
340.8522384480793
 31
0.0
  0
LINE
  5
2DC
330
1F
100
AcDbEntity
  8
1-2ﾚｲﾔ
  6
Continuous
 62
     3
370
     9
100
AcDbLine
 10
1.758059939822658
 20
340.8518672883453
 30
0.0
 11
-28.2422246159733
 21
332.3723520064618
 31
0.0
  0
LINE
  5
2DD
330
1F
100
AcDbEntity
  8
1-2ﾚｲﾔ
  6
Continuous
 62
     3
370
     9
100
AcDbLine
 10
-28.2422246159733
 20
332.3723520064618
 30
0.0
 11
-28.2422246159733
 21
240.8522796880497
 31
0.0
  0
LINE
  5
2DE
330
1F
100
AcDbEntity
  8
1-2ﾚｲﾔ
  6
Continuous
 62
     3
370
     9
100
AcDbLine
 10
-33.24199367213893
 20
332.3723520064618
 30
0.0
 11
-33.24199367213893
 21
240.8522796880497
 31
0.0
  0
LINE
  5
2DF
330
1F
100
AcDbEntity
  8
1-2ﾚｲﾔ
  6
Continuous
 62
     3
370
     9
100
AcDbLine
 10
1.758059939822658
 20
240.8518466683601
 30
0.0
 11
-28.2422246159733
 21
232.3723313864766
 31
0.0
  0
LINE
  5
2E0
330
1F
100
AcDbEntity
  8
1-2ﾚｲﾔ
  6
Continuous
 62
     3
370
     9
100
AcDbLine
 10
-28.2422246159733
 20
232.3723313864766
 30
0.0
 11
-28.2422246159733
 21
140.8522590680644
 31
0.0
  0
LINE
  5
2E1
330
1F
100
AcDbEntity
  8
1-2ﾚｲﾔ
  6
Continuous
 62
     3
370
     9
100
AcDbLine
 10
-33.24199367213893
 20
232.3723313864766
 30
0.0
 11
-33.24199367213893
 21
140.8522590680644
 31
0.0
  0
LINE
  5
2E2
330
1F
100
AcDbEntity
  8
1-2ﾚｲﾔ
  6
Continuous
 62
     3
370
     9
100
AcDbLine
 10
1.758059939822658
 20
140.8518879083306
 30
0.0
 11
-28.2422246159733
 21
132.3723726264471
 31
0.0
  0
LINE
  5
2E3
330
1F
100
AcDbEntity
  8
1-2ﾚｲﾔ
  6
Continuous
 62
     3
370
     9
100
AcDbLine
 10
-28.2422246159733
 20
132.3723726264471
 30
0.0
 11
-28.2422246159733
 21
40.85230030803483
 31
0.0
  0
LINE
  5
2E4
330
1F
100
AcDbEntity
  8
1-2ﾚｲﾔ
  6
Continuous
 62
     3
370
     9
100
AcDbLine
 10
-33.24199367213893
 20
132.3723726264471
 30
0.0
 11
-33.24199367213893
 21
40.85230030803483
 31
0.0
  0
LINE
  5
2E5
330
1F
100
AcDbEntity
  8
1-2ﾚｲﾔ
  6
Continuous
 62
     3
370
     9
100
AcDbLine
 10
31.75803519584036
 20
440.8518260483748
 30
0.0
 11
1.7578125
 21
432.3723107664914
 31
0.0
  0
LINE
  5
2E6
330
1F
100
AcDbEntity
  8
1-2ﾚｲﾔ
  6
Continuous
 62
     3
370
     9
100
AcDbLine
 10
-3.241956556165491
 20
487.1124329687718
 30
0.0
 11
-3.241956556165491
 21
440.8518260483748
 31
0.0
  0
LINE
  5
2E7
330
1F
100
AcDbEntity
  8
1-2ﾚｲﾔ
  6
Continuous
 62
     3
370
     9
100
AcDbLine
 10
1.7578125
 20
487.1124329687718
 30
0.0
 11
1.7578125
 21
440.8518260483748
 31
0.0
  0
LINE
  5
2E8
330
1F
100
AcDbEntity
  8
1-2ﾚｲﾔ
  6
Continuous
 62
     3
370
     9
100
AcDbLine
 10
1.7578125
 20
32.37185712681661
 30
0.0
 11
1.7578125
 21
-13.88800747411249
 31
0.0
  0
LINE
  5
2E9
330
1F
100
AcDbEntity
  8
1-2ﾚｲﾔ
  6
Continuous
 62
     3
370
     9
100
AcDbLine
 10
-3.241956556165491
 20
32.37185712681661
 30
0.0
 11
-3.241956556165491
 21
-13.88800747411249
 31
0.0
  0
LINE
  5
2EA
330
1F
100
AcDbEntity
  8
1-2ﾚｲﾔ
  6
Continuous
 62
     3
370
     9
100
AcDbLine
 10
31.75803519584036
 20
40.85236216799057
 30
0.0
 11
1.7578125
 21
32.37185712681661
 31
0.0
  0
LINE
  5
2EB
330
1F
100
AcDbEntity
  8
1-2ﾚｲﾔ
  6
Continuous
 62
     3
370
     9
100
AcDbLine
 10
1.7578125
 20
432.3723107664914
 30
0.0
 11
1.7578125
 21
340.8522384480793
 31
0.0
  0
LINE
  5
2EC
330
1F
100
AcDbEntity
  8
1-2ﾚｲﾔ
  6
Continuous
 62
     3
370
     9
100
AcDbLine
 10
-3.241956556165491
 20
432.3723107664914
 30
0.0
 11
-3.241956556165491
 21
340.8522384480793
 31
0.0
  0
LINE
  5
2ED
330
1F
100
AcDbEntity
  8
1-2ﾚｲﾔ
  6
Continuous
 62
     3
370
     9
100
AcDbLine
 10
31.75803519584036
 20
340.8518672883453
 30
0.0
 11
1.7578125
 21
332.3723520064618
 31
0.0
  0
LINE
  5
2EE
330
1F
100
AcDbEntity
  8
1-2ﾚｲﾔ
  6
Continuous
 62
     3
370
     9
100
AcDbLine
 10
1.7578125
 20
332.3723520064618
 30
0.0
 11
1.7578125
 21
240.8522796880497
 31
0.0
  0
LINE
  5
2EF
330
1F
100
AcDbEntity
  8
1-2ﾚｲﾔ
  6
Continuous
 62
     3
370
     9
100
AcDbLine
 10
-3.241956556165491
 20
332.3723520064618
 30
0.0
 11
-3.241956556165491
 21
240.8522796880497
 31
0.0
  0
LINE
  5
2F0
330
1F
100
AcDbEntity
  8
1-2ﾚｲﾔ
  6
Continuous
 62
     3
370
     9
100
AcDbLine
 10
31.75803519584036
 20
240.8518466683601
 30
0.0
 11
1.7578125
 21
232.3723313864766
 31
0.0
  0
LINE
  5
2F1
330
1F
100
AcDbEntity
  8
1-2ﾚｲﾔ
  6
Continuous
 62
     3
370
     9
100
AcDbLine
 10
1.7578125
 20
232.3723313864766
 30
0.0
 11
1.7578125
 21
140.8522590680644
 31
0.0
  0
LINE
  5
2F2
330
1F
100
AcDbEntity
  8
1-2ﾚｲﾔ
  6
Continuous
 62
     3
370
     9
100
AcDbLine
 10
-3.241956556165491
 20
232.3723313864766
 30
0.0
 11
-3.241956556165491
 21
140.8522590680644
 31
0.0
  0
LINE
  5
2F3
330
1F
100
AcDbEntity
  8
1-2ﾚｲﾔ
  6
Continuous
 62
     3
370
     9
100
AcDbLine
 10
31.75803519584036
 20
140.8518879083306
 30
0.0
 11
1.7578125
 21
132.3723726264471
 31
0.0
  0
LINE
  5
2F4
330
1F
100
AcDbEntity
  8
1-2ﾚｲﾔ
  6
Continuous
 62
     3
370
     9
100
AcDbLine
 10
1.7578125
 20
132.3723726264471
 30
0.0
 11
1.7578125
 21
40.85230030803483
 31
0.0
  0
LINE
  5
2F5
330
1F
100
AcDbEntity
  8
1-2ﾚｲﾔ
  6
Continuous
 62
     3
370
     9
100
AcDbLine
 10
-3.241956556165491
 20
132.3723726264471
 30
0.0
 11
-3.241956556165491
 21
40.85230030803483
 31
0.0
  0
LINE
  5
2F6
330
1F
100
AcDbEntity
  8
1-2ﾚｲﾔ
  6
Continuous
 62
     3
370
     9
100
AcDbLine
 10
61.75801045185821
 20
440.8518260483748
 30
0.0
 11
31.75791147592918
 21
432.3723107664914
 31
0.0
  0
LINE
  5
2F7
330
1F
100
AcDbEntity
  8
1-2ﾚｲﾔ
  6
Continuous
 62
     3
370
     9
100
AcDbLine
 10
26.75814241976354
 20
487.1124329687718
 30
0.0
 11
26.75814241976354
 21
440.8518260483748
 31
0.0
  0
LINE
  5
2F8
330
1F
100
AcDbEntity
  8
1-2ﾚｲﾔ
  6
Continuous
 62
     3
370
     9
100
AcDbLine
 10
31.75791147592918
 20
487.1124329687718
 30
0.0
 11
31.75791147592918
 21
440.8518260483748
 31
0.0
  0
LINE
  5
2F9
330
1F
100
AcDbEntity
  8
1-2ﾚｲﾔ
  6
Continuous
 62
     3
370
     9
100
AcDbLine
 10
31.75791147592918
 20
32.37185712681661
 30
0.0
 11
31.75791147592918
 21
-13.88800747411249
 31
0.0
  0
LINE
  5
2FA
330
1F
100
AcDbEntity
  8
1-2ﾚｲﾔ
  6
Continuous
 62
     3
370
     9
100
AcDbLine
 10
26.75814241976354
 20
32.37185712681661
 30
0.0
 11
26.75814241976354
 21
-13.88800747411249
 31
0.0
  0
LINE
  5
2FB
330
1F
100
AcDbEntity
  8
1-2ﾚｲﾔ
  6
Continuous
 62
     3
370
     9
100
AcDbLine
 10
61.75801045185821
 20
40.85236216799057
 30
0.0
 11
31.75791147592918
 21
32.37185712681661
 31
0.0
  0
LINE
  5
2FC
330
1F
100
AcDbEntity
  8
1-2ﾚｲﾔ
  6
Continuous
 62
     3
370
     9
100
AcDbLine
 10
31.75791147592918
 20
432.3723107664914
 30
0.0
 11
31.75791147592918
 21
340.8522384480793
 31
0.0
  0
LINE
  5
2FD
330
1F
100
AcDbEntity
  8
1-2ﾚｲﾔ
  6
Continuous
 62
     3
370
     9
100
AcDbLine
 10
26.75814241976354
 20
432.3723107664914
 30
0.0
 11
26.75814241976354
 21
340.8522384480793
 31
0.0
  0
LINE
  5
2FE
330
1F
100
AcDbEntity
  8
1-2ﾚｲﾔ
  6
Continuous
 62
     3
370
     9
100
AcDbLine
 10
61.75801045185821
 20
340.8518672883453
 30
0.0
 11
31.75791147592918
 21
332.3723520064618
 31
0.0
  0
LINE
  5
2FF
330
1F
100
AcDbEntity
  8
1-2ﾚｲﾔ
  6
Continuous
 62
     3
370
     9
100
AcDbLine
 10
31.75791147592918
 20
332.3723520064618
 30
0.0
 11
31.75791147592918
 21
240.8522796880497
 31
0.0
  0
LINE
  5
300
330
1F
100
AcDbEntity
  8
1-2ﾚｲﾔ
  6
Continuous
 62
     3
370
     9
100
AcDbLine
 10
26.75814241976354
 20
332.3723520064618
 30
0.0
 11
26.75814241976354
 21
240.8522796880497
 31
0.0
  0
LINE
  5
301
330
1F
100
AcDbEntity
  8
1-2ﾚｲﾔ
  6
Continuous
 62
     3
370
     9
100
AcDbLine
 10
61.75801045185821
 20
240.8518466683601
 30
0.0
 11
31.75791147592918
 21
232.3723313864766
 31
0.0
  0
LINE
  5
302
330
1F
100
AcDbEntity
  8
1-2ﾚｲﾔ
  6
Continuous
 62
     3
370
     9
100
AcDbLine
 10
31.75791147592918
 20
232.3723313864766
 30
0.0
 11
31.75791147592918
 21
140.8522590680644
 31
0.0
  0
LINE
  5
303
330
1F
100
AcDbEntity
  8
1-2ﾚｲﾔ
  6
Continuous
 62
     3
370
     9
100
AcDbLine
 10
26.75814241976354
 20
232.3723313864766
 30
0.0
 11
26.75814241976354
 21
140.8522590680644
 31
0.0
  0
LINE
  5
304
330
1F
100
AcDbEntity
  8
1-2ﾚｲﾔ
  6
Continuous
 62
     3
370
     9
100
AcDbLine
 10
61.75801045185821
 20
140.8518879083306
 30
0.0
 11
31.75791147592918
 21
132.3723726264471
 31
0.0
  0
LINE
  5
305
330
1F
100
AcDbEntity
  8
1-2ﾚｲﾔ
  6
Continuous
 62
     3
370
     9
100
AcDbLine
 10
31.75791147592918
 20
132.3723726264471
 30
0.0
 11
31.75791147592918
 21
40.85230030803483
 31
0.0
  0
LINE
  5
306
330
1F
100
AcDbEntity
  8
1-2ﾚｲﾔ
  6
Continuous
 62
     3
370
     9
100
AcDbLine
 10
26.75814241976354
 20
132.3723726264471
 30
0.0
 11
26.75814241976354
 21
40.85230030803483
 31
0.0
  0
LINE
  5
307
330
1F
100
AcDbEntity
  8
1-2ﾚｲﾔ
  6
Continuous
 62
     3
370
     9
100
AcDbLine
 10
91.75810942778725
 20
440.8518260483748
 30
0.0
 11
61.75788673194688
 21
432.3723107664914
 31
0.0
  0
LINE
  5
308
330
1F
100
AcDbEntity
  8
1-2ﾚｲﾔ
  6
Continuous
 62
     3
370
     9
100
AcDbLine
 10
56.75811767578125
 20
487.1124329687718
 30
0.0
 11
56.75811767578125
 21
440.8518260483748
 31
0.0
  0
LINE
  5
309
330
1F
100
AcDbEntity
  8
1-2ﾚｲﾔ
  6
Continuous
 62
     3
370
     9
100
AcDbLine
 10
61.75788673194688
 20
487.1124329687718
 30
0.0
 11
61.75788673194688
 21
440.8518260483748
 31
0.0
  0
LINE
  5
30A
330
1F
100
AcDbEntity
  8
1-2ﾚｲﾔ
  6
Continuous
 62
     3
370
     9
100
AcDbLine
 10
61.75788673194688
 20
32.37185712681661
 30
0.0
 11
61.75788673194688
 21
-13.88800747411249
 31
0.0
  0
LINE
  5
30B
330
1F
100
AcDbEntity
  8
1-2ﾚｲﾔ
  6
Continuous
 62
     3
370
     9
100
AcDbLine
 10
56.75811767578125
 20
32.37185712681661
 30
0.0
 11
56.75811767578125
 21
-13.88800747411249
 31
0.0
  0
LINE
  5
30C
330
1F
100
AcDbEntity
  8
1-2ﾚｲﾔ
  6
Continuous
 62
     3
370
     9
100
AcDbLine
 10
91.75810942778725
 20
40.85236216799057
 30
0.0
 11
61.75788673194688
 21
32.37185712681661
 31
0.0
  0
LINE
  5
30D
330
1F
100
AcDbEntity
  8
1-2ﾚｲﾔ
  6
Continuous
 62
     3
370
     9
100
AcDbLine
 10
61.75788673194688
 20
432.3723107664914
 30
0.0
 11
61.75788673194688
 21
340.8522384480793
 31
0.0
  0
LINE
  5
30E
330
1F
100
AcDbEntity
  8
1-2ﾚｲﾔ
  6
Continuous
 62
     3
370
     9
100
AcDbLine
 10
56.75811767578125
 20
432.3723107664914
 30
0.0
 11
56.75811767578125
 21
340.8522384480793
 31
0.0
  0
LINE
  5
30F
330
1F
100
AcDbEntity
  8
1-2ﾚｲﾔ
  6
Continuous
 62
     3
370
     9
100
AcDbLine
 10
91.75810942778725
 20
340.8518672883453
 30
0.0
 11
61.75788673194688
 21
332.3723520064618
 31
0.0
  0
LINE
  5
310
330
1F
100
AcDbEntity
  8
1-2ﾚｲﾔ
  6
Continuous
 62
     3
370
     9
100
AcDbLine
 10
61.75788673194688
 20
332.3723520064618
 30
0.0
 11
61.75788673194688
 21
240.8522796880497
 31
0.0
  0
LINE
  5
311
330
1F
100
AcDbEntity
  8
1-2ﾚｲﾔ
  6
Continuous
 62
     3
370
     9
100
AcDbLine
 10
56.75811767578125
 20
332.3723520064618
 30
0.0
 11
56.75811767578125
 21
240.8522796880497
 31
0.0
  0
LINE
  5
312
330
1F
100
AcDbEntity
  8
1-2ﾚｲﾔ
  6
Continuous
 62
     3
370
     9
100
AcDbLine
 10
91.75810942778725
 20
240.8518466683601
 30
0.0
 11
61.75788673194688
 21
232.3723313864766
 31
0.0
  0
LINE
  5
313
330
1F
100
AcDbEntity
  8
1-2ﾚｲﾔ
  6
Continuous
 62
     3
370
     9
100
AcDbLine
 10
61.75788673194688
 20
232.3723313864766
 30
0.0
 11
61.75788673194688
 21
140.8522590680644
 31
0.0
  0
LINE
  5
314
330
1F
100
AcDbEntity
  8
1-2ﾚｲﾔ
  6
Continuous
 62
     3
370
     9
100
AcDbLine
 10
56.75811767578125
 20
232.3723313864766
 30
0.0
 11
56.75811767578125
 21
140.8522590680644
 31
0.0
  0
LINE
  5
315
330
1F
100
AcDbEntity
  8
1-2ﾚｲﾔ
  6
Continuous
 62
     3
370
     9
100
AcDbLine
 10
91.75810942778725
 20
140.8518879083306
 30
0.0
 11
61.75788673194688
 21
132.3723726264471
 31
0.0
  0
LINE
  5
316
330
1F
100
AcDbEntity
  8
1-2ﾚｲﾔ
  6
Continuous
 62
     3
370
     9
100
AcDbLine
 10
61.75788673194688
 20
132.3723726264471
 30
0.0
 11
61.75788673194688
 21
40.85230030803483
 31
0.0
  0
LINE
  5
317
330
1F
100
AcDbEntity
  8
1-2ﾚｲﾔ
  6
Continuous
 62
     3
370
     9
100
AcDbLine
 10
56.75811767578125
 20
132.3723726264471
 30
0.0
 11
56.75811767578125
 21
40.85230030803483
 31
0.0
  0
LINE
  5
318
330
1F
100
AcDbEntity
  8
1-2ﾚｲﾔ
  6
Continuous
 62
     3
370
     9
100
AcDbLine
 10
121.7582084037163
 20
440.8518260483748
 30
0.0
 11
91.75786198796459
 21
432.3723107664914
 31
0.0
  0
LINE
  5
319
330
1F
100
AcDbEntity
  8
1-2ﾚｲﾔ
  6
Continuous
 62
     3
370
     9
100
AcDbLine
 10
86.7580929317991
 20
487.1124329687718
 30
0.0
 11
86.7580929317991
 21
440.8518260483748
 31
0.0
  0
LINE
  5
31A
330
1F
100
AcDbEntity
  8
1-2ﾚｲﾔ
  6
Continuous
 62
     3
370
     9
100
AcDbLine
 10
91.75786198796459
 20
487.1124329687718
 30
0.0
 11
91.75786198796459
 21
440.8518260483748
 31
0.0
  0
LINE
  5
31B
330
1F
100
AcDbEntity
  8
1-2ﾚｲﾔ
  6
Continuous
 62
     3
370
     9
100
AcDbLine
 10
91.75786198796459
 20
32.37185712681661
 30
0.0
 11
91.75786198796459
 21
-13.88800747411249
 31
0.0
  0
LINE
  5
31C
330
1F
100
AcDbEntity
  8
1-2ﾚｲﾔ
  6
Continuous
 62
     3
370
     9
100
AcDbLine
 10
86.7580929317991
 20
32.37185712681661
 30
0.0
 11
86.7580929317991
 21
-13.88800747411249
 31
0.0
  0
LINE
  5
31D
330
1F
100
AcDbEntity
  8
1-2ﾚｲﾔ
  6
Continuous
 62
     3
370
     9
100
AcDbLine
 10
121.7582084037163
 20
40.85236216799057
 30
0.0
 11
91.75786198796459
 21
32.37185712681661
 31
0.0
  0
LINE
  5
31E
330
1F
100
AcDbEntity
  8
1-2ﾚｲﾔ
  6
Continuous
 62
     3
370
     9
100
AcDbLine
 10
91.75786198796459
 20
432.3723107664914
 30
0.0
 11
91.75786198796459
 21
340.8522384480793
 31
0.0
  0
LINE
  5
31F
330
1F
100
AcDbEntity
  8
1-2ﾚｲﾔ
  6
Continuous
 62
     3
370
     9
100
AcDbLine
 10
86.7580929317991
 20
432.3723107664914
 30
0.0
 11
86.7580929317991
 21
340.8522384480793
 31
0.0
  0
LINE
  5
320
330
1F
100
AcDbEntity
  8
1-2ﾚｲﾔ
  6
Continuous
 62
     3
370
     9
100
AcDbLine
 10
121.7582084037163
 20
340.8518672883453
 30
0.0
 11
91.75786198796459
 21
332.3723520064618
 31
0.0
  0
LINE
  5
321
330
1F
100
AcDbEntity
  8
1-2ﾚｲﾔ
  6
Continuous
 62
     3
370
     9
100
AcDbLine
 10
91.75786198796459
 20
332.3723520064618
 30
0.0
 11
91.75786198796459
 21
240.8522796880497
 31
0.0
  0
LINE
  5
322
330
1F
100
AcDbEntity
  8
1-2ﾚｲﾔ
  6
Continuous
 62
     3
370
     9
100
AcDbLine
 10
86.7580929317991
 20
332.3723520064618
 30
0.0
 11
86.7580929317991
 21
240.8522796880497
 31
0.0
  0
LINE
  5
323
330
1F
100
AcDbEntity
  8
1-2ﾚｲﾔ
  6
Continuous
 62
     3
370
     9
100
AcDbLine
 10
121.7582084037163
 20
240.8518466683601
 30
0.0
 11
91.75786198796459
 21
232.3723313864766
 31
0.0
  0
LINE
  5
324
330
1F
100
AcDbEntity
  8
1-2ﾚｲﾔ
  6
Continuous
 62
     3
370
     9
100
AcDbLine
 10
91.75786198796459
 20
232.3723313864766
 30
0.0
 11
91.75786198796459
 21
140.8522590680644
 31
0.0
  0
LINE
  5
325
330
1F
100
AcDbEntity
  8
1-2ﾚｲﾔ
  6
Continuous
 62
     3
370
     9
100
AcDbLine
 10
86.7580929317991
 20
232.3723313864766
 30
0.0
 11
86.7580929317991
 21
140.8522590680644
 31
0.0
  0
LINE
  5
326
330
1F
100
AcDbEntity
  8
1-2ﾚｲﾔ
  6
Continuous
 62
     3
370
     9
100
AcDbLine
 10
121.7582084037163
 20
140.8518879083306
 30
0.0
 11
91.75786198796459
 21
132.3723726264471
 31
0.0
  0
LINE
  5
327
330
1F
100
AcDbEntity
  8
1-2ﾚｲﾔ
  6
Continuous
 62
     3
370
     9
100
AcDbLine
 10
91.75786198796459
 20
132.3723726264471
 30
0.0
 11
91.75786198796459
 21
40.85230030803483
 31
0.0
  0
LINE
  5
328
330
1F
100
AcDbEntity
  8
1-2ﾚｲﾔ
  6
Continuous
 62
     3
370
     9
100
AcDbLine
 10
86.7580929317991
 20
132.3723726264471
 30
0.0
 11
86.7580929317991
 21
40.85230030803483
 31
0.0
  0
LINE
  5
329
330
1F
100
AcDbEntity
  8
1-2ﾚｲﾔ
  6
Continuous
 62
     3
370
     9
100
AcDbLine
 10
151.758183659734
 20
440.8518260483748
 30
0.0
 11
121.7579609638936
 21
432.3723107664914
 31
0.0
  0
LINE
  5
32A
330
1F
100
AcDbEntity
  8
1-2ﾚｲﾔ
  6
Continuous
 62
     3
370
     9
100
AcDbLine
 10
116.7581919077281
 20
487.1124329687718
 30
0.0
 11
116.7581919077281
 21
440.8518260483748
 31
0.0
  0
LINE
  5
32B
330
1F
100
AcDbEntity
  8
1-2ﾚｲﾔ
  6
Continuous
 62
     3
370
     9
100
AcDbLine
 10
121.7579609638936
 20
487.1124329687718
 30
0.0
 11
121.7579609638936
 21
440.8518260483748
 31
0.0
  0
LINE
  5
32C
330
1F
100
AcDbEntity
  8
1-2ﾚｲﾔ
  6
Continuous
 62
     3
370
     9
100
AcDbLine
 10
121.7579609638936
 20
32.37185712681661
 30
0.0
 11
121.7579609638936
 21
-13.88800747411249
 31
0.0
  0
LINE
  5
32D
330
1F
100
AcDbEntity
  8
1-2ﾚｲﾔ
  6
Continuous
 62
     3
370
     9
100
AcDbLine
 10
116.7581919077281
 20
32.37185712681661
 30
0.0
 11
116.7581919077281
 21
-13.88800747411249
 31
0.0
  0
LINE
  5
32E
330
1F
100
AcDbEntity
  8
1-2ﾚｲﾔ
  6
Continuous
 62
     3
370
     9
100
AcDbLine
 10
151.758183659734
 20
40.85236216799057
 30
0.0
 11
121.7579609638936
 21
32.37185712681661
 31
0.0
  0
LINE
  5
32F
330
1F
100
AcDbEntity
  8
1-2ﾚｲﾔ
  6
Continuous
 62
     3
370
     9
100
AcDbLine
 10
121.7579609638936
 20
432.3723107664914
 30
0.0
 11
121.7579609638936
 21
340.8522384480793
 31
0.0
  0
LINE
  5
330
330
1F
100
AcDbEntity
  8
1-2ﾚｲﾔ
  6
Continuous
 62
     3
370
     9
100
AcDbLine
 10
116.7581919077281
 20
432.3723107664914
 30
0.0
 11
116.7581919077281
 21
340.8522384480793
 31
0.0
  0
LINE
  5
331
330
1F
100
AcDbEntity
  8
1-2ﾚｲﾔ
  6
Continuous
 62
     3
370
     9
100
AcDbLine
 10
151.758183659734
 20
340.8518672883453
 30
0.0
 11
121.7579609638936
 21
332.3723520064618
 31
0.0
  0
LINE
  5
332
330
1F
100
AcDbEntity
  8
1-2ﾚｲﾔ
  6
Continuous
 62
     3
370
     9
100
AcDbLine
 10
121.7579609638936
 20
332.3723520064618
 30
0.0
 11
121.7579609638936
 21
240.8522796880497
 31
0.0
  0
LINE
  5
333
330
1F
100
AcDbEntity
  8
1-2ﾚｲﾔ
  6
Continuous
 62
     3
370
     9
100
AcDbLine
 10
116.7581919077281
 20
332.3723520064618
 30
0.0
 11
116.7581919077281
 21
240.8522796880497
 31
0.0
  0
LINE
  5
334
330
1F
100
AcDbEntity
  8
1-2ﾚｲﾔ
  6
Continuous
 62
     3
370
     9
100
AcDbLine
 10
151.758183659734
 20
240.8518466683601
 30
0.0
 11
121.7579609638936
 21
232.3723313864766
 31
0.0
  0
LINE
  5
335
330
1F
100
AcDbEntity
  8
1-2ﾚｲﾔ
  6
Continuous
 62
     3
370
     9
100
AcDbLine
 10
121.7579609638936
 20
232.3723313864766
 30
0.0
 11
121.7579609638936
 21
140.8522590680644
 31
0.0
  0
LINE
  5
336
330
1F
100
AcDbEntity
  8
1-2ﾚｲﾔ
  6
Continuous
 62
     3
370
     9
100
AcDbLine
 10
116.7581919077281
 20
232.3723313864766
 30
0.0
 11
116.7581919077281
 21
140.8522590680644
 31
0.0
  0
LINE
  5
337
330
1F
100
AcDbEntity
  8
1-2ﾚｲﾔ
  6
Continuous
 62
     3
370
     9
100
AcDbLine
 10
151.758183659734
 20
140.8518879083306
 30
0.0
 11
121.7579609638936
 21
132.3723726264471
 31
0.0
  0
LINE
  5
338
330
1F
100
AcDbEntity
  8
1-2ﾚｲﾔ
  6
Continuous
 62
     3
370
     9
100
AcDbLine
 10
121.7579609638936
 20
132.3723726264471
 30
0.0
 11
121.7579609638936
 21
40.85230030803483
 31
0.0
  0
LINE
  5
339
330
1F
100
AcDbEntity
  8
1-2ﾚｲﾔ
  6
Continuous
 62
     3
370
     9
100
AcDbLine
 10
116.7581919077281
 20
132.3723726264471
 30
0.0
 11
116.7581919077281
 21
40.85230030803483
 31
0.0
  0
ARC
  5
33A
330
1F
100
AcDbEntity
  8
1-1ﾚｲﾔ
  6
Continuous
 62
     2
370
     9
100
AcDbCircle
 10
501.9134933884081
 20
451.0119526055962
 30
0.0
 40
6.400000082479941
100
AcDbArc
 50
180.0
 51
270.0
  0
ARC
  5
33B
330
1F
100
AcDbEntity
  8
1-1ﾚｲﾔ
  6
Continuous
 62
     2
370
     9
100
AcDbCircle
 10
564.1134313634925
 20
451.0119526055962
 30
0.0
 40
6.400000082479941
100
AcDbArc
 50
270.0
 51
0.0
  0
ARC
  5
33C
330
1F
100
AcDbEntity
  8
1-1ﾚｲﾔ
  6
Continuous
 62
     2
370
     9
100
AcDbCircle
 10
564.1134313634925
 20
451.0120763255076
 30
0.0
 40
3.20000004123997
100
AcDbArc
 50
270.0
 51
0.0
  0
ARC
  5
33D
330
1F
100
AcDbEntity
  8
1-1ﾚｲﾔ
  6
Continuous
 62
     2
370
     9
100
AcDbCircle
 10
501.9134933884081
 20
478.212022548586
 30
0.0
 40
6.400000082479941
100
AcDbArc
 50
90.0
 51
180.0
  0
ARC
  5
33E
330
1F
100
AcDbEntity
  8
1-1ﾚｲﾔ
  6
Continuous
 62
     2
370
     9
100
AcDbCircle
 10
501.9134933884081
 20
478.212022548586
 30
0.0
 40
3.20000004123997
100
AcDbArc
 50
90.0
 51
180.0
  0
ARC
  5
33F
330
1F
100
AcDbEntity
  8
1-1ﾚｲﾔ
  6
Continuous
 62
     2
370
     9
100
AcDbCircle
 10
564.1134313634925
 20
478.212022548586
 30
0.0
 40
3.20000004123997
100
AcDbArc
 50
0.0
 51
90.0
  0
ARC
  5
340
330
1F
100
AcDbEntity
  8
1-1ﾚｲﾔ
  6
Continuous
 62
     2
370
     9
100
AcDbCircle
 10
564.1134313634925
 20
478.212022548586
 30
0.0
 40
6.400000082479941
100
AcDbArc
 50
0.0
 51
90.0
  0
ARC
  5
341
330
1F
100
AcDbEntity
  8
1-1ﾚｲﾔ
  6
Continuous
 62
     2
370
     9
100
AcDbCircle
 10
501.9134933884081
 20
451.0119526055962
 30
0.0
 40
3.20000004123997
100
AcDbArc
 50
180.0
 51
270.0
  0
ARC
  5
342
330
1F
100
AcDbEntity
  8
1-1ﾚｲﾔ
  6
Continuous
 62
     2
370
     9
100
AcDbCircle
 10
501.9134933884081
 20
22.21241102910749
 30
0.0
 40
6.400000082479941
100
AcDbArc
 50
90.0
 51
180.0
  0
ARC
  5
343
330
1F
100
AcDbEntity
  8
1-1ﾚｲﾔ
  6
Continuous
 62
     2
370
     9
100
AcDbCircle
 10
564.1134313634925
 20
22.21241102910749
 30
0.0
 40
6.400000082479941
100
AcDbArc
 50
0.0
 51
90.0
  0
ARC
  5
344
330
1F
100
AcDbEntity
  8
1-1ﾚｲﾔ
  6
Continuous
 62
     2
370
     9
100
AcDbCircle
 10
564.1134313634925
 20
22.21228730919616
 30
0.0
 40
3.20000004123997
100
AcDbArc
 50
0.0
 51
90.0
  0
ARC
  5
345
330
1F
100
AcDbEntity
  8
1-1ﾚｲﾔ
  6
Continuous
 62
     2
370
     9
100
AcDbCircle
 10
501.9134933884081
 20
-4.987658913882349
 30
0.0
 40
6.400000082479941
100
AcDbArc
 50
180.0
 51
270.0
  0
ARC
  5
346
330
1F
100
AcDbEntity
  8
1-1ﾚｲﾔ
  6
Continuous
 62
     2
370
     9
100
AcDbCircle
 10
501.9134933884081
 20
-4.987658913882349
 30
0.0
 40
3.20000004123997
100
AcDbArc
 50
180.0
 51
270.0
  0
ARC
  5
347
330
1F
100
AcDbEntity
  8
1-1ﾚｲﾔ
  6
Continuous
 62
     2
370
     9
100
AcDbCircle
 10
564.1134313634925
 20
-4.987658913882349
 30
0.0
 40
3.20000004123997
100
AcDbArc
 50
270.0
 51
0.0
  0
ARC
  5
348
330
1F
100
AcDbEntity
  8
1-1ﾚｲﾔ
  6
Continuous
 62
     2
370
     9
100
AcDbCircle
 10
564.1134313634925
 20
-4.987658913882349
 30
0.0
 40
6.400000082479941
100
AcDbArc
 50
270.0
 51
0.0
  0
ARC
  5
349
330
1F
100
AcDbEntity
  8
1-1ﾚｲﾔ
  6
Continuous
 62
     2
370
     9
100
AcDbCircle
 10
501.9134933884081
 20
22.21241102910749
 30
0.0
 40
3.20000004123997
100
AcDbArc
 50
90.0
 51
180.0
  0
TEXT
  5
34A
330
1F
100
AcDbEntity
  8
1-4ﾚｲﾔ
  6
Continuous
 62
     7
370
     9
100
AcDbText
 10
-479.7613195470861
 20
588.0018222872895
 30
0.0
 40
11.43
  1
クロスバー □６ ＠100
 41
1.158730158730159
  7
ＭＳ ゴシック
100
AcDbText
  0
TEXT
  5
34B
330
1F
100
AcDbEntity
  8
1-4ﾚｲﾔ
  6
Continuous
 62
     2
370
     9
100
AcDbText
 10
612.6934871199325
 20
-39.13856091451581
 30
0.0
 40
15.24
  1
7
 50
90.0
 41
0.9999999999999998
  7
ＭＳ ゴシック
100
AcDbText
  0
TEXT
  5
34C
330
1F
100
AcDbEntity
  8
1-4ﾚｲﾔ
  6
Continuous
 62
     2
370
     9
100
AcDbText
 10
612.6934871199325
 20
-2.012689926340094
 30
0.0
 40
15.24
  1
40
 50
90.0
 41
1.0625
  7
ＭＳ ゴシック
100
AcDbText
  0
TEXT
  5
34D
330
1F
100
AcDbEntity
  8
1-4ﾚｲﾔ
  6
Continuous
 62
     2
370
     9
100
AcDbText
 10
612.6934871199325
 20
453.987169032961
 30
0.0
 40
15.24
  1
40
 50
90.0
 41
1.0625
  7
ＭＳ ゴシック
100
AcDbText
  0
TEXT
  5
34E
330
1F
100
AcDbEntity
  8
1-4ﾚｲﾔ
  6
Continuous
 62
     2
370
     9
100
AcDbText
 10
612.6934871199325
 20
500.3382152085311
 30
0.0
 40
15.24
  1
7
 50
90.0
 41
0.9999999999999998
  7
ＭＳ ゴシック
100
AcDbText
  0
TEXT
  5
34F
330
1F
100
AcDbEntity
  8
1-4ﾚｲﾔ
  6
Continuous
 62
     2
370
     9
100
AcDbText
 10
468.8885663006758
 20
-60.56772539271471
 30
0.0
 40
15.24
  1
32
 41
1.0625
  7
ＭＳ ゴシック
100
AcDbText
  0
TEXT
  5
350
330
1F
100
AcDbEntity
  8
1-4ﾚｲﾔ
  6
Continuous
 62
     2
370
     9
100
AcDbText
 10
405.6934970175255
 20
220.362159135368
 30
0.0
 40
15.24
  1
510
 50
90.0
 41
1.083333333333333
  7
ＭＳ ゴシック
100
AcDbText
  0
TEXT
  5
351
330
1F
100
AcDbEntity
  8
1-4ﾚｲﾔ
  6
Continuous
 62
     2
370
     9
100
AcDbText
 10
612.6934871199325
 20
220.362159135368
 30
0.0
 40
15.24
  1
416
 50
90.0
 41
1.083333333333333
  7
ＭＳ ゴシック
100
AcDbText
  0
TEXT
  5
352
330
1F
100
AcDbEntity
  8
1-E
  6
Continuous
 62
     7
370
     9
100
AcDbText
 10
601.3448354360221
 20
591.9304243512677
 30
0.0
 40
11.43
  1
かさ上げ材：□７５×４０×３．２
 41
1.15625
  7
ＭＳ ゴシック
100
AcDbText
  0
TEXT
  5
353
330
1F
100
AcDbEntity
  8
1-4ﾚｲﾔ
  6
Continuous
 62
     7
370
     9
100
AcDbText
 10
-451.4455434438344
 20
548.1479272545616
 30
0.0
 40
11.43
  1
メインバー Ⅰ－３２ ＠30
 41
1.159722222222222
  7
ＭＳ ゴシック
100
AcDbText
  0
TEXT
  5
354
330
1F
100
AcDbEntity
  8
1-4ﾚｲﾔ
  6
Continuous
 62
     2
370
     9
100
AcDbText
 10
522.3885201119089
 20
-62.56771961911888
 30
0.0
 40
15.24
  1
75
 41
1.0625
  7
ＭＳ ゴシック
100
AcDbText
  0
TEXT
  5
355
330
1F
100
AcDbEntity
  8
1-4ﾚｲﾔ
  6
Continuous
 62
     2
370
     9
100
AcDbText
 10
500.7635168127112
 20
-102.5677278671129
 30
0.0
 40
15.24
  1
107
 41
1.083333333333333
  7
ＭＳ ゴシック
100
AcDbText
  0
TEXT
  5
356
330
1F
100
AcDbEntity
  8
1-4ﾚｲﾔ
  6
Continuous
 62
     2
370
     9
100
AcDbText
 10
-716.368041167388
 20
520.8036438402879
 30
0.0
 40
15.24
  1
30
 41
1.0625
  7
ＭＳ ゴシック
100
AcDbText
  0
TEXT
  5
357
330
1F
100
AcDbEntity
  8
1-4ﾚｲﾔ
  6
Continuous
 62
     2
370
     9
100
AcDbText
 10
-361.9932638632284
 20
-62.56771961911888
 30
0.0
 40
15.24
  1
995
 41
1.083333333333333
  7
ＭＳ ゴシック
100
AcDbText
  0
TEXT
  5
358
330
1F
100
AcDbEntity
  8
1-E
  6
Continuous
 62
     7
370
     9
100
AcDbText
 10
675.502921439506
 20
563.7164697350304
 30
0.0
 40
11.43
  1
（Ｌ＝９８５）
 41
1.142857142857143
  7
ＭＳ ゴシック
100
AcDbText
  0
LINE
  5
359
330
1F
100
AcDbEntity
  8
1-4ﾚｲﾔ
  6
Continuous
 62
     7
370
     9
100
AcDbLine
 10
-478.2429669354412
 20
464.6447272417073
 30
0.0
 11
-457.6196618982263
 21
541.6121673833622
 31
0.0
  0
TEXT
  5
35A
330
1F
100
AcDbEntity
  8
1-4ﾚｲﾔ
  6
Continuous
 62
     7
370
     9
100
AcDbText
 10
-525.9056297508446
 20
630.4049660927161
 30
0.0
 40
11.43
  1
エンドプレート ＦＢ4.5×25
 41
1.16025641025641
  7
ＭＳ ゴシック
100
AcDbText
  0
TEXT
  5
35B
330
1F
100
AcDbEntity
  8
F-5ﾚｲﾔ
  6
Continuous
 62
     2
370
     9
100
AcDbText
 10
-464.3785216003346
 20
-684.2887089051902
 30
0.0
 40
15.24
  1
スチール製グレーチング　かさあげ型　プレーンタイプ　ＪＩＳ型側溝用　ＨＳＪ　５１３２Ｂ
 41
0.7744186046511626
  7
ＭＳ ゴシック
100
AcDbText
  0
LINE
  5
35C
330
1F
100
AcDbEntity
  8
1-2ﾚｲﾔ
  6
Continuous
 62
     7
370
     9
100
AcDbLine
 10
-478.2429669354412
 20
464.6447272417073
 30
0.0
 11
-476.6113983050067
 21
477.0377891637742
 31
0.0
  0
LINE
  5
35D
330
1F
100
AcDbEntity
  8
1-2ﾚｲﾔ
  6
Continuous
 62
     7
370
     9
100
AcDbLine
 10
-478.2429669354412
 20
464.6447272417073
 30
0.0
 11
-473.4594322053757
 21
476.1932247840831
 31
0.0
  0
ENDSEC
  0
SECTION
  2
OBJECTS
  0
DICTIONARY
  5
C
330
0
100
AcDbDictionary
281
     1
  3
ACAD_DETAILVIEWSTYLE
350
3A3
  3
ACAD_GROUP
350
D
  3
ACAD_LAYOUT
350
1A
  3
ACAD_MATERIAL
350
43
  3
ACAD_MLEADERSTYLE
350
6B
  3
ACAD_MLINESTYLE
350
17
  3
ACAD_PLOTSETTINGS
350
19
  3
ACAD_PLOTSTYLENAME
350
E
  3
ACAD_SCALELIST
350
47
  3
ACAD_SECTIONVIEWSTYLE
350
3A4
  3
ACAD_TABLESTYLE
350
69
  3
ACAD_VISUALSTYLE
350
2A
  3
ACDB_RECOMPOSE_DATA
350
3A0
  3
AcDbVariableDictionary
350
360
  0
DICTIONARY
  5
35E
330
8
100
AcDbDictionary
280
     1
281
     1
  3
ACAD_XREC_ROUNDTRIP
360
35F
  0
DICTIONARY
  5
3A3
102
{ACAD_REACTORS
330
C
102
}
330
C
100
AcDbDictionary
281
     1
  0
DICTIONARY
  5
D
102
{ACAD_REACTORS
330
C
102
}
330
C
100
AcDbDictionary
281
     1
  0
DICTIONARY
  5
1A
102
{ACAD_REACTORS
330
C
102
}
330
C
100
AcDbDictionary
281
     1
  3
Layout1
350
1E
  3
Layout2
350
26
  3
Model
350
22
  0
DICTIONARY
  5
43
102
{ACAD_REACTORS
330
C
102
}
330
C
100
AcDbDictionary
281
     1
  3
ByBlock
350
45
  3
ByLayer
350
44
  3
Global
350
46
  0
DICTIONARY
  5
6B
102
{ACAD_REACTORS
330
C
102
}
330
C
100
AcDbDictionary
281
     1
  3
Standard
350
6C
  0
DICTIONARY
  5
17
102
{ACAD_REACTORS
330
C
102
}
330
C
100
AcDbDictionary
281
     1
  3
Standard
350
18
  0
DICTIONARY
  5
19
102
{ACAD_REACTORS
330
C
102
}
330
C
100
AcDbDictionary
281
     1
  0
ACDBDICTIONARYWDFLT
  5
E
102
{ACAD_REACTORS
330
C
102
}
330
C
100
AcDbDictionary
281
     1
  3
Normal
350
F
100
AcDbDictionaryWithDefault
340
F
  0
DICTIONARY
  5
47
102
{ACAD_REACTORS
330
C
102
}
330
C
100
AcDbDictionary
281
     1
  3
A0
350
48
  3
A1
350
49
  3
A2
350
4A
  3
A3
350
4B
  3
A4
350
4C
  3
A5
350
4D
  3
A6
350
4E
  3
A7
350
4F
  3
A8
350
50
  3
A9
350
51
  3
B0
350
52
  3
B1
350
53
  3
B2
350
54
  3
B3
350
55
  3
B4
350
56
  3
B5
350
57
  3
B6
350
58
  3
B7
350
59
  3
B8
350
5A
  3
B9
350
5B
  3
C0
350
5C
  3
C1
350
5D
  3
C2
350
5E
  3
C3
350
5F
  3
C4
350
60
  3
C5
350
61
  3
C6
350
62
  3
C7
350
63
  3
C8
350
64
  3
C9
350
65
  3
D0
350
66
  3
D1
350
67
  3
D2
350
68
  0
DICTIONARY
  5
3A4
102
{ACAD_REACTORS
330
C
102
}
330
C
100
AcDbDictionary
281
     1
  0
DICTIONARY
  5
69
102
{ACAD_REACTORS
330
C
102
}
330
C
100
AcDbDictionary
281
     1
  3
Standard
350
6A
  0
DICTIONARY
  5
2A
102
{ACAD_REACTORS
330
C
102
}
330
C
100
AcDbDictionary
281
     1
  3
2dWireframe
350
2F
  3
Basic
350
32
  3
Brighten
350
36
  3
ColorChange
350
3A
  3
Conceptual
350
34
  3
Dim
350
35
  3
EdgeColorOff
350
3D
  3
Facepattern
350
39
  3
Flat
350
2B
  3
FlatWithEdges
350
2C
  3
Gouraud
350
2D
  3
GouraudWithEdges
350
2E
  3
Hidden
350
31
  3
JitterOff
350
3B
  3
Linepattern
350
38
  3
OverhangOff
350
3C
  3
Realistic
350
33
  3
Shaded
350
42
  3
Shaded with edges
350
41
  3
Shades of Gray
350
3E
  3
Sketchy
350
3F
  3
Thicken
350
37
  3
Wireframe
350
30
  3
X-Ray
350
40
  0
XRECORD
  5
3A0
102
{ACAD_REACTORS
330
C
102
}
330
C
100
AcDbXrecord
280
     1
 90
        1
330
6A
  0
DICTIONARY
  5
360
102
{ACAD_REACTORS
330
C
102
}
330
C
100
AcDbDictionary
281
     1
  3
CANNOSCALE
350
361
  3
CENTEREXE
350
3A5
  3
CENTERLTYPEFILE
350
3A6
  3
CMLEADERSTYLE
350
3A2
  3
CTABLESTYLE
350
3A1
  3
MSLTSCALE
350
362
  3
XCLIPFRAME
350
363
  0
XRECORD
  5
35F
102
{ACAD_REACTORS
330
35E
102
}
330
35E
100
AcDbXrecord
280
     1
102
VTR_0.000_0.000_1.000_1.000_VISUALSTYLE
340
2F
102
VTR_0.000_0.000_1.000_1.000_GRIDDISPLAY
 70
     3
102
VTR_0.000_0.000_1.000_1.000_GRIDMAJOR
 70
     5
102
VTR_0.000_0.000_1.000_1.000_DEFAULTLIGHTING
280
     1
102
VTR_0.000_0.000_1.000_1.000_DEFAULTLIGHTINGTYPE
 70
     1
102
VTR_0.000_0.000_1.000_1.000_BRIGHTNESS
141
0.0
102
VTR_0.000_0.000_1.000_1.000_CONTRAST
142
0.0
  0
LAYOUT
  5
1E
102
{ACAD_REACTORS
330
1A
102
}
330
1A
100
AcDbPlotSettings
  1

  2
none_device
  4

  6

 40
0.0
 41
0.0
 42
0.0
 43
0.0
 44
0.0
 45
0.0
 46
0.0
 47
0.0
 48
0.0
 49
0.0
140
0.0
141
0.0
142
1.0
143
1.0
 70
   688
 72
     1
 73
     0
 74
     5
  7

 75
    16
 76
     0
 77
     5
 78
   300
147
1.0
148
0.0
149
0.0
100
AcDbLayout
  1
Layout1
 70
     1
 71
     1
 10
0.0
 20
0.0
 11
420.0
 21
297.0
 12
0.0
 22
0.0
 32
0.0
 14
1.000000000000000E+20
 24
1.000000000000000E+20
 34
1.000000000000000E+20
 15
-1.000000000000000E+20
 25
-1.000000000000000E+20
 35
-1.000000000000000E+20
146
0.0
 13
0.0
 23
0.0
 33
0.0
 16
1.0
 26
0.0
 36
0.0
 17
0.0
 27
1.0
 37
0.0
 76
     0
330
1B
  0
LAYOUT
  5
26
102
{ACAD_REACTORS
330
1A
102
}
330
1A
100
AcDbPlotSettings
  1

  2
none_device
  4

  6

 40
0.0
 41
0.0
 42
0.0
 43
0.0
 44
0.0
 45
0.0
 46
0.0
 47
0.0
 48
0.0
 49
0.0
140
0.0
141
0.0
142
1.0
143
1.0
 70
   688
 72
     1
 73
     0
 74
     5
  7

 75
    16
 76
     0
 77
     5
 78
   300
147
1.0
148
0.0
149
0.0
100
AcDbLayout
  1
Layout2
 70
     1
 71
     2
 10
0.0
 20
0.0
 11
0.0
 21
0.0
 12
0.0
 22
0.0
 32
0.0
 14
0.0
 24
0.0
 34
0.0
 15
0.0
 25
0.0
 35
0.0
146
0.0
 13
0.0
 23
0.0
 33
0.0
 16
1.0
 26
0.0
 36
0.0
 17
0.0
 27
1.0
 37
0.0
 76
     0
330
23
  0
LAYOUT
  5
22
102
{ACAD_REACTORS
330
1A
102
}
330
1A
100
AcDbPlotSettings
  1

  2
none_device
  4
Letter_(8.50_x_11.00_Inches)
  6

 40
6.35
 41
6.35
 42
6.35000508
 43
6.35000508
 44
215.9
 45
279.4
 46
0.0
 47
0.0
 48
0.0
 49
0.0
140
0.0
141
0.0
142
1.0
143
1.0
 70
  1712
 72
     1
 73
     0
 74
     0
  7

 75
     0
 76
     0
 77
     5
 78
   300
147
1.0
148
0.0
149
0.0
100
AcDbLayout
  1
Model
 70
     1
 71
     0
 10
-1050.0
 20
-742.5
 11
1050.0
 21
742.5
 12
0.0
 22
0.0
 32
0.0
 14
-1050.0
 24
-742.5
 34
0.0
 15
1050.0
 25
742.5
 35
0.0
146
0.0
 13
0.0
 23
0.0
 33
0.0
 16
1.0
 26
0.0
 36
0.0
 17
0.0
 27
1.0
 37
0.0
 76
     0
330
1F
331
29
  0
MATERIAL
  5
45
102
{ACAD_REACTORS
330
43
102
}
102
{ACAD_XDICTIONARY
360
396
102
}
330
43
100
AcDbMaterial
  1
ByBlock
  0
MATERIAL
  5
44
102
{ACAD_REACTORS
330
43
102
}
102
{ACAD_XDICTIONARY
360
394
102
}
330
43
100
AcDbMaterial
  1
ByLayer
  0
MATERIAL
  5
46
102
{ACAD_REACTORS
330
43
102
}
102
{ACAD_XDICTIONARY
360
398
102
}
330
43
100
AcDbMaterial
  1
Global
  0
MLEADERSTYLE
  5
6C
102
{ACAD_REACTORS
330
6B
102
}
102
{ACAD_XDICTIONARY
360
39E
102
}
330
6B
100
AcDbMLeaderStyle
170
     2
171
     1
172
     0
 90
        2
 40
0.0
 41
0.0
173
     1
 91
-1056964608
340
14
 92
       -2
290
     1
 42
2.0
291
     1
 43
8.0
  3
Standard
341
0
 44
4.0
300

342
11
174
     1
178
     6
175
     1
176
     0
 93
-1056964608
 45
4.0
292
     0
297
     0
 46
4.0
343
0
 94
-1056964608
 47
1.0
 49
1.0
140
1.0
293
     1
141
0.0
294
     1
177
     0
142
1.0
295
     0
296
     0
143
3.75
1001
ACAD_MLEADERVER
1070
     2
  0
MLINESTYLE
  5
18
102
{ACAD_REACTORS
330
17
102
}
330
17
100
AcDbMlineStyle
  2
Standard
 70
     0
  3

 62
   256
 51
90.0
 52
90.0
 71
     2
 49
0.5
 62
   256
  6
BYLAYER
 49
-0.5
 62
   256
  6
BYLAYER
  0
ACDBPLACEHOLDER
  5
F
102
{ACAD_REACTORS
330
E
102
}
330
E
  0
SCALE
  5
48
102
{ACAD_REACTORS
330
47
102
}
330
47
100
AcDbScale
 70
     0
300
1:1
140
1.0
141
1.0
290
     1
  0
SCALE
  5
49
102
{ACAD_REACTORS
330
47
102
}
330
47
100
AcDbScale
 70
     0
300
1:2
140
1.0
141
2.0
290
     0
  0
SCALE
  5
4A
102
{ACAD_REACTORS
330
47
102
}
330
47
100
AcDbScale
 70
     0
300
1:4
140
1.0
141
4.0
290
     0
  0
SCALE
  5
4B
102
{ACAD_REACTORS
330
47
102
}
330
47
100
AcDbScale
 70
     0
300
1:5
140
1.0
141
5.0
290
     0
  0
SCALE
  5
4C
102
{ACAD_REACTORS
330
47
102
}
330
47
100
AcDbScale
 70
     0
300
1:8
140
1.0
141
8.0
290
     0
  0
SCALE
  5
4D
102
{ACAD_REACTORS
330
47
102
}
330
47
100
AcDbScale
 70
     0
300
1:10
140
1.0
141
10.0
290
     0
  0
SCALE
  5
4E
102
{ACAD_REACTORS
330
47
102
}
330
47
100
AcDbScale
 70
     0
300
1:16
140
1.0
141
16.0
290
     0
  0
SCALE
  5
4F
102
{ACAD_REACTORS
330
47
102
}
330
47
100
AcDbScale
 70
     0
300
1:20
140
1.0
141
20.0
290
     0
  0
SCALE
  5
50
102
{ACAD_REACTORS
330
47
102
}
330
47
100
AcDbScale
 70
     0
300
1:30
140
1.0
141
30.0
290
     0
  0
SCALE
  5
51
102
{ACAD_REACTORS
330
47
102
}
330
47
100
AcDbScale
 70
     0
300
1:40
140
1.0
141
40.0
290
     0
  0
SCALE
  5
52
102
{ACAD_REACTORS
330
47
102
}
330
47
100
AcDbScale
 70
     0
300
1:50
140
1.0
141
50.0
290
     0
  0
SCALE
  5
53
102
{ACAD_REACTORS
330
47
102
}
330
47
100
AcDbScale
 70
     0
300
1:100
140
1.0
141
100.0
290
     0
  0
SCALE
  5
54
102
{ACAD_REACTORS
330
47
102
}
330
47
100
AcDbScale
 70
     0
300
2:1
140
2.0
141
1.0
290
     0
  0
SCALE
  5
55
102
{ACAD_REACTORS
330
47
102
}
330
47
100
AcDbScale
 70
     0
300
4:1
140
4.0
141
1.0
290
     0
  0
SCALE
  5
56
102
{ACAD_REACTORS
330
47
102
}
330
47
100
AcDbScale
 70
     0
300
8:1
140
8.0
141
1.0
290
     0
  0
SCALE
  5
57
102
{ACAD_REACTORS
330
47
102
}
330
47
100
AcDbScale
 70
     0
300
10:1
140
10.0
141
1.0
290
     0
  0
SCALE
  5
58
102
{ACAD_REACTORS
330
47
102
}
330
47
100
AcDbScale
 70
     0
300
100:1
140
100.0
141
1.0
290
     0
  0
SCALE
  5
59
102
{ACAD_REACTORS
330
47
102
}
330
47
100
AcDbScale
 70
     0
300
1/128" = 1'-0"
140
0.0078125
141
12.0
290
     0
  0
SCALE
  5
5A
102
{ACAD_REACTORS
330
47
102
}
330
47
100
AcDbScale
 70
     0
300
1/64" = 1'-0"
140
0.015625
141
12.0
290
     0
  0
SCALE
  5
5B
102
{ACAD_REACTORS
330
47
102
}
330
47
100
AcDbScale
 70
     0
300
1/32" = 1'-0"
140
0.03125
141
12.0
290
     0
  0
SCALE
  5
5C
102
{ACAD_REACTORS
330
47
102
}
330
47
100
AcDbScale
 70
     0
300
1/16" = 1'-0"
140
0.0625
141
12.0
290
     0
  0
SCALE
  5
5D
102
{ACAD_REACTORS
330
47
102
}
330
47
100
AcDbScale
 70
     0
300
3/32" = 1'-0"
140
0.09375
141
12.0
290
     0
  0
SCALE
  5
5E
102
{ACAD_REACTORS
330
47
102
}
330
47
100
AcDbScale
 70
     0
300
1/8" = 1'-0"
140
0.125
141
12.0
290
     0
  0
SCALE
  5
5F
102
{ACAD_REACTORS
330
47
102
}
330
47
100
AcDbScale
 70
     0
300
3/16" = 1'-0"
140
0.1875
141
12.0
290
     0
  0
SCALE
  5
60
102
{ACAD_REACTORS
330
47
102
}
330
47
100
AcDbScale
 70
     0
300
1/4" = 1'-0"
140
0.25
141
12.0
290
     0
  0
SCALE
  5
61
102
{ACAD_REACTORS
330
47
102
}
330
47
100
AcDbScale
 70
     0
300
3/8" = 1'-0"
140
0.375
141
12.0
290
     0
  0
SCALE
  5
62
102
{ACAD_REACTORS
330
47
102
}
330
47
100
AcDbScale
 70
     0
300
1/2" = 1'-0"
140
0.5
141
12.0
290
     0
  0
SCALE
  5
63
102
{ACAD_REACTORS
330
47
102
}
330
47
100
AcDbScale
 70
     0
300
3/4" = 1'-0"
140
0.75
141
12.0
290
     0
  0
SCALE
  5
64
102
{ACAD_REACTORS
330
47
102
}
330
47
100
AcDbScale
 70
     0
300
1" = 1'-0"
140
1.0
141
12.0
290
     0
  0
SCALE
  5
65
102
{ACAD_REACTORS
330
47
102
}
330
47
100
AcDbScale
 70
     0
300
1-1/2" = 1'-0"
140
1.5
141
12.0
290
     0
  0
SCALE
  5
66
102
{ACAD_REACTORS
330
47
102
}
330
47
100
AcDbScale
 70
     0
300
3" = 1'-0"
140
3.0
141
12.0
290
     0
  0
SCALE
  5
67
102
{ACAD_REACTORS
330
47
102
}
330
47
100
AcDbScale
 70
     0
300
6" = 1'-0"
140
6.0
141
12.0
290
     0
  0
SCALE
  5
68
102
{ACAD_REACTORS
330
47
102
}
330
47
100
AcDbScale
 70
     0
300
1'-0" = 1'-0"
140
12.0
141
12.0
290
     0
  0
TABLESTYLE
  5
6A
102
{ACAD_REACTORS
330
69
102
}
102
{ACAD_XDICTIONARY
360
39A
102
}
330
69
100
AcDbTableStyle
  3
Standard
 70
     0
 71
     0
 40
0.06
 41
0.06
280
     0
281
     0
  7
Standard
140
4.5
170
     2
 62
     0
 63
   257
283
     0
274
    -2
284
     1
 64
     0
275
    -2
285
     1
 65
     0
276
    -2
286
     1
 66
     0
277
    -2
287
     1
 67
     0
278
    -2
288
     1
 68
     0
279
    -2
289
     1
 69
     0
  7
Standard
140
6.0
170
     5
 62
     0
 63
   257
283
     0
274
    -2
284
     1
 64
     0
275
    -2
285
     1
 65
     0
276
    -2
286
     1
 66
     0
277
    -2
287
     1
 67
     0
278
    -2
288
     1
 68
     0
279
    -2
289
     1
 69
     0
  7
Standard
140
4.5
170
     5
 62
     0
 63
   257
283
     0
274
    -2
284
     1
 64
     0
275
    -2
285
     1
 65
     0
276
    -2
286
     1
 66
     0
277
    -2
287
     1
 67
     0
278
    -2
288
     1
 68
     0
279
    -2
289
     1
 69
     0
  0
VISUALSTYLE
  5
2F
102
{ACAD_REACTORS
330
2A
102
}
102
{ACAD_XDICTIONARY
360
36C
102
}
330
2A
100
AcDbVisualStyle
  2
2dWireframe
 70
     4
 71
     0
 72
     2
 73
     0
 90
        0
 40
0.6
 41
30.0
 62
     5
 63
     7
421
 16777215
 74
     1
 91
        4
 64
     7
 65
   257
 75
     1
175
     1
 42
1.0
 92
        0
 66
   257
 43
1.0
 76
     1
 77
     6
 78
     2
 67
     7
 79
     5
170
     0
171
     0
290
     0
174
     0
 93
        1
 44
0.0
173
     0
291
     0
 45
0.0
1001
ACAD
1000
AcDbSavedByObjectVersion
1070
     0
  0
VISUALSTYLE
  5
32
102
{ACAD_REACTORS
330
2A
102
}
102
{ACAD_XDICTIONARY
360
372
102
}
330
2A
100
AcDbVisualStyle
  2
Basic
 70
     7
 71
     1
 72
     0
 73
     1
 90
        0
 40
0.6
 41
30.0
 62
     5
 63
     7
421
 16777215
 74
     0
 91
        4
 64
     7
 65
   257
 75
     1
175
     1
 42
1.0
 92
        8
 66
     7
 43
1.0
 76
     1
 77
     6
 78
     2
 67
     7
 79
     5
170
     0
171
     0
290
     0
174
     0
 93
        1
 44
0.0
173
     0
291
     1
 45
0.0
1001
ACAD
1000
AcDbSavedByObjectVersion
1070
     0
  0
VISUALSTYLE
  5
36
102
{ACAD_REACTORS
330
2A
102
}
102
{ACAD_XDICTIONARY
360
37A
102
}
330
2A
100
AcDbVisualStyle
  2
Brighten
 70
    12
 71
     2
 72
     2
 73
     0
 90
        0
 40
0.6
 41
30.0
 62
     5
 63
     7
421
 16777215
 74
     1
 91
        4
 64
     7
 65
   257
 75
     1
175
     1
 42
1.0
 92
        8
 66
     7
 43
1.0
 76
     1
 77
     6
 78
     2
 67
     7
 79
     5
170
     0
171
     0
290
     0
174
     0
 93
        1
 44
50.0
173
     0
291
     1
 45
0.0
1001
ACAD
1000
AcDbSavedByObjectVersion
1070
     0
  0
VISUALSTYLE
  5
3A
102
{ACAD_REACTORS
330
2A
102
}
102
{ACAD_XDICTIONARY
360
382
102
}
330
2A
100
AcDbVisualStyle
  2
ColorChange
 70
    16
 71
     2
 72
     2
 73
     3
 90
        0
 40
0.6
 41
30.0
 62
     5
 63
     8
421
  8421504
 74
     1
 91
        4
 64
     7
 65
   257
 75
     1
175
     1
 42
1.0
 92
        8
 66
     8
424
  8421504
 43
1.0
 76
     1
 77
     6
 78
     2
 67
     7
 79
     5
170
     0
171
     0
290
     0
174
     0
 93
        1
 44
0.0
173
     0
291
     1
 45
0.0
1001
ACAD
1000
AcDbSavedByObjectVersion
1070
     0
  0
VISUALSTYLE
  5
34
102
{ACAD_REACTORS
330
2A
102
}
102
{ACAD_XDICTIONARY
360
376
102
}
330
2A
100
AcDbVisualStyle
  2
Conceptual
 70
     9
 71
     3
 72
     2
 73
     0
 90
        0
 40
0.6
 41
30.0
 62
     5
 63
     7
421
 16777215
 74
     2
 91
        2
 64
     7
 65
   257
 75
     1
175
     1
 42
179.0
 92
        8
 66
     7
 43
1.0
 76
     1
 77
     6
 78
     2
 67
     7
 79
     3
170
     0
171
     0
290
     0
174
     0
 93
        1
 44
0.0
173
     0
291
     0
 45
0.0
1001
ACAD
1000
AcDbSavedByObjectVersion
1070
     0
  0
VISUALSTYLE
  5
35
102
{ACAD_REACTORS
330
2A
102
}
102
{ACAD_XDICTIONARY
360
378
102
}
330
2A
100
AcDbVisualStyle
  2
Dim
 70
    11
 71
     2
 72
     2
 73
     0
 90
        0
 40
0.6
 41
30.0
 62
     5
 63
     7
421
 16777215
 74
     1
 91
        4
 64
     7
 65
   257
 75
     1
175
     1
 42
1.0
 92
        8
 66
     7
 43
1.0
 76
     1
 77
     6
 78
     2
 67
     7
 79
     5
170
     0
171
     0
290
     0
174
     0
 93
        1
 44
-50.0
173
     0
291
     1
 45
0.0
1001
ACAD
1000
AcDbSavedByObjectVersion
1070
     0
  0
VISUALSTYLE
  5
3D
102
{ACAD_REACTORS
330
2A
102
}
102
{ACAD_XDICTIONARY
360
388
102
}
330
2A
100
AcDbVisualStyle
  2
EdgeColorOff
 70
    22
 71
     2
 72
     2
 73
     0
 90
        0
 40
0.6
 41
30.0
 62
     5
 63
     7
421
 16777215
 74
     1
 91
        4
 64
     7
 65
   257
 75
     1
175
     1
 42
1.0
 92
        8
 66
     7
 43
1.0
 76
     1
 77
     6
 78
     2
 67
     7
 79
     5
170
     0
171
     0
290
     0
174
     0
 93
        1
 44
0.0
173
     0
291
     1
 45
0.0
1001
ACAD
1000
AcDbSavedByObjectVersion
1070
     0
  0
VISUALSTYLE
  5
39
102
{ACAD_REACTORS
330
2A
102
}
102
{ACAD_XDICTIONARY
360
380
102
}
330
2A
100
AcDbVisualStyle
  2
Facepattern
 70
    15
 71
     2
 72
     2
 73
     0
 90
        0
 40
0.6
 41
30.0
 62
     5
 63
     7
421
 16777215
 74
     1
 91
        4
 64
     7
 65
   257
 75
     1
175
     1
 42
1.0
 92
        8
 66
     7
 43
1.0
 76
     1
 77
     6
 78
     2
 67
     7
 79
     5
170
     0
171
     0
290
     0
174
     0
 93
        1
 44
0.0
173
     0
291
     1
 45
0.0
1001
ACAD
1000
AcDbSavedByObjectVersion
1070
     0
  0
VISUALSTYLE
  5
2B
102
{ACAD_REACTORS
330
2A
102
}
102
{ACAD_XDICTIONARY
360
364
102
}
330
2A
100
AcDbVisualStyle
  2
Flat
 70
     0
 71
     2
 72
     1
 73
     1
 90
        2
 40
0.6
 41
30.0
 62
     5
 63
     7
421
 16777215
 74
     0
 91
        0
 64
     7
 65
   257
 75
     1
175
     1
 42
1.0
 92
        8
 66
     7
 43
1.0
 76
     1
 77
     6
 78
     2
 67
     7
 79
     5
170
     0
171
     0
290
     0
174
     0
 93
       13
 44
0.0
173
     0
291
     1
 45
0.0
1001
ACAD
1000
AcDbSavedByObjectVersion
1070
     0
  0
VISUALSTYLE
  5
2C
102
{ACAD_REACTORS
330
2A
102
}
102
{ACAD_XDICTIONARY
360
366
102
}
330
2A
100
AcDbVisualStyle
  2
FlatWithEdges
 70
     1
 71
     2
 72
     1
 73
     1
 90
        2
 40
0.6
 41
30.0
 62
     5
 63
     7
421
 16777215
 74
     1
 91
        0
 64
     7
 65
   257
 75
     1
175
     1
 42
1.0
 92
        0
 66
   257
 43
1.0
 76
     1
 77
     6
 78
     2
 67
     7
 79
     5
170
     0
171
     0
290
     0
174
     0
 93
       13
 44
0.0
173
     0
291
     1
 45
0.0
1001
ACAD
1000
AcDbSavedByObjectVersion
1070
     0
  0
VISUALSTYLE
  5
2D
102
{ACAD_REACTORS
330
2A
102
}
102
{ACAD_XDICTIONARY
360
368
102
}
330
2A
100
AcDbVisualStyle
  2
Gouraud
 70
     2
 71
     2
 72
     2
 73
     1
 90
        2
 40
0.6
 41
30.0
 62
     5
 63
     7
421
 16777215
 74
     0
 91
        0
 64
     7
 65
   257
 75
     1
175
     1
 42
1.0
 92
        0
 66
     7
 43
1.0
 76
     1
 77
     6
 78
     2
 67
     7
 79
     5
170
     0
171
     0
290
     0
174
     0
 93
       13
 44
0.0
173
     0
291
     1
 45
0.0
1001
ACAD
1000
AcDbSavedByObjectVersion
1070
     0
  0
VISUALSTYLE
  5
2E
102
{ACAD_REACTORS
330
2A
102
}
102
{ACAD_XDICTIONARY
360
36A
102
}
330
2A
100
AcDbVisualStyle
  2
GouraudWithEdges
 70
     3
 71
     2
 72
     2
 73
     1
 90
        2
 40
0.6
 41
30.0
 62
     5
 63
     7
421
 16777215
 74
     1
 91
        0
 64
     7
 65
   257
 75
     1
175
     1
 42
1.0
 92
        0
 66
   257
 43
1.0
 76
     1
 77
     6
 78
     2
 67
     7
 79
     5
170
     0
171
     0
290
     0
174
     0
 93
       13
 44
0.0
173
     0
291
     1
 45
0.0
1001
ACAD
1000
AcDbSavedByObjectVersion
1070
     0
  0
VISUALSTYLE
  5
31
102
{ACAD_REACTORS
330
2A
102
}
102
{ACAD_XDICTIONARY
360
370
102
}
330
2A
100
AcDbVisualStyle
  2
Hidden
 70
     6
 71
     1
 72
     2
 73
     2
 90
        0
 40
0.6
 41
30.0
 62
     5
 63
     7
421
 16777215
 74
     2
 91
        2
 64
     7
 65
   257
 75
     2
175
     1
 42
40.0
 92
        0
 66
   257
 43
1.0
 76
     1
 77
     6
 78
     2
 67
     7
 79
     3
170
     0
171
     0
290
     0
174
     0
 93
        1
 44
0.0
173
     0
291
     0
 45
0.0
1001
ACAD
1000
AcDbSavedByObjectVersion
1070
     0
  0
VISUALSTYLE
  5
3B
102
{ACAD_REACTORS
330
2A
102
}
102
{ACAD_XDICTIONARY
360
384
102
}
330
2A
100
AcDbVisualStyle
  2
JitterOff
 70
    20
 71
     2
 72
     2
 73
     0
 90
        0
 40
0.6
 41
30.0
 62
     5
 63
     7
421
 16777215
 74
     1
 91
        4
 64
     7
 65
   257
 75
     1
175
     1
 42
1.0
 92
       10
 66
     7
 43
1.0
 76
     1
 77
     6
 78
     2
 67
     7
 79
     5
170
     0
171
     0
290
     0
174
     0
 93
        1
 44
0.0
173
     0
291
     1
 45
0.0
1001
ACAD
1000
AcDbSavedByObjectVersion
1070
     0
  0
VISUALSTYLE
  5
38
102
{ACAD_REACTORS
330
2A
102
}
102
{ACAD_XDICTIONARY
360
37E
102
}
330
2A
100
AcDbVisualStyle
  2
Linepattern
 70
    14
 71
     2
 72
     2
 73
     0
 90
        0
 40
0.6
 41
30.0
 62
     5
 63
     7
421
 16777215
 74
     1
 91
        4
 64
     7
 65
   257
 75
     7
175
     7
 42
1.0
 92
        8
 66
     7
 43
1.0
 76
     1
 77
     6
 78
     2
 67
     7
 79
     5
170
     0
171
     0
290
     0
174
     0
 93
        1
 44
0.0
173
     0
291
     1
 45
0.0
1001
ACAD
1000
AcDbSavedByObjectVersion
1070
     0
  0
VISUALSTYLE
  5
3C
102
{ACAD_REACTORS
330
2A
102
}
102
{ACAD_XDICTIONARY
360
386
102
}
330
2A
100
AcDbVisualStyle
  2
OverhangOff
 70
    21
 71
     2
 72
     2
 73
     0
 90
        0
 40
0.6
 41
30.0
 62
     5
 63
     7
421
 16777215
 74
     1
 91
        4
 64
     7
 65
   257
 75
     1
175
     1
 42
1.0
 92
        9
 66
     7
 43
1.0
 76
     1
 77
     6
 78
     2
 67
     7
 79
     5
170
     0
171
     0
290
     0
174
     0
 93
        1
 44
0.0
173
     0
291
     1
 45
0.0
1001
ACAD
1000
AcDbSavedByObjectVersion
1070
     0
  0
VISUALSTYLE
  5
33
102
{ACAD_REACTORS
330
2A
102
}
102
{ACAD_XDICTIONARY
360
374
102
}
330
2A
100
AcDbVisualStyle
  2
Realistic
 70
     8
 71
     2
 72
     3
 73
     0
 90
        2
 40
0.6
 41
30.0
 62
     5
 63
     7
421
 16777215
 74
     0
 91
        0
 64
     7
 65
   257
 75
     1
175
     1
 42
1.0
 92
        8
 66
   257
 43
1.0
 76
     1
 77
     6
 78
     2
 67
     7
 79
     3
170
     0
171
     0
290
     0
174
     0
 93
       13
 44
0.0
173
     0
291
     0
 45
0.0
1001
ACAD
1000
AcDbSavedByObjectVersion
1070
     0
  0
VISUALSTYLE
  5
42
102
{ACAD_REACTORS
330
2A
102
}
102
{ACAD_XDICTIONARY
360
392
102
}
330
2A
100
AcDbVisualStyle
  2
Shaded
 70
    27
 71
     2
 72
     2
 73
     1
 90
        2
 40
0.6
 41
30.0
 62
     5
 63
     7
421
 16777215
 74
     0
 91
        4
 64
     7
 65
   257
 75
     1
175
     1
 42
1.0
 92
        8
 66
   257
 43
1.0
 76
     1
 77
     6
 78
     2
 67
     8
425
  7895160
 79
     3
170
     0
171
     0
290
     0
174
     0
 93
        5
 44
0.0
173
     0
291
     0
 45
0.0
1001
ACAD
1000
AcDbSavedByObjectVersion
1070
     0
  0
VISUALSTYLE
  5
41
102
{ACAD_REACTORS
330
2A
102
}
102
{ACAD_XDICTIONARY
360
390
102
}
330
2A
100
AcDbVisualStyle
  2
Shaded with edges
 70
    26
 71
     2
 72
     2
 73
     1
 90
        2
 40
0.6
 41
30.0
 62
     5
 63
     7
421
 16777215
 74
     1
 91
       10
 64
     7
 65
   257
 75
     2
175
     1
 42
1.0
 92
        8
 66
   257
 43
1.0
 76
     1
 77
     6
 78
     2
 67
     7
 79
     3
170
     0
171
     0
290
     0
174
     0
 93
        5
 44
0.0
173
     0
291
     0
 45
0.0
1001
ACAD
1000
AcDbSavedByObjectVersion
1070
     0
  0
VISUALSTYLE
  5
3E
102
{ACAD_REACTORS
330
2A
102
}
102
{ACAD_XDICTIONARY
360
38A
102
}
330
2A
100
AcDbVisualStyle
  2
Shades of Gray
 70
    23
 71
     2
 72
     2
 73
     3
 90
        0
 40
0.6
 41
30.0
 62
     5
 63
     7
421
 16777215
 74
     2
 91
        2
 64
     7
 65
     7
 75
     1
175
     1
 42
40.0
 92
        8
 66
     7
 43
1.0
 76
     1
 77
     6
 78
     2
 67
     7
 79
     3
170
     0
171
     0
290
     0
174
     0
 93
        1
 44
0.0
173
     0
291
     0
 45
0.0
1001
ACAD
1000
AcDbSavedByObjectVersion
1070
     0
  0
VISUALSTYLE
  5
3F
102
{ACAD_REACTORS
330
2A
102
}
102
{ACAD_XDICTIONARY
360
38C
102
}
330
2A
100
AcDbVisualStyle
  2
Sketchy
 70
    24
 71
     1
 72
     2
 73
     2
 90
        0
 40
0.6
 41
30.0
 62
     5
 63
     7
421
 16777215
 74
     2
 91
        2
 64
     7
 65
     7
 75
     1
175
     1
 42
40.0
 92
       11
 66
     7
 43
1.0
 76
     1
 77
     6
 78
     2
 67
     7
 79
     6
170
     0
171
     0
290
     0
174
     0
 93
        1
 44
0.0
173
     0
291
     0
 45
0.0
1001
ACAD
1000
AcDbSavedByObjectVersion
1070
     0
  0
VISUALSTYLE
  5
37
102
{ACAD_REACTORS
330
2A
102
}
102
{ACAD_XDICTIONARY
360
37C
102
}
330
2A
100
AcDbVisualStyle
  2
Thicken
 70
    13
 71
     2
 72
     2
 73
     0
 90
        0
 40
0.6
 41
30.0
 62
     5
 63
     7
421
 16777215
 74
     1
 91
        4
 64
     7
 65
   257
 75
     1
175
     1
 42
1.0
 92
       12
 66
     7
 43
1.0
 76
     1
 77
     6
 78
     2
 67
     7
 79
     5
170
     0
171
     0
290
     0
174
     0
 93
        1
 44
0.0
173
     0
291
     1
 45
0.0
1001
ACAD
1000
AcDbSavedByObjectVersion
1070
     0
  0
VISUALSTYLE
  5
30
102
{ACAD_REACTORS
330
2A
102
}
102
{ACAD_XDICTIONARY
360
36E
102
}
330
2A
100
AcDbVisualStyle
  2
Wireframe
 70
     5
 71
     0
 72
     2
 73
     0
 90
        0
 40
0.6
 41
30.0
 62
     5
 63
     7
421
 16777215
 74
     1
 91
        4
 64
     7
 65
   257
 75
     1
175
     1
 42
1.0
 92
        0
 66
   257
 43
1.0
 76
     1
 77
     6
 78
     2
 67
     7
 79
     3
170
     0
171
     0
290
     0
174
     0
 93
        1
 44
0.0
173
     0
291
     0
 45
0.0
1001
ACAD
1000
AcDbSavedByObjectVersion
1070
     0
  0
VISUALSTYLE
  5
40
102
{ACAD_REACTORS
330
2A
102
}
102
{ACAD_XDICTIONARY
360
38E
102
}
330
2A
100
AcDbVisualStyle
  2
X-Ray
 70
    25
 71
     2
 72
     2
 73
     1
 90
        1
 40
0.5
 41
30.0
 62
     5
 63
     7
421
 16777215
 74
     1
 91
        0
 64
     7
 65
   257
 75
     1
175
     1
 42
1.0
 92
        8
 66
     7
 43
1.0
 76
     1
 77
     6
 78
     2
 67
     7
 79
     3
170
     0
171
     0
290
     0
174
     0
 93
       13
 44
0.0
173
     0
291
     0
 45
0.0
1001
ACAD
1000
AcDbSavedByObjectVersion
1070
     0
  0
DICTIONARYVAR
  5
361
102
{ACAD_REACTORS
330
360
102
}
330
360
100
DictionaryVariables
280
     0
  1
1:1
  0
DICTIONARYVAR
  5
3A5
102
{ACAD_REACTORS
330
360
102
}
330
360
100
DictionaryVariables
280
     0
  1
3.500000
  0
DICTIONARYVAR
  5
3A6
102
{ACAD_REACTORS
330
360
102
}
330
360
100
DictionaryVariables
280
     0
  1
acadiso.lin
  0
DICTIONARYVAR
  5
3A2
102
{ACAD_REACTORS
330
360
102
}
330
360
100
DictionaryVariables
280
     0
  1
Standard
  0
DICTIONARYVAR
  5
3A1
102
{ACAD_REACTORS
330
360
102
}
330
360
100
DictionaryVariables
280
     0
  1
Standard
  0
DICTIONARYVAR
  5
362
102
{ACAD_REACTORS
330
360
102
}
330
360
100
DictionaryVariables
280
     0
  1
1
  0
DICTIONARYVAR
  5
363
102
{ACAD_REACTORS
330
360
102
}
330
360
100
DictionaryVariables
280
     0
  1
2
  0
DICTIONARY
  5
396
330
45
100
AcDbDictionary
280
     1
281
     1
  3
ACAD_XREC_ROUNDTRIP
360
397
  0
DICTIONARY
  5
394
330
44
100
AcDbDictionary
280
     1
281
     1
  3
ACAD_XREC_ROUNDTRIP
360
395
  0
DICTIONARY
  5
398
330
46
100
AcDbDictionary
280
     1
281
     1
  3
ACAD_XREC_ROUNDTRIP
360
399
  0
DICTIONARY
  5
39E
330
6C
100
AcDbDictionary
280
     1
281
     1
  3
ACAD_XREC_ROUNDTRIP
360
39F
  0
DICTIONARY
  5
39A
330
6A
100
AcDbDictionary
280
     1
281
     1
  3
ACAD_ROUNDTRIP_2008_TABLESTYLE_CELLSTYLEMAP
360
39C
  3
ACAD_XREC_ROUNDTRIP
360
39B
  0
DICTIONARY
  5
36C
330
2F
100
AcDbDictionary
280
     1
281
     1
  3
ACAD_XREC_ROUNDTRIP
360
36D
  0
DICTIONARY
  5
372
330
32
100
AcDbDictionary
280
     1
281
     1
  3
ACAD_XREC_ROUNDTRIP
360
373
  0
DICTIONARY
  5
37A
330
36
100
AcDbDictionary
280
     1
281
     1
  3
ACAD_XREC_ROUNDTRIP
360
37B
  0
DICTIONARY
  5
382
330
3A
100
AcDbDictionary
280
     1
281
     1
  3
ACAD_XREC_ROUNDTRIP
360
383
  0
DICTIONARY
  5
376
330
34
100
AcDbDictionary
280
     1
281
     1
  3
ACAD_XREC_ROUNDTRIP
360
377
  0
DICTIONARY
  5
378
330
35
100
AcDbDictionary
280
     1
281
     1
  3
ACAD_XREC_ROUNDTRIP
360
379
  0
DICTIONARY
  5
388
330
3D
100
AcDbDictionary
280
     1
281
     1
  3
ACAD_XREC_ROUNDTRIP
360
389
  0
DICTIONARY
  5
380
330
39
100
AcDbDictionary
280
     1
281
     1
  3
ACAD_XREC_ROUNDTRIP
360
381
  0
DICTIONARY
  5
364
330
2B
100
AcDbDictionary
280
     1
281
     1
  3
ACAD_XREC_ROUNDTRIP
360
365
  0
DICTIONARY
  5
366
330
2C
100
AcDbDictionary
280
     1
281
     1
  3
ACAD_XREC_ROUNDTRIP
360
367
  0
DICTIONARY
  5
368
330
2D
100
AcDbDictionary
280
     1
281
     1
  3
ACAD_XREC_ROUNDTRIP
360
369
  0
DICTIONARY
  5
36A
330
2E
100
AcDbDictionary
280
     1
281
     1
  3
ACAD_XREC_ROUNDTRIP
360
36B
  0
DICTIONARY
  5
370
330
31
100
AcDbDictionary
280
     1
281
     1
  3
ACAD_XREC_ROUNDTRIP
360
371
  0
DICTIONARY
  5
384
330
3B
100
AcDbDictionary
280
     1
281
     1
  3
ACAD_XREC_ROUNDTRIP
360
385
  0
DICTIONARY
  5
37E
330
38
100
AcDbDictionary
280
     1
281
     1
  3
ACAD_XREC_ROUNDTRIP
360
37F
  0
DICTIONARY
  5
386
330
3C
100
AcDbDictionary
280
     1
281
     1
  3
ACAD_XREC_ROUNDTRIP
360
387
  0
DICTIONARY
  5
374
330
33
100
AcDbDictionary
280
     1
281
     1
  3
ACAD_XREC_ROUNDTRIP
360
375
  0
DICTIONARY
  5
392
330
42
100
AcDbDictionary
280
     1
281
     1
  3
ACAD_XREC_ROUNDTRIP
360
393
  0
DICTIONARY
  5
390
330
41
100
AcDbDictionary
280
     1
281
     1
  3
ACAD_XREC_ROUNDTRIP
360
391
  0
DICTIONARY
  5
38A
330
3E
100
AcDbDictionary
280
     1
281
     1
  3
ACAD_XREC_ROUNDTRIP
360
38B
  0
DICTIONARY
  5
38C
330
3F
100
AcDbDictionary
280
     1
281
     1
  3
ACAD_XREC_ROUNDTRIP
360
38D
  0
DICTIONARY
  5
37C
330
37
100
AcDbDictionary
280
     1
281
     1
  3
ACAD_XREC_ROUNDTRIP
360
37D
  0
DICTIONARY
  5
36E
330
30
100
AcDbDictionary
280
     1
281
     1
  3
ACAD_XREC_ROUNDTRIP
360
36F
  0
DICTIONARY
  5
38E
330
40
100
AcDbDictionary
280
     1
281
     1
  3
ACAD_XREC_ROUNDTRIP
360
38F
  0
XRECORD
  5
397
102
{ACAD_REACTORS
330
396
102
}
330
396
100
AcDbXrecord
280
     1
102
MATERIAL
148
0.0
149
0.0
149
0.0
 93
        0
 94
      127
282
     0
 72
     1
 77
     1
171
     1
175
     1
179
     1
273
     0
  0
XRECORD
  5
395
102
{ACAD_REACTORS
330
394
102
}
330
394
100
AcDbXrecord
280
     1
102
MATERIAL
148
0.0
149
0.0
149
0.0
 93
        0
 94
      127
282
     0
 72
     1
 77
     1
171
     1
175
     1
179
     1
273
     0
  0
XRECORD
  5
399
102
{ACAD_REACTORS
330
398
102
}
330
398
100
AcDbXrecord
280
     1
102
MATERIAL
148
0.0
149
0.0
149
0.0
 93
        0
 94
      127
282
     0
 72
     1
 77
     1
171
     1
175
     1
179
     1
273
     0
  0
XRECORD
  5
39F
102
{ACAD_REACTORS
330
39E
102
}
330
39E
100
AcDbXrecord
280
     1
102
ACAD_ROUNDTRIP_2010_MLEADER_STYLE
  0
CELLSTYLEMAP
  5
39C
102
{ACAD_REACTORS
330
39A
102
}
330
39A
100
AcDbCellStyleMap
 90
        3
300
CELLSTYLE
  1
TABLEFORMAT_BEGIN
 90
        5
170
     1
 91
        0
 92
    32768
 62
   257
 93
        1
300
CONTENTFORMAT
  1
CONTENTFORMAT_BEGIN
 90
        0
 91
        0
 92
        4
 93
        0
300

 40
0.0
140
1.0
 94
        5
 62
     0
340
11
144
6.0
309
CONTENTFORMAT_END
171
     1
301
MARGIN
  1
CELLMARGIN_BEGIN
 40
1.5
 40
1.5
 40
1.5
 40
1.5
 40
1.5
 40
1.5
309
CELLMARGIN_END
 94
        6
 95
        1
302
GRIDFORMAT
  1
GRIDFORMAT_BEGIN
 90
        0
 91
        1
 62
     0
 92
       -2
340
14
 93
        0
 40
0.045
309
GRIDFORMAT_END
 95
        2
302
GRIDFORMAT
  1
GRIDFORMAT_BEGIN
 90
        0
 91
        1
 62
     0
 92
       -2
340
14
 93
        0
 40
0.045
309
GRIDFORMAT_END
 95
        4
302
GRIDFORMAT
  1
GRIDFORMAT_BEGIN
 90
        0
 91
        1
 62
     0
 92
       -2
340
14
 93
        0
 40
0.045
309
GRIDFORMAT_END
 95
        8
302
GRIDFORMAT
  1
GRIDFORMAT_BEGIN
 90
        0
 91
        1
 62
     0
 92
       -2
340
14
 93
        0
 40
0.045
309
GRIDFORMAT_END
 95
       16
302
GRIDFORMAT
  1
GRIDFORMAT_BEGIN
 90
        0
 91
        1
 62
     0
 92
       -2
340
14
 93
        0
 40
0.045
309
GRIDFORMAT_END
 95
       32
302
GRIDFORMAT
  1
GRIDFORMAT_BEGIN
 90
        0
 91
        1
 62
     0
 92
       -2
340
14
 93
        0
 40
0.045
309
GRIDFORMAT_END
309
TABLEFORMAT_END
  1
CELLSTYLE_BEGIN
 90
        1
 91
        1
300
_TITLE
309
CELLSTYLE_END
300
CELLSTYLE
  1
TABLEFORMAT_BEGIN
 90
        5
170
     1
 91
        0
 92
        0
 62
   257
 93
        1
300
CONTENTFORMAT
  1
CONTENTFORMAT_BEGIN
 90
        0
 91
        0
 92
        4
 93
        0
300

 40
0.0
140
1.0
 94
        5
 62
     0
340
11
144
4.5
309
CONTENTFORMAT_END
171
     1
301
MARGIN
  1
CELLMARGIN_BEGIN
 40
1.5
 40
1.5
 40
1.5
 40
1.5
 40
1.5
 40
1.5
309
CELLMARGIN_END
 94
        6
 95
        1
302
GRIDFORMAT
  1
GRIDFORMAT_BEGIN
 90
        0
 91
        1
 62
     0
 92
       -2
340
14
 93
        0
 40
0.045
309
GRIDFORMAT_END
 95
        2
302
GRIDFORMAT
  1
GRIDFORMAT_BEGIN
 90
        0
 91
        1
 62
     0
 92
       -2
340
14
 93
        0
 40
0.045
309
GRIDFORMAT_END
 95
        4
302
GRIDFORMAT
  1
GRIDFORMAT_BEGIN
 90
        0
 91
        1
 62
     0
 92
       -2
340
14
 93
        0
 40
0.045
309
GRIDFORMAT_END
 95
        8
302
GRIDFORMAT
  1
GRIDFORMAT_BEGIN
 90
        0
 91
        1
 62
     0
 92
       -2
340
14
 93
        0
 40
0.045
309
GRIDFORMAT_END
 95
       16
302
GRIDFORMAT
  1
GRIDFORMAT_BEGIN
 90
        0
 91
        1
 62
     0
 92
       -2
340
14
 93
        0
 40
0.045
309
GRIDFORMAT_END
 95
       32
302
GRIDFORMAT
  1
GRIDFORMAT_BEGIN
 90
        0
 91
        1
 62
     0
 92
       -2
340
14
 93
        0
 40
0.045
309
GRIDFORMAT_END
309
TABLEFORMAT_END
  1
CELLSTYLE_BEGIN
 90
        2
 91
        1
300
_HEADER
309
CELLSTYLE_END
300
CELLSTYLE
  1
TABLEFORMAT_BEGIN
 90
        5
170
     1
 91
        0
 92
        0
 62
   257
 93
        1
300
CONTENTFORMAT
  1
CONTENTFORMAT_BEGIN
 90
        0
 91
        0
 92
        4
 93
        0
300

 40
0.0
140
1.0
 94
        2
 62
     0
340
11
144
4.5
309
CONTENTFORMAT_END
171
     1
301
MARGIN
  1
CELLMARGIN_BEGIN
 40
1.5
 40
1.5
 40
1.5
 40
1.5
 40
1.5
 40
1.5
309
CELLMARGIN_END
 94
        6
 95
        1
302
GRIDFORMAT
  1
GRIDFORMAT_BEGIN
 90
        0
 91
        1
 62
     0
 92
       -2
340
14
 93
        0
 40
0.045
309
GRIDFORMAT_END
 95
        2
302
GRIDFORMAT
  1
GRIDFORMAT_BEGIN
 90
        0
 91
        1
 62
     0
 92
       -2
340
14
 93
        0
 40
0.045
309
GRIDFORMAT_END
 95
        4
302
GRIDFORMAT
  1
GRIDFORMAT_BEGIN
 90
        0
 91
        1
 62
     0
 92
       -2
340
14
 93
        0
 40
0.045
309
GRIDFORMAT_END
 95
        8
302
GRIDFORMAT
  1
GRIDFORMAT_BEGIN
 90
        0
 91
        1
 62
     0
 92
       -2
340
14
 93
        0
 40
0.045
309
GRIDFORMAT_END
 95
       16
302
GRIDFORMAT
  1
GRIDFORMAT_BEGIN
 90
        0
 91
        1
 62
     0
 92
       -2
340
14
 93
        0
 40
0.045
309
GRIDFORMAT_END
 95
       32
302
GRIDFORMAT
  1
GRIDFORMAT_BEGIN
 90
        0
 91
        1
 62
     0
 92
       -2
340
14
 93
        0
 40
0.045
309
GRIDFORMAT_END
309
TABLEFORMAT_END
  1
CELLSTYLE_BEGIN
 90
        3
 91
        2
300
_DATA
309
CELLSTYLE_END
  0
XRECORD
  5
39B
102
{ACAD_REACTORS
330
39A
102
}
330
39A
100
AcDbXrecord
280
     1
102
ACAD_ROUNDTRIP_PRE2007_TABLESTYLE
 90
        4
 91
        0
  1

 92
        4
 93
        0
  2

 94
        4
 95
        0
  3

  0
XRECORD
  5
36D
102
{ACAD_REACTORS
330
36C
102
}
330
36C
100
AcDbXrecord
280
     1
102
RTVSPropertyOp0
 70
     1
102
RTVSPropertyOp1
 70
     1
102
RTVSPropertyOp2
 70
     1
102
RTVSPropertyOp3
 70
     1
102
RTVSPropertyOp4
 70
     1
102
RTVSPropertyOp5
 70
     1
102
RTVSPropertyOp6
 70
     1
102
RTVSPropertyOp7
 70
     1
102
RTVSPropertyOp8
 70
     1
102
RTVSPropertyOp9
 70
     1
102
RTVSPropertyOp10
 70
     1
102
RTVSPropertyOp11
 70
     1
102
RTVSPropertyOp12
 70
     1
102
RTVSPropertyOp13
 70
     1
102
RTVSPropertyOp14
 70
     1
102
RTVSPropertyOp15
 70
     1
102
RTVSPropertyOp16
 70
     1
102
RTVSPropertyOp17
 70
     1
102
RTVSPropertyOp18
 70
     1
102
RTVSPropertyOp19
 70
     1
102
RTVSPropertyOp20
 70
     1
102
RTVSPropertyOp21
 70
     1
102
RTVSPropertyOp22
 70
     1
102
RTVSPropertyOp23
 70
     1
102
RTVSPropertyOp24
 70
     1
102
RTVSPropertyOp25
 70
     1
102
RTVSPropertyOp26
 70
     1
102
RTVSPropertyOp27
 70
     1
102
RTVSPropertyOp28
 70
     1
102
RTVSPropertyOp29
 70
     1
102
RTVSPropertyOp30
 70
     1
102
RTVSPropertyOp31
 70
     1
102
RTVSPropertyOp32
 70
     1
102
RTVSPropertyOp33
 70
     1
102
RTVSPropertyOp34
 70
     1
102
RTVSPropertyOp35
 70
     1
102
RTVSPropertyOp36
 70
     1
102
RTVSPropertyOp37
 70
     1
102
RTVSPropertyOp38
 70
     1
102
RTVSPropertyOp39
 70
     1
102
RTVSPropertyOp40
 70
     1
102
RTVSPropertyOp41
 70
     1
102
RTVSPropertyOp42
 70
     1
102
RTVSPropertyOp43
 70
     1
102
RTVSPropertyOp44
 70
     1
102
RTVSPropertyOp45
 70
     1
102
RTVSPropertyOp46
 70
     1
102
RTVSPropertyOp47
 70
     1
102
RTVSPropertyOp48
 70
     1
102
RTVSPropertyOp49
 70
     1
102
RTVSPropertyOp50
 70
     1
102
RTVSPropertyOp51
 70
     0
102
RTVSPropertyOp52
 70
     0
102
RTVSPropertyOp53
 70
     1
102
RTVSPropertyOp54
 70
     1
102
RTVSPropertyOp55
 70
     1
102
RTVSPropertyOp56
 70
     1
102
RTVSPropertyOp57
 70
     1
102
RTVSPost2010Prop28
280
     1
102
RTVSPost2010PropOp28
 70
     1
102
RTVSPost2010Prop29
280
     1
102
RTVSPost2010PropOp29
 70
     1
102
RTVSPost2010Prop30
280
     0
102
RTVSPost2010PropOp30
 70
     1
102
RTVSPost2010Prop31
280
     0
102
RTVSPost2010PropOp31
 70
     1
102
RTVSPost2010Prop32
280
     0
102
RTVSPost2010PropOp32
 70
     1
102
RTVSPost2010Prop33
280
     0
102
RTVSPost2010PropOp33
 70
     1
102
RTVSPost2010Prop34
280
     0
102
RTVSPost2010PropOp34
 70
     1
102
RTVSPost2010Prop35
280
     0
102
RTVSPost2010PropOp35
 70
     1
102
RTVSPost2010Prop36
280
     0
102
RTVSPost2010PropOp36
 70
     1
102
RTVSPost2010Prop37
 90
       50
102
RTVSPost2010PropOp37
 70
     1
102
RTVSPost2010Prop38
140
0.0
102
RTVSPost2010PropOp38
 70
     1
102
RTVSPost2010Prop39
140
1.0
102
RTVSPost2010PropOp39
 70
     1
102
RTVSPost2010Prop40
 90
        0
102
RTVSPost2010PropOp40
 70
     1
102
RTVSPost2010Prop41ColorIndex
 90
       18
102
RTVSPost2010Prop41ColorRGB
 90
        0
102
RTVSPost2010PropOp41
 70
     1
102
RTVSPost2010Prop42
 90
       50
102
RTVSPost2010PropOp42
 70
     1
102
RTVSPost2010Prop43
 90
        3
102
RTVSPost2010PropOp43
 70
     1
102
RTVSPost2010Prop44ColorIndex
 90
        5
102
RTVSPost2010Prop44ColorRGB
 90
      255
102
RTVSPost2010PropOp44
 70
     1
102
RTVSPost2010Prop45
280
     0
102
RTVSPost2010PropOp45
 70
     1
102
RTVSPost2010Prop46
 90
       50
102
RTVSPost2010PropOp46
 70
     1
102
RTVSPost2010Prop47
 90
       50
102
RTVSPost2010PropOp47
 70
     1
102
RTVSPost2010Prop48
 90
       50
102
RTVSPost2010PropOp48
 70
     1
102
RTVSPost2010Prop49
280
     0
102
RTVSPost2010PropOp49
 70
     1
102
RTVSPost2010Prop50
 90
       50
102
RTVSPost2010PropOp50
 70
     1
102
RTVSPost2010Prop51ColorIndex
 90
      256
102
RTVSPost2010Prop51ColorRGB
 90
-16777216
102
RTVSPost2010PropOp51
 70
     0
102
RTVSPost2010Prop52
140
1.0
102
RTVSPost2010PropOp52
 70
     0
102
RTVSPost2010Prop53
 90
        2
102
RTVSPost2010PropOp53
 70
     1
102
RTVSPost2010Prop54
  1
strokes_ogs.tif
102
RTVSPost2010PropOp54
 70
     1
102
RTVSPost2010Prop55
280
     0
102
RTVSPost2010PropOp55
 70
     1
102
RTVSPost2010Prop56
140
1.0
102
RTVSPost2010PropOp56
 70
     1
102
RTVSPost2010Prop57
140
1.0
102
RTVSPost2010PropOp57
 70
     1
  0
XRECORD
  5
373
102
{ACAD_REACTORS
330
372
102
}
330
372
100
AcDbXrecord
280
     1
102
RTVSPropertyOp0
 70
     1
102
RTVSPropertyOp1
 70
     1
102
RTVSPropertyOp2
 70
     1
102
RTVSPropertyOp3
 70
     1
102
RTVSPropertyOp4
 70
     1
102
RTVSPropertyOp5
 70
     1
102
RTVSPropertyOp6
 70
     1
102
RTVSPropertyOp7
 70
     1
102
RTVSPropertyOp8
 70
     1
102
RTVSPropertyOp9
 70
     1
102
RTVSPropertyOp10
 70
     1
102
RTVSPropertyOp11
 70
     1
102
RTVSPropertyOp12
 70
     1
102
RTVSPropertyOp13
 70
     1
102
RTVSPropertyOp14
 70
     1
102
RTVSPropertyOp15
 70
     1
102
RTVSPropertyOp16
 70
     1
102
RTVSPropertyOp17
 70
     1
102
RTVSPropertyOp18
 70
     1
102
RTVSPropertyOp19
 70
     1
102
RTVSPropertyOp20
 70
     1
102
RTVSPropertyOp21
 70
     1
102
RTVSPropertyOp22
 70
     1
102
RTVSPropertyOp23
 70
     1
102
RTVSPropertyOp24
 70
     1
102
RTVSPropertyOp25
 70
     1
102
RTVSPropertyOp26
 70
     1
102
RTVSPropertyOp27
 70
     1
102
RTVSPropertyOp28
 70
     1
102
RTVSPropertyOp29
 70
     1
102
RTVSPropertyOp30
 70
     1
102
RTVSPropertyOp31
 70
     1
102
RTVSPropertyOp32
 70
     1
102
RTVSPropertyOp33
 70
     1
102
RTVSPropertyOp34
 70
     1
102
RTVSPropertyOp35
 70
     1
102
RTVSPropertyOp36
 70
     1
102
RTVSPropertyOp37
 70
     1
102
RTVSPropertyOp38
 70
     1
102
RTVSPropertyOp39
 70
     1
102
RTVSPropertyOp40
 70
     1
102
RTVSPropertyOp41
 70
     1
102
RTVSPropertyOp42
 70
     1
102
RTVSPropertyOp43
 70
     1
102
RTVSPropertyOp44
 70
     1
102
RTVSPropertyOp45
 70
     1
102
RTVSPropertyOp46
 70
     1
102
RTVSPropertyOp47
 70
     1
102
RTVSPropertyOp48
 70
     1
102
RTVSPropertyOp49
 70
     1
102
RTVSPropertyOp50
 70
     1
102
RTVSPropertyOp51
 70
     0
102
RTVSPropertyOp52
 70
     0
102
RTVSPropertyOp53
 70
     1
102
RTVSPropertyOp54
 70
     1
102
RTVSPropertyOp55
 70
     1
102
RTVSPropertyOp56
 70
     1
102
RTVSPropertyOp57
 70
     1
102
RTVSPost2010Prop28
280
     0
102
RTVSPost2010PropOp28
 70
     1
102
RTVSPost2010Prop29
280
     1
102
RTVSPost2010PropOp29
 70
     1
102
RTVSPost2010Prop30
280
     1
102
RTVSPost2010PropOp30
 70
     1
102
RTVSPost2010Prop31
280
     0
102
RTVSPost2010PropOp31
 70
     1
102
RTVSPost2010Prop32
280
     0
102
RTVSPost2010PropOp32
 70
     1
102
RTVSPost2010Prop33
280
     0
102
RTVSPost2010PropOp33
 70
     1
102
RTVSPost2010Prop34
280
     0
102
RTVSPost2010PropOp34
 70
     1
102
RTVSPost2010Prop35
280
     0
102
RTVSPost2010PropOp35
 70
     1
102
RTVSPost2010Prop36
280
     0
102
RTVSPost2010PropOp36
 70
     1
102
RTVSPost2010Prop37
 90
       50
102
RTVSPost2010PropOp37
 70
     1
102
RTVSPost2010Prop38
140
0.0
102
RTVSPost2010PropOp38
 70
     1
102
RTVSPost2010Prop39
140
1.0
102
RTVSPost2010PropOp39
 70
     1
102
RTVSPost2010Prop40
 90
        0
102
RTVSPost2010PropOp40
 70
     1
102
RTVSPost2010Prop41ColorIndex
 90
       18
102
RTVSPost2010Prop41ColorRGB
 90
        0
102
RTVSPost2010PropOp41
 70
     1
102
RTVSPost2010Prop42
 90
       50
102
RTVSPost2010PropOp42
 70
     1
102
RTVSPost2010Prop43
 90
        3
102
RTVSPost2010PropOp43
 70
     1
102
RTVSPost2010Prop44ColorIndex
 90
        5
102
RTVSPost2010Prop44ColorRGB
 90
      255
102
RTVSPost2010PropOp44
 70
     1
102
RTVSPost2010Prop45
280
     0
102
RTVSPost2010PropOp45
 70
     1
102
RTVSPost2010Prop46
 90
       50
102
RTVSPost2010PropOp46
 70
     1
102
RTVSPost2010Prop47
 90
       50
102
RTVSPost2010PropOp47
 70
     1
102
RTVSPost2010Prop48
 90
       50
102
RTVSPost2010PropOp48
 70
     1
102
RTVSPost2010Prop49
280
     0
102
RTVSPost2010PropOp49
 70
     1
102
RTVSPost2010Prop50
 90
       50
102
RTVSPost2010PropOp50
 70
     1
102
RTVSPost2010Prop51ColorIndex
 90
      256
102
RTVSPost2010Prop51ColorRGB
 90
-16777216
102
RTVSPost2010PropOp51
 70
     0
102
RTVSPost2010Prop52
140
1.0
102
RTVSPost2010PropOp52
 70
     0
102
RTVSPost2010Prop53
 90
        2
102
RTVSPost2010PropOp53
 70
     1
102
RTVSPost2010Prop54
  1
strokes_ogs.tif
102
RTVSPost2010PropOp54
 70
     1
102
RTVSPost2010Prop55
280
     0
102
RTVSPost2010PropOp55
 70
     1
102
RTVSPost2010Prop56
140
1.0
102
RTVSPost2010PropOp56
 70
     1
102
RTVSPost2010Prop57
140
1.0
102
RTVSPost2010PropOp57
 70
     1
  0
XRECORD
  5
37B
102
{ACAD_REACTORS
330
37A
102
}
330
37A
100
AcDbXrecord
280
     1
102
RTVSPropertyOp0
 70
     1
102
RTVSPropertyOp1
 70
     1
102
RTVSPropertyOp2
 70
     1
102
RTVSPropertyOp3
 70
     1
102
RTVSPropertyOp4
 70
     1
102
RTVSPropertyOp5
 70
     1
102
RTVSPropertyOp6
 70
     1
102
RTVSPropertyOp7
 70
     1
102
RTVSPropertyOp8
 70
     1
102
RTVSPropertyOp9
 70
     1
102
RTVSPropertyOp10
 70
     1
102
RTVSPropertyOp11
 70
     1
102
RTVSPropertyOp12
 70
     1
102
RTVSPropertyOp13
 70
     1
102
RTVSPropertyOp14
 70
     1
102
RTVSPropertyOp15
 70
     1
102
RTVSPropertyOp16
 70
     1
102
RTVSPropertyOp17
 70
     1
102
RTVSPropertyOp18
 70
     1
102
RTVSPropertyOp19
 70
     1
102
RTVSPropertyOp20
 70
     1
102
RTVSPropertyOp21
 70
     1
102
RTVSPropertyOp22
 70
     1
102
RTVSPropertyOp23
 70
     1
102
RTVSPropertyOp24
 70
     1
102
RTVSPropertyOp25
 70
     1
102
RTVSPropertyOp26
 70
     1
102
RTVSPropertyOp27
 70
     1
102
RTVSPropertyOp28
 70
     1
102
RTVSPropertyOp29
 70
     1
102
RTVSPropertyOp30
 70
     1
102
RTVSPropertyOp31
 70
     1
102
RTVSPropertyOp32
 70
     1
102
RTVSPropertyOp33
 70
     1
102
RTVSPropertyOp34
 70
     1
102
RTVSPropertyOp35
 70
     1
102
RTVSPropertyOp36
 70
     1
102
RTVSPropertyOp37
 70
     1
102
RTVSPropertyOp38
 70
     1
102
RTVSPropertyOp39
 70
     1
102
RTVSPropertyOp40
 70
     1
102
RTVSPropertyOp41
 70
     1
102
RTVSPropertyOp42
 70
     1
102
RTVSPropertyOp43
 70
     1
102
RTVSPropertyOp44
 70
     1
102
RTVSPropertyOp45
 70
     1
102
RTVSPropertyOp46
 70
     1
102
RTVSPropertyOp47
 70
     1
102
RTVSPropertyOp48
 70
     1
102
RTVSPropertyOp49
 70
     1
102
RTVSPropertyOp50
 70
     1
102
RTVSPropertyOp51
 70
     0
102
RTVSPropertyOp52
 70
     0
102
RTVSPropertyOp53
 70
     1
102
RTVSPropertyOp54
 70
     1
102
RTVSPropertyOp55
 70
     1
102
RTVSPropertyOp56
 70
     1
102
RTVSPropertyOp57
 70
     1
102
RTVSPost2010Prop28
280
     0
102
RTVSPost2010PropOp28
 70
     1
102
RTVSPost2010Prop29
280
     1
102
RTVSPost2010PropOp29
 70
     1
102
RTVSPost2010Prop30
280
     1
102
RTVSPost2010PropOp30
 70
     1
102
RTVSPost2010Prop31
280
     0
102
RTVSPost2010PropOp31
 70
     1
102
RTVSPost2010Prop32
280
     0
102
RTVSPost2010PropOp32
 70
     1
102
RTVSPost2010Prop33
280
     0
102
RTVSPost2010PropOp33
 70
     1
102
RTVSPost2010Prop34
280
     0
102
RTVSPost2010PropOp34
 70
     1
102
RTVSPost2010Prop35
280
     0
102
RTVSPost2010PropOp35
 70
     1
102
RTVSPost2010Prop36
280
     0
102
RTVSPost2010PropOp36
 70
     1
102
RTVSPost2010Prop37
 90
       50
102
RTVSPost2010PropOp37
 70
     1
102
RTVSPost2010Prop38
140
0.0
102
RTVSPost2010PropOp38
 70
     1
102
RTVSPost2010Prop39
140
1.0
102
RTVSPost2010PropOp39
 70
     1
102
RTVSPost2010Prop40
 90
        0
102
RTVSPost2010PropOp40
 70
     1
102
RTVSPost2010Prop41ColorIndex
 90
       18
102
RTVSPost2010Prop41ColorRGB
 90
        0
102
RTVSPost2010PropOp41
 70
     1
102
RTVSPost2010Prop42
 90
       50
102
RTVSPost2010PropOp42
 70
     1
102
RTVSPost2010Prop43
 90
        3
102
RTVSPost2010PropOp43
 70
     1
102
RTVSPost2010Prop44ColorIndex
 90
        5
102
RTVSPost2010Prop44ColorRGB
 90
      255
102
RTVSPost2010PropOp44
 70
     1
102
RTVSPost2010Prop45
280
     0
102
RTVSPost2010PropOp45
 70
     1
102
RTVSPost2010Prop46
 90
       50
102
RTVSPost2010PropOp46
 70
     1
102
RTVSPost2010Prop47
 90
       50
102
RTVSPost2010PropOp47
 70
     1
102
RTVSPost2010Prop48
 90
       50
102
RTVSPost2010PropOp48
 70
     1
102
RTVSPost2010Prop49
280
     0
102
RTVSPost2010PropOp49
 70
     1
102
RTVSPost2010Prop50
 90
       50
102
RTVSPost2010PropOp50
 70
     1
102
RTVSPost2010Prop51ColorIndex
 90
      256
102
RTVSPost2010Prop51ColorRGB
 90
-16777216
102
RTVSPost2010PropOp51
 70
     0
102
RTVSPost2010Prop52
140
1.0
102
RTVSPost2010PropOp52
 70
     0
102
RTVSPost2010Prop53
 90
        2
102
RTVSPost2010PropOp53
 70
     1
102
RTVSPost2010Prop54
  1
strokes_ogs.tif
102
RTVSPost2010PropOp54
 70
     1
102
RTVSPost2010Prop55
280
     0
102
RTVSPost2010PropOp55
 70
     1
102
RTVSPost2010Prop56
140
1.0
102
RTVSPost2010PropOp56
 70
     1
102
RTVSPost2010Prop57
140
1.0
102
RTVSPost2010PropOp57
 70
     1
  0
XRECORD
  5
383
102
{ACAD_REACTORS
330
382
102
}
330
382
100
AcDbXrecord
280
     1
102
RTVSPropertyOp0
 70
     1
102
RTVSPropertyOp1
 70
     1
102
RTVSPropertyOp2
 70
     1
102
RTVSPropertyOp3
 70
     1
102
RTVSPropertyOp4
 70
     1
102
RTVSPropertyOp5
 70
     1
102
RTVSPropertyOp6
 70
     1
102
RTVSPropertyOp7
 70
     1
102
RTVSPropertyOp8
 70
     1
102
RTVSPropertyOp9
 70
     1
102
RTVSPropertyOp10
 70
     1
102
RTVSPropertyOp11
 70
     1
102
RTVSPropertyOp12
 70
     1
102
RTVSPropertyOp13
 70
     1
102
RTVSPropertyOp14
 70
     1
102
RTVSPropertyOp15
 70
     1
102
RTVSPropertyOp16
 70
     1
102
RTVSPropertyOp17
 70
     1
102
RTVSPropertyOp18
 70
     1
102
RTVSPropertyOp19
 70
     1
102
RTVSPropertyOp20
 70
     1
102
RTVSPropertyOp21
 70
     1
102
RTVSPropertyOp22
 70
     1
102
RTVSPropertyOp23
 70
     1
102
RTVSPropertyOp24
 70
     1
102
RTVSPropertyOp25
 70
     1
102
RTVSPropertyOp26
 70
     1
102
RTVSPropertyOp27
 70
     1
102
RTVSPropertyOp28
 70
     1
102
RTVSPropertyOp29
 70
     1
102
RTVSPropertyOp30
 70
     1
102
RTVSPropertyOp31
 70
     1
102
RTVSPropertyOp32
 70
     1
102
RTVSPropertyOp33
 70
     1
102
RTVSPropertyOp34
 70
     1
102
RTVSPropertyOp35
 70
     1
102
RTVSPropertyOp36
 70
     1
102
RTVSPropertyOp37
 70
     1
102
RTVSPropertyOp38
 70
     1
102
RTVSPropertyOp39
 70
     1
102
RTVSPropertyOp40
 70
     1
102
RTVSPropertyOp41
 70
     1
102
RTVSPropertyOp42
 70
     1
102
RTVSPropertyOp43
 70
     1
102
RTVSPropertyOp44
 70
     1
102
RTVSPropertyOp45
 70
     1
102
RTVSPropertyOp46
 70
     1
102
RTVSPropertyOp47
 70
     1
102
RTVSPropertyOp48
 70
     1
102
RTVSPropertyOp49
 70
     1
102
RTVSPropertyOp50
 70
     1
102
RTVSPropertyOp51
 70
     0
102
RTVSPropertyOp52
 70
     0
102
RTVSPropertyOp53
 70
     1
102
RTVSPropertyOp54
 70
     1
102
RTVSPropertyOp55
 70
     1
102
RTVSPropertyOp56
 70
     1
102
RTVSPropertyOp57
 70
     1
102
RTVSPost2010Prop28
280
     0
102
RTVSPost2010PropOp28
 70
     1
102
RTVSPost2010Prop29
280
     1
102
RTVSPost2010PropOp29
 70
     1
102
RTVSPost2010Prop30
280
     1
102
RTVSPost2010PropOp30
 70
     1
102
RTVSPost2010Prop31
280
     0
102
RTVSPost2010PropOp31
 70
     1
102
RTVSPost2010Prop32
280
     0
102
RTVSPost2010PropOp32
 70
     1
102
RTVSPost2010Prop33
280
     0
102
RTVSPost2010PropOp33
 70
     1
102
RTVSPost2010Prop34
280
     0
102
RTVSPost2010PropOp34
 70
     1
102
RTVSPost2010Prop35
280
     0
102
RTVSPost2010PropOp35
 70
     1
102
RTVSPost2010Prop36
280
     0
102
RTVSPost2010PropOp36
 70
     1
102
RTVSPost2010Prop37
 90
       50
102
RTVSPost2010PropOp37
 70
     1
102
RTVSPost2010Prop38
140
0.0
102
RTVSPost2010PropOp38
 70
     1
102
RTVSPost2010Prop39
140
1.0
102
RTVSPost2010PropOp39
 70
     1
102
RTVSPost2010Prop40
 90
        0
102
RTVSPost2010PropOp40
 70
     1
102
RTVSPost2010Prop41ColorIndex
 90
       18
102
RTVSPost2010Prop41ColorRGB
 90
        0
102
RTVSPost2010PropOp41
 70
     1
102
RTVSPost2010Prop42
 90
       50
102
RTVSPost2010PropOp42
 70
     1
102
RTVSPost2010Prop43
 90
        3
102
RTVSPost2010PropOp43
 70
     1
102
RTVSPost2010Prop44ColorIndex
 90
        5
102
RTVSPost2010Prop44ColorRGB
 90
      255
102
RTVSPost2010PropOp44
 70
     1
102
RTVSPost2010Prop45
280
     0
102
RTVSPost2010PropOp45
 70
     1
102
RTVSPost2010Prop46
 90
       50
102
RTVSPost2010PropOp46
 70
     1
102
RTVSPost2010Prop47
 90
       50
102
RTVSPost2010PropOp47
 70
     1
102
RTVSPost2010Prop48
 90
       50
102
RTVSPost2010PropOp48
 70
     1
102
RTVSPost2010Prop49
280
     0
102
RTVSPost2010PropOp49
 70
     1
102
RTVSPost2010Prop50
 90
       50
102
RTVSPost2010PropOp50
 70
     1
102
RTVSPost2010Prop51ColorIndex
 90
      256
102
RTVSPost2010Prop51ColorRGB
 90
-16777216
102
RTVSPost2010PropOp51
 70
     0
102
RTVSPost2010Prop52
140
1.0
102
RTVSPost2010PropOp52
 70
     0
102
RTVSPost2010Prop53
 90
        2
102
RTVSPost2010PropOp53
 70
     1
102
RTVSPost2010Prop54
  1
strokes_ogs.tif
102
RTVSPost2010PropOp54
 70
     1
102
RTVSPost2010Prop55
280
     0
102
RTVSPost2010PropOp55
 70
     1
102
RTVSPost2010Prop56
140
1.0
102
RTVSPost2010PropOp56
 70
     1
102
RTVSPost2010Prop57
140
1.0
102
RTVSPost2010PropOp57
 70
     1
  0
XRECORD
  5
377
102
{ACAD_REACTORS
330
376
102
}
330
376
100
AcDbXrecord
280
     1
102
RTVSPropertyOp0
 70
     1
102
RTVSPropertyOp1
 70
     1
102
RTVSPropertyOp2
 70
     1
102
RTVSPropertyOp3
 70
     1
102
RTVSPropertyOp4
 70
     1
102
RTVSPropertyOp5
 70
     1
102
RTVSPropertyOp6
 70
     1
102
RTVSPropertyOp7
 70
     1
102
RTVSPropertyOp8
 70
     1
102
RTVSPropertyOp9
 70
     1
102
RTVSPropertyOp10
 70
     1
102
RTVSPropertyOp11
 70
     1
102
RTVSPropertyOp12
 70
     1
102
RTVSPropertyOp13
 70
     1
102
RTVSPropertyOp14
 70
     1
102
RTVSPropertyOp15
 70
     1
102
RTVSPropertyOp16
 70
     1
102
RTVSPropertyOp17
 70
     1
102
RTVSPropertyOp18
 70
     1
102
RTVSPropertyOp19
 70
     1
102
RTVSPropertyOp20
 70
     1
102
RTVSPropertyOp21
 70
     1
102
RTVSPropertyOp22
 70
     1
102
RTVSPropertyOp23
 70
     1
102
RTVSPropertyOp24
 70
     1
102
RTVSPropertyOp25
 70
     1
102
RTVSPropertyOp26
 70
     1
102
RTVSPropertyOp27
 70
     1
102
RTVSPropertyOp28
 70
     1
102
RTVSPropertyOp29
 70
     1
102
RTVSPropertyOp30
 70
     1
102
RTVSPropertyOp31
 70
     1
102
RTVSPropertyOp32
 70
     1
102
RTVSPropertyOp33
 70
     1
102
RTVSPropertyOp34
 70
     1
102
RTVSPropertyOp35
 70
     1
102
RTVSPropertyOp36
 70
     1
102
RTVSPropertyOp37
 70
     1
102
RTVSPropertyOp38
 70
     1
102
RTVSPropertyOp39
 70
     1
102
RTVSPropertyOp40
 70
     1
102
RTVSPropertyOp41
 70
     1
102
RTVSPropertyOp42
 70
     1
102
RTVSPropertyOp43
 70
     1
102
RTVSPropertyOp44
 70
     1
102
RTVSPropertyOp45
 70
     1
102
RTVSPropertyOp46
 70
     1
102
RTVSPropertyOp47
 70
     1
102
RTVSPropertyOp48
 70
     1
102
RTVSPropertyOp49
 70
     1
102
RTVSPropertyOp50
 70
     1
102
RTVSPropertyOp51
 70
     0
102
RTVSPropertyOp52
 70
     0
102
RTVSPropertyOp53
 70
     1
102
RTVSPropertyOp54
 70
     1
102
RTVSPropertyOp55
 70
     1
102
RTVSPropertyOp56
 70
     1
102
RTVSPropertyOp57
 70
     1
102
RTVSPost2010Prop28
280
     0
102
RTVSPost2010PropOp28
 70
     1
102
RTVSPost2010Prop29
280
     1
102
RTVSPost2010PropOp29
 70
     1
102
RTVSPost2010Prop30
280
     1
102
RTVSPost2010PropOp30
 70
     1
102
RTVSPost2010Prop31
280
     0
102
RTVSPost2010PropOp31
 70
     1
102
RTVSPost2010Prop32
280
     0
102
RTVSPost2010PropOp32
 70
     1
102
RTVSPost2010Prop33
280
     0
102
RTVSPost2010PropOp33
 70
     1
102
RTVSPost2010Prop34
280
     0
102
RTVSPost2010PropOp34
 70
     1
102
RTVSPost2010Prop35
280
     0
102
RTVSPost2010PropOp35
 70
     1
102
RTVSPost2010Prop36
280
     0
102
RTVSPost2010PropOp36
 70
     1
102
RTVSPost2010Prop37
 90
       50
102
RTVSPost2010PropOp37
 70
     1
102
RTVSPost2010Prop38
140
0.0
102
RTVSPost2010PropOp38
 70
     1
102
RTVSPost2010Prop39
140
1.0
102
RTVSPost2010PropOp39
 70
     1
102
RTVSPost2010Prop40
 90
        0
102
RTVSPost2010PropOp40
 70
     1
102
RTVSPost2010Prop41ColorIndex
 90
       18
102
RTVSPost2010Prop41ColorRGB
 90
        0
102
RTVSPost2010PropOp41
 70
     1
102
RTVSPost2010Prop42
 90
       50
102
RTVSPost2010PropOp42
 70
     1
102
RTVSPost2010Prop43
 90
        3
102
RTVSPost2010PropOp43
 70
     1
102
RTVSPost2010Prop44ColorIndex
 90
        5
102
RTVSPost2010Prop44ColorRGB
 90
      255
102
RTVSPost2010PropOp44
 70
     1
102
RTVSPost2010Prop45
280
     0
102
RTVSPost2010PropOp45
 70
     1
102
RTVSPost2010Prop46
 90
       50
102
RTVSPost2010PropOp46
 70
     1
102
RTVSPost2010Prop47
 90
       50
102
RTVSPost2010PropOp47
 70
     1
102
RTVSPost2010Prop48
 90
       50
102
RTVSPost2010PropOp48
 70
     1
102
RTVSPost2010Prop49
280
     0
102
RTVSPost2010PropOp49
 70
     1
102
RTVSPost2010Prop50
 90
       50
102
RTVSPost2010PropOp50
 70
     1
102
RTVSPost2010Prop51ColorIndex
 90
      256
102
RTVSPost2010Prop51ColorRGB
 90
-16777216
102
RTVSPost2010PropOp51
 70
     0
102
RTVSPost2010Prop52
140
1.0
102
RTVSPost2010PropOp52
 70
     0
102
RTVSPost2010Prop53
 90
        2
102
RTVSPost2010PropOp53
 70
     1
102
RTVSPost2010Prop54
  1
strokes_ogs.tif
102
RTVSPost2010PropOp54
 70
     1
102
RTVSPost2010Prop55
280
     0
102
RTVSPost2010PropOp55
 70
     1
102
RTVSPost2010Prop56
140
1.0
102
RTVSPost2010PropOp56
 70
     1
102
RTVSPost2010Prop57
140
1.0
102
RTVSPost2010PropOp57
 70
     1
  0
XRECORD
  5
379
102
{ACAD_REACTORS
330
378
102
}
330
378
100
AcDbXrecord
280
     1
102
RTVSPropertyOp0
 70
     1
102
RTVSPropertyOp1
 70
     1
102
RTVSPropertyOp2
 70
     1
102
RTVSPropertyOp3
 70
     1
102
RTVSPropertyOp4
 70
     1
102
RTVSPropertyOp5
 70
     1
102
RTVSPropertyOp6
 70
     1
102
RTVSPropertyOp7
 70
     1
102
RTVSPropertyOp8
 70
     1
102
RTVSPropertyOp9
 70
     1
102
RTVSPropertyOp10
 70
     1
102
RTVSPropertyOp11
 70
     1
102
RTVSPropertyOp12
 70
     1
102
RTVSPropertyOp13
 70
     1
102
RTVSPropertyOp14
 70
     1
102
RTVSPropertyOp15
 70
     1
102
RTVSPropertyOp16
 70
     1
102
RTVSPropertyOp17
 70
     1
102
RTVSPropertyOp18
 70
     1
102
RTVSPropertyOp19
 70
     1
102
RTVSPropertyOp20
 70
     1
102
RTVSPropertyOp21
 70
     1
102
RTVSPropertyOp22
 70
     1
102
RTVSPropertyOp23
 70
     1
102
RTVSPropertyOp24
 70
     1
102
RTVSPropertyOp25
 70
     1
102
RTVSPropertyOp26
 70
     1
102
RTVSPropertyOp27
 70
     1
102
RTVSPropertyOp28
 70
     1
102
RTVSPropertyOp29
 70
     1
102
RTVSPropertyOp30
 70
     1
102
RTVSPropertyOp31
 70
     1
102
RTVSPropertyOp32
 70
     1
102
RTVSPropertyOp33
 70
     1
102
RTVSPropertyOp34
 70
     1
102
RTVSPropertyOp35
 70
     1
102
RTVSPropertyOp36
 70
     1
102
RTVSPropertyOp37
 70
     1
102
RTVSPropertyOp38
 70
     1
102
RTVSPropertyOp39
 70
     1
102
RTVSPropertyOp40
 70
     1
102
RTVSPropertyOp41
 70
     1
102
RTVSPropertyOp42
 70
     1
102
RTVSPropertyOp43
 70
     1
102
RTVSPropertyOp44
 70
     1
102
RTVSPropertyOp45
 70
     1
102
RTVSPropertyOp46
 70
     1
102
RTVSPropertyOp47
 70
     1
102
RTVSPropertyOp48
 70
     1
102
RTVSPropertyOp49
 70
     1
102
RTVSPropertyOp50
 70
     1
102
RTVSPropertyOp51
 70
     0
102
RTVSPropertyOp52
 70
     0
102
RTVSPropertyOp53
 70
     1
102
RTVSPropertyOp54
 70
     1
102
RTVSPropertyOp55
 70
     1
102
RTVSPropertyOp56
 70
     1
102
RTVSPropertyOp57
 70
     1
102
RTVSPost2010Prop28
280
     0
102
RTVSPost2010PropOp28
 70
     1
102
RTVSPost2010Prop29
280
     1
102
RTVSPost2010PropOp29
 70
     1
102
RTVSPost2010Prop30
280
     1
102
RTVSPost2010PropOp30
 70
     1
102
RTVSPost2010Prop31
280
     0
102
RTVSPost2010PropOp31
 70
     1
102
RTVSPost2010Prop32
280
     0
102
RTVSPost2010PropOp32
 70
     1
102
RTVSPost2010Prop33
280
     0
102
RTVSPost2010PropOp33
 70
     1
102
RTVSPost2010Prop34
280
     0
102
RTVSPost2010PropOp34
 70
     1
102
RTVSPost2010Prop35
280
     0
102
RTVSPost2010PropOp35
 70
     1
102
RTVSPost2010Prop36
280
     0
102
RTVSPost2010PropOp36
 70
     1
102
RTVSPost2010Prop37
 90
       50
102
RTVSPost2010PropOp37
 70
     1
102
RTVSPost2010Prop38
140
0.0
102
RTVSPost2010PropOp38
 70
     1
102
RTVSPost2010Prop39
140
1.0
102
RTVSPost2010PropOp39
 70
     1
102
RTVSPost2010Prop40
 90
        0
102
RTVSPost2010PropOp40
 70
     1
102
RTVSPost2010Prop41ColorIndex
 90
       18
102
RTVSPost2010Prop41ColorRGB
 90
        0
102
RTVSPost2010PropOp41
 70
     1
102
RTVSPost2010Prop42
 90
       50
102
RTVSPost2010PropOp42
 70
     1
102
RTVSPost2010Prop43
 90
        3
102
RTVSPost2010PropOp43
 70
     1
102
RTVSPost2010Prop44ColorIndex
 90
        5
102
RTVSPost2010Prop44ColorRGB
 90
      255
102
RTVSPost2010PropOp44
 70
     1
102
RTVSPost2010Prop45
280
     0
102
RTVSPost2010PropOp45
 70
     1
102
RTVSPost2010Prop46
 90
       50
102
RTVSPost2010PropOp46
 70
     1
102
RTVSPost2010Prop47
 90
       50
102
RTVSPost2010PropOp47
 70
     1
102
RTVSPost2010Prop48
 90
       50
102
RTVSPost2010PropOp48
 70
     1
102
RTVSPost2010Prop49
280
     0
102
RTVSPost2010PropOp49
 70
     1
102
RTVSPost2010Prop50
 90
       50
102
RTVSPost2010PropOp50
 70
     1
102
RTVSPost2010Prop51ColorIndex
 90
      256
102
RTVSPost2010Prop51ColorRGB
 90
-16777216
102
RTVSPost2010PropOp51
 70
     0
102
RTVSPost2010Prop52
140
1.0
102
RTVSPost2010PropOp52
 70
     0
102
RTVSPost2010Prop53
 90
        2
102
RTVSPost2010PropOp53
 70
     1
102
RTVSPost2010Prop54
  1
strokes_ogs.tif
102
RTVSPost2010PropOp54
 70
     1
102
RTVSPost2010Prop55
280
     0
102
RTVSPost2010PropOp55
 70
     1
102
RTVSPost2010Prop56
140
1.0
102
RTVSPost2010PropOp56
 70
     1
102
RTVSPost2010Prop57
140
1.0
102
RTVSPost2010PropOp57
 70
     1
  0
XRECORD
  5
389
102
{ACAD_REACTORS
330
388
102
}
330
388
100
AcDbXrecord
280
     1
102
RTVSPropertyOp0
 70
     0
102
RTVSPropertyOp1
 70
     0
102
RTVSPropertyOp2
 70
     0
102
RTVSPropertyOp3
 70
     0
102
RTVSPropertyOp4
 70
     0
102
RTVSPropertyOp5
 70
     0
102
RTVSPropertyOp6
 70
     0
102
RTVSPropertyOp7
 70
     0
102
RTVSPropertyOp8
 70
     0
102
RTVSPropertyOp9
 70
     0
102
RTVSPropertyOp10
 70
     0
102
RTVSPropertyOp11
 70
     0
102
RTVSPropertyOp12
 70
     0
102
RTVSPropertyOp13
 70
     0
102
RTVSPropertyOp14
 70
     2
102
RTVSPropertyOp15
 70
     0
102
RTVSPropertyOp16
 70
     0
102
RTVSPropertyOp17
 70
     0
102
RTVSPropertyOp18
 70
     0
102
RTVSPropertyOp19
 70
     0
102
RTVSPropertyOp20
 70
     0
102
RTVSPropertyOp21
 70
     0
102
RTVSPropertyOp22
 70
     0
102
RTVSPropertyOp23
 70
     0
102
RTVSPropertyOp24
 70
     0
102
RTVSPropertyOp25
 70
     0
102
RTVSPropertyOp26
 70
     0
102
RTVSPropertyOp27
 70
     0
102
RTVSPropertyOp28
 70
     0
102
RTVSPropertyOp29
 70
     0
102
RTVSPropertyOp30
 70
     0
102
RTVSPropertyOp31
 70
     0
102
RTVSPropertyOp32
 70
     0
102
RTVSPropertyOp33
 70
     0
102
RTVSPropertyOp34
 70
     0
102
RTVSPropertyOp35
 70
     0
102
RTVSPropertyOp36
 70
     0
102
RTVSPropertyOp37
 70
     0
102
RTVSPropertyOp38
 70
     0
102
RTVSPropertyOp39
 70
     0
102
RTVSPropertyOp40
 70
     0
102
RTVSPropertyOp41
 70
     0
102
RTVSPropertyOp42
 70
     0
102
RTVSPropertyOp43
 70
     0
102
RTVSPropertyOp44
 70
     0
102
RTVSPropertyOp45
 70
     0
102
RTVSPropertyOp46
 70
     0
102
RTVSPropertyOp47
 70
     0
102
RTVSPropertyOp48
 70
     0
102
RTVSPropertyOp49
 70
     0
102
RTVSPropertyOp50
 70
     0
102
RTVSPropertyOp51
 70
     0
102
RTVSPropertyOp52
 70
     0
102
RTVSPropertyOp53
 70
     0
102
RTVSPropertyOp54
 70
     0
102
RTVSPropertyOp55
 70
     0
102
RTVSPropertyOp56
 70
     0
102
RTVSPropertyOp57
 70
     0
102
RTVSPost2010Prop28
280
     0
102
RTVSPost2010PropOp28
 70
     0
102
RTVSPost2010Prop29
280
     1
102
RTVSPost2010PropOp29
 70
     0
102
RTVSPost2010Prop30
280
     1
102
RTVSPost2010PropOp30
 70
     0
102
RTVSPost2010Prop31
280
     0
102
RTVSPost2010PropOp31
 70
     0
102
RTVSPost2010Prop32
280
     0
102
RTVSPost2010PropOp32
 70
     0
102
RTVSPost2010Prop33
280
     0
102
RTVSPost2010PropOp33
 70
     0
102
RTVSPost2010Prop34
280
     0
102
RTVSPost2010PropOp34
 70
     0
102
RTVSPost2010Prop35
280
     0
102
RTVSPost2010PropOp35
 70
     0
102
RTVSPost2010Prop36
280
     0
102
RTVSPost2010PropOp36
 70
     0
102
RTVSPost2010Prop37
 90
       50
102
RTVSPost2010PropOp37
 70
     0
102
RTVSPost2010Prop38
140
0.0
102
RTVSPost2010PropOp38
 70
     0
102
RTVSPost2010Prop39
140
1.0
102
RTVSPost2010PropOp39
 70
     0
102
RTVSPost2010Prop40
 90
        0
102
RTVSPost2010PropOp40
 70
     0
102
RTVSPost2010Prop41ColorIndex
 90
       18
102
RTVSPost2010Prop41ColorRGB
 90
        0
102
RTVSPost2010PropOp41
 70
     0
102
RTVSPost2010Prop42
 90
       50
102
RTVSPost2010PropOp42
 70
     0
102
RTVSPost2010Prop43
 90
        3
102
RTVSPost2010PropOp43
 70
     0
102
RTVSPost2010Prop44ColorIndex
 90
        5
102
RTVSPost2010Prop44ColorRGB
 90
      255
102
RTVSPost2010PropOp44
 70
     0
102
RTVSPost2010Prop45
280
     0
102
RTVSPost2010PropOp45
 70
     0
102
RTVSPost2010Prop46
 90
       50
102
RTVSPost2010PropOp46
 70
     0
102
RTVSPost2010Prop47
 90
       50
102
RTVSPost2010PropOp47
 70
     0
102
RTVSPost2010Prop48
 90
       50
102
RTVSPost2010PropOp48
 70
     0
102
RTVSPost2010Prop49
280
     0
102
RTVSPost2010PropOp49
 70
     0
102
RTVSPost2010Prop50
 90
       50
102
RTVSPost2010PropOp50
 70
     0
102
RTVSPost2010Prop51ColorIndex
 90
      256
102
RTVSPost2010Prop51ColorRGB
 90
-16777216
102
RTVSPost2010PropOp51
 70
     0
102
RTVSPost2010Prop52
140
1.0
102
RTVSPost2010PropOp52
 70
     0
102
RTVSPost2010Prop53
 90
        2
102
RTVSPost2010PropOp53
 70
     0
102
RTVSPost2010Prop54
  1
strokes_ogs.tif
102
RTVSPost2010PropOp54
 70
     0
102
RTVSPost2010Prop55
280
     0
102
RTVSPost2010PropOp55
 70
     0
102
RTVSPost2010Prop56
140
1.0
102
RTVSPost2010PropOp56
 70
     0
102
RTVSPost2010Prop57
140
1.0
102
RTVSPost2010PropOp57
 70
     0
  0
XRECORD
  5
381
102
{ACAD_REACTORS
330
380
102
}
330
380
100
AcDbXrecord
280
     1
102
RTVSPropertyOp0
 70
     1
102
RTVSPropertyOp1
 70
     1
102
RTVSPropertyOp2
 70
     1
102
RTVSPropertyOp3
 70
     1
102
RTVSPropertyOp4
 70
     1
102
RTVSPropertyOp5
 70
     1
102
RTVSPropertyOp6
 70
     1
102
RTVSPropertyOp7
 70
     1
102
RTVSPropertyOp8
 70
     1
102
RTVSPropertyOp9
 70
     1
102
RTVSPropertyOp10
 70
     1
102
RTVSPropertyOp11
 70
     1
102
RTVSPropertyOp12
 70
     1
102
RTVSPropertyOp13
 70
     1
102
RTVSPropertyOp14
 70
     1
102
RTVSPropertyOp15
 70
     1
102
RTVSPropertyOp16
 70
     1
102
RTVSPropertyOp17
 70
     1
102
RTVSPropertyOp18
 70
     1
102
RTVSPropertyOp19
 70
     1
102
RTVSPropertyOp20
 70
     1
102
RTVSPropertyOp21
 70
     1
102
RTVSPropertyOp22
 70
     1
102
RTVSPropertyOp23
 70
     1
102
RTVSPropertyOp24
 70
     1
102
RTVSPropertyOp25
 70
     1
102
RTVSPropertyOp26
 70
     1
102
RTVSPropertyOp27
 70
     1
102
RTVSPropertyOp28
 70
     1
102
RTVSPropertyOp29
 70
     1
102
RTVSPropertyOp30
 70
     1
102
RTVSPropertyOp31
 70
     1
102
RTVSPropertyOp32
 70
     1
102
RTVSPropertyOp33
 70
     1
102
RTVSPropertyOp34
 70
     1
102
RTVSPropertyOp35
 70
     1
102
RTVSPropertyOp36
 70
     1
102
RTVSPropertyOp37
 70
     1
102
RTVSPropertyOp38
 70
     1
102
RTVSPropertyOp39
 70
     1
102
RTVSPropertyOp40
 70
     1
102
RTVSPropertyOp41
 70
     1
102
RTVSPropertyOp42
 70
     1
102
RTVSPropertyOp43
 70
     1
102
RTVSPropertyOp44
 70
     1
102
RTVSPropertyOp45
 70
     1
102
RTVSPropertyOp46
 70
     1
102
RTVSPropertyOp47
 70
     1
102
RTVSPropertyOp48
 70
     1
102
RTVSPropertyOp49
 70
     1
102
RTVSPropertyOp50
 70
     1
102
RTVSPropertyOp51
 70
     0
102
RTVSPropertyOp52
 70
     0
102
RTVSPropertyOp53
 70
     1
102
RTVSPropertyOp54
 70
     1
102
RTVSPropertyOp55
 70
     1
102
RTVSPropertyOp56
 70
     1
102
RTVSPropertyOp57
 70
     1
102
RTVSPost2010Prop28
280
     0
102
RTVSPost2010PropOp28
 70
     1
102
RTVSPost2010Prop29
280
     1
102
RTVSPost2010PropOp29
 70
     1
102
RTVSPost2010Prop30
280
     1
102
RTVSPost2010PropOp30
 70
     1
102
RTVSPost2010Prop31
280
     0
102
RTVSPost2010PropOp31
 70
     1
102
RTVSPost2010Prop32
280
     0
102
RTVSPost2010PropOp32
 70
     1
102
RTVSPost2010Prop33
280
     0
102
RTVSPost2010PropOp33
 70
     1
102
RTVSPost2010Prop34
280
     0
102
RTVSPost2010PropOp34
 70
     1
102
RTVSPost2010Prop35
280
     0
102
RTVSPost2010PropOp35
 70
     1
102
RTVSPost2010Prop36
280
     0
102
RTVSPost2010PropOp36
 70
     1
102
RTVSPost2010Prop37
 90
       50
102
RTVSPost2010PropOp37
 70
     1
102
RTVSPost2010Prop38
140
0.0
102
RTVSPost2010PropOp38
 70
     1
102
RTVSPost2010Prop39
140
1.0
102
RTVSPost2010PropOp39
 70
     1
102
RTVSPost2010Prop40
 90
        0
102
RTVSPost2010PropOp40
 70
     1
102
RTVSPost2010Prop41ColorIndex
 90
       18
102
RTVSPost2010Prop41ColorRGB
 90
        0
102
RTVSPost2010PropOp41
 70
     1
102
RTVSPost2010Prop42
 90
       50
102
RTVSPost2010PropOp42
 70
     1
102
RTVSPost2010Prop43
 90
        3
102
RTVSPost2010PropOp43
 70
     1
102
RTVSPost2010Prop44ColorIndex
 90
        5
102
RTVSPost2010Prop44ColorRGB
 90
      255
102
RTVSPost2010PropOp44
 70
     1
102
RTVSPost2010Prop45
280
     0
102
RTVSPost2010PropOp45
 70
     1
102
RTVSPost2010Prop46
 90
       50
102
RTVSPost2010PropOp46
 70
     1
102
RTVSPost2010Prop47
 90
       50
102
RTVSPost2010PropOp47
 70
     1
102
RTVSPost2010Prop48
 90
       50
102
RTVSPost2010PropOp48
 70
     1
102
RTVSPost2010Prop49
280
     0
102
RTVSPost2010PropOp49
 70
     1
102
RTVSPost2010Prop50
 90
       50
102
RTVSPost2010PropOp50
 70
     1
102
RTVSPost2010Prop51ColorIndex
 90
      256
102
RTVSPost2010Prop51ColorRGB
 90
-16777216
102
RTVSPost2010PropOp51
 70
     0
102
RTVSPost2010Prop52
140
1.0
102
RTVSPost2010PropOp52
 70
     0
102
RTVSPost2010Prop53
 90
        2
102
RTVSPost2010PropOp53
 70
     1
102
RTVSPost2010Prop54
  1
strokes_ogs.tif
102
RTVSPost2010PropOp54
 70
     1
102
RTVSPost2010Prop55
280
     0
102
RTVSPost2010PropOp55
 70
     1
102
RTVSPost2010Prop56
140
1.0
102
RTVSPost2010PropOp56
 70
     1
102
RTVSPost2010Prop57
140
1.0
102
RTVSPost2010PropOp57
 70
     1
  0
XRECORD
  5
365
102
{ACAD_REACTORS
330
364
102
}
330
364
100
AcDbXrecord
280
     1
102
RTVSPropertyOp0
 70
     1
102
RTVSPropertyOp1
 70
     1
102
RTVSPropertyOp2
 70
     1
102
RTVSPropertyOp3
 70
     1
102
RTVSPropertyOp4
 70
     1
102
RTVSPropertyOp5
 70
     1
102
RTVSPropertyOp6
 70
     1
102
RTVSPropertyOp7
 70
     1
102
RTVSPropertyOp8
 70
     1
102
RTVSPropertyOp9
 70
     1
102
RTVSPropertyOp10
 70
     1
102
RTVSPropertyOp11
 70
     1
102
RTVSPropertyOp12
 70
     1
102
RTVSPropertyOp13
 70
     1
102
RTVSPropertyOp14
 70
     1
102
RTVSPropertyOp15
 70
     1
102
RTVSPropertyOp16
 70
     1
102
RTVSPropertyOp17
 70
     1
102
RTVSPropertyOp18
 70
     1
102
RTVSPropertyOp19
 70
     1
102
RTVSPropertyOp20
 70
     1
102
RTVSPropertyOp21
 70
     1
102
RTVSPropertyOp22
 70
     1
102
RTVSPropertyOp23
 70
     1
102
RTVSPropertyOp24
 70
     1
102
RTVSPropertyOp25
 70
     1
102
RTVSPropertyOp26
 70
     1
102
RTVSPropertyOp27
 70
     1
102
RTVSPropertyOp28
 70
     1
102
RTVSPropertyOp29
 70
     1
102
RTVSPropertyOp30
 70
     1
102
RTVSPropertyOp31
 70
     1
102
RTVSPropertyOp32
 70
     1
102
RTVSPropertyOp33
 70
     1
102
RTVSPropertyOp34
 70
     1
102
RTVSPropertyOp35
 70
     1
102
RTVSPropertyOp36
 70
     1
102
RTVSPropertyOp37
 70
     1
102
RTVSPropertyOp38
 70
     1
102
RTVSPropertyOp39
 70
     1
102
RTVSPropertyOp40
 70
     1
102
RTVSPropertyOp41
 70
     1
102
RTVSPropertyOp42
 70
     1
102
RTVSPropertyOp43
 70
     1
102
RTVSPropertyOp44
 70
     1
102
RTVSPropertyOp45
 70
     1
102
RTVSPropertyOp46
 70
     1
102
RTVSPropertyOp47
 70
     1
102
RTVSPropertyOp48
 70
     1
102
RTVSPropertyOp49
 70
     1
102
RTVSPropertyOp50
 70
     1
102
RTVSPropertyOp51
 70
     0
102
RTVSPropertyOp52
 70
     0
102
RTVSPropertyOp53
 70
     1
102
RTVSPropertyOp54
 70
     1
102
RTVSPropertyOp55
 70
     1
102
RTVSPropertyOp56
 70
     1
102
RTVSPropertyOp57
 70
     1
102
RTVSPost2010Prop28
280
     0
102
RTVSPost2010PropOp28
 70
     1
102
RTVSPost2010Prop29
280
     1
102
RTVSPost2010PropOp29
 70
     1
102
RTVSPost2010Prop30
280
     1
102
RTVSPost2010PropOp30
 70
     1
102
RTVSPost2010Prop31
280
     0
102
RTVSPost2010PropOp31
 70
     1
102
RTVSPost2010Prop32
280
     0
102
RTVSPost2010PropOp32
 70
     1
102
RTVSPost2010Prop33
280
     0
102
RTVSPost2010PropOp33
 70
     1
102
RTVSPost2010Prop34
280
     0
102
RTVSPost2010PropOp34
 70
     1
102
RTVSPost2010Prop35
280
     0
102
RTVSPost2010PropOp35
 70
     1
102
RTVSPost2010Prop36
280
     0
102
RTVSPost2010PropOp36
 70
     1
102
RTVSPost2010Prop37
 90
       50
102
RTVSPost2010PropOp37
 70
     1
102
RTVSPost2010Prop38
140
0.0
102
RTVSPost2010PropOp38
 70
     1
102
RTVSPost2010Prop39
140
1.0
102
RTVSPost2010PropOp39
 70
     1
102
RTVSPost2010Prop40
 90
        0
102
RTVSPost2010PropOp40
 70
     1
102
RTVSPost2010Prop41ColorIndex
 90
       18
102
RTVSPost2010Prop41ColorRGB
 90
        0
102
RTVSPost2010PropOp41
 70
     1
102
RTVSPost2010Prop42
 90
       50
102
RTVSPost2010PropOp42
 70
     1
102
RTVSPost2010Prop43
 90
        3
102
RTVSPost2010PropOp43
 70
     1
102
RTVSPost2010Prop44ColorIndex
 90
        5
102
RTVSPost2010Prop44ColorRGB
 90
      255
102
RTVSPost2010PropOp44
 70
     1
102
RTVSPost2010Prop45
280
     0
102
RTVSPost2010PropOp45
 70
     1
102
RTVSPost2010Prop46
 90
       50
102
RTVSPost2010PropOp46
 70
     1
102
RTVSPost2010Prop47
 90
       50
102
RTVSPost2010PropOp47
 70
     1
102
RTVSPost2010Prop48
 90
       50
102
RTVSPost2010PropOp48
 70
     1
102
RTVSPost2010Prop49
280
     0
102
RTVSPost2010PropOp49
 70
     1
102
RTVSPost2010Prop50
 90
       50
102
RTVSPost2010PropOp50
 70
     1
102
RTVSPost2010Prop51ColorIndex
 90
      256
102
RTVSPost2010Prop51ColorRGB
 90
-16777216
102
RTVSPost2010PropOp51
 70
     0
102
RTVSPost2010Prop52
140
1.0
102
RTVSPost2010PropOp52
 70
     0
102
RTVSPost2010Prop53
 90
        2
102
RTVSPost2010PropOp53
 70
     1
102
RTVSPost2010Prop54
  1
strokes_ogs.tif
102
RTVSPost2010PropOp54
 70
     1
102
RTVSPost2010Prop55
280
     0
102
RTVSPost2010PropOp55
 70
     1
102
RTVSPost2010Prop56
140
1.0
102
RTVSPost2010PropOp56
 70
     1
102
RTVSPost2010Prop57
140
1.0
102
RTVSPost2010PropOp57
 70
     1
  0
XRECORD
  5
367
102
{ACAD_REACTORS
330
366
102
}
330
366
100
AcDbXrecord
280
     1
102
RTVSPropertyOp0
 70
     1
102
RTVSPropertyOp1
 70
     1
102
RTVSPropertyOp2
 70
     1
102
RTVSPropertyOp3
 70
     1
102
RTVSPropertyOp4
 70
     1
102
RTVSPropertyOp5
 70
     1
102
RTVSPropertyOp6
 70
     1
102
RTVSPropertyOp7
 70
     1
102
RTVSPropertyOp8
 70
     1
102
RTVSPropertyOp9
 70
     1
102
RTVSPropertyOp10
 70
     1
102
RTVSPropertyOp11
 70
     1
102
RTVSPropertyOp12
 70
     1
102
RTVSPropertyOp13
 70
     1
102
RTVSPropertyOp14
 70
     1
102
RTVSPropertyOp15
 70
     1
102
RTVSPropertyOp16
 70
     1
102
RTVSPropertyOp17
 70
     1
102
RTVSPropertyOp18
 70
     1
102
RTVSPropertyOp19
 70
     1
102
RTVSPropertyOp20
 70
     1
102
RTVSPropertyOp21
 70
     1
102
RTVSPropertyOp22
 70
     1
102
RTVSPropertyOp23
 70
     1
102
RTVSPropertyOp24
 70
     1
102
RTVSPropertyOp25
 70
     1
102
RTVSPropertyOp26
 70
     1
102
RTVSPropertyOp27
 70
     1
102
RTVSPropertyOp28
 70
     1
102
RTVSPropertyOp29
 70
     1
102
RTVSPropertyOp30
 70
     1
102
RTVSPropertyOp31
 70
     1
102
RTVSPropertyOp32
 70
     1
102
RTVSPropertyOp33
 70
     1
102
RTVSPropertyOp34
 70
     1
102
RTVSPropertyOp35
 70
     1
102
RTVSPropertyOp36
 70
     1
102
RTVSPropertyOp37
 70
     1
102
RTVSPropertyOp38
 70
     1
102
RTVSPropertyOp39
 70
     1
102
RTVSPropertyOp40
 70
     1
102
RTVSPropertyOp41
 70
     1
102
RTVSPropertyOp42
 70
     1
102
RTVSPropertyOp43
 70
     1
102
RTVSPropertyOp44
 70
     1
102
RTVSPropertyOp45
 70
     1
102
RTVSPropertyOp46
 70
     1
102
RTVSPropertyOp47
 70
     1
102
RTVSPropertyOp48
 70
     1
102
RTVSPropertyOp49
 70
     1
102
RTVSPropertyOp50
 70
     1
102
RTVSPropertyOp51
 70
     0
102
RTVSPropertyOp52
 70
     0
102
RTVSPropertyOp53
 70
     1
102
RTVSPropertyOp54
 70
     1
102
RTVSPropertyOp55
 70
     1
102
RTVSPropertyOp56
 70
     1
102
RTVSPropertyOp57
 70
     1
102
RTVSPost2010Prop28
280
     0
102
RTVSPost2010PropOp28
 70
     1
102
RTVSPost2010Prop29
280
     1
102
RTVSPost2010PropOp29
 70
     1
102
RTVSPost2010Prop30
280
     1
102
RTVSPost2010PropOp30
 70
     1
102
RTVSPost2010Prop31
280
     0
102
RTVSPost2010PropOp31
 70
     1
102
RTVSPost2010Prop32
280
     0
102
RTVSPost2010PropOp32
 70
     1
102
RTVSPost2010Prop33
280
     0
102
RTVSPost2010PropOp33
 70
     1
102
RTVSPost2010Prop34
280
     0
102
RTVSPost2010PropOp34
 70
     1
102
RTVSPost2010Prop35
280
     0
102
RTVSPost2010PropOp35
 70
     1
102
RTVSPost2010Prop36
280
     0
102
RTVSPost2010PropOp36
 70
     1
102
RTVSPost2010Prop37
 90
       50
102
RTVSPost2010PropOp37
 70
     1
102
RTVSPost2010Prop38
140
0.0
102
RTVSPost2010PropOp38
 70
     1
102
RTVSPost2010Prop39
140
1.0
102
RTVSPost2010PropOp39
 70
     1
102
RTVSPost2010Prop40
 90
        0
102
RTVSPost2010PropOp40
 70
     1
102
RTVSPost2010Prop41ColorIndex
 90
       18
102
RTVSPost2010Prop41ColorRGB
 90
        0
102
RTVSPost2010PropOp41
 70
     1
102
RTVSPost2010Prop42
 90
       50
102
RTVSPost2010PropOp42
 70
     1
102
RTVSPost2010Prop43
 90
        3
102
RTVSPost2010PropOp43
 70
     1
102
RTVSPost2010Prop44ColorIndex
 90
        5
102
RTVSPost2010Prop44ColorRGB
 90
      255
102
RTVSPost2010PropOp44
 70
     1
102
RTVSPost2010Prop45
280
     0
102
RTVSPost2010PropOp45
 70
     1
102
RTVSPost2010Prop46
 90
       50
102
RTVSPost2010PropOp46
 70
     1
102
RTVSPost2010Prop47
 90
       50
102
RTVSPost2010PropOp47
 70
     1
102
RTVSPost2010Prop48
 90
       50
102
RTVSPost2010PropOp48
 70
     1
102
RTVSPost2010Prop49
280
     0
102
RTVSPost2010PropOp49
 70
     1
102
RTVSPost2010Prop50
 90
       50
102
RTVSPost2010PropOp50
 70
     1
102
RTVSPost2010Prop51ColorIndex
 90
      256
102
RTVSPost2010Prop51ColorRGB
 90
-16777216
102
RTVSPost2010PropOp51
 70
     0
102
RTVSPost2010Prop52
140
1.0
102
RTVSPost2010PropOp52
 70
     0
102
RTVSPost2010Prop53
 90
        2
102
RTVSPost2010PropOp53
 70
     1
102
RTVSPost2010Prop54
  1
strokes_ogs.tif
102
RTVSPost2010PropOp54
 70
     1
102
RTVSPost2010Prop55
280
     0
102
RTVSPost2010PropOp55
 70
     1
102
RTVSPost2010Prop56
140
1.0
102
RTVSPost2010PropOp56
 70
     1
102
RTVSPost2010Prop57
140
1.0
102
RTVSPost2010PropOp57
 70
     1
  0
XRECORD
  5
369
102
{ACAD_REACTORS
330
368
102
}
330
368
100
AcDbXrecord
280
     1
102
RTVSPropertyOp0
 70
     1
102
RTVSPropertyOp1
 70
     1
102
RTVSPropertyOp2
 70
     1
102
RTVSPropertyOp3
 70
     1
102
RTVSPropertyOp4
 70
     1
102
RTVSPropertyOp5
 70
     1
102
RTVSPropertyOp6
 70
     1
102
RTVSPropertyOp7
 70
     1
102
RTVSPropertyOp8
 70
     1
102
RTVSPropertyOp9
 70
     1
102
RTVSPropertyOp10
 70
     1
102
RTVSPropertyOp11
 70
     1
102
RTVSPropertyOp12
 70
     1
102
RTVSPropertyOp13
 70
     1
102
RTVSPropertyOp14
 70
     1
102
RTVSPropertyOp15
 70
     1
102
RTVSPropertyOp16
 70
     1
102
RTVSPropertyOp17
 70
     1
102
RTVSPropertyOp18
 70
     1
102
RTVSPropertyOp19
 70
     1
102
RTVSPropertyOp20
 70
     1
102
RTVSPropertyOp21
 70
     1
102
RTVSPropertyOp22
 70
     1
102
RTVSPropertyOp23
 70
     1
102
RTVSPropertyOp24
 70
     1
102
RTVSPropertyOp25
 70
     1
102
RTVSPropertyOp26
 70
     1
102
RTVSPropertyOp27
 70
     1
102
RTVSPropertyOp28
 70
     1
102
RTVSPropertyOp29
 70
     1
102
RTVSPropertyOp30
 70
     1
102
RTVSPropertyOp31
 70
     1
102
RTVSPropertyOp32
 70
     1
102
RTVSPropertyOp33
 70
     1
102
RTVSPropertyOp34
 70
     1
102
RTVSPropertyOp35
 70
     1
102
RTVSPropertyOp36
 70
     1
102
RTVSPropertyOp37
 70
     1
102
RTVSPropertyOp38
 70
     1
102
RTVSPropertyOp39
 70
     1
102
RTVSPropertyOp40
 70
     1
102
RTVSPropertyOp41
 70
     1
102
RTVSPropertyOp42
 70
     1
102
RTVSPropertyOp43
 70
     1
102
RTVSPropertyOp44
 70
     1
102
RTVSPropertyOp45
 70
     1
102
RTVSPropertyOp46
 70
     1
102
RTVSPropertyOp47
 70
     1
102
RTVSPropertyOp48
 70
     1
102
RTVSPropertyOp49
 70
     1
102
RTVSPropertyOp50
 70
     1
102
RTVSPropertyOp51
 70
     0
102
RTVSPropertyOp52
 70
     0
102
RTVSPropertyOp53
 70
     1
102
RTVSPropertyOp54
 70
     1
102
RTVSPropertyOp55
 70
     1
102
RTVSPropertyOp56
 70
     1
102
RTVSPropertyOp57
 70
     1
102
RTVSPost2010Prop28
280
     0
102
RTVSPost2010PropOp28
 70
     1
102
RTVSPost2010Prop29
280
     1
102
RTVSPost2010PropOp29
 70
     1
102
RTVSPost2010Prop30
280
     1
102
RTVSPost2010PropOp30
 70
     1
102
RTVSPost2010Prop31
280
     0
102
RTVSPost2010PropOp31
 70
     1
102
RTVSPost2010Prop32
280
     0
102
RTVSPost2010PropOp32
 70
     1
102
RTVSPost2010Prop33
280
     0
102
RTVSPost2010PropOp33
 70
     1
102
RTVSPost2010Prop34
280
     0
102
RTVSPost2010PropOp34
 70
     1
102
RTVSPost2010Prop35
280
     0
102
RTVSPost2010PropOp35
 70
     1
102
RTVSPost2010Prop36
280
     0
102
RTVSPost2010PropOp36
 70
     1
102
RTVSPost2010Prop37
 90
       50
102
RTVSPost2010PropOp37
 70
     1
102
RTVSPost2010Prop38
140
0.0
102
RTVSPost2010PropOp38
 70
     1
102
RTVSPost2010Prop39
140
1.0
102
RTVSPost2010PropOp39
 70
     1
102
RTVSPost2010Prop40
 90
        0
102
RTVSPost2010PropOp40
 70
     1
102
RTVSPost2010Prop41ColorIndex
 90
       18
102
RTVSPost2010Prop41ColorRGB
 90
        0
102
RTVSPost2010PropOp41
 70
     1
102
RTVSPost2010Prop42
 90
       50
102
RTVSPost2010PropOp42
 70
     1
102
RTVSPost2010Prop43
 90
        3
102
RTVSPost2010PropOp43
 70
     1
102
RTVSPost2010Prop44ColorIndex
 90
        5
102
RTVSPost2010Prop44ColorRGB
 90
      255
102
RTVSPost2010PropOp44
 70
     1
102
RTVSPost2010Prop45
280
     0
102
RTVSPost2010PropOp45
 70
     1
102
RTVSPost2010Prop46
 90
       50
102
RTVSPost2010PropOp46
 70
     1
102
RTVSPost2010Prop47
 90
       50
102
RTVSPost2010PropOp47
 70
     1
102
RTVSPost2010Prop48
 90
       50
102
RTVSPost2010PropOp48
 70
     1
102
RTVSPost2010Prop49
280
     0
102
RTVSPost2010PropOp49
 70
     1
102
RTVSPost2010Prop50
 90
       50
102
RTVSPost2010PropOp50
 70
     1
102
RTVSPost2010Prop51ColorIndex
 90
      256
102
RTVSPost2010Prop51ColorRGB
 90
-16777216
102
RTVSPost2010PropOp51
 70
     0
102
RTVSPost2010Prop52
140
1.0
102
RTVSPost2010PropOp52
 70
     0
102
RTVSPost2010Prop53
 90
        2
102
RTVSPost2010PropOp53
 70
     1
102
RTVSPost2010Prop54
  1
strokes_ogs.tif
102
RTVSPost2010PropOp54
 70
     1
102
RTVSPost2010Prop55
280
     0
102
RTVSPost2010PropOp55
 70
     1
102
RTVSPost2010Prop56
140
1.0
102
RTVSPost2010PropOp56
 70
     1
102
RTVSPost2010Prop57
140
1.0
102
RTVSPost2010PropOp57
 70
     1
  0
XRECORD
  5
36B
102
{ACAD_REACTORS
330
36A
102
}
330
36A
100
AcDbXrecord
280
     1
102
RTVSPropertyOp0
 70
     1
102
RTVSPropertyOp1
 70
     1
102
RTVSPropertyOp2
 70
     1
102
RTVSPropertyOp3
 70
     1
102
RTVSPropertyOp4
 70
     1
102
RTVSPropertyOp5
 70
     1
102
RTVSPropertyOp6
 70
     1
102
RTVSPropertyOp7
 70
     1
102
RTVSPropertyOp8
 70
     1
102
RTVSPropertyOp9
 70
     1
102
RTVSPropertyOp10
 70
     1
102
RTVSPropertyOp11
 70
     1
102
RTVSPropertyOp12
 70
     1
102
RTVSPropertyOp13
 70
     1
102
RTVSPropertyOp14
 70
     1
102
RTVSPropertyOp15
 70
     1
102
RTVSPropertyOp16
 70
     1
102
RTVSPropertyOp17
 70
     1
102
RTVSPropertyOp18
 70
     1
102
RTVSPropertyOp19
 70
     1
102
RTVSPropertyOp20
 70
     1
102
RTVSPropertyOp21
 70
     1
102
RTVSPropertyOp22
 70
     1
102
RTVSPropertyOp23
 70
     1
102
RTVSPropertyOp24
 70
     1
102
RTVSPropertyOp25
 70
     1
102
RTVSPropertyOp26
 70
     1
102
RTVSPropertyOp27
 70
     1
102
RTVSPropertyOp28
 70
     1
102
RTVSPropertyOp29
 70
     1
102
RTVSPropertyOp30
 70
     1
102
RTVSPropertyOp31
 70
     1
102
RTVSPropertyOp32
 70
     1
102
RTVSPropertyOp33
 70
     1
102
RTVSPropertyOp34
 70
     1
102
RTVSPropertyOp35
 70
     1
102
RTVSPropertyOp36
 70
     1
102
RTVSPropertyOp37
 70
     1
102
RTVSPropertyOp38
 70
     1
102
RTVSPropertyOp39
 70
     1
102
RTVSPropertyOp40
 70
     1
102
RTVSPropertyOp41
 70
     1
102
RTVSPropertyOp42
 70
     1
102
RTVSPropertyOp43
 70
     1
102
RTVSPropertyOp44
 70
     1
102
RTVSPropertyOp45
 70
     1
102
RTVSPropertyOp46
 70
     1
102
RTVSPropertyOp47
 70
     1
102
RTVSPropertyOp48
 70
     1
102
RTVSPropertyOp49
 70
     1
102
RTVSPropertyOp50
 70
     1
102
RTVSPropertyOp51
 70
     0
102
RTVSPropertyOp52
 70
     0
102
RTVSPropertyOp53
 70
     1
102
RTVSPropertyOp54
 70
     1
102
RTVSPropertyOp55
 70
     1
102
RTVSPropertyOp56
 70
     1
102
RTVSPropertyOp57
 70
     1
102
RTVSPost2010Prop28
280
     0
102
RTVSPost2010PropOp28
 70
     1
102
RTVSPost2010Prop29
280
     1
102
RTVSPost2010PropOp29
 70
     1
102
RTVSPost2010Prop30
280
     1
102
RTVSPost2010PropOp30
 70
     1
102
RTVSPost2010Prop31
280
     0
102
RTVSPost2010PropOp31
 70
     1
102
RTVSPost2010Prop32
280
     0
102
RTVSPost2010PropOp32
 70
     1
102
RTVSPost2010Prop33
280
     0
102
RTVSPost2010PropOp33
 70
     1
102
RTVSPost2010Prop34
280
     0
102
RTVSPost2010PropOp34
 70
     1
102
RTVSPost2010Prop35
280
     0
102
RTVSPost2010PropOp35
 70
     1
102
RTVSPost2010Prop36
280
     0
102
RTVSPost2010PropOp36
 70
     1
102
RTVSPost2010Prop37
 90
       50
102
RTVSPost2010PropOp37
 70
     1
102
RTVSPost2010Prop38
140
0.0
102
RTVSPost2010PropOp38
 70
     1
102
RTVSPost2010Prop39
140
1.0
102
RTVSPost2010PropOp39
 70
     1
102
RTVSPost2010Prop40
 90
        0
102
RTVSPost2010PropOp40
 70
     1
102
RTVSPost2010Prop41ColorIndex
 90
       18
102
RTVSPost2010Prop41ColorRGB
 90
        0
102
RTVSPost2010PropOp41
 70
     1
102
RTVSPost2010Prop42
 90
       50
102
RTVSPost2010PropOp42
 70
     1
102
RTVSPost2010Prop43
 90
        3
102
RTVSPost2010PropOp43
 70
     1
102
RTVSPost2010Prop44ColorIndex
 90
        5
102
RTVSPost2010Prop44ColorRGB
 90
      255
102
RTVSPost2010PropOp44
 70
     1
102
RTVSPost2010Prop45
280
     0
102
RTVSPost2010PropOp45
 70
     1
102
RTVSPost2010Prop46
 90
       50
102
RTVSPost2010PropOp46
 70
     1
102
RTVSPost2010Prop47
 90
       50
102
RTVSPost2010PropOp47
 70
     1
102
RTVSPost2010Prop48
 90
       50
102
RTVSPost2010PropOp48
 70
     1
102
RTVSPost2010Prop49
280
     0
102
RTVSPost2010PropOp49
 70
     1
102
RTVSPost2010Prop50
 90
       50
102
RTVSPost2010PropOp50
 70
     1
102
RTVSPost2010Prop51ColorIndex
 90
      256
102
RTVSPost2010Prop51ColorRGB
 90
-16777216
102
RTVSPost2010PropOp51
 70
     0
102
RTVSPost2010Prop52
140
1.0
102
RTVSPost2010PropOp52
 70
     0
102
RTVSPost2010Prop53
 90
        2
102
RTVSPost2010PropOp53
 70
     1
102
RTVSPost2010Prop54
  1
strokes_ogs.tif
102
RTVSPost2010PropOp54
 70
     1
102
RTVSPost2010Prop55
280
     0
102
RTVSPost2010PropOp55
 70
     1
102
RTVSPost2010Prop56
140
1.0
102
RTVSPost2010PropOp56
 70
     1
102
RTVSPost2010Prop57
140
1.0
102
RTVSPost2010PropOp57
 70
     1
  0
XRECORD
  5
371
102
{ACAD_REACTORS
330
370
102
}
330
370
100
AcDbXrecord
280
     1
102
RTVSPropertyOp0
 70
     1
102
RTVSPropertyOp1
 70
     1
102
RTVSPropertyOp2
 70
     1
102
RTVSPropertyOp3
 70
     1
102
RTVSPropertyOp4
 70
     1
102
RTVSPropertyOp5
 70
     1
102
RTVSPropertyOp6
 70
     1
102
RTVSPropertyOp7
 70
     1
102
RTVSPropertyOp8
 70
     1
102
RTVSPropertyOp9
 70
     1
102
RTVSPropertyOp10
 70
     1
102
RTVSPropertyOp11
 70
     1
102
RTVSPropertyOp12
 70
     1
102
RTVSPropertyOp13
 70
     1
102
RTVSPropertyOp14
 70
     1
102
RTVSPropertyOp15
 70
     1
102
RTVSPropertyOp16
 70
     1
102
RTVSPropertyOp17
 70
     1
102
RTVSPropertyOp18
 70
     1
102
RTVSPropertyOp19
 70
     1
102
RTVSPropertyOp20
 70
     1
102
RTVSPropertyOp21
 70
     1
102
RTVSPropertyOp22
 70
     1
102
RTVSPropertyOp23
 70
     1
102
RTVSPropertyOp24
 70
     1
102
RTVSPropertyOp25
 70
     1
102
RTVSPropertyOp26
 70
     1
102
RTVSPropertyOp27
 70
     1
102
RTVSPropertyOp28
 70
     1
102
RTVSPropertyOp29
 70
     1
102
RTVSPropertyOp30
 70
     1
102
RTVSPropertyOp31
 70
     1
102
RTVSPropertyOp32
 70
     1
102
RTVSPropertyOp33
 70
     1
102
RTVSPropertyOp34
 70
     1
102
RTVSPropertyOp35
 70
     1
102
RTVSPropertyOp36
 70
     1
102
RTVSPropertyOp37
 70
     1
102
RTVSPropertyOp38
 70
     1
102
RTVSPropertyOp39
 70
     1
102
RTVSPropertyOp40
 70
     1
102
RTVSPropertyOp41
 70
     1
102
RTVSPropertyOp42
 70
     1
102
RTVSPropertyOp43
 70
     1
102
RTVSPropertyOp44
 70
     1
102
RTVSPropertyOp45
 70
     1
102
RTVSPropertyOp46
 70
     1
102
RTVSPropertyOp47
 70
     1
102
RTVSPropertyOp48
 70
     1
102
RTVSPropertyOp49
 70
     1
102
RTVSPropertyOp50
 70
     1
102
RTVSPropertyOp51
 70
     0
102
RTVSPropertyOp52
 70
     0
102
RTVSPropertyOp53
 70
     1
102
RTVSPropertyOp54
 70
     1
102
RTVSPropertyOp55
 70
     1
102
RTVSPropertyOp56
 70
     1
102
RTVSPropertyOp57
 70
     1
102
RTVSPost2010Prop28
280
     0
102
RTVSPost2010PropOp28
 70
     1
102
RTVSPost2010Prop29
280
     1
102
RTVSPost2010PropOp29
 70
     1
102
RTVSPost2010Prop30
280
     1
102
RTVSPost2010PropOp30
 70
     1
102
RTVSPost2010Prop31
280
     0
102
RTVSPost2010PropOp31
 70
     1
102
RTVSPost2010Prop32
280
     0
102
RTVSPost2010PropOp32
 70
     1
102
RTVSPost2010Prop33
280
     0
102
RTVSPost2010PropOp33
 70
     1
102
RTVSPost2010Prop34
280
     0
102
RTVSPost2010PropOp34
 70
     1
102
RTVSPost2010Prop35
280
     0
102
RTVSPost2010PropOp35
 70
     1
102
RTVSPost2010Prop36
280
     0
102
RTVSPost2010PropOp36
 70
     1
102
RTVSPost2010Prop37
 90
       50
102
RTVSPost2010PropOp37
 70
     1
102
RTVSPost2010Prop38
140
0.0
102
RTVSPost2010PropOp38
 70
     1
102
RTVSPost2010Prop39
140
1.0
102
RTVSPost2010PropOp39
 70
     1
102
RTVSPost2010Prop40
 90
        0
102
RTVSPost2010PropOp40
 70
     1
102
RTVSPost2010Prop41ColorIndex
 90
       18
102
RTVSPost2010Prop41ColorRGB
 90
        0
102
RTVSPost2010PropOp41
 70
     1
102
RTVSPost2010Prop42
 90
       50
102
RTVSPost2010PropOp42
 70
     1
102
RTVSPost2010Prop43
 90
        3
102
RTVSPost2010PropOp43
 70
     1
102
RTVSPost2010Prop44ColorIndex
 90
        5
102
RTVSPost2010Prop44ColorRGB
 90
      255
102
RTVSPost2010PropOp44
 70
     1
102
RTVSPost2010Prop45
280
     0
102
RTVSPost2010PropOp45
 70
     1
102
RTVSPost2010Prop46
 90
       50
102
RTVSPost2010PropOp46
 70
     1
102
RTVSPost2010Prop47
 90
       50
102
RTVSPost2010PropOp47
 70
     1
102
RTVSPost2010Prop48
 90
       50
102
RTVSPost2010PropOp48
 70
     1
102
RTVSPost2010Prop49
280
     0
102
RTVSPost2010PropOp49
 70
     1
102
RTVSPost2010Prop50
 90
       50
102
RTVSPost2010PropOp50
 70
     1
102
RTVSPost2010Prop51ColorIndex
 90
      256
102
RTVSPost2010Prop51ColorRGB
 90
-16777216
102
RTVSPost2010PropOp51
 70
     0
102
RTVSPost2010Prop52
140
1.0
102
RTVSPost2010PropOp52
 70
     0
102
RTVSPost2010Prop53
 90
        2
102
RTVSPost2010PropOp53
 70
     1
102
RTVSPost2010Prop54
  1
strokes_ogs.tif
102
RTVSPost2010PropOp54
 70
     1
102
RTVSPost2010Prop55
280
     0
102
RTVSPost2010PropOp55
 70
     1
102
RTVSPost2010Prop56
140
1.0
102
RTVSPost2010PropOp56
 70
     1
102
RTVSPost2010Prop57
140
1.0
102
RTVSPost2010PropOp57
 70
     1
  0
XRECORD
  5
385
102
{ACAD_REACTORS
330
384
102
}
330
384
100
AcDbXrecord
280
     1
102
RTVSPropertyOp0
 70
     0
102
RTVSPropertyOp1
 70
     0
102
RTVSPropertyOp2
 70
     0
102
RTVSPropertyOp3
 70
     0
102
RTVSPropertyOp4
 70
     0
102
RTVSPropertyOp5
 70
     0
102
RTVSPropertyOp6
 70
     0
102
RTVSPropertyOp7
 70
     0
102
RTVSPropertyOp8
 70
     0
102
RTVSPropertyOp9
 70
     0
102
RTVSPropertyOp10
 70
     0
102
RTVSPropertyOp11
 70
     0
102
RTVSPropertyOp12
 70
     0
102
RTVSPropertyOp13
 70
     0
102
RTVSPropertyOp14
 70
     2
102
RTVSPropertyOp15
 70
     0
102
RTVSPropertyOp16
 70
     0
102
RTVSPropertyOp17
 70
     0
102
RTVSPropertyOp18
 70
     0
102
RTVSPropertyOp19
 70
     0
102
RTVSPropertyOp20
 70
     0
102
RTVSPropertyOp21
 70
     0
102
RTVSPropertyOp22
 70
     0
102
RTVSPropertyOp23
 70
     0
102
RTVSPropertyOp24
 70
     0
102
RTVSPropertyOp25
 70
     0
102
RTVSPropertyOp26
 70
     0
102
RTVSPropertyOp27
 70
     0
102
RTVSPropertyOp28
 70
     0
102
RTVSPropertyOp29
 70
     0
102
RTVSPropertyOp30
 70
     0
102
RTVSPropertyOp31
 70
     0
102
RTVSPropertyOp32
 70
     0
102
RTVSPropertyOp33
 70
     0
102
RTVSPropertyOp34
 70
     0
102
RTVSPropertyOp35
 70
     0
102
RTVSPropertyOp36
 70
     0
102
RTVSPropertyOp37
 70
     0
102
RTVSPropertyOp38
 70
     0
102
RTVSPropertyOp39
 70
     0
102
RTVSPropertyOp40
 70
     0
102
RTVSPropertyOp41
 70
     0
102
RTVSPropertyOp42
 70
     0
102
RTVSPropertyOp43
 70
     0
102
RTVSPropertyOp44
 70
     0
102
RTVSPropertyOp45
 70
     0
102
RTVSPropertyOp46
 70
     0
102
RTVSPropertyOp47
 70
     0
102
RTVSPropertyOp48
 70
     0
102
RTVSPropertyOp49
 70
     0
102
RTVSPropertyOp50
 70
     0
102
RTVSPropertyOp51
 70
     0
102
RTVSPropertyOp52
 70
     0
102
RTVSPropertyOp53
 70
     0
102
RTVSPropertyOp54
 70
     0
102
RTVSPropertyOp55
 70
     0
102
RTVSPropertyOp56
 70
     0
102
RTVSPropertyOp57
 70
     0
102
RTVSPost2010Prop28
280
     0
102
RTVSPost2010PropOp28
 70
     0
102
RTVSPost2010Prop29
280
     1
102
RTVSPost2010PropOp29
 70
     0
102
RTVSPost2010Prop30
280
     1
102
RTVSPost2010PropOp30
 70
     0
102
RTVSPost2010Prop31
280
     0
102
RTVSPost2010PropOp31
 70
     0
102
RTVSPost2010Prop32
280
     0
102
RTVSPost2010PropOp32
 70
     0
102
RTVSPost2010Prop33
280
     0
102
RTVSPost2010PropOp33
 70
     0
102
RTVSPost2010Prop34
280
     0
102
RTVSPost2010PropOp34
 70
     0
102
RTVSPost2010Prop35
280
     0
102
RTVSPost2010PropOp35
 70
     0
102
RTVSPost2010Prop36
280
     0
102
RTVSPost2010PropOp36
 70
     0
102
RTVSPost2010Prop37
 90
       50
102
RTVSPost2010PropOp37
 70
     0
102
RTVSPost2010Prop38
140
0.0
102
RTVSPost2010PropOp38
 70
     0
102
RTVSPost2010Prop39
140
1.0
102
RTVSPost2010PropOp39
 70
     0
102
RTVSPost2010Prop40
 90
        0
102
RTVSPost2010PropOp40
 70
     0
102
RTVSPost2010Prop41ColorIndex
 90
       18
102
RTVSPost2010Prop41ColorRGB
 90
        0
102
RTVSPost2010PropOp41
 70
     0
102
RTVSPost2010Prop42
 90
       50
102
RTVSPost2010PropOp42
 70
     0
102
RTVSPost2010Prop43
 90
        3
102
RTVSPost2010PropOp43
 70
     0
102
RTVSPost2010Prop44ColorIndex
 90
        5
102
RTVSPost2010Prop44ColorRGB
 90
      255
102
RTVSPost2010PropOp44
 70
     0
102
RTVSPost2010Prop45
280
     0
102
RTVSPost2010PropOp45
 70
     0
102
RTVSPost2010Prop46
 90
       50
102
RTVSPost2010PropOp46
 70
     0
102
RTVSPost2010Prop47
 90
       50
102
RTVSPost2010PropOp47
 70
     0
102
RTVSPost2010Prop48
 90
       50
102
RTVSPost2010PropOp48
 70
     0
102
RTVSPost2010Prop49
280
     0
102
RTVSPost2010PropOp49
 70
     0
102
RTVSPost2010Prop50
 90
       50
102
RTVSPost2010PropOp50
 70
     0
102
RTVSPost2010Prop51ColorIndex
 90
      256
102
RTVSPost2010Prop51ColorRGB
 90
-16777216
102
RTVSPost2010PropOp51
 70
     0
102
RTVSPost2010Prop52
140
1.0
102
RTVSPost2010PropOp52
 70
     0
102
RTVSPost2010Prop53
 90
        2
102
RTVSPost2010PropOp53
 70
     0
102
RTVSPost2010Prop54
  1
strokes_ogs.tif
102
RTVSPost2010PropOp54
 70
     0
102
RTVSPost2010Prop55
280
     0
102
RTVSPost2010PropOp55
 70
     0
102
RTVSPost2010Prop56
140
1.0
102
RTVSPost2010PropOp56
 70
     0
102
RTVSPost2010Prop57
140
1.0
102
RTVSPost2010PropOp57
 70
     0
  0
XRECORD
  5
37F
102
{ACAD_REACTORS
330
37E
102
}
330
37E
100
AcDbXrecord
280
     1
102
RTVSPropertyOp0
 70
     1
102
RTVSPropertyOp1
 70
     1
102
RTVSPropertyOp2
 70
     1
102
RTVSPropertyOp3
 70
     1
102
RTVSPropertyOp4
 70
     1
102
RTVSPropertyOp5
 70
     1
102
RTVSPropertyOp6
 70
     1
102
RTVSPropertyOp7
 70
     1
102
RTVSPropertyOp8
 70
     1
102
RTVSPropertyOp9
 70
     1
102
RTVSPropertyOp10
 70
     1
102
RTVSPropertyOp11
 70
     1
102
RTVSPropertyOp12
 70
     1
102
RTVSPropertyOp13
 70
     1
102
RTVSPropertyOp14
 70
     1
102
RTVSPropertyOp15
 70
     1
102
RTVSPropertyOp16
 70
     1
102
RTVSPropertyOp17
 70
     1
102
RTVSPropertyOp18
 70
     1
102
RTVSPropertyOp19
 70
     1
102
RTVSPropertyOp20
 70
     1
102
RTVSPropertyOp21
 70
     1
102
RTVSPropertyOp22
 70
     1
102
RTVSPropertyOp23
 70
     1
102
RTVSPropertyOp24
 70
     1
102
RTVSPropertyOp25
 70
     1
102
RTVSPropertyOp26
 70
     1
102
RTVSPropertyOp27
 70
     1
102
RTVSPropertyOp28
 70
     1
102
RTVSPropertyOp29
 70
     1
102
RTVSPropertyOp30
 70
     1
102
RTVSPropertyOp31
 70
     1
102
RTVSPropertyOp32
 70
     1
102
RTVSPropertyOp33
 70
     1
102
RTVSPropertyOp34
 70
     1
102
RTVSPropertyOp35
 70
     1
102
RTVSPropertyOp36
 70
     1
102
RTVSPropertyOp37
 70
     1
102
RTVSPropertyOp38
 70
     1
102
RTVSPropertyOp39
 70
     1
102
RTVSPropertyOp40
 70
     1
102
RTVSPropertyOp41
 70
     1
102
RTVSPropertyOp42
 70
     1
102
RTVSPropertyOp43
 70
     1
102
RTVSPropertyOp44
 70
     1
102
RTVSPropertyOp45
 70
     1
102
RTVSPropertyOp46
 70
     1
102
RTVSPropertyOp47
 70
     1
102
RTVSPropertyOp48
 70
     1
102
RTVSPropertyOp49
 70
     1
102
RTVSPropertyOp50
 70
     1
102
RTVSPropertyOp51
 70
     0
102
RTVSPropertyOp52
 70
     0
102
RTVSPropertyOp53
 70
     1
102
RTVSPropertyOp54
 70
     1
102
RTVSPropertyOp55
 70
     1
102
RTVSPropertyOp56
 70
     1
102
RTVSPropertyOp57
 70
     1
102
RTVSPost2010Prop28
280
     0
102
RTVSPost2010PropOp28
 70
     1
102
RTVSPost2010Prop29
280
     1
102
RTVSPost2010PropOp29
 70
     1
102
RTVSPost2010Prop30
280
     1
102
RTVSPost2010PropOp30
 70
     1
102
RTVSPost2010Prop31
280
     0
102
RTVSPost2010PropOp31
 70
     1
102
RTVSPost2010Prop32
280
     0
102
RTVSPost2010PropOp32
 70
     1
102
RTVSPost2010Prop33
280
     0
102
RTVSPost2010PropOp33
 70
     1
102
RTVSPost2010Prop34
280
     0
102
RTVSPost2010PropOp34
 70
     1
102
RTVSPost2010Prop35
280
     0
102
RTVSPost2010PropOp35
 70
     1
102
RTVSPost2010Prop36
280
     0
102
RTVSPost2010PropOp36
 70
     1
102
RTVSPost2010Prop37
 90
       50
102
RTVSPost2010PropOp37
 70
     1
102
RTVSPost2010Prop38
140
0.0
102
RTVSPost2010PropOp38
 70
     1
102
RTVSPost2010Prop39
140
1.0
102
RTVSPost2010PropOp39
 70
     1
102
RTVSPost2010Prop40
 90
        0
102
RTVSPost2010PropOp40
 70
     1
102
RTVSPost2010Prop41ColorIndex
 90
       18
102
RTVSPost2010Prop41ColorRGB
 90
        0
102
RTVSPost2010PropOp41
 70
     1
102
RTVSPost2010Prop42
 90
       50
102
RTVSPost2010PropOp42
 70
     1
102
RTVSPost2010Prop43
 90
        3
102
RTVSPost2010PropOp43
 70
     1
102
RTVSPost2010Prop44ColorIndex
 90
        5
102
RTVSPost2010Prop44ColorRGB
 90
      255
102
RTVSPost2010PropOp44
 70
     1
102
RTVSPost2010Prop45
280
     0
102
RTVSPost2010PropOp45
 70
     1
102
RTVSPost2010Prop46
 90
       50
102
RTVSPost2010PropOp46
 70
     1
102
RTVSPost2010Prop47
 90
       50
102
RTVSPost2010PropOp47
 70
     1
102
RTVSPost2010Prop48
 90
       50
102
RTVSPost2010PropOp48
 70
     1
102
RTVSPost2010Prop49
280
     0
102
RTVSPost2010PropOp49
 70
     1
102
RTVSPost2010Prop50
 90
       50
102
RTVSPost2010PropOp50
 70
     1
102
RTVSPost2010Prop51ColorIndex
 90
      256
102
RTVSPost2010Prop51ColorRGB
 90
-16777216
102
RTVSPost2010PropOp51
 70
     0
102
RTVSPost2010Prop52
140
1.0
102
RTVSPost2010PropOp52
 70
     0
102
RTVSPost2010Prop53
 90
        2
102
RTVSPost2010PropOp53
 70
     1
102
RTVSPost2010Prop54
  1
strokes_ogs.tif
102
RTVSPost2010PropOp54
 70
     1
102
RTVSPost2010Prop55
280
     0
102
RTVSPost2010PropOp55
 70
     1
102
RTVSPost2010Prop56
140
1.0
102
RTVSPost2010PropOp56
 70
     1
102
RTVSPost2010Prop57
140
1.0
102
RTVSPost2010PropOp57
 70
     1
  0
XRECORD
  5
387
102
{ACAD_REACTORS
330
386
102
}
330
386
100
AcDbXrecord
280
     1
102
RTVSPropertyOp0
 70
     0
102
RTVSPropertyOp1
 70
     0
102
RTVSPropertyOp2
 70
     0
102
RTVSPropertyOp3
 70
     0
102
RTVSPropertyOp4
 70
     0
102
RTVSPropertyOp5
 70
     0
102
RTVSPropertyOp6
 70
     0
102
RTVSPropertyOp7
 70
     0
102
RTVSPropertyOp8
 70
     0
102
RTVSPropertyOp9
 70
     0
102
RTVSPropertyOp10
 70
     0
102
RTVSPropertyOp11
 70
     0
102
RTVSPropertyOp12
 70
     0
102
RTVSPropertyOp13
 70
     0
102
RTVSPropertyOp14
 70
     2
102
RTVSPropertyOp15
 70
     0
102
RTVSPropertyOp16
 70
     0
102
RTVSPropertyOp17
 70
     0
102
RTVSPropertyOp18
 70
     0
102
RTVSPropertyOp19
 70
     0
102
RTVSPropertyOp20
 70
     0
102
RTVSPropertyOp21
 70
     0
102
RTVSPropertyOp22
 70
     0
102
RTVSPropertyOp23
 70
     0
102
RTVSPropertyOp24
 70
     0
102
RTVSPropertyOp25
 70
     0
102
RTVSPropertyOp26
 70
     0
102
RTVSPropertyOp27
 70
     0
102
RTVSPropertyOp28
 70
     0
102
RTVSPropertyOp29
 70
     0
102
RTVSPropertyOp30
 70
     0
102
RTVSPropertyOp31
 70
     0
102
RTVSPropertyOp32
 70
     0
102
RTVSPropertyOp33
 70
     0
102
RTVSPropertyOp34
 70
     0
102
RTVSPropertyOp35
 70
     0
102
RTVSPropertyOp36
 70
     0
102
RTVSPropertyOp37
 70
     0
102
RTVSPropertyOp38
 70
     0
102
RTVSPropertyOp39
 70
     0
102
RTVSPropertyOp40
 70
     0
102
RTVSPropertyOp41
 70
     0
102
RTVSPropertyOp42
 70
     0
102
RTVSPropertyOp43
 70
     0
102
RTVSPropertyOp44
 70
     0
102
RTVSPropertyOp45
 70
     0
102
RTVSPropertyOp46
 70
     0
102
RTVSPropertyOp47
 70
     0
102
RTVSPropertyOp48
 70
     0
102
RTVSPropertyOp49
 70
     0
102
RTVSPropertyOp50
 70
     0
102
RTVSPropertyOp51
 70
     0
102
RTVSPropertyOp52
 70
     0
102
RTVSPropertyOp53
 70
     0
102
RTVSPropertyOp54
 70
     0
102
RTVSPropertyOp55
 70
     0
102
RTVSPropertyOp56
 70
     0
102
RTVSPropertyOp57
 70
     0
102
RTVSPost2010Prop28
280
     0
102
RTVSPost2010PropOp28
 70
     0
102
RTVSPost2010Prop29
280
     1
102
RTVSPost2010PropOp29
 70
     0
102
RTVSPost2010Prop30
280
     1
102
RTVSPost2010PropOp30
 70
     0
102
RTVSPost2010Prop31
280
     0
102
RTVSPost2010PropOp31
 70
     0
102
RTVSPost2010Prop32
280
     0
102
RTVSPost2010PropOp32
 70
     0
102
RTVSPost2010Prop33
280
     0
102
RTVSPost2010PropOp33
 70
     0
102
RTVSPost2010Prop34
280
     0
102
RTVSPost2010PropOp34
 70
     0
102
RTVSPost2010Prop35
280
     0
102
RTVSPost2010PropOp35
 70
     0
102
RTVSPost2010Prop36
280
     0
102
RTVSPost2010PropOp36
 70
     0
102
RTVSPost2010Prop37
 90
       50
102
RTVSPost2010PropOp37
 70
     0
102
RTVSPost2010Prop38
140
0.0
102
RTVSPost2010PropOp38
 70
     0
102
RTVSPost2010Prop39
140
1.0
102
RTVSPost2010PropOp39
 70
     0
102
RTVSPost2010Prop40
 90
        0
102
RTVSPost2010PropOp40
 70
     0
102
RTVSPost2010Prop41ColorIndex
 90
       18
102
RTVSPost2010Prop41ColorRGB
 90
        0
102
RTVSPost2010PropOp41
 70
     0
102
RTVSPost2010Prop42
 90
       50
102
RTVSPost2010PropOp42
 70
     0
102
RTVSPost2010Prop43
 90
        3
102
RTVSPost2010PropOp43
 70
     0
102
RTVSPost2010Prop44ColorIndex
 90
        5
102
RTVSPost2010Prop44ColorRGB
 90
      255
102
RTVSPost2010PropOp44
 70
     0
102
RTVSPost2010Prop45
280
     0
102
RTVSPost2010PropOp45
 70
     0
102
RTVSPost2010Prop46
 90
       50
102
RTVSPost2010PropOp46
 70
     0
102
RTVSPost2010Prop47
 90
       50
102
RTVSPost2010PropOp47
 70
     0
102
RTVSPost2010Prop48
 90
       50
102
RTVSPost2010PropOp48
 70
     0
102
RTVSPost2010Prop49
280
     0
102
RTVSPost2010PropOp49
 70
     0
102
RTVSPost2010Prop50
 90
       50
102
RTVSPost2010PropOp50
 70
     0
102
RTVSPost2010Prop51ColorIndex
 90
      256
102
RTVSPost2010Prop51ColorRGB
 90
-16777216
102
RTVSPost2010PropOp51
 70
     0
102
RTVSPost2010Prop52
140
1.0
102
RTVSPost2010PropOp52
 70
     0
102
RTVSPost2010Prop53
 90
        2
102
RTVSPost2010PropOp53
 70
     0
102
RTVSPost2010Prop54
  1
strokes_ogs.tif
102
RTVSPost2010PropOp54
 70
     0
102
RTVSPost2010Prop55
280
     0
102
RTVSPost2010PropOp55
 70
     0
102
RTVSPost2010Prop56
140
1.0
102
RTVSPost2010PropOp56
 70
     0
102
RTVSPost2010Prop57
140
1.0
102
RTVSPost2010PropOp57
 70
     0
  0
XRECORD
  5
375
102
{ACAD_REACTORS
330
374
102
}
330
374
100
AcDbXrecord
280
     1
102
RTVSPropertyOp0
 70
     1
102
RTVSPropertyOp1
 70
     1
102
RTVSPropertyOp2
 70
     1
102
RTVSPropertyOp3
 70
     1
102
RTVSPropertyOp4
 70
     1
102
RTVSPropertyOp5
 70
     1
102
RTVSPropertyOp6
 70
     1
102
RTVSPropertyOp7
 70
     1
102
RTVSPropertyOp8
 70
     1
102
RTVSPropertyOp9
 70
     1
102
RTVSPropertyOp10
 70
     1
102
RTVSPropertyOp11
 70
     1
102
RTVSPropertyOp12
 70
     1
102
RTVSPropertyOp13
 70
     1
102
RTVSPropertyOp14
 70
     1
102
RTVSPropertyOp15
 70
     1
102
RTVSPropertyOp16
 70
     1
102
RTVSPropertyOp17
 70
     1
102
RTVSPropertyOp18
 70
     1
102
RTVSPropertyOp19
 70
     1
102
RTVSPropertyOp20
 70
     1
102
RTVSPropertyOp21
 70
     1
102
RTVSPropertyOp22
 70
     1
102
RTVSPropertyOp23
 70
     1
102
RTVSPropertyOp24
 70
     1
102
RTVSPropertyOp25
 70
     1
102
RTVSPropertyOp26
 70
     1
102
RTVSPropertyOp27
 70
     1
102
RTVSPropertyOp28
 70
     1
102
RTVSPropertyOp29
 70
     1
102
RTVSPropertyOp30
 70
     1
102
RTVSPropertyOp31
 70
     1
102
RTVSPropertyOp32
 70
     1
102
RTVSPropertyOp33
 70
     1
102
RTVSPropertyOp34
 70
     1
102
RTVSPropertyOp35
 70
     1
102
RTVSPropertyOp36
 70
     1
102
RTVSPropertyOp37
 70
     1
102
RTVSPropertyOp38
 70
     1
102
RTVSPropertyOp39
 70
     1
102
RTVSPropertyOp40
 70
     1
102
RTVSPropertyOp41
 70
     1
102
RTVSPropertyOp42
 70
     1
102
RTVSPropertyOp43
 70
     1
102
RTVSPropertyOp44
 70
     1
102
RTVSPropertyOp45
 70
     1
102
RTVSPropertyOp46
 70
     1
102
RTVSPropertyOp47
 70
     1
102
RTVSPropertyOp48
 70
     1
102
RTVSPropertyOp49
 70
     1
102
RTVSPropertyOp50
 70
     1
102
RTVSPropertyOp51
 70
     0
102
RTVSPropertyOp52
 70
     0
102
RTVSPropertyOp53
 70
     1
102
RTVSPropertyOp54
 70
     1
102
RTVSPropertyOp55
 70
     1
102
RTVSPropertyOp56
 70
     1
102
RTVSPropertyOp57
 70
     1
102
RTVSPost2010Prop28
280
     0
102
RTVSPost2010PropOp28
 70
     1
102
RTVSPost2010Prop29
280
     1
102
RTVSPost2010PropOp29
 70
     1
102
RTVSPost2010Prop30
280
     1
102
RTVSPost2010PropOp30
 70
     1
102
RTVSPost2010Prop31
280
     0
102
RTVSPost2010PropOp31
 70
     1
102
RTVSPost2010Prop32
280
     0
102
RTVSPost2010PropOp32
 70
     1
102
RTVSPost2010Prop33
280
     0
102
RTVSPost2010PropOp33
 70
     1
102
RTVSPost2010Prop34
280
     0
102
RTVSPost2010PropOp34
 70
     1
102
RTVSPost2010Prop35
280
     0
102
RTVSPost2010PropOp35
 70
     1
102
RTVSPost2010Prop36
280
     0
102
RTVSPost2010PropOp36
 70
     1
102
RTVSPost2010Prop37
 90
       50
102
RTVSPost2010PropOp37
 70
     1
102
RTVSPost2010Prop38
140
0.0
102
RTVSPost2010PropOp38
 70
     1
102
RTVSPost2010Prop39
140
1.0
102
RTVSPost2010PropOp39
 70
     1
102
RTVSPost2010Prop40
 90
        0
102
RTVSPost2010PropOp40
 70
     1
102
RTVSPost2010Prop41ColorIndex
 90
       18
102
RTVSPost2010Prop41ColorRGB
 90
        0
102
RTVSPost2010PropOp41
 70
     1
102
RTVSPost2010Prop42
 90
       50
102
RTVSPost2010PropOp42
 70
     1
102
RTVSPost2010Prop43
 90
        3
102
RTVSPost2010PropOp43
 70
     1
102
RTVSPost2010Prop44ColorIndex
 90
        5
102
RTVSPost2010Prop44ColorRGB
 90
      255
102
RTVSPost2010PropOp44
 70
     1
102
RTVSPost2010Prop45
280
     0
102
RTVSPost2010PropOp45
 70
     1
102
RTVSPost2010Prop46
 90
       50
102
RTVSPost2010PropOp46
 70
     1
102
RTVSPost2010Prop47
 90
       50
102
RTVSPost2010PropOp47
 70
     1
102
RTVSPost2010Prop48
 90
       50
102
RTVSPost2010PropOp48
 70
     1
102
RTVSPost2010Prop49
280
     0
102
RTVSPost2010PropOp49
 70
     1
102
RTVSPost2010Prop50
 90
       50
102
RTVSPost2010PropOp50
 70
     1
102
RTVSPost2010Prop51ColorIndex
 90
      256
102
RTVSPost2010Prop51ColorRGB
 90
-16777216
102
RTVSPost2010PropOp51
 70
     0
102
RTVSPost2010Prop52
140
1.0
102
RTVSPost2010PropOp52
 70
     0
102
RTVSPost2010Prop53
 90
        2
102
RTVSPost2010PropOp53
 70
     1
102
RTVSPost2010Prop54
  1
strokes_ogs.tif
102
RTVSPost2010PropOp54
 70
     1
102
RTVSPost2010Prop55
280
     0
102
RTVSPost2010PropOp55
 70
     1
102
RTVSPost2010Prop56
140
1.0
102
RTVSPost2010PropOp56
 70
     1
102
RTVSPost2010Prop57
140
1.0
102
RTVSPost2010PropOp57
 70
     1
  0
XRECORD
  5
393
102
{ACAD_REACTORS
330
392
102
}
330
392
100
AcDbXrecord
280
     1
102
RTVSPropertyOp0
 70
     1
102
RTVSPropertyOp1
 70
     1
102
RTVSPropertyOp2
 70
     1
102
RTVSPropertyOp3
 70
     1
102
RTVSPropertyOp4
 70
     1
102
RTVSPropertyOp5
 70
     1
102
RTVSPropertyOp6
 70
     1
102
RTVSPropertyOp7
 70
     1
102
RTVSPropertyOp8
 70
     1
102
RTVSPropertyOp9
 70
     1
102
RTVSPropertyOp10
 70
     1
102
RTVSPropertyOp11
 70
     1
102
RTVSPropertyOp12
 70
     1
102
RTVSPropertyOp13
 70
     1
102
RTVSPropertyOp14
 70
     1
102
RTVSPropertyOp15
 70
     1
102
RTVSPropertyOp16
 70
     1
102
RTVSPropertyOp17
 70
     1
102
RTVSPropertyOp18
 70
     1
102
RTVSPropertyOp19
 70
     1
102
RTVSPropertyOp20
 70
     1
102
RTVSPropertyOp21
 70
     1
102
RTVSPropertyOp22
 70
     1
102
RTVSPropertyOp23
 70
     1
102
RTVSPropertyOp24
 70
     1
102
RTVSPropertyOp25
 70
     1
102
RTVSPropertyOp26
 70
     1
102
RTVSPropertyOp27
 70
     1
102
RTVSPropertyOp28
 70
     1
102
RTVSPropertyOp29
 70
     1
102
RTVSPropertyOp30
 70
     1
102
RTVSPropertyOp31
 70
     1
102
RTVSPropertyOp32
 70
     1
102
RTVSPropertyOp33
 70
     1
102
RTVSPropertyOp34
 70
     1
102
RTVSPropertyOp35
 70
     1
102
RTVSPropertyOp36
 70
     1
102
RTVSPropertyOp37
 70
     1
102
RTVSPropertyOp38
 70
     1
102
RTVSPropertyOp39
 70
     1
102
RTVSPropertyOp40
 70
     1
102
RTVSPropertyOp41
 70
     1
102
RTVSPropertyOp42
 70
     1
102
RTVSPropertyOp43
 70
     1
102
RTVSPropertyOp44
 70
     1
102
RTVSPropertyOp45
 70
     1
102
RTVSPropertyOp46
 70
     1
102
RTVSPropertyOp47
 70
     1
102
RTVSPropertyOp48
 70
     1
102
RTVSPropertyOp49
 70
     1
102
RTVSPropertyOp50
 70
     1
102
RTVSPropertyOp51
 70
     0
102
RTVSPropertyOp52
 70
     0
102
RTVSPropertyOp53
 70
     1
102
RTVSPropertyOp54
 70
     1
102
RTVSPropertyOp55
 70
     1
102
RTVSPropertyOp56
 70
     1
102
RTVSPropertyOp57
 70
     1
102
RTVSPost2010Prop28
280
     0
102
RTVSPost2010PropOp28
 70
     1
102
RTVSPost2010Prop29
280
     1
102
RTVSPost2010PropOp29
 70
     1
102
RTVSPost2010Prop30
280
     1
102
RTVSPost2010PropOp30
 70
     1
102
RTVSPost2010Prop31
280
     0
102
RTVSPost2010PropOp31
 70
     1
102
RTVSPost2010Prop32
280
     0
102
RTVSPost2010PropOp32
 70
     1
102
RTVSPost2010Prop33
280
     0
102
RTVSPost2010PropOp33
 70
     1
102
RTVSPost2010Prop34
280
     0
102
RTVSPost2010PropOp34
 70
     1
102
RTVSPost2010Prop35
280
     0
102
RTVSPost2010PropOp35
 70
     1
102
RTVSPost2010Prop36
280
     0
102
RTVSPost2010PropOp36
 70
     1
102
RTVSPost2010Prop37
 90
       50
102
RTVSPost2010PropOp37
 70
     1
102
RTVSPost2010Prop38
140
0.0
102
RTVSPost2010PropOp38
 70
     1
102
RTVSPost2010Prop39
140
1.0
102
RTVSPost2010PropOp39
 70
     1
102
RTVSPost2010Prop40
 90
        0
102
RTVSPost2010PropOp40
 70
     1
102
RTVSPost2010Prop41ColorIndex
 90
       18
102
RTVSPost2010Prop41ColorRGB
 90
        0
102
RTVSPost2010PropOp41
 70
     1
102
RTVSPost2010Prop42
 90
       50
102
RTVSPost2010PropOp42
 70
     1
102
RTVSPost2010Prop43
 90
        3
102
RTVSPost2010PropOp43
 70
     1
102
RTVSPost2010Prop44ColorIndex
 90
        5
102
RTVSPost2010Prop44ColorRGB
 90
      255
102
RTVSPost2010PropOp44
 70
     1
102
RTVSPost2010Prop45
280
     0
102
RTVSPost2010PropOp45
 70
     1
102
RTVSPost2010Prop46
 90
       50
102
RTVSPost2010PropOp46
 70
     1
102
RTVSPost2010Prop47
 90
       50
102
RTVSPost2010PropOp47
 70
     1
102
RTVSPost2010Prop48
 90
       50
102
RTVSPost2010PropOp48
 70
     1
102
RTVSPost2010Prop49
280
     0
102
RTVSPost2010PropOp49
 70
     1
102
RTVSPost2010Prop50
 90
       50
102
RTVSPost2010PropOp50
 70
     1
102
RTVSPost2010Prop51ColorIndex
 90
      256
102
RTVSPost2010Prop51ColorRGB
 90
-16777216
102
RTVSPost2010PropOp51
 70
     0
102
RTVSPost2010Prop52
140
1.0
102
RTVSPost2010PropOp52
 70
     0
102
RTVSPost2010Prop53
 90
        2
102
RTVSPost2010PropOp53
 70
     1
102
RTVSPost2010Prop54
  1
strokes_ogs.tif
102
RTVSPost2010PropOp54
 70
     1
102
RTVSPost2010Prop55
280
     0
102
RTVSPost2010PropOp55
 70
     1
102
RTVSPost2010Prop56
140
1.0
102
RTVSPost2010PropOp56
 70
     1
102
RTVSPost2010Prop57
140
1.0
102
RTVSPost2010PropOp57
 70
     1
  0
XRECORD
  5
391
102
{ACAD_REACTORS
330
390
102
}
330
390
100
AcDbXrecord
280
     1
102
RTVSPropertyOp0
 70
     1
102
RTVSPropertyOp1
 70
     1
102
RTVSPropertyOp2
 70
     1
102
RTVSPropertyOp3
 70
     1
102
RTVSPropertyOp4
 70
     1
102
RTVSPropertyOp5
 70
     1
102
RTVSPropertyOp6
 70
     1
102
RTVSPropertyOp7
 70
     1
102
RTVSPropertyOp8
 70
     1
102
RTVSPropertyOp9
 70
     1
102
RTVSPropertyOp10
 70
     1
102
RTVSPropertyOp11
 70
     1
102
RTVSPropertyOp12
 70
     1
102
RTVSPropertyOp13
 70
     1
102
RTVSPropertyOp14
 70
     1
102
RTVSPropertyOp15
 70
     1
102
RTVSPropertyOp16
 70
     1
102
RTVSPropertyOp17
 70
     1
102
RTVSPropertyOp18
 70
     1
102
RTVSPropertyOp19
 70
     1
102
RTVSPropertyOp20
 70
     1
102
RTVSPropertyOp21
 70
     1
102
RTVSPropertyOp22
 70
     1
102
RTVSPropertyOp23
 70
     1
102
RTVSPropertyOp24
 70
     1
102
RTVSPropertyOp25
 70
     1
102
RTVSPropertyOp26
 70
     1
102
RTVSPropertyOp27
 70
     1
102
RTVSPropertyOp28
 70
     1
102
RTVSPropertyOp29
 70
     1
102
RTVSPropertyOp30
 70
     1
102
RTVSPropertyOp31
 70
     1
102
RTVSPropertyOp32
 70
     1
102
RTVSPropertyOp33
 70
     1
102
RTVSPropertyOp34
 70
     1
102
RTVSPropertyOp35
 70
     1
102
RTVSPropertyOp36
 70
     1
102
RTVSPropertyOp37
 70
     1
102
RTVSPropertyOp38
 70
     1
102
RTVSPropertyOp39
 70
     1
102
RTVSPropertyOp40
 70
     1
102
RTVSPropertyOp41
 70
     1
102
RTVSPropertyOp42
 70
     1
102
RTVSPropertyOp43
 70
     1
102
RTVSPropertyOp44
 70
     1
102
RTVSPropertyOp45
 70
     1
102
RTVSPropertyOp46
 70
     1
102
RTVSPropertyOp47
 70
     1
102
RTVSPropertyOp48
 70
     1
102
RTVSPropertyOp49
 70
     1
102
RTVSPropertyOp50
 70
     1
102
RTVSPropertyOp51
 70
     0
102
RTVSPropertyOp52
 70
     0
102
RTVSPropertyOp53
 70
     1
102
RTVSPropertyOp54
 70
     1
102
RTVSPropertyOp55
 70
     1
102
RTVSPropertyOp56
 70
     1
102
RTVSPropertyOp57
 70
     1
102
RTVSPost2010Prop28
280
     0
102
RTVSPost2010PropOp28
 70
     1
102
RTVSPost2010Prop29
280
     1
102
RTVSPost2010PropOp29
 70
     1
102
RTVSPost2010Prop30
280
     1
102
RTVSPost2010PropOp30
 70
     1
102
RTVSPost2010Prop31
280
     0
102
RTVSPost2010PropOp31
 70
     1
102
RTVSPost2010Prop32
280
     0
102
RTVSPost2010PropOp32
 70
     1
102
RTVSPost2010Prop33
280
     0
102
RTVSPost2010PropOp33
 70
     1
102
RTVSPost2010Prop34
280
     0
102
RTVSPost2010PropOp34
 70
     1
102
RTVSPost2010Prop35
280
     0
102
RTVSPost2010PropOp35
 70
     1
102
RTVSPost2010Prop36
280
     0
102
RTVSPost2010PropOp36
 70
     1
102
RTVSPost2010Prop37
 90
       50
102
RTVSPost2010PropOp37
 70
     1
102
RTVSPost2010Prop38
140
0.0
102
RTVSPost2010PropOp38
 70
     1
102
RTVSPost2010Prop39
140
1.0
102
RTVSPost2010PropOp39
 70
     1
102
RTVSPost2010Prop40
 90
        0
102
RTVSPost2010PropOp40
 70
     1
102
RTVSPost2010Prop41ColorIndex
 90
       18
102
RTVSPost2010Prop41ColorRGB
 90
        0
102
RTVSPost2010PropOp41
 70
     1
102
RTVSPost2010Prop42
 90
       50
102
RTVSPost2010PropOp42
 70
     1
102
RTVSPost2010Prop43
 90
        3
102
RTVSPost2010PropOp43
 70
     1
102
RTVSPost2010Prop44ColorIndex
 90
        5
102
RTVSPost2010Prop44ColorRGB
 90
      255
102
RTVSPost2010PropOp44
 70
     1
102
RTVSPost2010Prop45
280
     0
102
RTVSPost2010PropOp45
 70
     1
102
RTVSPost2010Prop46
 90
       50
102
RTVSPost2010PropOp46
 70
     1
102
RTVSPost2010Prop47
 90
       50
102
RTVSPost2010PropOp47
 70
     1
102
RTVSPost2010Prop48
 90
       50
102
RTVSPost2010PropOp48
 70
     1
102
RTVSPost2010Prop49
280
     0
102
RTVSPost2010PropOp49
 70
     1
102
RTVSPost2010Prop50
 90
       50
102
RTVSPost2010PropOp50
 70
     1
102
RTVSPost2010Prop51ColorIndex
 90
      256
102
RTVSPost2010Prop51ColorRGB
 90
-16777216
102
RTVSPost2010PropOp51
 70
     0
102
RTVSPost2010Prop52
140
1.0
102
RTVSPost2010PropOp52
 70
     0
102
RTVSPost2010Prop53
 90
        2
102
RTVSPost2010PropOp53
 70
     1
102
RTVSPost2010Prop54
  1
strokes_ogs.tif
102
RTVSPost2010PropOp54
 70
     1
102
RTVSPost2010Prop55
280
     0
102
RTVSPost2010PropOp55
 70
     1
102
RTVSPost2010Prop56
140
1.0
102
RTVSPost2010PropOp56
 70
     1
102
RTVSPost2010Prop57
140
1.0
102
RTVSPost2010PropOp57
 70
     1
  0
XRECORD
  5
38B
102
{ACAD_REACTORS
330
38A
102
}
330
38A
100
AcDbXrecord
280
     1
102
RTVSPropertyOp0
 70
     1
102
RTVSPropertyOp1
 70
     1
102
RTVSPropertyOp2
 70
     1
102
RTVSPropertyOp3
 70
     1
102
RTVSPropertyOp4
 70
     1
102
RTVSPropertyOp5
 70
     1
102
RTVSPropertyOp6
 70
     1
102
RTVSPropertyOp7
 70
     1
102
RTVSPropertyOp8
 70
     1
102
RTVSPropertyOp9
 70
     1
102
RTVSPropertyOp10
 70
     1
102
RTVSPropertyOp11
 70
     1
102
RTVSPropertyOp12
 70
     1
102
RTVSPropertyOp13
 70
     1
102
RTVSPropertyOp14
 70
     1
102
RTVSPropertyOp15
 70
     1
102
RTVSPropertyOp16
 70
     1
102
RTVSPropertyOp17
 70
     1
102
RTVSPropertyOp18
 70
     1
102
RTVSPropertyOp19
 70
     1
102
RTVSPropertyOp20
 70
     1
102
RTVSPropertyOp21
 70
     1
102
RTVSPropertyOp22
 70
     1
102
RTVSPropertyOp23
 70
     1
102
RTVSPropertyOp24
 70
     1
102
RTVSPropertyOp25
 70
     1
102
RTVSPropertyOp26
 70
     1
102
RTVSPropertyOp27
 70
     1
102
RTVSPropertyOp28
 70
     1
102
RTVSPropertyOp29
 70
     1
102
RTVSPropertyOp30
 70
     1
102
RTVSPropertyOp31
 70
     1
102
RTVSPropertyOp32
 70
     1
102
RTVSPropertyOp33
 70
     1
102
RTVSPropertyOp34
 70
     1
102
RTVSPropertyOp35
 70
     1
102
RTVSPropertyOp36
 70
     1
102
RTVSPropertyOp37
 70
     1
102
RTVSPropertyOp38
 70
     1
102
RTVSPropertyOp39
 70
     1
102
RTVSPropertyOp40
 70
     1
102
RTVSPropertyOp41
 70
     1
102
RTVSPropertyOp42
 70
     1
102
RTVSPropertyOp43
 70
     1
102
RTVSPropertyOp44
 70
     1
102
RTVSPropertyOp45
 70
     1
102
RTVSPropertyOp46
 70
     1
102
RTVSPropertyOp47
 70
     1
102
RTVSPropertyOp48
 70
     1
102
RTVSPropertyOp49
 70
     1
102
RTVSPropertyOp50
 70
     1
102
RTVSPropertyOp51
 70
     0
102
RTVSPropertyOp52
 70
     0
102
RTVSPropertyOp53
 70
     1
102
RTVSPropertyOp54
 70
     1
102
RTVSPropertyOp55
 70
     1
102
RTVSPropertyOp56
 70
     1
102
RTVSPropertyOp57
 70
     1
102
RTVSPost2010Prop28
280
     0
102
RTVSPost2010PropOp28
 70
     1
102
RTVSPost2010Prop29
280
     1
102
RTVSPost2010PropOp29
 70
     1
102
RTVSPost2010Prop30
280
     1
102
RTVSPost2010PropOp30
 70
     1
102
RTVSPost2010Prop31
280
     0
102
RTVSPost2010PropOp31
 70
     1
102
RTVSPost2010Prop32
280
     0
102
RTVSPost2010PropOp32
 70
     1
102
RTVSPost2010Prop33
280
     0
102
RTVSPost2010PropOp33
 70
     1
102
RTVSPost2010Prop34
280
     0
102
RTVSPost2010PropOp34
 70
     1
102
RTVSPost2010Prop35
280
     0
102
RTVSPost2010PropOp35
 70
     1
102
RTVSPost2010Prop36
280
     0
102
RTVSPost2010PropOp36
 70
     1
102
RTVSPost2010Prop37
 90
       50
102
RTVSPost2010PropOp37
 70
     1
102
RTVSPost2010Prop38
140
0.0
102
RTVSPost2010PropOp38
 70
     1
102
RTVSPost2010Prop39
140
1.0
102
RTVSPost2010PropOp39
 70
     1
102
RTVSPost2010Prop40
 90
        0
102
RTVSPost2010PropOp40
 70
     1
102
RTVSPost2010Prop41ColorIndex
 90
       18
102
RTVSPost2010Prop41ColorRGB
 90
        0
102
RTVSPost2010PropOp41
 70
     1
102
RTVSPost2010Prop42
 90
       50
102
RTVSPost2010PropOp42
 70
     1
102
RTVSPost2010Prop43
 90
        3
102
RTVSPost2010PropOp43
 70
     1
102
RTVSPost2010Prop44ColorIndex
 90
        5
102
RTVSPost2010Prop44ColorRGB
 90
      255
102
RTVSPost2010PropOp44
 70
     1
102
RTVSPost2010Prop45
280
     0
102
RTVSPost2010PropOp45
 70
     1
102
RTVSPost2010Prop46
 90
       50
102
RTVSPost2010PropOp46
 70
     1
102
RTVSPost2010Prop47
 90
       50
102
RTVSPost2010PropOp47
 70
     1
102
RTVSPost2010Prop48
 90
       50
102
RTVSPost2010PropOp48
 70
     1
102
RTVSPost2010Prop49
280
     0
102
RTVSPost2010PropOp49
 70
     1
102
RTVSPost2010Prop50
 90
       50
102
RTVSPost2010PropOp50
 70
     1
102
RTVSPost2010Prop51ColorIndex
 90
      256
102
RTVSPost2010Prop51ColorRGB
 90
-16777216
102
RTVSPost2010PropOp51
 70
     0
102
RTVSPost2010Prop52
140
1.0
102
RTVSPost2010PropOp52
 70
     0
102
RTVSPost2010Prop53
 90
        2
102
RTVSPost2010PropOp53
 70
     1
102
RTVSPost2010Prop54
  1
strokes_ogs.tif
102
RTVSPost2010PropOp54
 70
     1
102
RTVSPost2010Prop55
280
     0
102
RTVSPost2010PropOp55
 70
     1
102
RTVSPost2010Prop56
140
1.0
102
RTVSPost2010PropOp56
 70
     1
102
RTVSPost2010Prop57
140
1.0
102
RTVSPost2010PropOp57
 70
     1
  0
XRECORD
  5
38D
102
{ACAD_REACTORS
330
38C
102
}
330
38C
100
AcDbXrecord
280
     1
102
RTVSPropertyOp0
 70
     1
102
RTVSPropertyOp1
 70
     1
102
RTVSPropertyOp2
 70
     1
102
RTVSPropertyOp3
 70
     1
102
RTVSPropertyOp4
 70
     1
102
RTVSPropertyOp5
 70
     1
102
RTVSPropertyOp6
 70
     1
102
RTVSPropertyOp7
 70
     1
102
RTVSPropertyOp8
 70
     1
102
RTVSPropertyOp9
 70
     1
102
RTVSPropertyOp10
 70
     1
102
RTVSPropertyOp11
 70
     1
102
RTVSPropertyOp12
 70
     1
102
RTVSPropertyOp13
 70
     1
102
RTVSPropertyOp14
 70
     1
102
RTVSPropertyOp15
 70
     1
102
RTVSPropertyOp16
 70
     1
102
RTVSPropertyOp17
 70
     1
102
RTVSPropertyOp18
 70
     1
102
RTVSPropertyOp19
 70
     1
102
RTVSPropertyOp20
 70
     1
102
RTVSPropertyOp21
 70
     1
102
RTVSPropertyOp22
 70
     1
102
RTVSPropertyOp23
 70
     1
102
RTVSPropertyOp24
 70
     1
102
RTVSPropertyOp25
 70
     1
102
RTVSPropertyOp26
 70
     1
102
RTVSPropertyOp27
 70
     1
102
RTVSPropertyOp28
 70
     1
102
RTVSPropertyOp29
 70
     1
102
RTVSPropertyOp30
 70
     1
102
RTVSPropertyOp31
 70
     1
102
RTVSPropertyOp32
 70
     1
102
RTVSPropertyOp33
 70
     1
102
RTVSPropertyOp34
 70
     1
102
RTVSPropertyOp35
 70
     1
102
RTVSPropertyOp36
 70
     1
102
RTVSPropertyOp37
 70
     1
102
RTVSPropertyOp38
 70
     1
102
RTVSPropertyOp39
 70
     1
102
RTVSPropertyOp40
 70
     1
102
RTVSPropertyOp41
 70
     1
102
RTVSPropertyOp42
 70
     1
102
RTVSPropertyOp43
 70
     1
102
RTVSPropertyOp44
 70
     1
102
RTVSPropertyOp45
 70
     1
102
RTVSPropertyOp46
 70
     1
102
RTVSPropertyOp47
 70
     1
102
RTVSPropertyOp48
 70
     1
102
RTVSPropertyOp49
 70
     1
102
RTVSPropertyOp50
 70
     1
102
RTVSPropertyOp51
 70
     0
102
RTVSPropertyOp52
 70
     0
102
RTVSPropertyOp53
 70
     1
102
RTVSPropertyOp54
 70
     1
102
RTVSPropertyOp55
 70
     1
102
RTVSPropertyOp56
 70
     1
102
RTVSPropertyOp57
 70
     1
102
RTVSPost2010Prop28
280
     0
102
RTVSPost2010PropOp28
 70
     1
102
RTVSPost2010Prop29
280
     1
102
RTVSPost2010PropOp29
 70
     1
102
RTVSPost2010Prop30
280
     1
102
RTVSPost2010PropOp30
 70
     1
102
RTVSPost2010Prop31
280
     0
102
RTVSPost2010PropOp31
 70
     1
102
RTVSPost2010Prop32
280
     0
102
RTVSPost2010PropOp32
 70
     1
102
RTVSPost2010Prop33
280
     0
102
RTVSPost2010PropOp33
 70
     1
102
RTVSPost2010Prop34
280
     0
102
RTVSPost2010PropOp34
 70
     1
102
RTVSPost2010Prop35
280
     0
102
RTVSPost2010PropOp35
 70
     1
102
RTVSPost2010Prop36
280
     0
102
RTVSPost2010PropOp36
 70
     1
102
RTVSPost2010Prop37
 90
       50
102
RTVSPost2010PropOp37
 70
     1
102
RTVSPost2010Prop38
140
0.0
102
RTVSPost2010PropOp38
 70
     1
102
RTVSPost2010Prop39
140
1.0
102
RTVSPost2010PropOp39
 70
     1
102
RTVSPost2010Prop40
 90
        0
102
RTVSPost2010PropOp40
 70
     1
102
RTVSPost2010Prop41ColorIndex
 90
       18
102
RTVSPost2010Prop41ColorRGB
 90
        0
102
RTVSPost2010PropOp41
 70
     1
102
RTVSPost2010Prop42
 90
       50
102
RTVSPost2010PropOp42
 70
     1
102
RTVSPost2010Prop43
 90
        3
102
RTVSPost2010PropOp43
 70
     1
102
RTVSPost2010Prop44ColorIndex
 90
        5
102
RTVSPost2010Prop44ColorRGB
 90
      255
102
RTVSPost2010PropOp44
 70
     1
102
RTVSPost2010Prop45
280
     0
102
RTVSPost2010PropOp45
 70
     1
102
RTVSPost2010Prop46
 90
       50
102
RTVSPost2010PropOp46
 70
     1
102
RTVSPost2010Prop47
 90
       50
102
RTVSPost2010PropOp47
 70
     1
102
RTVSPost2010Prop48
 90
       50
102
RTVSPost2010PropOp48
 70
     1
102
RTVSPost2010Prop49
280
     0
102
RTVSPost2010PropOp49
 70
     1
102
RTVSPost2010Prop50
 90
       50
102
RTVSPost2010PropOp50
 70
     1
102
RTVSPost2010Prop51ColorIndex
 90
      256
102
RTVSPost2010Prop51ColorRGB
 90
-16777216
102
RTVSPost2010PropOp51
 70
     0
102
RTVSPost2010Prop52
140
1.0
102
RTVSPost2010PropOp52
 70
     0
102
RTVSPost2010Prop53
 90
        2
102
RTVSPost2010PropOp53
 70
     1
102
RTVSPost2010Prop54
  1
strokes_ogs.tif
102
RTVSPost2010PropOp54
 70
     1
102
RTVSPost2010Prop55
280
     0
102
RTVSPost2010PropOp55
 70
     1
102
RTVSPost2010Prop56
140
1.0
102
RTVSPost2010PropOp56
 70
     1
102
RTVSPost2010Prop57
140
1.0
102
RTVSPost2010PropOp57
 70
     1
  0
XRECORD
  5
37D
102
{ACAD_REACTORS
330
37C
102
}
330
37C
100
AcDbXrecord
280
     1
102
RTVSPropertyOp0
 70
     1
102
RTVSPropertyOp1
 70
     1
102
RTVSPropertyOp2
 70
     1
102
RTVSPropertyOp3
 70
     1
102
RTVSPropertyOp4
 70
     1
102
RTVSPropertyOp5
 70
     1
102
RTVSPropertyOp6
 70
     1
102
RTVSPropertyOp7
 70
     1
102
RTVSPropertyOp8
 70
     1
102
RTVSPropertyOp9
 70
     1
102
RTVSPropertyOp10
 70
     1
102
RTVSPropertyOp11
 70
     1
102
RTVSPropertyOp12
 70
     1
102
RTVSPropertyOp13
 70
     1
102
RTVSPropertyOp14
 70
     1
102
RTVSPropertyOp15
 70
     1
102
RTVSPropertyOp16
 70
     1
102
RTVSPropertyOp17
 70
     1
102
RTVSPropertyOp18
 70
     1
102
RTVSPropertyOp19
 70
     1
102
RTVSPropertyOp20
 70
     1
102
RTVSPropertyOp21
 70
     1
102
RTVSPropertyOp22
 70
     1
102
RTVSPropertyOp23
 70
     1
102
RTVSPropertyOp24
 70
     1
102
RTVSPropertyOp25
 70
     1
102
RTVSPropertyOp26
 70
     1
102
RTVSPropertyOp27
 70
     1
102
RTVSPropertyOp28
 70
     1
102
RTVSPropertyOp29
 70
     1
102
RTVSPropertyOp30
 70
     1
102
RTVSPropertyOp31
 70
     1
102
RTVSPropertyOp32
 70
     1
102
RTVSPropertyOp33
 70
     1
102
RTVSPropertyOp34
 70
     1
102
RTVSPropertyOp35
 70
     1
102
RTVSPropertyOp36
 70
     1
102
RTVSPropertyOp37
 70
     1
102
RTVSPropertyOp38
 70
     1
102
RTVSPropertyOp39
 70
     1
102
RTVSPropertyOp40
 70
     1
102
RTVSPropertyOp41
 70
     1
102
RTVSPropertyOp42
 70
     1
102
RTVSPropertyOp43
 70
     1
102
RTVSPropertyOp44
 70
     1
102
RTVSPropertyOp45
 70
     1
102
RTVSPropertyOp46
 70
     1
102
RTVSPropertyOp47
 70
     1
102
RTVSPropertyOp48
 70
     1
102
RTVSPropertyOp49
 70
     1
102
RTVSPropertyOp50
 70
     1
102
RTVSPropertyOp51
 70
     0
102
RTVSPropertyOp52
 70
     0
102
RTVSPropertyOp53
 70
     1
102
RTVSPropertyOp54
 70
     1
102
RTVSPropertyOp55
 70
     1
102
RTVSPropertyOp56
 70
     1
102
RTVSPropertyOp57
 70
     1
102
RTVSPost2010Prop28
280
     0
102
RTVSPost2010PropOp28
 70
     1
102
RTVSPost2010Prop29
280
     1
102
RTVSPost2010PropOp29
 70
     1
102
RTVSPost2010Prop30
280
     1
102
RTVSPost2010PropOp30
 70
     1
102
RTVSPost2010Prop31
280
     0
102
RTVSPost2010PropOp31
 70
     1
102
RTVSPost2010Prop32
280
     0
102
RTVSPost2010PropOp32
 70
     1
102
RTVSPost2010Prop33
280
     0
102
RTVSPost2010PropOp33
 70
     1
102
RTVSPost2010Prop34
280
     0
102
RTVSPost2010PropOp34
 70
     1
102
RTVSPost2010Prop35
280
     0
102
RTVSPost2010PropOp35
 70
     1
102
RTVSPost2010Prop36
280
     0
102
RTVSPost2010PropOp36
 70
     1
102
RTVSPost2010Prop37
 90
       50
102
RTVSPost2010PropOp37
 70
     1
102
RTVSPost2010Prop38
140
0.0
102
RTVSPost2010PropOp38
 70
     1
102
RTVSPost2010Prop39
140
1.0
102
RTVSPost2010PropOp39
 70
     1
102
RTVSPost2010Prop40
 90
        0
102
RTVSPost2010PropOp40
 70
     1
102
RTVSPost2010Prop41ColorIndex
 90
       18
102
RTVSPost2010Prop41ColorRGB
 90
        0
102
RTVSPost2010PropOp41
 70
     1
102
RTVSPost2010Prop42
 90
       50
102
RTVSPost2010PropOp42
 70
     1
102
RTVSPost2010Prop43
 90
        3
102
RTVSPost2010PropOp43
 70
     1
102
RTVSPost2010Prop44ColorIndex
 90
        5
102
RTVSPost2010Prop44ColorRGB
 90
      255
102
RTVSPost2010PropOp44
 70
     1
102
RTVSPost2010Prop45
280
     0
102
RTVSPost2010PropOp45
 70
     1
102
RTVSPost2010Prop46
 90
       50
102
RTVSPost2010PropOp46
 70
     1
102
RTVSPost2010Prop47
 90
       50
102
RTVSPost2010PropOp47
 70
     1
102
RTVSPost2010Prop48
 90
       50
102
RTVSPost2010PropOp48
 70
     1
102
RTVSPost2010Prop49
280
     0
102
RTVSPost2010PropOp49
 70
     1
102
RTVSPost2010Prop50
 90
       50
102
RTVSPost2010PropOp50
 70
     1
102
RTVSPost2010Prop51ColorIndex
 90
      256
102
RTVSPost2010Prop51ColorRGB
 90
-16777216
102
RTVSPost2010PropOp51
 70
     0
102
RTVSPost2010Prop52
140
1.0
102
RTVSPost2010PropOp52
 70
     0
102
RTVSPost2010Prop53
 90
        2
102
RTVSPost2010PropOp53
 70
     1
102
RTVSPost2010Prop54
  1
strokes_ogs.tif
102
RTVSPost2010PropOp54
 70
     1
102
RTVSPost2010Prop55
280
     0
102
RTVSPost2010PropOp55
 70
     1
102
RTVSPost2010Prop56
140
1.0
102
RTVSPost2010PropOp56
 70
     1
102
RTVSPost2010Prop57
140
1.0
102
RTVSPost2010PropOp57
 70
     1
  0
XRECORD
  5
36F
102
{ACAD_REACTORS
330
36E
102
}
330
36E
100
AcDbXrecord
280
     1
102
RTVSPropertyOp0
 70
     1
102
RTVSPropertyOp1
 70
     1
102
RTVSPropertyOp2
 70
     1
102
RTVSPropertyOp3
 70
     1
102
RTVSPropertyOp4
 70
     1
102
RTVSPropertyOp5
 70
     1
102
RTVSPropertyOp6
 70
     1
102
RTVSPropertyOp7
 70
     1
102
RTVSPropertyOp8
 70
     1
102
RTVSPropertyOp9
 70
     1
102
RTVSPropertyOp10
 70
     1
102
RTVSPropertyOp11
 70
     1
102
RTVSPropertyOp12
 70
     1
102
RTVSPropertyOp13
 70
     1
102
RTVSPropertyOp14
 70
     1
102
RTVSPropertyOp15
 70
     1
102
RTVSPropertyOp16
 70
     1
102
RTVSPropertyOp17
 70
     1
102
RTVSPropertyOp18
 70
     1
102
RTVSPropertyOp19
 70
     1
102
RTVSPropertyOp20
 70
     1
102
RTVSPropertyOp21
 70
     1
102
RTVSPropertyOp22
 70
     1
102
RTVSPropertyOp23
 70
     1
102
RTVSPropertyOp24
 70
     1
102
RTVSPropertyOp25
 70
     1
102
RTVSPropertyOp26
 70
     1
102
RTVSPropertyOp27
 70
     1
102
RTVSPropertyOp28
 70
     1
102
RTVSPropertyOp29
 70
     1
102
RTVSPropertyOp30
 70
     1
102
RTVSPropertyOp31
 70
     1
102
RTVSPropertyOp32
 70
     1
102
RTVSPropertyOp33
 70
     1
102
RTVSPropertyOp34
 70
     1
102
RTVSPropertyOp35
 70
     1
102
RTVSPropertyOp36
 70
     1
102
RTVSPropertyOp37
 70
     1
102
RTVSPropertyOp38
 70
     1
102
RTVSPropertyOp39
 70
     1
102
RTVSPropertyOp40
 70
     1
102
RTVSPropertyOp41
 70
     1
102
RTVSPropertyOp42
 70
     1
102
RTVSPropertyOp43
 70
     1
102
RTVSPropertyOp44
 70
     1
102
RTVSPropertyOp45
 70
     1
102
RTVSPropertyOp46
 70
     1
102
RTVSPropertyOp47
 70
     1
102
RTVSPropertyOp48
 70
     1
102
RTVSPropertyOp49
 70
     1
102
RTVSPropertyOp50
 70
     1
102
RTVSPropertyOp51
 70
     0
102
RTVSPropertyOp52
 70
     0
102
RTVSPropertyOp53
 70
     1
102
RTVSPropertyOp54
 70
     1
102
RTVSPropertyOp55
 70
     1
102
RTVSPropertyOp56
 70
     1
102
RTVSPropertyOp57
 70
     1
102
RTVSPost2010Prop28
280
     0
102
RTVSPost2010PropOp28
 70
     1
102
RTVSPost2010Prop29
280
     1
102
RTVSPost2010PropOp29
 70
     1
102
RTVSPost2010Prop30
280
     1
102
RTVSPost2010PropOp30
 70
     1
102
RTVSPost2010Prop31
280
     0
102
RTVSPost2010PropOp31
 70
     1
102
RTVSPost2010Prop32
280
     0
102
RTVSPost2010PropOp32
 70
     1
102
RTVSPost2010Prop33
280
     0
102
RTVSPost2010PropOp33
 70
     1
102
RTVSPost2010Prop34
280
     0
102
RTVSPost2010PropOp34
 70
     1
102
RTVSPost2010Prop35
280
     0
102
RTVSPost2010PropOp35
 70
     1
102
RTVSPost2010Prop36
280
     0
102
RTVSPost2010PropOp36
 70
     1
102
RTVSPost2010Prop37
 90
       50
102
RTVSPost2010PropOp37
 70
     1
102
RTVSPost2010Prop38
140
0.0
102
RTVSPost2010PropOp38
 70
     1
102
RTVSPost2010Prop39
140
1.0
102
RTVSPost2010PropOp39
 70
     1
102
RTVSPost2010Prop40
 90
        0
102
RTVSPost2010PropOp40
 70
     1
102
RTVSPost2010Prop41ColorIndex
 90
       18
102
RTVSPost2010Prop41ColorRGB
 90
        0
102
RTVSPost2010PropOp41
 70
     1
102
RTVSPost2010Prop42
 90
       50
102
RTVSPost2010PropOp42
 70
     1
102
RTVSPost2010Prop43
 90
        3
102
RTVSPost2010PropOp43
 70
     1
102
RTVSPost2010Prop44ColorIndex
 90
        5
102
RTVSPost2010Prop44ColorRGB
 90
      255
102
RTVSPost2010PropOp44
 70
     1
102
RTVSPost2010Prop45
280
     0
102
RTVSPost2010PropOp45
 70
     1
102
RTVSPost2010Prop46
 90
       50
102
RTVSPost2010PropOp46
 70
     1
102
RTVSPost2010Prop47
 90
       50
102
RTVSPost2010PropOp47
 70
     1
102
RTVSPost2010Prop48
 90
       50
102
RTVSPost2010PropOp48
 70
     1
102
RTVSPost2010Prop49
280
     0
102
RTVSPost2010PropOp49
 70
     1
102
RTVSPost2010Prop50
 90
       50
102
RTVSPost2010PropOp50
 70
     1
102
RTVSPost2010Prop51ColorIndex
 90
      256
102
RTVSPost2010Prop51ColorRGB
 90
-16777216
102
RTVSPost2010PropOp51
 70
     0
102
RTVSPost2010Prop52
140
1.0
102
RTVSPost2010PropOp52
 70
     0
102
RTVSPost2010Prop53
 90
        2
102
RTVSPost2010PropOp53
 70
     1
102
RTVSPost2010Prop54
  1
strokes_ogs.tif
102
RTVSPost2010PropOp54
 70
     1
102
RTVSPost2010Prop55
280
     0
102
RTVSPost2010PropOp55
 70
     1
102
RTVSPost2010Prop56
140
1.0
102
RTVSPost2010PropOp56
 70
     1
102
RTVSPost2010Prop57
140
1.0
102
RTVSPost2010PropOp57
 70
     1
  0
XRECORD
  5
38F
102
{ACAD_REACTORS
330
38E
102
}
330
38E
100
AcDbXrecord
280
     1
102
RTVSPropertyOp0
 70
     1
102
RTVSPropertyOp1
 70
     1
102
RTVSPropertyOp2
 70
     1
102
RTVSPropertyOp3
 70
     1
102
RTVSPropertyOp4
 70
     1
102
RTVSPropertyOp5
 70
     1
102
RTVSPropertyOp6
 70
     1
102
RTVSPropertyOp7
 70
     1
102
RTVSPropertyOp8
 70
     1
102
RTVSPropertyOp9
 70
     1
102
RTVSPropertyOp10
 70
     1
102
RTVSPropertyOp11
 70
     1
102
RTVSPropertyOp12
 70
     1
102
RTVSPropertyOp13
 70
     1
102
RTVSPropertyOp14
 70
     1
102
RTVSPropertyOp15
 70
     1
102
RTVSPropertyOp16
 70
     1
102
RTVSPropertyOp17
 70
     1
102
RTVSPropertyOp18
 70
     1
102
RTVSPropertyOp19
 70
     1
102
RTVSPropertyOp20
 70
     1
102
RTVSPropertyOp21
 70
     1
102
RTVSPropertyOp22
 70
     1
102
RTVSPropertyOp23
 70
     1
102
RTVSPropertyOp24
 70
     1
102
RTVSPropertyOp25
 70
     1
102
RTVSPropertyOp26
 70
     1
102
RTVSPropertyOp27
 70
     1
102
RTVSPropertyOp28
 70
     1
102
RTVSPropertyOp29
 70
     1
102
RTVSPropertyOp30
 70
     1
102
RTVSPropertyOp31
 70
     1
102
RTVSPropertyOp32
 70
     1
102
RTVSPropertyOp33
 70
     1
102
RTVSPropertyOp34
 70
     1
102
RTVSPropertyOp35
 70
     1
102
RTVSPropertyOp36
 70
     1
102
RTVSPropertyOp37
 70
     1
102
RTVSPropertyOp38
 70
     1
102
RTVSPropertyOp39
 70
     1
102
RTVSPropertyOp40
 70
     1
102
RTVSPropertyOp41
 70
     1
102
RTVSPropertyOp42
 70
     1
102
RTVSPropertyOp43
 70
     1
102
RTVSPropertyOp44
 70
     1
102
RTVSPropertyOp45
 70
     1
102
RTVSPropertyOp46
 70
     1
102
RTVSPropertyOp47
 70
     1
102
RTVSPropertyOp48
 70
     1
102
RTVSPropertyOp49
 70
     1
102
RTVSPropertyOp50
 70
     1
102
RTVSPropertyOp51
 70
     0
102
RTVSPropertyOp52
 70
     0
102
RTVSPropertyOp53
 70
     1
102
RTVSPropertyOp54
 70
     1
102
RTVSPropertyOp55
 70
     1
102
RTVSPropertyOp56
 70
     1
102
RTVSPropertyOp57
 70
     1
102
RTVSPost2010Prop28
280
     0
102
RTVSPost2010PropOp28
 70
     1
102
RTVSPost2010Prop29
280
     1
102
RTVSPost2010PropOp29
 70
     1
102
RTVSPost2010Prop30
280
     1
102
RTVSPost2010PropOp30
 70
     1
102
RTVSPost2010Prop31
280
     0
102
RTVSPost2010PropOp31
 70
     1
102
RTVSPost2010Prop32
280
     0
102
RTVSPost2010PropOp32
 70
     1
102
RTVSPost2010Prop33
280
     0
102
RTVSPost2010PropOp33
 70
     1
102
RTVSPost2010Prop34
280
     0
102
RTVSPost2010PropOp34
 70
     1
102
RTVSPost2010Prop35
280
     0
102
RTVSPost2010PropOp35
 70
     1
102
RTVSPost2010Prop36
280
     0
102
RTVSPost2010PropOp36
 70
     1
102
RTVSPost2010Prop37
 90
       50
102
RTVSPost2010PropOp37
 70
     1
102
RTVSPost2010Prop38
140
0.0
102
RTVSPost2010PropOp38
 70
     1
102
RTVSPost2010Prop39
140
1.0
102
RTVSPost2010PropOp39
 70
     1
102
RTVSPost2010Prop40
 90
        0
102
RTVSPost2010PropOp40
 70
     1
102
RTVSPost2010Prop41ColorIndex
 90
       18
102
RTVSPost2010Prop41ColorRGB
 90
        0
102
RTVSPost2010PropOp41
 70
     1
102
RTVSPost2010Prop42
 90
       50
102
RTVSPost2010PropOp42
 70
     1
102
RTVSPost2010Prop43
 90
        3
102
RTVSPost2010PropOp43
 70
     1
102
RTVSPost2010Prop44ColorIndex
 90
        5
102
RTVSPost2010Prop44ColorRGB
 90
      255
102
RTVSPost2010PropOp44
 70
     1
102
RTVSPost2010Prop45
280
     0
102
RTVSPost2010PropOp45
 70
     1
102
RTVSPost2010Prop46
 90
       50
102
RTVSPost2010PropOp46
 70
     1
102
RTVSPost2010Prop47
 90
       50
102
RTVSPost2010PropOp47
 70
     1
102
RTVSPost2010Prop48
 90
       50
102
RTVSPost2010PropOp48
 70
     1
102
RTVSPost2010Prop49
280
     0
102
RTVSPost2010PropOp49
 70
     1
102
RTVSPost2010Prop50
 90
       50
102
RTVSPost2010PropOp50
 70
     1
102
RTVSPost2010Prop51ColorIndex
 90
      256
102
RTVSPost2010Prop51ColorRGB
 90
-16777216
102
RTVSPost2010PropOp51
 70
     0
102
RTVSPost2010Prop52
140
1.0
102
RTVSPost2010PropOp52
 70
     0
102
RTVSPost2010Prop53
 90
        2
102
RTVSPost2010PropOp53
 70
     1
102
RTVSPost2010Prop54
  1
strokes_ogs.tif
102
RTVSPost2010PropOp54
 70
     1
102
RTVSPost2010Prop55
280
     0
102
RTVSPost2010PropOp55
 70
     1
102
RTVSPost2010Prop56
140
1.0
102
RTVSPost2010PropOp56
 70
     1
102
RTVSPost2010Prop57
140
1.0
102
RTVSPost2010PropOp57
 70
     1
  0
ENDSEC
  0
EOF
